999
DXF file: E:\BT Custom\CADOUTPUT\_TOP.dxf
999
Pro/ENGINEER 2018400 by Parametric Technology Corporation
  0
SECTION
  2
HEADER
  9
$ACADVER
  1
AC1018
  9
$DWGCODEPAGE
  3
ANSI_1252
  9
$EXTMAX
 10
22.0
 20
17.0
 30
0.0
  9
$EXTMIN
 10
0.0
 20
0.0
 30
0.0
  9
$LIMMIN
 10
0.0
 20
0.0
  9
$LIMMAX
 10
22.0
 20
17.0
  9
$VIEWCTR
 10
11.0
 20
8.5
  9
$VIEWSIZE
 40
17.0
  9
$CLAYER
  8
0
  9
$LTSCALE
 40
1.21
  9
$CELTYPE
  6
BYLAYER
  9
$DIMSCALE
 40
1.0
  9
$DIMASZ
 40
0.1
  9
$DIMEXO
 40
0.0625
  9
$DIMDLI
 40
0.836
  9
$DIMEXE
 40
0.125
  9
$DIMCEN
 40
0.198
  9
$DIMLFAC
 40
1.0
  9
$DIMBLK
  1
_FILLED
  9
$DIMALT
 70
1
  9
$DIMALTD
 70
2
  9
$DIMALTTD
 70
2
  9
$DIMALTF
 40
25.4
  9
$DIMTXT
 40
0.08
  9
$DIMTOL
 70
1
  9
$DIMLIM
 70
0
  9
$DIMTFAC
 40
1.0
  9
$DIMTP
 40
0.001
  9
$DIMTM
 40
0.001
  9
$DIMGAP
 40
0.09
  9
$DIMDSEP
 70
46
  9
$AUNITS
 70
0
  9
$PDMODE
 70
3
  9
$PDSIZE
 40
0.06
  9
$HANDSEED
  5
346
  9
$TILEMODE
 70
1
  9
$MEASUREMENT
 70
0
  9
$INSUNITS
 70
1
  0
ENDSEC
  0
SECTION
  2
CLASSES
  0
CLASS
  1
ACDBDICTIONARYWDFLT
  2
AcDbDictionaryWithDefault
  3
AutoCAD 2000
 90
0
 91
1
280
0
281
0
  0
CLASS
  1
ACDBPLACEHOLDER
  2
AcDbPlaceHolder
  3
AutoCAD 2000
 90
0
 91
1
280
0
281
0
  0
CLASS
  1
LAYOUT
  2
AcDbLayout
  3
AutoCAD 2000
 90
0
 91
0
280
0
281
0
  0
ENDSEC
  0
SECTION
  2
TABLES
  0
TABLE
  2
VPORT
  5
8
100
AcDbSymbolTable
 70
2
  0
VPORT
  5
1F4
100
AcDbSymbolTableRecord
100
AcDbViewportTableRecord
  2
*ACTIVE
 70
0
 10
0.0
 20
0.0
 11
1.0
 21
1.0
 12
11.0
 22
8.5
 13
0.0
 23
0.0
 14
1.0
 24
1.0
 15
0.0
 25
0.0
 16
0.0
 26
0.0
 36
1.0
 17
0.0
 27
0.0
 37
0.0
 40
17.0
 41
1.2941176471
 42
50.0
 43
0.0
 44
0.0
 50
0.0
 51
0.0
 71
0
 72
100
 73
1
 74
1
 75
0
 76
0
 77
0
 78
0
  0
ENDTAB
  0
TABLE
  2
LTYPE
  5
5
100
AcDbSymbolTable
 70
6
  0
LTYPE
  5
14
100
AcDbSymbolTableRecord
100
AcDbLinetypeTableRecord
  2
BYBLOCK
 70
0
  3

 72
65
 73
0
 40
0.0
  0
LTYPE
  5
15
100
AcDbSymbolTableRecord
100
AcDbLinetypeTableRecord
  2
BYLAYER
 70
0
  3

 72
65
 73
0
 40
0.0
  0
LTYPE
  5
16
100
AcDbSymbolTableRecord
100
AcDbLinetypeTableRecord
  2
CONTINUOUS
 70
64
  3
Solid line
 72
65
 73
0
 40
0.0
  0
LTYPE
  5
1F5
100
AcDbSymbolTableRecord
100
AcDbLinetypeTableRecord
  2
CENTER
 70
64
  3
____ _ ____ _ ____ _ ____ _ ____ _ ____ _ ____
 72
65
 73
4
 40
0.6
 49
0.375
 74
0
 49
-0.075
 74
0
 49
0.075
 74
0
 49
-0.075
 74
0
  0
LTYPE
  5
1F6
100
AcDbSymbolTableRecord
100
AcDbLinetypeTableRecord
  2
HIDDEN
 70
64
  3
- - - - - - - - - - - - - - - - - - - -
 72
65
 73
2
 40
0.2
 49
0.1
 74
0
 49
-0.1
 74
0
  0
LTYPE
  5
1F7
100
AcDbSymbolTableRecord
100
AcDbLinetypeTableRecord
  2
PHANTOM
 70
64
  3
_____ _ _ _____ _ _ _____ _ _ _____
 72
65
 73
6
 40
0.8
 49
0.45
 74
0
 49
-0.05
 74
0
 49
0.1
 74
0
 49
-0.05
 74
0
 49
0.1
 74
0
 49
-0.05
 74
0
  0
LTYPE
  5
1F8
100
AcDbSymbolTableRecord
100
AcDbLinetypeTableRecord
  2
DOT
 70
64
  3
. . . . . . . . . . . . . . . . . . . .
 72
65
 73
2
 40
0.2
 49
0.1
 74
0
 49
-0.1
 74
0
  0
LTYPE
  5
1F9
100
AcDbSymbolTableRecord
100
AcDbLinetypeTableRecord
  2
DASHED
 70
64
  3
- - - - - - - - - - - - - - - - - - - -
 72
65
 73
2
 40
0.2
 49
0.1
 74
0
 49
-0.1
 74
0
  0
ENDTAB
  0
TABLE
  2
LAYER
  5
2
100
AcDbSymbolTable
 70
36
  0
LAYER
  5
10
100
AcDbSymbolTableRecord
100
AcDbLayerTableRecord
  2
0
 70
0
 62
7
  6
CONTINUOUS
370
-3
390
F
  0
LAYER
  5
1FA
100
AcDbSymbolTableRecord
100
AcDbLayerTableRecord
  2
DEFAULT_1
 70
0
 62
7
  6
CENTER
370
-3
390
F
  0
LAYER
  5
1FB
100
AcDbSymbolTableRecord
100
AcDbLayerTableRecord
  2
DEFAULT_2
 70
0
 62
8
  6
HIDDEN
370
-3
390
F
  0
LAYER
  5
1FC
100
AcDbSymbolTableRecord
100
AcDbLayerTableRecord
  2
DEFAULT_3
 70
0
 62
7
  6
PHANTOM
370
-3
390
F
  0
LAYER
  5
1FD
100
AcDbSymbolTableRecord
100
AcDbLayerTableRecord
  2
ALL_FEATURES
 70
0
 62
7
  6
CONTINUOUS
370
-3
390
F
  0
LAYER
  5
1FE
100
AcDbSymbolTableRecord
100
AcDbLayerTableRecord
  2
AXES_FEATURES
 70
0
 62
7
  6
CONTINUOUS
370
-3
390
F
  0
LAYER
  5
1FF
100
AcDbSymbolTableRecord
100
AcDbLayerTableRecord
  2
DEFAULT_COORDINATE_SYSTEM
 70
0
 62
7
  6
CONTINUOUS
370
-3
390
F
  0
LAYER
  5
200
100
AcDbSymbolTableRecord
100
AcDbLayerTableRecord
  2
DEFAULT_DATUM_AXES
 70
0
 62
7
  6
CONTINUOUS
370
-3
390
F
  0
LAYER
  5
201
100
AcDbSymbolTableRecord
100
AcDbLayerTableRecord
  2
DEFAULT_DATUM_PLANES
 70
0
 62
7
  6
CONTINUOUS
370
-3
390
F
  0
LAYER
  5
202
100
AcDbSymbolTableRecord
100
AcDbLayerTableRecord
  2
DIMENSIONS
 70
0
 62
7
  6
CONTINUOUS
370
-3
390
F
  0
ENDTAB
  0
TABLE
  2
STYLE
  5
3
100
AcDbSymbolTable
 70
1
  0
STYLE
  5
11
100
AcDbSymbolTableRecord
100
AcDbTextStyleTableRecord
  2
STANDARD
 70
0
 40
0.0
 41
0.8
 50
0.0
 71
0
 42
0.2
  3
txt
  4

  0
STYLE
  5
203
100
AcDbSymbolTableRecord
100
AcDbTextStyleTableRecord
  2
TEXTSTYLE_1
 70
0
 40
0.0
 41
0.8
 50
0.0
 71
0
 42
0.2
  3
gdt
  4

  0
ENDTAB
  0
TABLE
  2
VIEW
  5
6
100
AcDbSymbolTable
 70
0
  0
ENDTAB
  0
TABLE
  2
UCS
  5
7
100
AcDbSymbolTable
 70
0
  0
ENDTAB
  0
TABLE
  2
APPID
  5
9
100
AcDbSymbolTable
 70
1
  0
APPID
  5
204
100
AcDbSymbolTableRecord
100
AcDbRegAppTableRecord
  2
ACAD
 70
0
  0
ENDTAB
  0
TABLE
  2
BLOCK_RECORD
  5
1
100
AcDbSymbolTable
 70
0
  0
BLOCK_RECORD
  5
205
100
AcDbSymbolTableRecord
100
AcDbBlockTableRecord
  2
*Model_Space
  0
BLOCK_RECORD
  5
206
100
AcDbSymbolTableRecord
100
AcDbBlockTableRecord
  2
*Paper_Space
  0
BLOCK_RECORD
  5
207
100
AcDbSymbolTableRecord
100
AcDbBlockTableRecord
  2
_FILLED
  0
ENDTAB
  0
TABLE
  2
DIMSTYLE
  5
A
100
AcDbSymbolTable
 70
1
100
AcDbDimStyleTable
 71
0
  0
DIMSTYLE
105
208
100
AcDbSymbolTableRecord
100
AcDbDimStyleTableRecord
  2
STANDARD
 70
0
  3

  4

 40
1.0
 41
0.1
 42
0.0625
 43
0.38
 44
0.125
 45
0.0
 46
0.0
 47
0.001
 48
0.001
140
0.08
141
0.09
142
0.0
143
25.4
144
1.0
145
0.0
146
1.0
147
0.09
 71
1.0
 72
0.0
 73
1
 74
1
 75
0
 76
0
 77
0
 78
4
 79
1
170
1
171
2
172
0
173
0
174
0
175
0
176
0
177
0
178
0
270
2
179
3
271
3
272
3
273
2
274
2
275
0
280
0
281
0
282
0
283
1
284
4
285
0
286
0
287
3
288
0
340
11
278
46
341
207
342
207
343
207
344
207
  0
ENDTAB
  0
ENDSEC
  0
SECTION
  2
BLOCKS
  0
BLOCK
  5
20
100
AcDbEntity
  8
0
100
AcDbBlockBegin
  2
*Model_Space
 70
0
 10
0.0
 20
0.0
 30
0.0
  3
*Model_Space
  1

  0
ENDBLK
  5
21
100
AcDbEntity
  8
0
100
AcDbBlockEnd
  0
BLOCK
  5
1C
100
AcDbEntity
  8
0
100
AcDbBlockBegin
  2
*Paper_Space
 70
0
 10
0.0
 20
0.0
 30
0.0
  3
*Paper_Space
  1

  0
ENDBLK
  5
1D
100
AcDbEntity
  8
0
100
AcDbBlockEnd
  0
BLOCK
  5
209
100
AcDbEntity
  8
0
100
AcDbBlockBegin
  2
_FILLED
 70
64
 10
0.0
 20
0.0
  3
_FILLED
  1

  0
SOLID
  5
20A
100
AcDbEntity
  8
0
  6
BYBLOCK
 62
0
100
AcDbTrace
 10
0.0
 20
0.0
 11
-1.0
 21
0.2
 12
-1.0
 22
-0.2
 13
-1.0
 23
-0.2
  0
ENDBLK
  5
20B
100
AcDbEntity
  8
0
  6
BYBLOCK
 62
0
100
AcDbBlockEnd
  0
ENDSEC
  0
SECTION
  2
ENTITIES
  0
LINE
  5
20C
100
AcDbEntity
  8
0
100
AcDbLine
 62
7
  6
CONTINUOUS
 10
9.1423183383
 20
5.3277726261
 11
9.1423183383
 21
5.1983375589
  0
LINE
  5
20D
100
AcDbEntity
  8
0
100
AcDbLine
 62
7
  6
CONTINUOUS
 10
9.4273183383
 20
5.4851550294
 11
9.4273183383
 21
5.4611215783
  0
LINE
  5
20E
100
AcDbEntity
  8
0
100
AcDbLine
 62
7
  6
CONTINUOUS
 10
12.0603183383
 20
10.5314728547
 11
12.2348183229
 21
10.701619925
  0
LINE
  5
20F
100
AcDbEntity
  8
0
100
AcDbLine
 62
7
  6
CONTINUOUS
 10
9.6473190087
 20
10.8532409815
 11
9.6473190087
 21
10.8192595446
  0
LINE
  5
210
100
AcDbEntity
  8
0
100
AcDbLine
 62
7
  6
CONTINUOUS
 10
9.8573183383
 20
11.6072409815
 11
9.8573183383
 21
11.3750677343
  0
LINE
  5
211
100
AcDbEntity
  8
0
100
AcDbLine
 62
7
  6
CONTINUOUS
 10
9.8598183383
 20
10.8532409815
 11
9.8598183383
 21
10.7016199399
  0
LINE
  5
212
100
AcDbEntity
  8
0
100
AcDbLine
 62
7
  6
CONTINUOUS
 10
10.5198183383
 20
8.7762409815
 11
10.6410683383
 21
8.8156279241
  0
LINE
  5
213
100
AcDbEntity
  8
0
100
AcDbLine
 62
7
  6
CONTINUOUS
 10
10.2973183383
 20
7.1072409815
 11
10.2973183383
 21
6.5863397486
  0
LINE
  5
214
100
AcDbEntity
  8
0
100
AcDbLine
 62
7
  6
CONTINUOUS
 10
10.4638199787
 20
8.3724510278
 11
10.4342334527
 21
8.3314141388
  0
LINE
  5
215
100
AcDbEntity
  8
0
100
AcDbLine
 62
7
  6
CONTINUOUS
 10
10.5198183383
 20
8.1762409815
 11
10.5466651258
 21
8.1917409815
  0
LINE
  5
216
100
AcDbEntity
  8
0
100
AcDbLine
 62
7
  6
CONTINUOUS
 10
11.0466176862
 20
6.5342425911
 11
11.048021745
 21
6.5342425945
  0
LINE
  5
217
100
AcDbEntity
  8
0
100
AcDbLine
 62
7
  6
CONTINUOUS
 10
10.4723183383
 20
6.6208627351
 11
10.4723183383
 21
5.9561823608
  0
LINE
  5
218
100
AcDbEntity
  8
0
100
AcDbLine
 62
7
  6
CONTINUOUS
 10
10.5198183383
 20
8.1049568844
 11
10.5198183383
 21
8.1762409815
  0
LINE
  5
219
100
AcDbEntity
  8
0
100
AcDbLine
 62
7
  6
CONTINUOUS
 10
10.5948183383
 20
7.1370506854
 11
10.5948183383
 21
6.909271898
  0
LINE
  5
21A
100
AcDbEntity
  8
0
100
AcDbLine
 62
7
  6
CONTINUOUS
 10
10.6173183383
 20
9.2062409815
 11
10.6173183383
 21
9.3262409815
  0
LINE
  5
21B
100
AcDbEntity
  8
0
100
AcDbLine
 62
7
  6
CONTINUOUS
 10
10.6410683383
 20
11.1903838792
 11
10.6410683383
 21
7.3425012461
  0
LINE
  5
21C
100
AcDbEntity
  8
0
100
AcDbLine
 62
7
  6
CONTINUOUS
 10
10.6410683383
 20
7.2603898439
 11
10.6410683383
 21
7.2429926138
  0
LINE
  5
21D
100
AcDbEntity
  8
0
100
AcDbLine
 62
7
  6
CONTINUOUS
 10
10.6410683383
 20
7.2091612713
 11
10.6410683383
 21
7.1932751954
  0
LINE
  5
21E
100
AcDbEntity
  8
0
100
AcDbLine
 62
7
  6
CONTINUOUS
 10
10.6410683383
 20
7.1578614209
 11
10.6410683383
 21
7.1435459954
  0
LINE
  5
21F
100
AcDbEntity
  8
0
100
AcDbLine
 62
7
  6
CONTINUOUS
 10
10.6410685839
 20
7.3119853632
 11
10.6410683383
 21
7.2927813287
  0
LINE
  5
220
100
AcDbEntity
  8
0
100
AcDbLine
 62
7
  6
CONTINUOUS
 10
11.5479715508
 20
8.1917409815
 11
11.5748183383
 21
8.2072409815
  0
LINE
  5
221
100
AcDbEntity
  8
0
100
AcDbLine
 62
7
  6
CONTINUOUS
 10
11.5018282944
 20
8.0662409815
 11
11.5605524905
 21
8.0853216294
  0
LINE
  5
222
100
AcDbEntity
  8
0
100
AcDbLine
 62
9
  6
CONTINUOUS
 10
11.7973183383
 20
7.1072409815
 11
11.4998183383
 21
7.1072409815
  0
LINE
  5
223
100
AcDbEntity
  8
0
100
AcDbLine
 62
9
  6
CONTINUOUS
 10
10.5948183383
 20
7.1072409815
 11
10.2973183383
 21
7.1072409815
  0
LINE
  5
224
100
AcDbEntity
  8
0
100
AcDbLine
 62
7
  6
CONTINUOUS
 10
11.6308166979
 20
8.6120309352
 11
11.6604032238
 21
8.6530678242
  0
LINE
  5
225
100
AcDbEntity
  8
0
100
AcDbLine
 62
9
  6
CONTINUOUS
 10
10.6410685839
 20
7.3119853632
 11
10.6434073427
 21
7.3129383397
  0
LINE
  5
226
100
AcDbEntity
  8
0
100
AcDbLine
 62
7
  6
CONTINUOUS
 10
10.534084186
 20
8.0853216294
 11
10.5198183383
 21
8.1049568844
  0
LINE
  5
227
100
AcDbEntity
  8
0
100
AcDbLine
 62
7
  6
CONTINUOUS
 10
10.5473183383
 20
9.3262409815
 11
10.4718083581
 21
9.7190491317
  0
LINE
  5
228
100
AcDbEntity
  8
0
100
AcDbLine
 62
7
  6
CONTINUOUS
 10
11.1568904109
 20
6.7382189364
 11
11.1568904109
 21
6.5988284967
  0
LINE
  5
229
100
AcDbEntity
  8
0
100
AcDbLine
 62
7
  6
CONTINUOUS
 10
11.1770814628
 20
6.2247651893
 11
11.1770814628
 21
5.9772778159
  0
LINE
  5
22A
100
AcDbEntity
  8
0
100
AcDbLine
 62
7
  6
CONTINUOUS
 10
11.3727462656
 20
6.82634172
 11
11.3727462656
 21
6.6869512803
  0
LINE
  5
22B
100
AcDbEntity
  8
0
100
AcDbLine
 62
7
  6
CONTINUOUS
 10
11.4535683383
 20
7.2860343074
 11
11.4535683383
 21
7.2678936138
  0
LINE
  5
22C
100
AcDbEntity
  8
0
100
AcDbLine
 62
7
  6
CONTINUOUS
 10
11.4535683383
 20
7.2347689064
 11
11.4535683383
 21
7.2182144969
  0
LINE
  5
22D
100
AcDbEntity
  8
0
100
AcDbLine
 62
7
  6
CONTINUOUS
 10
11.4535683383
 20
7.1834307389
 11
11.4535683383
 21
7.1684124525
  0
LINE
  5
22E
100
AcDbEntity
  8
0
100
AcDbLine
 62
7
  6
CONTINUOUS
 10
11.4675552138
 20
6.3433506016
 11
11.4675552138
 21
6.0958632282
  0
LINE
  5
22F
100
AcDbEntity
  8
0
100
AcDbLine
 62
7
  6
CONTINUOUS
 10
11.4535683383
 20
11.1903838792
 11
11.4535680927
 21
7.3421853913
  0
LINE
  5
230
100
AcDbEntity
  8
0
100
AcDbLine
 62
7
  6
CONTINUOUS
 10
11.5473183383
 20
9.3262409815
 11
11.6228283185
 21
9.7190491317
  0
LINE
  5
231
100
AcDbEntity
  8
0
100
AcDbLine
 62
7
  6
CONTINUOUS
 10
11.5605524905
 20
8.0853216294
 11
11.5748183383
 21
8.1049568844
  0
LINE
  5
232
100
AcDbEntity
  8
0
100
AcDbLine
 62
7
  6
CONTINUOUS
 10
10.5928083822
 20
8.0662409815
 11
10.534084186
 21
8.0853216294
  0
LINE
  5
233
100
AcDbEntity
  8
0
100
AcDbLine
 62
7
  6
CONTINUOUS
 10
10.5466651258
 20
8.1917409815
 11
10.5198183383
 21
8.2072409815
  0
LINE
  5
234
100
AcDbEntity
  8
0
100
AcDbLine
 62
7
  6
CONTINUOUS
 10
10.4638199787
 20
8.6120309352
 11
10.4342334527
 21
8.6530678242
  0
LINE
  5
235
100
AcDbEntity
  8
0
100
AcDbLine
 62
7
  6
CONTINUOUS
 10
11.4773183383
 20
9.2062409815
 11
11.4773183383
 21
9.3262409815
  0
LINE
  5
236
100
AcDbEntity
  8
0
100
AcDbLine
 62
7
  6
CONTINUOUS
 10
11.4998183383
 20
7.1370506854
 11
11.4998183383
 21
6.909271898
  0
LINE
  5
237
100
AcDbEntity
  8
0
100
AcDbLine
 62
7
  6
CONTINUOUS
 10
11.5748183383
 20
8.1049568844
 11
11.5748183383
 21
8.1762409815
  0
LINE
  5
238
100
AcDbEntity
  8
0
100
AcDbLine
 62
7
  6
CONTINUOUS
 10
11.6223183383
 20
6.6208627351
 11
11.6223183383
 21
5.9561823608
  0
LINE
  5
239
100
AcDbEntity
  8
0
100
AcDbLine
 62
7
  6
CONTINUOUS
 10
11.7973183383
 20
7.1072409815
 11
11.7973183383
 21
6.5864710628
  0
LINE
  5
23A
100
AcDbEntity
  8
0
100
AcDbLine
 62
7
  6
CONTINUOUS
 10
10.6410683383
 20
8.0662409815
 11
10.5928083486
 21
8.0662409815
  0
LINE
  5
23B
100
AcDbEntity
  8
0
100
AcDbLine
 62
7
  6
CONTINUOUS
 10
11.4535683383
 20
8.0662409815
 11
11.5018283279
 21
8.0662409815
  0
LINE
  5
23C
100
AcDbEntity
  8
0
100
AcDbLine
 62
7
  6
CONTINUOUS
 10
10.6410683383
 20
8.0853216294
 11
10.534084186
 21
8.0853216294
  0
LINE
  5
23D
100
AcDbEntity
  8
0
100
AcDbLine
 62
7
  6
CONTINUOUS
 10
11.4535683383
 20
8.0853216294
 11
11.5605524905
 21
8.0853216294
  0
LINE
  5
23E
100
AcDbEntity
  8
0
100
AcDbLine
 62
7
  6
CONTINUOUS
 10
10.6410683383
 20
8.1049568844
 11
10.5198183383
 21
8.1049568844
  0
LINE
  5
23F
100
AcDbEntity
  8
0
100
AcDbLine
 62
7
  6
CONTINUOUS
 10
11.4535683383
 20
8.1049568844
 11
11.5748183383
 21
8.1049568844
  0
LINE
  5
240
100
AcDbEntity
  8
0
100
AcDbLine
 62
7
  6
CONTINUOUS
 10
10.6410683383
 20
8.1762409815
 11
10.5198183383
 21
8.1762409815
  0
LINE
  5
241
100
AcDbEntity
  8
0
100
AcDbLine
 62
7
  6
CONTINUOUS
 10
11.4535683383
 20
8.1762409815
 11
11.5748183383
 21
8.1762409815
  0
LINE
  5
242
100
AcDbEntity
  8
0
100
AcDbLine
 62
7
  6
CONTINUOUS
 10
10.6410683383
 20
8.1917409815
 11
10.5466651258
 21
8.1917409815
  0
LINE
  5
243
100
AcDbEntity
  8
0
100
AcDbLine
 62
7
  6
CONTINUOUS
 10
11.4535683383
 20
8.1917409815
 11
11.5479715508
 21
8.1917409815
  0
LINE
  5
244
100
AcDbEntity
  8
0
100
AcDbLine
 62
7
  6
CONTINUOUS
 10
10.6410683383
 20
8.2072409815
 11
10.5198183383
 21
8.2072409815
  0
LINE
  5
245
100
AcDbEntity
  8
0
100
AcDbLine
 62
7
  6
CONTINUOUS
 10
11.4535683383
 20
8.2072409815
 11
11.5748183383
 21
8.2072409815
  0
LINE
  5
246
100
AcDbEntity
  8
0
100
AcDbLine
 62
7
  6
CONTINUOUS
 10
10.6410683383
 20
8.2872409815
 11
10.4898183383
 21
8.2872409815
  0
LINE
  5
247
100
AcDbEntity
  8
0
100
AcDbLine
 62
7
  6
CONTINUOUS
 10
11.4535683383
 20
8.2872409815
 11
11.6048183383
 21
8.2872409815
  0
LINE
  5
248
100
AcDbEntity
  8
0
100
AcDbLine
 62
7
  6
CONTINUOUS
 10
11.5748183383
 20
8.1762409815
 11
11.5479715508
 21
8.1917409815
  0
LINE
  5
249
100
AcDbEntity
  8
0
100
AcDbLine
 62
7
  6
CONTINUOUS
 10
11.6308166979
 20
8.3724510278
 11
11.6604032238
 21
8.3314141388
  0
LINE
  5
24A
100
AcDbEntity
  8
0
100
AcDbLine
 62
7
  6
CONTINUOUS
 10
12.2348183383
 20
10.8532409815
 11
12.2348183383
 21
10.7016199399
  0
LINE
  5
24B
100
AcDbEntity
  8
0
100
AcDbLine
 62
7
  6
CONTINUOUS
 10
12.2373183383
 20
11.6072409815
 11
12.2373183383
 21
11.3750677343
  0
LINE
  5
24C
100
AcDbEntity
  8
0
100
AcDbLine
 62
7
  6
CONTINUOUS
 10
12.4473176679
 20
10.8532409815
 11
12.4473176679
 21
10.8192595446
  0
LINE
  5
24D
100
AcDbEntity
  8
0
100
AcDbLine
 62
7
  6
CONTINUOUS
 10
11.4675552138
 20
6.3433506016
 11
11.1770814628
 21
6.2247651893
  0
LINE
  5
24E
100
AcDbEntity
  8
0
100
AcDbLine
 62
7
  6
CONTINUOUS
 10
11.4675552138
 20
6.0958632282
 11
11.1770814628
 21
5.9772778159
  0
LINE
  5
24F
100
AcDbEntity
  8
0
100
AcDbLine
 62
7
  6
CONTINUOUS
 10
11.6048183383
 20
8.6972409815
 11
11.4535683383
 21
8.6972409815
  0
LINE
  5
250
100
AcDbEntity
  8
0
100
AcDbLine
 62
7
  6
CONTINUOUS
 10
10.6410683383
 20
8.6972409815
 11
10.4898183383
 21
8.6972409815
  0
LINE
  5
251
100
AcDbEntity
  8
0
100
AcDbLine
 62
7
  6
CONTINUOUS
 10
10.6410683383
 20
8.7762409815
 11
10.5198183383
 21
8.7762409815
  0
LINE
  5
252
100
AcDbEntity
  8
0
100
AcDbLine
 62
7
  6
CONTINUOUS
 10
11.4535683383
 20
8.7762409815
 11
11.5748183383
 21
8.7762409815
  0
LINE
  5
253
100
AcDbEntity
  8
0
100
AcDbLine
 62
7
  6
CONTINUOUS
 10
11.5748183383
 20
8.7762409815
 11
11.4535683383
 21
8.8156279241
  0
LINE
  5
254
100
AcDbEntity
  8
0
100
AcDbLine
 62
7
  6
CONTINUOUS
 10
10.0343183383
 20
10.5314728547
 11
9.8598183536
 21
10.701619925
  0
LINE
  5
255
100
AcDbEntity
  8
0
100
AcDbLine
 62
7
  6
CONTINUOUS
 10
12.6673183383
 20
5.4851550294
 11
12.6673183383
 21
5.4611215783
  0
LINE
  5
256
100
AcDbEntity
  8
0
100
AcDbLine
 62
7
  6
CONTINUOUS
 10
12.9523183383
 20
5.3277726261
 11
12.9523183383
 21
5.1983375589
  0
LINE
  5
257
100
AcDbEntity
  8
0
100
AcDbLine
 62
7
  6
CONTINUOUS
 10
10.6410683383
 20
9.2062409815
 11
10.6173183383
 21
9.2062409815
  0
LINE
  5
258
100
AcDbEntity
  8
0
100
AcDbLine
 62
7
  6
CONTINUOUS
 10
11.4535683383
 20
9.2062409815
 11
11.4773183383
 21
9.2062409815
  0
LINE
  5
259
100
AcDbEntity
  8
0
100
AcDbLine
 62
7
  6
CONTINUOUS
 10
11.5473183383
 20
9.3262409815
 11
11.4535683383
 21
9.3262409815
  0
LINE
  5
25A
100
AcDbEntity
  8
0
100
AcDbLine
 62
7
  6
CONTINUOUS
 10
10.6410683383
 20
9.3262409815
 11
10.5473183383
 21
9.3262409815
  0
LINE
  5
25B
100
AcDbEntity
  8
0
100
AcDbLine
 62
9
  6
CONTINUOUS
 10
11.4535683383
 20
9.3572409815
 11
10.6410683383
 21
9.3572409815
  0
LINE
  5
25C
100
AcDbEntity
  8
0
100
AcDbLine
 62
9
  6
CONTINUOUS
 10
11.9848183383
 20
9.6072409815
 11
11.6013353041
 21
9.6072409815
  0
LINE
  5
25D
100
AcDbEntity
  8
0
100
AcDbLine
 62
9
  6
CONTINUOUS
 10
10.4933013724
 20
9.6072409815
 11
10.1098183383
 21
9.6072409815
  0
LINE
  5
25E
100
AcDbEntity
  8
0
100
AcDbLine
 62
9
  6
CONTINUOUS
 10
11.6228283185
 20
9.7190491317
 11
11.4535683383
 21
9.7190491317
  0
LINE
  5
25F
100
AcDbEntity
  8
0
100
AcDbLine
 62
9
  6
CONTINUOUS
 10
10.6410683383
 20
9.7190491317
 11
10.4718083581
 21
9.7190491317
  0
LINE
  5
260
100
AcDbEntity
  8
0
100
AcDbLine
 62
9
  6
CONTINUOUS
 10
9.8626887563
 20
10.3572409817
 11
9.8598183383
 21
10.3572409815
  0
LINE
  5
261
100
AcDbEntity
  8
0
100
AcDbLine
 62
9
  6
CONTINUOUS
 10
12.23194792
 20
10.3572409817
 11
12.2348183383
 21
10.3572409815
  0
LINE
  5
262
100
AcDbEntity
  8
0
100
AcDbLine
 62
9
  6
CONTINUOUS
 10
12.0603183383
 20
10.5314728547
 11
11.4535683383
 21
10.5314728547
  0
LINE
  5
263
100
AcDbEntity
  8
0
100
AcDbLine
 62
9
  6
CONTINUOUS
 10
10.6410683383
 20
10.5314728547
 11
10.0343183383
 21
10.5314728547
  0
LINE
  5
264
100
AcDbEntity
  8
0
100
AcDbLine
 62
7
  6
CONTINUOUS
 10
13.800896524
 20
10.8532409815
 11
11.4535683383
 21
10.8532409815
  0
LINE
  5
265
100
AcDbEntity
  8
0
100
AcDbLine
 62
7
  6
CONTINUOUS
 10
10.6410683383
 20
10.8532409815
 11
8.2937401526
 21
10.8532409815
  0
LINE
  5
266
100
AcDbEntity
  8
0
100
AcDbLine
 62
7
  6
CONTINUOUS
 10
11.4945333056
 20
11.1903838792
 11
11.4978849088
 21
11.1905716878
  0
LINE
  5
267
100
AcDbEntity
  8
0
100
AcDbLine
 62
9
  6
CONTINUOUS
 10
14.0191074311
 20
10.9812409815
 11
11.4535683383
 21
10.9812409815
  0
LINE
  5
268
100
AcDbEntity
  8
0
100
AcDbLine
 62
9
  6
CONTINUOUS
 10
10.6410683383
 20
10.9812409815
 11
8.0755292454
 21
10.9812409815
  0
LINE
  5
269
100
AcDbEntity
  8
0
100
AcDbLine
 62
7
  6
CONTINUOUS
 10
7.8541822079
 20
11.1092311463
 11
10.6410683383
 21
11.1092311463
  0
LINE
  5
26A
100
AcDbEntity
  8
0
100
AcDbLine
 62
7
  6
CONTINUOUS
 10
11.4535683383
 20
11.1092311463
 11
14.2404544687
 21
11.1092311463
  0
LINE
  5
26B
100
AcDbEntity
  8
0
100
AcDbLine
 62
7
  6
CONTINUOUS
 10
10.600103371
 20
11.1903838792
 11
11.4945333056
 21
11.1903838792
  0
LINE
  5
26C
100
AcDbEntity
  8
0
100
AcDbLine
 62
9
  6
CONTINUOUS
 10
11.4978849088
 20
11.1905716878
 11
10.5967517678
 21
11.1905716878
  0
LINE
  5
26D
100
AcDbEntity
  8
0
100
AcDbLine
 62
9
  6
CONTINUOUS
 10
14.4563911441
 20
11.2332387863
 11
11.7897512665
 21
11.2332387863
  0
LINE
  5
26E
100
AcDbEntity
  8
0
100
AcDbLine
 62
9
  6
CONTINUOUS
 10
10.3048854101
 20
11.2332387863
 11
7.6382455324
 21
11.2332387863
  0
LINE
  5
26F
100
AcDbEntity
  8
0
100
AcDbLine
 62
7
  6
CONTINUOUS
 10
10.600103371
 20
11.1903838792
 11
10.5967517678
 21
11.1905716878
  0
LINE
  5
270
100
AcDbEntity
  8
0
100
AcDbLine
 62
9
  6
CONTINUOUS
 10
12.2007135508
 20
11.3268954572
 11
9.8939231258
 21
11.3268954572
  0
LINE
  5
271
100
AcDbEntity
  8
0
100
AcDbLine
 62
7
  6
CONTINUOUS
 10
14.6723183383
 20
11.3572409815
 11
12.2339591988
 21
11.3572409815
  0
LINE
  5
272
100
AcDbEntity
  8
0
100
AcDbLine
 62
7
  6
CONTINUOUS
 10
9.8606774777
 20
11.3572409815
 11
7.4223183383
 21
11.3572409815
  0
LINE
  5
273
100
AcDbEntity
  8
0
100
AcDbLine
 62
9
  6
CONTINUOUS
 10
12.2373183383
 20
11.3750677343
 11
9.8573183383
 21
11.3750677343
  0
LINE
  5
274
100
AcDbEntity
  8
0
100
AcDbLine
 62
7
  6
CONTINUOUS
 10
14.9223183383
 20
11.6072409815
 11
7.1723183383
 21
11.6072409815
  0
ARC
  5
275
100
AcDbEntity
  8
0
100
AcDbCircle
 62
7
  6
CONTINUOUS
 10
8.9585149593
 20
9.4281469329
 40
1.541
100
AcDbArc
 50
10.8813003471
 51
45.7236108955
  0
ARC
  5
276
100
AcDbEntity
  8
0
100
AcDbCircle
 62
7
  6
CONTINUOUS
 10
10.3170390474
 20
8.7245332156
 40
1.36
100
AcDbArc
 50
337.6438963444
 51
341.2440132164
  0
ARC
  5
277
100
AcDbEntity
  8
0
100
AcDbCircle
 62
7
  6
CONTINUOUS
 10
10.3190195575
 20
8.254159166
 40
1.36
100
AcDbArc
 50
19.0137742001
 51
22.5744557109
  0
ARC
  5
278
100
AcDbEntity
  8
0
100
AcDbCircle
 62
7
  6
CONTINUOUS
 10
9.9753474025
 20
4.8977699295
 40
1.077963184
100
AcDbArc
 50
176.7935540143
 51
188.3561598659
  0
ARC
  5
279
100
AcDbEntity
  8
0
100
AcDbCircle
 62
7
  6
CONTINUOUS
 10
9.5671794494
 20
8.4922409815
 40
0.9451388889
100
AcDbArc
 50
9.1393748056
 51
12.5269812287
  0
ARC
  5
27A
100
AcDbEntity
  8
0
100
AcDbCircle
 62
7
  6
CONTINUOUS
 10
9.5671794494
 20
8.4922409815
 40
0.9451388889
100
AcDbArc
 50
347.4730187713
 51
350.8601935457
  0
ARC
  5
27B
100
AcDbEntity
  8
0
100
AcDbCircle
 62
9
  6
CONTINUOUS
 10
10.2375751504
 20
5.4851572961
 40
0.8102567986
100
AcDbArc
 50
180.0001602848
 51
181.6992884081
  0
ARC
  5
27C
100
AcDbEntity
  8
0
100
AcDbCircle
 62
7
  6
CONTINUOUS
 10
11.0473119343
 20
6.4539816076
 40
0.4890075031
100
AcDbArc
 50
28.6907147506
 51
34.8913437455
  0
ARC
  5
27D
100
AcDbEntity
  8
0
100
AcDbCircle
 62
7
  6
CONTINUOUS
 10
10.2111645698
 20
8.4922409823
 40
0.2750000003
100
AcDbArc
 50
35.7906226907
 51
324.2093800978
  0
ARC
  5
27E
100
AcDbEntity
  8
0
100
AcDbCircle
 62
7
  6
CONTINUOUS
 10
10.8452033216
 20
7.3425340271
 40
0.2041349858
100
AcDbArc
 50
180.0092008348
 51
188.6073365714
  0
ARC
  5
27F
100
AcDbEntity
  8
0
100
AcDbCircle
 62
7
  6
CONTINUOUS
 10
10.8333025384
 20
7.1578486082
 40
0.1922341949
100
AcDbArc
 50
174.6537646446
 51
179.9961811476
  0
ARC
  5
280
100
AcDbEntity
  8
0
100
AcDbCircle
 62
7
  6
CONTINUOUS
 10
10.8332655136
 20
7.2604011171
 40
0.1921971576
100
AcDbArc
 50
180.0033606538
 51
185.1717968078
  0
ARC
  5
281
100
AcDbEntity
  8
0
100
AcDbCircle
 62
7
  6
CONTINUOUS
 10
10.8331798061
 20
7.2091695426
 40
0.1921114499
100
AcDbArc
 50
180.0024668513
 51
184.7243875286
  0
ARC
  5
282
100
AcDbEntity
  8
0
100
AcDbCircle
 62
7
  6
CONTINUOUS
 10
10.8330513283
 20
7.2091590831
 40
0.191982972
100
AcDbArc
 50
174.9440245996
 51
179.9993469512
  0
ARC
  5
283
100
AcDbEntity
  8
0
100
AcDbCircle
 62
7
  6
CONTINUOUS
 10
10.8330391509
 20
7.3116753407
 40
0.1919708174
100
AcDbArc
 50
175.5296595598
 51
179.9074703649
  0
ARC
  5
284
100
AcDbEntity
  8
0
100
AcDbCircle
 62
7
  6
CONTINUOUS
 10
10.8330372635
 20
7.2603879395
 40
0.1919689072
100
AcDbArc
 50
175.1505210555
 51
179.9994316116
  0
ARC
  5
285
100
AcDbEntity
  8
0
100
AcDbCircle
 62
7
  6
CONTINUOUS
 10
10.8329782668
 20
7.1578625701
 40
0.1919099229
100
AcDbArc
 50
180.0003430902
 51
184.2668099225
  0
ARC
  5
286
100
AcDbEntity
  8
0
100
AcDbCircle
 62
7
  6
CONTINUOUS
 10
10.6598183383
 20
8.0714413285
 40
0.03
100
AcDbArc
 50
190.0002194065
 51
231.2345726035
  0
ARC
  5
287
100
AcDbEntity
  8
0
100
AcDbCircle
 62
7
  6
CONTINUOUS
 10
10.9951444261
 20
15.6624003973
 40
4.5
100
AcDbArc
 50
276.4144817261
 51
285.5395954904
  0
ARC
  5
288
100
AcDbEntity
  8
0
100
AcDbCircle
 62
7
  6
CONTINUOUS
 10
10.7120942598
 20
10.8196361084
 40
1.0647753177
100
AcDbArc
 50
178.1910057516
 51
180.0202629743
  0
ARC
  5
289
100
AcDbEntity
  8
0
100
AcDbCircle
 62
7
  6
CONTINUOUS
 10
7.8541822079
 20
11.3592421237
 40
0.2500109774
100
AcDbArc
 50
210.2644101313
 51
270.0
  0
ARC
  5
28A
100
AcDbEntity
  8
0
100
AcDbCircle
 62
7
  6
CONTINUOUS
 10
7.4223183383
 20
11.6072409815
 40
0.25
100
AcDbArc
 50
180.0
 51
270.0
  0
ARC
  5
28B
100
AcDbEntity
  8
0
100
AcDbCircle
 62
7
  6
CONTINUOUS
 10
7.4223183383
 20
11.1072409815
 40
0.25
100
AcDbArc
 50
30.2644101313
 51
90.0
  0
ARC
  5
28C
100
AcDbEntity
  8
0
100
AcDbCircle
 62
7
  6
CONTINUOUS
 10
8.2937401526
 20
11.1032409815
 40
0.25
100
AcDbArc
 50
209.2092119338
 51
270.0
  0
ARC
  5
28D
100
AcDbEntity
  8
0
100
AcDbCircle
 62
7
  6
CONTINUOUS
 10
7.8573183383
 20
10.8592409815
 40
0.25
100
AcDbArc
 50
29.2092119338
 51
89.9304908545
  0
ARC
  5
28E
100
AcDbEntity
  8
0
100
AcDbCircle
 62
7
  6
CONTINUOUS
 10
9.9073183383
 20
11.3750677343
 40
0.05
100
AcDbArc
 50
180.0
 51
254.4604045097
  0
ARC
  5
28F
100
AcDbEntity
  8
0
100
AcDbCircle
 62
9
  6
CONTINUOUS
 10
11.0608183914
 20
6.5757784374
 40
2.5142532504
100
AcDbArc
 50
278.9560144826
 51
280.9075689957
  0
ARC
  5
290
100
AcDbEntity
  8
0
100
AcDbCircle
 62
7
  6
CONTINUOUS
 10
13.1361217173
 20
9.4281469329
 40
1.541
100
AcDbArc
 50
134.2763891045
 51
169.1186996529
  0
ARC
  5
291
100
AcDbEntity
  8
0
100
AcDbCircle
 62
7
  6
CONTINUOUS
 10
11.7775976292
 20
8.7245332156
 40
1.36
100
AcDbArc
 50
198.7559867836
 51
202.3561036556
  0
ARC
  5
292
100
AcDbEntity
  8
0
100
AcDbCircle
 62
7
  6
CONTINUOUS
 10
11.7756171191
 20
8.254159166
 40
1.36
100
AcDbArc
 50
157.4255442891
 51
160.9862257999
  0
ARC
  5
293
100
AcDbEntity
  8
0
100
AcDbCircle
 62
7
  6
CONTINUOUS
 10
12.1192892287
 20
4.8977699302
 40
1.0779632293
100
AcDbArc
 50
351.6437880084
 51
3.2064458152
  0
ARC
  5
294
100
AcDbEntity
  8
0
100
AcDbCircle
 62
7
  6
CONTINUOUS
 10
12.5274572272
 20
8.4922409815
 40
0.9451388889
100
AcDbArc
 50
167.4730187713
 51
170.854525381
  0
ARC
  5
295
100
AcDbEntity
  8
0
100
AcDbCircle
 62
7
  6
CONTINUOUS
 10
12.5274572272
 20
8.4922409815
 40
0.9451388889
100
AcDbArc
 50
189.144099111
 51
192.5269812287
  0
ARC
  5
296
100
AcDbEntity
  8
0
100
AcDbCircle
 62
7
  6
CONTINUOUS
 10
11.0760894575
 20
6.8458767559
 40
0.5621837588
100
AcDbArc
 50
291.1903042328
 51
292.206926954
  0
ARC
  5
297
100
AcDbEntity
  8
0
100
AcDbCircle
 62
7
  6
CONTINUOUS
 10
11.0782911973
 20
6.8141295102
 40
0.5299338361
100
AcDbArc
 50
292.2054328903
 51
293.283363908
  0
ARC
  5
298
100
AcDbEntity
  8
0
100
AcDbCircle
 62
7
  6
CONTINUOUS
 10
11.0473251083
 20
6.4539813567
 40
0.4890079446
100
AcDbArc
 50
145.1073670393
 51
151.3092800631
  0
ARC
  5
299
100
AcDbEntity
  8
0
100
AcDbCircle
 62
7
  6
CONTINUOUS
 10
11.8834720913
 20
8.4922409815
 40
0.275
100
AcDbArc
 50
215.7906204018
 51
144.2093802207
  0
ARC
  5
29A
100
AcDbEntity
  8
0
100
AcDbCircle
 62
7
  6
CONTINUOUS
 10
11.2378768133
 20
7.2860093787
 40
0.2156915083
100
AcDbArc
 50
0.0066220022
 51
7.7980435934
  0
ARC
  5
29B
100
AcDbEntity
  8
0
100
AcDbCircle
 62
7
  6
CONTINUOUS
 10
11.2380041227
 20
7.2679286399
 40
0.2155642004
100
AcDbArc
 50
351.2741570036
 51
359.9906902416
  0
ARC
  5
29C
100
AcDbEntity
  8
0
100
AcDbCircle
 62
7
  6
CONTINUOUS
 10
11.2383009338
 20
7.1834222117
 40
0.2152673866
100
AcDbArc
 50
0.0022695996
 51
4.6409603701
  0
ARC
  5
29D
100
AcDbEntity
  8
0
100
AcDbCircle
 62
7
  6
CONTINUOUS
 10
11.2384121189
 20
7.234761759
 40
0.2151562014
100
AcDbArc
 50
0.0019033294
 51
4.420518249
  0
ARC
  5
29E
100
AcDbEntity
  8
0
100
AcDbCircle
 62
7
  6
CONTINUOUS
 10
11.2384994876
 20
7.2860362994
 40
0.2150688326
100
AcDbArc
 50
355.1813295137
 51
359.9994693146
  0
ARC
  5
29F
100
AcDbEntity
  8
0
100
AcDbCircle
 62
7
  6
CONTINUOUS
 10
11.2385269772
 20
7.1834317544
 40
0.2150413431
100
AcDbArc
 50
356.0096767893
 51
359.9997294241
  0
ARC
  5
2A0
100
AcDbEntity
  8
0
100
AcDbCircle
 62
7
  6
CONTINUOUS
 10
11.2385616154
 20
7.2347703515
 40
0.2150067048
100
AcDbArc
 50
355.6012645904
 51
359.9996148977
  0
ARC
  5
2A1
100
AcDbEntity
  8
0
100
AcDbCircle
 62
7
  6
CONTINUOUS
 10
11.6867780029
 20
8.5822144183
 40
0.1060265632
100
AcDbArc
 50
87.9271087888
 51
89.9996149721
  0
ARC
  5
2A2
100
AcDbEntity
  8
0
100
AcDbCircle
 62
7
  6
CONTINUOUS
 10
11.6867780091
 20
8.4022673215
 40
0.10602634
100
AcDbArc
 50
270.0003816531
 51
272.0670476659
  0
ARC
  5
2A3
100
AcDbEntity
  8
0
100
AcDbCircle
 62
7
  6
CONTINUOUS
 10
11.4348183383
 20
8.0714413285
 40
0.03
100
AcDbArc
 50
308.7654273966
 51
349.9997805935
  0
ARC
  5
2A4
100
AcDbEntity
  8
0
100
AcDbCircle
 62
7
  6
CONTINUOUS
 10
11.0994922504
 20
15.6624003973
 40
4.5
100
AcDbArc
 50
254.4604045096
 51
263.5855182739
  0
ARC
  5
2A5
100
AcDbEntity
  8
0
100
AcDbCircle
 62
7
  6
CONTINUOUS
 10
11.4294673848
 20
10.8203686443
 40
1.0178508874
100
AcDbArc
 50
359.9375677258
 51
1.8511858735
  0
ARC
  5
2A6
100
AcDbEntity
  8
0
100
AcDbCircle
 62
7
  6
CONTINUOUS
 10
14.2404544687
 20
11.3592421237
 40
0.2500109774
100
AcDbArc
 50
270.0
 51
329.7355898687
  0
ARC
  5
2A7
100
AcDbEntity
  8
0
100
AcDbCircle
 62
7
  6
CONTINUOUS
 10
14.6723183383
 20
11.6072409815
 40
0.25
100
AcDbArc
 50
270.0
 51
360.0
  0
ARC
  5
2A8
100
AcDbEntity
  8
0
100
AcDbCircle
 62
7
  6
CONTINUOUS
 10
14.6723183383
 20
11.1072409815
 40
0.25
100
AcDbArc
 50
90.0
 51
149.7355898687
  0
ARC
  5
2A9
100
AcDbEntity
  8
0
100
AcDbCircle
 62
7
  6
CONTINUOUS
 10
13.800896524
 20
11.1032409815
 40
0.25
100
AcDbArc
 50
270.0
 51
330.7907880662
  0
ARC
  5
2AA
100
AcDbEntity
  8
0
100
AcDbCircle
 62
7
  6
CONTINUOUS
 10
14.2373183383
 20
10.8592409815
 40
0.25
100
AcDbArc
 50
90.0695091455
 51
150.7907880662
  0
ARC
  5
2AB
100
AcDbEntity
  8
0
100
AcDbCircle
 62
7
  6
CONTINUOUS
 10
12.1873183383
 20
11.3750677343
 40
0.05
100
AcDbArc
 50
285.5395954903
 51
360.0
  0
SPLINE
  5
2AC
100
AcDbEntity
  8
0
100
AcDbSpline
 62
7
  6
CONTINUOUS
 70
0
 71
3
 72
28
 73
24
 74
0
 42
0.0000001
 43
0.0000001
 44
0.0000000001
 40
0.0
 40
0.0
 40
0.0
 40
0.0
 40
0.0253211382
 40
0.0507083216
 40
0.0762264609
 40
0.1019382592
 40
0.1279032084
 40
0.1541767171
 40
0.1808094199
 40
0.2078466368
 40
0.235327962
 40
0.2632870111
 40
0.3207201334
 40
0.3803188018
 40
0.4421387028
 40
0.506150943
 40
0.5722515959
 40
0.6402720001
 40
0.7099889654
 40
0.7811348451
 40
0.8534069626
 40
0.9264767801
 40
1.0
 40
1.0
 40
1.0
 40
1.0
 10
10.6410683386
 20
7.1435459954
 30
0.0
 10
10.641068343
 20
7.1389742189
 30
0.0
 10
10.6413957008
 20
7.1298153898
 30
0.0
 10
10.6428669414
 20
7.1161203529
 30
0.0
 10
10.645314827
 20
7.1024935599
 30
0.0
 10
10.6487331635
 20
7.0889701158
 30
0.0
 10
10.6531133531
 20
7.0755836177
 30
0.0
 10
10.6584444184
 20
7.0623675535
 30
0.0
 10
10.6647130664
 20
7.0493547553
 30
0.0
 10
10.6719036771
 20
7.0365776091
 30
0.0
 10
10.679998872
 20
7.0240673935
 30
0.0
 10
10.6920775249
 20
7.0076404754
 30
0.0
 10
10.7094039237
 20
6.9879366261
 30
0.0
 10
10.7332430012
 20
6.966072005
 30
0.0
 10
10.7600881183
 20
6.9459787841
 30
0.0
 10
10.7896785797
 20
6.9278537529
 30
0.0
 10
10.8217314355
 20
6.9118727249
 30
0.0
 10
10.8559401131
 20
6.8981929155
 30
0.0
 10
10.8919780579
 20
6.8869503692
 30
0.0
 10
10.929500937
 20
6.8782585782
 30
0.0
 10
10.9681509435
 20
6.8722071866
 30
0.0
 10
11.0075563623
 20
6.8688609685
 30
0.0
 10
11.0340461089
 20
6.8684604634
 30
0.0
 10
11.0473183383
 20
6.8687190447
 30
0.0
  0
SPLINE
  5
2AD
100
AcDbEntity
  8
0
100
AcDbSpline
 62
7
  6
CONTINUOUS
 70
0
 71
3
 72
15
 73
11
 74
0
 42
0.0000001
 43
0.0000001
 44
0.0000000001
 40
0.0
 40
0.0
 40
0.0
 40
0.0
 40
0.1196855434
 40
0.2399227037
 40
0.3612465555
 40
0.4841601983
 40
0.6091213461
 40
0.7365327673
 40
0.866734153
 40
1.0
 40
1.0
 40
1.0
 40
1.0
 10
10.6410683474
 20
7.1932751954
 30
0.0
 10
10.6410683296
 20
7.1871869258
 30
0.0
 10
10.6416501541
 20
7.1749744362
 30
0.0
 10
10.6442621426
 20
7.1567586623
 30
0.0
 10
10.648601903
 20
7.1387056977
 30
0.0
 10
10.6546493569
 20
7.120898448
 30
0.0
 10
10.6623767985
 20
7.1034154747
 30
0.0
 10
10.6717496384
 20
7.0863337848
 30
0.0
 10
10.6827252345
 20
7.0697292844
 30
0.0
 10
10.6909807
 20
7.0591517548
 30
0.0
 10
10.6953467171
 20
7.0539658238
 30
0.0
  0
SPLINE
  5
2AE
100
AcDbEntity
  8
0
100
AcDbSpline
 62
7
  6
CONTINUOUS
 70
0
 71
3
 72
28
 73
24
 74
0
 42
0.0000001
 43
0.0000001
 44
0.0000000001
 40
0.0
 40
0.0
 40
0.0
 40
0.0
 40
0.0253216807
 40
0.0507093253
 40
0.0762278503
 40
0.1019399637
 40
0.1279051484
 40
0.1541788173
 40
0.1808116222
 40
0.2078488974
 40
0.2353302243
 40
0.263289215
 40
0.3207221258
 40
0.3803204804
 40
0.4421399893
 40
0.5061518347
 40
0.5722520846
 40
0.6402721538
 40
0.7099888402
 40
0.7811345565
 40
0.8534066252
 40
0.926476498
 40
1.0
 40
1.0
 40
1.0
 40
1.0
 10
10.6410683563
 20
7.2429926138
 30
0.0
 10
10.6410683563
 20
7.2384207606
 30
0.0
 10
10.6413957086
 20
7.2292617929
 30
0.0
 10
10.6428669194
 20
7.2155665645
 30
0.0
 10
10.6453148213
 20
7.2019396255
 30
0.0
 10
10.6487331877
 20
7.1884160813
 30
0.0
 10
10.6531133841
 20
7.1750295199
 30
0.0
 10
10.6584444264
 20
7.1618134204
 30
0.0
 10
10.6647130808
 20
7.1488006342
 30
0.0
 10
10.6719037202
 20
7.1360235478
 30
0.0
 10
10.6799989368
 20
7.1235134287
 30
0.0
 10
10.6920775672
 20
7.1070866713
 30
0.0
 10
10.7094039831
 20
7.0873831319
 30
0.0
 10
10.7332430921
 20
7.06551901
 30
0.0
 10
10.7600882111
 20
7.0454263761
 30
0.0
 10
10.7896787043
 20
7.0273021112
 30
0.0
 10
10.8217315519
 20
7.0113218928
 30
0.0
 10
10.8559402427
 20
6.9976430641
 30
0.0
 10
10.8919781753
 20
6.9864015334
 30
0.0
 10
10.929501049
 20
6.9777108936
 30
0.0
 10
10.9681510317
 20
6.9716607002
 30
0.0
 10
11.0075564296
 20
6.9683157678
 30
0.0
 10
11.0340461285
 20
6.9679161574
 30
0.0
 10
11.0473183383
 20
6.9681751956
 30
0.0
  0
SPLINE
  5
2AF
100
AcDbEntity
  8
0
100
AcDbSpline
 62
7
  6
CONTINUOUS
 70
0
 71
3
 72
14
 73
10
 74
0
 42
0.0000001
 43
0.0000001
 44
0.0000000001
 40
0.0
 40
0.0
 40
0.0
 40
0.0
 40
0.2619117617
 40
0.3896652674
 40
0.5153052767
 40
0.638960538
 40
0.7608103424
 40
0.8810740254
 40
1.0
 40
1.0
 40
1.0
 40
1.0
 10
10.5677667516
 20
8.3766799183
 30
0.0
 10
10.5720976443
 20
8.3687332969
 30
0.0
 10
10.5793506788
 20
8.3573166489
 30
0.0
 10
10.5905425631
 20
8.3434508318
 30
0.0
 10
10.5995068053
 20
8.3339757021
 30
0.0
 10
10.609071248
 20
8.3254095183
 30
0.0
 10
10.6191958106
 20
8.3178158398
 30
0.0
 10
10.6298299122
 20
8.3112600683
 30
0.0
 10
10.6372595685
 20
8.307604137
 30
0.0
 10
10.6410322008
 20
8.3059749085
 30
0.0
  0
SPLINE
  5
2B0
100
AcDbEntity
  8
0
100
AcDbSpline
 62
7
  6
CONTINUOUS
 70
0
 71
3
 72
14
 73
10
 74
0
 42
0.0000001
 43
0.0000001
 44
0.0000000001
 40
0.0
 40
0.0
 40
0.0
 40
0.0
 40
0.1189278804
 40
0.2391931268
 40
0.3610439985
 40
0.4846997102
 40
0.6103394781
 40
0.7380920376
 40
1.0
 40
1.0
 40
1.0
 40
1.0
 10
10.6410316025
 20
8.6785067954
 30
0.0
 10
10.6372600164
 20
8.6768779956
 30
0.0
 10
10.6298323917
 20
8.6732231425
 30
0.0
 10
10.6192010379
 20
8.6666695614
 30
0.0
 10
10.6090789136
 20
8.6590786085
 30
0.0
 10
10.599516566
 20
8.650515632
 30
0.0
 10
10.59055405
 20
8.6410441403
 30
0.0
 10
10.5793639847
 20
8.6271837501
 30
0.0
 10
10.572111628
 20
8.6157715589
 30
0.0
 10
10.5677808992
 20
8.6078279983
 30
0.0
  0
SPLINE
  5
2B1
100
AcDbEntity
  8
0
100
AcDbSpline
 62
7
  6
CONTINUOUS
 70
0
 71
3
 72
24
 73
20
 74
0
 42
0.0000001
 43
0.0000001
 44
0.0000000001
 40
0.0
 40
0.0
 40
0.0
 40
0.0
 40
0.0632813726
 40
0.1320640794
 40
0.2050654379
 40
0.2810782689
 40
0.3589374799
 40
0.4375169758
 40
0.5922891023
 40
0.6662780525
 40
0.7364038259
 40
0.8014027966
 40
0.8599464124
 40
0.9106116217
 40
0.9325271401
 40
0.9519039695
 40
0.9822366892
 40
0.992793101
 40
1.0
 40
1.0
 40
1.0
 40
1.0
 10
10.5238804233
 20
8.6072962048
 30
0.0
 10
10.5249415097
 20
8.6069174304
 30
0.0
 10
10.5271819901
 20
8.6061985834
 30
0.0
 10
10.5307208324
 20
8.6052920434
 30
0.0
 10
10.534531336
 20
8.6045605012
 30
0.0
 10
10.5385389463
 20
8.6040368832
 30
0.0
 10
10.5426704555
 20
8.6037520881
 30
0.0
 10
10.5482134959
 20
8.60370292
 30
0.0
 10
10.5536833768
 20
8.6041487605
 30
0.0
 10
10.5589284059
 20
8.6050617543
 30
0.0
 10
10.5625528495
 20
8.6059234951
 30
0.0
 10
10.5658558621
 20
8.6069204051
 30
0.0
 10
10.5687667684
 20
8.6079965162
 30
0.0
 10
10.5709059058
 20
8.6089353902
 30
0.0
 10
10.5723721779
 20
8.6096643287
 30
0.0
 10
10.5734967141
 20
8.6102658916
 30
0.0
 10
10.574421675
 20
8.6108112611
 30
0.0
 10
10.5751377831
 20
8.611280965
 30
0.0
 10
10.5753969482
 20
8.6114623229
 30
0.0
 10
10.5755006994
 20
8.6115378191
 30
0.0
  0
SPLINE
  5
2B2
100
AcDbEntity
  8
0
100
AcDbSpline
 62
7
  6
CONTINUOUS
 70
0
 71
3
 72
26
 73
22
 74
0
 42
0.0000001
 43
0.0000001
 44
0.0000000001
 40
0.0
 40
0.0
 40
0.0
 40
0.0
 40
0.1415248423
 40
0.2115474966
 40
0.2806562685
 40
0.348594852
 40
0.41514782
 40
0.4801499641
 40
0.5434951037
 40
0.6051428243
 40
0.6651232421
 40
0.7235376969
 40
0.7805556033
 40
0.8086241637
 40
0.8364342096
 40
0.8640216829
 40
0.8914245317
 40
0.9186825251
 40
0.9458365412
 40
0.9729282791
 40
1.0
 40
1.0
 40
1.0
 40
1.0
 10
10.5511371818
 20
8.4922409815
 30
0.0
 10
10.5511371818
 20
8.5050734403
 30
0.0
 10
10.5497734823
 20
8.5242942786
 30
0.0
 10
10.5452151625
 20
8.5493466797
 30
0.0
 10
10.5404842876
 20
8.5675364693
 30
0.0
 10
10.5344698627
 20
8.5850100257
 30
0.0
 10
10.5272202742
 20
8.6016048012
 30
0.0
 10
10.5187928197
 20
8.6171633818
 30
0.0
 10
10.5092524282
 20
8.6315372781
 30
0.0
 10
10.4986717064
 20
8.6445856155
 30
0.0
 10
10.4871306879
 20
8.656174747
 30
0.0
 10
10.4747214346
 20
8.6661760674
 30
0.0
 10
10.4636796613
 20
8.6731247954
 30
0.0
 10
10.4545401219
 20
8.6777481583
 30
0.0
 10
10.4475785774
 20
8.6807306382
 30
0.0
 10
10.4404945698
 20
8.6832334016
 30
0.0
 10
10.43330787
 20
8.6852464315
 30
0.0
 10
10.426039868
 20
8.6867608745
 30
0.0
 10
10.4187129105
 20
8.6877698641
 30
0.0
 10
10.4113508863
 20
8.688268865
 30
0.0
 10
10.4064350619
 20
8.6882598147
 30
0.0
 10
10.4039820322
 20
8.6881701008
 30
0.0
  0
SPLINE
  5
2B3
100
AcDbEntity
  8
0
100
AcDbSpline
 62
7
  6
CONTINUOUS
 70
0
 71
3
 72
41
 73
37
 74
0
 42
0.0000001
 43
0.0000001
 44
0.0000000001
 40
0.0
 40
0.0
 40
0.0
 40
0.0
 40
0.0000509519
 40
0.0000516055
 40
0.0000674371
 40
0.0002945642
 40
0.0015245469
 40
0.0037653857
 40
0.0069871651
 40
0.0111605116
 40
0.0162567982
 40
0.0222476337
 40
0.0291028914
 40
0.0367923536
 40
0.0452864159
 40
0.064572251
 40
0.0867295918
 40
0.1115291324
 40
0.1387495491
 40
0.1681747429
 40
0.1995938461
 40
0.2328033863
 40
0.3038086697
 40
0.3796945158
 40
0.459048838
 40
0.5405155882
 40
0.6227861054
 40
0.6638220495
 40
0.7045730907
 40
0.7448752962
 40
0.7845615695
 40
0.8234629443
 40
0.8614088554
 40
0.8982220812
 40
0.9337189764
 40
1.0
 40
1.0
 40
1.0
 40
1.0
 10
10.5756737302
 20
8.3728144829
 30
0.0
 10
10.5756744411
 20
8.3728139114
 30
0.0
 10
10.5756750814
 20
8.3728132839
 30
0.0
 10
10.5756761353
 20
8.3728126
 30
0.0
 10
10.5756691665
 20
8.3728179013
 30
0.0
 10
10.5756594047
 20
8.372826205
 30
0.0
 10
10.5755928425
 20
8.3728764169
 30
0.0
 10
10.575505458
 20
8.3729411606
 30
0.0
 10
10.5753610863
 20
8.3730446388
 30
0.0
 10
10.5751789411
 20
8.373170907
 30
0.0
 10
10.5749513991
 20
8.3733234691
 30
0.0
 10
10.5746818933
 20
8.3734978346
 30
0.0
 10
10.5743700281
 20
8.3736927214
 30
0.0
 10
10.5740168559
 20
8.3739057816
 30
0.0
 10
10.5734679934
 20
8.3742252222
 30
0.0
 10
10.5726840974
 20
8.3746554707
 30
0.0
 10
10.5716266785
 20
8.3751929021
 30
0.0
 10
10.5704242128
 20
8.3757571009
 30
0.0
 10
10.5690845674
 20
8.3763335167
 30
0.0
 10
10.5676170671
 20
8.3769106452
 30
0.0
 10
10.5660310181
 20
8.3774771358
 30
0.0
 10
10.5637185371
 20
8.3782192699
 30
0.0
 10
10.5606020068
 20
8.379055643
 30
0.0
 10
10.556628129
 20
8.3798536368
 30
0.0
 10
10.5524259904
 20
8.3804245523
 30
0.0
 10
10.5480819069
 20
8.3807333029
 30
0.0
 10
10.544413221
 20
8.3807613146
 30
0.0
 10
10.5414779766
 20
8.3806438779
 30
0.0
 10
10.5392975229
 20
8.3804854879
 30
0.0
 10
10.5371472694
 20
8.3802605017
 30
0.0
 10
10.5350379983
 20
8.3799722464
 30
0.0
 10
10.5329805206
 20
8.3796242438
 30
0.0
 10
10.530985872
 20
8.3792197613
 30
0.0
 10
10.5290644531
 20
8.3787658255
 30
0.0
 10
10.5266686087
 20
8.3781194968
 30
0.0
 10
10.5249319042
 20
8.3775625896
 30
0.0
 10
10.5238148708
 20
8.3771621211
 30
0.0
  0
SPLINE
  5
2B4
100
AcDbEntity
  8
0
100
AcDbSpline
 62
7
  6
CONTINUOUS
 70
0
 71
3
 72
26
 73
22
 74
0
 42
0.0000001
 43
0.0000001
 44
0.0000000001
 40
0.0
 40
0.0
 40
0.0
 40
0.0
 40
0.0270714648
 40
0.0541630366
 40
0.0813169518
 40
0.1085749407
 40
0.1359778369
 40
0.1635654039
 40
0.1913756187
 40
0.2194443654
 40
0.2764627529
 40
0.3348777229
 40
0.3948586381
 40
0.4565067736
 40
0.5198522066
 40
0.5848544868
 40
0.6514074204
 40
0.7193458021
 40
0.788454217
 40
0.8584763841
 40
1.0
 40
1.0
 40
1.0
 40
1.0
 10
10.4039957254
 20
8.2963113679
 30
0.0
 10
10.4064486203
 20
8.2962219801
 30
0.0
 10
10.4113641594
 20
8.296213531
 30
0.0
 10
10.4187257039
 20
8.2967134252
 30
0.0
 10
10.4260521464
 20
8.2977232333
 30
0.0
 10
10.4333196105
 20
8.2992383974
 30
0.0
 10
10.4405057421
 20
8.3012521089
 30
0.0
 10
10.4475891628
 20
8.3037554788
 30
0.0
 10
10.454550116
 20
8.3067384729
 30
0.0
 10
10.4636888446
 20
8.3113624635
 30
0.0
 10
10.474729596
 20
8.3183117715
 30
0.0
 10
10.487137633
 20
8.3283135306
 30
0.0
 10
10.4986774858
 20
8.3399028362
 30
0.0
 10
10.5092571064
 20
8.3529511138
 30
0.0
 10
10.5187964764
 20
8.3673247339
 30
0.0
 10
10.527223008
 20
8.382882839
 30
0.0
 10
10.5344717876
 20
8.3994769608
 30
0.0
 10
10.5404855287
 20
8.41694971
 30
0.0
 10
10.5452158572
 20
8.4351385644
 30
0.0
 10
10.5497736421
 20
8.4601895681
 30
0.0
 10
10.5511371818
 20
8.4794092792
 30
0.0
 10
10.5511371818
 20
8.4922409815
 30
0.0
  0
SPLINE
  5
2B5
100
AcDbEntity
  8
0
100
AcDbSpline
 62
7
  6
CONTINUOUS
 70
0
 71
3
 72
14
 73
10
 74
0
 42
0.0000001
 43
0.0000001
 44
0.0000000001
 40
0.0
 40
0.0
 40
0.0
 40
0.0
 40
0.1189248453
 40
0.2391876181
 40
0.3610367887
 40
0.4846917529
 40
0.610331957
 40
0.7380860936
 40
1.0
 40
1.0
 40
1.0
 40
1.0
 10
11.4535986401
 20
8.3059723823
 30
0.0
 10
11.4573720987
 20
8.3076017443
 30
0.0
 10
11.4648033851
 20
8.3112580996
 30
0.0
 10
11.4754397434
 20
8.3178149765
 30
0.0
 10
11.4855663623
 20
8.3254101845
 30
0.0
 10
11.495132628
 20
8.3339782871
 30
0.0
 10
11.5040984427
 20
8.343455679
 30
0.0
 10
11.5152920675
 20
8.357324968
 30
0.0
 10
11.522545954
 20
8.3687445314
 30
0.0
 10
11.5268771624
 20
8.3766931985
 30
0.0
  0
SPLINE
  5
2B6
100
AcDbEntity
  8
0
100
AcDbSpline
 62
7
  6
CONTINUOUS
 70
0
 71
3
 72
14
 73
10
 74
0
 42
0.0000001
 43
0.0000001
 44
0.0000000001
 40
0.0
 40
0.0
 40
0.0
 40
0.0
 40
0.2619205122
 40
0.3896763604
 40
0.5153170297
 40
0.6389712875
 40
0.7608186197
 40
0.8810786174
 40
1.0
 40
1.0
 40
1.0
 40
1.0
 10
11.5269030841
 20
8.6077411741
 30
0.0
 10
11.5225716914
 20
8.6156952356
 30
0.0
 10
11.5153167874
 20
8.6271226789
 30
0.0
 10
11.5041201988
 20
8.6410016091
 30
0.0
 10
11.4951515238
 20
8.6504854994
 30
0.0
 10
11.4855817475
 20
8.6590593667
 30
0.0
 10
11.4754510131
 20
8.6666595171
 30
0.0
 10
11.4648099933
 20
8.673220419
 30
0.0
 10
11.4573752443
 20
8.6768788064
 30
0.0
 10
11.4535999986
 20
8.6785089928
 30
0.0
  0
SPLINE
  5
2B7
100
AcDbEntity
  8
0
100
AcDbSpline
 62
7
  6
CONTINUOUS
 70
0
 71
3
 72
14
 73
10
 74
0
 42
0.0000001
 43
0.0000001
 44
0.0000000001
 40
0.0
 40
0.0
 40
0.0
 40
0.0
 40
0.1073524898
 40
0.2219364491
 40
0.3426300981
 40
0.4682798589
 40
0.5977307954
 40
0.7299752495
 40
1.0
 40
1.0
 40
1.0
 40
1.0
 10
11.570807358
 20
8.3771675083
 30
0.0
 10
11.570068558
 20
8.3774318358
 30
0.0
 10
11.5685288563
 20
8.377944344
 30
0.0
 10
11.5661205454
 20
8.3786339366
 30
0.0
 10
11.5635543184
 20
8.3792491211
 30
0.0
 10
11.5608577092
 20
8.3797757491
 30
0.0
 10
11.5580575064
 20
8.3801999217
 30
0.0
 10
11.5541924487
 20
8.3806147575
 30
0.0
 10
11.5512501107
 20
8.3807409815
 30
0.0
 10
11.5492764427
 20
8.3807409815
 30
0.0
  0
SPLINE
  5
2B8
100
AcDbEntity
  8
0
100
AcDbSpline
 62
7
  6
CONTINUOUS
 70
0
 71
3
 72
13
 73
9
 74
0
 42
0.0000001
 43
0.0000001
 44
0.0000000001
 40
0.0
 40
0.0
 40
0.0
 40
0.0
 40
0.2703790319
 40
0.4026945458
 40
0.532150743
 40
0.6577899942
 40
0.7784424501
 40
1.0
 40
1.0
 40
1.0
 40
1.0
 10
11.5492764427
 20
8.6037409815
 30
0.0
 10
11.5512620522
 20
8.6037409815
 30
0.0
 10
11.5542214518
 20
8.6038689276
 30
0.0
 10
11.5581077049
 20
8.604288364
 30
0.0
 10
11.5609212975
 20
8.6047168138
 30
0.0
 10
11.5636297152
 20
8.6052495634
 30
0.0
 10
11.5669704646
 20
8.6060549083
 30
0.0
 10
11.5693752227
 20
8.6067989688
 30
0.0
 10
11.5709060843
 20
8.6073501799
 30
0.0
  0
SPLINE
  5
2B9
100
AcDbEntity
  8
0
100
AcDbSpline
 62
7
  6
CONTINUOUS
 70
0
 71
3
 72
45
 73
41
 74
0
 42
0.0000001
 43
0.0000001
 44
0.0000000001
 40
0.0
 40
0.0
 40
0.0
 40
0.0
 40
0.0135073935
 40
0.0270346288
 40
0.0406030137
 40
0.0542319517
 40
0.0679409998
 40
0.0817490584
 40
0.1097192963
 40
0.1382866364
 40
0.1675565739
 40
0.1976054444
 40
0.2284767988
 40
0.2601803525
 40
0.2926925211
 40
0.3259588775
 40
0.3598972898
 40
0.3944021399
 40
0.4293486713
 40
0.4645977305
 40
0.5000004567
 40
0.5354031755
 40
0.570652214
 40
0.6055987106
 40
0.6401035107
 40
0.6740418619
 40
0.7073081499
 40
0.73982024
 40
0.7715237079
 40
0.8023949738
 40
0.8324437559
 40
0.8617136069
 40
0.8902808692
 40
0.9182510391
 40
0.9320590691
 40
0.9457680934
 40
0.9593970112
 40
0.9729653799
 40
0.9864926141
 40
1.0
 40
1.0
 40
1.0
 40
1.0
 10
11.6867787154
 20
8.6882409815
 30
0.0
 10
11.6843639159
 20
8.6882409815
 30
0.0
 10
11.6795291454
 20
8.6880756009
 30
0.0
 10
11.6723030544
 20
8.6873327528
 30
0.0
 10
11.6651221566
 20
8.6860985511
 30
0.0
 10
11.6580087899
 20
8.6843782977
 30
0.0
 10
11.6509835003
 20
8.6821793524
 30
0.0
 10
11.6417229725
 20
8.6786072138
 30
0.0
 10
11.6304435859
 20
8.6729657149
 30
0.0
 10
11.6176202214
 20
8.6644845962
 30
0.0
 10
11.6055550485
 20
8.6543703916
 30
0.0
 10
11.5943462276
 20
8.6427405934
 30
0.0
 10
11.5840777542
 20
8.6297175083
 30
0.0
 10
11.5748252559
 20
8.6154293906
 30
0.0
 10
11.5666568245
 20
8.6000110545
 30
0.0
 10
11.5596336584
 20
8.5836047564
 30
0.0
 10
11.5538095564
 20
8.566360461
 30
0.0
 10
11.5492301863
 20
8.5484355407
 30
0.0
 10
11.5459322226
 20
8.5299938902
 30
0.0
 10
11.5439425409
 20
8.5112046744
 30
0.0
 10
11.5432774977
 20
8.4922407374
 30
0.0
 10
11.5439425787
 20
8.4732768055
 30
0.0
 10
11.5459322884
 20
8.4544876041
 30
0.0
 10
11.5492302799
 20
8.4360459777
 30
0.0
 10
11.5538096789
 20
8.4181210916
 30
0.0
 10
11.5596338033
 20
8.4008768378
 30
0.0
 10
11.5666569783
 20
8.3844705841
 30
0.0
 10
11.5748254158
 20
8.3690522982
 30
0.0
 10
11.5840779139
 20
8.3547642343
 30
0.0
 10
11.5943463778
 20
8.3417412019
 30
0.0
 10
11.6055551782
 20
8.3301114497
 30
0.0
 10
11.6176203281
 20
8.319997288
 30
0.0
 10
11.6304436659
 20
8.3115162049
 30
0.0
 10
11.6417230268
 20
8.3058747248
 30
0.0
 10
11.6509835364
 20
8.3023025988
 30
0.0
 10
11.6580088138
 20
8.300103658
 30
0.0
 10
11.6651221705
 20
8.2983834094
 30
0.0
 10
11.6723030616
 20
8.2971492086
 30
0.0
 10
11.6795291483
 20
8.2964063623
 30
0.0
 10
11.6843639173
 20
8.2962409815
 30
0.0
 10
11.6867787154
 20
8.2962409815
 30
0.0
  0
SPLINE
  5
2BA
100
AcDbEntity
  8
0
100
AcDbSpline
 62
7
  6
CONTINUOUS
 70
0
 71
3
 72
36
 73
32
 74
0
 42
0.0000001
 43
0.0000001
 44
0.0000000001
 40
0.0
 40
0.0
 40
0.0
 40
0.0
 40
0.0042625458
 40
0.0075579599
 40
0.0099020316
 40
0.0113101857
 40
0.0117975195
 40
0.012214693
 40
0.0135184446
 40
0.0156910551
 40
0.0187151331
 40
0.0225736298
 40
0.027249811
 40
0.0327260622
 40
0.0389836389
 40
0.0460039856
 40
0.0537688282
 40
0.0622601874
 40
0.0813517096
 40
0.1031369312
 40
0.1274715309
 40
0.1542144352
 40
0.2143718387
 40
0.2825231279
 40
0.3576247
 40
0.4387049866
 40
0.5248348186
 40
0.6150789005
 40
0.7084841853
 40
0.8041777313
 40
1.0
 40
1.0
 40
1.0
 40
1.0
 10
11.5192478832
 20
8.6114217259
 30
0.0
 10
11.5192138594
 20
8.6114521888
 30
0.0
 10
11.5191524944
 20
8.611506514
 30
0.0
 10
11.5190748893
 20
8.6115739678
 30
0.0
 10
11.5190116304
 20
8.6116272566
 30
0.0
 10
11.5189865861
 20
8.6116483755
 30
0.0
 10
11.5189545713
 20
8.6116741266
 30
0.0
 10
11.5189835461
 20
8.6116512796
 30
0.0
 10
11.5190086955
 20
8.6116322322
 30
0.0
 10
11.519068908
 20
8.6115867528
 30
0.0
 10
11.5191451001
 20
8.6115309062
 30
0.0
 10
11.5192464894
 20
8.6114580925
 30
0.0
 10
11.5193691894
 20
8.6113722214
 30
0.0
 10
11.5195144676
 20
8.6112729815
 30
0.0
 10
11.5196816213
 20
8.6111615422
 30
0.0
 10
11.5198706016
 20
8.611038571
 30
0.0
 10
11.5200811384
 20
8.6109049042
 30
0.0
 10
11.5204031325
 20
8.6107055321
 30
0.0
 10
11.5208577756
 20
8.6104351329
 30
0.0
 10
11.521466362
 20
8.6100918523
 30
0.0
 10
11.5221548122
 20
8.6097236829
 30
0.0
 10
11.523218312
 20
8.6091856457
 30
0.0
 10
11.5247271813
 20
8.6084892012
 30
0.0
 10
11.5267454248
 20
8.607665006
 30
0.0
 10
11.5290108559
 20
8.6068596224
 30
0.0
 10
11.531494501
 20
8.6061007581
 30
0.0
 10
11.5341676898
 20
8.6054166785
 30
0.0
 10
11.5369985639
 20
8.6048284467
 30
0.0
 10
11.5399543275
 20
8.6043515641
 30
0.0
 10
11.5440526481
 20
8.6038833325
 30
0.0
 10
11.5471784212
 20
8.6037409815
 30
0.0
 10
11.5492764427
 20
8.6037409815
 30
0.0
  0
SPLINE
  5
2BB
100
AcDbEntity
  8
0
100
AcDbSpline
 62
7
  6
CONTINUOUS
 70
0
 71
3
 72
20
 73
16
 74
0
 42
0.0000001
 43
0.0000001
 44
0.0000000001
 40
0.0
 40
0.0
 40
0.0
 40
0.0
 40
0.1752447852
 40
0.3455011773
 40
0.4277170434
 40
0.5071755518
 40
0.583209365
 40
0.6551579888
 40
0.7841568513
 40
0.839860681
 40
0.8887114853
 40
0.9299366511
 40
0.9627587335
 40
0.9863747648
 40
1.0
 40
1.0
 40
1.0
 40
1.0
 10
11.5492764427
 20
8.3807409815
 30
0.0
 10
11.5474269943
 20
8.3807409815
 30
0.0
 10
11.5437792139
 20
8.3805941326
 30
0.0
 10
11.5392924717
 20
8.3800552946
 30
0.0
 10
11.5358458252
 20
8.3794246557
 30
0.0
 10
11.5333972214
 20
8.3788760451
 30
0.0
 10
11.5310771509
 20
8.3782578091
 30
0.0
 10
11.5282852886
 20
8.3773899825
 30
0.0
 10
11.5257453306
 20
8.3764391298
 30
0.0
 10
11.5234957676
 20
8.3754304707
 30
0.0
 10
11.5221173159
 20
8.3747462463
 30
0.0
 10
11.5209796632
 20
8.3741226776
 30
0.0
 10
11.520095421
 20
8.3735925644
 30
0.0
 10
11.5194767322
 20
8.3731873401
 30
0.0
 10
11.5191558876
 20
8.3729601427
 30
0.0
 10
11.5190407708
 20
8.372873975
 30
0.0
  0
SPLINE
  5
2BC
100
AcDbEntity
  8
0
100
AcDbSpline
 62
7
  6
CONTINUOUS
 70
0
 71
3
 72
23
 73
19
 74
0
 42
0.0000001
 43
0.0000001
 44
0.0000000001
 40
0.0
 40
0.0
 40
0.0
 40
0.0
 40
0.0615515625
 40
0.1231124171
 40
0.1846916298
 40
0.2463038329
 40
0.307968349
 40
0.3697103773
 40
0.4315620909
 40
0.4935616211
 40
0.55575226
 40
0.6181801673
 40
0.6808921617
 40
0.743932252
 40
0.8073390913
 40
0.8711424353
 40
0.9353607838
 40
1.0
 40
1.0
 40
1.0
 40
1.0
 10
11.4998183383
 20
6.909271898
 30
0.0
 10
11.4998183383
 20
6.9001592408
 30
0.0
 10
11.4990390955
 20
6.8819229917
 30
0.0
 10
11.4955459372
 20
6.8547719904
 30
0.0
 10
11.4897669169
 20
6.8280034548
 30
0.0
 10
11.4817642772
 20
6.8017989469
 30
0.0
 10
11.4716201673
 20
6.7763217313
 30
0.0
 10
11.4594330178
 20
6.7517180172
 30
0.0
 10
11.4453129053
 20
6.7281140976
 30
0.0
 10
11.4293771589
 20
6.7056162225
 30
0.0
 10
11.4117463587
 20
6.6843115758
 30
0.0
 10
11.3925412959
 20
6.6642700345
 30
0.0
 10
11.371880654
 20
6.6455469285
 30
0.0
 10
11.3498798941
 20
6.6281856896
 30
0.0
 10
11.3266510574
 20
6.6122208507
 30
0.0
 10
11.3023027259
 20
6.5976802737
 30
0.0
 10
11.2769428202
 20
6.5845878389
 30
0.0
 10
11.2594855555
 20
6.5768622476
 30
0.0
 10
11.2506256592
 20
6.57324521
 30
0.0
  0
SPLINE
  5
2BD
100
AcDbEntity
  8
0
100
AcDbSpline
 62
7
  6
CONTINUOUS
 70
0
 71
3
 72
32
 73
28
 74
0
 42
0.0000001
 43
0.0000001
 44
0.0000000001
 40
0.0
 40
0.0
 40
0.0
 40
0.0
 40
0.0654494057
 40
0.1307319165
 40
0.195696448
 40
0.2280252393
 40
0.2602300483
 40
0.32421544
 40
0.3876145368
 40
0.4190981547
 40
0.4504360049
 40
0.5126801049
 40
0.5744275423
 40
0.6051516199
 40
0.6357855141
 40
0.6663410035
 40
0.6968299308
 40
0.7272635721
 40
0.7576520562
 40
0.7880047391
 40
0.8183296723
 40
0.8486335141
 40
0.8789220172
 40
0.9091996194
 40
0.9394701778
 40
0.9697358216
 40
1.0
 40
1.0
 40
1.0
 40
1.0
 10
11.0466176861
 20
6.5342425975
 30
0.0
 10
11.0323994247
 20
6.5342603296
 30
0.0
 10
11.0039883703
 20
6.5353734361
 30
0.0
 10
10.9617194443
 20
6.5402711825
 30
0.0
 10
10.9270153549
 20
6.5470383116
 30
0.0
 10
10.899764684
 20
6.554051752
 30
0.0
 10
10.8730203261
 20
6.5620894159
 30
0.0
 10
10.8404475018
 20
6.5740833839
 30
0.0
 10
10.8091390634
 20
6.5887144014
 30
0.0
 10
10.7851115333
 20
6.601942995
 30
0.0
 10
10.7619174004
 20
6.6161075707
 30
0.0
 10
10.7343551897
 20
6.6356653646
 30
0.0
 10
10.7089039761
 20
6.6577083594
 30
0.0
 10
10.690071294
 20
6.676710502
 30
0.0
 10
10.6767632466
 20
6.6916091529
 30
0.0
 10
10.6642960059
 20
6.7071527135
 30
0.0
 10
10.6527144843
 20
6.7233141175
 30
0.0
 10
10.6420640022
 20
6.7400611357
 30
0.0
 10
10.632389142
 20
6.7573566154
 30
0.0
 10
10.6237331069
 20
6.775157965
 30
0.0
 10
10.6161368971
 20
6.7934171537
 30
0.0
 10
10.6096383836
 20
6.8120807533
 30
0.0
 10
10.6042715655
 20
6.8310902833
 30
0.0
 10
10.6000654587
 20
6.8503826214
 30
0.0
 10
10.5970437623
 20
6.869890912
 30
0.0
 10
10.5952235888
 20
6.8895441523
 30
0.0
 10
10.5948183383
 20
6.9026972877
 30
0.0
 10
10.5948183383
 20
6.909271898
 30
0.0
  0
SPLINE
  5
2BE
100
AcDbEntity
  8
0
100
AcDbSpline
 62
7
  6
CONTINUOUS
 70
0
 71
3
 72
13
 73
9
 74
0
 42
0.0000001
 43
0.0000001
 44
0.0000000001
 40
0.0
 40
0.0
 40
0.0
 40
0.0
 40
0.1277930627
 40
0.2553074495
 40
0.4454493003
 40
0.6334833296
 40
0.8185829701
 40
1.0
 40
1.0
 40
1.0
 40
1.0
 10
11.0480217451
 20
6.5342425974
 30
0.0
 10
11.0566590548
 20
6.5342533952
 30
0.0
 10
11.0739171939
 20
6.5346727116
 30
0.0
 10
11.1039588135
 20
6.5367935558
 30
0.0
 10
11.1378854007
 20
6.5411767009
 30
0.0
 10
11.1752341006
 20
6.5487233668
 30
0.0
 10
11.2113667083
 20
6.558808351
 30
0.0
 10
11.2346842757
 20
6.5672585254
 30
0.0
 10
11.2460363757
 20
6.5718930008
 30
0.0
  0
SPLINE
  5
2BF
100
AcDbEntity
  8
0
100
AcDbSpline
 62
7
  6
CONTINUOUS
 70
0
 71
3
 72
11
 73
7
 74
0
 42
0.0000001
 43
0.0000001
 44
0.0000000001
 40
0.0
 40
0.0
 40
0.0
 40
0.0
 40
0.2470594335
 40
0.4965276092
 40
0.7477852842
 40
1.0
 40
1.0
 40
1.0
 40
1.0
 10
11.2506256592
 20
6.57324521
 30
0.0
 10
11.2348033769
 20
6.5667857903
 30
0.0
 10
11.2023095571
 20
6.5554456969
 30
0.0
 10
11.1519529237
 20
6.5432827483
 30
0.0
 10
11.1003151277
 20
6.5359295168
 30
0.0
 10
11.0654683597
 20
6.5342644221
 30
0.0
 10
11.0480217451
 20
6.5342426
 30
0.0
  0
SPLINE
  5
2C0
100
AcDbEntity
  8
0
100
AcDbSpline
 62
7
  6
CONTINUOUS
 70
0
 71
3
 72
15
 73
11
 74
0
 42
0.0000001
 43
0.0000001
 44
0.0000000001
 40
0.0
 40
0.0
 40
0.0
 40
0.0
 40
0.121160447
 40
0.2427110971
 40
0.3650333464
 40
0.4884916846
 40
0.6134261204
 40
0.7401461097
 40
0.8689256992
 40
1.0
 40
1.0
 40
1.0
 40
1.0
 10
11.4998183383
 20
7.1370506854
 30
0.0
 10
11.4998183383
 20
7.1431203515
 30
0.0
 10
11.4993281266
 20
7.1552848785
 30
0.0
 10
11.4971258936
 20
7.17345722
 30
0.0
 10
11.4934639423
 20
7.1915108166
 30
0.0
 10
11.4883548122
 20
7.2093848733
 30
0.0
 10
11.4818159466
 20
7.2270213149
 30
0.0
 10
11.4738692742
 20
7.2443628744
 30
0.0
 10
11.4645420752
 20
7.2613524466
 30
0.0
 10
11.4574884601
 20
7.2723078159
 30
0.0
 10
11.4537514197
 20
7.2777069803
 30
0.0
  0
SPLINE
  5
2C1
100
AcDbEntity
  8
0
100
AcDbSpline
 62
7
  6
CONTINUOUS
 70
0
 71
3
 72
15
 73
11
 74
0
 42
0.0000001
 43
0.0000001
 44
0.0000000001
 40
0.0
 40
0.0
 40
0.0
 40
0.0
 40
0.1211059623
 40
0.2426080509
 40
0.3648933143
 40
0.4883313771
 40
0.6132666513
 40
0.740012119
 40
0.8688443629
 40
1.0
 40
1.0
 40
1.0
 40
1.0
 10
10.5948183383
 20
7.1370506854
 30
0.0
 10
10.5948183383
 20
7.1431678945
 30
0.0
 10
10.5953162868
 20
7.155428102
 30
0.0
 10
10.5975532151
 20
7.173742184
 30
0.0
 10
10.6012727171
 20
7.1919346788
 30
0.0
 10
10.6064618462
 20
7.2099433513
 30
0.0
 10
10.6131025976
 20
7.2277087682
 30
0.0
 10
10.621172342
 20
7.2451723388
 30
0.0
 10
10.6306429362
 20
7.2622756698
 30
0.0
 10
10.6378033378
 20
7.2732987885
 30
0.0
 10
10.6415966228
 20
7.2787301205
 30
0.0
  0
SPLINE
  5
2C2
100
AcDbEntity
  8
0
100
AcDbSpline
 62
7
  6
CONTINUOUS
 70
0
 71
3
 72
21
 73
17
 74
0
 42
0.0000001
 43
0.0000001
 44
0.0000000001
 40
0.0
 40
0.0
 40
0.0
 40
0.0
 40
0.0554311968
 40
0.1110880186
 40
0.1671896891
 40
0.2239431526
 40
0.281537832
 40
0.3401416105
 40
0.399897785
 40
0.4609232629
 40
0.5233077245
 40
0.5871135948
 40
0.7190405699
 40
0.7872257778
 40
0.856829832
 40
1.0
 40
1.0
 40
1.0
 40
1.0
 10
11.5098183383
 20
6.6067205995
 30
0.0
 10
11.5098183383
 20
6.5997408596
 30
0.0
 10
11.5091835308
 20
6.5857447608
 30
0.0
 10
11.5063330594
 20
6.5648593902
 30
0.0
 10
11.5015962937
 20
6.5441475698
 30
0.0
 10
11.4949940367
 20
6.5236977899
 30
0.0
 10
11.4865549887
 20
6.5035940544
 30
0.0
 10
11.47631546
 20
6.4839192132
 30
0.0
 10
11.4643189393
 20
6.4647535875
 30
0.0
 10
11.4506162054
 20
6.4461753842
 30
0.0
 10
11.4352634903
 20
6.4282590296
 30
0.0
 10
11.4124314746
 20
6.4050987726
 30
0.0
 10
11.3867501661
 20
6.3838382821
 30
0.0
 10
11.3587289178
 20
6.364623958
 30
0.0
 10
11.3284191817
 20
6.3463472774
 30
0.0
 10
11.3043221577
 20
6.334478996
 30
0.0
 10
11.2877628138
 20
6.3273528546
 30
0.0
  0
SPLINE
  5
2C3
100
AcDbEntity
  8
0
100
AcDbSpline
 62
7
  6
CONTINUOUS
 70
0
 71
3
 72
22
 73
18
 74
0
 42
0.0000001
 43
0.0000001
 44
0.0000000001
 40
0.0
 40
0.0
 40
0.0
 40
0.0
 40
0.0552228298
 40
0.1106806288
 40
0.1666014082
 40
0.2231998043
 40
0.2806715107
 40
0.339188901
 40
0.3988979254
 40
0.459916223
 40
0.5223323996
 40
0.586206099
 40
0.6515689264
 40
0.7184257304
 40
0.7867562817
 40
0.8565174386
 40
1.0
 40
1.0
 40
1.0
 40
1.0
 10
11.6223183383
 20
5.9561823608
 30
0.0
 10
11.6223183385
 20
5.9473088595
 30
0.0
 10
11.6214928966
 20
5.9295131909
 30
0.0
 10
11.617786811
 20
5.9029644141
 30
0.0
 10
11.6116291301
 20
5.876646557
 30
0.0
 10
11.6030481998
 20
5.8506772383
 30
0.0
 10
11.5920831035
 20
5.8251680018
 30
0.0
 10
11.5787831923
 20
5.8002286976
 30
0.0
 10
11.5632076397
 20
5.7759657815
 30
0.0
 10
11.5454250213
 20
5.7524823813
 30
0.0
 10
11.525512937
 20
5.7298779294
 30
0.0
 10
11.5035577186
 20
5.7082479402
 30
0.0
 10
11.4796539034
 20
5.6876836286
 30
0.0
 10
11.4539046237
 20
5.6682720183
 30
0.0
 10
11.4264183596
 20
5.6500940577
 30
0.0
 10
11.3872561952
 20
5.6273981447
 30
0.0
 10
11.3561636295
 20
5.6127823889
 30
0.0
 10
11.3348183383
 20
5.6040682103
 30
0.0
  0
SPLINE
  5
2C4
100
AcDbEntity
  8
0
100
AcDbSpline
 62
7
  6
CONTINUOUS
 70
0
 71
3
 72
21
 73
17
 74
0
 42
0.0000001
 43
0.0000001
 44
0.0000000001
 40
0.0
 40
0.0
 40
0.0
 40
0.0
 40
0.058710778
 40
0.1175244045
 40
0.1765424711
 40
0.2358640892
 40
0.295584748
 40
0.3557952718
 40
0.4165808899
 40
0.4780204688
 40
0.5401858807
 40
0.6031414732
 40
0.6669437948
 40
0.7316413678
 40
0.8638394203
 40
1.0
 40
1.0
 40
1.0
 40
1.0
 10
10.4723183386
 20
6.6208627351
 30
0.0
 10
10.4723183427
 20
6.6265438722
 30
0.0
 10
10.4726557725
 20
6.6379189727
 30
0.0
 10
10.4741728441
 20
6.6549440654
 30
0.0
 10
10.47669819
 20
6.671909313
 30
0.0
 10
10.4802272589
 20
6.6887838602
 30
0.0
 10
10.4847536784
 20
6.7055380468
 30
0.0
 10
10.4902692174
 20
6.7221422236
 30
0.0
 10
10.4967639356
 20
6.7385671261
 30
0.0
 10
10.5042262077
 20
6.7547838098
 30
0.0
 10
10.512642671
 20
6.7707637971
 30
0.0
 10
10.5219982072
 20
6.7864789914
 30
0.0
 10
10.5322764249
 20
6.8019021296
 30
0.0
 10
10.5472922268
 20
6.8221836846
 30
0.0
 10
10.5683307482
 20
6.8466632395
 30
0.0
 10
10.5869981175
 20
6.8647692214
 30
0.0
 10
10.5968331938
 20
6.8735365728
 30
0.0
  0
SPLINE
  5
2C5
100
AcDbEntity
  8
0
100
AcDbSpline
 62
7
  6
CONTINUOUS
 70
0
 71
3
 72
22
 73
18
 74
0
 42
0.0000001
 43
0.0000001
 44
0.0000000001
 40
0.0
 40
0.0
 40
0.0
 40
0.0
 40
0.0621340853
 40
0.124608169
 40
0.1873789777
 40
0.2503884167
 40
0.3135674753
 40
0.3768399539
 40
0.5033456491
 40
0.5664228799
 40
0.6292880993
 40
0.6918826751
 40
0.7541625861
 40
0.8161024966
 40
0.8777000328
 40
0.9389802229
 40
1.0
 40
1.0
 40
1.0
 40
1.0
 10
12.2348183383
 20
10.3572409815
 30
0.0
 10
12.2300146844
 20
10.3415584645
 30
0.0
 10
12.219955735
 20
10.3102368353
 30
0.0
 10
12.2037881713
 20
10.2634876391
 30
0.0
 10
12.1867210988
 20
10.2168141584
 30
0.0
 10
12.1689777407
 20
10.1701955405
 30
0.0
 10
12.1507809241
 20
10.1236104392
 30
0.0
 10
12.126213897
 20
10.0615202817
 30
0.0
 10
12.1016478
 20
9.9994571481
 30
0.0
 10
12.0779163468
 20
9.9371850183
 30
0.0
 10
12.0607950692
 20
9.8904520708
 30
0.0
 10
12.0445576442
 20
9.8436260505
 30
0.0
 10
12.029427396
 20
9.7966854588
 30
0.0
 10
12.0156279035
 20
9.7496087144
 30
0.0
 10
12.0033831116
 20
9.7023735983
 30
0.0
 10
11.9929177388
 20
9.6549595109
 30
0.0
 10
11.9872676105
 20
9.6231612507
 30
0.0
 10
11.9848183383
 20
9.6072409815
 30
0.0
  0
SPLINE
  5
2C6
100
AcDbEntity
  8
0
100
AcDbSpline
 62
7
  6
CONTINUOUS
 70
0
 71
3
 72
22
 73
18
 74
0
 42
0.0000001
 43
0.0000001
 44
0.0000000001
 40
0.0
 40
0.0
 40
0.0
 40
0.0
 40
0.0621340853
 40
0.124608169
 40
0.1873789777
 40
0.2503884167
 40
0.3135674753
 40
0.3768399539
 40
0.5033456491
 40
0.5664228799
 40
0.6292880993
 40
0.6918826751
 40
0.7541625861
 40
0.8161024966
 40
0.8777000328
 40
0.9389802229
 40
1.0
 40
1.0
 40
1.0
 40
1.0
 10
9.8598183383
 20
10.3572409815
 30
0.0
 10
9.8646219921
 20
10.3415584645
 30
0.0
 10
9.8746809415
 20
10.3102368353
 30
0.0
 10
9.8908485053
 20
10.2634876391
 30
0.0
 10
9.9079155778
 20
10.2168141584
 30
0.0
 10
9.9256589358
 20
10.1701955405
 30
0.0
 10
9.9438557524
 20
10.1236104392
 30
0.0
 10
9.9684227796
 20
10.0615202817
 30
0.0
 10
9.9929888765
 20
9.9994571481
 30
0.0
 10
10.0167203298
 20
9.9371850183
 30
0.0
 10
10.0338416074
 20
9.8904520708
 30
0.0
 10
10.0500790324
 20
9.8436260505
 30
0.0
 10
10.0652092806
 20
9.7966854588
 30
0.0
 10
10.0790087731
 20
9.7496087144
 30
0.0
 10
10.091253565
 20
9.7023735983
 30
0.0
 10
10.1017189378
 20
9.6549595109
 30
0.0
 10
10.1073690661
 20
9.6231612507
 30
0.0
 10
10.1098183383
 20
9.6072409815
 30
0.0
  0
SPLINE
  5
2C7
100
AcDbEntity
  8
0
100
AcDbSpline
 62
7
  6
CONTINUOUS
 70
0
 71
3
 72
14
 73
10
 74
0
 42
0.0000001
 43
0.0000001
 44
0.0000000001
 40
0.0
 40
0.0
 40
0.0
 40
0.0
 40
0.1271283608
 40
0.2534047179
 40
0.3789548682
 40
0.5039014214
 40
0.6283639444
 40
0.7524591381
 40
1.0
 40
1.0
 40
1.0
 40
1.0
 10
11.9848183383
 20
9.6072409815
 30
0.0
 10
11.9793686732
 20
9.5718181581
 30
0.0
 10
11.9689269022
 20
9.5011444743
 30
0.0
 10
11.9545076706
 20
9.3952863807
 30
0.0
 10
11.9412867619
 20
9.2898919664
 30
0.0
 10
11.9291612234
 20
9.1848809903
 30
0.0
 10
11.9180281083
 20
9.080172841
 30
0.0
 10
11.9043816441
 20
8.9409806711
 30
0.0
 10
11.8953068265
 20
8.8366001881
 30
0.0
 10
11.8896488839
 20
8.7670440851
 30
0.0
  0
SPLINE
  5
2C8
100
AcDbEntity
  8
0
100
AcDbSpline
 62
7
  6
CONTINUOUS
 70
0
 71
3
 72
14
 73
10
 74
0
 42
0.0000001
 43
0.0000001
 44
0.0000000001
 40
0.0
 40
0.0
 40
0.0
 40
0.0
 40
0.1271283608
 40
0.2534047179
 40
0.3789548682
 40
0.5039014214
 40
0.6283639444
 40
0.7524591381
 40
1.0
 40
1.0
 40
1.0
 40
1.0
 10
10.1098183383
 20
9.6072409815
 30
0.0
 10
10.1152680034
 20
9.5718181581
 30
0.0
 10
10.1257097744
 20
9.5011444743
 30
0.0
 10
10.1401290059
 20
9.3952863807
 30
0.0
 10
10.1533499147
 20
9.2898919664
 30
0.0
 10
10.1654754531
 20
9.1848809903
 30
0.0
 10
10.1766085683
 20
9.080172841
 30
0.0
 10
10.1902550325
 20
8.9409806711
 30
0.0
 10
10.1993298501
 20
8.8366001881
 30
0.0
 10
10.2049877926
 20
8.7670440851
 30
0.0
  0
SPLINE
  5
2C9
100
AcDbEntity
  8
0
100
AcDbSpline
 62
7
  6
CONTINUOUS
 70
0
 71
3
 72
11
 73
7
 74
0
 42
0.0000001
 43
0.0000001
 44
0.0000000001
 40
0.0
 40
0.0
 40
0.0
 40
0.0
 40
0.2502921982
 40
0.5003647342
 40
0.7502229142
 40
1.0
 40
1.0
 40
1.0
 40
1.0
 10
11.85042804
 20
8.2193552545
 30
0.0
 10
11.8440203117
 20
8.1266678104
 30
0.0
 10
11.8309775221
 20
7.9413908155
 30
0.0
 10
11.8134635369
 20
7.6634516778
 30
0.0
 10
11.8007529196
 20
7.3854309672
 30
0.0
 10
11.7973183383
 20
7.1999584431
 30
0.0
 10
11.7973183383
 20
7.1072409815
 30
0.0
  0
SPLINE
  5
2CA
100
AcDbEntity
  8
0
100
AcDbSpline
 62
7
  6
CONTINUOUS
 70
0
 71
3
 72
11
 73
7
 74
0
 42
0.0000001
 43
0.0000001
 44
0.0000000001
 40
0.0
 40
0.0
 40
0.0
 40
0.0
 40
0.2502921982
 40
0.5003647342
 40
0.7502229142
 40
1.0
 40
1.0
 40
1.0
 40
1.0
 10
10.2442086366
 20
8.2193552545
 30
0.0
 10
10.2506163649
 20
8.1266678104
 30
0.0
 10
10.2636591545
 20
7.9413908155
 30
0.0
 10
10.2811731397
 20
7.6634516778
 30
0.0
 10
10.293883757
 20
7.3854309672
 30
0.0
 10
10.2973183383
 20
7.1999584431
 30
0.0
 10
10.2973183383
 20
7.1072409815
 30
0.0
  0
SPLINE
  5
2CB
100
AcDbEntity
  8
0
100
AcDbSpline
 62
7
  6
CONTINUOUS
 70
0
 71
3
 72
13
 73
9
 74
0
 42
0.0000001
 43
0.0000001
 44
0.0000000001
 40
0.0
 40
0.0
 40
0.0
 40
0.0
 40
0.125007819
 40
0.2500156242
 40
0.3750234478
 40
0.5000312585
 40
0.750014785
 40
1.0
 40
1.0
 40
1.0
 40
1.0
 10
12.2348183383
 20
10.3572409815
 30
0.0
 10
12.2410979776
 20
10.3775395446
 30
0.0
 10
12.2543386145
 20
10.4179294504
 30
0.0
 10
12.2762021585
 20
10.4778174474
 30
0.0
 10
12.3000293182
 20
10.5369528124
 30
0.0
 10
12.3343555695
 20
10.6147114642
 30
0.0
 10
12.3819581628
 20
10.7097619587
 30
0.0
 10
12.4247890845
 20
10.7832333653
 30
0.0
 10
12.4473176679
 20
10.8192595446
 30
0.0
  0
SPLINE
  5
2CC
100
AcDbEntity
  8
0
100
AcDbSpline
 62
7
  6
CONTINUOUS
 70
0
 71
3
 72
13
 73
9
 74
0
 42
0.0000001
 43
0.0000001
 44
0.0000000001
 40
0.0
 40
0.0
 40
0.0
 40
0.0
 40
0.125007819
 40
0.2500156242
 40
0.3750234478
 40
0.5000312585
 40
0.750014785
 40
1.0
 40
1.0
 40
1.0
 40
1.0
 10
9.8598183383
 20
10.3572409815
 30
0.0
 10
9.853538699
 20
10.3775395446
 30
0.0
 10
9.8402980621
 20
10.4179294504
 30
0.0
 10
9.8184345181
 20
10.4778174474
 30
0.0
 10
9.7946073584
 20
10.5369528124
 30
0.0
 10
9.7602811071
 20
10.6147114642
 30
0.0
 10
9.7126785138
 20
10.7097619587
 30
0.0
 10
9.6698475921
 20
10.7832333653
 30
0.0
 10
9.6473190087
 20
10.8192595446
 30
0.0
  0
SPLINE
  5
2CD
100
AcDbEntity
  8
0
100
AcDbSpline
 62
7
  6
CONTINUOUS
 70
0
 71
3
 72
40
 73
36
 74
0
 42
0.0000001
 43
0.0000001
 44
0.0000000001
 40
0.0
 40
0.0
 40
0.0
 40
0.0
 40
0.0627487056
 40
0.0951660557
 40
0.1282075122
 40
0.1618143123
 40
0.1959176611
 40
0.2304404485
 40
0.26529855
 40
0.3004023243
 40
0.3356580409
 40
0.3709691679
 40
0.4062378207
 40
0.4413661209
 40
0.4762574924
 40
0.510818136
 40
0.5449583918
 40
0.5785941158
 40
0.6116482619
 40
0.644052294
 40
0.67574778
 40
0.7066880526
 40
0.7368397599
 40
0.7661845671
 40
0.7947207911
 40
0.8224648135
 40
0.8494523916
 40
0.875739477
 40
0.9014023459
 40
0.9265370241
 40
0.9512574808
 40
0.9635065319
 40
0.9757014014
 40
0.9878598516
 40
1.0
 40
1.0
 40
1.0
 40
1.0
 10
11.3431286757
 20
7.1147744769
 30
0.0
 10
11.3289737347
 20
7.103739178
 30
0.0
 10
11.3062572836
 20
7.0885428459
 30
0.0
 10
11.2739492022
 20
7.0711643967
 30
0.0
 10
11.2481906839
 20
7.0593086405
 30
0.0
 10
11.221322949
 20
7.0488421334
 30
0.0
 10
11.1934915579
 20
7.039817089
 30
0.0
 10
11.1648514053
 20
7.0322804039
 30
0.0
 10
11.1355607707
 20
7.0262701123
 30
0.0
 10
11.1057818438
 20
7.0218160684
 30
0.0
 10
11.075679448
 20
7.0189395188
 30
0.0
 10
11.0454202237
 20
7.0176530421
 30
0.0
 10
11.0151716785
 20
7.0179604546
 30
0.0
 10
10.9851012609
 20
7.0198567887
 30
0.0
 10
10.9553754157
 20
7.0233283018
 30
0.0
 10
10.926158662
 20
7.0283525855
 30
0.0
 10
10.8976126772
 20
7.0348986966
 30
0.0
 10
10.8698953972
 20
7.0429273507
 30
0.0
 10
10.8431601593
 20
7.0523911601
 30
0.0
 10
10.817554855
 20
7.0632349202
 30
0.0
 10
10.7932211339
 20
7.0753959311
 30
0.0
 10
10.7702936722
 20
7.0888043951
 30
0.0
 10
10.7488994907
 20
7.103383828
 30
0.0
 10
10.7291573478
 20
7.1190514859
 30
0.0
 10
10.7111772002
 20
7.1357188042
 30
0.0
 10
10.6950597215
 20
7.153291791
 30
0.0
 10
10.6808958578
 20
7.1716714448
 30
0.0
 10
10.6687664551
 20
7.1907538711
 30
0.0
 10
10.6587417163
 20
7.2104312969
 30
0.0
 10
10.650880956
 20
7.2305895734
 30
0.0
 10
10.6461576008
 20
7.2477509793
 30
0.0
 10
10.6435176621
 20
7.2615692949
 30
0.0
 10
10.6421051892
 20
7.271948472
 30
0.0
 10
10.6412569831
 20
7.2823571243
 30
0.0
 10
10.6410683485
 20
7.2893088334
 30
0.0
 10
10.6410683543
 20
7.2927813287
 30
0.0
  0
SPLINE
  5
2CE
100
AcDbEntity
  8
0
100
AcDbSpline
 62
7
  6
CONTINUOUS
 70
0
 71
3
 72
18
 73
14
 74
0
 42
0.0000001
 43
0.0000001
 44
0.0000000001
 40
0.0
 40
0.0
 40
0.0
 40
0.0
 40
0.0580916998
 40
0.1164581926
 40
0.1751847402
 40
0.2343523432
 40
0.2940370635
 40
0.3543094145
 40
0.4768293806
 40
0.6023892701
 40
0.7313140512
 40
0.8638152379
 40
1.0
 40
1.0
 40
1.0
 40
1.0
 10
11.444979071
 20
7.2838599045
 30
0.0
 10
11.4445252883
 20
7.2799660172
 30
0.0
 10
11.4433940177
 20
7.2721838651
 30
0.0
 10
11.4410392115
 20
7.2605927242
 30
0.0
 10
11.4380276551
 20
7.2490792629
 30
0.0
 10
11.4343652989
 20
7.237662876
 30
0.0
 10
11.4300587961
 20
7.2263617091
 30
0.0
 10
11.4234337674
 20
7.211392747
 30
0.0
 10
11.4135432046
 20
7.19304087
 30
0.0
 10
11.3993164863
 20
7.1719036252
 30
0.0
 10
11.3827649814
 20
7.1516566207
 30
0.0
 10
11.3640056539
 20
7.1324284094
 30
0.0
 10
11.3502959192
 20
7.1205269719
 30
0.0
 10
11.3431286757
 20
7.1147744769
 30
0.0
  0
SPLINE
  5
2CF
100
AcDbEntity
  8
0
100
AcDbSpline
 62
7
  6
CONTINUOUS
 70
0
 71
3
 72
15
 73
11
 74
0
 42
0.0000001
 43
0.0000001
 44
0.0000000001
 40
0.0
 40
0.0
 40
0.0
 40
0.0
 40
0.1226670717
 40
0.2455761263
 40
0.36893935
 40
0.4929836041
 40
0.6179188151
 40
0.743944323
 40
0.8712474916
 40
1.0
 40
1.0
 40
1.0
 40
1.0
 10
11.4535680927
 20
7.3421853913
 30
0.0
 10
11.4535616538
 20
7.338044533
 30
0.0
 10
11.4532949308
 20
7.3297528167
 30
0.0
 10
11.4521348861
 20
7.3173453406
 30
0.0
 10
11.4502167054
 20
7.3049848233
 30
0.0
 10
11.4475442729
 20
7.2926954212
 30
0.0
 10
11.4441227201
 20
7.2804999708
 30
0.0
 10
11.4399585925
 20
7.2684213695
 30
0.0
 10
11.435060087
 20
7.2564827423
 30
0.0
 10
11.4313331034
 20
7.2486780798
 30
0.0
 10
11.4293540736
 20
7.2448084973
 30
0.0
  0
SPLINE
  5
2D0
100
AcDbEntity
  8
0
100
AcDbSpline
 62
7
  6
CONTINUOUS
 70
0
 71
3
 72
21
 73
17
 74
0
 42
0.0000001
 43
0.0000001
 44
0.0000000001
 40
0.0
 40
0.0
 40
0.0
 40
0.0
 40
0.0525031097
 40
0.1063071575
 40
0.1615356265
 40
0.2182707449
 40
0.3363084212
 40
0.3976667357
 40
0.4604835533
 40
0.5246670459
 40
0.5901002397
 40
0.6566442365
 40
0.7241417316
 40
0.7924200723
 40
0.8612946813
 40
1.0
 40
1.0
 40
1.0
 40
1.0
 10
11.4293540736
 20
7.2448084973
 30
0.0
 10
11.4257923793
 20
7.2378443427
 30
0.0
 10
11.4178841421
 20
7.2240893604
 30
0.0
 10
11.4039934513
 20
7.204399305
 30
0.0
 10
11.3880189574
 20
7.1855230731
 30
0.0
 10
11.36376025
 20
7.1612775478
 30
0.0
 10
11.3359594051
 20
7.1394626317
 30
0.0
 10
11.3053752141
 20
7.1202769752
 30
0.0
 10
11.2806295422
 20
7.106994647
 30
0.0
 10
11.2545282573
 20
7.0950899513
 30
0.0
 10
11.227220342
 20
7.0846292439
 30
0.0
 10
11.1988653784
 20
7.0756734787
 30
0.0
 10
11.1696286825
 20
7.0682743027
 30
0.0
 10
11.1396783545
 20
7.0624743293
 30
0.0
 10
11.0989446966
 20
7.0569066297
 30
0.0
 10
11.0679831275
 20
7.0552391163
 30
0.0
 10
11.0473183383
 20
7.0552391163
 30
0.0
  0
SPLINE
  5
2D1
100
AcDbEntity
  8
0
100
AcDbSpline
 62
7
  6
CONTINUOUS
 70
0
 71
3
 72
27
 73
23
 74
0
 42
0.0000001
 43
0.0000001
 44
0.0000000001
 40
0.0
 40
0.0
 40
0.0
 40
0.0
 40
0.0717234076
 40
0.1431468597
 40
0.2139785181
 40
0.283937802
 40
0.3527635628
 40
0.4202205878
 40
0.4861061772
 40
0.5502574326
 40
0.6125582424
 40
0.6729466568
 40
0.7314216579
 40
0.7880492906
 40
0.815720689
 40
0.8429879448
 40
0.8698796432
 40
0.8964288027
 40
0.9226726073
 40
0.9486521669
 40
0.9744122112
 40
1.0
 40
1.0
 40
1.0
 40
1.0
 10
11.0473183383
 20
7.0552391163
 30
0.0
 10
11.0349354416
 20
7.0552391163
 30
0.0
 10
11.0102139189
 20
7.0560378388
 30
0.0
 10
10.9734204566
 20
7.0596246765
 30
0.0
 10
10.9372400856
 20
7.0655698044
 30
0.0
 10
10.9019755658
 20
7.0738241273
 30
0.0
 10
10.8679196075
 20
7.084319658
 30
0.0
 10
10.8353554304
 20
7.0969700024
 30
0.0
 10
10.804553689
 20
7.1116713022
 30
0.0
 10
10.7757705764
 20
7.1283032605
 30
0.0
 10
10.7492459192
 20
7.1467298465
 30
0.0
 10
10.7252010692
 20
7.1668016968
 30
0.0
 10
10.7038395123
 20
7.1883532825
 30
0.0
 10
10.6883027881
 20
7.207553208
 30
0.0
 10
10.6774332218
 20
7.2234648492
 30
0.0
 10
10.6701164603
 20
7.2355593672
 30
0.0
 10
10.6635897305
 20
7.2478790197
 30
0.0
 10
10.6578666468
 20
7.2603983508
 30
0.0
 10
10.6529595442
 20
7.2730909877
 30
0.0
 10
10.6488789631
 20
7.2859305137
 30
0.0
 10
10.6456338874
 20
7.2988891372
 30
0.0
 10
10.6440274782
 20
7.3076146913
 30
0.0
 10
10.6433674622
 20
7.3119827871
 30
0.0
  0
SPLINE
  5
2D2
100
AcDbEntity
  8
0
100
AcDbSpline
 62
7
  6
CONTINUOUS
 70
0
 71
3
 72
43
 73
39
 74
0
 42
0.0000001
 43
0.0000001
 44
0.0000000001
 40
0.0
 40
0.0
 40
0.0
 40
0.0
 40
0.0125787495
 40
0.0252168338
 40
0.0379244661
 40
0.0507110621
 40
0.0635854825
 40
0.0765559863
 40
0.0896301549
 40
0.1028148824
 40
0.1161163576
 40
0.1295400644
 40
0.1567679829
 40
0.1845336649
 40
0.2128569926
 40
0.2417485438
 40
0.2712105798
 40
0.3012379281
 40
0.3318186991
 40
0.3629348336
 40
0.3945625093
 40
0.4266724685
 40
0.4592303205
 40
0.4921968579
 40
0.5255284281
 40
0.5591773525
 40
0.5930924226
 40
0.6272194394
 40
0.6615018131
 40
0.695881192
 40
0.7302981224
 40
0.7646927239
 40
0.7990053696
 40
0.8331773641
 40
0.8671516082
 40
0.9008732379
 40
0.9342902277
 40
1.0
 40
1.0
 40
1.0
 40
1.0
 10
8.9090532119
 20
4.7411468499
 30
0.0
 10
8.9113904651
 20
4.7251935169
 30
0.0
 10
8.9167670411
 20
4.6933085663
 30
0.0
 10
8.9268958154
 20
4.645749038
 30
0.0
 10
8.9390982257
 20
4.5984029232
 30
0.0
 10
8.9533639657
 20
4.5513209783
 30
0.0
 10
8.9696801592
 20
4.5045529282
 30
0.0
 10
8.9880311652
 20
4.4581489367
 30
0.0
 10
9.0083987418
 20
4.4121589309
 30
0.0
 10
9.0307616921
 20
4.3666328444
 30
0.0
 10
9.0550967204
 20
4.3216193385
 30
0.0
 10
9.0902995692
 20
4.2620750947
 30
0.0
 10
9.1391847933
 20
4.1891600444
 30
0.0
 10
9.2049636487
 20
4.104914896
 30
0.0
 10
9.2778467391
 20
4.023846611
 30
0.0
 10
9.3575072572
 20
3.9462860659
 30
0.0
 10
9.4435980855
 20
3.8725351362
 30
0.0
 10
9.5357524805
 20
3.8028721781
 30
0.0
 10
9.6335887216
 20
3.737551268
 30
0.0
 10
9.7367119853
 20
3.6768035617
 30
0.0
 10
9.8447161097
 20
3.6208389657
 30
0.0
 10
9.957184092
 20
3.5698471155
 30
0.0
 10
10.0736886642
 20
3.5239988557
 30
0.0
 10
10.1937922912
 20
3.4834464559
 30
0.0
 10
10.3170476371
 20
3.4483244214
 30
0.0
 10
10.4429978874
 20
3.4187490108
 30
0.0
 10
10.5711776425
 20
3.3948185251
 30
0.0
 10
10.7011138665
 20
3.376612533
 30
0.0
 10
10.8323272834
 20
3.3641919085
 30
0.0
 10
10.9643338826
 20
3.3575981715
 30
0.0
 10
11.0966466507
 20
3.3568534666
 30
0.0
 10
11.2287774493
 20
3.3619602957
 30
0.0
 10
11.3602386464
 20
3.3729014634
 30
0.0
 10
11.490545871
 20
3.3896405465
 30
0.0
 10
11.6192163729
 20
3.412120874
 30
0.0
 10
11.7457832129
 20
3.4402701185
 30
0.0
 10
11.9101386768
 20
3.484970028
 30
0.0
 10
12.0303200208
 20
3.5270346671
 30
0.0
 10
12.1082998131
 20
3.5588697669
 30
0.0
  0
SPLINE
  5
2D3
100
AcDbEntity
  8
0
100
AcDbSpline
 62
7
  6
CONTINUOUS
 70
0
 71
3
 72
30
 73
26
 74
0
 42
0.0000001
 43
0.0000001
 44
0.0000000001
 40
0.0
 40
0.0
 40
0.0
 40
0.0
 40
0.0706700698
 40
0.1403523147
 40
0.2089855805
 40
0.2765181464
 40
0.3429091424
 40
0.4081290544
 40
0.4721605731
 40
0.5037327407
 40
0.5350075636
 40
0.5966651999
 40
0.6571686174
 40
0.6870055989
 40
0.7165727772
 40
0.7458789698
 40
0.7749343217
 40
0.8037503202
 40
0.8323397914
 40
0.860716887
 40
0.8888970584
 40
0.9168970382
 40
0.9447346674
 40
0.9724288408
 40
1.0
 40
1.0
 40
1.0
 40
1.0
 10
12.1082998136
 20
3.558869767
 30
0.0
 10
12.1447755297
 20
3.5737609228
 30
0.0
 10
12.2165246202
 20
3.6050689862
 30
0.0
 10
12.3209164652
 20
3.6569103244
 30
0.0
 10
12.4210037431
 20
3.7131622594
 30
0.0
 10
12.5164276736
 20
3.7736479983
 30
0.0
 10
12.6068431768
 20
3.8381757602
 30
0.0
 10
12.6919116999
 20
3.9065324095
 30
0.0
 10
12.7583911418
 20
3.9667812177
 30
0.0
 10
12.8085418122
 20
4.0166781143
 30
0.0
 10
12.8561848415
 20
4.0671695684
 30
0.0
 10
12.911875266
 20
4.1321825109
 30
0.0
 10
12.9626088977
 20
4.2001440951
 30
0.0
 10
12.999736769
 20
4.2557476417
 30
0.0
 10
13.0257278463
 20
4.297835802
 30
0.0
 10
13.0499640733
 20
4.3404575553
 30
0.0
 10
13.0724217865
 20
4.3835714635
 30
0.0
 10
13.0930789496
 20
4.427134917
 30
0.0
 10
13.1119158162
 20
4.4711050602
 30
0.0
 10
13.1289148164
 20
4.5154386975
 30
0.0
 10
13.1440607532
 20
4.5600924906
 30
0.0
 10
13.1573405982
 20
4.6050229806
 30
0.0
 10
13.1687435957
 20
4.650187102
 30
0.0
 10
13.1782610792
 20
4.6955409227
 30
0.0
 10
13.1833551868
 20
4.7259374118
 30
0.0
 10
13.1855833244
 20
4.7411458701
 30
0.0
  0
SPLINE
  5
2D4
100
AcDbEntity
  8
0
100
AcDbSpline
 62
7
  6
CONTINUOUS
 70
0
 71
3
 72
30
 73
26
 74
0
 42
0.0000001
 43
0.0000001
 44
0.0000000001
 40
0.0
 40
0.0
 40
0.0
 40
0.0
 40
0.0277605061
 40
0.055549265
 40
0.0833930851
 40
0.1113197196
 40
0.1393556851
 40
0.1675269302
 40
0.1958584984
 40
0.2243743548
 40
0.2530972827
 40
0.2820487433
 40
0.3112487773
 40
0.3407159182
 40
0.3704671179
 40
0.4005176844
 40
0.4615587886
 40
0.5239394307
 40
0.5877206684
 40
0.6529366287
 40
0.7195954599
 40
0.7876808012
 40
0.857153372
 40
0.9279527387
 40
1.0
 40
1.0
 40
1.0
 40
1.0
 10
9.4273183383
 20
5.4851550294
 30
0.0
 10
9.4273183383
 20
5.4977882168
 30
0.0
 10
9.4279029262
 20
5.5230713369
 30
0.0
 10
9.4305318181
 20
5.5609433363
 30
0.0
 10
9.4349097272
 20
5.598730056
 30
0.0
 10
9.4410309566
 20
5.636387424
 30
0.0
 10
9.4488879752
 20
5.6738733901
 30
0.0
 10
9.4584709345
 20
5.7111457676
 30
0.0
 10
9.4697679929
 20
5.7481630444
 30
0.0
 10
9.482765361
 20
5.7848842453
 30
0.0
 10
9.4974473527
 20
5.8212690261
 30
0.0
 10
9.5137963727
 20
5.8572777331
 30
0.0
 10
9.5317931029
 20
5.8928714695
 30
0.0
 10
9.551416393
 20
5.9280118917
 30
0.0
 10
9.5726440052
 20
5.9626620543
 30
0.0
 10
9.6032094207
 20
6.0083925864
 30
0.0
 10
9.6453849044
 20
6.0641545274
 30
0.0
 10
9.7017108086
 20
6.1281650978
 30
0.0
 10
9.7637711199
 20
6.1893671272
 30
0.0
 10
9.8312923125
 20
6.2475071859
 30
0.0
 10
9.9039827049
 20
6.3023491589
 30
0.0
 10
9.9815299695
 20
6.3536689597
 30
0.0
 10
10.063603771
 20
6.401257499
 30
0.0
 10
10.1498517937
 20
6.4449186119
 30
0.0
 10
10.2094040905
 20
6.4710749687
 30
0.0
 10
10.2397590488
 20
6.4834673285
 30
0.0
  0
SPLINE
  5
2D5
100
AcDbEntity
  8
0
100
AcDbSpline
 62
7
  6
CONTINUOUS
 70
0
 71
3
 72
9
 73
5
 74
0
 42
0.0000001
 43
0.0000001
 44
0.0000000001
 40
0.0
 40
0.0
 40
0.0
 40
0.0
 40
0.2468615081
 40
1.0
 40
1.0
 40
1.0
 40
1.0
 10
10.2397590488
 20
6.4834673285
 30
0.0
 10
10.2584466627
 20
6.491096515
 30
0.0
 10
10.3346435653
 20
6.5207757731
 30
0.0
 10
10.4127195566
 20
6.5455980708
 30
0.0
 10
10.4721785039
 20
6.5616257866
 30
0.0
  0
SPLINE
  5
2D6
100
AcDbEntity
  8
0
100
AcDbSpline
 62
7
  6
CONTINUOUS
 70
0
 71
3
 72
30
 73
26
 74
0
 42
0.0000001
 43
0.0000001
 44
0.0000000001
 40
0.0
 40
0.0
 40
0.0
 40
0.0
 40
0.0728188074
 40
0.1445065183
 40
0.2149148697
 40
0.2839178053
 40
0.3514149001
 40
0.4173347461
 40
0.4816382394
 40
0.544321652
 40
0.6054192528
 40
0.6354019255
 40
0.6650194358
 40
0.6942874605
 40
0.7232242135
 40
0.7518503985
 40
0.7801891286
 40
0.8082658104
 40
0.8361080011
 40
0.8637452368
 40
0.8912088037
 40
0.9185315645
 40
0.9457474677
 40
0.9728918605
 40
1.0
 40
1.0
 40
1.0
 40
1.0
 10
11.6223849169
 20
6.561645539
 30
0.0
 10
11.660131998
 20
6.5514719679
 30
0.0
 10
11.7344874592
 20
6.5291570999
 30
0.0
 10
11.8429254911
 20
6.4895465017
 30
0.0
 10
11.9468897168
 20
6.4442453873
 30
0.0
 10
12.0457907747
 20
6.3935017288
 30
0.0
 10
12.1390731251
 20
6.3375903939
 30
0.0
 10
12.2262095057
 20
6.2768139696
 30
0.0
 10
12.3067063531
 20
6.2114987623
 30
0.0
 10
12.3800997127
 20
6.1420007508
 30
0.0
 10
12.4353405725
 20
6.0805166386
 30
0.0
 10
12.4754767387
 20
6.0296228702
 30
0.0
 10
12.5033674377
 20
5.9908939089
 30
0.0
 10
12.5291895977
 20
5.9514256452
 30
0.0
 10
12.5529048463
 20
5.9112725877
 30
0.0
 10
12.5744767607
 20
5.8704914593
 30
0.0
 10
12.593871979
 20
5.8291401039
 30
0.0
 10
12.6110600505
 20
5.7872777491
 30
0.0
 10
12.626013634
 20
5.7449648854
 30
0.0
 10
12.6387086281
 20
5.7022632485
 30
0.0
 10
12.6491243514
 20
5.6592356463
 30
0.0
 10
12.6572435598
 20
5.6159461004
 30
0.0
 10
12.6630528383
 20
5.5724587894
 30
0.0
 10
12.6665422703
 20
5.5288408554
 30
0.0
 10
12.6673183383
 20
5.499708503
 30
0.0
 10
12.6673183383
 20
5.4851550294
 30
0.0
  0
SPLINE
  5
2D7
100
AcDbEntity
  8
0
100
AcDbSpline
 62
7
  6
CONTINUOUS
 70
0
 71
3
 72
33
 73
29
 74
0
 42
0.0000001
 43
0.0000001
 44
0.0000000001
 40
0.0
 40
0.0
 40
0.0
 40
0.0
 40
0.0280957417
 40
0.0562158864
 40
0.0843844462
 40
0.1126254417
 40
0.1409623342
 40
0.1694180948
 40
0.1980150265
 40
0.2267746495
 40
0.2557175806
 40
0.2848634178
 40
0.3142306479
 40
0.3438365605
 40
0.3736971573
 40
0.4038270793
 40
0.4342395505
 40
0.4649463397
 40
0.5272721972
 40
0.5908793718
 40
0.6231811848
 40
0.6558159627
 40
0.6887848227
 40
0.7220874207
 40
0.7896775514
 40
0.858563878
 40
0.9286947713
 40
1.0
 40
1.0
 40
1.0
 40
1.0
 10
9.1423183383
 20
5.3277726261
 30
0.0
 10
9.1423183383
 20
5.3429742672
 30
0.0
 10
9.1430193504
 20
5.3733954019
 30
0.0
 10
9.1461716855
 20
5.4189593078
 30
0.0
 10
9.1514199617
 20
5.4644096037
 30
0.0
 10
9.1587557695
 20
5.5096883617
 30
0.0
 10
9.168167609
 20
5.5547401669
 30
0.0
 10
9.1796408975
 20
5.5995101508
 30
0.0
 10
9.193158151
 20
5.6439448221
 30
0.0
 10
9.2086992297
 20
5.6879920235
 30
0.0
 10
9.2262415223
 20
5.7316010735
 30
0.0
 10
9.2457601488
 20
5.77472281
 30
0.0
 10
9.2672281178
 20
5.8173096403
 30
0.0
 10
9.2906164737
 20
5.8593155322
 30
0.0
 10
9.3158945507
 20
5.9006960125
 30
0.0
 10
9.3430298879
 20
5.9414079018
 30
0.0
 10
9.3719890904
 20
5.9814100716
 30
0.0
 10
9.4131853704
 20
6.0340011463
 30
0.0
 10
9.469144907
 20
6.0977593693
 30
0.0
 10
9.5300854644
 20
6.157996743
 30
0.0
 10
9.5819624846
 20
6.2043381326
 30
0.0
 10
9.6226222244
 20
6.2383087065
 30
0.0
 10
9.6647859165
 20
6.2712792128
 30
0.0
 10
9.7232324732
 20
6.3140724479
 30
0.0
 10
9.7998533518
 20
6.3648578409
 30
0.0
 10
9.8965851522
 20
6.421012749
 30
0.0
 10
9.9981497577
 20
6.4724687886
 30
0.0
 10
10.0682521129
 20
6.5032685152
 30
0.0
 10
10.1039710028
 20
6.5178506909
 30
0.0
  0
SPLINE
  5
2D8
100
AcDbEntity
  8
0
100
AcDbSpline
 62
7
  6
CONTINUOUS
 70
0
 71
3
 72
11
 73
7
 74
0
 42
0.0000001
 43
0.0000001
 44
0.0000000001
 40
0.0
 40
0.0
 40
0.0
 40
0.0
 40
0.2461025841
 40
0.4949752444
 40
0.7463668349
 40
1.0
 40
1.0
 40
1.0
 40
1.0
 10
10.1039710028
 20
6.5178506909
 30
0.0
 10
10.1333498641
 20
6.5298445608
 30
0.0
 10
10.1929689532
 20
6.5526880796
 30
0.0
 10
10.2842295183
 20
6.5833196595
 30
0.0
 10
10.3776042822
 20
6.6104436787
 30
0.0
 10
10.4408391414
 20
6.6260780799
 30
0.0
 10
10.4727356905
 20
6.6332994857
 30
0.0
  0
SPLINE
  5
2D9
100
AcDbEntity
  8
0
100
AcDbSpline
 62
7
  6
CONTINUOUS
 70
0
 71
3
 72
31
 73
27
 74
0
 42
0.0000001
 43
0.0000001
 44
0.0000000001
 40
0.0
 40
0.0
 40
0.0
 40
0.0
 40
0.0722204515
 40
0.1434355395
 40
0.2134822558
 40
0.2822208883
 40
0.349538937
 40
0.415354876
 40
0.4796216397
 40
0.54232969
 40
0.573113853
 40
0.6035232128
 40
0.6335680242
 40
0.6632611362
 40
0.6926179656
 40
0.721656422
 40
0.7503968223
 40
0.7788617865
 40
0.8070760827
 40
0.8350664521
 40
0.8628614253
 40
0.8904911
 40
0.9179869075
 40
0.945381339
 40
0.9727077603
 40
1.0
 40
1.0
 40
1.0
 40
1.0
 10
11.6218318441
 20
6.6333151408
 30
0.0
 10
11.6690250119
 20
6.6226320198
 30
0.0
 10
11.7621599995
 20
6.5986715437
 30
0.0
 10
11.8983627577
 20
6.5547247844
 30
0.0
 10
12.0294045556
 20
6.503236204
 30
0.0
 10
12.1544862597
 20
6.4444952562
 30
0.0
 10
12.2728509707
 20
6.3788274279
 30
0.0
 10
12.3837785702
 20
6.3065920344
 30
0.0
 10
12.4865823248
 20
6.2281874089
 30
0.0
 10
12.5654417025
 20
6.1576191016
 30
0.0
 10
12.6237395606
 20
6.0984919873
 30
0.0
 10
12.6647800703
 20
6.0531615634
 30
0.0
 10
12.703332443
 20
6.0066426137
 30
0.0
 10
12.7393317905
 20
5.9590006336
 30
0.0
 10
12.7727149872
 20
5.9103046622
 30
0.0
 10
12.8034221364
 20
5.8606262585
 30
0.0
 10
12.8313964254
 20
5.8100399925
 30
0.0
 10
12.8565844857
 20
5.7586235183
 30
0.0
 10
12.8789367069
 20
5.7064577233
 30
0.0
 10
12.8984076451
 20
5.6536267818
 30
0.0
 10
12.9149564739
 20
5.6002181511
 30
0.0
 10
12.9285474902
 20
5.5463223726
 30
0.0
 10
12.9391505899
 20
5.4920330956
 30
0.0
 10
12.9467417927
 20
5.4374457133
 30
0.0
 10
12.9513035958
 20
5.3826604816
 30
0.0
 10
12.9523183383
 20
5.3460582486
 30
0.0
 10
12.9523183383
 20
5.3277726261
 30
0.0
  0
SPLINE
  5
2DA
100
AcDbEntity
  8
0
100
AcDbSpline
 62
7
  6
CONTINUOUS
 70
0
 71
3
 72
21
 73
17
 74
0
 42
0.0000001
 43
0.0000001
 44
0.0000000001
 40
0.0
 40
0.0
 40
0.0
 40
0.0
 40
0.0601425831
 40
0.1203962283
 40
0.1808086454
 40
0.241427585
 40
0.302299231
 40
0.3634685561
 40
0.4249789581
 40
0.4868720307
 40
0.5491873676
 40
0.6119623608
 40
0.6752320494
 40
0.7390289594
 40
0.8682983107
 40
1.0
 40
1.0
 40
1.0
 40
1.0
 10
8.8990731305
 20
4.9580644672
 30
0.0
 10
8.9000025462
 20
4.9746200625
 30
0.0
 10
8.9026014734
 20
5.0077250788
 30
0.0
 10
8.9087047577
 20
5.0572156333
 30
0.0
 10
8.9170068718
 20
5.1065191955
 30
0.0
 10
8.9274956659
 20
5.1555780439
 30
0.0
 10
8.9401563059
 20
5.2043372312
 30
0.0
 10
8.9549710183
 20
5.252742472
 30
0.0
 10
8.9719194499
 20
5.3007409457
 30
0.0
 10
8.9909788446
 20
5.3482811712
 30
0.0
 10
9.0121242592
 20
5.3953131675
 30
0.0
 10
9.0353284927
 20
5.4417882532
 30
0.0
 10
9.0605629453
 20
5.4876599773
 30
0.0
 10
9.0970303154
 20
5.5482159695
 30
0.0
 10
9.1476275381
 20
5.6221983281
 30
0.0
 10
9.1925516173
 20
5.678492589
 30
0.0
 10
9.2161779992
 20
5.7060657209
 30
0.0
  0
SPLINE
  5
2DB
100
AcDbEntity
  8
0
100
AcDbSpline
 62
7
  6
CONTINUOUS
 70
0
 71
3
 72
21
 73
17
 74
0
 42
0.0000001
 43
0.0000001
 44
0.0000000001
 40
0.0
 40
0.0
 40
0.0
 40
0.0
 40
0.1317007681
 40
0.2609695065
 40
0.324766223
 40
0.3880357927
 40
0.4508107376
 40
0.5131260924
 40
0.5750192447
 40
0.6365297835
 40
0.6976992978
 40
0.7585711766
 40
0.8191903877
 40
0.8796031091
 40
0.9398570712
 40
1.0
 40
1.0
 40
1.0
 40
1.0
 10
12.8785087684
 20
5.7060072524
 30
0.0
 10
12.9021314234
 20
5.6784357115
 30
0.0
 10
12.9470483974
 20
5.6221449072
 30
0.0
 10
12.9976374462
 20
5.5481676544
 30
0.0
 10
13.0340989336
 20
5.487616099
 30
0.0
 10
13.059329329
 20
5.4417478192
 30
0.0
 10
13.0825298299
 20
5.3952763211
 30
0.0
 10
13.1036718427
 20
5.3482480442
 30
0.0
 10
13.122728194
 20
5.3007116665
 30
0.0
 10
13.1396739378
 20
5.2527171511
 30
0.0
 10
13.1544863217
 20
5.2043159653
 30
0.0
 10
13.1671449965
 20
5.1555609162
 30
0.0
 10
13.1776322069
 20
5.106506278
 30
0.0
 10
13.1859331161
 20
5.0572069842
 30
0.0
 10
13.192035578
 20
5.0077207378
 30
0.0
 10
13.1946342115
 20
4.974618617
 30
0.0
 10
13.1955635461
 20
4.9580644672
 30
0.0
  0
SPLINE
  5
2DC
100
AcDbEntity
  8
0
100
AcDbSpline
 62
7
  6
CONTINUOUS
 70
0
 71
3
 72
20
 73
16
 74
0
 42
0.0000001
 43
0.0000001
 44
0.0000000001
 40
0.0
 40
0.0
 40
0.0
 40
0.0
 40
0.0536615395
 40
0.1086677188
 40
0.1650482661
 40
0.2228078828
 40
0.3423209632
 40
0.4040319495
 40
0.4669352354
 40
0.5309418064
 40
0.5959494598
 40
0.7284643851
 40
0.7957567702
 40
0.8635449219
 40
1.0
 40
1.0
 40
1.0
 40
1.0
 10
10.6953467171
 20
7.0539658238
 30
0.0
 10
10.6998294665
 20
7.0486439244
 30
0.0
 10
10.7093207707
 20
7.0382086421
 30
0.0
 10
10.7248291318
 20
7.0234362865
 30
0.0
 10
10.7417179812
 20
7.0094154344
 30
0.0
 10
10.7662514009
 20
6.9916087954
 30
0.0
 10
10.7930048713
 20
6.9757966759
 30
0.0
 10
10.8215279287
 20
6.9620411787
 30
0.0
 10
10.8441193363
 20
6.9526351724
 30
0.0
 10
10.8675785014
 20
6.9442955522
 30
0.0
 10
10.9000836365
 20
6.9345871232
 30
0.0
 10
10.9336953928
 20
6.9272480843
 30
0.0
 10
10.9680470278
 20
6.9222787686
 30
0.0
 10
11.0031027762
 20
6.9188843881
 30
0.0
 10
11.0296276274
 20
6.9181814581
 30
0.0
 10
11.0473183383
 20
6.9185277047
 30
0.0
  0
SPLINE
  5
2DD
100
AcDbEntity
  8
0
100
AcDbSpline
 62
7
  6
CONTINUOUS
 70
0
 71
3
 72
13
 73
9
 74
0
 42
0.0000001
 43
0.0000001
 44
0.0000000001
 40
0.0
 40
0.0
 40
0.0
 40
0.0
 40
0.2570921462
 40
0.3848576421
 40
0.5115271384
 40
0.6367213111
 40
0.7600895594
 40
1.0
 40
1.0
 40
1.0
 40
1.0
 10
11.0473183383
 20
6.8687190447
 30
0.0
 10
11.0692863838
 20
6.8691470457
 30
0.0
 10
11.1021776606
 20
6.8716727084
 30
0.0
 10
11.1453266882
 20
6.8788053047
 30
0.0
 10
11.1769887555
 20
6.8859806573
 30
0.0
 10
11.2078007985
 20
6.8949502092
 30
0.0
 10
11.2470974095
 20
6.9090897106
 30
0.0
 10
11.2752876085
 20
6.9223884486
 30
0.0
 10
11.2931622371
 20
6.9324335022
 30
0.0
  0
SPLINE
  5
2DE
100
AcDbEntity
  8
0
100
AcDbSpline
 62
7
  6
CONTINUOUS
 70
0
 71
3
 72
21
 73
17
 74
0
 42
0.0000001
 43
0.0000001
 44
0.0000000001
 40
0.0
 40
0.0
 40
0.0
 40
0.0
 40
0.1403419381
 40
0.2087232923
 40
0.2758609926
 40
0.4063386772
 40
0.4697758704
 40
0.5320493503
 40
0.5932252101
 40
0.6533883548
 40
0.7126421282
 40
0.7711073283
 40
0.8289204831
 40
0.8862317135
 40
0.9432020402
 40
1.0
 40
1.0
 40
1.0
 40
1.0
 10
11.2931622371
 20
6.9324335022
 30
0.0
 10
11.3053629893
 20
6.9392899922
 30
0.0
 10
11.3230317065
 20
6.9503839156
 30
0.0
 10
11.3450887536
 20
6.966842464
 30
0.0
 10
11.3654495459
 20
6.9838602638
 30
0.0
 10
11.3839841428
 20
7.0022460022
 30
0.0
 10
11.400365998
 20
7.0218685241
 30
0.0
 10
11.4113727324
 20
7.0369253415
 30
0.0
 10
11.4211742002
 20
7.0524080888
 30
0.0
 10
11.4297379731
 20
7.0682679283
 30
0.0
 10
11.4370347652
 20
7.0844537812
 30
0.0
 10
11.4430396505
 20
7.1009135556
 30
0.0
 10
11.4477319223
 20
7.1175938414
 30
0.0
 10
11.4510953064
 20
7.1344407695
 30
0.0
 10
11.4531180641
 20
7.1513979294
 30
0.0
 10
11.4535683202
 20
7.1627483772
 30
0.0
 10
11.4535683202
 20
7.1684124525
 30
0.0
  0
SPLINE
  5
2DF
100
AcDbEntity
  8
0
100
AcDbSpline
 62
7
  6
CONTINUOUS
 70
0
 71
3
 72
28
 73
24
 74
0
 42
0.0000001
 43
0.0000001
 44
0.0000000001
 40
0.0
 40
0.0
 40
0.0
 40
0.0
 40
0.0717758003
 40
0.1433044694
 40
0.2142516769
 40
0.2842991576
 40
0.3531545269
 40
0.4205600305
 40
0.4863011644
 40
0.5502160642
 40
0.6122043714
 40
0.6722362106
 40
0.7303597704
 40
0.7587553028
 40
0.7867305688
 40
0.8143155007
 40
0.8415452445
 40
0.8684599308
 40
0.8951042578
 40
0.9215269737
 40
0.9477802623
 40
0.9739190181
 40
1.0
 40
1.0
 40
1.0
 40
1.0
 10
11.0473183383
 20
6.9185277047
 30
0.0
 10
11.0606085362
 20
6.9187878234
 30
0.0
 10
11.0871344302
 20
6.9202271279
 30
0.0
 10
11.1265404361
 20
6.9251301938
 30
0.0
 10
11.1651914815
 20
6.9327383584
 30
0.0
 10
11.2027157165
 20
6.9429869481
 30
0.0
 10
11.2387550907
 20
6.9557866506
 30
0.0
 10
11.2729649868
 20
6.9710240446
 30
0.0
 10
11.3050183674
 20
6.9885633167
 30
0.0
 10
11.3346081957
 20
7.0082470754
 30
0.0
 10
11.3614507795
 20
7.0298993214
 30
0.0
 10
11.3852850686
 20
7.053322593
 30
0.0
 10
11.4025848959
 20
7.0743115742
 30
0.0
 10
11.4146475266
 20
7.0917622223
 30
0.0
 10
11.4227414123
 20
7.105048648
 30
0.0
 10
11.4299306221
 20
7.1186016716
 30
0.0
 10
11.4361978027
 20
7.1323900005
 30
0.0
 10
11.4415273959
 20
7.1463812237
 30
0.0
 10
11.4459062479
 20
7.1605424901
 30
0.0
 10
11.4493234572
 20
7.1748403465
 30
0.0
 10
11.4517704671
 20
7.1892412374
 30
0.0
 10
11.4532411156
 20
7.2037101778
 30
0.0
 10
11.4535683203
 20
7.2133843481
 30
0.0
 10
11.4535683202
 20
7.2182144969
 30
0.0
  0
SPLINE
  5
2E0
100
AcDbEntity
  8
0
100
AcDbSpline
 62
7
  6
CONTINUOUS
 70
0
 71
3
 72
27
 73
23
 74
0
 42
0.0000001
 43
0.0000001
 44
0.0000000001
 40
0.0
 40
0.0
 40
0.0
 40
0.0
 40
0.0708929784
 40
0.1415808448
 40
0.2117776918
 40
0.2812087344
 40
0.3496184616
 40
0.4167768459
 40
0.4824856249
 40
0.5465851517
 40
0.6089610564
 40
0.6695508875
 40
0.728350424
 40
0.7854188961
 40
0.8133507291
 40
0.8409029798
 40
0.8681020953
 40
0.8949786217
 40
0.9215670256
 40
0.9479053873
 40
0.974035014
 40
1.0
 40
1.0
 40
1.0
 40
1.0
 10
11.0473183383
 20
6.9681751956
 30
0.0
 10
11.0596714806
 20
6.968416296
 30
0.0
 10
11.0843339409
 20
6.9696930569
 30
0.0
 10
11.1210182393
 20
6.97398187
 30
0.0
 10
11.1570951237
 20
6.9806151383
 30
0.0
 10
11.1922644656
 20
6.9895444492
 30
0.0
 10
11.2262360526
 20
7.0007026003
 30
0.0
 10
11.258728937
 20
7.0140043708
 30
0.0
 10
11.2894745986
 20
7.0293470292
 30
0.0
 10
11.3182186519
 20
7.0466117465
 30
0.0
 10
11.3447228762
 20
7.0656639219
 30
0.0
 10
11.3687672562
 20
7.0863556785
 30
0.0
 10
11.3901493835
 20
7.108523164
 30
0.0
 10
11.4057135775
 20
7.128227568
 30
0.0
 10
11.4166197268
 20
7.1445419353
 30
0.0
 10
11.4239739877
 20
7.1569430497
 30
0.0
 10
11.4305441926
 20
7.1695697915
 30
0.0
 10
11.4363166739
 20
7.1823970043
 30
0.0
 10
11.4412790586
 20
7.1953986004
 30
0.0
 10
11.4454208615
 20
7.2085483841
 30
0.0
 10
11.4487331268
 20
7.2218189142
 30
0.0
 10
11.4503879611
 20
7.2307530351
 30
0.0
 10
11.4510732883
 20
7.235226115
 30
0.0
  0
SPLINE
  5
2E1
100
AcDbEntity
  8
0
100
AcDbSpline
 62
7
  6
CONTINUOUS
 70
0
 71
3
 72
18
 73
14
 74
0
 42
0.0000001
 43
0.0000001
 44
0.0000000001
 40
0.0
 40
0.0
 40
0.0
 40
0.0
 40
0.1411388092
 40
0.2777879544
 40
0.4095891748
 40
0.5363966151
 40
0.6583100333
 40
0.7175683043
 40
0.7757656223
 40
0.832992284
 40
0.8893556276
 40
0.9449789727
 40
1.0
 40
1.0
 40
1.0
 40
1.0
 10
11.2201279562
 20
6.4869480864
 30
0.0
 10
11.2311019425
 20
6.4914281976
 30
0.0
 10
11.2523243015
 20
6.5012113495
 30
0.0
 10
11.2820927802
 20
6.5185543794
 30
0.0
 10
11.3089686272
 20
6.5381457985
 30
0.0
 10
11.3326117152
 20
6.5597468866
 30
0.0
 10
11.3495376994
 20
6.5794026432
 30
0.0
 10
11.3611108439
 20
6.5958555646
 30
0.0
 10
11.368733572
 20
6.6084038372
 30
0.0
 10
11.3753544917
 20
6.6212354677
 30
0.0
 10
11.3809528195
 20
6.6343112565
 30
0.0
 10
11.3855101313
 20
6.6475891622
 30
0.0
 10
11.3878556524
 20
6.6565916156
 30
0.0
 10
11.3888465539
 20
6.6611049503
 30
0.0
  0
SPLINE
  5
2E2
100
AcDbEntity
  8
0
100
AcDbSpline
 62
7
  6
CONTINUOUS
 70
0
 71
3
 72
21
 73
17
 74
0
 42
0.0000001
 43
0.0000001
 44
0.0000000001
 40
0.0
 40
0.0
 40
0.0
 40
0.0
 40
0.1361606081
 40
0.2683581208
 40
0.3330555147
 40
0.3968577192
 40
0.4598132205
 40
0.5219785889
 40
0.5834181933
 40
0.6442038534
 40
0.7044144543
 40
0.7641352377
 40
0.8234570035
 40
0.8824752231
 40
0.9412890268
 40
1.0
 40
1.0
 40
1.0
 40
1.0
 10
11.4978119383
 20
6.8735290143
 30
0.0
 10
11.5076464228
 20
6.8647617681
 30
0.0
 10
11.5263126198
 20
6.8466561082
 30
0.0
 10
11.5473497236
 20
6.8221770874
 30
0.0
 10
11.5623644822
 20
6.801896088
 30
0.0
 10
11.572641992
 20
6.7864733934
 30
0.0
 10
11.5819968697
 20
6.7707586669
 30
0.0
 10
11.5904127349
 20
6.7547791744
 30
0.0
 10
11.5978744885
 20
6.7385630178
 30
0.0
 10
11.6043687469
 20
6.7221386604
 30
0.0
 10
11.6098838857
 20
6.7055350464
 30
0.0
 10
11.6144099801
 20
6.68878144
 30
0.0
 10
11.6179388065
 20
6.6719074886
 30
0.0
 10
11.6204639685
 20
6.6549428442
 30
0.0
 10
11.6219809177
 20
6.6379183611
 30
0.0
 10
11.622318342
 20
6.6265436692
 30
0.0
 10
11.622318338
 20
6.6208627351
 30
0.0
  0
SPLINE
  5
2E3
100
AcDbEntity
  8
0
100
AcDbSpline
 62
7
  6
CONTINUOUS
 70
0
 71
3
 72
38
 73
34
 74
0
 42
0.0000001
 43
0.0000001
 44
0.0000000001
 40
0.0
 40
0.0
 40
0.0
 40
0.0
 40
0.0667134541
 40
0.1007433076
 40
0.1351323209
 40
0.1698136188
 40
0.2047169554
 40
0.239769661
 40
0.2748974633
 40
0.31002526
 40
0.3450779704
 40
0.3799813047
 40
0.4146626003
 40
0.4490516283
 40
0.4830814252
 40
0.5166891393
 40
0.5498168801
 40
0.582412623
 40
0.6144310741
 40
0.6458346276
 40
0.6765942481
 40
0.706690434
 40
0.7361140907
 40
0.7648674101
 40
0.7929646061
 40
0.8204325388
 40
0.8473110886
 40
0.8736532126
 40
0.8995246155
 40
0.9250028872
 40
0.9501761272
 40
0.9751409466
 40
1.0
 40
1.0
 40
1.0
 40
1.0
 10
11.3348183383
 20
5.6040682103
 30
0.0
 10
11.3127712863
 20
5.595067539
 30
0.0
 10
11.2787201556
 20
5.5832493433
 30
0.0
 10
11.2320919052
 20
5.5708543213
 30
0.0
 10
11.1960912419
 20
5.5631407346
 30
0.0
 10
11.1594575648
 20
5.5571074765
 30
0.0
 10
11.1223447192
 20
5.5527794582
 30
0.0
 10
11.0849117787
 20
5.5501752863
 30
0.0
 10
11.0473183375
 20
5.5493059897
 30
0.0
 10
11.0097249049
 20
5.5501752846
 30
0.0
 10
10.9722919346
 20
5.5527794649
 30
0.0
 10
10.9351792016
 20
5.5571074502
 30
0.0
 10
10.898545105
 20
5.5631408322
 30
0.0
 10
10.8625459885
 20
5.570853957
 30
0.0
 10
10.8273354738
 20
5.5802140487
 30
0.0
 10
10.7930638088
 20
5.5911813528
 30
0.0
 10
10.7598772262
 20
5.603709325
 30
0.0
 10
10.7279173362
 20
5.6177448393
 30
0.0
 10
10.6973205237
 20
5.6332284275
 30
0.0
 10
10.6682174042
 20
5.6500945487
 30
0.0
 10
10.6407322896
 20
5.6682718889
 30
0.0
 10
10.6149827137
 20
5.6876836615
 30
0.0
 10
10.591078974
 20
5.7082479306
 30
0.0
 10
10.569123737
 20
5.7298779305
 30
0.0
 10
10.5492116569
 20
5.7524823799
 30
0.0
 10
10.5314290375
 20
5.7759657805
 30
0.0
 10
10.5158534848
 20
5.800228696
 30
0.0
 10
10.5025535743
 20
5.8251680006
 30
0.0
 10
10.491588477
 20
5.8506772362
 30
0.0
 10
10.4830075471
 20
5.8766465558
 30
0.0
 10
10.4768498661
 20
5.9029644119
 30
0.0
 10
10.4731437798
 20
5.9295131894
 30
0.0
 10
10.4723183385
 20
5.9473088582
 30
0.0
 10
10.4723183383
 20
5.9561823608
 30
0.0
  0
SPLINE
  5
2E4
100
AcDbEntity
  8
0
100
AcDbSpline
 62
7
  6
CONTINUOUS
 70
0
 71
3
 72
36
 73
32
 74
0
 42
0.0000001
 43
0.0000001
 44
0.0000000001
 40
0.0
 40
0.0
 40
0.0
 40
0.0
 40
0.0667160163
 40
0.1007471582
 40
0.1351374894
 40
0.2047054188
 40
0.2397594671
 40
0.2748886092
 40
0.3450529227
 40
0.3799575953
 40
0.4146402151
 40
0.4490305623
 40
0.4830616574
 40
0.5166706573
 40
0.5497996665
 40
0.5823966531
 40
0.6144163354
 40
0.6458210844
 40
0.6765818858
 40
0.706679217
 40
0.7361040004
 40
0.7648584146
 40
0.7929566839
 40
0.8204256681
 40
0.8473052452
 40
0.8736483818
 40
0.8995207716
 40
0.925000022
 40
0.95017422
 40
0.9751399984
 40
1.0
 40
1.0
 40
1.0
 40
1.0
 10
11.2785683383
 20
6.323498348
 30
0.0
 10
11.2608348371
 20
6.3162586764
 30
0.0
 10
11.2334462016
 20
6.3067528027
 30
0.0
 10
11.1959400153
 20
6.2967827035
 30
0.0
 10
11.1571888369
 20
6.2884798208
 30
0.0
 10
11.1175942184
 20
6.2829350739
 30
0.0
 10
11.0775565624
 20
6.2801497299
 30
0.0
 10
11.0372615402
 20
6.2792179141
 30
0.0
 10
10.9969841341
 20
6.2810766681
 30
0.0
 10
10.9571200183
 20
6.2857254977
 30
0.0
 10
10.9276527631
 20
6.2905785145
 30
0.0
 10
10.8986971368
 20
6.2967825273
 30
0.0
 10
10.870375587
 20
6.304311303
 30
0.0
 10
10.8428092618
 20
6.3131328311
 30
0.0
 10
10.8161157037
 20
6.3232096801
 30
0.0
 10
10.7904088347
 20
6.3344991147
 30
0.0
 10
10.7657983541
 20
6.3469533024
 30
0.0
 10
10.7423893214
 20
6.3605195305
 30
0.0
 10
10.7202817314
 20
6.3751404344
 30
0.0
 10
10.6995701183
 20
6.3907542546
 30
0.0
 10
10.6803432035
 20
6.407295083
 30
0.0
 10
10.6626835613
 20
6.4246931294
 30
0.0
 10
10.6466673274
 20
6.4428749708
 30
0.0
 10
10.6323639131
 20
6.4617637901
 30
0.0
 10
10.6198357454
 20
6.4812796116
 30
0.0
 10
10.6091379847
 20
6.5013394841
 30
0.0
 10
10.6003182275
 20
6.5218577823
 30
0.0
 10
10.5934161743
 20
6.542746147
 30
0.0
 10
10.5884632576
 20
6.5639148586
 30
0.0
 10
10.585482279
 20
6.5852693098
 30
0.0
 10
10.5848183383
 20
6.5995832177
 30
0.0
 10
10.5848183383
 20
6.6067205995
 30
0.0
  0
SPLINE
  5
2E5
100
AcDbEntity
  8
0
100
AcDbSpline
 62
9
  6
CONTINUOUS
 70
0
 71
3
 72
9
 73
5
 74
0
 42
0.0000001
 43
0.0000001
 44
0.0000000001
 40
0.0
 40
0.0
 40
0.0
 40
0.0
 40
0.2468335655
 40
1.0
 40
1.0
 40
1.0
 40
1.0
 10
10.2451611418
 20
6.4814021058
 30
0.0
 10
10.263417546
 20
6.4888552516
 30
0.0
 10
10.3378573581
 20
6.517871125
 30
0.0
 10
10.4141069592
 20
6.5422131951
 30
0.0
 10
10.4721735476
 20
6.557980977
 30
0.0
  0
SPLINE
  5
2E6
100
AcDbEntity
  8
0
100
AcDbSpline
 62
9
  6
CONTINUOUS
 70
0
 71
3
 72
52
 73
48
 74
0
 42
0.0000001
 43
0.0000001
 44
0.0000000001
 40
0.0
 40
0.0
 40
0.0
 40
0.0
 40
0.0378084783
 40
0.0751838724
 40
0.1120799612
 40
0.1484549105
 40
0.184271828
 40
0.2194993336
 40
0.2541121316
 40
0.288091575
 40
0.3214262284
 40
0.3378519634
 40
0.3541158074
 40
0.3861581247
 40
0.4175698684
 40
0.4483734019
 40
0.478600395
 40
0.5082918912
 40
0.5374981672
 40
0.566278349
 40
0.5805319506
 40
0.5947049034
 40
0.6088067378
 40
0.6228473515
 40
0.6368369719
 40
0.6507861005
 40
0.6647054577
 40
0.6786059301
 40
0.6924985077
 40
0.7063942238
 40
0.720304095
 40
0.7342390599
 40
0.7482099173
 40
0.76222727
 40
0.7763014708
 40
0.7904425641
 40
0.8046602453
 40
0.8189638124
 40
0.8333621225
 40
0.8478635682
 40
0.8624760345
 40
0.8772068797
 40
0.9070459479
 40
0.9374331359
 40
0.9528466542
 40
0.9684108056
 40
1.0
 40
1.0
 40
1.0
 40
1.0
 10
11.6223979458
 20
6.5579986829
 30
0.0
 10
11.6503950484
 20
6.5503971696
 30
0.0
 10
11.7057560943
 20
6.5340996118
 30
0.0
 10
11.7871459454
 20
6.506239192
 30
0.0
 10
11.8661920785
 20
6.4751805579
 30
0.0
 10
11.9426419805
 20
6.4410222408
 30
0.0
 10
12.016253834
 20
6.4038717458
 30
0.0
 10
12.0867940035
 20
6.3638462428
 30
0.0
 10
12.1540391494
 20
6.3210714758
 30
0.0
 10
12.2177745558
 20
6.2756831395
 30
0.0
 10
12.2680416222
 20
6.2356027376
 30
0.0
 10
12.3062775916
 20
6.2023588395
 30
0.0
 10
12.3428109614
 20
6.1686999868
 30
0.0
 10
12.3859652419
 20
6.1252940433
 30
0.0
 10
12.4337590207
 20
6.0709503569
 30
0.0
 10
12.4771530208
 20
6.0147779128
 30
0.0
 10
12.5160063819
 20
5.956954889
 30
0.0
 10
12.5501937724
 20
5.897662915
 30
0.0
 10
12.5796029823
 20
5.8370923634
 30
0.0
 10
12.6001168382
 20
5.7855374094
 30
0.0
 10
12.6140120062
 20
5.7438903675
 30
0.0
 10
12.623155703
 20
5.7125566093
 30
0.0
 10
12.6310463318
 20
5.681052838
 30
0.0
 10
12.6376776725
 20
5.6494036386
 30
0.0
 10
12.643044387
 20
5.6176343994
 30
0.0
 10
12.6471421783
 20
5.5857704263
 30
0.0
 10
12.6499676366
 20
5.5538371472
 30
0.0
 10
12.6515185998
 20
5.5218600618
 30
0.0
 10
12.6517937487
 20
5.489864693
 30
0.0
 10
12.6507928371
 20
5.4578765918
 30
0.0
 10
12.6485167715
 20
5.4259212923
 30
0.0
 10
12.644967276
 20
5.394024312
 30
0.0
 10
12.6401472784
 20
5.362211106
 30
0.0
 10
12.6340606982
 20
5.3305070475
 30
0.0
 10
12.6267123392
 20
5.2989374449
 30
0.0
 10
12.6181082351
 20
5.2675274404
 30
0.0
 10
12.6082552613
 20
5.2363020687
 30
0.0
 10
12.597161311
 20
5.2052862193
 30
0.0
 10
12.584835378
 20
5.1745045149
 30
0.0
 10
12.5712873247
 20
5.1439815775
 30
0.0
 10
12.5565278125
 20
5.113741291
 30
0.0
 10
12.5351600088
 20
5.073662402
 30
0.0
 10
12.5054265066
 20
5.0243714368
 30
0.0
 10
12.4721185928
 20
4.9767866298
 30
0.0
 10
12.4432631459
 20
4.9395696213
 30
0.0
 10
12.4126417839
 20
4.9025874072
 30
0.0
 10
12.3882518751
 20
4.8758217968
 30
0.0
 10
12.3713974789
 20
4.8584022915
 30
0.0
  0
SPLINE
  5
2E7
100
AcDbEntity
  8
0
100
AcDbSpline
 62
9
  6
CONTINUOUS
 70
0
 71
3
 72
15
 73
11
 74
0
 42
0.0000001
 43
0.0000001
 44
0.0000000001
 40
0.0
 40
0.0
 40
0.0
 40
0.0
 40
0.117039319
 40
0.2364049515
 40
0.3581050974
 40
0.4821191768
 40
0.6083996266
 40
0.7368739855
 40
0.8674458711
 40
1.0
 40
1.0
 40
1.0
 40
1.0
 10
12.3713974789
 20
4.8584022915
 30
0.0
 10
12.354353201
 20
4.8407865381
 30
0.0
 10
12.3188410503
 20
4.80623891
 30
0.0
 10
12.2621341913
 20
4.7570989783
 30
0.0
 10
12.2016388162
 20
4.7102786477
 30
0.0
 10
12.1375464517
 20
4.6659252415
 30
0.0
 10
12.0700565889
 20
4.6241752404
 30
0.0
 10
11.9993795034
 20
4.5851578729
 30
0.0
 10
11.9257373783
 20
4.5489945161
 30
0.0
 10
11.8751771878
 20
4.5270189367
 30
0.0
 10
11.8494755348
 20
4.5165262808
 30
0.0
  0
SPLINE
  5
2E8
100
AcDbEntity
  8
0
100
AcDbSpline
 62
9
  6
CONTINUOUS
 70
0
 71
3
 72
30
 73
26
 74
0
 42
0.0000001
 43
0.0000001
 44
0.0000000001
 40
0.0
 40
0.0
 40
0.0
 40
0.0
 40
0.072398864
 40
0.143515143
 40
0.2132658457
 40
0.2815863163
 40
0.348433209
 40
0.4137863486
 40
0.4776505882
 40
0.5400575107
 40
0.6010667775
 40
0.6310795717
 40
0.6607786262
 40
0.6901795577
 40
0.7192997525
 40
0.748158319
 40
0.7767760323
 40
0.8051752397
 40
0.8333797489
 40
0.8614147052
 40
0.8893064493
 40
0.9170823449
 40
0.9447705956
 40
0.9724000514
 40
1.0
 40
1.0
 40
1.0
 40
1.0
 10
11.8573183383
 20
4.4690782324
 30
0.0
 10
11.8876674668
 20
4.4814682123
 30
0.0
 10
11.9471976444
 20
4.5076113409
 30
0.0
 10
12.0333988003
 20
4.551233824
 30
0.0
 10
12.1153941395
 20
4.5987524767
 30
0.0
 10
12.1928303344
 20
4.6499650686
 30
0.0
 10
12.26537702
 20
4.7046557006
 30
0.0
 10
12.3327230957
 20
4.7625931484
 30
0.0
 10
12.3945799178
 20
4.8235338572
 30
0.0
 10
12.4506788102
 20
4.8872175483
 30
0.0
 10
12.4926606173
 20
4.9426588432
 30
0.0
 10
12.5230659232
 20
4.9880961202
 30
0.0
 10
12.5441680212
 20
5.0224997057
 30
0.0
 10
12.5636669679
 20
5.0573740694
 30
0.0
 10
12.5815421129
 20
5.0926824291
 30
0.0
 10
12.597773957
 20
5.1283868693
 30
0.0
 10
12.6123449693
 20
5.1644491585
 30
0.0
 10
12.6252393487
 20
5.2008306137
 30
0.0
 10
12.6364430594
 20
5.2374922044
 30
0.0
 10
12.645943867
 20
5.2743945544
 30
0.0
 10
12.6537314612
 20
5.3114980023
 30
0.0
 10
12.6597973482
 20
5.3487625579
 30
0.0
 10
12.6641348624
 20
5.3861483963
 30
0.0
 10
12.666739241
 20
5.4236141917
 30
0.0
 10
12.6673183346
 20
5.4486248554
 30
0.0
 10
12.6673183248
 20
5.4611215783
 30
0.0
  0
SPLINE
  5
2E9
100
AcDbEntity
  8
0
100
AcDbSpline
 62
9
  6
CONTINUOUS
 70
0
 71
3
 72
36
 73
32
 74
0
 42
0.0000001
 43
0.0000001
 44
0.0000000001
 40
0.0
 40
0.0
 40
0.0
 40
0.0
 40
0.0739858479
 40
0.110334654
 40
0.1462255087
 40
0.2165623599
 40
0.2510006465
 40
0.2849389266
 40
0.3512941533
 40
0.3837339369
 40
0.4156874922
 40
0.4471681668
 40
0.478193474
 40
0.5087851306
 40
0.5389690447
 40
0.5687752449
 40
0.598237743
 40
0.6273943228
 40
0.6562862505
 40
0.6849579057
 40
0.7134563329
 40
0.7418307218
 40
0.7701318253
 40
0.7984113312
 40
0.8267212041
 40
0.8551130192
 40
0.8836373087
 40
0.9123429391
 40
0.9412765393
 40
0.9704819924
 40
1.0
 40
1.0
 40
1.0
 40
1.0
 10
12.0484360611
 20
3.774667227
 30
0.0
 10
12.0974606854
 20
3.7946814461
 30
0.0
 10
12.1695859947
 20
3.8270489455
 30
0.0
 10
12.2625999772
 20
3.8750601762
 30
0.0
 10
12.3514913482
 20
3.9252102113
 30
0.0
 10
12.4363294397
 20
3.979642641
 30
0.0
 10
12.5164934763
 20
4.0382507825
 30
0.0
 10
12.591926692
 20
4.0983543866
 30
0.0
 10
12.6624213565
 20
4.1622549017
 30
0.0
 10
12.7273036394
 20
4.2297249388
 30
0.0
 10
12.772518959
 20
4.281375306
 30
0.0
 10
12.8145622611
 20
4.3343519911
 30
0.0
 10
12.85335714
 20
4.3885594229
 30
0.0
 10
12.8888311711
 20
4.4438979718
 30
0.0
 10
12.9209184152
 20
4.5002662788
 30
0.0
 10
12.9495589335
 20
4.5575608394
 30
0.0
 10
12.9746990846
 20
4.6156763127
 30
0.0
 10
12.9962916148
 20
4.6745056487
 30
0.0
 10
13.0142958002
 20
4.7339402775
 30
0.0
 10
13.0286775696
 20
4.7938702997
 30
0.0
 10
13.0394096229
 20
4.854184697
 30
0.0
 10
13.0464715343
 20
4.914771561
 30
0.0
 10
13.049849836
 20
4.9755183392
 30
0.0
 10
13.0495380779
 20
5.0363120946
 30
0.0
 10
13.0455368541
 20
5.0970397806
 30
0.0
 10
13.0378538087
 20
5.1575884959
 30
0.0
 10
13.0265035701
 20
5.2178458205
 30
0.0
 10
13.0115078051
 20
5.2776998226
 30
0.0
 10
12.9928946892
 20
5.3370402494
 30
0.0
 10
12.9707004711
 20
5.3957551728
 30
0.0
 10
12.9536401752
 20
5.4341940835
 30
0.0
 10
12.9445447394
 20
5.4532623547
 30
0.0
  0
SPLINE
  5
2EA
100
AcDbEntity
  8
0
100
AcDbSpline
 62
9
  6
CONTINUOUS
 70
0
 71
3
 72
33
 73
29
 74
0
 42
0.0000001
 43
0.0000001
 44
0.0000000001
 40
0.0
 40
0.0
 40
0.0
 40
0.0
 40
0.062383602
 40
0.0940522247
 40
0.1259979
 40
0.190589253
 40
0.2231802637
 40
0.2559202908
 40
0.3216992901
 40
0.3546764245
 40
0.3876611635
 40
0.453500776
 40
0.4862934542
 40
0.5189516593
 40
0.5837195177
 40
0.6157734233
 40
0.6475627742
 40
0.6790584437
 40
0.7102330806
 40
0.7410613243
 40
0.7715200224
 40
0.8015884527
 40
0.8312485462
 40
0.8892728635
 40
0.9176294568
 40
0.9455364807
 40
0.9729924907
 40
1.0
 40
1.0
 40
1.0
 40
1.0
 10
11.8494755348
 20
4.5165262808
 30
0.0
 10
11.8057505545
 20
4.4986756323
 30
0.0
 10
11.7387719102
 20
4.474264582
 30
0.0
 10
11.6475069071
 20
4.4464745832
 30
0.0
 10
11.5536945318
 20
4.4215094873
 30
0.0
 10
11.4579450932
 20
4.4013448876
 30
0.0
 10
11.3607771056
 20
4.3859864914
 30
0.0
 10
11.2622544013
 20
4.3737953873
 30
0.0
 10
11.1628819249
 20
4.3665282828
 30
0.0
 10
11.0631585578
 20
4.3641857645
 30
0.0
 10
10.9633662798
 20
4.3651361572
 30
0.0
 10
10.8638107335
 20
4.3710171017
 30
0.0
 10
10.7649897168
 20
4.381828203
 30
0.0
 10
10.6673905727
 20
4.3958304083
 30
0.0
 10
10.5710974805
 20
4.4146568668
 30
0.0
 10
10.4766294584
 20
4.4383017897
 30
0.0
 10
10.407257139
 20
4.4582872399
 30
0.0
 10
10.339279289
 20
4.480539904
 30
0.0
 10
10.2728425493
 20
4.5050118017
 30
0.0
 10
10.2080917284
 20
4.5316498341
 30
0.0
 10
10.1451683033
 20
4.560395867
 30
0.0
 10
10.0842070013
 20
4.591188909
 30
0.0
 10
10.0063032912
 20
4.6345605852
 30
0.0
 10
9.9322158643
 20
4.6820084421
 30
0.0
 10
9.862593202
 20
4.7334178799
 30
0.0
 10
9.8133478426
 20
4.7733565114
 30
0.0
 10
9.7667917824
 20
4.8148778417
 30
0.0
 10
9.7373706833
 20
4.8437940464
 30
0.0
 10
9.723154684
 20
4.8584896622
 30
0.0
  0
SPLINE
  5
2EB
100
AcDbEntity
  8
0
100
AcDbSpline
 62
9
  6
CONTINUOUS
 70
0
 71
3
 72
40
 73
36
 74
0
 42
0.0000001
 43
0.0000001
 44
0.0000000001
 40
0.0
 40
0.0
 40
0.0
 40
0.0
 40
0.0322233271
 40
0.0481198353
 40
0.0638753251
 40
0.094972895
 40
0.1255502775
 40
0.1406574623
 40
0.155649506
 40
0.1853079791
 40
0.214581558
 40
0.2435284202
 40
0.2722122418
 40
0.3007012802
 40
0.3290672774
 40
0.3573842186
 40
0.3857269932
 40
0.4141700135
 40
0.4427858568
 40
0.4716439873
 40
0.500809611
 40
0.5303426995
 40
0.5602972059
 40
0.5907204789
 40
0.6216528705
 40
0.6531275214
 40
0.6851702994
 40
0.7177998676
 40
0.751027855
 40
0.7848591072
 40
0.8192919939
 40
0.8543187646
 40
0.8899259061
 40
0.9260946345
 40
1.0
 40
1.0
 40
1.0
 40
1.0
 10
9.723154684
 20
4.8584896622
 30
0.0
 10
9.7077561272
 20
4.8744077322
 30
0.0
 10
9.6854040055
 20
4.8988152776
 30
0.0
 10
9.6571740695
 20
4.9324432892
 30
0.0
 10
9.6304150545
 20
4.9662731378
 30
0.0
 10
9.5992600355
 20
5.0094606094
 30
0.0
 10
9.5710506411
 20
5.0541045155
 30
0.0
 10
9.5504799436
 20
5.0903888035
 30
0.0
 10
9.5313823687
 20
5.1267572627
 30
0.0
 10
9.5099708381
 20
5.1728781795
 30
0.0
 10
9.4882627604
 20
5.2292910027
 30
0.0
 10
9.4706894237
 20
5.286427926
 30
0.0
 10
9.4573000205
 20
5.3441351348
 30
0.0
 10
9.4481314793
 20
5.4022585063
 30
0.0
 10
9.443209381
 20
5.4606419489
 30
0.0
 10
9.4425474642
 20
5.5191285104
 30
0.0
 10
9.4461475845
 20
5.5775608109
 30
0.0
 10
9.4539996736
 20
5.6357816884
 30
0.0
 10
9.4660818434
 20
5.6936347803
 30
0.0
 10
9.482360548
 20
5.7509650825
 30
0.0
 10
9.5027908183
 20
5.8076194523
 30
0.0
 10
9.5273165369
 20
5.8634470511
 30
0.0
 10
9.5558707368
 20
5.9182997263
 30
0.0
 10
9.5883758862
 20
5.9720323558
 30
0.0
 10
9.6247441904
 20
6.0245031513
 30
0.0
 10
9.664877888
 20
6.0755739366
 30
0.0
 10
9.7086695322
 20
6.1251104254
 30
0.0
 10
9.7560022685
 20
6.1729824932
 30
0.0
 10
9.8067501429
 20
6.2190644645
 30
0.0
 10
9.8607783328
 20
6.2632353548
 30
0.0
 10
9.9179437367
 20
6.3053793125
 30
0.0
 10
9.9780942538
 20
6.3453853394
 30
0.0
 10
10.0410732793
 20
6.3831496822
 30
0.0
 10
10.1292095007
 20
6.4307132192
 30
0.0
 10
10.1981336383
 20
6.4622032079
 30
0.0
 10
10.2451611418
 20
6.4814021058
 30
0.0
  0
SPLINE
  5
2EC
100
AcDbEntity
  8
0
100
AcDbSpline
 62
9
  6
CONTINUOUS
 70
0
 71
3
 72
47
 73
43
 74
0
 42
0.0000001
 43
0.0000001
 44
0.0000000001
 40
0.0
 40
0.0
 40
0.0
 40
0.0
 40
0.0330545398
 40
0.0665835996
 40
0.1005309199
 40
0.1348350449
 40
0.1694306113
 40
0.204249064
 40
0.239219446
 40
0.2742691882
 40
0.3093248841
 40
0.3443130646
 40
0.3791609728
 40
0.413797337
 40
0.4481531594
 40
0.4821625041
 40
0.515763308
 40
0.5488982033
 40
0.5815153535
 40
0.6135693231
 40
0.6450219364
 40
0.6758431852
 40
0.7060120952
 40
0.735517618
 40
0.7500231024
 40
0.7643635807
 40
0.7785408184
 40
0.7925573399
 40
0.8201174924
 40
0.8470843173
 40
0.860362559
 40
0.8735117364
 40
0.8865398592
 40
0.8994556813
 40
0.9122686624
 40
0.924988926
 40
0.9376272129
 40
0.9501948226
 40
0.9627035437
 40
0.9751655796
 40
0.9875934695
 40
1.0
 40
1.0
 40
1.0
 40
1.0
 10
11.8573183383
 20
4.4931116836
 30
0.0
 10
11.8267850015
 20
4.4806465011
 30
0.0
 10
11.7646067791
 20
4.4571549245
 30
0.0
 10
11.6690612349
 20
4.4264987891
 30
0.0
 10
11.5709122986
 20
4.4002772059
 30
0.0
 10
11.4705737
 20
4.3786006629
 30
0.0
 10
11.3684642769
 20
4.3615591307
 30
0.0
 10
11.2650114049
 20
4.3492237354
 30
0.0
 10
11.1606477885
 20
4.3416458271
 30
0.0
 10
11.0558100475
 20
4.3388570967
 30
0.0
 10
10.9509367791
 20
4.3408690585
 30
0.0
 10
10.8464667374
 20
4.347673451
 30
0.0
 10
10.7428369679
 20
4.3592417738
 30
0.0
 10
10.6404809968
 20
4.375525906
 30
0.0
 10
10.5398269748
 20
4.3964579031
 30
0.0
 10
10.4412959124
 20
4.4219505999
 30
0.0
 10
10.3452999121
 20
4.4518978613
 30
0.0
 10
10.2522404253
 20
4.4861750313
 30
0.0
 10
10.1625066906
 20
4.524639676
 30
0.0
 10
10.07647394
 20
4.5671319387
 30
0.0
 10
9.9945023385
 20
4.6134754586
 30
0.0
 10
9.9169343781
 20
4.6634785103
 30
0.0
 10
9.8440972495
 20
4.7169321631
 30
0.0
 10
9.7872713539
 20
4.7644404132
 30
0.0
 10
9.7445164578
 20
4.8039702406
 30
0.0
 10
9.7139959622
 20
4.8341673913
 30
0.0
 10
9.6848739033
 20
4.8650488091
 30
0.0
 10
9.6481602479
 20
4.906853483
 30
0.0
 10
9.6058342929
 20
4.9606539432
 30
0.0
 10
9.5681120209
 20
5.0169007546
 30
0.0
 10
9.5411220109
 20
5.0628452687
 30
0.0
 10
9.5225621263
 20
5.0975745688
 30
0.0
 10
9.5056030262
 20
5.1327117395
 30
0.0
 10
9.4902622826
 20
5.1682203898
 30
0.0
 10
9.4765562843
 20
5.2040630866
 30
0.0
 10
9.4644996306
 20
5.2402022028
 30
0.0
 10
9.4541051833
 20
5.2765996997
 30
0.0
 10
9.4453839898
 20
5.3132172625
 30
0.0
 10
9.4383453815
 20
5.3500162338
 30
0.0
 10
9.4329969304
 20
5.3869580915
 30
0.0
 10
9.4293443705
 20
5.4240028226
 30
0.0
 10
9.428041737
 20
5.4487570543
 30
0.0
 10
9.4276746797
 20
5.4611300788
 30
0.0
  0
SPLINE
  5
2ED
100
AcDbEntity
  8
0
100
AcDbSpline
 62
9
  6
CONTINUOUS
 70
0
 71
3
 72
46
 73
42
 74
0
 42
0.0000001
 43
0.0000001
 44
0.0000000001
 40
0.0
 40
0.0
 40
0.0
 40
0.0
 40
0.0331256775
 40
0.0667311543
 40
0.1007587561
 40
0.1351455686
 40
0.1698246303
 40
0.2047257158
 40
0.2397761659
 40
0.2749017011
 40
0.3100272366
 40
0.3450776864
 40
0.3799787723
 40
0.4146578334
 40
0.4490446455
 40
0.4830722487
 40
0.5166777944
 40
0.5498034013
 40
0.582397042
 40
0.6144134333
 40
0.645814963
 40
0.6765726025
 40
0.7066668483
 40
0.7360886077
 40
0.7648400724
 40
0.7929354557
 40
0.8204016206
 40
0.8339132779
 40
0.8472836915
 40
0.8605198909
 40
0.8736297033
 40
0.886621732
 40
0.8995053292
 40
0.9122905554
 40
0.9249881294
 40
0.9376093719
 40
0.9501661401
 40
0.9626707534
 40
0.9751359097
 40
0.987574597
 40
1.0
 40
1.0
 40
1.0
 40
1.0
 10
11.9998183383
 20
4.1612031361
 30
0.0
 10
11.9635475496
 20
4.1463956487
 30
0.0
 10
11.8896725773
 20
4.1185075697
 30
0.0
 10
11.7761316124
 20
4.0821734357
 30
0.0
 10
11.6594770297
 20
4.0511627984
 30
0.0
 10
11.5402105872
 20
4.0256089197
 30
0.0
 10
11.4188401709
 20
4.0056200769
 30
0.0
 10
11.2958840861
 20
3.9912812655
 30
0.0
 10
11.1718670198
 20
3.9826535402
 30
0.0
 10
11.0473183385
 20
3.9797735215
 30
0.0
 10
10.9227696559
 20
3.9826535366
 30
0.0
 10
10.7987525942
 20
3.9912812725
 30
0.0
 10
10.6757964935
 20
4.00562007
 30
0.0
 10
10.5544261341
 20
4.0256089186
 30
0.0
 10
10.4351594947
 20
4.0511628413
 30
0.0
 10
10.3185055361
 20
4.0821732508
 30
0.0
 10
10.2049620225
 20
4.1185084114
 30
0.0
 10
10.0950134436
 20
4.160014152
 30
0.0
 10
9.9891289213
 20
4.2065143954
 30
0.0
 10
9.8877603518
 20
4.2578122026
 30
0.0
 10
9.7913404204
 20
4.3136903645
 30
0.0
 10
9.700281063
 20
4.3739126942
 30
0.0
 10
9.6149715473
 20
4.4382247632
 30
0.0
 10
9.5357775677
 20
4.5063549509
 30
0.0
 10
9.4630385054
 20
4.5780166819
 30
0.0
 10
9.3970703826
 20
4.6529040052
 30
0.0
 10
9.3477028721
 20
4.718098848
 30
0.0
 10
9.3119484985
 20
4.7715297299
 30
0.0
 10
9.2871339857
 20
4.8119857924
 30
0.0
 10
9.2642046686
 20
4.8529954614
 30
0.0
 10
9.2431848281
 20
4.8945154799
 30
0.0
 10
9.2240973743
 20
4.9365012535
 30
0.0
 10
9.2069629424
 20
4.9789078341
 30
0.0
 10
9.1918001185
 20
5.0216897342
 30
0.0
 10
9.1786253845
 20
5.0648010488
 30
0.0
 10
9.1674531172
 20
5.1081954741
 30
0.0
 10
9.1582954935
 20
5.1518263831
 30
0.0
 10
9.1511624806
 20
5.195646743
 30
0.0
 10
9.1460618765
 20
5.2396097174
 30
0.0
 10
9.1429992755
 20
5.2836667165
 30
0.0
 10
9.142318362
 20
5.3130774055
 30
0.0
 10
9.1423183517
 20
5.3277726261
 30
0.0
  0
SPLINE
  5
2EE
100
AcDbEntity
  8
0
100
AcDbSpline
 62
9
  6
CONTINUOUS
 70
0
 71
3
 72
38
 73
34
 74
0
 42
0.0000001
 43
0.0000001
 44
0.0000000001
 40
0.0
 40
0.0
 40
0.0
 40
0.0
 40
0.0740844524
 40
0.1103966041
 40
0.1461871843
 40
0.181438738
 40
0.2161380278
 40
0.2502764224
 40
0.2838501733
 40
0.316860697
 40
0.349314827
 40
0.3812250318
 40
0.4126095867
 40
0.4434926814
 40
0.47390445
 40
0.5038809057
 40
0.5334637611
 40
0.5627001214
 40
0.5916420397
 40
0.6203459304
 40
0.6488718446
 40
0.6772826197
 40
0.7056429278
 40
0.7340182527
 40
0.7624738359
 40
0.7910736322
 40
0.8198793156
 40
0.84894937
 40
0.8783382942
 40
0.9080959382
 40
0.9382669824
 40
0.968890558
 40
1.0
 40
1.0
 40
1.0
 40
1.0
 10
12.0978596418
 20
3.6610013494
 30
0.0
 10
12.1554694049
 20
3.6845204367
 30
0.0
 10
12.240029452
 20
3.7228847447
 30
0.0
 10
12.3485273533
 20
3.78042602
 30
0.0
 10
12.426366187
 20
3.8260003977
 30
0.0
 10
12.5010184431
 20
3.8741687594
 30
0.0
 10
12.5723143894
 20
3.9248218986
 30
0.0
 10
12.6400884142
 20
3.9778431604
 30
0.0
 10
12.7041838466
 20
4.0331109518
 30
0.0
 10
12.7644521353
 20
4.0904984087
 30
0.0
 10
12.8207534545
 20
4.1498738328
 30
0.0
 10
12.872956922
 20
4.2111009188
 30
0.0
 10
12.9209408986
 20
4.2740390331
 30
0.0
 10
12.9645932536
 20
4.3385434781
 30
0.0
 10
13.0038116248
 20
4.4044657606
 30
0.0
 10
13.0385036909
 20
4.4716538534
 30
0.0
 10
13.0685874342
 20
4.5399524751
 30
0.0
 10
13.0939913919
 20
4.6092033898
 30
0.0
 10
13.1146549232
 20
4.6792457249
 30
0.0
 10
13.1305284682
 20
4.7499163282
 30
0.0
 10
13.1415737915
 20
4.8210501679
 30
0.0
 10
13.1477641892
 20
4.892480781
 30
0.0
 10
13.1490846711
 20
4.9640407627
 30
0.0
 10
13.1455320426
 20
5.0355622942
 30
0.0
 10
13.1371149192
 20
5.1068776819
 30
0.0
 10
13.1238536726
 20
5.1778198893
 30
0.0
 10
13.1057803
 20
5.2482230534
 30
0.0
 10
13.0829382527
 20
5.3179229371
 30
0.0
 10
13.0553821565
 20
5.3867574262
 30
0.0
 10
13.0231777834
 20
5.4545666465
 30
0.0
 10
12.9864009851
 20
5.5211943275
 30
0.0
 10
12.9451404093
 20
5.5864841826
 30
0.0
 10
12.9149505875
 20
5.628680255
 30
0.0
 10
12.8991662621
 20
5.6495037261
 30
0.0
  0
SPLINE
  5
2EF
100
AcDbEntity
  8
0
100
AcDbSpline
 62
9
  6
CONTINUOUS
 70
0
 71
3
 72
13
 73
9
 74
0
 42
0.0000001
 43
0.0000001
 44
0.0000000001
 40
0.0
 40
0.0
 40
0.0
 40
0.0
 40
0.2339644306
 40
0.3561623753
 40
0.4812633574
 40
0.6087850565
 40
0.7381795156
 40
1.0
 40
1.0
 40
1.0
 40
1.0
 10
10.4638199771
 20
8.6120309329
 30
0.0
 10
10.4696061397
 20
8.6040055046
 30
0.0
 10
10.4772463647
 20
8.5909064592
 30
0.0
 10
10.4852743019
 20
8.5721925587
 30
0.0
 10
10.4903591227
 20
8.557161296
 30
0.0
 10
10.4943650685
 20
8.5414952949
 30
0.0
 10
10.4982317648
 20
8.5198890255
 30
0.0
 10
10.499388416
 20
8.5033127421
 30
0.0
 10
10.499388416
 20
8.4922409815
 30
0.0
  0
SPLINE
  5
2F0
100
AcDbEntity
  8
0
100
AcDbSpline
 62
9
  6
CONTINUOUS
 70
0
 71
3
 72
57
 73
53
 74
0
 42
0.0000001
 43
0.0000001
 44
0.0000000001
 40
0.0
 40
0.0
 40
0.0
 40
0.0
 40
0.0141168357
 40
0.0280468563
 40
0.0418002795
 40
0.0553888956
 40
0.0688260236
 40
0.0821264427
 40
0.095306297
 40
0.1083829744
 40
0.1213749577
 40
0.1343016505
 40
0.1471831804
 40
0.160040183
 40
0.1728935723
 40
0.1857643035
 40
0.1986731347
 40
0.2116403935
 40
0.2246857564
 40
0.2378280441
 40
0.2510850398
 40
0.2644733314
 40
0.2780081802
 40
0.2917034173
 40
0.3055713659
 40
0.319622789
 40
0.3338668599
 40
0.3483111531
 40
0.3629616526
 40
0.3778227759
 40
0.4081805868
 40
0.4236850105
 40
0.4394029098
 40
0.4714616319
 40
0.4877987732
 40
0.5043313526
 40
0.5379480847
 40
0.555019555
 40
0.5722518597
 40
0.607151206
 40
0.642556812
 40
0.678365971
 40
0.7144690444
 40
0.7507514646
 40
0.7870957036
 40
0.8233832215
 40
0.8594964067
 40
0.8953205237
 40
0.9307456798
 40
0.9482781934
 40
0.9656730056
 40
1.0
 40
1.0
 40
1.0
 40
1.0
 10
9.1953353432
 20
5.6493255041
 30
0.0
 10
9.1820604024
 20
5.6318068131
 30
0.0
 10
9.1564894401
 20
5.5963832008
 30
0.0
 10
9.1209593824
 20
5.5418239278
 30
0.0
 10
9.0885734094
 20
5.4862888528
 30
0.0
 10
9.0593862041
 20
5.4298699403
 30
0.0
 10
9.033445871
 20
5.3726588634
 30
0.0
 10
9.0107956242
 20
5.3147492101
 30
0.0
 10
8.9914732178
 20
5.2562357307
 30
0.0
 10
8.9755109744
 20
5.1972143531
 30
0.0
 10
8.9629356627
 20
5.1377819822
 30
0.0
 10
8.9537684237
 20
5.0780363416
 30
0.0
 10
8.9480246997
 20
5.0180757894
 30
0.0
 10
8.9457141801
 20
4.9579991259
 30
0.0
 10
8.9468407658
 20
4.8979053932
 30
0.0
 10
8.9514025544
 20
4.8378936689
 30
0.0
 10
8.9593918474
 20
4.7780628595
 30
0.0
 10
8.9707951789
 20
4.7185114977
 30
0.0
 10
8.9855933639
 20
4.6593375465
 30
0.0
 10
9.0037615629
 20
4.6006382135
 30
0.0
 10
9.02526936
 20
4.5425097775
 30
0.0
 10
9.05008085
 20
4.4850474267
 30
0.0
 10
9.0781547333
 20
4.4283451078
 30
0.0
 10
9.1094444106
 20
4.3724953878
 30
0.0
 10
9.1438980937
 20
4.3175893118
 30
0.0
 10
9.1814588693
 20
4.2637163097
 30
0.0
 10
9.2220649474
 20
4.2109639435
 30
0.0
 10
9.2656492181
 20
4.1594182767
 30
0.0
 10
9.3121414528
 20
4.1091618853
 30
0.0
 10
9.3783659009
 20
4.0435255348
 30
0.0
 10
9.4497093098
 20
3.9812898387
 30
0.0
 10
9.5255839028
 20
3.9226403377
 30
0.0
 10
9.6058305994
 20
3.865432417
 30
0.0
 10
9.6903687177
 20
3.8121417518
 30
0.0
 10
9.7786552833
 20
3.762858535
 30
0.0
 10
9.8707692022
 20
3.7155800493
 30
0.0
 10
9.9663035054
 20
3.6726017126
 30
0.0
 10
10.0647603361
 20
3.6339626019
 30
0.0
 10
10.1662896627
 20
3.5978299959
 30
0.0
 10
10.2968103943
 20
3.5582419786
 30
0.0
 10
10.4576416999
 20
3.5199854621
 30
0.0
 10
10.6223066472
 20
3.4910209953
 30
0.0
 10
10.7897316651
 20
3.4715368661
 30
0.0
 10
10.9588302971
 20
3.4616586078
 30
0.0
 10
11.1285037919
 20
3.4614501801
 30
0.0
 10
11.2976496582
 20
3.470912839
 30
0.0
 10
11.4651700727
 20
3.4899856737
 30
0.0
 10
11.6299730498
 20
3.5185445488
 30
0.0
 10
11.7646262623
 20
3.5502064328
 30
0.0
 10
11.8700126406
 20
3.5801442363
 30
0.0
 10
11.9727889148
 20
3.6128080839
 30
0.0
 10
12.0483765995
 20
3.640799982
 30
0.0
 10
12.0978596418
 20
3.6610013494
 30
0.0
  0
SPLINE
  5
2F1
100
AcDbEntity
  8
0
100
AcDbSpline
 62
7
  6
CONTINUOUS
 70
0
 71
3
 72
44
 73
40
 74
0
 42
0.0000001
 43
0.0000001
 44
0.0000000001
 40
0.0
 40
0.0
 40
0.0
 40
0.0
 40
0.0327677664
 40
0.0659894862
 40
0.0996139554
 40
0.1335853887
 40
0.1678444688
 40
0.202328962
 40
0.236974392
 40
0.2717147001
 40
0.3064829047
 40
0.341211754
 40
0.3758343771
 40
0.4102849396
 40
0.4444992983
 40
0.4784156708
 40
0.5119753047
 40
0.5451231698
 40
0.5778086532
 40
0.6099862782
 40
0.6416164316
 40
0.6726661063
 40
0.7031096517
 40
0.732929519
 40
0.7621169973
 40
0.7906729007
 40
0.8186082012
 40
0.8459445333
 40
0.8727145559
 40
0.8859028646
 40
0.8989669554
 40
0.9119140171
 40
0.9247518924
 40
0.9374890522
 40
0.9501345659
 40
0.96269806
 40
0.9751896701
 40
0.9876199873
 40
1.0
 40
1.0
 40
1.0
 40
1.0
 10
12.122286909
 20
3.5812019778
 30
0.0
 10
12.0833841403
 20
3.5653199889
 30
0.0
 10
12.0042168268
 20
3.535314559
 30
0.0
 10
11.8826577083
 20
3.4959083382
 30
0.0
 10
11.757872072
 20
3.4619186209
 30
0.0
 10
11.6303452073
 20
3.4334774811
 30
0.0
 10
11.5005681473
 20
3.4106939472
 30
0.0
 10
11.3690419871
 20
3.3936556198
 30
0.0
 10
11.2362741883
 20
3.3824281303
 30
0.0
 10
11.1027771576
 20
3.3770545661
 30
0.0
 10
10.9690660899
 20
3.3775557116
 30
0.0
 10
10.8356570237
 20
3.3839295383
 30
0.0
 10
10.7030648258
 20
3.3961516115
 30
0.0
 10
10.5718011845
 20
3.4141748287
 30
0.0
 10
10.4423726478
 20
3.4379299355
 30
0.0
 10
10.3152786328
 20
3.4673255329
 30
0.0
 10
10.1910095314
 20
3.502248687
 30
0.0
 10
10.070044791
 20
3.5425652095
 30
0.0
 10
9.9528511082
 20
3.5881203481
 30
0.0
 10
9.8398806379
 20
3.6387393349
 30
0.0
 10
9.731569298
 20
3.6942281393
 30
0.0
 10
9.6283351691
 20
3.754374265
 30
0.0
 10
9.5305769261
 20
3.8189475451
 30
0.0
 10
9.4386725076
 20
3.8877011152
 30
0.0
 10
9.3529776218
 20
3.9603723168
 30
0.0
 10
9.2738249539
 20
4.0366833674
 30
0.0
 10
9.201521909
 20
4.1163437629
 30
0.0
 10
9.136353269
 20
4.1990452851
 30
0.0
 10
9.08795891
 20
4.2705991169
 30
0.0
 10
9.053134867
 20
4.3290139303
 30
0.0
 10
9.0290738617
 20
4.3731638793
 30
0.0
 10
9.0069668664
 20
4.4178227414
 30
0.0
 10
8.9868350013
 20
4.4629479518
 30
0.0
 10
8.9686981382
 20
4.5084956478
 30
0.0
 10
8.9525739969
 20
4.5544217481
 30
0.0
 10
8.9384783936
 20
4.6006816063
 30
0.0
 10
8.9264251352
 20
4.6472306511
 30
0.0
 10
8.9164262924
 20
4.6940224979
 30
0.0
 10
8.9111270033
 20
4.7254056169
 30
0.0
 10
8.9088257107
 20
4.7411134626
 30
0.0
  0
SPLINE
  5
2F2
100
AcDbEntity
  8
0
100
AcDbSpline
 62
9
  6
CONTINUOUS
 70
0
 71
3
 72
15
 73
11
 74
0
 42
0.0000001
 43
0.0000001
 44
0.0000000001
 40
0.0
 40
0.0
 40
0.0
 40
0.0
 40
0.1338093521
 40
0.2653092549
 40
0.3943525949
 40
0.520823335
 40
0.644641928
 40
0.7657682685
 40
0.8842049336
 40
1.0
 40
1.0
 40
1.0
 40
1.0
 10
11.8632509719
 20
4.4488927861
 30
0.0
 10
11.8930973411
 20
4.4610775154
 30
0.0
 10
11.9516691855
 20
4.4867564302
 30
0.0
 10
12.0365654785
 20
4.5295085011
 30
0.0
 10
12.1174411581
 20
4.5760084074
 30
0.0
 10
12.1939642427
 20
4.6260676663
 30
0.0
 10
12.2658234187
 20
4.6794845641
 30
0.0
 10
12.3327262803
 20
4.736045363
 30
0.0
 10
12.3943955687
 20
4.7955179153
 30
0.0
 10
12.4322765538
 20
4.837420035
 30
0.0
 10
12.450223759
 20
4.8587784014
 30
0.0
  0
SPLINE
  5
2F3
100
AcDbEntity
  8
0
100
AcDbSpline
 62
9
  6
CONTINUOUS
 70
0
 71
3
 72
25
 73
21
 74
0
 42
0.0000001
 43
0.0000001
 44
0.0000000001
 40
0.0
 40
0.0
 40
0.0
 40
0.0
 40
0.0673756265
 40
0.1006527106
 40
0.1336630476
 40
0.1989089435
 40
0.2631928962
 40
0.2950041355
 40
0.3266079179
 40
0.3892359458
 40
0.4511929677
 40
0.5125972055
 40
0.5735753093
 40
0.6342606031
 40
0.6947910889
 40
0.7553072732
 40
0.8159498948
 40
0.8768576437
 40
0.9381649607
 40
1.0
 40
1.0
 40
1.0
 40
1.0
 10
12.450223759
 20
4.8587784014
 30
0.0
 10
12.4635293319
 20
4.8746129172
 30
0.0
 10
12.4827771404
 20
4.8988094704
 30
0.0
 10
12.506946458
 20
4.9319717226
 30
0.0
 10
12.5297931267
 20
4.965269755
 30
0.0
 10
12.5562349221
 20
5.0076185177
 30
0.0
 10
12.5799301848
 20
5.0511470386
 30
0.0
 10
12.59706517
 20
5.086410323
 30
0.0
 10
12.6128877452
 20
5.1217250077
 30
0.0
 10
12.6304224949
 20
5.1663873548
 30
0.0
 10
12.6478302591
 20
5.2208044028
 30
0.0
 10
12.6615007527
 20
5.2757588458
 30
0.0
 10
12.6714002362
 20
5.3311202016
 30
0.0
 10
12.6775047654
 20
5.3867582769
 30
0.0
 10
12.6797994035
 20
5.4425415731
 30
0.0
 10
12.6782785334
 20
5.4983383011
 30
0.0
 10
12.6729459419
 20
5.5540163373
 30
0.0
 10
12.6638143902
 20
5.6094449321
 30
0.0
 10
12.6509071129
 20
5.6644904371
 30
0.0
 10
12.6398580345
 20
5.7006744469
 30
0.0
 10
12.6337325662
 20
5.7186407162
 30
0.0
  0
SPLINE
  5
2F4
100
AcDbEntity
  8
0
100
AcDbSpline
 62
9
  6
CONTINUOUS
 70
0
 71
3
 72
11
 73
7
 74
0
 42
0.0000001
 43
0.0000001
 44
0.0000000001
 40
0.0
 40
0.0
 40
0.0
 40
0.0
 40
0.2458926625
 40
0.4947044498
 40
0.7461700028
 40
1.0
 40
1.0
 40
1.0
 40
1.0
 10
10.1170657142
 20
6.5155428207
 30
0.0
 10
10.1453699457
 20
6.5270979748
 30
0.0
 10
10.2028160759
 20
6.5491358261
 30
0.0
 10
10.2907535639
 20
6.5787706533
 30
0.0
 10
10.3807614004
 20
6.6051115495
 30
0.0
 10
10.4417252699
 20
6.6203634852
 30
0.0
 10
10.4724831094
 20
6.6274289483
 30
0.0
  0
SPLINE
  5
2F5
100
AcDbEntity
  8
0
100
AcDbSpline
 62
9
  6
CONTINUOUS
 70
0
 71
3
 72
54
 73
50
 74
0
 42
0.0000001
 43
0.0000001
 44
0.0000000001
 40
0.0
 40
0.0
 40
0.0
 40
0.0
 40
0.037195765
 40
0.0738923071
 40
0.1100128592
 40
0.1454891463
 40
0.1802628306
 40
0.2142869782
 40
0.2475275309
 40
0.2799647877
 40
0.3115948133
 40
0.3424307188
 40
0.3575630654
 40
0.3725101737
 40
0.3872788954
 40
0.4018772736
 40
0.4163145336
 40
0.4306010626
 40
0.4447483727
 40
0.4587690498
 40
0.4726766879
 40
0.4864858068
 40
0.5002117547
 40
0.5138705949
 40
0.5274789783
 40
0.5410540036
 40
0.5546130692
 40
0.5681737173
 40
0.5817534762
 40
0.5953697013
 40
0.6090394214
 40
0.6227791912
 40
0.6366049541
 40
0.6505319177
 40
0.6645744417
 40
0.6787459437
 40
0.6930588202
 40
0.7075243834
 40
0.7221528137
 40
0.7369531256
 40
0.7519331477
 40
0.7670995161
 40
0.7980059771
 40
0.8297084688
 40
0.8622185198
 40
0.8955307153
 40
0.9296239988
 40
0.9644630524
 40
1.0
 40
1.0
 40
1.0
 40
1.0
 10
11.6221344683
 20
6.6274333358
 30
0.0
 10
11.664342967
 20
6.6177378692
 30
0.0
 10
11.747700482
 20
6.5962456682
 30
0.0
 10
11.8698586508
 20
6.5575089116
 30
0.0
 10
11.9877760865
 20
6.5126617726
 30
0.0
 10
12.1008397857
 20
6.4619348605
 30
0.0
 10
12.2084675258
 20
6.4055873597
 30
0.0
 10
12.3101034408
 20
6.3439070778
 30
0.0
 10
12.4052220847
 20
6.2772088354
 30
0.0
 10
12.4933319444
 20
6.2058312894
 30
0.0
 10
12.5739723575
 20
6.1301419364
 30
0.0
 10
12.6349868451
 20
6.0633676566
 30
0.0
 10
12.6795644913
 20
6.0081810614
 30
0.0
 10
12.7106778502
 20
5.9662252696
 30
0.0
 10
12.7396360848
 20
5.9235032337
 30
0.0
 10
12.766402007
 20
5.8800694877
 30
0.0
 10
12.7909404359
 20
5.8359803683
 30
0.0
 10
12.8132192795
 20
5.7912928976
 30
0.0
 10
12.8332092913
 20
5.7460649809
 30
0.0
 10
12.8508841848
 20
5.7003552673
 30
0.0
 10
12.8662206612
 20
5.6542231002
 30
0.0
 10
12.8791984545
 20
5.6077284377
 30
0.0
 10
12.8898003841
 20
5.56093178
 30
0.0
 10
12.8980124124
 20
5.5138940888
 30
0.0
 10
12.903823643
 20
5.466676692
 30
0.0
 10
12.9072263521
 20
5.4193411967
 30
0.0
 10
12.9082160079
 20
5.3719493954
 30
0.0
 10
12.9067912772
 20
5.3245631711
 30
0.0
 10
12.9029540589
 20
5.2772443993
 30
0.0
 10
12.8967094717
 20
5.2300548465
 30
0.0
 10
12.8880658185
 20
5.1830560761
 30
0.0
 10
12.8770345704
 20
5.1363093551
 30
0.0
 10
12.8636303383
 20
5.0898755654
 30
0.0
 10
12.8478708382
 20
5.0438151214
 30
0.0
 10
12.8297768868
 20
4.9981878766
 30
0.0
 10
12.809372333
 20
4.9530530534
 30
0.0
 10
12.7866840035
 20
4.9084691679
 30
0.0
 10
12.7617416768
 20
4.8644939784
 30
0.0
 10
12.7345779653
 20
4.8211843473
 30
0.0
 10
12.7052285374
 20
4.7785964533
 30
0.0
 10
12.6737310894
 20
4.7367846548
 30
0.0
 10
12.6286476906
 20
4.6818034145
 30
0.0
 10
12.5670228057
 20
4.6153116733
 30
0.0
 10
12.4856917579
 20
4.5399956482
 30
0.0
 10
12.3969308944
 20
4.469025135
 30
0.0
 10
12.3012045145
 20
4.402765603
 30
0.0
 10
12.1990058913
 20
4.341553059
 30
0.0
 10
12.0908682371
 20
4.2857019296
 30
0.0
 10
12.015878007
 20
4.2525373452
 30
0.0
 10
11.9775709624
 20
4.2368985597
 30
0.0
  0
SPLINE
  5
2F6
100
AcDbEntity
  8
0
100
AcDbSpline
 62
9
  6
CONTINUOUS
 70
0
 71
3
 72
25
 73
21
 74
0
 42
0.0000001
 43
0.0000001
 44
0.0000000001
 40
0.0
 40
0.0
 40
0.0
 40
0.0
 40
0.0618874426
 40
0.1232344025
 40
0.1841697783
 40
0.2448289991
 40
0.3053519607
 40
0.3658807879
 40
0.4265575091
 40
0.487521735
 40
0.5489084318
 40
0.6108458752
 40
0.6734538479
 40
0.7050479305
 40
0.7368498792
 40
0.801117047
 40
0.8663495976
 40
0.8993549045
 40
0.9326281474
 40
1.0
 40
1.0
 40
1.0
 40
1.0
 10
9.4624989404
 20
5.7232763804
 30
0.0
 10
9.4562372334
 20
5.7052382241
 30
0.0
 10
9.4449262277
 20
5.6689044949
 30
0.0
 10
9.4316579696
 20
5.6136120471
 30
0.0
 10
9.4222021708
 20
5.5579226089
 30
0.0
 10
9.4165831114
 20
5.5019718217
 30
0.0
 10
9.4148143919
 20
5.4458924323
 30
0.0
 10
9.4169004511
 20
5.3898186097
 30
0.0
 10
9.4228361255
 20
5.3338842104
 30
0.0
 10
9.4326067325
 20
5.2782228154
 30
0.0
 10
9.4461883823
 20
5.2229666915
 30
0.0
 10
9.4635471976
 20
5.1682484139
 30
0.0
 10
9.4810740831
 20
5.1233379518
 30
0.0
 10
9.4969095636
 20
5.0878275011
 30
0.0
 10
9.5140706323
 20
5.052368393
 30
0.0
 10
9.5378230482
 20
5.0085986924
 30
0.0
 10
9.5643519316
 20
4.966018647
 30
0.0
 10
9.5872861094
 20
4.9325408978
 30
0.0
 10
9.6115564105
 20
4.8991998704
 30
0.0
 10
9.6308920031
 20
4.8748757866
 30
0.0
 10
9.6442609762
 20
4.8589592528
 30
0.0
  0
SPLINE
  5
2F7
100
AcDbEntity
  8
0
100
AcDbSpline
 62
9
  6
CONTINUOUS
 70
0
 71
3
 72
15
 73
11
 74
0
 42
0.0000001
 43
0.0000001
 44
0.0000000001
 40
0.0
 40
0.0
 40
0.0
 40
0.0
 40
0.1160107046
 40
0.2345946763
 40
0.3557994863
 40
0.4796305056
 40
0.6060535504
 40
0.7349976875
 40
0.8663582547
 40
1.0
 40
1.0
 40
1.0
 40
1.0
 10
9.6442609762
 20
4.8589592528
 30
0.0
 10
9.6617082895
 20
4.8381872197
 30
0.0
 10
9.69848089
 20
4.7974131027
 30
0.0
 10
9.7582356597
 20
4.7394429567
 30
0.0
 10
9.8229574936
 20
4.6842147199
 30
0.0
 10
9.8923924383
 20
4.6319428573
 30
0.0
 10
9.9662731874
 20
4.5828255436
 30
0.0
 10
10.0443153342
 20
4.5370500786
 30
0.0
 10
10.1262154915
 20
4.4947922053
 30
0.0
 10
10.1827213286
 20
4.4692791524
 30
0.0
 10
10.211516046
 20
4.4571373309
 30
0.0
  0
SPLINE
  5
2F8
100
AcDbEntity
  8
0
100
AcDbSpline
 62
9
  6
CONTINUOUS
 70
0
 71
3
 72
23
 73
19
 74
0
 42
0.0000001
 43
0.0000001
 44
0.0000000001
 40
0.0
 40
0.0
 40
0.0
 40
0.0
 40
0.0600911555
 40
0.1210878546
 40
0.1828839102
 40
0.2453634104
 40
0.3084023738
 40
0.371870375
 40
0.4356321436
 40
0.4995491337
 40
0.5634810871
 40
0.6272875789
 40
0.6908295693
 40
0.7539709602
 40
0.8165801629
 40
0.8785316878
 40
0.9397076137
 40
1.0
 40
1.0
 40
1.0
 40
1.0
 10
10.211516046
 20
4.4571373309
 30
0.0
 10
10.2427545243
 20
4.4439650527
 30
0.0
 10
10.3064360974
 20
4.4191292614
 30
0.0
 10
10.4044310238
 20
4.386697702
 30
0.0
 10
10.505246757
 20
4.358925756
 30
0.0
 10
10.6084377979
 20
4.3359361507
 30
0.0
 10
10.7135528918
 20
4.3178287545
 30
0.0
 10
10.8201310369
 20
4.304682742
 30
0.0
 10
10.9277051304
 20
4.2965555129
 30
0.0
 10
11.0358035819
 20
4.2934825453
 30
0.0
 10
11.1439525117
 20
4.2954773161
 30
0.0
 10
11.2516778203
 20
4.3025310416
 30
0.0
 10
11.3585072446
 20
4.3146129846
 30
0.0
 10
11.4639725861
 20
4.3316703027
 30
0.0
 10
11.567611281
 20
4.3536285214
 30
0.0
 10
11.6689700436
 20
4.3803920815
 30
0.0
 10
11.7676011426
 20
4.4118428738
 30
0.0
 10
11.8317586309
 20
4.4360360918
 30
0.0
 10
11.8632509719
 20
4.4488927861
 30
0.0
  0
SPLINE
  5
2F9
100
AcDbEntity
  8
0
100
AcDbSpline
 62
9
  6
CONTINUOUS
 70
0
 71
3
 72
11
 73
7
 74
0
 42
0.0000001
 43
0.0000001
 44
0.0000000001
 40
0.0
 40
0.0
 40
0.0
 40
0.0
 40
0.2451716199
 40
0.4938429347
 40
0.7456021738
 40
1.0
 40
1.0
 40
1.0
 40
1.0
 10
11.9775709624
 20
4.2368985597
 30
0.0
 10
11.9427335481
 20
4.2226762449
 30
0.0
 10
11.871798546
 20
4.195862312
 30
0.0
 10
11.7628096859
 20
4.1608338796
 30
0.0
 10
11.6508660761
 20
4.1308314034
 30
0.0
 10
11.5749175276
 20
4.1143375961
 30
0.0
 10
11.5365783698
 20
4.1069483805
 30
0.0
  0
SPLINE
  5
2FA
100
AcDbEntity
  8
0
100
AcDbSpline
 62
9
  6
CONTINUOUS
 70
0
 71
3
 72
11
 73
7
 74
0
 42
0.0000001
 43
0.0000001
 44
0.0000000001
 40
0.0
 40
0.0
 40
0.0
 40
0.0
 40
0.2486891875
 40
0.4359756557
 40
0.6237386568
 40
1.0
 40
1.0
 40
1.0
 40
1.0
 10
11.4522277292
 20
4.0921786031
 30
0.0
 10
11.4183388378
 20
4.0868353428
 30
0.0
 10
11.3587310116
 20
4.0786712705
 30
0.0
 10
11.2731118376
 20
4.0699818911
 30
0.0
 10
11.1697186387
 20
4.0625948199
 30
0.0
 10
11.0918773241
 20
4.0605101082
 30
0.0
 10
11.0399709612
 20
4.0606550728
 30
0.0
  0
SPLINE
  5
2FB
100
AcDbEntity
  8
0
100
AcDbSpline
 62
9
  6
CONTINUOUS
 70
0
 71
3
 72
60
 73
56
 74
0
 42
0.0000001
 43
0.0000001
 44
0.0000000001
 40
0.0
 40
0.0
 40
0.0
 40
0.0
 40
0.0373569774
 40
0.0745837111
 40
0.1115581678
 40
0.1481626017
 40
0.1842856855
 40
0.2198246869
 40
0.2546876997
 40
0.2718430327
 40
0.2888010647
 40
0.3220912039
 40
0.3384174405
 40
0.3545237514
 40
0.3704076423
 40
0.3860680279
 40
0.4015052991
 40
0.4167213842
 40
0.4317198045
 40
0.4465057204
 40
0.4610859652
 40
0.475469066
 40
0.4896652463
 40
0.5036864094
 40
0.5175460976
 40
0.5312594265
 40
0.544842991
 40
0.5583147426
 40
0.571693837
 40
0.5850004533
 40
0.5982555885
 40
0.6114808295
 40
0.6246981092
 40
0.6379294535
 40
0.6511967245
 40
0.6645213692
 40
0.6779241798
 40
0.6914250712
 40
0.705042882
 40
0.7187952013
 40
0.7326982251
 40
0.7467666408
 40
0.7610135418
 40
0.7754503682
 40
0.7900868741
 40
0.8049311154
 40
0.819989459
 40
0.8352666063
 40
0.8664813405
 40
0.8824270899
 40
0.8985947051
 40
0.9315770525
 40
0.9483878413
 40
0.9654013595
 40
1.0
 40
1.0
 40
1.0
 40
1.0
 10
11.0399709612
 20
4.0606550728
 30
0.0
 10
10.9893497635
 20
4.0607964481
 30
0.0
 10
10.8882675151
 20
4.0639945848
 30
0.0
 10
10.7376228274
 20
4.0775176548
 30
0.0
 10
10.5890278948
 20
4.0996743215
 30
0.0
 10
10.4434755167
 20
4.1303182929
 30
0.0
 10
10.3019283711
 20
4.1692480741
 30
0.0
 10
10.1653298091
 20
4.2162056302
 30
0.0
 10
10.0557817161
 20
4.2620183242
 30
0.0
 10
9.971489086
 20
4.3024433201
 30
0.0
 10
9.8905397985
 20
4.3447763158
 30
0.0
 10
9.8128379699
 20
4.3907988235
 30
0.0
 10
9.7388750027
 20
4.4404374295
 30
0.0
 10
9.6859360743
 20
4.4789907464
 30
0.0
 10
9.6352661663
 20
4.519041161
 30
0.0
 10
9.5869486994
 20
4.5605229888
 30
0.0
 10
9.5410646571
 20
4.6033672373
 30
0.0
 10
9.4976906492
 20
4.6475028999
 30
0.0
 10
9.4568992662
 20
4.6928567545
 30
0.0
 10
9.4187588414
 20
4.7393535551
 30
0.0
 10
9.3833333737
 20
4.786916121
 30
0.0
 10
9.3506824151
 20
4.8354654539
 30
0.0
 10
9.3208609715
 20
4.8849208481
 30
0.0
 10
9.2939194038
 20
4.9352000049
 30
0.0
 10
9.269903331
 20
4.986219148
 30
0.0
 10
9.2488535354
 20
5.0378931441
 30
0.0
 10
9.2308058689
 20
5.0901356296
 30
0.0
 10
9.2157911619
 20
5.1428591446
 30
0.0
 10
9.2038351355
 20
5.1959752774
 30
0.0
 10
9.1949583245
 20
5.2493948213
 30
0.0
 10
9.189176008
 20
5.3030279413
 30
0.0
 10
9.1864981551
 20
5.3567843529
 30
0.0
 10
9.1869293867
 20
5.4105735087
 30
0.0
 10
9.1904689583
 20
5.4643047913
 30
0.0
 10
9.1971107624
 20
5.5178877074
 30
0.0
 10
9.206843352
 20
5.5712320786
 30
0.0
 10
9.2196499839
 20
5.6242482271
 30
0.0
 10
9.2355086769
 20
5.6768471506
 30
0.0
 10
9.2543922845
 20
5.7289406866
 30
0.0
 10
9.2762685756
 20
5.7804416652
 30
0.0
 10
9.3011003235
 20
5.8312640509
 30
0.0
 10
9.3288453945
 20
5.8813230729
 30
0.0
 10
9.3594568517
 20
5.9305353571
 30
0.0
 10
9.3928830146
 20
5.9788190157
 30
0.0
 10
9.4290676882
 20
6.0260938789
 30
0.0
 10
9.4679497625
 20
6.0722811606
 30
0.0
 10
9.5094652218
 20
6.1173052763
 30
0.0
 10
9.5686523
 20
6.1760994493
 30
0.0
 10
9.6324746416
 20
6.2318196167
 30
0.0
 10
9.7003947348
 20
6.284295859
 30
0.0
 10
9.7722686572
 20
6.3354665447
 30
0.0
 10
9.848020721
 20
6.3830907657
 30
0.0
 10
9.9271554328
 20
6.4270867942
 30
0.0
 10
10.0097425249
 20
6.4692620546
 30
0.0
 10
10.0736598887
 20
6.4978224667
 30
0.0
 10
10.1170657142
 20
6.5155428207
 30
0.0
  0
SPLINE
  5
2FC
100
AcDbEntity
  8
0
100
AcDbSpline
 62
7
  6
CONTINUOUS
 70
0
 71
3
 72
29
 73
25
 74
0
 42
0.0000001
 43
0.0000001
 44
0.0000000001
 40
0.0
 40
0.0
 40
0.0
 40
0.0
 40
0.0260117411
 40
0.0521332209
 40
0.0784154656
 40
0.1049070926
 40
0.1316536766
 40
0.1586972018
 40
0.1860755974
 40
0.2138223752
 40
0.2419663977
 40
0.2705317379
 40
0.2995376215
 40
0.3289984285
 40
0.3893011705
 40
0.4514810718
 40
0.5154916786
 40
0.5812250551
 40
0.6485197624
 40
0.7171685042
 40
0.7869264089
 40
0.857518379
 40
0.9286467097
 40
1.0
 40
1.0
 40
1.0
 40
1.0
 10
11.4530470207
 20
7.1684674591
 30
0.0
 10
11.4527208154
 20
7.1637889235
 30
0.0
 10
11.4517606319
 20
7.154430641
 30
0.0
 10
11.4494082718
 20
7.1404800268
 30
0.0
 10
11.446147167
 20
7.1266241124
 30
0.0
 10
11.4419849912
 20
7.1128943142
 30
0.0
 10
11.4369314013
 20
7.0993207023
 30
0.0
 10
11.4309980765
 20
7.0859332056
 30
0.0
 10
11.4241987489
 20
7.0727611577
 30
0.0
 10
11.416549069
 20
7.0598333794
 30
0.0
 10
11.4080665222
 20
7.0471780804
 30
0.0
 10
11.3987705308
 20
7.0348229117
 30
0.0
 10
11.3886820069
 20
7.0227944337
 30
0.0
 10
11.374093756
 20
7.0071075735
 30
0.0
 10
11.3539534688
 20
6.9884681823
 30
0.0
 10
11.327226335
 20
6.9679930327
 30
0.0
 10
11.2979898196
 20
6.9494041689
 30
0.0
 10
11.2665084518
 20
6.9328597457
 30
0.0
 10
11.2330640343
 20
6.9184981824
 30
0.0
 10
11.1979562982
 20
6.9064394211
 30
0.0
 10
11.1614997467
 20
6.8967833883
 30
0.0
 10
11.1240203741
 20
6.8896086835
 30
0.0
 10
11.0858560274
 20
6.8849722187
 30
0.0
 10
11.0601807005
 20
6.8835962352
 30
0.0
 10
11.0473183383
 20
6.8833389507
 30
0.0
  0
SPLINE
  5
2FD
100
AcDbEntity
  8
0
100
AcDbSpline
 62
7
  6
CONTINUOUS
 70
0
 71
3
 72
29
 73
25
 74
0
 42
0.0000001
 43
0.0000001
 44
0.0000000001
 40
0.0
 40
0.0
 40
0.0
 40
0.0
 40
0.0259985152
 40
0.0521170329
 40
0.0784053944
 40
0.1049109332
 40
0.1316778905
 40
0.1587469073
 40
0.1861545859
 40
0.2139331353
 40
0.2421101887
 40
0.2707086921
 40
0.2997468425
 40
0.329238083
 40
0.3895934464
 40
0.4518104787
 40
0.5158395462
 40
0.5815713111
 40
0.6488444306
 40
0.7174530363
 40
0.7871547556
 40
0.8576778488
 40
0.928728586
 40
1.0
 40
1.0
 40
1.0
 40
1.0
 10
11.4528081678
 20
7.2679699674
 30
0.0
 10
11.4524169685
 20
7.2633259501
 30
0.0
 10
11.4513308379
 20
7.2540391443
 30
0.0
 10
11.4488038776
 20
7.2402040727
 30
0.0
 10
11.4453820623
 20
7.2264686298
 30
0.0
 10
11.4410733726
 20
7.2128635088
 30
0.0
 10
11.4358876699
 20
7.1994180724
 30
0.0
 10
11.4298367607
 20
7.1861615379
 30
0.0
 10
11.4229344041
 20
7.1731225541
 30
0.0
 10
11.4151962801
 20
7.1603292354
 30
0.0
 10
11.406639835
 20
7.1478090935
 30
0.0
 10
11.3972843619
 20
7.1355891043
 30
0.0
 10
11.3871505937
 20
7.1236951822
 30
0.0
 10
11.3725211428
 20
7.1081881653
 30
0.0
 10
11.3523655095
 20
7.0897689976
 30
0.0
 10
11.3256705529
 20
7.0695416061
 30
0.0
 10
11.2965144287
 20
7.0511829569
 30
0.0
 10
11.2651572337
 20
7.0348471502
 30
0.0
 10
11.2318758236
 20
7.0206689302
 30
0.0
 10
11.1969643651
 20
7.0087650868
 30
0.0
 10
11.1607313349
 20
6.9992328345
 30
0.0
 10
11.1234962955
 20
6.992148654
 30
0.0
 10
11.0855902967
 20
6.9875678825
 30
0.0
 10
11.0600917943
 20
6.9862051638
 30
0.0
 10
11.0473183383
 20
6.9859484935
 30
0.0
  0
SPLINE
  5
2FE
100
AcDbEntity
  8
0
100
AcDbSpline
 62
9
  6
CONTINUOUS
 70
0
 71
3
 72
15
 73
11
 74
0
 42
0.0000001
 43
0.0000001
 44
0.0000000001
 40
0.0
 40
0.0
 40
0.0
 40
0.0
 40
0.2339202799
 40
0.2946306913
 40
0.3561203894
 40
0.4811978
 40
0.6086954633
 40
0.7380653216
 40
0.8687088643
 40
1.0
 40
1.0
 40
1.0
 40
1.0
 10
10.4342334513
 20
8.3314141408
 30
0.0
 10
10.4420017408
 20
8.3421889129
 30
0.0
 10
10.4504922196
 20
8.35674612
 30
0.0
 10
10.4588567809
 20
8.3751556441
 30
0.0
 10
10.4641436163
 20
8.3881688131
 30
0.0
 10
10.469864002
 20
8.4050807399
 30
0.0
 10
10.4752423976
 20
8.4261122228
 30
0.0
 10
10.4791218898
 20
8.4477921821
 30
0.0
 10
10.4814648002
 20
8.4699063303
 30
0.0
 10
10.4819867016
 20
8.4847856225
 30
0.0
 10
10.4819867016
 20
8.4922409815
 30
0.0
  0
SPLINE
  5
2FF
100
AcDbEntity
  8
0
100
AcDbSpline
 62
7
  6
CONTINUOUS
 70
0
 71
3
 72
15
 73
11
 74
0
 42
0.0000001
 43
0.0000001
 44
0.0000000001
 40
0.0
 40
0.0
 40
0.0
 40
0.0
 40
0.1291743301
 40
0.2567526351
 40
0.3829163198
 40
0.5078647473
 40
0.6318132946
 40
0.7549909636
 40
0.8776374614
 40
1.0
 40
1.0
 40
1.0
 40
1.0
 10
11.4762810406
 20
6.6887449861
 30
0.0
 10
11.4787773532
 20
6.6841836134
 30
0.0
 10
11.4834843293
 20
6.6749747967
 30
0.0
 10
11.4896907426
 20
6.6608562756
 30
0.0
 10
11.494984328
 20
6.64655114
 30
0.0
 10
11.4993535302
 20
6.6320895452
 30
0.0
 10
11.5027890948
 20
6.6175013994
 30
0.0
 10
11.5052837025
 20
6.6028168704
 30
0.0
 10
11.5068320249
 20
6.5880673372
 30
0.0
 10
11.5072313206
 20
6.578204814
 30
0.0
 10
11.5072723253
 20
6.5732794077
 30
0.0
  0
SPLINE
  5
300
100
AcDbEntity
  8
0
100
AcDbSpline
 62
7
  6
CONTINUOUS
 70
0
 71
3
 72
10
 73
6
 74
0
 42
0.0000001
 43
0.0000001
 44
0.0000000001
 40
0.0
 40
0.0
 40
0.0
 40
0.0
 40
0.2511874174
 40
0.5013779461
 40
1.0
 40
1.0
 40
1.0
 40
1.0
 10
11.4966131249
 20
9.3262781309
 30
0.0
 10
11.4939364205
 20
9.2830894695
 30
0.0
 10
11.4888645407
 20
9.1968665443
 30
0.0
 10
11.4797257834
 20
9.024840574
 30
0.0
 10
11.4738553019
 20
8.8959756276
 30
0.0
 10
11.4702624089
 20
8.8101542281
 30
0.0
  0
SPLINE
  5
301
100
AcDbEntity
  8
0
100
AcDbSpline
 62
7
  6
CONTINUOUS
 70
0
 71
3
 72
10
 73
6
 74
0
 42
0.0000001
 43
0.0000001
 44
0.0000000001
 40
0.0
 40
0.0
 40
0.0
 40
0.0
 40
0.2511874174
 40
0.5013779461
 40
1.0
 40
1.0
 40
1.0
 40
1.0
 10
10.5980235517
 20
9.3262781309
 30
0.0
 10
10.6007002561
 20
9.2830894695
 30
0.0
 10
10.6057721358
 20
9.1968665443
 30
0.0
 10
10.6149108931
 20
9.024840574
 30
0.0
 10
10.6207813747
 20
8.8959756276
 30
0.0
 10
10.6243742676
 20
8.8101542281
 30
0.0
  0
SPLINE
  5
302
100
AcDbEntity
  8
0
100
AcDbSpline
 62
9
  6
CONTINUOUS
 70
0
 71
3
 72
31
 73
27
 74
0
 42
0.0000001
 43
0.0000001
 44
0.0000000001
 40
0.0
 40
0.0
 40
0.0
 40
0.0
 40
0.0251788565
 40
0.0504383361
 40
0.0758572663
 40
0.1015109797
 40
0.1274697953
 40
0.1537977427
 40
0.1805515636
 40
0.2077799996
 40
0.235523354
 40
0.2638132971
 40
0.2926728779
 40
0.3221166994
 40
0.3827520104
 40
0.4139567729
 40
0.4457269857
 40
0.4780409924
 40
0.5108713883
 40
0.5779290539
 40
0.6466040962
 40
0.7165233089
 40
0.7872707057
 40
0.8584028431
 40
0.9294637491
 40
1.0
 40
1.0
 40
1.0
 40
1.0
 10
10.5948183552
 20
6.909271898
 30
0.0
 10
10.5948183561
 20
6.903219671
 30
0.0
 10
10.5953057421
 20
6.8910902389
 30
0.0
 10
10.5974953104
 20
6.8729698931
 30
0.0
 10
10.6011362582
 20
6.8549672572
 30
0.0
 10
10.6062161821
 20
6.8371426192
 30
0.0
 10
10.6127178885
 20
6.8195534982
 30
0.0
 10
10.6206195353
 20
6.8022569271
 30
0.0
 10
10.6298947893
 20
6.7853086017
 30
0.0
 10
10.6405129526
 20
6.7687629344
 30
0.0
 10
10.6524391833
 20
6.7526728138
 30
0.0
 10
10.6656343383
 20
6.7370897441
 30
0.0
 10
10.6800562306
 20
6.7220627847
 30
0.0
 10
10.7010590805
 20
6.7026466106
 30
0.0
 10
10.724159664
 20
6.6847463243
 30
0.0
 10
10.7490144893
 20
6.6684497469
 30
0.0
 10
10.7687956756
 20
6.6568823
 30
0.0
 10
10.7894701347
 20
6.646127315
 30
0.0
 10
10.8183396399
 20
6.6328233762
 30
0.0
 10
10.8562909757
 20
6.6184609095
 30
0.0
 10
10.9039368859
 20
6.6050722359
 30
0.0
 10
10.9534106744
 20
6.5955726585
 30
0.0
 10
11.0040793811
 20
6.5900827484
 30
0.0
 10
11.0552998691
 20
6.5886715564
 30
0.0
 10
11.1064150754
 20
6.5913561533
 30
0.0
 10
11.1401936623
 20
6.5958819091
 30
0.0
 10
11.1568904109
 20
6.5988284967
 30
0.0
  0
SPLINE
  5
303
100
AcDbEntity
  8
0
100
AcDbSpline
 62
9
  6
CONTINUOUS
 70
0
 71
3
 72
21
 73
17
 74
0
 42
0.0000001
 43
0.0000001
 44
0.0000000001
 40
0.0
 40
0.0
 40
0.0
 40
0.0
 40
0.1169631957
 40
0.1780521942
 40
0.240592455
 40
0.3043428719
 40
0.3690293251
 40
0.4343532485
 40
0.4999999306
 40
0.5656466153
 40
0.6309705461
 40
0.6956570115
 40
0.759407445
 40
0.8219477264
 40
0.8830367489
 40
1.0
 40
1.0
 40
1.0
 40
1.0
 10
11.6308161744
 20
8.3724517582
 30
0.0
 10
11.6250301
 20
8.3804771638
 30
0.0
 10
11.6173899878
 20
8.3935761811
 30
0.0
 10
11.6093621845
 20
8.4122898719
 30
0.0
 10
11.6042774009
 20
8.4273213265
 30
0.0
 10
11.6002716735
 20
8.4429860369
 30
0.0
 10
11.5973820418
 20
8.4591338926
 30
0.0
 10
11.5956370105
 20
8.4756058653
 30
0.0
 10
11.5950534111
 20
8.4922408532
 30
0.0
 10
11.5956369926
 20
8.5088758423
 30
0.0
 10
11.597382006
 20
8.5253478188
 30
0.0
 10
11.6002716204
 20
8.5414956807
 30
0.0
 10
11.6042773308
 20
8.5571603997
 30
0.0
 10
11.6093620981
 20
8.5721918652
 30
0.0
 10
11.6173898815
 20
8.5909055739
 30
0.0
 10
11.6250299793
 20
8.6040046071
 30
0.0
 10
11.6308160448
 20
8.6120300249
 30
0.0
  0
SPLINE
  5
304
100
AcDbEntity
  8
0
100
AcDbSpline
 62
7
  6
CONTINUOUS
 70
0
 71
3
 72
15
 73
11
 74
0
 42
0.0000001
 43
0.0000001
 44
0.0000000001
 40
0.0
 40
0.0
 40
0.0
 40
0.0
 40
0.1222228883
 40
0.2448936345
 40
0.3681950425
 40
0.492303217
 40
0.6173857609
 40
0.7436004454
 40
0.8710937717
 40
1.0
 40
1.0
 40
1.0
 40
1.0
 10
10.5854947863
 20
6.58904652
 30
0.0
 10
10.5858254717
 20
6.593365295
 30
0.0
 10
10.5867305371
 20
6.602002031
 30
0.0
 10
10.5888103759
 20
6.6148899665
 30
0.0
 10
10.5916111621
 20
6.6277093833
 30
0.0
 10
10.5951283134
 20
6.6404394898
 30
0.0
 10
10.5993560941
 20
6.6530603357
 30
0.0
 10
10.6042878616
 20
6.6655520582
 30
0.0
 10
10.6099154557
 20
6.677894647
 30
0.0
 10
10.6141011875
 20
6.6859646483
 30
0.0
 10
10.6163037574
 20
6.6899668644
 30
0.0
  0
SPLINE
  5
305
100
AcDbEntity
  8
0
100
AcDbSpline
 62
7
  6
CONTINUOUS
 70
0
 71
3
 72
9
 73
5
 74
0
 42
0.0000001
 43
0.0000001
 44
0.0000000001
 40
0.0
 40
0.0
 40
0.0
 40
0.0
 40
0.4938937904
 40
1.0
 40
1.0
 40
1.0
 40
1.0
 10
10.6163037574
 20
6.6899668644
 30
0.0
 10
10.6205202608
 20
6.6976285316
 30
0.0
 10
10.6297935075
 20
6.7127457461
 30
0.0
 10
10.6403717289
 20
6.726976134
 30
0.0
 10
10.6460132626
 20
6.7339390442
 30
0.0
  0
SPLINE
  5
306
100
AcDbEntity
  8
0
100
AcDbSpline
 62
9
  6
CONTINUOUS
 70
0
 71
3
 72
13
 73
9
 74
0
 42
0.0000001
 43
0.0000001
 44
0.0000000001
 40
0.0
 40
0.0
 40
0.0
 40
0.0
 40
0.2339644306
 40
0.3561623753
 40
0.4812633574
 40
0.6087850565
 40
0.7381795156
 40
1.0
 40
1.0
 40
1.0
 40
1.0
 10
10.4638199771
 20
8.37245103
 30
0.0
 10
10.4696061397
 20
8.3804764584
 30
0.0
 10
10.4772463647
 20
8.3935755037
 30
0.0
 10
10.4852743019
 20
8.4122894043
 30
0.0
 10
10.4903591227
 20
8.427320667
 30
0.0
 10
10.4943650685
 20
8.4429866681
 30
0.0
 10
10.4982317648
 20
8.4645929375
 30
0.0
 10
10.499388416
 20
8.4811692208
 30
0.0
 10
10.499388416
 20
8.4922409815
 30
0.0
  0
SPLINE
  5
307
100
AcDbEntity
  8
0
100
AcDbSpline
 62
7
  6
CONTINUOUS
 70
0
 71
3
 72
15
 73
11
 74
0
 42
0.0000001
 43
0.0000001
 44
0.0000000001
 40
0.0
 40
0.0
 40
0.0
 40
0.0
 40
0.1209767373
 40
0.2423636959
 40
0.3645613605
 40
0.4879515271
 40
0.6128889981
 40
0.739695015
 40
0.8686520187
 40
1.0
 40
1.0
 40
1.0
 40
1.0
 10
10.5848183383
 20
6.6067205995
 30
0.0
 10
10.5848183383
 20
6.6130873432
 30
0.0
 10
10.5853461462
 20
6.6258486568
 30
0.0
 10
10.5877170558
 20
6.644908316
 30
0.0
 10
10.5916589779
 20
6.6638366799
 30
0.0
 10
10.5971576601
 20
6.6825665842
 30
0.0
 10
10.6041932947
 20
6.7010339327
 30
0.0
 10
10.6127409993
 20
6.7191755791
 30
0.0
 10
10.6227698521
 20
6.7369286709
 30
0.0
 10
10.6303481868
 20
6.7483567128
 30
0.0
 10
10.6343620457
 20
6.7539845383
 30
0.0
  0
SPLINE
  5
308
100
AcDbEntity
  8
0
100
AcDbSpline
 62
7
  6
CONTINUOUS
 70
0
 71
3
 72
22
 73
18
 74
0
 42
0.0000001
 43
0.0000001
 44
0.0000000001
 40
0.0
 40
0.0
 40
0.0
 40
0.0
 40
0.0579578175
 40
0.1160429634
 40
0.1743808102
 40
0.2330928938
 40
0.2922952038
 40
0.3520966308
 40
0.412597598
 40
0.4738890741
 40
0.5360517196
 40
0.5991553523
 40
0.6632586167
 40
0.7284088404
 40
0.7946423408
 40
0.8619832212
 40
1.0
 40
1.0
 40
1.0
 40
1.0
 10
11.622318338
 20
6.6208627351
 30
0.0
 10
11.6223183334
 20
6.6144981968
 30
0.0
 10
11.6218946421
 20
6.6017510992
 30
0.0
 10
11.6199901617
 20
6.5826833667
 30
0.0
 10
11.6168209228
 20
6.5636999795
 30
0.0
 10
11.6123942019
 20
6.5448443372
 30
0.0
 10
11.6067201288
 20
6.5261580621
 30
0.0
 10
11.599811624
 20
6.5076826878
 30
0.0
 10
11.591684374
 20
6.4894590684
 30
0.0
 10
11.5823567617
 20
6.4715274255
 30
0.0
 10
11.571849776
 20
6.4539272337
 30
0.0
 10
11.5601869705
 20
6.4366971845
 30
0.0
 10
11.5473943216
 20
6.4198750459
 30
0.0
 10
11.5335004935
 20
6.4034978282
 30
0.0
 10
11.5185355879
 20
6.3876008222
 30
0.0
 10
11.4970276829
 20
6.3669266314
 30
0.0
 10
11.4796384759
 20
6.352499449
 30
0.0
 10
11.4675552138
 20
6.3433506016
 30
0.0
  0
SPLINE
  5
309
100
AcDbEntity
  8
0
100
AcDbSpline
 62
9
  6
CONTINUOUS
 70
0
 71
3
 72
16
 73
12
 74
0
 42
0.0000001
 43
0.0000001
 44
0.0000000001
 40
0.0
 40
0.0
 40
0.0
 40
0.0
 40
0.1252367612
 40
0.2504273428
 40
0.3755724262
 40
0.4381280488
 40
0.500670276
 40
0.6256966067
 40
0.7506158537
 40
0.8753941318
 40
1.0
 40
1.0
 40
1.0
 40
1.0
 10
10.1856637498
 20
10.3598191928
 30
0.0
 10
10.1721801879
 20
10.3598348008
 30
0.0
 10
10.1452180065
 20
10.3598446307
 30
0.0
 10
10.1047821502
 20
10.3597954135
 30
0.0
 10
10.0710949402
 20
10.35970078
 30
0.0
 10
10.0441528343
 20
10.3595937606
 30
0.0
 10
10.0172236226
 20
10.3594623204
 30
0.0
 10
9.9835804521
 20
10.3592345106
 30
0.0
 10
9.9432380568
 20
10.3588085426
 30
0.0
 10
9.9029435435
 20
10.3581784831
 30
0.0
 10
9.8760999216
 20
10.3575876853
 30
0.0
 10
9.8626887563
 20
10.3572409817
 30
0.0
  0
SPLINE
  5
30A
100
AcDbEntity
  8
0
100
AcDbSpline
 62
9
  6
CONTINUOUS
 70
0
 71
3
 72
16
 73
12
 74
0
 42
0.0000001
 43
0.0000001
 44
0.0000000001
 40
0.0
 40
0.0
 40
0.0
 40
0.0
 40
0.1246679323
 40
0.2494020604
 40
0.3742178533
 40
0.4991334435
 40
0.5616344115
 40
0.6241668773
 40
0.749325137
 40
0.8746036617
 40
1.0
 40
1.0
 40
1.0
 40
1.0
 10
10.1894381552
 20
10.3546890963
 30
0.0
 10
10.1758590143
 20
10.3546743537
 30
0.0
 10
10.1486934988
 20
10.3546646042
 30
0.0
 10
10.1079327402
 20
10.3547023862
 30
0.0
 10
10.0671451195
 20
10.354809271
 30
0.0
 10
10.0331363124
 20
10.3549671601
 30
0.0
 10
10.0059117826
 20
10.3551420974
 30
0.0
 10
9.9786610663
 20
10.3553514472
 30
0.0
 10
9.9445733063
 20
10.3556966299
 30
0.0
 10
9.903641004
 20
10.3563096913
 30
0.0
 10
9.8763428237
 20
10.3568940525
 30
0.0
 10
9.8626887417
 20
10.3572409813
 30
0.0
  0
SPLINE
  5
30B
100
AcDbEntity
  8
0
100
AcDbSpline
 62
7
  6
CONTINUOUS
 70
0
 71
3
 72
30
 73
26
 74
0
 42
0.0000001
 43
0.0000001
 44
0.0000000001
 40
0.0
 40
0.0
 40
0.0
 40
0.0
 40
0.027439795
 40
0.0549841038
 40
0.0826548803
 40
0.11047334
 40
0.1384598567
 40
0.1666338619
 40
0.1950137499
 40
0.2236168132
 40
0.25245918
 40
0.2815557526
 40
0.3109201724
 40
0.3405647988
 40
0.4007287327
 40
0.462129451
 40
0.4933144921
 40
0.5248263348
 40
0.5888349201
 40
0.6541744254
 40
0.7208376594
 40
0.7887999617
 40
0.8580205077
 40
0.9284434034
 40
1.0
 40
1.0
 40
1.0
 40
1.0
 10
13.1858108228
 20
4.7411124864
 30
0.0
 10
13.1836290174
 20
4.7262203133
 30
0.0
 10
13.1786394206
 20
4.6964660678
 30
0.0
 10
13.169311733
 20
4.6520862633
 30
0.0
 10
13.1581362787
 20
4.6079204319
 30
0.0
 10
13.1451231246
 20
4.564008121
 30
0.0
 10
13.1302836924
 20
4.5203873692
 30
0.0
 10
13.1136310195
 20
4.4770963005
 30
0.0
 10
13.0951798156
 20
4.4341725929
 30
0.0
 10
13.074946318
 20
4.3916536303
 30
0.0
 10
13.0529482165
 20
4.3495764038
 30
0.0
 10
13.0292049314
 20
4.3079776297
 30
0.0
 10
13.003736924
 20
4.2668929701
 30
0.0
 10
12.9673344625
 20
4.2125847653
 30
0.0
 10
12.9175523632
 20
4.1461580401
 30
0.0
 10
12.8628821914
 20
4.0825830914
 30
0.0
 10
12.8160671789
 20
4.0331550778
 30
0.0
 10
12.7667014763
 20
3.984219747
 30
0.0
 10
12.7011720317
 20
3.9250457374
 30
0.0
 10
12.6172059643
 20
3.8578012501
 30
0.0
 10
12.5277890587
 20
3.7941793915
 30
0.0
 10
12.4332346121
 20
3.7344009852
 30
0.0
 10
12.3338698396
 20
3.6786710493
 30
0.0
 10
12.2300429375
 20
3.6271828632
 30
0.0
 10
12.1586252489
 20
3.5960370429
 30
0.0
 10
12.122286909
 20
3.5812019778
 30
0.0
  0
SPLINE
  5
30C
100
AcDbEntity
  8
0
100
AcDbSpline
 62
7
  6
CONTINUOUS
 70
0
 71
3
 72
29
 73
25
 74
0
 42
0.0000001
 43
0.0000001
 44
0.0000000001
 40
0.0
 40
0.0
 40
0.0
 40
0.0
 40
0.0260032276
 40
0.0521213303
 40
0.0784047801
 40
0.1049015821
 40
0.1316566628
 40
0.158711349
 40
0.186102925
 40
0.2138642711
 40
0.2420236493
 40
0.2706045754
 40
0.299625761
 40
0.329101127
 40
0.3894294129
 40
0.4516278029
 40
0.515648258
 40
0.5813820659
 40
0.6486677856
 40
0.7172987521
 40
0.7870312438
 40
0.857591751
 40
0.9286844361
 40
1.0
 40
1.0
 40
1.0
 40
1.0
 10
11.4529350062
 20
7.2182799776
 30
0.0
 10
11.4525766745
 20
7.2136188622
 30
0.0
 10
11.4515542292
 20
7.2042966222
 30
0.0
 10
11.4491155138
 20
7.1904042079
 30
0.0
 10
11.4457748967
 20
7.176608925
 30
0.0
 10
11.441540205
 20
7.1629418283
 30
0.0
 10
11.4364211998
 20
7.1494326367
 30
0.0
 10
11.4304296193
 20
7.136110929
 30
0.0
 10
11.4235792165
 20
7.1230056957
 30
0.0
 10
11.4158856563
 20
7.1101454052
 30
0.0
 10
11.407366407
 20
7.0975579182
 30
0.0
 10
11.3980408245
 20
7.0852705543
 30
0.0
 10
11.3879297395
 20
7.073309549
 30
0.0
 10
11.3733208045
 20
7.0577127995
 30
0.0
 10
11.3531725118
 20
7.0391837317
 30
0.0
 10
11.3264608326
 20
7.0188327109
 30
0.0
 10
11.2972635962
 20
7.000359148
 30
0.0
 10
11.2658431457
 20
6.9839191667
 30
0.0
 10
11.2324788444
 20
6.9696493513
 30
0.0
 10
11.1974676774
 20
6.9576680613
 30
0.0
 10
11.1611211716
 20
6.9480738622
 30
0.0
 10
11.1237621459
 20
6.9409442829
 30
0.0
 10
11.0857250874
 20
6.9363354355
 30
0.0
 10
11.0601368954
 20
6.9349658584
 30
0.0
 10
11.0473183383
 20
6.9347087464
 30
0.0
  0
SPLINE
  5
30D
100
AcDbEntity
  8
0
100
AcDbSpline
 62
9
  6
CONTINUOUS
 70
0
 71
3
 72
16
 73
12
 74
0
 42
0.0000001
 43
0.0000001
 44
0.0000000001
 40
0.0
 40
0.0
 40
0.0
 40
0.0
 40
0.1246063402
 40
0.2493847923
 40
0.3743039775
 40
0.4993300825
 40
0.5618721598
 40
0.6244276328
 40
0.7495725829
 40
0.8747631825
 40
1.0
 40
1.0
 40
1.0
 40
1.0
 10
12.23194792
 20
10.3572409817
 30
0.0
 10
12.2185367059
 20
10.3575873644
 30
0.0
 10
12.1916930259
 20
10.3581777098
 30
0.0
 10
12.1513984777
 20
10.3588075435
 30
0.0
 10
12.1110561271
 20
10.3592336227
 30
0.0
 10
12.0774130313
 20
10.3594617109
 30
0.0
 10
12.0504838981
 20
10.3595934275
 30
0.0
 10
12.0235418606
 20
10.3597007429
 30
0.0
 10
11.989854705
 20
10.3597954935
 30
0.0
 10
11.9494188859
 20
10.3598446595
 30
0.0
 10
11.9224567171
 20
10.3598347649
 30
0.0
 10
11.9089731595
 20
10.3598191443
 30
0.0
  0
SPLINE
  5
30E
100
AcDbEntity
  8
0
100
AcDbSpline
 62
9
  6
CONTINUOUS
 70
0
 71
3
 72
54
 73
50
 74
0
 42
0.0000001
 43
0.0000001
 44
0.0000000001
 40
0.0
 40
0.0
 40
0.0
 40
0.0
 40
0.0133233175
 40
0.026520166
 40
0.0396045825
 40
0.0525916193
 40
0.0654972319
 40
0.0783381489
 40
0.0911317252
 40
0.1038957805
 40
0.1166484274
 40
0.1294078925
 40
0.1421923342
 40
0.1550196628
 40
0.1679073658
 40
0.1808723441
 40
0.1939307611
 40
0.2070979078
 40
0.2203880869
 40
0.2338145142
 40
0.2473892411
 40
0.2611230944
 40
0.2750256354
 40
0.289105135
 40
0.3033685633
 40
0.3178215933
 40
0.3324686145
 40
0.3473127569
 40
0.3623559226
 40
0.3775988231
 40
0.3930410218
 40
0.4086809807
 40
0.4405381369
 40
0.4731428579
 40
0.5064483338
 40
0.5403951145
 40
0.5749127913
 40
0.6099216483
 40
0.6453342733
 40
0.6810571266
 40
0.7169920759
 40
0.7530379049
 40
0.789091803
 40
0.8250508443
 40
0.8608134649
 40
0.8962809505
 40
0.9313589392
 40
0.9659589403
 40
1.0
 40
1.0
 40
1.0
 40
1.0
 10
9.1507052316
 20
5.4545461078
 30
0.0
 10
9.1426563424
 20
5.4377250435
 30
0.0
 10
9.1274403672
 20
5.4038497532
 30
0.0
 10
9.1072498381
 20
5.3522026475
 30
0.0
 10
9.0898356752
 20
5.300048425
 30
0.0
 10
9.0752240387
 20
5.2474634744
 30
0.0
 10
9.0634361264
 20
5.1945229603
 30
0.0
 10
9.0544892815
 20
5.1413031645
 30
0.0
 10
9.0483966387
 20
5.0878807146
 30
0.0
 10
9.0451671688
 20
5.0343326296
 30
0.0
 10
9.0448056298
 20
4.9807361413
 30
0.0
 10
9.0473125584
 20
4.9271685709
 30
0.0
 10
9.0526842581
 20
4.8737071871
 30
0.0
 10
9.0609128198
 20
4.8204290704
 30
0.0
 10
9.071986145
 20
4.7674109785
 30
0.0
 10
9.0858879812
 20
4.7147292189
 30
0.0
 10
9.1025979658
 20
4.6624595252
 30
0.0
 10
9.122091678
 20
4.6106769423
 30
0.0
 10
9.144340696
 20
4.559455717
 30
0.0
 10
9.1693126586
 20
4.5088691959
 30
0.0
 10
9.19697133
 20
4.4589897287
 30
0.0
 10
9.2272766586
 20
4.4098885721
 30
0.0
 10
9.2601848516
 20
4.3616358024
 30
0.0
 10
9.2956484457
 20
4.3143002297
 30
0.0
 10
9.3336163794
 20
4.267949312
 30
0.0
 10
9.374034065
 20
4.2226490721
 30
0.0
 10
9.4168434709
 20
4.1784640109
 30
0.0
 10
9.4619831812
 20
4.1354570388
 30
0.0
 10
9.5093885564
 20
4.0936893386
 30
0.0
 10
9.5589915255
 20
4.053220495
 30
0.0
 10
9.6107218017
 20
4.0141076101
 30
0.0
 10
9.682868599
 20
3.9635341246
 30
0.0
 10
9.7780321658
 20
3.9040803649
 30
0.0
 10
9.8987512307
 20
3.8394492456
 30
0.0
 10
10.026012984
 20
3.7814524475
 30
0.0
 10
10.1590887133
 20
3.7304196586
 30
0.0
 10
10.2972220219
 20
3.6866381857
 30
0.0
 10
10.4396263007
 20
3.6503556857
 30
0.0
 10
10.5854909689
 20
3.6217773934
 30
0.0
 10
10.7339855386
 20
3.601065173
 30
0.0
 10
10.8842644741
 20
3.5883364002
 30
0.0
 10
11.0354719854
 20
3.5836632122
 30
0.0
 10
11.186746969
 20
3.5870721048
 30
0.0
 10
11.3372278876
 20
3.5985437366
 30
0.0
 10
11.4860579315
 20
3.618013148
 30
0.0
 10
11.6323891281
 20
3.6453697975
 30
0.0
 10
11.7753901489
 20
3.6804594761
 30
0.0
 10
11.9142402686
 20
3.7230808658
 30
0.0
 10
12.0043257481
 20
3.7566592672
 30
0.0
 10
12.0484360611
 20
3.774667227
 30
0.0
  0
SPLINE
  5
30F
100
AcDbEntity
  8
0
100
AcDbSpline
 62
9
  6
CONTINUOUS
 70
0
 71
3
 72
29
 73
25
 74
0
 42
0.0000001
 43
0.0000001
 44
0.0000000001
 40
0.0
 40
0.0
 40
0.0
 40
0.0
 40
0.0282654495
 40
0.0565532954
 40
0.0848858084
 40
0.1132850151
 40
0.141772577
 40
0.1703696717
 40
0.1990968943
 40
0.2279741516
 40
0.2570205636
 40
0.2862543945
 40
0.3156929696
 40
0.3453526053
 40
0.4053856888
 40
0.4664722112
 40
0.5287024178
 40
0.5921475811
 40
0.6568599926
 40
0.722873347
 40
0.790203378
 40
0.8588486862
 40
0.9287917495
 40
1.0
 40
1.0
 40
1.0
 40
1.0
 10
9.1423183517
 20
5.1983375589
 30
0.0
 10
9.1423183605
 20
5.1856896893
 30
0.0
 10
9.1428225938
 20
5.1603810343
 30
0.0
 10
9.1450909422
 20
5.1224556448
 30
0.0
 10
9.1488694202
 20
5.0845901087
 30
0.0
 10
9.1541550128
 20
5.0468153859
 30
0.0
 10
9.1609435288
 20
5.0091613671
 30
0.0
 10
9.1692294074
 20
4.9716580764
 30
0.0
 10
9.1790060208
 20
4.9343353493
 30
0.0
 10
9.1902655534
 20
4.8972229073
 30
0.0
 10
9.2029988941
 20
4.8603501945
 30
0.0
 10
9.2171957938
 20
4.8237466598
 30
0.0
 10
9.2328452176
 20
4.7874408892
 30
0.0
 10
9.2557201032
 20
4.7392801378
 30
0.0
 10
9.2879468427
 20
4.6799353612
 30
0.0
 10
9.3320413597
 20
4.6106757996
 30
0.0
 10
9.3815752017
 20
4.5432928537
 30
0.0
 10
9.4363876337
 20
4.4780013575
 30
0.0
 10
9.4963032023
 20
4.4150056983
 30
0.0
 10
9.5611305274
 20
4.3545038385
 30
0.0
 10
9.6306630447
 20
4.2966857141
 30
0.0
 10
9.7046804283
 20
4.241732358
 30
0.0
 10
9.7829452744
 20
4.1898177288
 30
0.0
 10
9.8373192893
 20
4.1576203223
 30
0.0
 10
9.8651249822
 20
4.1420601741
 30
0.0
  0
SPLINE
  5
310
100
AcDbEntity
  8
0
100
AcDbSpline
 62
9
  6
CONTINUOUS
 70
0
 71
3
 72
23
 73
19
 74
0
 42
0.0000001
 43
0.0000001
 44
0.0000000001
 40
0.0
 40
0.0
 40
0.0
 40
0.0
 40
0.0584997347
 40
0.1182122414
 40
0.1790301989
 40
0.2408281185
 40
0.3034651125
 40
0.3667875911
 40
0.4306318984
 40
0.494826899
 40
0.5591965116
 40
0.6235622147
 40
0.6877455427
 40
0.751570578
 40
0.8148664558
 40
0.877469901
 40
0.9392277836
 40
1.0
 40
1.0
 40
1.0
 40
1.0
 10
9.8651249822
 20
4.1420601741
 30
0.0
 10
9.9026565866
 20
4.121057377
 30
0.0
 10
9.9799182606
 20
4.0811074706
 30
0.0
 10
10.100452853
 20
4.0280401696
 30
0.0
 10
10.2262317777
 20
3.9814638407
 30
0.0
 10
10.3565526528
 20
3.9416378342
 30
0.0
 10
10.4906963587
 20
3.9087799966
 30
0.0
 10
10.6279202555
 20
3.8830713658
 30
0.0
 10
10.7674651911
 20
3.864653353
 30
0.0
 10
10.9085589229
 20
3.8536274221
 30
0.0
 10
11.0504206164
 20
3.850054348
 30
0.0
 10
11.1922651462
 20
3.8539538286
 30
0.0
 10
11.3333074468
 20
3.8653043306
 30
0.0
 10
11.472767085
 20
3.8840433661
 30
0.0
 10
11.6098718622
 20
3.910067569
 30
0.0
 10
11.7438648008
 20
3.9432343418
 30
0.0
 10
11.8739985679
 20
3.9833587359
 30
0.0
 10
11.9584533419
 20
4.0148808798
 30
0.0
 10
11.9998183383
 20
4.0317680689
 30
0.0
  0
SPLINE
  5
311
100
AcDbEntity
  8
0
100
AcDbSpline
 62
9
  6
CONTINUOUS
 70
0
 71
3
 72
46
 73
42
 74
0
 42
0.0000001
 43
0.0000001
 44
0.0000000001
 40
0.0
 40
0.0
 40
0.0
 40
0.0
 40
0.0124254031
 40
0.0248640904
 40
0.0373292466
 40
0.0498338597
 40
0.0623906281
 40
0.075011871
 40
0.0877094447
 40
0.1004946702
 40
0.1133782679
 40
0.1263702976
 40
0.1394801091
 40
0.1527163074
 40
0.1660867222
 40
0.1795983807
 40
0.2070645428
 40
0.235159929
 40
0.2639113909
 40
0.2933331529
 40
0.3234273966
 40
0.3541850377
 40
0.3855865662
 40
0.4176029581
 40
0.4501965987
 40
0.4833222053
 40
0.5169277515
 40
0.5509553541
 40
0.5853421668
 40
0.6200212274
 40
0.6549223136
 40
0.6899727633
 40
0.7250982987
 40
0.7602238342
 40
0.7952742839
 40
0.8301753698
 40
0.864854431
 40
0.8992412443
 40
0.9332688502
 40
0.9668743078
 40
1.0
 40
1.0
 40
1.0
 40
1.0
 10
9.4273183518
 20
5.4611215783
 30
0.0
 10
9.4273183617
 20
5.4486248553
 30
0.0
 10
9.4278973988
 20
5.4236141903
 30
0.0
 10
9.430501825
 20
5.3861483963
 30
0.0
 10
9.4348393469
 20
5.3487625603
 30
0.0
 10
9.4409052062
 20
5.3114980009
 30
0.0
 10
9.4486927892
 20
5.2743945495
 30
0.0
 10
9.4581936357
 20
5.2374922087
 30
0.0
 10
9.4693973387
 20
5.200830617
 30
0.0
 10
9.4822916907
 20
5.1644491527
 30
0.0
 10
9.4968627104
 20
5.128386865
 30
0.0
 10
9.5130945848
 20
5.0926824381
 30
0.0
 10
9.5309697104
 20
5.0573740704
 30
0.0
 10
9.5504686361
 20
5.0224996951
 30
0.0
 10
9.5715707572
 20
4.9880961219
 30
0.0
 10
9.6019760775
 20
4.9426588557
 30
0.0
 10
9.6439578415
 20
4.8872175269
 30
0.0
 10
9.7000567773
 20
4.8235338748
 30
0.0
 10
9.7619135661
 20
4.7625931351
 30
0.0
 10
9.8292596701
 20
4.7046557045
 30
0.0
 10
9.901806312
 20
4.6499650808
 30
0.0
 10
9.9792426394
 20
4.5987524279
 30
0.0
 10
10.0612375265
 20
4.5512339645
 30
0.0
 10
10.1474407271
 20
4.5076106477
 30
0.0
 10
10.2374842555
 20
4.4680671298
 30
0.0
 10
10.3309838322
 20
4.4327709018
 30
0.0
 10
10.4275405254
 20
4.4018717275
 30
0.0
 10
10.5267423108
 20
4.3755006443
 30
0.0
 10
10.6281659158
 20
4.3537697818
 30
0.0
 10
10.7313784994
 20
4.3367713547
 30
0.0
 10
10.8359395971
 20
4.3245777693
 30
0.0
 10
10.9414029225
 20
4.3172407608
 30
0.0
 10
11.0473183387
 20
4.3147916479
 30
0.0
 10
11.1532337528
 20
4.3172407686
 30
0.0
 10
11.2586970835
 20
4.3245777559
 30
0.0
 10
11.3632581647
 20
4.3367713728
 30
0.0
 10
11.466470801
 20
4.3537697707
 30
0.0
 10
11.567894238
 20
4.3755006223
 30
0.0
 10
11.6670965449
 20
4.4018718748
 30
0.0
 10
11.7636510678
 20
4.4327701865
 30
0.0
 10
11.8264738744
 20
4.4564860328
 30
0.0
 10
11.8573183383
 20
4.4690782324
 30
0.0
  0
SPLINE
  5
312
100
AcDbEntity
  8
0
100
AcDbSpline
 62
9
  6
CONTINUOUS
 70
0
 71
3
 72
29
 73
25
 74
0
 42
0.0000001
 43
0.0000001
 44
0.0000000001
 40
0.0
 40
0.0
 40
0.0
 40
0.0
 40
0.0282655496
 40
0.0565534944
 40
0.084886106
 40
0.1132854072
 40
0.1417730583
 40
0.1703702411
 40
0.1990975439
 40
0.2279748734
 40
0.2570213555
 40
0.2862552452
 40
0.3156938697
 40
0.3453535521
 40
0.405386691
 40
0.4664732361
 40
0.5287034288
 40
0.5921485329
 40
0.6568608529
 40
0.7228740892
 40
0.7902039647
 40
0.8588490946
 40
0.9287919722
 40
1.0
 40
1.0
 40
1.0
 40
1.0
 10
12.9523183248
 20
5.1983375589
 30
0.0
 10
12.9523183336
 20
5.1856899902
 30
0.0
 10
12.9518140678
 20
5.1603819391
 30
0.0
 10
12.9495458992
 20
5.122457447
 30
0.0
 10
12.9457675607
 20
5.0845928099
 30
0.0
 10
12.9404822052
 20
5.0468189808
 30
0.0
 10
12.9336940624
 20
5.0091658337
 30
0.0
 10
12.9254085348
 20
4.9716634222
 30
0.0
 10
12.9156323811
 20
4.9343415552
 30
0.0
 10
12.9043734229
 20
4.8972299423
 30
0.0
 10
12.8916406381
 20
4.8603580702
 30
0.0
 10
12.8774444145
 20
4.8237553401
 30
0.0
 10
12.8617957554
 20
4.7874503408
 30
0.0
 10
12.8389218882
 20
4.7392906443
 30
0.0
 10
12.806696709
 20
4.6799470617
 30
0.0
 10
12.7626042046
 20
4.6106888444
 30
0.0
 10
12.7130726091
 20
4.5433071162
 30
0.0
 10
12.6582626835
 20
4.478016657
 30
0.0
 10
12.5983497955
 20
4.4150218939
 30
0.0
 10
12.5335253041
 20
4.3545207918
 30
0.0
 10
12.4639958266
 20
4.2967031971
 30
0.0
 10
12.3899816157
 20
4.2417501852
 30
0.0
 10
12.3117200425
 20
4.1898357407
 30
0.0
 10
12.2573482604
 20
4.1576383162
 30
0.0
 10
12.2295437193
 20
4.1420780971
 30
0.0
  0
SPLINE
  5
313
100
AcDbEntity
  8
0
100
AcDbSpline
 62
9
  6
CONTINUOUS
 70
0
 71
3
 72
9
 73
5
 74
0
 42
0.0000001
 43
0.0000001
 44
0.0000000001
 40
0.0
 40
0.0
 40
0.0
 40
0.0
 40
0.2462391458
 40
1.0
 40
1.0
 40
1.0
 40
1.0
 10
12.2295437193
 20
4.1420780971
 30
0.0
 10
12.211284156
 20
4.1318595215
 30
0.0
 10
12.1364674156
 20
4.091553169
 30
0.0
 10
12.0591185595
 20
4.0559772828
 30
0.0
 10
11.9998183383
 20
4.0317680689
 30
0.0
  0
SPLINE
  5
314
100
AcDbEntity
  8
0
100
AcDbSpline
 62
9
  6
CONTINUOUS
 70
0
 71
3
 72
16
 73
12
 74
0
 42
0.0000001
 43
0.0000001
 44
0.0000000001
 40
0.0
 40
0.0
 40
0.0
 40
0.0
 40
0.1253969923
 40
0.2506759135
 40
0.3758339878
 40
0.4383660358
 40
0.5008664798
 40
0.6257811381
 40
0.7505965045
 40
0.8753311228
 40
1.0
 40
1.0
 40
1.0
 40
1.0
 10
12.2319479343
 20
10.3572409813
 30
0.0
 10
12.2182938887
 20
10.3568937168
 30
0.0
 10
12.1909957955
 20
10.356309101
 30
0.0
 10
12.150063692
 20
10.3556962685
 30
0.0
 10
12.1159761997
 20
10.3553513355
 30
0.0
 10
12.0887258054
 20
10.3551417773
 30
0.0
 10
12.0615016775
 20
10.3549667606
 30
0.0
 10
12.0274933203
 20
10.3548092007
 30
0.0
 10
11.9867060889
 20
10.3547027666
 30
0.0
 10
11.9459455166
 20
10.3546648747
 30
0.0
 10
11.9187800415
 20
10.3546740575
 30
0.0
 10
11.9052008961
 20
10.3546887772
 30
0.0
  0
SPLINE
  5
315
100
AcDbEntity
  8
0
100
AcDbSpline
 62
9
  6
CONTINUOUS
 70
0
 71
3
 72
30
 73
26
 74
0
 42
0.0000001
 43
0.0000001
 44
0.0000000001
 40
0.0
 40
0.0
 40
0.0
 40
0.0
 40
0.0275999486
 40
0.0552294045
 40
0.0829176549
 40
0.1106935505
 40
0.1385852953
 40
0.1666202518
 40
0.1948247593
 40
0.2232239669
 40
0.2518416822
 40
0.2807002487
 40
0.3098204402
 40
0.3392213726
 40
0.3689204306
 40
0.3989332237
 40
0.4599424878
 40
0.5223494126
 40
0.5862136502
 40
0.6515667913
 40
0.7184136836
 40
0.7867341531
 40
0.8564848468
 40
0.9276011679
 40
1.0
 40
1.0
 40
1.0
 40
1.0
 10
12.9523183248
 20
5.3277726261
 30
0.0
 10
12.9523183351
 20
5.3130774056
 30
0.0
 10
12.9516373678
 20
5.2836667175
 30
0.0
 10
12.9485748002
 20
5.2396097183
 30
0.0
 10
12.9434742166
 20
5.1956467407
 30
0.0
 10
12.9363411873
 20
5.1518263824
 30
0.0
 10
12.9271835415
 20
5.1081954778
 30
0.0
 10
12.9160112829
 20
5.0648010518
 30
0.0
 10
12.9028365781
 20
5.0216897287
 30
0.0
 10
12.8876737416
 20
4.9789078318
 30
0.0
 10
12.8705392886
 20
4.9365012584
 30
0.0
 10
12.8514518353
 20
4.8945154861
 30
0.0
 10
12.8304320241
 20
4.8529954542
 30
0.0
 10
12.8075027013
 20
4.8119857874
 30
0.0
 10
12.782688168
 20
4.7715297352
 30
0.0
 10
12.7469337912
 20
4.718098857
 30
0.0
 10
12.6975663166
 20
4.6529039845
 30
0.0
 10
12.6315981473
 20
4.578016707
 30
0.0
 10
12.5588591295
 20
4.5063549234
 30
0.0
 10
12.4796651164
 20
4.4382247954
 30
0.0
 10
12.3943555984
 20
4.3739126503
 30
0.0
 10
12.3032963681
 20
4.3136904466
 30
0.0
 10
12.206875912
 20
4.2578120159
 30
0.0
 10
12.1055097331
 20
4.2065152147
 30
0.0
 10
12.0355066496
 20
4.1757728282
 30
0.0
 10
11.9998183383
 20
4.1612031361
 30
0.0
  0
SPLINE
  5
316
100
AcDbEntity
  8
0
100
AcDbSpline
 62
9
  6
CONTINUOUS
 70
0
 71
3
 72
30
 73
26
 74
0
 42
0.0000001
 43
0.0000001
 44
0.0000000001
 40
0.0
 40
0.0
 40
0.0
 40
0.0
 40
0.0275999486
 40
0.0552294044
 40
0.0829176551
 40
0.1106935507
 40
0.1385852948
 40
0.1666202511
 40
0.1948247603
 40
0.2232239677
 40
0.251841681
 40
0.2807002475
 40
0.3098204423
 40
0.3392213738
 40
0.3689204283
 40
0.3989332225
 40
0.4599424893
 40
0.5223494118
 40
0.5862136514
 40
0.651566791
 40
0.7184136837
 40
0.7867341543
 40
0.856484857
 40
0.927601136
 40
1.0
 40
1.0
 40
1.0
 40
1.0
 10
12.6673183248
 20
5.4851550294
 30
0.0
 10
12.6673183346
 20
5.4726583065
 30
0.0
 10
12.666739241
 20
5.4476476428
 30
0.0
 10
12.6641348624
 20
5.4101818475
 30
0.0
 10
12.6597973482
 20
5.3727960091
 30
0.0
 10
12.6537314612
 20
5.3355314535
 30
0.0
 10
12.645943867
 20
5.2984280056
 30
0.0
 10
12.6364430594
 20
5.2615256555
 30
0.0
 10
12.6252393487
 20
5.2248640649
 30
0.0
 10
12.6123449693
 20
5.1884826096
 30
0.0
 10
12.597773957
 20
5.1524203205
 30
0.0
 10
12.5815421129
 20
5.1167158803
 30
0.0
 10
12.5636669679
 20
5.0814075206
 30
0.0
 10
12.5441680212
 20
5.0465331568
 30
0.0
 10
12.5230659232
 20
5.0121295713
 30
0.0
 10
12.4926606173
 20
4.9666922943
 30
0.0
 10
12.4506788102
 20
4.9112509995
 30
0.0
 10
12.3945799178
 20
4.8475673083
 30
0.0
 10
12.3327230957
 20
4.7866265996
 30
0.0
 10
12.26537702
 20
4.7286891517
 30
0.0
 10
12.1928303344
 20
4.6739985197
 30
0.0
 10
12.1153941395
 20
4.6227859278
 30
0.0
 10
12.0333988003
 20
4.5752672752
 30
0.0
 10
11.9471976444
 20
4.5316447921
 30
0.0
 10
11.8876674668
 20
4.5055016634
 30
0.0
 10
11.8573183383
 20
4.4931116836
 30
0.0
  0
SPLINE
  5
317
100
AcDbEntity
  8
0
100
AcDbSpline
 62
7
  6
CONTINUOUS
 70
0
 71
3
 72
23
 73
19
 74
0
 42
0.0000001
 43
0.0000001
 44
0.0000000001
 40
0.0
 40
0.0
 40
0.0
 40
0.0
 40
0.1170938475
 40
0.14746637
 40
0.1782224815
 40
0.2407666171
 40
0.3045002796
 40
0.3691532108
 40
0.4344316802
 40
0.5000262945
 40
0.5656199662
 40
0.6308956262
 40
0.6955439528
 40
0.7592713324
 40
0.8218076668
 40
0.8525593796
 40
0.8829272076
 40
1.0
 40
1.0
 40
1.0
 40
1.0
 10
10.7750923249
 20
7.1293089651
 30
0.0
 10
10.7934242447
 20
7.1162765993
 30
0.0
 10
10.8181432157
 20
7.1020360737
 30
0.0
 10
10.8493684932
 20
7.0880077201
 30
0.0
 10
10.8714181157
 20
7.0791469947
 30
0.0
 10
10.9000522895
 20
7.0695622025
 30
0.0
 10
10.9356376553
 20
7.0605533979
 30
0.0
 10
10.9722994744
 20
7.0540585218
 30
0.0
 10
11.0096836534
 20
7.0501397367
 30
0.0
 10
11.0474304236
 20
7.0488345376
 30
0.0
 10
11.0851761138
 20
7.0501552962
 30
0.0
 10
11.1225570647
 20
7.0540894873
 30
0.0
 10
11.1592135368
 20
7.0605994826
 30
0.0
 10
11.1947914929
 20
7.0696229538
 30
0.0
 10
11.2234179559
 20
7.0792196245
 30
0.0
 10
11.2454604022
 20
7.0880895077
 30
0.0
 10
11.276673625
 20
7.1021305439
 30
0.0
 10
11.3013810942
 20
7.1163813359
 30
0.0
 10
11.3197025221
 20
7.1294214741
 30
0.0
  0
SPLINE
  5
318
100
AcDbEntity
  8
0
100
AcDbSpline
 62
7
  6
CONTINUOUS
 70
0
 71
3
 72
23
 73
19
 74
0
 42
0.0000001
 43
0.0000001
 44
0.0000000001
 40
0.0
 40
0.0
 40
0.0
 40
0.0
 40
0.0571126303
 40
0.11597914
 40
0.1764571409
 40
0.2383632331
 40
0.3014804924
 40
0.3655653805
 40
0.4303544848
 40
0.4955711309
 40
0.5609315804
 40
0.6261515051
 40
0.6909519836
 40
0.7550659798
 40
0.8182444631
 40
0.8494168819
 40
0.880273733
 40
1.0
 40
1.0
 40
1.0
 40
1.0
 10
10.7827230966
 20
7.0816461379
 30
0.0
 10
10.7914537307
 20
7.0759712533
 30
0.0
 10
10.8097030737
 20
7.0652300097
 30
0.0
 10
10.8387038869
 20
7.0512278112
 30
0.0
 10
10.8695186697
 20
7.039202126
 30
0.0
 10
10.9018774234
 20
7.0292639389
 30
0.0
 10
10.9355004132
 20
7.0215042609
 30
0.0
 10
10.9700959565
 20
7.0159963413
 30
0.0
 10
11.0053641546
 20
7.0127937832
 30
0.0
 10
11.0409991929
 20
7.0119306818
 30
0.0
 10
11.0766921248
 20
7.0134207382
 30
0.0
 10
11.1121334467
 20
7.0172575768
 30
0.0
 10
11.1470162312
 20
7.0234145768
 30
0.0
 10
11.1810373849
 20
7.0318449263
 30
0.0
 10
11.2085499137
 20
7.0407500992
 30
0.0
 10
11.2298566293
 20
7.0489611106
 30
0.0
 10
11.2603128423
 20
7.0620163558
 30
0.0
 10
11.284577015
 20
7.0752066636
 30
0.0
 10
11.3027872187
 20
7.0872433647
 30
0.0
  0
SPLINE
  5
319
100
AcDbEntity
  8
0
100
AcDbSpline
 62
7
  6
CONTINUOUS
 70
0
 71
3
 72
22
 73
18
 74
0
 42
0.0000001
 43
0.0000001
 44
0.0000000001
 40
0.0
 40
0.0
 40
0.0
 40
0.0
 40
0.0576391841
 40
0.1168531738
 40
0.1775035783
 40
0.2394212975
 40
0.3024117413
 40
0.3662603169
 40
0.4307372091
 40
0.4956023939
 40
0.5606104612
 40
0.6255151458
 40
0.6900742483
 40
0.7540541168
 40
0.8172345249
 40
0.8794134948
 40
1.0
 40
1.0
 40
1.0
 40
1.0
 10
10.7971834728
 20
7.0238460839
 30
0.0
 10
10.8056318363
 20
7.018864592
 30
0.0
 10
10.8231705407
 20
7.0094482945
 30
0.0
 10
10.8507969431
 20
6.9971786778
 30
0.0
 10
10.8799108278
 20
6.9866571704
 30
0.0
 10
10.9102902052
 20
6.9779687341
 30
0.0
 10
10.9417064055
 20
6.9711831382
 30
0.0
 10
10.9739221408
 20
6.9663565501
 30
0.0
 10
11.0066942738
 20
6.9635302564
 30
0.0
 10
11.0397754062
 20
6.9627306455
 30
0.0
 10
11.072915853
 20
6.9639689779
 30
0.0
 10
11.1058654109
 20
6.9672410526
 30
0.0
 10
11.1383757713
 20
6.9725276522
 30
0.0
 10
11.1702004887
 20
6.9797938626
 30
0.0
 10
11.2011039371
 20
6.9889923709
 30
0.0
 10
11.2403444115
 20
7.0035888448
 30
0.0
 10
11.2683536342
 20
7.0174297305
 30
0.0
 10
11.2859888657
 20
7.0279182186
 30
0.0
  0
SPLINE
  5
31A
100
AcDbEntity
  8
0
100
AcDbSpline
 62
9
  6
CONTINUOUS
 70
0
 71
3
 72
15
 73
11
 74
0
 42
0.0000001
 43
0.0000001
 44
0.0000000001
 40
0.0
 40
0.0
 40
0.0
 40
0.0
 40
0.2339202799
 40
0.2946306913
 40
0.3561203894
 40
0.4811978
 40
0.6086954633
 40
0.7380653216
 40
0.8687088643
 40
1.0
 40
1.0
 40
1.0
 40
1.0
 10
10.4342334513
 20
8.6530678221
 30
0.0
 10
10.4420017408
 20
8.6422930501
 30
0.0
 10
10.4504922196
 20
8.627735843
 30
0.0
 10
10.4588567809
 20
8.6093263188
 30
0.0
 10
10.4641436163
 20
8.5963131499
 30
0.0
 10
10.469864002
 20
8.5794012231
 30
0.0
 10
10.4752423976
 20
8.5583697401
 30
0.0
 10
10.4791218898
 20
8.5366897808
 30
0.0
 10
10.4814648002
 20
8.5145756326
 30
0.0
 10
10.4819867016
 20
8.4996963404
 30
0.0
 10
10.4819867016
 20
8.4922409815
 30
0.0
  0
SPLINE
  5
31B
100
AcDbEntity
  8
0
100
AcDbSpline
 62
7
  6
CONTINUOUS
 70
0
 71
3
 72
39
 73
35
 74
0
 42
0.0000001
 43
0.0000001
 44
0.0000000001
 40
0.0
 40
0.0
 40
0.0
 40
0.0
 40
0.0248343515
 40
0.0498052662
 40
0.0750449756
 40
0.1006749215
 40
0.1268029848
 40
0.1535202213
 40
0.1808992321
 40
0.2089932993
 40
0.2233226641
 40
0.2378420085
 40
0.2674498837
 40
0.2978204008
 40
0.3289354171
 40
0.3607620546
 40
0.3932543029
 40
0.426354599
 40
0.4599952982
 40
0.4941002627
 40
0.5285863014
 40
0.563364581
 40
0.5983421192
 40
0.6334230892
 40
0.6685102096
 40
0.7035061588
 40
0.73831483
 40
0.7728427978
 40
0.8070006579
 40
0.8407043935
 40
0.8738769136
 40
0.906449405
 40
0.9383630143
 40
1.0
 40
1.0
 40
1.0
 40
1.0
 10
10.6410683384
 20
7.3116695084
 30
0.0
 10
10.6410683454
 20
7.3045252546
 30
0.0
 10
10.6418266821
 20
7.2901860751
 30
0.0
 10
10.6452292019
 20
7.2688294572
 30
0.0
 10
10.6508766381
 20
7.247715698
 30
0.0
 10
10.6587348672
 20
7.2269674776
 30
0.0
 10
10.6687568343
 20
7.2067004147
 30
0.0
 10
10.6808838951
 20
7.1870271905
 30
0.0
 10
10.695045343
 20
7.1680567824
 30
0.0
 10
10.7083883583
 20
7.1530178248
 30
0.0
 10
10.7199741798
 20
7.1414323843
 30
0.0
 10
10.732323184
 20
7.1300119361
 30
0.0
 10
10.7488824704
 20
7.1163733799
 30
0.0
 10
10.770275874
 20
7.1012028312
 30
0.0
 10
10.793203447
 20
7.0872028666
 30
0.0
 10
10.8175373013
 20
7.0744506977
 30
0.0
 10
10.843142902
 20
7.0630159247
 30
0.0
 10
10.8698784761
 20
7.0529612855
 30
0.0
 10
10.8975961113
 20
7.0443419633
 30
0.0
 10
10.9261424378
 20
7.0372053446
 30
0.0
 10
10.9553594851
 20
7.0315906774
 30
0.0
 10
10.9850855579
 20
7.0275288687
 30
0.0
 10
11.0151561226
 20
7.0250422951
 30
0.0
 10
11.0454047274
 20
7.0241446637
 30
0.0
 10
11.0756639271
 20
7.0248409357
 30
0.0
 10
11.1057662119
 20
7.027127268
 30
0.0
 10
11.1355449517
 20
7.0309910472
 30
0.0
 10
11.164835338
 20
7.0364109961
 30
0.0
 10
11.1934751992
 20
7.0433572323
 30
0.0
 10
11.2213062917
 20
7.0517916948
 30
0.0
 10
11.2481737275
 20
7.0616674933
 30
0.0
 10
11.273932074
 20
7.0729323364
 30
0.0
 10
11.306216474
 20
7.0895194259
 30
0.0
 10
11.3289515647
 20
7.1041248024
 30
0.0
 10
11.3431286757
 20
7.1147744769
 30
0.0
  0
SPLINE
  5
31C
100
AcDbEntity
  8
0
100
AcDbSpline
 62
9
  6
CONTINUOUS
 70
0
 71
3
 72
28
 73
24
 74
0
 42
0.0000001
 43
0.0000001
 44
0.0000000001
 40
0.0
 40
0.0
 40
0.0
 40
0.0
 40
0.0257107609
 40
0.0514832387
 40
0.0773781195
 40
0.1034540624
 40
0.1297667932
 40
0.1563683094
 40
0.1833062104
 40
0.2106231532
 40
0.2383564702
 40
0.2665379317
 40
0.3243220866
 40
0.3841398522
 40
0.4460434395
 40
0.510003709
 40
0.5759188386
 40
0.6436238038
 40
0.7129000464
 40
0.7834850492
 40
0.8550815239
 40
0.9273661959
 40
1.0
 40
1.0
 40
1.0
 40
1.0
 10
11.4535683204
 20
8.1198041144
 30
0.0
 10
11.4535683204
 20
8.1151028559
 30
0.0
 10
11.4532410467
 20
8.1056857942
 30
0.0
 10
11.4517701363
 20
8.0916029606
 30
0.0
 10
11.449322709
 20
8.0775883025
 30
0.0
 10
11.4459049586
 20
8.0636768666
 30
0.0
 10
11.4415254761
 20
8.0499022247
 30
0.0
 10
11.4361952011
 20
8.0362978416
 30
0.0
 10
11.4299273242
 20
8.0228965734
 30
0.0
 10
11.4227374384
 20
8.009730825
 30
0.0
 10
11.4146429219
 20
7.9968318802
 30
0.0
 10
11.4025725789
 20
7.979892338
 30
0.0
 10
11.3852598211
 20
7.95954493
 30
0.0
 10
11.3614230963
 20
7.9369000265
 30
0.0
 10
11.3345791818
 20
7.9160265681
 30
0.0
 10
11.3049889304
 20
7.8971217398
 30
0.0
 10
11.2729357201
 20
7.8803613957
 30
0.0
 10
11.2387263222
 20
7.8659029069
 30
0.0
 10
11.202687566
 20
7.8538821492
 30
0.0
 10
11.1651639005
 20
7.8444126373
 30
0.0
 10
11.1265132709
 20
7.8375838231
 30
0.0
 10
11.0871074419
 20
7.8334604642
 30
0.0
 10
11.060599559
 20
7.8325419845
 30
0.0
 10
11.0473183383
 20
7.8325419845
 30
0.0
  0
SPLINE
  5
31D
100
AcDbEntity
  8
0
100
AcDbSpline
 62
9
  6
CONTINUOUS
 70
0
 71
3
 72
21
 73
17
 74
0
 42
0.0000001
 43
0.0000001
 44
0.0000000001
 40
0.0
 40
0.0
 40
0.0
 40
0.0
 40
0.1169630821
 40
0.1780520711
 40
0.2405923445
 40
0.3043427941
 40
0.3690292839
 40
0.4343532595
 40
0.5
 40
0.5656467405
 40
0.6309707161
 40
0.6956572059
 40
0.7594076555
 40
0.8219479289
 40
0.8830369179
 40
1.0
 40
1.0
 40
1.0
 40
1.0
 10
11.6604032312
 20
8.3314141494
 30
0.0
 10
11.6526348978
 20
8.3421888882
 30
0.0
 10
11.6423772923
 20
8.3597753443
 30
0.0
 10
11.6315992222
 20
8.3849000123
 30
0.0
 10
11.6247724207
 20
8.4050809955
 30
0.0
 10
11.6193943693
 20
8.4261121938
 30
0.0
 10
11.6155147445
 20
8.4477920568
 30
0.0
 10
11.613171885
 20
8.4699070874
 30
0.0
 10
11.6123883946
 20
8.4922409815
 30
0.0
 10
11.613171885
 20
8.5145748756
 30
0.0
 10
11.6155147445
 20
8.5366899061
 30
0.0
 10
11.6193943693
 20
8.5583697692
 30
0.0
 10
11.6247724207
 20
8.5794009675
 30
0.0
 10
11.6315992222
 20
8.5995819506
 30
0.0
 10
11.6423772923
 20
8.6247066187
 30
0.0
 10
11.6526348978
 20
8.6422930747
 30
0.0
 10
11.6604032312
 20
8.6530678135
 30
0.0
  0
SPLINE
  5
31E
100
AcDbEntity
  8
0
100
AcDbSpline
 62
7
  6
CONTINUOUS
 70
0
 71
3
 72
15
 73
11
 74
0
 42
0.0000001
 43
0.0000001
 44
0.0000000001
 40
0.0
 40
0.0
 40
0.0
 40
0.0
 40
0.1194659292
 40
0.2397611755
 40
0.3613052065
 40
0.4844879247
 40
0.6096625911
 40
0.7371383169
 40
0.8671803542
 40
1.0
 40
1.0
 40
1.0
 40
1.0
 10
10.6416002415
 20
7.1435842667
 30
0.0
 10
10.6420094645
 20
7.1380955949
 30
0.0
 10
10.6433044927
 20
7.1271097793
 30
0.0
 10
10.6466510981
 20
7.1107849287
 30
0.0
 10
10.6513941193
 20
7.0946305991
 30
0.0
 10
10.6575159061
 20
7.0787068445
 30
0.0
 10
10.6649940886
 20
7.0630706867
 30
0.0
 10
10.6738017254
 20
7.0477779785
 30
0.0
 10
10.6839066156
 20
7.0328842231
 30
0.0
 10
10.691403415
 20
7.023358878
 30
0.0
 10
10.6953467171
 20
7.0186797703
 30
0.0
  0
SPLINE
  5
31F
100
AcDbEntity
  8
0
100
AcDbSpline
 62
7
  6
CONTINUOUS
 70
0
 71
3
 72
20
 73
16
 74
0
 42
0.0000001
 43
0.0000001
 44
0.0000000001
 40
0.0
 40
0.0
 40
0.0
 40
0.0
 40
0.1364608968
 40
0.2042503101
 40
0.2715430334
 40
0.4040564141
 40
0.4690625337
 40
0.5330672684
 40
0.5959685899
 40
0.657677668
 40
0.7771878384
 40
0.8349469301
 40
0.8913278557
 40
0.9463355547
 40
1.0
 40
1.0
 40
1.0
 40
1.0
 10
11.0473183383
 20
6.8833389507
 30
0.0
 10
11.0296280954
 20
6.8829850945
 30
0.0
 10
11.0031035984
 20
6.8836771169
 30
0.0
 10
10.9680477305
 20
6.8870581881
 30
0.0
 10
10.9336964055
 20
6.8920150641
 30
0.0
 10
10.9000846355
 20
6.8993429044
 30
0.0
 10
10.8675793618
 20
6.9090414995
 30
0.0
 10
10.8441201555
 20
6.9173744693
 30
0.0
 10
10.8215286769
 20
6.9267745551
 30
0.0
 10
10.7930054359
 20
6.9405232558
 30
0.0
 10
10.7662517132
 20
6.9563300587
 30
0.0
 10
10.7417182239
 20
6.9741328277
 30
0.0
 10
10.7248292162
 20
6.9881517114
 30
0.0
 10
10.7093206997
 20
7.0029229472
 30
0.0
 10
10.6998294377
 20
7.0133579051
 30
0.0
 10
10.6953467171
 20
7.0186797703
 30
0.0
  0
SPLINE
  5
320
100
AcDbEntity
  8
0
100
AcDbSpline
 62
7
  6
CONTINUOUS
 70
0
 71
3
 72
27
 73
23
 74
0
 42
0.0000001
 43
0.0000001
 44
0.0000000001
 40
0.0
 40
0.0
 40
0.0
 40
0.0
 40
0.0730378164
 40
0.1456506036
 40
0.2175202173
 40
0.288341508
 40
0.3578315129
 40
0.4257373357
 40
0.4918439103
 40
0.5559828781
 40
0.6180410227
 40
0.6779694138
 40
0.7357917074
 40
0.7916116536
 40
0.8188381271
 40
0.845642125
 40
0.8720606519
 40
0.8981358208
 40
0.9239144815
 40
0.9494477333
 40
0.9747903355
 40
1.0
 40
1.0
 40
1.0
 40
1.0
 10
11.0473183383
 20
6.9347087464
 30
0.0
 10
11.0345241441
 20
6.9344521231
 30
0.0
 10
11.0089848167
 20
6.9347917877
 30
0.0
 10
10.9709692471
 20
6.9378535823
 30
0.0
 10
10.9336309721
 20
6.9434328851
 30
0.0
 10
10.8973038057
 20
6.9514736002
 30
0.0
 10
10.8623098609
 20
6.9618981739
 30
0.0
 10
10.8289599585
 20
6.9746080783
 30
0.0
 10
10.7975501627
 20
6.9894852357
 30
0.0
 10
10.7683594328
 20
7.006392932
 30
0.0
 10
10.7416476799
 20
7.0251771552
 30
0.0
 10
10.717653146
 20
7.0456689916
 30
0.0
 10
10.6965935448
 20
7.0676817186
 30
0.0
 10
10.6815211084
 20
7.0872981498
 30
0.0
 10
10.671167805
 20
7.1035342027
 30
0.0
 10
10.664307557
 20
7.1158575614
 30
0.0
 10
10.6583051689
 20
7.1283975105
 30
0.0
 10
10.6531741425
 20
7.1411254909
 30
0.0
 10
10.6489263778
 20
7.1540118856
 30
0.0
 10
10.6455716997
 20
7.1670270532
 30
0.0
 10
10.6431180415
 20
7.1801399055
 30
0.0
 10
10.6420847435
 20
7.1889447993
 30
0.0
 10
10.6417210702
 20
7.1933467224
 30
0.0
  0
SPLINE
  5
321
100
AcDbEntity
  8
0
100
AcDbSpline
 62
7
  6
CONTINUOUS
 70
0
 71
3
 72
27
 73
23
 74
0
 42
0.0000001
 43
0.0000001
 44
0.0000000001
 40
0.0
 40
0.0
 40
0.0
 40
0.0
 40
0.0729880295
 40
0.145553806
 40
0.2173816371
 40
0.2881685917
 40
0.3576336024
 40
0.4255252232
 40
0.4916292654
 40
0.5557775261
 40
0.6178561428
 40
0.6778145116
 40
0.7356736148
 40
0.7915333275
 40
0.8187791652
 40
0.8456013437
 40
0.8720361083
 40
0.8981247924
 40
0.9239134484
 40
0.9494523777
 40
0.9747955645
 40
1.0
 40
1.0
 40
1.0
 40
1.0
 10
11.0473183383
 20
6.9859484935
 30
0.0
 10
11.0345695221
 20
6.9856923184
 30
0.0
 10
11.0091204301
 20
6.9860268717
 30
0.0
 10
10.9712369793
 20
6.9890630846
 30
0.0
 10
10.9340236914
 20
6.994599383
 30
0.0
 10
10.8978109206
 20
7.0025804668
 30
0.0
 10
10.8629175056
 20
7.0129298531
 30
0.0
 10
10.8296512001
 20
7.0255503895
 30
0.0
 10
10.7983052397
 20
7.0403255889
 30
0.0
 10
10.7691560636
 20
7.057120607
 30
0.0
 10
10.7424613476
 20
7.0757834437
 30
0.0
 10
10.7184574788
 20
7.0961474326
 30
0.0
 10
10.6973605986
 20
7.1180282369
 30
0.0
 10
10.6822324425
 20
7.1375323955
 30
0.0
 10
10.6718188843
 20
7.1536801498
 30
0.0
 10
10.6649063951
 20
7.1659385489
 30
0.0
 10
10.6588443286
 20
7.1784146581
 30
0.0
 10
10.6536461951
 20
7.1910802585
 30
0.0
 10
10.6493239614
 20
7.2039061009
 30
0.0
 10
10.6458875528
 20
7.2168629049
 30
0.0
 10
10.6433450535
 20
7.2299199526
 30
0.0
 10
10.6422475889
 20
7.2386905788
 30
0.0
 10
10.6418508116
 20
7.2430760124
 30
0.0
  0
SPLINE
  5
322
100
AcDbEntity
  8
0
100
AcDbSpline
 62
9
  6
CONTINUOUS
 70
0
 71
3
 72
28
 73
24
 74
0
 42
0.0000001
 43
0.0000001
 44
0.0000000001
 40
0.0
 40
0.0
 40
0.0
 40
0.0
 40
0.0726338041
 40
0.1449184761
 40
0.2165149508
 40
0.2870999536
 40
0.3563761962
 40
0.4240811614
 40
0.489996291
 40
0.5539565605
 40
0.6158601478
 40
0.6756779134
 40
0.7334620683
 40
0.7616435298
 40
0.7893768468
 40
0.8166937896
 40
0.8436316906
 40
0.8702332068
 40
0.8965459376
 40
0.9226218805
 40
0.9485167613
 40
0.9742892391
 40
1.0
 40
1.0
 40
1.0
 40
1.0
 10
11.0473183383
 20
7.8325419845
 30
0.0
 10
11.0340371176
 20
7.8325419845
 30
0.0
 10
11.0075292347
 20
7.8334604642
 30
0.0
 10
10.9681234057
 20
7.8375838231
 30
0.0
 10
10.9294727761
 20
7.8444126373
 30
0.0
 10
10.8919491105
 20
7.8538821492
 30
0.0
 10
10.8559103544
 20
7.8659029069
 30
0.0
 10
10.8217009564
 20
7.8803613957
 30
0.0
 10
10.7896477462
 20
7.8971217398
 30
0.0
 10
10.7600574948
 20
7.9160265681
 30
0.0
 10
10.7332135803
 20
7.9369000265
 30
0.0
 10
10.7093768555
 20
7.95954493
 30
0.0
 10
10.6920640977
 20
7.979892338
 30
0.0
 10
10.6799937546
 20
7.9968318802
 30
0.0
 10
10.6718992382
 20
8.009730825
 30
0.0
 10
10.6647093524
 20
8.0228965734
 30
0.0
 10
10.6584414755
 20
8.0362978416
 30
0.0
 10
10.6531112004
 20
8.0499022247
 30
0.0
 10
10.6487317179
 20
8.0636768666
 30
0.0
 10
10.6453139675
 20
8.0775883025
 30
0.0
 10
10.6428665402
 20
8.0916029606
 30
0.0
 10
10.6413956299
 20
8.1056857942
 30
0.0
 10
10.6410683562
 20
8.1151028559
 30
0.0
 10
10.6410683562
 20
8.1198041144
 30
0.0
  0
SPLINE
  5
323
100
AcDbEntity
  8
0
100
AcDbSpline
 62
9
  6
CONTINUOUS
 70
0
 71
3
 72
15
 73
11
 74
0
 42
0.0000001
 43
0.0000001
 44
0.0000000001
 40
0.0
 40
0.0
 40
0.0
 40
0.0
 40
0.1136573764
 40
0.2299051381
 40
0.349214877
 40
0.4719412279
 40
0.5983191398
 40
0.7284666577
 40
0.8623915008
 40
1.0
 40
1.0
 40
1.0
 40
1.0
 10
10.641046166
 20
8.3106755999
 30
0.0
 10
10.6374403941
 20
8.3118942071
 30
0.0
 10
10.6302806354
 20
8.314774635
 30
0.0
 10
10.6199454728
 20
8.3202900934
 30
0.0
 10
10.609976781
 20
8.3270031502
 30
0.0
 10
10.6004448581
 20
8.3348645202
 30
0.0
 10
10.5914142502
 20
8.3438182331
 30
0.0
 10
10.5829464125
 20
8.3538013213
 30
0.0
 10
10.5750993338
 20
8.3647431699
 30
0.0
 10
10.5703781051
 20
8.3725261613
 30
0.0
 10
10.5681315046
 20
8.3765496227
 30
0.0
  0
SPLINE
  5
324
100
AcDbEntity
  8
0
100
AcDbSpline
 62
9
  6
CONTINUOUS
 70
0
 71
3
 72
15
 73
11
 74
0
 42
0.0000001
 43
0.0000001
 44
0.0000000001
 40
0.0
 40
0.0
 40
0.0
 40
0.0
 40
0.1376064663
 40
0.271529687
 40
0.4016761383
 40
0.5280536428
 40
0.6507802983
 40
0.7700910488
 40
0.8863404621
 40
1.0
 40
1.0
 40
1.0
 40
1.0
 10
10.5681414149
 20
8.6079500866
 30
0.0
 10
10.5703879545
 20
8.6119724371
 30
0.0
 10
10.5751089592
 20
8.6197532662
 30
0.0
 10
10.582955381
 20
8.6306920378
 30
0.0
 10
10.5914222752
 20
8.6406723151
 30
0.0
 10
10.6004516797
 20
8.6496235285
 30
0.0
 10
10.6099821693
 20
8.6574827506
 30
0.0
 10
10.6199492301
 20
8.6641940466
 30
0.0
 10
10.6302826007
 20
8.6697081624
 30
0.0
 10
10.6374410545
 20
8.672587979
 30
0.0
 10
10.6410461661
 20
8.673806363
 30
0.0
  0
SPLINE
  5
325
100
AcDbEntity
  8
0
100
AcDbSpline
 62
7
  6
CONTINUOUS
 70
0
 71
3
 72
23
 73
19
 74
0
 42
0.0000001
 43
0.0000001
 44
0.0000000001
 40
0.0
 40
0.0
 40
0.0
 40
0.0
 40
0.0513246915
 40
0.1035014589
 40
0.1568812066
 40
0.2117527492
 40
0.2683338713
 40
0.3267682938
 40
0.3567135862
 40
0.3871428679
 40
0.4494279114
 40
0.5135793786
 40
0.579481927
 40
0.646972177
 40
0.7158462048
 40
0.7858665227
 40
0.8567696693
 40
1.0
 40
1.0
 40
1.0
 40
1.0
 10
10.4116973142
 20
8.6804152243
 30
0.0
 10
10.4157994706
 20
8.6798419356
 30
0.0
 10
10.4240058391
 20
8.6781462029
 30
0.0
 10
10.4360131586
 20
8.6740360931
 30
0.0
 10
10.4476944541
 20
8.6683827461
 30
0.0
 10
10.4589482089
 20
8.6612384643
 30
0.0
 10
10.4696808547
 20
8.6526675299
 30
0.0
 10
10.4780495667
 20
8.6444640451
 30
0.0
 10
10.4844067699
 20
8.6372826345
 30
0.0
 10
10.4906217894
 20
8.6295739441
 30
0.0
 10
10.4978953677
 20
8.6191914429
 30
0.0
 10
10.5057136651
 20
8.6057627429
 30
0.0
 10
10.5126262933
 20
8.5913793834
 30
0.0
 10
10.5185755397
 20
8.5761628699
 30
0.0
 10
10.5235121229
 20
8.5602412943
 30
0.0
 10
10.527395182
 20
8.5437468139
 30
0.0
 10
10.5311358443
 20
8.5211102493
 30
0.0
 10
10.5322553169
 20
8.5038000028
 30
0.0
 10
10.5322553169
 20
8.4922409815
 30
0.0
  0
SPLINE
  5
326
100
AcDbEntity
  8
0
100
AcDbSpline
 62
7
  6
CONTINUOUS
 70
0
 71
3
 72
23
 73
19
 74
0
 42
0.0000001
 43
0.0000001
 44
0.0000000001
 40
0.0
 40
0.0
 40
0.0
 40
0.0
 40
0.0513243575
 40
0.1034987817
 40
0.1568748544
 40
0.2117420542
 40
0.2683187663
 40
0.3267492137
 40
0.3566928193
 40
0.3871206584
 40
0.4494036479
 40
0.5135543172
 40
0.5794573831
 40
0.6469494366
 40
0.7158264507
 40
0.7858507729
 40
0.8567587282
 40
1.0
 40
1.0
 40
1.0
 40
1.0
 10
10.4116129045
 20
8.3040549804
 30
0.0
 10
10.4157169838
 20
8.3046248203
 30
0.0
 10
10.4239275009
 20
8.3063141004
 30
0.0
 10
10.4359417638
 20
8.3104162296
 30
0.0
 10
10.4476303236
 20
8.3160632058
 30
0.0
 10
10.4588915035
 20
8.3232027289
 30
0.0
 10
10.4696315873
 20
8.3317704909
 30
0.0
 10
10.4780063155
 20
8.3399725978
 30
0.0
 10
10.484368198
 20
8.3471536052
 30
0.0
 10
10.4905879267
 20
8.3548624357
 30
0.0
 10
10.4978671493
 20
8.3652460252
 30
0.0
 10
10.5056916308
 20
8.3786772479
 30
0.0
 10
10.5126098462
 20
8.3930643005
 30
0.0
 10
10.5185639882
 20
8.4082855417
 30
0.0
 10
10.5235046934
 20
8.4242127301
 30
0.0
 10
10.527391032
 20
8.440713549
 30
0.0
 10
10.5311348902
 20
8.4633593856
 30
0.0
 10
10.5322553169
 20
8.4806770149
 30
0.0
 10
10.5322553169
 20
8.4922409815
 30
0.0
  0
SPLINE
  5
327
100
AcDbEntity
  8
0
100
AcDbSpline
 62
9
  6
CONTINUOUS
 70
0
 71
3
 72
22
 73
18
 74
0
 42
0.0000001
 43
0.0000001
 44
0.0000000001
 40
0.0
 40
0.0
 40
0.0
 40
0.0
 40
0.0514693028
 40
0.1039960991
 40
0.1578538333
 40
0.2132573697
 40
0.2703591379
 40
0.3292490359
 40
0.3899570568
 40
0.4524576576
 40
0.5166751007
 40
0.5824892641
 40
0.649741611
 40
0.7182411348
 40
0.7877699226
 40
0.8580892417
 40
1.0
 40
1.0
 40
1.0
 40
1.0
 10
10.4205994976
 20
8.6704262472
 30
0.0
 10
10.4242961978
 20
8.6695112832
 30
0.0
 10
10.4316603242
 20
8.6672076612
 30
0.0
 10
10.4423500664
 20
8.6624431823
 30
0.0
 10
10.4526987177
 20
8.6563792757
 30
0.0
 10
10.4626259329
 20
8.6490654663
 30
0.0
 10
10.4720580525
 20
8.6405594229
 30
0.0
 10
10.4809247329
 20
8.6309273305
 30
0.0
 10
10.489160179
 20
8.6202432358
 30
0.0
 10
10.4967031918
 20
8.608588708
 30
0.0
 10
10.5034976309
 20
8.5960523458
 30
0.0
 10
10.5094927976
 20
8.582729277
 30
0.0
 10
10.5146438763
 20
8.5687203815
 30
0.0
 10
10.5189122155
 20
8.5541321513
 30
0.0
 10
10.5222659399
 20
8.5390737334
 30
0.0
 10
10.5254930384
 20
8.5184678854
 30
0.0
 10
10.5264590485
 20
8.5027410526
 30
0.0
 10
10.5264590485
 20
8.4922409815
 30
0.0
  0
SPLINE
  5
328
100
AcDbEntity
  8
0
100
AcDbSpline
 62
9
  6
CONTINUOUS
 70
0
 71
3
 72
22
 73
18
 74
0
 42
0.0000001
 43
0.0000001
 44
0.0000000001
 40
0.0
 40
0.0
 40
0.0
 40
0.0
 40
0.0514696723
 40
0.103997102
 40
0.1578556204
 40
0.2132599869
 40
0.2703625402
 40
0.3292531051
 40
0.3899616201
 40
0.4524625059
 40
0.5166800056
 40
0.582493993
 40
0.6497459409
 40
0.7182448631
 40
0.7877728764
 40
0.8580912851
 40
1.0
 40
1.0
 40
1.0
 40
1.0
 10
10.4206137644
 20
8.314059248
 30
0.0
 10
10.4243101044
 20
8.314974733
 30
0.0
 10
10.4316734677
 20
8.3172793168
 30
0.0
 10
10.4423619836
 20
8.3220449557
 30
0.0
 10
10.4527093744
 20
8.3281097612
 30
0.0
 10
10.4626353187
 20
8.3354242108
 30
0.0
 10
10.4720661788
 20
8.3439306416
 30
0.0
 10
10.4809316316
 20
8.3535628772
 30
0.0
 10
10.4891659016
 20
8.3642468824
 30
0.0
 10
10.4967078082
 20
8.3759011024
 30
0.0
 10
10.5035012279
 20
8.3884369554
 30
0.0
 10
10.5094954776
 20
8.4017593326
 30
0.0
 10
10.5146457558
 20
8.4157673758
 30
0.0
 10
10.5189134228
 20
8.4303546166
 30
0.0
 10
10.5222666136
 20
8.4454119329
 30
0.0
 10
10.5254931934
 20
8.4660161855
 30
0.0
 10
10.5264590485
 20
8.4817417557
 30
0.0
 10
10.5264590485
 20
8.4922409815
 30
0.0
  0
SPLINE
  5
329
100
AcDbEntity
  8
0
100
AcDbSpline
 62
9
  6
CONTINUOUS
 70
0
 71
3
 72
15
 73
11
 74
0
 42
0.0000001
 43
0.0000001
 44
0.0000000001
 40
0.0
 40
0.0
 40
0.0
 40
0.0
 40
0.1136469325
 40
0.2298863127
 40
0.3491905508
 40
0.4719148708
 40
0.5982944325
 40
0.7284471858
 40
0.8623804722
 40
1.0
 40
1.0
 40
1.0
 40
1.0
 10
11.4535733887
 20
8.6738121645
 30
0.0
 10
11.4571828008
 20
8.6725930355
 30
0.0
 10
11.4643498161
 20
8.6697106971
 30
0.0
 10
11.4746951229
 20
8.6641899704
 30
0.0
 10
11.4846732066
 20
8.6574693321
 30
0.0
 10
11.4942135669
 20
8.6495982205
 30
0.0
 10
11.5032514807
 20
8.6406327879
 30
0.0
 10
11.5117253231
 20
8.6306362048
 30
0.0
 10
11.5195769735
 20
8.6196793262
 30
0.0
 10
11.5243000992
 20
8.6118856148
 30
0.0
 10
11.5265474241
 20
8.6078566357
 30
0.0
  0
SPLINE
  5
32A
100
AcDbEntity
  8
0
100
AcDbSpline
 62
9
  6
CONTINUOUS
 70
0
 71
3
 72
15
 73
11
 74
0
 42
0.0000001
 43
0.0000001
 44
0.0000000001
 40
0.0
 40
0.0
 40
0.0
 40
0.0
 40
0.1376158855
 40
0.2715462641
 40
0.4016971056
 40
0.5280759373
 40
0.6508008029
 40
0.7701068538
 40
0.886349194
 40
1.0
 40
1.0
 40
1.0
 40
1.0
 10
11.5265296723
 20
8.3765935091
 30
0.0
 10
11.5242824553
 20
8.3725665219
 30
0.0
 10
11.5195597293
 20
8.3647766873
 30
0.0
 10
11.5117092535
 20
8.3538253261
 30
0.0
 10
11.5032371002
 20
8.343833783
 30
0.0
 10
11.4942013419
 20
8.3348728321
 30
0.0
 10
11.4846635498
 20
8.3270055719
 30
0.0
 10
11.4746883888
 20
8.3202880904
 30
0.0
 10
11.4643462937
 20
8.3147697706
 30
0.0
 10
11.4571816171
 20
8.3118885276
 30
0.0
 10
11.4535733886
 20
8.3106697984
 30
0.0
  0
SPLINE
  5
32B
100
AcDbEntity
  8
0
100
AcDbSpline
 62
7
  6
CONTINUOUS
 70
0
 71
3
 72
45
 73
41
 74
0
 42
0.0000001
 43
0.0000001
 44
0.0000000001
 40
0.0
 40
0.0
 40
0.0
 40
0.0
 40
0.0127946715
 40
0.0256719378
 40
0.0386561956
 40
0.0517700569
 40
0.0784574327
 40
0.1058907996
 40
0.1341788745
 40
0.1633933726
 40
0.1783645248
 40
0.1935776117
 40
0.2247166965
 40
0.2567885764
 40
0.2897355806
 40
0.3234760171
 40
0.3579079482
 40
0.3929127306
 40
0.4283585519
 40
0.4641037798
 40
0.5000003276
 40
0.5358968705
 40
0.5716420842
 40
0.6070878821
 40
0.6420926325
 40
0.6765245236
 40
0.7102649132
 40
0.7432118646
 40
0.7752836874
 40
0.8064227123
 40
0.8216357687
 40
0.8366068905
 40
0.8658213288
 40
0.8941093472
 40
0.9215426634
 40
0.9482299964
 40
0.96134384
 40
0.9743280829
 40
0.9872053373
 40
1.0
 40
1.0
 40
1.0
 40
1.0
 10
11.6828981022
 20
8.3040725028
 30
0.0
 10
11.6808530727
 20
8.3043592218
 30
0.0
 10
11.676767208
 20
8.3050673078
 30
0.0
 10
11.6706964213
 20
8.3065232922
 30
0.0
 10
11.6646794383
 20
8.30837278
 30
0.0
 10
11.6567015761
 20
8.3113747041
 30
0.0
 10
11.6469103359
 20
8.3161169835
 30
0.0
 10
11.6356608852
 20
8.3232633901
 30
0.0
 10
11.6249316564
 20
8.3318359727
 30
0.0
 10
11.6165659464
 20
8.3400401658
 30
0.0
 10
11.6102109625
 20
8.347221756
 30
0.0
 10
11.603998275
 20
8.3549304325
 30
0.0
 10
11.5967274064
 20
8.3653124092
 30
0.0
 10
11.5889121311
 20
8.3787399229
 30
0.0
 10
11.5820022408
 20
8.3931215521
 30
0.0
 10
11.5760554107
 20
8.4083357407
 30
0.0
 10
11.5711208033
 20
8.4242548944
 30
0.0
 10
11.5672394796
 20
8.4407452706
 30
0.0
 10
11.5644437626
 20
8.4576683702
 30
0.0
 10
11.5627569688
 20
8.4748820069
 30
0.0
 10
11.5621931584
 20
8.4922415285
 30
0.0
 10
11.5627570397
 20
8.5096010456
 30
0.0
 10
11.5644439039
 20
8.5268146684
 30
0.0
 10
11.56723969
 20
8.5437377453
 30
0.0
 10
11.5711210811
 20
8.5602280898
 30
0.0
 10
11.5760557536
 20
8.5761472034
 30
0.0
 10
11.582002646
 20
8.5913613435
 30
0.0
 10
11.5889125951
 20
8.6057429164
 30
0.0
 10
11.5967279255
 20
8.6191703664
 30
0.0
 10
11.6039988369
 20
8.6295522842
 30
0.0
 10
11.6102115562
 20
8.63726091
 30
0.0
 10
11.6165665695
 20
8.6444424483
 30
0.0
 10
11.6249323134
 20
8.6526465731
 30
0.0
 10
11.6356615778
 20
8.6612190682
 30
0.0
 10
11.6469110584
 20
8.668365383
 30
0.0
 10
11.6567023178
 20
8.6731075819
 30
0.0
 10
11.6646801917
 20
8.6761094403
 30
0.0
 10
11.6706971823
 20
8.6779588788
 30
0.0
 10
11.6767679751
 20
8.6794148135
 30
0.0
 10
11.6808538422
 20
8.6801228659
 30
0.0
 10
11.6828988726
 20
8.6804095682
 30
0.0
  0
SPLINE
  5
32C
100
AcDbEntity
  8
0
100
AcDbSpline
 62
9
  6
CONTINUOUS
 70
0
 71
3
 72
39
 73
35
 74
0
 42
0.0000001
 43
0.0000001
 44
0.0000000001
 40
0.0
 40
0.0
 40
0.0
 40
0.0
 40
0.0257334717
 40
0.0519958221
 40
0.0789237702
 40
0.1066246366
 40
0.1351745861
 40
0.1646185099
 40
0.1949713417
 40
0.2262202609
 40
0.2583273749
 40
0.2912326195
 40
0.3248567294
 40
0.3591041851
 40
0.3938660885
 40
0.4290229537
 40
0.4644474293
 40
0.5000069586
 40
0.5355663941
 40
0.5709905902
 40
0.6061469955
 40
0.6409082676
 40
0.6751549336
 40
0.7087781117
 40
0.741682303
 40
0.7737882667
 40
0.8050359671
 40
0.8353875445
 40
0.8648302146
 40
0.8933789515
 40
0.921078689
 40
0.9480056353
 40
0.9742671532
 40
1.0
 40
1.0
 40
1.0
 40
1.0
 10
11.6740138666
 20
8.3140614975
 30
0.0
 10
11.670317595
 20
8.314977394
 30
0.0
 10
11.662954375
 20
8.3172826548
 30
0.0
 10
11.6522662005
 20
8.3220493616
 30
0.0
 10
11.6419192021
 20
8.3281151164
 30
0.0
 10
11.6319937054
 20
8.3354304626
 30
0.0
 10
11.6225633403
 20
8.3439377204
 30
0.0
 10
11.6136984317
 20
8.3535707223
 30
0.0
 10
11.6054647489
 20
8.3642554204
 30
0.0
 10
11.5979234636
 20
8.3759102506
 30
0.0
 10
11.5911306888
 20
8.3884466186
 30
0.0
 10
11.5851370926
 20
8.4017694383
 30
0.0
 10
11.5799874907
 20
8.4157777607
 30
0.0
 10
11.5757204751
 20
8.4303654771
 30
0.0
 10
11.5723680868
 20
8.4454220882
 30
0.0
 10
11.5699555309
 20
8.4608335214
 30
0.0
 10
11.5685009619
 20
8.4764829936
 30
0.0
 10
11.5680153343
 20
8.4922519012
 30
0.0
 10
11.5685023063
 20
8.5080207259
 30
0.0
 10
11.5699582097
 20
8.5236699504
 30
0.0
 10
11.5723720798
 20
8.539080973
 30
0.0
 10
11.5757257523
 20
8.5541370136
 30
0.0
 10
11.5799940124
 20
8.568724004
 30
0.0
 10
11.5851448098
 20
8.5827314503
 30
0.0
 10
11.5911395437
 20
8.5960532506
 30
0.0
 10
11.5979333902
 20
8.6085884635
 30
0.0
 10
11.6054756732
 20
8.6202420115
 30
0.0
 10
11.6137102725
 20
8.6309253095
 30
0.0
 10
11.6225760097
 20
8.6405568036
 30
0.0
 10
11.6320071093
 20
8.6490624565
 30
0.0
 10
11.6419332405
 20
8.6563761121
 30
0.0
 10
11.6522807681
 20
8.6624401022
 30
0.0
 10
11.6629693608
 20
8.6672049833
 30
0.0
 10
11.6703327537
 20
8.6695089745
 30
0.0
 10
11.6740290874
 20
8.6704242357
 30
0.0
  0
SPLINE
  5
32D
100
AcDbEntity
  8
0
100
AcDbSpline
 62
7
  6
CONTINUOUS
 70
0
 71
3
 72
23
 73
19
 74
0
 42
0.0000001
 43
0.0000001
 44
0.0000000001
 40
0.0
 40
0.0
 40
0.0
 40
0.0
 40
0.0612780598
 40
0.1209390432
 40
0.1793452021
 40
0.236909437
 40
0.2940731233
 40
0.3512828627
 40
0.4089695565
 40
0.4675316426
 40
0.5273243092
 40
0.588653278
 40
0.6517736646
 40
0.7168925121
 40
0.7841722463
 40
0.8537338783
 40
0.925660626
 40
1.0
 40
1.0
 40
1.0
 40
1.0
 10
10.6410229825
 20
8.2879919364
 30
0.0
 10
10.6384330721
 20
8.2883230326
 30
0.0
 10
10.6333469301
 20
8.2892023629
 30
0.0
 10
10.6259618919
 20
8.2912096874
 30
0.0
 10
10.6189549514
 20
8.2938723746
 30
0.0
 10
10.61234341
 20
8.2971723629
 30
0.0
 10
10.6061374872
 20
8.3010883002
 30
0.0
 10
10.6003417087
 20
8.3055965147
 30
0.0
 10
10.5949549871
 20
8.3106722543
 30
0.0
 10
10.5899714111
 20
8.316290833
 30
0.0
 10
10.5853811603
 20
8.3224285139
 30
0.0
 10
10.5811715898
 20
8.3290630949
 30
0.0
 10
10.5773280955
 20
8.3361740691
 30
0.0
 10
10.5738348006
 20
8.3437425847
 30
0.0
 10
10.5706751681
 20
8.3517512288
 30
0.0
 10
10.5678323902
 20
8.3601837122
 30
0.0
 10
10.565289714
 20
8.3690241593
 30
0.0
 10
10.5638080875
 20
8.3750794895
 30
0.0
 10
10.5631092463
 20
8.3781689523
 30
0.0
  0
SPLINE
  5
32E
100
AcDbEntity
  8
0
100
AcDbSpline
 62
7
  6
CONTINUOUS
 70
0
 71
3
 72
23
 73
19
 74
0
 42
0.0000001
 43
0.0000001
 44
0.0000000001
 40
0.0
 40
0.0
 40
0.0
 40
0.0
 40
0.0743390478
 40
0.1462655042
 40
0.215826886
 40
0.2831064162
 40
0.3482251097
 40
0.4113453954
 40
0.4726743184
 40
0.5324669943
 40
0.5910291429
 40
0.6487159485
 40
0.705925842
 40
0.7630897157
 40
0.82065416
 40
0.8790605371
 40
0.9387217356
 40
1.0
 40
1.0
 40
1.0
 40
1.0
 10
10.5631097494
 20
8.6063152346
 30
0.0
 10
10.5638086011
 20
8.6094046228
 30
0.0
 10
10.5652902473
 20
8.6154598067
 30
0.0
 10
10.5678329487
 20
8.6243000375
 30
0.0
 10
10.5706757462
 20
8.6327323134
 30
0.0
 10
10.5738353923
 20
8.6407407593
 30
0.0
 10
10.5773286938
 20
8.6483090865
 30
0.0
 10
10.5811721869
 20
8.6554198831
 30
0.0
 10
10.5853817477
 20
8.6620542973
 30
0.0
 10
10.5899719791
 20
8.6681918233
 30
0.0
 10
10.5949555255
 20
8.6738102597
 30
0.0
 10
10.6003422062
 20
8.6788858704
 30
0.0
 10
10.6061379318
 20
8.6833939708
 30
0.0
 10
10.6123437893
 20
8.6873098096
 30
0.0
 10
10.6189552531
 20
8.6906097165
 30
0.0
 10
10.6259621036
 20
8.6932723404
 30
0.0
 10
10.6333470402
 20
8.6952796208
 30
0.0
 10
10.6384331094
 20
8.6961589351
 30
0.0
 10
10.6410229823
 20
8.6964900264
 30
0.0
  0
SPLINE
  5
32F
100
AcDbEntity
  8
0
100
AcDbSpline
 62
7
  6
CONTINUOUS
 70
0
 71
3
 72
23
 73
19
 74
0
 42
0.0000001
 43
0.0000001
 44
0.0000000001
 40
0.0
 40
0.0
 40
0.0
 40
0.0
 40
0.0612737594
 40
0.1209301607
 40
0.1793316739
 40
0.2368914611
 40
0.29405116
 40
0.3512576159
 40
0.4089419334
 40
0.4675026846
 40
0.5272951497
 40
0.5886250927
 40
0.6517476233
 40
0.7168697384
 40
0.7841538111
 40
0.8537207674
 40
0.9256537023
 40
1.0
 40
1.0
 40
1.0
 40
1.0
 10
11.4536136979
 20
8.6964900261
 30
0.0
 10
11.4562044082
 20
8.6961588277
 30
0.0
 10
11.4612920977
 20
8.6952791578
 30
0.0
 10
11.4686792956
 20
8.6932708923
 30
0.0
 10
11.4756881482
 20
8.6906068587
 30
0.0
 10
11.4823013403
 20
8.6873051387
 30
0.0
 10
11.4885086481
 20
8.6833871087
 30
0.0
 10
11.4943055488
 20
8.6788764654
 30
0.0
 10
11.4996931398
 20
8.6737979869
 30
0.0
 10
11.5046773463
 20
8.6681763817
 30
0.0
 10
11.5092680059
 20
8.6620354072
 30
0.0
 10
11.5134777833
 20
8.6553972824
 30
0.0
 10
11.517321301
 20
8.6482825288
 30
0.0
 10
11.5208144543
 20
8.640710011
 30
0.0
 10
11.5239737982
 20
8.6326971533
 30
0.0
 10
11.5268161569
 20
8.6242602571
 30
0.0
 10
11.5293582986
 20
8.6154152116
 30
0.0
 10
11.5308395042
 20
8.6093567712
 30
0.0
 10
11.531538122
 20
8.6062657245
 30
0.0
  0
SPLINE
  5
330
100
AcDbEntity
  8
0
100
AcDbSpline
 62
7
  6
CONTINUOUS
 70
0
 71
3
 72
23
 73
19
 74
0
 42
0.0000001
 43
0.0000001
 44
0.0000000001
 40
0.0
 40
0.0
 40
0.0
 40
0.0
 40
0.0743534307
 40
0.1462927403
 40
0.2158651749
 40
0.283153715
 40
0.3482792002
 40
0.4114039386
 40
0.4727348848
 40
0.5325271458
 40
0.5910865256
 40
0.6487683933
 40
0.705971467
 40
0.7631270573
 40
0.8206822591
 40
0.879078983
 40
0.9387306613
 40
1.0
 40
1.0
 40
1.0
 40
1.0
 10
11.5315491302
 20
8.3782649652
 30
0.0
 10
11.5308507425
 20
8.375172286
 30
0.0
 10
11.5293699709
 20
8.3691106404
 30
0.0
 10
11.5268283803
 20
8.3602608563
 30
0.0
 10
11.523986454
 20
8.351819413
 30
0.0
 10
11.520827408
 20
8.3438022135
 30
0.0
 10
11.5173344009
 20
8.3362255712
 30
0.0
 10
11.5134908595
 20
8.3291069229
 30
0.0
 10
11.5092808694
 20
8.3224651463
 30
0.0
 10
11.5046897886
 20
8.3163207775
 30
0.0
 10
11.4997049329
 20
8.3106960535
 30
0.0
 10
11.4943164464
 20
8.3056147525
 30
0.0
 10
11.4885183895
 20
8.3011016065
 30
0.0
 10
11.482309655
 20
8.2971814199
 30
0.0
 10
11.4756947624
 20
8.2938779159
 30
0.0
 10
11.4686839401
 20
8.291212495
 30
0.0
 10
11.4612945167
 20
8.2892032599
 30
0.0
 10
11.4562052322
 20
8.2883232406
 30
0.0
 10
11.4536136973
 20
8.2879919367
 30
0.0
  0
SPLINE
  5
331
100
AcDbEntity
  8
0
100
AcDbSpline
 62
7
  6
CONTINUOUS
 70
0
 71
3
 72
21
 73
17
 74
0
 42
0.0000001
 43
0.0000001
 44
0.0000000001
 40
0.0
 40
0.0
 40
0.0
 40
0.0
 40
0.1177912785
 40
0.1786420672
 40
0.2405811239
 40
0.3034402987
 40
0.3670371192
 40
0.4311784582
 40
0.4956638162
 40
0.5602886186
 40
0.6248476852
 40
0.6891382625
 40
0.7529634694
 40
0.8161356078
 40
0.8784793335
 40
1.0
 40
1.0
 40
1.0
 40
1.0
 10
10.8145920937
 20
6.9654721121
 30
0.0
 10
10.8308533474
 20
6.9569415765
 30
0.0
 10
10.8564723021
 20
6.9457477112
 30
0.0
 10
10.8921170216
 20
6.9340375571
 30
0.0
 10
10.9201356085
 20
6.9267075694
 30
0.0
 10
10.9489582703
 20
6.9209807285
 30
0.0
 10
10.978405975
 20
6.9168958286
 30
0.0
 10
11.008291372
 20
6.9144829613
 30
0.0
 10
11.0384255008
 20
6.9137612572
 30
0.0
 10
11.068617525
 20
6.9147393315
 30
0.0
 10
11.0986762451
 20
6.9174150394
 30
0.0
 10
11.1284116023
 20
6.9217756409
 30
0.0
 10
11.1576345347
 20
6.9277973406
 30
0.0
 10
11.1861632664
 20
6.935447512
 30
0.0
 10
11.2227054361
 20
6.9476491633
 30
0.0
 10
11.2490360807
 20
6.9592387896
 30
0.0
 10
11.2658131449
 20
6.9680375739
 30
0.0
  0
SPLINE
  5
332
100
AcDbEntity
  8
0
100
AcDbSpline
 62
7
  6
CONTINUOUS
 70
0
 71
3
 72
28
 73
24
 74
0
 42
0.0000001
 43
0.0000001
 44
0.0000000001
 40
0.0
 40
0.0
 40
0.0
 40
0.0
 40
0.0239815726
 40
0.0491796955
 40
0.0755935063
 40
0.1031646086
 40
0.1317918804
 40
0.1613515664
 40
0.1917114206
 40
0.2227413036
 40
0.2543203553
 40
0.2863406576
 40
0.3513259137
 40
0.4170994588
 40
0.4832205342
 40
0.5493752454
 40
0.615338832
 40
0.6809468838
 40
0.7460750602
 40
0.8106246482
 40
0.874511343
 40
0.9376635194
 40
1.0
 40
1.0
 40
1.0
 40
1.0
 10
11.3727462656
 20
6.6869512803
 30
0.0
 10
11.3727462656
 20
6.6857258545
 30
0.0
 10
11.3725915358
 20
6.683211068
 30
0.0
 10
11.3719401376
 20
6.6793974141
 30
0.0
 10
11.3708808828
 20
6.6754866636
 30
0.0
 10
11.3694380164
 20
6.6715149481
 30
0.0
 10
11.3676406805
 20
6.667514539
 30
0.0
 10
11.3655208343
 20
6.6635140568
 30
0.0
 10
11.3631111006
 20
6.6595375509
 30
0.0
 10
11.3604433028
 20
6.6556045673
 30
0.0
 10
11.3575473975
 20
6.6517302745
 30
0.0
 10
11.3533982125
 20
6.6466336343
 30
0.0
 10
11.3477863652
 20
6.6404842099
 30
0.0
 10
11.3405471375
 20
6.6334905548
 30
0.0
 10
11.332893559
 20
6.6268626928
 30
0.0
 10
11.3249229325
 20
6.6206055519
 30
0.0
 10
11.3167095318
 20
6.6147165185
 30
0.0
 10
11.3083111039
 20
6.6091901123
 30
0.0
 10
11.2997731973
 20
6.60402041
 30
0.0
 10
11.2911326793
 20
6.5992026126
 30
0.0
 10
11.2824199565
 20
6.5947339233
 30
0.0
 10
11.2736616777
 20
6.5906146825
 30
0.0
 10
11.2677673619
 20
6.5880860104
 30
0.0
 10
11.2648183383
 20
6.5868820766
 30
0.0
  0
SPLINE
  5
333
100
AcDbEntity
  8
0
100
AcDbSpline
 62
7
  6
CONTINUOUS
 70
0
 71
3
 72
31
 73
27
 74
0
 42
0.0000001
 43
0.0000001
 44
0.0000000001
 40
0.0
 40
0.0
 40
0.0
 40
0.0
 40
0.0756265781
 40
0.1500605034
 40
0.2231758642
 40
0.2948431627
 40
0.3649044826
 40
0.4331767378
 40
0.4994487111
 40
0.5634824877
 40
0.5945871659
 40
0.6250391966
 40
0.6548074255
 40
0.6838690865
 40
0.7122063397
 40
0.7398169949
 40
0.7667181093
 40
0.792955236
 40
0.8186146208
 40
0.8438323318
 40
0.8688029454
 40
0.8937813418
 40
0.9190720117
 40
0.9450028804
 40
0.9718909443
 40
1.0
 40
1.0
 40
1.0
 40
1.0
 10
11.2648183383
 20
6.5868820766
 30
0.0
 10
11.2619113576
 20
6.5856953066
 30
0.0
 10
11.2561016811
 20
6.5834406649
 30
0.0
 10
11.2473452709
 20
6.5804041296
 30
0.0
 10
11.2386355251
 20
6.5777541825
 30
0.0
 10
11.2299990977
 20
6.5755119516
 30
0.0
 10
11.2214662002
 20
6.5737046676
 30
0.0
 10
11.213073083
 20
6.572366709
 30
0.0
 10
11.2048648992
 20
6.5715407881
 30
0.0
 10
11.1981601408
 20
6.5713201011
 30
0.0
 10
11.1929464831
 20
6.5714675471
 30
0.0
 10
11.1891634841
 20
6.5717441391
 30
0.0
 10
11.1854828222
 20
6.5721979456
 30
0.0
 10
11.1819189769
 20
6.5728394413
 30
0.0
 10
11.1784885261
 20
6.573680412
 30
0.0
 10
11.1752103647
 20
6.5747328219
 30
0.0
 10
11.1721060443
 20
6.576009403
 30
0.0
 10
11.1692000156
 20
6.5775228945
 30
0.0
 10
11.1665198562
 20
6.5792855441
 30
0.0
 10
11.1640964671
 20
6.5813082416
 30
0.0
 10
11.1619637156
 20
6.5835987433
 30
0.0
 10
11.1601572889
 20
6.5861596667
 30
0.0
 10
11.1587124281
 20
6.5889863001
 30
0.0
 10
11.157660248
 20
6.5920654932
 30
0.0
 10
11.1570244651
 20
6.5953749353
 30
0.0
 10
11.1568904109
 20
6.5976614523
 30
0.0
 10
11.1568904109
 20
6.5988284967
 30
0.0
  0
SPLINE
  5
334
100
AcDbEntity
  8
0
100
AcDbSpline
 62
9
  6
CONTINUOUS
 70
0
 71
3
 72
20
 73
16
 74
0
 42
0.0000001
 43
0.0000001
 44
0.0000000001
 40
0.0
 40
0.0
 40
0.0
 40
0.0
 40
0.1384065681
 40
0.2722306292
 40
0.4016121354
 40
0.4647563524
 40
0.5269278757
 40
0.5881973073
 40
0.6486468653
 40
0.7083698822
 40
0.7674699394
 40
0.8260597328
 40
0.8842596699
 40
0.9421962138
 40
1.0
 40
1.0
 40
1.0
 40
1.0
 10
11.3727462656
 20
6.6869512803
 30
0.0
 10
11.3826422806
 20
6.6941940625
 30
0.0
 10
11.4014797931
 20
6.7093271193
 30
0.0
 10
11.426954336
 20
6.7342527581
 30
0.0
 10
11.4454367267
 20
6.7565726386
 30
0.0
 10
11.4583152823
 20
6.7751168246
 30
0.0
 10
11.4669509926
 20
6.789225694
 30
0.0
 10
11.4746192949
 20
6.8036128767
 30
0.0
 10
11.4813024873
 20
6.8182456781
 30
0.0
 10
11.4869846922
 20
6.8330902202
 30
0.0
 10
11.4916524517
 20
6.8481122113
 30
0.0
 10
11.4952946189
 20
6.8632767383
 30
0.0
 10
11.4979024443
 20
6.8785487984
 30
0.0
 10
11.4994696413
 20
6.8938918678
 30
0.0
 10
11.4998183223
 20
6.9041502747
 30
0.0
 10
11.4998183214
 20
6.909271898
 30
0.0
  0
SPLINE
  5
335
100
AcDbEntity
  8
0
100
AcDbSpline
 62
7
  6
CONTINUOUS
 70
0
 71
3
 72
21
 73
17
 74
0
 42
0.0000001
 43
0.0000001
 44
0.0000000001
 40
0.0
 40
0.0
 40
0.0
 40
0.0
 40
0.143492461
 40
0.2132583899
 40
0.2815936462
 40
0.4137535666
 40
0.4776316587
 40
0.5400521203
 40
0.6010746215
 40
0.6607877518
 40
0.7193091765
 40
0.7767848345
 40
0.8333871312
 40
0.8893117523
 40
0.9447733681
 40
1.0
 40
1.0
 40
1.0
 40
1.0
 10
11.2735683383
 20
6.8599521582
 30
0.0
 10
11.2903661577
 20
6.8668098392
 30
0.0
 10
11.3148340589
 20
6.8783113415
 30
0.0
 10
11.3456545376
 20
6.8961732316
 30
0.0
 10
11.3741703079
 20
6.9150314401
 30
0.0
 10
11.4003406692
 20
6.936007683
 30
0.0
 10
11.4236361759
 20
6.9589584997
 30
0.0
 10
11.4393067571
 20
6.97674778
 30
0.0
 10
11.4533007415
 20
6.9952280474
 30
0.0
 10
11.4655580732
 20
7.0143219428
 30
0.0
 10
11.4760245198
 20
7.0339480785
 30
0.0
 10
11.4846535824
 20
7.0540227405
 30
0.0
 10
11.4914064013
 20
7.0744594642
 30
0.0
 10
11.4962522281
 20
7.0951704741
 30
0.0
 10
11.499168753
 20
7.1160632074
 30
0.0
 10
11.4998183383
 20
7.1300676253
 30
0.0
 10
11.4998183383
 20
7.1370506854
 30
0.0
  0
SPLINE
  5
336
100
AcDbEntity
  8
0
100
AcDbSpline
 62
7
  6
CONTINUOUS
 70
0
 71
3
 72
33
 73
29
 74
0
 42
0.0000001
 43
0.0000001
 44
0.0000000001
 40
0.0
 40
0.0
 40
0.0
 40
0.0
 40
0.0707199317
 40
0.1062864997
 40
0.1419121282
 40
0.2131015571
 40
0.2838550709
 40
0.3537393361
 40
0.3882351871
 40
0.4223651408
 40
0.4893392195
 40
0.5221243226
 40
0.5543926032
 40
0.6172595361
 40
0.6478440052
 40
0.6778433487
 40
0.7072571629
 40
0.7360926424
 40
0.7643649288
 40
0.7920974205
 40
0.8193219079
 40
0.8460785765
 40
0.8724158168
 40
0.8983897579
 40
0.9240635999
 40
0.949506615
 40
0.9747929158
 40
1.0
 40
1.0
 40
1.0
 40
1.0
 10
11.1770814628
 20
6.2247651893
 30
0.0
 10
11.1559874291
 20
6.2213099448
 30
0.0
 10
11.1240533635
 20
6.2174127017
 30
0.0
 10
11.0812338948
 20
6.2147700145
 30
0.0
 10
11.0381990686
 20
6.2138291497
 30
0.0
 10
10.9845052714
 20
6.2158510045
 30
0.0
 10
10.9208557665
 20
6.2233568562
 30
0.0
 10
10.8688975802
 20
6.2338145612
 30
0.0
 10
10.8284480537
 20
6.2446522152
 30
0.0
 10
10.7893405458
 20
6.2569468668
 30
0.0
 10
10.7515478334
 20
6.271596968
 30
0.0
 10
10.7154239462
 20
6.2885834651
 30
0.0
 10
10.6812489521
 20
6.3066890193
 30
0.0
 10
10.6489943781
 20
6.3269268024
 30
0.0
 10
10.6190617796
 20
6.3492293229
 30
0.0
 10
10.5981632904
 20
6.3666650268
 30
0.0
 10
10.57868089
 20
6.3849049164
 30
0.0
 10
10.5606754913
 20
6.4038926188
 30
0.0
 10
10.5442045528
 20
6.4235686436
 30
0.0
 10
10.5293205785
 20
6.4438714852
 30
0.0
 10
10.5160713054
 20
6.4647375212
 30
0.0
 10
10.504499458
 20
6.4861012264
 30
0.0
 10
10.4946426045
 20
6.5078952792
 30
0.0
 10
10.486532982
 20
6.5300507929
 30
0.0
 10
10.4801973162
 20
6.5524972565
 30
0.0
 10
10.4756566381
 20
6.5751635855
 30
0.0
 10
10.4729261229
 20
6.597975298
 30
0.0
 10
10.4723183331
 20
6.6132438764
 30
0.0
 10
10.4723183386
 20
6.6208627351
 30
0.0
  0
SPLINE
  5
337
100
AcDbEntity
  8
0
100
AcDbSpline
 62
7
  6
CONTINUOUS
 70
0
 71
3
 72
33
 73
29
 74
0
 42
0.0000001
 43
0.0000001
 44
0.0000000001
 40
0.0
 40
0.0
 40
0.0
 40
0.0
 40
0.0310790938
 40
0.0616753267
 40
0.0918222663
 40
0.1215592451
 40
0.1509310775
 40
0.1799877002
 40
0.2087836329
 40
0.2373773012
 40
0.2658302638
 40
0.2942063064
 40
0.3225704296
 40
0.3509878301
 40
0.3795228628
 40
0.408237996
 40
0.4371929066
 40
0.4664436266
 40
0.4960418253
 40
0.5260342448
 40
0.5564622594
 40
0.5873615494
 40
0.6506639929
 40
0.7161355302
 40
0.7838523409
 40
0.8538047716
 40
0.9259054827
 40
1.0
 40
1.0
 40
1.0
 40
1.0
 10
11.4733290934
 20
6.781051797
 30
0.0
 10
11.476924102
 20
6.7762714777
 30
0.0
 10
11.4837982416
 20
6.7665858969
 30
0.0
 10
11.4931870131
 20
6.7516035563
 30
0.0
 10
11.5015491499
 20
6.7363175301
 30
0.0
 10
11.5088645677
 20
6.7207635311
 30
0.0
 10
11.5151161289
 20
6.7049772654
 30
0.0
 10
11.5202889812
 20
6.6889952481
 30
0.0
 10
11.5243708043
 20
6.6728544954
 30
0.0
 10
11.5273518055
 20
6.6565924998
 30
0.0
 10
11.5292248133
 20
6.6402471237
 30
0.0
 10
11.529985337
 20
6.6238564928
 30
0.0
 10
11.5296315485
 20
6.6074588714
 30
0.0
 10
11.5281642967
 20
6.5910925455
 30
0.0
 10
11.5255870998
 20
6.5747957056
 30
0.0
 10
11.5219061565
 20
6.5586063248
 30
0.0
 10
11.5171303118
 20
6.5425620377
 30
0.0
 10
11.5112709775
 20
6.5267000579
 30
0.0
 10
11.5043420455
 20
6.5110570432
 30
0.0
 10
11.4963599794
 20
6.4956691965
 30
0.0
 10
11.4873431973
 20
6.4805715067
 30
0.0
 10
11.4738639377
 20
6.4607183334
 30
0.0
 10
11.4544620696
 20
6.4368015013
 30
0.0
 10
11.4276387581
 20
6.4100568124
 30
0.0
 10
11.3973324214
 20
6.3852658618
 30
0.0
 10
11.3638244214
 20
6.3626526101
 30
0.0
 10
11.3274249234
 20
6.3424194545
 30
0.0
 10
11.3017702683
 20
6.3307827002
 30
0.0
 10
11.2885683383
 20
6.3253930349
 30
0.0
  0
SPLINE
  5
338
100
AcDbEntity
  8
0
100
AcDbSpline
 62
7
  6
CONTINUOUS
 70
0
 71
3
 72
49
 73
45
 74
0
 42
0.0000001
 43
0.0000001
 44
0.0000000001
 40
0.0
 40
0.0
 40
0.0
 40
0.0
 40
0.069577381
 40
0.1051383663
 40
0.1410687614
 40
0.1772593967
 40
0.2135968542
 40
0.2499653433
 40
0.2862485783
 40
0.3223316327
 40
0.3581028472
 40
0.3934556927
 40
0.4282907327
 40
0.4625175882
 40
0.4960569871
 40
0.5288428199
 40
0.5608243013
 40
0.5919681058
 40
0.6072238291
 40
0.622266742
 40
0.6517153624
 40
0.6803512105
 40
0.6943846197
 40
0.7082376751
 40
0.7219211521
 40
0.7354473472
 40
0.7488300165
 40
0.7620842825
 40
0.7752265554
 40
0.7882743953
 40
0.8012463452
 40
0.8141617698
 40
0.8270406576
 40
0.8399033971
 40
0.8527705526
 40
0.8656626461
 40
0.8785999247
 40
0.8916021259
 40
0.9046882864
 40
0.9178765566
 40
0.9311840124
 40
0.9446265216
 40
0.9719649314
 40
1.0
 40
1.0
 40
1.0
 40
1.0
 10
11.2793002185
 20
6.3217050615
 30
0.0
 10
11.2563471501
 20
6.3128056398
 30
0.0
 10
11.2207456463
 20
6.301595101
 30
0.0
 10
11.1719761936
 20
6.290890716
 30
0.0
 10
11.134324852
 20
6.2849067998
 30
0.0
 10
11.0961221449
 20
6.2810679533
 30
0.0
 10
11.057607674
 20
6.2793975473
 30
0.0
 10
11.0190278613
 20
6.2799063962
 30
0.0
 10
10.980628245
 20
6.2825911937
 30
0.0
 10
10.9426535592
 20
6.2874349946
 30
0.0
 10
10.9053457091
 20
6.2944070558
 30
0.0
 10
10.8689423339
 20
6.3034632166
 30
0.0
 10
10.8336753061
 20
6.3145462357
 30
0.0
 10
10.7997691809
 20
6.327586073
 30
0.0
 10
10.7674399665
 20
6.3425003653
 30
0.0
 10
10.7368933186
 20
6.3591955044
 30
0.0
 10
10.7083251472
 20
6.3775655655
 30
0.0
 10
10.6861649246
 20
6.394290207
 30
0.0
 10
10.6696232517
 20
6.4084045886
 30
0.0
 10
10.6541109829
 20
6.4227738104
 30
0.0
 10
10.6362406913
 20
6.4415314367
 30
0.0
 10
10.6203234482
 20
6.461524327
 30
0.0
 10
10.6090019712
 20
6.4780178535
 30
0.0
 10
10.6012684358
 20
6.4905360239
 30
0.0
 10
10.5942492923
 20
6.5032637052
 30
0.0
 10
10.5879557427
 20
6.5161807884
 30
0.0
 10
10.5823980175
 20
6.5292664958
 30
0.0
 10
10.577585236
 20
6.5424998895
 30
0.0
 10
10.5735252848
 20
6.5558597075
 30
0.0
 10
10.5702247568
 20
6.5693244427
 30
0.0
 10
10.5676891547
 20
6.5828724226
 30
0.0
 10
10.5659226555
 20
6.5964817857
 30
0.0
 10
10.5649281099
 20
6.6101305504
 30
0.0
 10
10.5647072399
 20
6.6237966675
 30
0.0
 10
10.565260397
 20
6.6374580386
 30
0.0
 10
10.5665866037
 20
6.6510925878
 30
0.0
 10
10.5686837478
 20
6.664678283
 30
0.0
 10
10.5715483412
 20
6.6781931866
 30
0.0
 10
10.5751756223
 20
6.6916155446
 30
0.0
 10
10.5795596574
 20
6.704923653
 30
0.0
 10
10.5846934201
 20
6.7180964052
 30
0.0
 10
10.5925693883
 20
6.7355464539
 30
0.0
 10
10.6042915582
 20
6.7569368091
 30
0.0
 10
10.6153597358
 20
6.7731440907
 30
0.0
 10
10.6213223131
 20
6.7810713926
 30
0.0
  0
SPLINE
  5
339
100
AcDbEntity
  8
0
100
AcDbSpline
 62
7
  6
CONTINUOUS
 70
0
 71
3
 72
11
 73
7
 74
0
 42
0.0000001
 43
0.0000001
 44
0.0000000001
 40
0.0
 40
0.0
 40
0.0
 40
0.0
 40
0.2446553399
 40
0.4932515325
 40
0.745234584
 40
1.0
 40
1.0
 40
1.0
 40
1.0
 10
11.3348183383
 20
6.0212612112
 30
0.0
 10
11.3224301048
 20
6.016203736
 30
0.0
 10
11.2971410367
 20
6.0067579563
 30
0.0
 10
11.2581796558
 20
5.9947163468
 30
0.0
 10
11.2180691273
 20
5.9847417923
 30
0.0
 10
11.1908319804
 20
5.9795301779
 30
0.0
 10
11.1770814628
 20
5.9772778159
 30
0.0
  0
SPLINE
  5
33A
100
AcDbEntity
  8
0
100
AcDbSpline
 62
7
  6
CONTINUOUS
 70
0
 71
3
 72
10
 73
6
 74
0
 42
0.0000001
 43
0.0000001
 44
0.0000000001
 40
0.0
 40
0.0
 40
0.0
 40
0.0
 40
0.4887327763
 40
0.7417538751
 40
1.0
 40
1.0
 40
1.0
 40
1.0
 10
11.4675552138
 20
6.0958632282
 30
0.0
 10
11.4477321833
 20
6.0808542117
 30
0.0
 10
11.4159396941
 20
6.0602419162
 30
0.0
 10
11.3707812196
 20
6.0367750883
 30
0.0
 10
11.3469819226
 20
6.0262269737
 30
0.0
 10
11.3348183383
 20
6.0212612112
 30
0.0
  0
SPLINE
  5
33B
100
AcDbEntity
  8
0
100
AcDbSpline
 62
7
  6
CONTINUOUS
 70
0
 71
3
 72
9
 73
5
 74
0
 42
0.0000001
 43
0.0000001
 44
0.0000000001
 40
0.0
 40
0.0
 40
0.0
 40
0.0
 40
0.5061019334
 40
1.0
 40
1.0
 40
1.0
 40
1.0
 10
11.4486458826
 20
6.7339113099
 30
0.0
 10
11.4542828103
 20
6.7269525079
 30
0.0
 10
11.464852679
 20
6.7127307795
 30
0.0
 10
11.4741192098
 20
6.6976234546
 30
0.0
 10
11.4783329191
 20
6.6899668644
 30
0.0
  0
SPLINE
  5
33C
100
AcDbEntity
  8
0
100
AcDbSpline
 62
7
  6
CONTINUOUS
 70
0
 71
3
 72
15
 73
11
 74
0
 42
0.0000001
 43
0.0000001
 44
0.0000000001
 40
0.0
 40
0.0
 40
0.0
 40
0.0
 40
0.1289062283
 40
0.2563995546
 40
0.3826142391
 40
0.507696783
 40
0.6318049575
 40
0.7551063655
 40
0.8777771117
 40
1.0
 40
1.0
 40
1.0
 40
1.0
 10
11.4783329191
 20
6.6899668644
 30
0.0
 10
11.4805354891
 20
6.6859646483
 30
0.0
 10
11.4847212209
 20
6.677894647
 30
0.0
 10
11.4903488149
 20
6.6655520582
 30
0.0
 10
11.4952805824
 20
6.6530603357
 30
0.0
 10
11.4995083632
 20
6.6404394898
 30
0.0
 10
11.5030255145
 20
6.6277093833
 30
0.0
 10
11.5058263006
 20
6.6148899665
 30
0.0
 10
11.5079061394
 20
6.602002031
 30
0.0
 10
11.5088112049
 20
6.593365295
 30
0.0
 10
11.5091418903
 20
6.58904652
 30
0.0
  0
SPLINE
  5
33D
100
AcDbEntity
  8
0
100
AcDbSpline
 62
7
  6
CONTINUOUS
 70
0
 71
3
 72
15
 73
11
 74
0
 42
0.0000001
 43
0.0000001
 44
0.0000000001
 40
0.0
 40
0.0
 40
0.0
 40
0.0
 40
0.131346503
 40
0.2603025466
 40
0.3871080966
 40
0.5120455496
 40
0.6354360839
 40
0.7576344225
 40
0.8790222675
 40
1.0
 40
1.0
 40
1.0
 40
1.0
 10
11.4602880054
 20
6.7539657844
 30
0.0
 10
11.4643008091
 20
6.7483385397
 30
0.0
 10
11.4718771394
 20
6.7369117248
 30
0.0
 10
11.4819032974
 20
6.719160705
 30
0.0
 10
11.4904486878
 20
6.7010212894
 30
0.0
 10
11.4974824053
 20
6.6825563056
 30
0.0
 10
11.5029795816
 20
6.6638288745
 30
0.0
 10
11.50692042
 20
6.6449030663
 30
0.0
 10
11.5092906761
 20
6.6258460177
 30
0.0
 10
11.5098183383
 20
6.6130864673
 30
0.0
 10
11.5098183383
 20
6.6067205995
 30
0.0
  0
SPLINE
  5
33E
100
AcDbEntity
  8
0
100
AcDbSpline
 62
7
  6
CONTINUOUS
 70
0
 71
3
 72
36
 73
32
 74
0
 42
0.0000001
 43
0.0000001
 44
0.0000000001
 40
0.0
 40
0.0
 40
0.0
 40
0.0
 40
0.0667160161
 40
0.100747158
 40
0.1351374893
 40
0.2047054187
 40
0.239759467
 40
0.2748886091
 40
0.3450529226
 40
0.3799575952
 40
0.414640215
 40
0.4490305622
 40
0.4830616572
 40
0.5166706572
 40
0.5497996663
 40
0.5823966531
 40
0.6144163353
 40
0.6458210844
 40
0.6765818858
 40
0.7066792169
 40
0.7361040004
 40
0.7648584146
 40
0.7929566839
 40
0.820425668
 40
0.8473052452
 40
0.8736483818
 40
0.8995207715
 40
0.925000022
 40
0.95017422
 40
0.9751399984
 40
1.0
 40
1.0
 40
1.0
 40
1.0
 10
11.2735683383
 20
6.8599521582
 30
0.0
 10
11.2562182642
 20
6.8528690201
 30
0.0
 10
11.2294218154
 20
6.8435686788
 30
0.0
 10
11.1927265737
 20
6.8338141493
 30
0.0
 10
11.1548132587
 20
6.8256907884
 30
0.0
 10
11.11607474
 20
6.8202659279
 30
0.0
 10
11.0769027631
 20
6.8175408076
 30
0.0
 10
11.0374789846
 20
6.8166291392
 30
0.0
 10
10.9980724413
 20
6.8184477038
 30
0.0
 10
10.9590702523
 20
6.8229960182
 30
0.0
 10
10.9302401269
 20
6.8277441049
 30
0.0
 10
10.9019105682
 20
6.8338139769
 30
0.0
 10
10.8742013763
 20
6.8411799683
 30
0.0
 10
10.8472310797
 20
6.8498107606
 30
0.0
 10
10.8211146797
 20
6.8596697318
 30
0.0
 10
10.7959636348
 20
6.8707150705
 30
0.0
 10
10.7718852727
 20
6.8828999785
 30
0.0
 10
10.7489823813
 20
6.8961728827
 30
0.0
 10
10.7273527933
 20
6.910477659
 30
0.0
 10
10.7070889988
 20
6.9257538831
 30
0.0
 10
10.6882778011
 20
6.9419370719
 30
0.0
 10
10.6709999889
 20
6.9589589443
 30
0.0
 10
10.655330052
 20
6.9767476649
 30
0.0
 10
10.6413359007
 20
6.9952280773
 30
0.0
 10
10.6290786123
 20
7.014321935
 30
0.0
 10
10.6186121545
 20
7.0339480805
 30
0.0
 10
10.6099830947
 20
7.0540227399
 30
0.0
 10
10.6032302751
 20
7.0744594643
 30
0.0
 10
10.5983844485
 20
7.095170474
 30
0.0
 10
10.5954679236
 20
7.1160632074
 30
0.0
 10
10.5948183383
 20
7.1300676253
 30
0.0
 10
10.5948183383
 20
7.1370506854
 30
0.0
  0
SPLINE
  5
33F
100
AcDbEntity
  8
0
100
AcDbSpline
 62
7
  6
CONTINUOUS
 70
0
 71
3
 72
15
 73
11
 74
0
 42
0.0000001
 43
0.0000001
 44
0.0000000001
 40
0.0
 40
0.0
 40
0.0
 40
0.0
 40
0.1223625386
 40
0.2450090364
 40
0.3681867054
 40
0.4921352527
 40
0.6170836802
 40
0.7432473649
 40
0.8708256699
 40
1.0
 40
1.0
 40
1.0
 40
1.0
 10
10.5873643513
 20
6.5732794077
 30
0.0
 10
10.5874053559
 20
6.578204814
 30
0.0
 10
10.5878046517
 20
6.5880673372
 30
0.0
 10
10.5893529741
 20
6.6028168704
 30
0.0
 10
10.5918475817
 20
6.6175013994
 30
0.0
 10
10.5952831464
 20
6.6320895452
 30
0.0
 10
10.5996523485
 20
6.64655114
 30
0.0
 10
10.604945934
 20
6.6608562756
 30
0.0
 10
10.6111523472
 20
6.6749747967
 30
0.0
 10
10.6158593234
 20
6.6841836134
 30
0.0
 10
10.618355636
 20
6.6887449861
 30
0.0
  0
SPLINE
  5
340
100
AcDbEntity
  8
0
100
AcDbSpline
 62
9
  6
CONTINUOUS
 70
0
 71
3
 72
30
 73
26
 74
0
 42
0.0000001
 43
0.0000001
 44
0.0000000001
 40
0.0
 40
0.0
 40
0.0
 40
0.0
 40
0.0656027096
 40
0.0990268368
 40
0.132791699
 40
0.2011008936
 40
0.2700719546
 40
0.3392044627
 40
0.4079920453
 40
0.4759411024
 40
0.5425897446
 40
0.607527223
 40
0.6392551228
 40
0.6704351834
 40
0.7310240986
 40
0.7604229522
 40
0.7892080458
 40
0.8173838795
 40
0.8449644913
 40
0.8719738699
 40
0.8984462075
 40
0.9244259362
 40
0.9499674878
 40
0.975134725
 40
1.0
 40
1.0
 40
1.0
 40
1.0
 10
11.2201279562
 20
6.4869480864
 30
0.0
 10
11.2078647049
 20
6.481941635
 30
0.0
 10
11.188964348
 20
6.4752974922
 30
0.0
 10
11.1631105085
 20
6.4681711117
 30
0.0
 10
11.1364246674
 20
6.4621030646
 30
0.0
 10
11.1022639109
 20
6.4567098082
 30
0.0
 10
11.0606394055
 20
6.4537906469
 30
0.0
 10
11.0188197733
 20
6.4544396425
 30
0.0
 10
10.977414575
 20
6.4586477295
 30
0.0
 10
10.9370236917
 20
6.4663547532
 30
0.0
 10
10.8982360096
 20
6.4774493937
 30
0.0
 10
10.8674739603
 20
6.4894815885
 30
0.0
 10
10.8442033963
 20
6.5006775671
 30
0.0
 10
10.8223160742
 20
6.512640405
 30
0.0
 10
10.8017992734
 20
6.5260784867
 30
0.0
 10
10.7829597227
 20
6.5409354845
 30
0.0
 10
10.7699378597
 20
6.5525493052
 30
0.0
 10
10.7579334183
 20
6.5647012914
 30
0.0
 10
10.7469901724
 20
6.5773478125
 30
0.0
 10
10.7371489387
 20
6.590442799
 30
0.0
 10
10.7284464372
 20
6.603938653
 30
0.0
 10
10.7209154424
 20
6.6177860017
 30
0.0
 10
10.714584442
 20
6.6319344865
 30
0.0
 10
10.7094779631
 20
6.6463306253
 30
0.0
 10
10.7068895686
 20
6.6561096709
 30
0.0
 10
10.7058103689
 20
6.6610128493
 30
0.0
  0
ELLIPSE
  5
341
100
AcDbEntity
  8
0
100
AcDbEllipse
 62
7
  6
CONTINUOUS
 10
11.0473183383
 20
6.7410708879
 30
0.0
 11
0.4522967215
 21
0.1611958191
 31
0.0
 40
0.084133201
 41
-1.3561925479
 42
-0.7981537211
  0
ELLIPSE
  5
342
100
AcDbEntity
  8
0
100
AcDbEllipse
 62
7
  6
CONTINUOUS
 10
11.0473183383
 20
9.5437422111
 30
0.0
 11
-1.0411369379
 21
0.9898582626
 31
0.0
 40
0.5769821704
 41
-0.7198777285
 42
-0.021858488
  0
ELLIPSE
  5
343
100
AcDbEntity
  8
0
100
AcDbEllipse
 62
7
  6
CONTINUOUS
 10
11.0473183383
 20
9.5437422111
 30
0.0
 11
1.0411369379
 21
0.9898582626
 31
0.0
 40
0.5769821704
 41
0.021858488
 42
0.7198777287
  0
ENDSEC
  0
SECTION
  2
OBJECTS
  0
DICTIONARY
  5
C
100
AcDbDictionary
280
0
281
1
  3
ACAD_GROUP
350
D
  3
ACAD_MLINESTYLE
350
17
  3
ACAD_LAYOUT
350
1A
  3
ACAD_PLOTSETTINGS
350
19
  3
ACAD_PLOTSTYLENAME
350
E
  0
DICTIONARY
  5
D
102
{ACAD_REACTORS
330
C
102
}
100
AcDbDictionary
280
0
281
1
  0
ACDBDICTIONARYWDFLT
  5
E
102
{ACAD_REACTORS
330
C
102
}
100
AcDbDictionary
281
1
  3
Normal
350
F
100
AcDbDictionaryWithDefault
340
F
  0
DICTIONARY
  5
17
102
{ACAD_REACTORS
330
C
102
}
100
AcDbDictionary
280
0
281
1
  3
Standard
350
18
  0
DICTIONARY
  5
19
102
{ACAD_REACTORS
330
C
102
}
100
AcDbDictionary
281
1
  0
DICTIONARY
  5
1A
102
{ACAD_REACTORS
330
C
102
}
100
AcDbDictionary
281
1
  3
Model
350
344
  3
Layout1
350
345
  0
ACDBPLACEHOLDER
  5
F
102
{ACAD_REACTORS
330
E
102
}
  0
MLINESTYLE
  5
18
102
{ACAD_REACTORS
330
17
102
}
100
AcDbMlineStyle
  2
STANDARD
 70
0
  3

 62
256
 51
90.0
 52
90.0
 71
2
 49
0.5
 62
256
  6
BYLAYER
 49
-0.5
 62
256
  6
BYLAYER
  0
LAYOUT
  5
344
102
{ACAD_REACTORS
330
1A
102
}
100
AcDbPlotSettings
  1

  2
none_device
  4
ANSI_C_(22.00_x_17.00_Inches)
  6

 40
0.0
 41
0.0
 42
0.0
 43
0.0
 44
558.8
 45
431.8
 46
0.0
 47
0.0
 48
0.0
 49
0.0
140
0.0
141
0.0
142
1.0
143
1.0
 70
1024
 72
0
 73
0
 74
0
  7

 75
0
147
1.0
148
0.0
149
0.0
100
AcDbLayout
  1
Model
 70
0
 71
0
 10
0.0
 20
0.0
 11
22.0
 21
17.0
 12
0.0
 22
0.0
 32
0.0
 14
0.0
 24
0.0
 34
0.0
 15
0.0
 25
0.0
 35
0.0
146
0.0
 13
0.0
 23
0.0
 33
0.0
 16
1.0
 26
0.0
 36
0.0
 17
0.0
 27
1.0
 37
0.0
 76
0
330
205
345
0
346
0
  0
LAYOUT
  5
345
102
{ACAD_REACTORS
330
1A
102
}
100
AcDbPlotSettings
  1

  2
none_device
  4
ANSI_C_(22.00_x_17.00_Inches)
  6

 40
0.0
 41
0.0
 42
0.0
 43
0.0
 44
558.8
 45
431.8
 46
0.0
 47
0.0
 48
0.0
 49
0.0
140
0.0
141
0.0
142
1.0
143
1.0
 70
0
 72
0
 73
0
 74
0
  7

 75
0
147
1.0
148
0.0
149
0.0
100
AcDbLayout
  1
Layout1
 70
0
 71
1
 10
0.0
 20
0.0
 11
22.0
 21
17.0
 12
0.0
 22
0.0
 32
0.0
 14
0.0
 24
0.0
 34
0.0
 15
0.0
 25
0.0
 35
0.0
146
0.0
 13
0.0
 23
0.0
 33
0.0
 16
1.0
 26
0.0
 36
0.0
 17
0.0
 27
1.0
 37
0.0
 76
0
330
206
345
0
346
0
  0
ENDSEC
  0
EOF
