999
DXF file: E:\BT Custom\CADOUTPUT\_TOP.dxf
999
Pro/ENGINEER 2018400 by Parametric Technology Corporation
  0
SECTION
  2
HEADER
  9
$ACADVER
  1
AC1018
  9
$DWGCODEPAGE
  3
ANSI_1252
  9
$EXTMAX
 10
22.0
 20
17.0
 30
0.0
  9
$EXTMIN
 10
0.0
 20
0.0
 30
0.0
  9
$LIMMIN
 10
0.0
 20
0.0
  9
$LIMMAX
 10
22.0
 20
17.0
  9
$VIEWCTR
 10
11.0
 20
8.5
  9
$VIEWSIZE
 40
17.0
  9
$CLAYER
  8
0
  9
$LTSCALE
 40
1.21
  9
$CELTYPE
  6
BYLAYER
  9
$DIMSCALE
 40
1.0
  9
$DIMASZ
 40
0.1
  9
$DIMEXO
 40
0.0625
  9
$DIMDLI
 40
0.836
  9
$DIMEXE
 40
0.125
  9
$DIMCEN
 40
0.198
  9
$DIMLFAC
 40
1.0
  9
$DIMBLK
  1
_FILLED
  9
$DIMALT
 70
1
  9
$DIMALTD
 70
2
  9
$DIMALTTD
 70
2
  9
$DIMALTF
 40
25.4
  9
$DIMTXT
 40
0.08
  9
$DIMTOL
 70
1
  9
$DIMLIM
 70
0
  9
$DIMTFAC
 40
1.0
  9
$DIMTP
 40
0.001
  9
$DIMTM
 40
0.001
  9
$DIMGAP
 40
0.09
  9
$DIMDSEP
 70
46
  9
$AUNITS
 70
0
  9
$PDMODE
 70
3
  9
$PDSIZE
 40
0.06
  9
$HANDSEED
  5
32C
  9
$TILEMODE
 70
1
  9
$MEASUREMENT
 70
0
  9
$INSUNITS
 70
1
  0
ENDSEC
  0
SECTION
  2
CLASSES
  0
CLASS
  1
ACDBDICTIONARYWDFLT
  2
AcDbDictionaryWithDefault
  3
AutoCAD 2000
 90
0
 91
1
280
0
281
0
  0
CLASS
  1
ACDBPLACEHOLDER
  2
AcDbPlaceHolder
  3
AutoCAD 2000
 90
0
 91
1
280
0
281
0
  0
CLASS
  1
LAYOUT
  2
AcDbLayout
  3
AutoCAD 2000
 90
0
 91
0
280
0
281
0
  0
ENDSEC
  0
SECTION
  2
TABLES
  0
TABLE
  2
VPORT
  5
8
100
AcDbSymbolTable
 70
2
  0
VPORT
  5
1F4
100
AcDbSymbolTableRecord
100
AcDbViewportTableRecord
  2
*ACTIVE
 70
0
 10
0.0
 20
0.0
 11
1.0
 21
1.0
 12
11.0
 22
8.5
 13
0.0
 23
0.0
 14
1.0
 24
1.0
 15
0.0
 25
0.0
 16
0.0
 26
0.0
 36
1.0
 17
0.0
 27
0.0
 37
0.0
 40
17.0
 41
1.2941176471
 42
50.0
 43
0.0
 44
0.0
 50
0.0
 51
0.0
 71
0
 72
100
 73
1
 74
1
 75
0
 76
0
 77
0
 78
0
  0
ENDTAB
  0
TABLE
  2
LTYPE
  5
5
100
AcDbSymbolTable
 70
6
  0
LTYPE
  5
14
100
AcDbSymbolTableRecord
100
AcDbLinetypeTableRecord
  2
BYBLOCK
 70
0
  3

 72
65
 73
0
 40
0.0
  0
LTYPE
  5
15
100
AcDbSymbolTableRecord
100
AcDbLinetypeTableRecord
  2
BYLAYER
 70
0
  3

 72
65
 73
0
 40
0.0
  0
LTYPE
  5
16
100
AcDbSymbolTableRecord
100
AcDbLinetypeTableRecord
  2
CONTINUOUS
 70
64
  3
Solid line
 72
65
 73
0
 40
0.0
  0
LTYPE
  5
1F5
100
AcDbSymbolTableRecord
100
AcDbLinetypeTableRecord
  2
CENTER
 70
64
  3
____ _ ____ _ ____ _ ____ _ ____ _ ____ _ ____
 72
65
 73
4
 40
0.6
 49
0.375
 74
0
 49
-0.075
 74
0
 49
0.075
 74
0
 49
-0.075
 74
0
  0
LTYPE
  5
1F6
100
AcDbSymbolTableRecord
100
AcDbLinetypeTableRecord
  2
HIDDEN
 70
64
  3
- - - - - - - - - - - - - - - - - - - -
 72
65
 73
2
 40
0.2
 49
0.1
 74
0
 49
-0.1
 74
0
  0
LTYPE
  5
1F7
100
AcDbSymbolTableRecord
100
AcDbLinetypeTableRecord
  2
PHANTOM
 70
64
  3
_____ _ _ _____ _ _ _____ _ _ _____
 72
65
 73
6
 40
0.8
 49
0.45
 74
0
 49
-0.05
 74
0
 49
0.1
 74
0
 49
-0.05
 74
0
 49
0.1
 74
0
 49
-0.05
 74
0
  0
LTYPE
  5
1F8
100
AcDbSymbolTableRecord
100
AcDbLinetypeTableRecord
  2
DOT
 70
64
  3
. . . . . . . . . . . . . . . . . . . .
 72
65
 73
2
 40
0.2
 49
0.1
 74
0
 49
-0.1
 74
0
  0
LTYPE
  5
1F9
100
AcDbSymbolTableRecord
100
AcDbLinetypeTableRecord
  2
DASHED
 70
64
  3
- - - - - - - - - - - - - - - - - - - -
 72
65
 73
2
 40
0.2
 49
0.1
 74
0
 49
-0.1
 74
0
  0
ENDTAB
  0
TABLE
  2
LAYER
  5
2
100
AcDbSymbolTable
 70
36
  0
LAYER
  5
10
100
AcDbSymbolTableRecord
100
AcDbLayerTableRecord
  2
0
 70
0
 62
7
  6
CONTINUOUS
370
-3
390
F
  0
LAYER
  5
1FA
100
AcDbSymbolTableRecord
100
AcDbLayerTableRecord
  2
DEFAULT_1
 70
0
 62
7
  6
CENTER
370
-3
390
F
  0
LAYER
  5
1FB
100
AcDbSymbolTableRecord
100
AcDbLayerTableRecord
  2
DEFAULT_2
 70
0
 62
8
  6
HIDDEN
370
-3
390
F
  0
LAYER
  5
1FC
100
AcDbSymbolTableRecord
100
AcDbLayerTableRecord
  2
DEFAULT_3
 70
0
 62
7
  6
PHANTOM
370
-3
390
F
  0
LAYER
  5
1FD
100
AcDbSymbolTableRecord
100
AcDbLayerTableRecord
  2
ALL_FEATURES
 70
0
 62
7
  6
CONTINUOUS
370
-3
390
F
  0
LAYER
  5
1FE
100
AcDbSymbolTableRecord
100
AcDbLayerTableRecord
  2
AXES_FEATURES
 70
0
 62
7
  6
CONTINUOUS
370
-3
390
F
  0
LAYER
  5
1FF
100
AcDbSymbolTableRecord
100
AcDbLayerTableRecord
  2
DEFAULT_COORDINATE_SYSTEM
 70
0
 62
7
  6
CONTINUOUS
370
-3
390
F
  0
LAYER
  5
200
100
AcDbSymbolTableRecord
100
AcDbLayerTableRecord
  2
DEFAULT_DATUM_AXES
 70
0
 62
7
  6
CONTINUOUS
370
-3
390
F
  0
LAYER
  5
201
100
AcDbSymbolTableRecord
100
AcDbLayerTableRecord
  2
DEFAULT_DATUM_PLANES
 70
0
 62
7
  6
CONTINUOUS
370
-3
390
F
  0
LAYER
  5
202
100
AcDbSymbolTableRecord
100
AcDbLayerTableRecord
  2
DIMENSIONS
 70
0
 62
7
  6
CONTINUOUS
370
-3
390
F
  0
ENDTAB
  0
TABLE
  2
STYLE
  5
3
100
AcDbSymbolTable
 70
1
  0
STYLE
  5
11
100
AcDbSymbolTableRecord
100
AcDbTextStyleTableRecord
  2
STANDARD
 70
0
 40
0.0
 41
0.8
 50
0.0
 71
0
 42
0.2
  3
txt
  4

  0
STYLE
  5
203
100
AcDbSymbolTableRecord
100
AcDbTextStyleTableRecord
  2
TEXTSTYLE_1
 70
0
 40
0.0
 41
0.8
 50
0.0
 71
0
 42
0.2
  3
gdt
  4

  0
ENDTAB
  0
TABLE
  2
VIEW
  5
6
100
AcDbSymbolTable
 70
0
  0
ENDTAB
  0
TABLE
  2
UCS
  5
7
100
AcDbSymbolTable
 70
0
  0
ENDTAB
  0
TABLE
  2
APPID
  5
9
100
AcDbSymbolTable
 70
1
  0
APPID
  5
204
100
AcDbSymbolTableRecord
100
AcDbRegAppTableRecord
  2
ACAD
 70
0
  0
ENDTAB
  0
TABLE
  2
BLOCK_RECORD
  5
1
100
AcDbSymbolTable
 70
0
  0
BLOCK_RECORD
  5
205
100
AcDbSymbolTableRecord
100
AcDbBlockTableRecord
  2
*Model_Space
  0
BLOCK_RECORD
  5
206
100
AcDbSymbolTableRecord
100
AcDbBlockTableRecord
  2
*Paper_Space
  0
BLOCK_RECORD
  5
207
100
AcDbSymbolTableRecord
100
AcDbBlockTableRecord
  2
_FILLED
  0
ENDTAB
  0
TABLE
  2
DIMSTYLE
  5
A
100
AcDbSymbolTable
 70
1
100
AcDbDimStyleTable
 71
0
  0
DIMSTYLE
105
208
100
AcDbSymbolTableRecord
100
AcDbDimStyleTableRecord
  2
STANDARD
 70
0
  3

  4

 40
1.0
 41
0.1
 42
0.0625
 43
0.38
 44
0.125
 45
0.0
 46
0.0
 47
0.001
 48
0.001
140
0.08
141
0.09
142
0.0
143
25.4
144
1.0
145
0.0
146
1.0
147
0.09
 71
1.0
 72
0.0
 73
1
 74
1
 75
0
 76
0
 77
0
 78
4
 79
1
170
1
171
2
172
0
173
0
174
0
175
0
176
0
177
0
178
0
270
2
179
3
271
3
272
3
273
2
274
2
275
0
280
0
281
0
282
0
283
1
284
4
285
0
286
0
287
3
288
0
340
11
278
46
341
207
342
207
343
207
344
207
  0
ENDTAB
  0
ENDSEC
  0
SECTION
  2
BLOCKS
  0
BLOCK
  5
20
100
AcDbEntity
  8
0
100
AcDbBlockBegin
  2
*Model_Space
 70
0
 10
0.0
 20
0.0
 30
0.0
  3
*Model_Space
  1

  0
ENDBLK
  5
21
100
AcDbEntity
  8
0
100
AcDbBlockEnd
  0
BLOCK
  5
1C
100
AcDbEntity
  8
0
100
AcDbBlockBegin
  2
*Paper_Space
 70
0
 10
0.0
 20
0.0
 30
0.0
  3
*Paper_Space
  1

  0
ENDBLK
  5
1D
100
AcDbEntity
  8
0
100
AcDbBlockEnd
  0
BLOCK
  5
209
100
AcDbEntity
  8
0
100
AcDbBlockBegin
  2
_FILLED
 70
64
 10
0.0
 20
0.0
  3
_FILLED
  1

  0
SOLID
  5
20A
100
AcDbEntity
  8
0
  6
BYBLOCK
 62
0
100
AcDbTrace
 10
0.0
 20
0.0
 11
-1.0
 21
0.2
 12
-1.0
 22
-0.2
 13
-1.0
 23
-0.2
  0
ENDBLK
  5
20B
100
AcDbEntity
  8
0
  6
BYBLOCK
 62
0
100
AcDbBlockEnd
  0
ENDSEC
  0
SECTION
  2
ENTITIES
  0
LINE
  5
20C
100
AcDbEntity
  8
0
100
AcDbLine
 62
7
  6
CONTINUOUS
 10
9.1423183383
 20
5.3277726261
 11
9.1423183383
 21
5.1983375589
  0
LINE
  5
20D
100
AcDbEntity
  8
0
100
AcDbLine
 62
7
  6
CONTINUOUS
 10
9.4273183383
 20
5.4851550294
 11
9.4273183383
 21
5.4611215783
  0
LINE
  5
20E
100
AcDbEntity
  8
0
100
AcDbLine
 62
7
  6
CONTINUOUS
 10
12.0603183383
 20
10.5314728547
 11
12.2348183268
 21
10.7016199287
  0
LINE
  5
20F
100
AcDbEntity
  8
0
100
AcDbLine
 62
7
  6
CONTINUOUS
 10
9.8573183383
 20
11.6072409815
 11
9.8573183383
 21
11.3750677343
  0
LINE
  5
210
100
AcDbEntity
  8
0
100
AcDbLine
 62
7
  6
CONTINUOUS
 10
9.8598183383
 20
10.8532409815
 11
9.8598183383
 21
10.7016199399
  0
LINE
  5
211
100
AcDbEntity
  8
0
100
AcDbLine
 62
7
  6
CONTINUOUS
 10
10.5198183383
 20
8.7762409815
 11
10.6410683383
 21
8.8156279241
  0
LINE
  5
212
100
AcDbEntity
  8
0
100
AcDbLine
 62
7
  6
CONTINUOUS
 10
10.4638199787
 20
8.3724510278
 11
10.4342334527
 21
8.3314141388
  0
LINE
  5
213
100
AcDbEntity
  8
0
100
AcDbLine
 62
7
  6
CONTINUOUS
 10
10.5198183383
 20
8.1762409815
 11
10.5466651258
 21
8.1917409815
  0
LINE
  5
214
100
AcDbEntity
  8
0
100
AcDbLine
 62
7
  6
CONTINUOUS
 10
11.0473586076
 20
6.5342421558
 11
11.0475925227
 21
6.5342422213
  0
LINE
  5
215
100
AcDbEntity
  8
0
100
AcDbLine
 62
7
  6
CONTINUOUS
 10
10.4723183383
 20
6.6208627351
 11
10.4723183383
 21
5.9561823608
  0
LINE
  5
216
100
AcDbEntity
  8
0
100
AcDbLine
 62
7
  6
CONTINUOUS
 10
10.5198183383
 20
8.1049568844
 11
10.5198183383
 21
8.1762409815
  0
LINE
  5
217
100
AcDbEntity
  8
0
100
AcDbLine
 62
7
  6
CONTINUOUS
 10
10.5948183383
 20
7.1370506854
 11
10.5948183383
 21
6.909271898
  0
LINE
  5
218
100
AcDbEntity
  8
0
100
AcDbLine
 62
7
  6
CONTINUOUS
 10
10.6173183383
 20
9.2062409815
 11
10.6173183383
 21
9.3262409815
  0
LINE
  5
219
100
AcDbEntity
  8
0
100
AcDbLine
 62
7
  6
CONTINUOUS
 10
10.6410683383
 20
11.1903838792
 11
10.6410683383
 21
7.3425012461
  0
LINE
  5
21A
100
AcDbEntity
  8
0
100
AcDbLine
 62
7
  6
CONTINUOUS
 10
10.6410683383
 20
7.2603898439
 11
10.6410683383
 21
7.2429926138
  0
LINE
  5
21B
100
AcDbEntity
  8
0
100
AcDbLine
 62
7
  6
CONTINUOUS
 10
10.6410683383
 20
7.2091612713
 11
10.6410683383
 21
7.1932751954
  0
LINE
  5
21C
100
AcDbEntity
  8
0
100
AcDbLine
 62
7
  6
CONTINUOUS
 10
10.6410683383
 20
7.1578614209
 11
10.6410683383
 21
7.1435459954
  0
LINE
  5
21D
100
AcDbEntity
  8
0
100
AcDbLine
 62
7
  6
CONTINUOUS
 10
10.6410685839
 20
7.3119853632
 11
10.6410683383
 21
7.2927813287
  0
LINE
  5
21E
100
AcDbEntity
  8
0
100
AcDbLine
 62
7
  6
CONTINUOUS
 10
11.5479715508
 20
8.1917409815
 11
11.5748183383
 21
8.2072409815
  0
LINE
  5
21F
100
AcDbEntity
  8
0
100
AcDbLine
 62
7
  6
CONTINUOUS
 10
11.5018282944
 20
8.0662409815
 11
11.5605524905
 21
8.0853216294
  0
LINE
  5
220
100
AcDbEntity
  8
0
100
AcDbLine
 62
7
  6
CONTINUOUS
 10
11.6308166979
 20
8.6120309352
 11
11.6604032238
 21
8.6530678242
  0
LINE
  5
221
100
AcDbEntity
  8
0
100
AcDbLine
 62
9
  6
CONTINUOUS
 10
10.6410685839
 20
7.3119853632
 11
10.6434646634
 21
7.3129616962
  0
LINE
  5
222
100
AcDbEntity
  8
0
100
AcDbLine
 62
7
  6
CONTINUOUS
 10
10.534084186
 20
8.0853216294
 11
10.5198183383
 21
8.1049568844
  0
LINE
  5
223
100
AcDbEntity
  8
0
100
AcDbLine
 62
7
  6
CONTINUOUS
 10
10.5473183383
 20
9.3262409815
 11
10.4718083581
 21
9.7190491317
  0
LINE
  5
224
100
AcDbEntity
  8
0
100
AcDbLine
 62
7
  6
CONTINUOUS
 10
11.1568904109
 20
6.7382189364
 11
11.1568904109
 21
6.5988284967
  0
LINE
  5
225
100
AcDbEntity
  8
0
100
AcDbLine
 62
7
  6
CONTINUOUS
 10
11.1770814628
 20
6.2247651893
 11
11.1770814628
 21
5.9772778159
  0
LINE
  5
226
100
AcDbEntity
  8
0
100
AcDbLine
 62
7
  6
CONTINUOUS
 10
11.3727462656
 20
6.82634172
 11
11.3727462656
 21
6.6869512803
  0
LINE
  5
227
100
AcDbEntity
  8
0
100
AcDbLine
 62
7
  6
CONTINUOUS
 10
11.4535683383
 20
7.2860343074
 11
11.4535683383
 21
7.2678936138
  0
LINE
  5
228
100
AcDbEntity
  8
0
100
AcDbLine
 62
7
  6
CONTINUOUS
 10
11.4535683383
 20
7.2347689064
 11
11.4535683383
 21
7.2182144969
  0
LINE
  5
229
100
AcDbEntity
  8
0
100
AcDbLine
 62
7
  6
CONTINUOUS
 10
11.4535683383
 20
7.1834307389
 11
11.4535683383
 21
7.1684124525
  0
LINE
  5
22A
100
AcDbEntity
  8
0
100
AcDbLine
 62
7
  6
CONTINUOUS
 10
11.4675552138
 20
6.3433506016
 11
11.4675552138
 21
6.0958632282
  0
LINE
  5
22B
100
AcDbEntity
  8
0
100
AcDbLine
 62
7
  6
CONTINUOUS
 10
11.4535683383
 20
11.1903838792
 11
11.4535680927
 21
7.3421853913
  0
LINE
  5
22C
100
AcDbEntity
  8
0
100
AcDbLine
 62
7
  6
CONTINUOUS
 10
11.5473183383
 20
9.3262409815
 11
11.6228283185
 21
9.7190491317
  0
LINE
  5
22D
100
AcDbEntity
  8
0
100
AcDbLine
 62
7
  6
CONTINUOUS
 10
11.5605524905
 20
8.0853216294
 11
11.5748183383
 21
8.1049568844
  0
LINE
  5
22E
100
AcDbEntity
  8
0
100
AcDbLine
 62
7
  6
CONTINUOUS
 10
10.5928083822
 20
8.0662409815
 11
10.534084186
 21
8.0853216294
  0
LINE
  5
22F
100
AcDbEntity
  8
0
100
AcDbLine
 62
7
  6
CONTINUOUS
 10
10.5466651258
 20
8.1917409815
 11
10.5198183383
 21
8.2072409815
  0
LINE
  5
230
100
AcDbEntity
  8
0
100
AcDbLine
 62
7
  6
CONTINUOUS
 10
10.4638199787
 20
8.6120309352
 11
10.4342334527
 21
8.6530678242
  0
LINE
  5
231
100
AcDbEntity
  8
0
100
AcDbLine
 62
7
  6
CONTINUOUS
 10
11.4773183383
 20
9.2062409815
 11
11.4773183383
 21
9.3262409815
  0
LINE
  5
232
100
AcDbEntity
  8
0
100
AcDbLine
 62
7
  6
CONTINUOUS
 10
11.4998183383
 20
7.1370506854
 11
11.4998183383
 21
6.909271898
  0
LINE
  5
233
100
AcDbEntity
  8
0
100
AcDbLine
 62
7
  6
CONTINUOUS
 10
11.5748183383
 20
8.1049568844
 11
11.5748183383
 21
8.1762409815
  0
LINE
  5
234
100
AcDbEntity
  8
0
100
AcDbLine
 62
7
  6
CONTINUOUS
 10
11.6223183383
 20
6.6208627351
 11
11.6223183383
 21
5.9561823608
  0
LINE
  5
235
100
AcDbEntity
  8
0
100
AcDbLine
 62
7
  6
CONTINUOUS
 10
10.6410683383
 20
8.0662409815
 11
10.5928083823
 21
8.0662409815
  0
LINE
  5
236
100
AcDbEntity
  8
0
100
AcDbLine
 62
7
  6
CONTINUOUS
 10
11.4535683383
 20
8.0662409815
 11
11.5018282942
 21
8.0662409815
  0
LINE
  5
237
100
AcDbEntity
  8
0
100
AcDbLine
 62
7
  6
CONTINUOUS
 10
10.6410683383
 20
8.0853216294
 11
10.534084186
 21
8.0853216294
  0
LINE
  5
238
100
AcDbEntity
  8
0
100
AcDbLine
 62
7
  6
CONTINUOUS
 10
11.4535683383
 20
8.0853216294
 11
11.5605524905
 21
8.0853216294
  0
LINE
  5
239
100
AcDbEntity
  8
0
100
AcDbLine
 62
7
  6
CONTINUOUS
 10
10.6410683383
 20
8.1049568844
 11
10.5198183383
 21
8.1049568844
  0
LINE
  5
23A
100
AcDbEntity
  8
0
100
AcDbLine
 62
7
  6
CONTINUOUS
 10
11.4535683383
 20
8.1049568844
 11
11.5748183383
 21
8.1049568844
  0
LINE
  5
23B
100
AcDbEntity
  8
0
100
AcDbLine
 62
7
  6
CONTINUOUS
 10
10.6410683383
 20
8.1762409815
 11
10.5198183383
 21
8.1762409815
  0
LINE
  5
23C
100
AcDbEntity
  8
0
100
AcDbLine
 62
7
  6
CONTINUOUS
 10
11.4535683383
 20
8.1762409815
 11
11.5748183383
 21
8.1762409815
  0
LINE
  5
23D
100
AcDbEntity
  8
0
100
AcDbLine
 62
7
  6
CONTINUOUS
 10
10.6410683383
 20
8.1917409815
 11
10.5466651258
 21
8.1917409815
  0
LINE
  5
23E
100
AcDbEntity
  8
0
100
AcDbLine
 62
7
  6
CONTINUOUS
 10
11.4535683383
 20
8.1917409815
 11
11.5479715508
 21
8.1917409815
  0
LINE
  5
23F
100
AcDbEntity
  8
0
100
AcDbLine
 62
7
  6
CONTINUOUS
 10
10.6410683383
 20
8.2072409815
 11
10.5198183383
 21
8.2072409815
  0
LINE
  5
240
100
AcDbEntity
  8
0
100
AcDbLine
 62
7
  6
CONTINUOUS
 10
11.4535683383
 20
8.2072409815
 11
11.5748183383
 21
8.2072409815
  0
LINE
  5
241
100
AcDbEntity
  8
0
100
AcDbLine
 62
7
  6
CONTINUOUS
 10
10.6410683383
 20
8.2872409815
 11
10.4898183383
 21
8.2872409815
  0
LINE
  5
242
100
AcDbEntity
  8
0
100
AcDbLine
 62
7
  6
CONTINUOUS
 10
11.4535683383
 20
8.2872409815
 11
11.6048183383
 21
8.2872409815
  0
LINE
  5
243
100
AcDbEntity
  8
0
100
AcDbLine
 62
7
  6
CONTINUOUS
 10
11.5748183383
 20
8.1762409815
 11
11.5479715508
 21
8.1917409815
  0
LINE
  5
244
100
AcDbEntity
  8
0
100
AcDbLine
 62
7
  6
CONTINUOUS
 10
11.6308166979
 20
8.3724510278
 11
11.6604032238
 21
8.3314141388
  0
LINE
  5
245
100
AcDbEntity
  8
0
100
AcDbLine
 62
7
  6
CONTINUOUS
 10
12.2348183383
 20
10.8532409815
 11
12.2348183383
 21
10.7016199399
  0
LINE
  5
246
100
AcDbEntity
  8
0
100
AcDbLine
 62
7
  6
CONTINUOUS
 10
12.2373183383
 20
11.6072409815
 11
12.2373183383
 21
11.3750677343
  0
LINE
  5
247
100
AcDbEntity
  8
0
100
AcDbLine
 62
7
  6
CONTINUOUS
 10
11.4675552138
 20
6.3433506016
 11
11.1770814628
 21
6.2247651893
  0
LINE
  5
248
100
AcDbEntity
  8
0
100
AcDbLine
 62
7
  6
CONTINUOUS
 10
11.4675552138
 20
6.0958632282
 11
11.1770814628
 21
5.9772778159
  0
LINE
  5
249
100
AcDbEntity
  8
0
100
AcDbLine
 62
7
  6
CONTINUOUS
 10
11.6048183383
 20
8.6972409815
 11
11.4535683383
 21
8.6972409815
  0
LINE
  5
24A
100
AcDbEntity
  8
0
100
AcDbLine
 62
7
  6
CONTINUOUS
 10
10.6410683383
 20
8.6972409815
 11
10.4898183383
 21
8.6972409815
  0
LINE
  5
24B
100
AcDbEntity
  8
0
100
AcDbLine
 62
7
  6
CONTINUOUS
 10
10.6410683383
 20
8.7762409815
 11
10.5198183383
 21
8.7762409815
  0
LINE
  5
24C
100
AcDbEntity
  8
0
100
AcDbLine
 62
7
  6
CONTINUOUS
 10
11.4535683383
 20
8.7762409815
 11
11.5748183383
 21
8.7762409815
  0
LINE
  5
24D
100
AcDbEntity
  8
0
100
AcDbLine
 62
7
  6
CONTINUOUS
 10
11.5748183383
 20
8.7762409815
 11
11.4535683383
 21
8.8156279241
  0
LINE
  5
24E
100
AcDbEntity
  8
0
100
AcDbLine
 62
7
  6
CONTINUOUS
 10
10.0343183383
 20
10.5314728547
 11
9.8598183498
 21
10.7016199287
  0
LINE
  5
24F
100
AcDbEntity
  8
0
100
AcDbLine
 62
7
  6
CONTINUOUS
 10
12.6673183383
 20
5.4851550294
 11
12.6673183383
 21
5.4611215783
  0
LINE
  5
250
100
AcDbEntity
  8
0
100
AcDbLine
 62
7
  6
CONTINUOUS
 10
12.9523183383
 20
5.3277726261
 11
12.9523183383
 21
5.1983375589
  0
LINE
  5
251
100
AcDbEntity
  8
0
100
AcDbLine
 62
7
  6
CONTINUOUS
 10
10.6410683383
 20
9.2062409815
 11
10.6173183383
 21
9.2062409815
  0
LINE
  5
252
100
AcDbEntity
  8
0
100
AcDbLine
 62
7
  6
CONTINUOUS
 10
11.4535683383
 20
9.2062409815
 11
11.4773183383
 21
9.2062409815
  0
LINE
  5
253
100
AcDbEntity
  8
0
100
AcDbLine
 62
7
  6
CONTINUOUS
 10
11.5473183383
 20
9.3262409815
 11
11.4535683383
 21
9.3262409815
  0
LINE
  5
254
100
AcDbEntity
  8
0
100
AcDbLine
 62
7
  6
CONTINUOUS
 10
10.6410683383
 20
9.3262409815
 11
10.5473183383
 21
9.3262409815
  0
LINE
  5
255
100
AcDbEntity
  8
0
100
AcDbLine
 62
9
  6
CONTINUOUS
 10
11.4535683383
 20
9.3572409815
 11
10.6410683383
 21
9.3572409815
  0
LINE
  5
256
100
AcDbEntity
  8
0
100
AcDbLine
 62
9
  6
CONTINUOUS
 10
11.6228283185
 20
9.7190491317
 11
11.4535683383
 21
9.7190491317
  0
LINE
  5
257
100
AcDbEntity
  8
0
100
AcDbLine
 62
9
  6
CONTINUOUS
 10
10.6410683383
 20
9.7190491317
 11
10.4718083581
 21
9.7190491317
  0
LINE
  5
258
100
AcDbEntity
  8
0
100
AcDbLine
 62
9
  6
CONTINUOUS
 10
12.0603183383
 20
10.5314728547
 11
11.4535683383
 21
10.5314728547
  0
LINE
  5
259
100
AcDbEntity
  8
0
100
AcDbLine
 62
9
  6
CONTINUOUS
 10
10.6410683383
 20
10.5314728547
 11
10.0343183383
 21
10.5314728547
  0
LINE
  5
25A
100
AcDbEntity
  8
0
100
AcDbLine
 62
7
  6
CONTINUOUS
 10
13.8041570779
 20
10.8532409815
 11
11.4535683383
 21
10.8532409815
  0
LINE
  5
25B
100
AcDbEntity
  8
0
100
AcDbLine
 62
7
  6
CONTINUOUS
 10
10.6410683383
 20
10.8532409815
 11
8.2904795986
 21
10.8532409815
  0
LINE
  5
25C
100
AcDbEntity
  8
0
100
AcDbLine
 62
7
  6
CONTINUOUS
 10
11.4945333056
 20
11.1903838792
 11
11.4978849088
 21
11.1905716878
  0
LINE
  5
25D
100
AcDbEntity
  8
0
100
AcDbLine
 62
9
  6
CONTINUOUS
 10
14.0212377081
 20
10.9792409815
 11
11.4535683383
 21
10.9792409815
  0
LINE
  5
25E
100
AcDbEntity
  8
0
100
AcDbLine
 62
9
  6
CONTINUOUS
 10
10.6410683383
 20
10.9792409815
 11
8.0733989685
 21
10.9792409815
  0
LINE
  5
25F
100
AcDbEntity
  8
0
100
AcDbLine
 62
7
  6
CONTINUOUS
 10
14.2382345161
 20
11.1052409674
 11
11.4535683383
 21
11.1052409674
  0
LINE
  5
260
100
AcDbEntity
  8
0
100
AcDbLine
 62
7
  6
CONTINUOUS
 10
10.6410683383
 20
11.1052409674
 11
7.8564021604
 21
11.1052409674
  0
LINE
  5
261
100
AcDbEntity
  8
0
100
AcDbLine
 62
7
  6
CONTINUOUS
 10
10.600103371
 20
11.1903838792
 11
11.4945333056
 21
11.1903838792
  0
LINE
  5
262
100
AcDbEntity
  8
0
100
AcDbLine
 62
9
  6
CONTINUOUS
 10
11.4978849088
 20
11.1905716878
 11
10.5967517678
 21
11.1905716878
  0
LINE
  5
263
100
AcDbEntity
  8
0
100
AcDbLine
 62
9
  6
CONTINUOUS
 10
14.4552392802
 20
11.2312437337
 11
11.7742071354
 21
11.2312437337
  0
LINE
  5
264
100
AcDbEntity
  8
0
100
AcDbLine
 62
9
  6
CONTINUOUS
 10
10.3204295411
 20
11.2312437337
 11
7.6393973963
 21
11.2312437337
  0
LINE
  5
265
100
AcDbEntity
  8
0
100
AcDbLine
 62
7
  6
CONTINUOUS
 10
10.600103371
 20
11.1903838792
 11
10.5967517678
 21
11.1905716878
  0
LINE
  5
266
100
AcDbEntity
  8
0
100
AcDbLine
 62
9
  6
CONTINUOUS
 10
12.2007135508
 20
11.3268954572
 11
9.8939231258
 21
11.3268954572
  0
LINE
  5
267
100
AcDbEntity
  8
0
100
AcDbLine
 62
7
  6
CONTINUOUS
 10
14.6723183383
 20
11.3572409815
 11
12.2339000005
 21
11.3572409815
  0
LINE
  5
268
100
AcDbEntity
  8
0
100
AcDbLine
 62
7
  6
CONTINUOUS
 10
9.8607366761
 20
11.3572409815
 11
7.4223183383
 21
11.3572409815
  0
LINE
  5
269
100
AcDbEntity
  8
0
100
AcDbLine
 62
9
  6
CONTINUOUS
 10
12.2373183383
 20
11.3750677343
 11
9.8573183383
 21
11.3750677343
  0
LINE
  5
26A
100
AcDbEntity
  8
0
100
AcDbLine
 62
7
  6
CONTINUOUS
 10
14.9223183383
 20
11.6072409815
 11
7.1723183383
 21
11.6072409815
  0
ARC
  5
26B
100
AcDbEntity
  8
0
100
AcDbCircle
 62
7
  6
CONTINUOUS
 10
8.9585149593
 20
9.4281469329
 40
1.541
100
AcDbArc
 50
10.8813003471
 51
45.7236108955
  0
ARC
  5
26C
100
AcDbEntity
  8
0
100
AcDbCircle
 62
7
  6
CONTINUOUS
 10
10.3170390474
 20
8.7245332156
 40
1.36
100
AcDbArc
 50
337.6438963444
 51
341.2440132164
  0
ARC
  5
26D
100
AcDbEntity
  8
0
100
AcDbCircle
 62
7
  6
CONTINUOUS
 10
10.3190195575
 20
8.254159166
 40
1.36
100
AcDbArc
 50
19.0137742001
 51
22.5744557109
  0
ARC
  5
26E
100
AcDbEntity
  8
0
100
AcDbCircle
 62
7
  6
CONTINUOUS
 10
9.9753490575
 20
4.8977699243
 40
1.0779648233
100
AcDbArc
 50
176.7935586517
 51
188.3559880035
  0
ARC
  5
26F
100
AcDbEntity
  8
0
100
AcDbCircle
 62
7
  6
CONTINUOUS
 10
9.5671794494
 20
8.4922409815
 40
0.9451388889
100
AcDbArc
 50
9.1423956315
 51
12.5269812287
  0
ARC
  5
270
100
AcDbEntity
  8
0
100
AcDbCircle
 62
7
  6
CONTINUOUS
 10
9.5671794494
 20
8.4922409815
 40
0.9451388889
100
AcDbArc
 50
347.4730187713
 51
350.858819326
  0
ARC
  5
271
100
AcDbEntity
  8
0
100
AcDbCircle
 62
9
  6
CONTINUOUS
 10
10.2375232959
 20
5.4851579169
 40
0.8102049577
100
AcDbArc
 50
180.0002041961
 51
181.6980703835
  0
ARC
  5
272
100
AcDbEntity
  8
0
100
AcDbCircle
 62
7
  6
CONTINUOUS
 10
11.0473076729
 20
6.4539789862
 40
0.4890124998
100
AcDbArc
 50
28.6907444767
 51
34.9050359592
  0
ARC
  5
273
100
AcDbEntity
  8
0
100
AcDbCircle
 62
7
  6
CONTINUOUS
 10
10.2111645759
 20
8.4922410011
 40
0.2750000063
100
AcDbArc
 50
35.7906268611
 51
324.2093761734
  0
ARC
  5
274
100
AcDbEntity
  8
0
100
AcDbCircle
 62
7
  6
CONTINUOUS
 10
10.8452398042
 20
7.3425368953
 40
0.2041714687
100
AcDbArc
 50
180.010004066
 51
188.5676655965
  0
ARC
  5
275
100
AcDbEntity
  8
0
100
AcDbCircle
 62
7
  6
CONTINUOUS
 10
10.8332276011
 20
7.2603989268
 40
0.1921591928
100
AcDbArc
 50
180.0027082387
 51
185.1600717799
  0
ARC
  5
276
100
AcDbEntity
  8
0
100
AcDbCircle
 62
7
  6
CONTINUOUS
 10
10.8332228776
 20
7.1578513215
 40
0.1921545253
100
AcDbArc
 50
175.1542216601
 51
179.9969886084
  0
ARC
  5
277
100
AcDbEntity
  8
0
100
AcDbCircle
 62
7
  6
CONTINUOUS
 10
10.8331536867
 20
7.2091678128
 40
0.1920852784
100
AcDbArc
 50
180.0019512401
 51
184.7154193499
  0
ARC
  5
278
100
AcDbEntity
  8
0
100
AcDbCircle
 62
7
  6
CONTINUOUS
 10
10.833056773
 20
7.2091593794
 40
0.1919883645
100
AcDbArc
 50
174.9440268191
 51
179.9994354152
  0
ARC
  5
279
100
AcDbEntity
  8
0
100
AcDbCircle
 62
7
  6
CONTINUOUS
 10
10.8330414915
 20
7.2603882533
 40
0.191973083
100
AcDbArc
 50
175.2078137879
 51
179.9995252882
  0
ARC
  5
27A
100
AcDbEntity
  8
0
100
AcDbCircle
 62
7
  6
CONTINUOUS
 10
10.8330291268
 20
7.1578642521
 40
0.1919607742
100
AcDbArc
 50
180.000845034
 51
184.270123584
  0
ARC
  5
27B
100
AcDbEntity
  8
0
100
AcDbCircle
 62
7
  6
CONTINUOUS
 10
10.8330222426
 20
7.3116745699
 40
0.1919539104
100
AcDbArc
 50
175.492808519
 51
179.9072321517
  0
ARC
  5
27C
100
AcDbEntity
  8
0
100
AcDbCircle
 62
7
  6
CONTINUOUS
 10
10.6598183383
 20
8.0714413285
 40
0.03
100
AcDbArc
 50
189.9855987129
 51
231.2386661149
  0
ARC
  5
27D
100
AcDbEntity
  8
0
100
AcDbCircle
 62
7
  6
CONTINUOUS
 10
10.9951444261
 20
15.6624003973
 40
4.5
100
AcDbArc
 50
276.4144817261
 51
285.5395954904
  0
ARC
  5
27E
100
AcDbEntity
  8
0
100
AcDbCircle
 62
7
  6
CONTINUOUS
 10
7.8564859863
 20
11.3552519308
 40
0.2500109774
100
AcDbArc
 50
209.7364395186
 51
269.9807893772
  0
ARC
  5
27F
100
AcDbEntity
  8
0
100
AcDbCircle
 62
7
  6
CONTINUOUS
 10
7.4223183383
 20
11.6072409815
 40
0.25
100
AcDbArc
 50
180.0
 51
270.0
  0
ARC
  5
280
100
AcDbEntity
  8
0
100
AcDbCircle
 62
7
  6
CONTINUOUS
 10
7.4223183383
 20
11.1072409815
 40
0.25
100
AcDbArc
 50
29.7364395186
 51
90.0
  0
ARC
  5
281
100
AcDbEntity
  8
0
100
AcDbCircle
 62
7
  6
CONTINUOUS
 10
7.8563183383
 20
10.8552409815
 40
0.25
100
AcDbArc
 50
29.7357131076
 51
89.9807893772
  0
ARC
  5
282
100
AcDbEntity
  8
0
100
AcDbCircle
 62
7
  6
CONTINUOUS
 10
8.2904795986
 20
11.1032409815
 40
0.25
100
AcDbArc
 50
209.7357131076
 51
270.0
  0
ARC
  5
283
100
AcDbEntity
  8
0
100
AcDbCircle
 62
7
  6
CONTINUOUS
 10
9.9073183383
 20
11.3750677343
 40
0.05
100
AcDbArc
 50
180.0
 51
254.4604045097
  0
ARC
  5
284
100
AcDbEntity
  8
0
100
AcDbCircle
 62
9
  6
CONTINUOUS
 10
11.0608421253
 20
6.5756450217
 40
2.5141177458
100
AcDbArc
 50
278.956719941
 51
280.908178954
  0
ARC
  5
285
100
AcDbEntity
  8
0
100
AcDbCircle
 62
7
  6
CONTINUOUS
 10
13.1361217173
 20
9.4281469329
 40
1.541
100
AcDbArc
 50
134.2763891045
 51
169.1186996529
  0
ARC
  5
286
100
AcDbEntity
  8
0
100
AcDbCircle
 62
7
  6
CONTINUOUS
 10
11.7775976292
 20
8.7245332156
 40
1.36
100
AcDbArc
 50
198.7559867836
 51
202.3561036556
  0
ARC
  5
287
100
AcDbEntity
  8
0
100
AcDbCircle
 62
7
  6
CONTINUOUS
 10
11.7756171191
 20
8.254159166
 40
1.36
100
AcDbArc
 50
157.4255442891
 51
160.9862257999
  0
ARC
  5
288
100
AcDbEntity
  8
0
100
AcDbCircle
 62
7
  6
CONTINUOUS
 10
12.1192960044
 20
4.8977695384
 40
1.0779564449
100
AcDbArc
 50
351.6439638301
 51
3.2064868033
  0
ARC
  5
289
100
AcDbEntity
  8
0
100
AcDbCircle
 62
7
  6
CONTINUOUS
 10
12.5274572272
 20
8.4922409815
 40
0.9451388889
100
AcDbArc
 50
167.4730187713
 51
170.8610121077
  0
ARC
  5
28A
100
AcDbEntity
  8
0
100
AcDbCircle
 62
7
  6
CONTINUOUS
 10
12.5274572272
 20
8.4922409815
 40
0.9451388889
100
AcDbArc
 50
189.1400261743
 51
192.5269812287
  0
ARC
  5
28B
100
AcDbEntity
  8
0
100
AcDbCircle
 62
7
  6
CONTINUOUS
 10
11.0761331715
 20
6.8457699807
 40
0.5620683818
100
AcDbArc
 50
291.1908607823
 51
292.2069151686
  0
ARC
  5
28C
100
AcDbEntity
  8
0
100
AcDbCircle
 62
7
  6
CONTINUOUS
 10
11.07831892
 20
6.8140607189
 40
0.5298596695
100
AcDbArc
 50
292.2054687428
 51
293.283970416
  0
ARC
  5
28D
100
AcDbEntity
  8
0
100
AcDbCircle
 62
7
  6
CONTINUOUS
 10
11.0473249962
 20
6.4539814258
 40
0.4890078131
100
AcDbArc
 50
145.0971251232
 51
151.3092808493
  0
ARC
  5
28E
100
AcDbEntity
  8
0
100
AcDbCircle
 62
7
  6
CONTINUOUS
 10
11.8834720883
 20
8.4922409815
 40
0.275
100
AcDbArc
 50
215.7906343307
 51
144.2093642836
  0
ARC
  5
28F
100
AcDbEntity
  8
0
100
AcDbCircle
 62
7
  6
CONTINUOUS
 10
11.2160957907
 20
7.3538755102
 40
0.2395301977
100
AcDbArc
 50
332.6993954707
 51
332.9171822951
  0
ARC
  5
290
100
AcDbEntity
  8
0
100
AcDbCircle
 62
7
  6
CONTINUOUS
 10
11.2379907624
 20
7.2860148898
 40
0.2155775066
100
AcDbArc
 50
0.0051607635
 51
7.4215915274
  0
ARC
  5
291
100
AcDbEntity
  8
0
100
AcDbCircle
 62
7
  6
CONTINUOUS
 10
11.2383345514
 20
7.1834242004
 40
0.2152337168
100
AcDbArc
 50
0.0017405633
 51
4.6423995228
  0
ARC
  5
292
100
AcDbEntity
  8
0
100
AcDbCircle
 62
7
  6
CONTINUOUS
 10
11.2384386297
 20
7.2347634948
 40
0.2151296385
100
AcDbArc
 50
0.0014412737
 51
4.4192751966
  0
ARC
  5
293
100
AcDbEntity
  8
0
100
AcDbCircle
 62
7
  6
CONTINUOUS
 10
11.2384950469
 20
7.2860359617
 40
0.2150732212
100
AcDbArc
 50
355.191352894
 51
359.9995592905
  0
ARC
  5
294
100
AcDbEntity
  8
0
100
AcDbCircle
 62
7
  6
CONTINUOUS
 10
11.2385061213
 20
7.1834316191
 40
0.2150621468
100
AcDbArc
 50
356.0148897539
 51
359.9997655125
  0
ARC
  5
295
100
AcDbEntity
  8
0
100
AcDbCircle
 62
7
  6
CONTINUOUS
 10
11.2385489539
 20
7.2347701263
 40
0.2150193143
100
AcDbArc
 50
355.6088880475
 51
359.9996749198
  0
ARC
  5
296
100
AcDbEntity
  8
0
100
AcDbCircle
 62
7
  6
CONTINUOUS
 10
11.686777987
 20
8.5822184392
 40
0.1060225423
100
AcDbArc
 50
87.9370074935
 51
89.9996063811
  0
ARC
  5
297
100
AcDbEntity
  8
0
100
AcDbCircle
 62
7
  6
CONTINUOUS
 10
11.6867779918
 20
8.4022634356
 40
0.1060224542
100
AcDbArc
 50
270.0003910233
 51
272.0592164341
  0
ARC
  5
298
100
AcDbEntity
  8
0
100
AcDbCircle
 62
7
  6
CONTINUOUS
 10
11.4348183383
 20
8.0714413285
 40
0.03
100
AcDbArc
 50
308.7613338851
 51
350.0144012871
  0
ARC
  5
299
100
AcDbEntity
  8
0
100
AcDbCircle
 62
7
  6
CONTINUOUS
 10
11.0994922504
 20
15.6624003973
 40
4.5
100
AcDbArc
 50
254.4604045096
 51
263.5855182739
  0
ARC
  5
29A
100
AcDbEntity
  8
0
100
AcDbCircle
 62
7
  6
CONTINUOUS
 10
14.2381506903
 20
11.3552519308
 40
0.2500109774
100
AcDbArc
 50
270.0192106228
 51
330.2635604814
  0
ARC
  5
29B
100
AcDbEntity
  8
0
100
AcDbCircle
 62
7
  6
CONTINUOUS
 10
14.6723183383
 20
11.6072409815
 40
0.25
100
AcDbArc
 50
270.0
 51
360.0
  0
ARC
  5
29C
100
AcDbEntity
  8
0
100
AcDbCircle
 62
7
  6
CONTINUOUS
 10
14.6723183383
 20
11.1072409815
 40
0.25
100
AcDbArc
 50
90.0
 51
150.2635604814
  0
ARC
  5
29D
100
AcDbEntity
  8
0
100
AcDbCircle
 62
7
  6
CONTINUOUS
 10
14.2383183383
 20
10.8552409815
 40
0.25
100
AcDbArc
 50
90.0192106228
 51
150.2642868924
  0
ARC
  5
29E
100
AcDbEntity
  8
0
100
AcDbCircle
 62
7
  6
CONTINUOUS
 10
13.8041570779
 20
11.1032409815
 40
0.25
100
AcDbArc
 50
270.0
 51
330.2642868924
  0
ARC
  5
29F
100
AcDbEntity
  8
0
100
AcDbCircle
 62
7
  6
CONTINUOUS
 10
12.1873183383
 20
11.3750677343
 40
0.05
100
AcDbArc
 50
285.5395954903
 51
360.0
  0
SPLINE
  5
2A0
100
AcDbEntity
  8
0
100
AcDbSpline
 62
7
  6
CONTINUOUS
 70
0
 71
3
 72
28
 73
24
 74
0
 42
0.0000001
 43
0.0000001
 44
0.0000000001
 40
0.0
 40
0.0
 40
0.0
 40
0.0
 40
0.0253211472
 40
0.0507083271
 40
0.0762264554
 40
0.1019382713
 40
0.1279032048
 40
0.1541767326
 40
0.1808094136
 40
0.2078466489
 40
0.2353279677
 40
0.2632870218
 40
0.3207201179
 40
0.380318805
 40
0.442138694
 40
0.5061509614
 40
0.5722516156
 40
0.6402720196
 40
0.7099889984
 40
0.7811347848
 40
0.853407193
 40
0.9264765654
 40
1.0
 40
1.0
 40
1.0
 40
1.0
 10
10.6410683779
 20
7.1435459955
 30
0.0
 10
10.6410684138
 20
7.1389742176
 30
0.0
 10
10.6413956782
 20
7.1298153844
 30
0.0
 10
10.6428670232
 20
7.116120361
 30
0.0
 10
10.6453147651
 20
7.1024935409
 30
0.0
 10
10.6487332791
 20
7.0889701446
 30
0.0
 10
10.6531133058
 20
7.0755835912
 30
0.0
 10
10.6584445083
 20
7.062367585
 30
0.0
 10
10.6647130366
 20
7.0493547295
 30
0.0
 10
10.6719037265
 20
7.0365776272
 30
0.0
 10
10.6799989054
 20
7.0240674016
 30
0.0
 10
10.6920775427
 20
7.0076404789
 30
0.0
 10
10.7094039145
 20
6.9879366074
 30
0.0
 10
10.7332430076
 20
6.9660720107
 30
0.0
 10
10.7600881148
 20
6.9459787693
 30
0.0
 10
10.7896786044
 20
6.927853781
 30
0.0
 10
10.8217314571
 20
6.9118727427
 30
0.0
 10
10.8559401443
 20
6.8981929525
 30
0.0
 10
10.8919780732
 20
6.8869504179
 30
0.0
 10
10.9295009776
 20
6.8782585696
 30
0.0
 10
10.9681509473
 20
6.8722072524
 30
0.0
 10
11.0075563649
 20
6.8688609296
 30
0.0
 10
11.0340460709
 20
6.8684604626
 30
0.0
 10
11.0473183383
 20
6.8687190447
 30
0.0
  0
SPLINE
  5
2A1
100
AcDbEntity
  8
0
100
AcDbSpline
 62
7
  6
CONTINUOUS
 70
0
 71
3
 72
15
 73
11
 74
0
 42
0.0000001
 43
0.0000001
 44
0.0000000001
 40
0.0
 40
0.0
 40
0.0
 40
0.0
 40
0.1196855839
 40
0.2399228065
 40
0.3612464755
 40
0.4841603881
 40
0.6091219347
 40
0.7365299654
 40
0.8667405953
 40
1.0
 40
1.0
 40
1.0
 40
1.0
 10
10.6410683806
 20
7.1932751955
 30
0.0
 10
10.6410684322
 20
7.1871869248
 30
0.0
 10
10.6416500759
 20
7.1749744264
 30
0.0
 10
10.644262222
 20
7.1567586725
 30
0.0
 10
10.6486019627
 20
7.1387057077
 30
0.0
 10
10.6546493642
 20
7.1208984112
 30
0.0
 10
10.6623768275
 20
7.1034156072
 30
0.0
 10
10.6717496657
 20
7.0863335516
 30
0.0
 10
10.6827255241
 20
7.0697292628
 30
0.0
 10
10.6909809118
 20
7.0591515033
 30
0.0
 10
10.6953467171
 20
7.0539658238
 30
0.0
  0
SPLINE
  5
2A2
100
AcDbEntity
  8
0
100
AcDbSpline
 62
7
  6
CONTINUOUS
 70
0
 71
3
 72
27
 73
23
 74
0
 42
0.0000001
 43
0.0000001
 44
0.0000000001
 40
0.0
 40
0.0
 40
0.0
 40
0.0
 40
0.0253223091
 40
0.0507105798
 40
0.0762297191
 40
0.1019424853
 40
0.1279083043
 40
0.1541826281
 40
0.1808160946
 40
0.2078540161
 40
0.2632710165
 40
0.3207053301
 40
0.3803051839
 40
0.4421262186
 40
0.5061396579
 40
0.5722415453
 40
0.6402632837
 40
0.7099817082
 40
0.7811290848
 40
0.8534032173
 40
0.9264745376
 40
1.0
 40
1.0
 40
1.0
 40
1.0
 10
10.6410684085
 20
7.2429926138
 30
0.0
 10
10.6410684085
 20
7.2384207603
 30
0.0
 10
10.6413956378
 20
7.2292617854
 30
0.0
 10
10.6428670369
 20
7.2155665807
 30
0.0
 10
10.6453147931
 20
7.2019396177
 30
0.0
 10
10.648733238
 20
7.1884160974
 30
0.0
 10
10.6531134076
 20
7.1750295056
 30
0.0
 10
10.658444408
 20
7.1618134754
 30
0.0
 10
10.6647133092
 20
7.1488004595
 30
0.0
 10
10.6743779693
 20
7.131626437
 30
0.0
 10
10.6888004014
 20
7.110811836
 30
0.0
 10
10.7094028656
 20
7.0873848386
 30
0.0
 10
10.7332434146
 20
7.0655185301
 30
0.0
 10
10.7600881435
 20
7.0454265295
 30
0.0
 10
10.7896787559
 20
7.0273020951
 30
0.0
 10
10.8217315795
 20
7.0113219461
 30
0.0
 10
10.855940272
 20
6.9976430846
 30
0.0
 10
10.891978192
 20
6.986401593
 30
0.0
 10
10.9295010834
 20
6.977710873
 30
0.0
 10
10.9681510443
 20
6.9716607631
 30
0.0
 10
11.0075564419
 20
6.9683157291
 30
0.0
 10
11.0340461033
 20
6.9679161569
 30
0.0
 10
11.0473183383
 20
6.9681751956
 30
0.0
  0
SPLINE
  5
2A3
100
AcDbEntity
  8
0
100
AcDbSpline
 62
7
  6
CONTINUOUS
 70
0
 71
3
 72
40
 73
36
 74
0
 42
0.0000001
 43
0.0000001
 44
0.0000000001
 40
0.0
 40
0.0
 40
0.0
 40
0.0
 40
0.0627491655
 40
0.0951659205
 40
0.128207561
 40
0.1618143123
 40
0.1959176606
 40
0.2304404628
 40
0.2652985615
 40
0.3004023328
 40
0.3356580449
 40
0.3709691781
 40
0.4062378256
 40
0.4413661352
 40
0.4762574937
 40
0.5108181337
 40
0.5449583927
 40
0.5785941217
 40
0.6116482728
 40
0.6440523028
 40
0.6757477773
 40
0.7066880444
 40
0.7368397622
 40
0.7661845706
 40
0.7947208037
 40
0.8224648114
 40
0.8494523844
 40
0.8757394687
 40
0.9014023458
 40
0.926537024
 40
0.9512574883
 40
0.9635065335
 40
0.9757014001
 40
0.9878598467
 40
1.0
 40
1.0
 40
1.0
 40
1.0
 10
11.3431286757
 20
7.1147744769
 30
0.0
 10
11.3289736317
 20
7.1037390978
 30
0.0
 10
11.3062572509
 20
7.0885427164
 30
0.0
 10
11.2739490582
 20
7.0711644528
 30
0.0
 10
11.248190711
 20
7.0593086486
 30
0.0
 10
11.2213229319
 20
7.0488421472
 30
0.0
 10
11.1934915606
 20
7.0398170814
 30
0.0
 10
11.1648513991
 20
7.0322804194
 30
0.0
 10
11.1355607603
 20
7.0262701462
 30
0.0
 10
11.1057818376
 20
7.0218161069
 30
0.0
 10
11.0756794452
 20
7.0189395451
 30
0.0
 10
11.0454202245
 20
7.0176530445
 30
0.0
 10
11.0151716774
 20
7.017960451
 30
0.0
 10
10.9851012653
 20
7.0198568094
 30
0.0
 10
10.9553754256
 20
7.0233283357
 30
0.0
 10
10.9261586784
 20
7.0283526238
 30
0.0
 10
10.8976126899
 20
7.0348987158
 30
0.0
 10
10.8698954014
 20
7.0429273495
 30
0.0
 10
10.8431601617
 20
7.0523911579
 30
0.0
 10
10.8175548715
 20
7.0632349415
 30
0.0
 10
10.7932211629
 20
7.0753959613
 30
0.0
 10
10.7702937059
 20
7.0888044259
 30
0.0
 10
10.7488995105
 20
7.1033838383
 30
0.0
 10
10.7291573486
 20
7.1190514805
 30
0.0
 10
10.7111772072
 20
7.1357188029
 30
0.0
 10
10.6950597518
 20
7.1532918055
 30
0.0
 10
10.6808959073
 20
7.1716714641
 30
0.0
 10
10.6687665
 20
7.1907538858
 30
0.0
 10
10.6587417367
 20
7.2104312993
 30
0.0
 10
10.6508809488
 20
7.2305895698
 30
0.0
 10
10.6461576071
 20
7.2477509799
 30
0.0
 10
10.6435176903
 20
7.2615692994
 30
0.0
 10
10.6421052483
 20
7.2719484744
 30
0.0
 10
10.6412569488
 20
7.2823571202
 30
0.0
 10
10.6410684137
 20
7.2893088322
 30
0.0
 10
10.6410684083
 20
7.2927813287
 30
0.0
  0
SPLINE
  5
2A4
100
AcDbEntity
  8
0
100
AcDbSpline
 62
7
  6
CONTINUOUS
 70
0
 71
3
 72
19
 73
15
 74
0
 42
0.0000001
 43
0.0000001
 44
0.0000000001
 40
0.0
 40
0.0
 40
0.0
 40
0.0
 40
0.0580888711
 40
0.1164535164
 40
0.1751788686
 40
0.2343458356
 40
0.2940301608
 40
0.3543022563
 40
0.4152261518
 40
0.4768596474
 40
0.602417136
 40
0.7313350586
 40
0.8638301528
 40
1.0
 40
1.0
 40
1.0
 40
1.0
 10
11.4449584438
 20
7.2836839499
 30
0.0
 10
11.4445017535
 20
7.2797938936
 30
0.0
 10
11.4433651644
 20
7.2720194862
 30
0.0
 10
11.4410034059
 20
7.2604402641
 30
0.0
 10
11.4379865663
 20
7.2489387538
 30
0.0
 10
11.4343198584
 20
7.2375344045
 30
0.0
 10
11.4300107373
 20
7.2262453794
 30
0.0
 10
11.4250664993
 20
7.215090288
 30
0.0
 10
11.4194964205
 20
7.2040865763
 30
0.0
 10
11.4111981653
 20
7.1895532312
 30
0.0
 10
11.3992720038
 20
7.1718448484
 30
0.0
 10
11.3827315162
 20
7.1516203281
 30
0.0
 10
11.3639866577
 20
7.1324115342
 30
0.0
 10
11.3502891446
 20
7.1205215346
 30
0.0
 10
11.3431286757
 20
7.1147744769
 30
0.0
  0
SPLINE
  5
2A5
100
AcDbEntity
  8
0
100
AcDbSpline
 62
7
  6
CONTINUOUS
 70
0
 71
3
 72
15
 73
11
 74
0
 42
0.0000001
 43
0.0000001
 44
0.0000000001
 40
0.0
 40
0.0
 40
0.0
 40
0.0
 40
0.1226583933
 40
0.2455758356
 40
0.3689445378
 40
0.4929858605
 40
0.6179199067
 40
0.7439459538
 40
0.8712488521
 40
1.0
 40
1.0
 40
1.0
 40
1.0
 10
11.4535680927
 20
7.3421853913
 30
0.0
 10
11.4535616552
 20
7.3380454787
 30
0.0
 10
11.4532948359
 20
7.3297550893
 30
0.0
 10
11.452135409
 20
7.3173493567
 30
0.0
 10
11.4502176822
 20
7.3049903895
 30
0.0
 10
11.4475461257
 20
7.2927027791
 30
0.0
 10
11.4441254433
 20
7.2805092872
 30
0.0
 10
11.4399627644
 20
7.2684323517
 30
0.0
 10
11.4350655683
 20
7.2564954255
 30
0.0
 10
11.4313397865
 20
7.2486917656
 30
0.0
 10
11.429361353
 20
7.2448226993
 30
0.0
  0
SPLINE
  5
2A6
100
AcDbEntity
  8
0
100
AcDbSpline
 62
7
  6
CONTINUOUS
 70
0
 71
3
 72
21
 73
17
 74
0
 42
0.0000001
 43
0.0000001
 44
0.0000000001
 40
0.0
 40
0.0
 40
0.0
 40
0.0
 40
0.0525274617
 40
0.1063574089
 40
0.1616111619
 40
0.2183692498
 40
0.3364412647
 40
0.3978086346
 40
0.4606287286
 40
0.5248096281
 40
0.5902345728
 40
0.6567650596
 40
0.7242442466
 40
0.7925007725
 40
0.8613492734
 40
1.0
 40
1.0
 40
1.0
 40
1.0
 10
11.428945293
 20
7.244012846
 30
0.0
 10
11.4253631358
 20
7.2370727099
 30
0.0
 10
11.4174186248
 20
7.2233669093
 30
0.0
 10
11.4034876008
 20
7.2037509425
 30
0.0
 10
11.3874858114
 20
7.1849485584
 30
0.0
 10
11.3632082269
 20
7.1608020128
 30
0.0
 10
11.3354135784
 20
7.1390796034
 30
0.0
 10
11.3048545175
 20
7.1199769048
 30
0.0
 10
11.2801393072
 20
7.1067538238
 30
0.0
 10
11.2540777855
 20
7.0949031452
 30
0.0
 10
11.2268180113
 20
7.0844906105
 30
0.0
 10
11.19851854
 20
7.075576616
 30
0.0
 10
11.1693435395
 20
7.0682122246
 30
0.0
 10
11.1394601017
 20
7.0624398386
 30
0.0
 10
11.0988212219
 20
7.0568985975
 30
0.0
 10
11.0679337105
 20
7.0552391163
 30
0.0
 10
11.0473183383
 20
7.0552391163
 30
0.0
  0
SPLINE
  5
2A7
100
AcDbEntity
  8
0
100
AcDbSpline
 62
7
  6
CONTINUOUS
 70
0
 71
3
 72
27
 73
23
 74
0
 42
0.0000001
 43
0.0000001
 44
0.0000000001
 40
0.0
 40
0.0
 40
0.0
 40
0.0
 40
0.0717276393
 40
0.1431552056
 40
0.2139907149
 40
0.2839530261
 40
0.3527811163
 40
0.420239563
 40
0.4861255981
 40
0.5502763079
 40
0.6125756107
 40
0.6729616866
 40
0.731433703
 40
0.7880580084
 40
0.8157277631
 40
0.8429933896
 40
0.8698835822
 40
0.896431391
 40
0.9226742431
 40
0.948653137
 40
0.9744121967
 40
1.0
 40
1.0
 40
1.0
 40
1.0
 10
11.0473183383
 20
7.0552391163
 30
0.0
 10
11.034931398
 20
7.0552391163
 30
0.0
 10
11.0102018136
 20
7.0560383406
 30
0.0
 10
10.9733965132
 20
7.0596275638
 30
0.0
 10
10.9372048847
 20
7.0655765086
 30
0.0
 10
10.9019300135
 20
7.0738361943
 30
0.0
 10
10.8678648863
 20
7.0843383945
 30
0.0
 10
10.8352929644
 20
7.0969966872
 30
0.0
 10
10.8044851546
 20
7.1117070652
 30
0.0
 10
10.7756978461
 20
7.1283490497
 30
0.0
 10
10.7491710974
 20
7.1467865051
 30
0.0
 10
10.7251263696
 20
7.1668698029
 30
0.0
 10
10.7037673443
 20
7.1884332962
 30
0.0
 10
10.6882348378
 20
7.2076434246
 30
0.0
 10
10.6773698809
 20
7.2235630899
 30
0.0
 10
10.670057373
 20
7.2356636429
 30
0.0
 10
10.6635353296
 20
7.2479891287
 30
0.0
 10
10.6578177347
 20
7.2605143036
 30
0.0
 10
10.6529166818
 20
7.2732126405
 30
0.0
 10
10.6488429189
 20
7.2860576472
 30
0.0
 10
10.6456050305
 20
7.299021469
 30
0.0
 10
10.6440040326
 20
7.3077502687
 30
0.0
 10
10.643346764
 20
7.3121199764
 30
0.0
  0
SPLINE
  5
2A8
100
AcDbEntity
  8
0
100
AcDbSpline
 62
7
  6
CONTINUOUS
 70
0
 71
3
 72
14
 73
10
 74
0
 42
0.0000001
 43
0.0000001
 44
0.0000000001
 40
0.0
 40
0.0
 40
0.0
 40
0.0
 40
0.2619266218
 40
0.3896839384
 40
0.5153250319
 40
0.6389784178
 40
0.7608240187
 40
0.881081579
 40
1.0
 40
1.0
 40
1.0
 40
1.0
 10
10.5677137453
 20
8.3767772308
 30
0.0
 10
10.5720458429
 20
8.3688179863
 30
0.0
 10
10.5793025937
 20
8.3573830666
 30
0.0
 10
10.5905032631
 20
8.3434952248
 30
0.0
 10
10.5994756341
 20
8.3340054843
 30
0.0
 10
10.6090497484
 20
8.3254266062
 30
0.0
 10
10.6191854056
 20
8.3178223805
 30
0.0
 10
10.6298318685
 20
8.3112584423
 30
0.0
 10
10.6372705622
 20
8.3075987643
 30
0.0
 10
10.6410478248
 20
8.3059681498
 30
0.0
  0
SPLINE
  5
2A9
100
AcDbEntity
  8
0
100
AcDbSpline
 62
7
  6
CONTINUOUS
 70
0
 71
3
 72
14
 73
10
 74
0
 42
0.0000001
 43
0.0000001
 44
0.0000000001
 40
0.0
 40
0.0
 40
0.0
 40
0.0
 40
0.1189189125
 40
0.2391769312
 40
0.3610228882
 40
0.4846764594
 40
0.610317528
 40
0.7380745825
 40
1.0
 40
1.0
 40
1.0
 40
1.0
 10
10.6410466888
 20
8.6785133222
 30
0.0
 10
10.6372697472
 20
8.6768828005
 30
0.0
 10
10.629831677
 20
8.6732233782
 30
0.0
 10
10.6191860664
 20
8.6666599957
 30
0.0
 10
10.6090511726
 20
8.6590564884
 30
0.0
 10
10.5994777241
 20
8.650478476
 30
0.0
 10
10.590505915
 20
8.6409897349
 30
0.0
 10
10.5793058596
 20
8.6271034087
 30
0.0
 10
10.5720493739
 20
8.6156697494
 30
0.0
 10
10.5677173631
 20
8.6077113793
 30
0.0
  0
SPLINE
  5
2AA
100
AcDbEntity
  8
0
100
AcDbSpline
 62
7
  6
CONTINUOUS
 70
0
 71
3
 72
26
 73
22
 74
0
 42
0.0000001
 43
0.0000001
 44
0.0000000001
 40
0.0
 40
0.0
 40
0.0
 40
0.0
 40
0.0641859636
 40
0.1340318508
 40
0.2081935473
 40
0.2854072062
 40
0.3644529316
 40
0.444151218
 40
0.6007342218
 40
0.6753005049
 40
0.7456974446
 40
0.8105876225
 40
0.8405352638
 40
0.8685699406
 40
0.8944994222
 40
0.9181269959
 40
0.939252575
 40
0.9576688507
 40
0.9855239638
 40
0.9945430006
 40
1.0
 40
1.0
 40
1.0
 40
1.0
 10
10.5238605774
 20
8.6073032617
 30
0.0
 10
10.5249396836
 20
8.6069175702
 30
0.0
 10
10.527220123
 20
8.6061864962
 30
0.0
 10
10.5308240754
 20
8.6052675465
 30
0.0
 10
10.5347070518
 20
8.6045311673
 30
0.0
 10
10.5387904361
 20
8.6040107138
 30
0.0
 10
10.5429972769
 20
8.6037388679
 30
0.0
 10
10.5486295709
 20
8.603718186
 30
0.0
 10
10.5541747279
 20
8.6042075125
 30
0.0
 10
10.5594734723
 20
8.6051752067
 30
0.0
 10
10.5631126439
 20
8.6060764502
 30
0.0
 10
10.5659299758
 20
8.6069582092
 30
0.0
 10
10.5679898525
 20
8.6077136974
 30
0.0
 10
10.569380247
 20
8.608272208
 30
0.0
 10
10.5706496004
 20
8.608827577
 30
0.0
 10
10.5717894614
 20
8.6093695529
 30
0.0
 10
10.5727928702
 20
8.609884897
 30
0.0
 10
10.5738461271
 20
8.6104669542
 30
0.0
 10
10.5746901867
 20
8.6109802785
 30
0.0
 10
10.5753161168
 20
8.6114039958
 30
0.0
 10
10.575525762
 20
8.6115552313
 30
0.0
 10
10.5756036047
 20
8.6116138208
 30
0.0
  0
SPLINE
  5
2AB
100
AcDbEntity
  8
0
100
AcDbSpline
 62
7
  6
CONTINUOUS
 70
0
 71
3
 72
26
 73
22
 74
0
 42
0.0000001
 43
0.0000001
 44
0.0000000001
 40
0.0
 40
0.0
 40
0.0
 40
0.0
 40
0.1415234417
 40
0.2115455982
 40
0.2806539202
 40
0.348592263
 40
0.4151451453
 40
0.4801473853
 40
0.5434928117
 40
0.6051409838
 40
0.6651219707
 40
0.7235369958
 40
0.780555403
 40
0.8086242387
 40
0.8364344231
 40
0.8640220638
 40
0.8914249998
 40
0.9186829795
 40
0.9458369427
 40
0.972928521
 40
1.0
 40
1.0
 40
1.0
 40
1.0
 10
10.5511371818
 20
8.4922409815
 30
0.0
 10
10.5511371818
 20
8.505072495
 30
0.0
 10
10.5497736791
 20
8.5242919291
 30
0.0
 10
10.5452160214
 20
8.5493425808
 30
0.0
 10
10.540485837
 20
8.5675311964
 30
0.0
 10
10.5344722888
 20
8.5850037307
 30
0.0
 10
10.5272237106
 20
8.6015976611
 30
0.0
 10
10.5187974156
 20
8.6171556111
 30
0.0
 10
10.5092583433
 20
8.631529146
 30
0.0
 10
10.4986790435
 20
8.6445774031
 30
0.0
 10
10.4871395022
 20
8.6561667298
 30
0.0
 10
10.4747317939
 20
8.666168565
 30
0.0
 10
10.4636913657
 20
8.6731180878
 30
0.0
 10
10.4545528343
 20
8.6777421763
 30
0.0
 10
10.4475920667
 20
8.6807253712
 30
0.0
 10
10.4405087954
 20
8.683228889
 30
0.0
 10
10.4333228022
 20
8.685242748
 30
0.0
 10
10.4260554881
 20
8.6867581752
 30
0.0
 10
10.4187291664
 20
8.6877681702
 30
0.0
 10
10.4113677328
 20
8.6882682947
 30
0.0
 10
10.4064522576
 20
8.6882600325
 30
0.0
 10
10.4039993914
 20
8.6881707314
 30
0.0
  0
SPLINE
  5
2AC
100
AcDbEntity
  8
0
100
AcDbSpline
 62
7
  6
CONTINUOUS
 70
0
 71
3
 72
41
 73
37
 74
0
 42
0.0000001
 43
0.0000001
 44
0.0000000001
 40
0.0
 40
0.0
 40
0.0
 40
0.0
 40
0.000690248
 40
0.001088416
 40
0.0025465977
 40
0.0050339631
 40
0.0085202685
 40
0.0129760728
 40
0.0183721755
 40
0.0246772593
 40
0.031859779
 40
0.0398888459
 40
0.0487342769
 40
0.0583663443
 40
0.0798679573
 40
0.1041540002
 40
0.1309925754
 40
0.1601573551
 40
0.1914271747
 40
0.224588481
 40
0.2957633352
 40
0.3333919285
 40
0.3721257312
 40
0.452178911
 40
0.4931546565
 40
0.5345299042
 40
0.5761362512
 40
0.6178047856
 40
0.6593668507
 40
0.7006548547
 40
0.7414991666
 40
0.7817263386
 40
0.821160552
 40
0.8596245382
 40
0.9328930728
 40
1.0
 40
1.0
 40
1.0
 40
1.0
 10
10.5756468803
 20
8.3728364709
 30
0.0
 10
10.5756564113
 20
8.3728285869
 30
0.0
 10
10.5756892448
 20
8.3728021954
 30
0.0
 10
10.5756355539
 20
8.3728445024
 30
0.0
 10
10.5755872861
 20
8.3728803474
 30
0.0
 10
10.5754718054
 20
8.3729658239
 30
0.0
 10
10.5753231397
 20
8.3730712452
 30
0.0
 10
10.5751247854
 20
8.373207828
 30
0.0
 10
10.57488404
 20
8.3733675368
 30
0.0
 10
10.574598965
 20
8.373550293
 30
0.0
 10
10.5742711379
 20
8.3737531665
 30
0.0
 10
10.573900961
 20
8.3739741907
 30
0.0
 10
10.5734892351
 20
8.3742110823
 30
0.0
 10
10.5728624218
 20
8.3745580866
 30
0.0
 10
10.5719816352
 20
8.3750172904
 30
0.0
 10
10.5708088283
 20
8.3755819976
 30
0.0
 10
10.5694924832
 20
8.3761634407
 30
0.0
 10
10.5680421028
 20
8.3767491772
 30
0.0
 10
10.5664673275
 20
8.3773273168
 30
0.0
 10
10.5641595157
 20
8.3780894386
 30
0.0
 10
10.5617054056
 20
8.3787676534
 30
0.0
 10
10.5591262872
 20
8.3793507957
 30
0.0
 10
10.556373044
 20
8.3798785899
 30
0.0
 10
10.5535361708
 20
8.3802810959
 30
0.0
 10
10.5506380819
 20
8.3805513339
 30
0.0
 10
10.5484203573
 20
8.3806846938
 30
0.0
 10
10.5461871332
 20
8.380747118
 30
0.0
 10
10.5439496966
 20
8.3807380993
 30
0.0
 10
10.5417193948
 20
8.3806573519
 30
0.0
 10
10.5395076951
 20
8.3805042263
 30
0.0
 10
10.5373259216
 20
8.380282081
 30
0.0
 10
10.5351853078
 20
8.3799947129
 30
0.0
 10
10.5330970318
 20
8.3796460023
 30
0.0
 10
10.5304408388
 20
8.379112158
 30
0.0
 10
10.5273303976
 20
8.3783309129
 30
0.0
 10
10.5249326878
 20
8.3775633814
 30
0.0
 10
10.5238008133
 20
8.3771571882
 30
0.0
  0
SPLINE
  5
2AD
100
AcDbEntity
  8
0
100
AcDbSpline
 62
7
  6
CONTINUOUS
 70
0
 71
3
 72
26
 73
22
 74
0
 42
0.0000001
 43
0.0000001
 44
0.0000000001
 40
0.0
 40
0.0
 40
0.0
 40
0.0
 40
0.0270711639
 40
0.0541625369
 40
0.0813163781
 40
0.1085743555
 40
0.135977343
 40
0.1635651141
 40
0.1913755002
 40
0.219444563
 40
0.2764635634
 40
0.3348792364
 40
0.3948608362
 40
0.4565095229
 40
0.5198553061
 40
0.58485771
 40
0.6514105493
 40
0.7193486411
 40
0.7884565188
 40
0.8584780712
 40
1.0
 40
1.0
 40
1.0
 40
1.0
 10
10.4040165915
 20
8.2963106137
 30
0.0
 10
10.4064692887
 20
8.2962217202
 30
0.0
 10
10.4113844066
 20
8.2962142157
 30
0.0
 10
10.4187452383
 20
8.2967154653
 30
0.0
 10
10.426070915
 20
8.2977264806
 30
0.0
 10
10.4333375528
 20
8.299242818
 30
0.0
 10
10.4405228299
 20
8.3012575418
 30
0.0
 10
10.44760537
 20
8.3037618026
 30
0.0
 10
10.4545653883
 20
8.3067456583
 30
0.0
 10
10.4637028998
 20
8.311370531
 30
0.0
 10
10.4747420412
 20
8.3183207841
 30
0.0
 10
10.4871482277
 20
8.3283231595
 30
0.0
 10
10.4986862999
 20
8.339912708
 30
0.0
 10
10.5092642125
 20
8.352960889
 30
0.0
 10
10.5188020036
 20
8.3673340727
 30
0.0
 10
10.5272271409
 20
8.3828914228
 30
0.0
 10
10.5344747026
 20
8.3994845318
 30
0.0
 10
10.5404873921
 20
8.4169560527
 30
0.0
 10
10.5452168921
 20
8.4351434943
 30
0.0
 10
10.5497738794
 20
8.4601923943
 30
0.0
 10
10.5511371818
 20
8.4794104158
 30
0.0
 10
10.5511371818
 20
8.4922409815
 30
0.0
  0
SPLINE
  5
2AE
100
AcDbEntity
  8
0
100
AcDbSpline
 62
7
  6
CONTINUOUS
 70
0
 71
3
 72
14
 73
10
 74
0
 42
0.0000001
 43
0.0000001
 44
0.0000000001
 40
0.0
 40
0.0
 40
0.0
 40
0.0
 40
0.1189271535
 40
0.2391915194
 40
0.361041438
 40
0.4846963747
 40
0.6103359682
 40
0.7380889454
 40
1.0
 40
1.0
 40
1.0
 40
1.0
 10
11.4535723683
 20
8.305961032
 30
0.0
 10
11.4573456535
 20
8.3075892594
 30
0.0
 10
11.4647766511
 20
8.3112433662
 30
0.0
 10
11.4754129083
 20
8.3177967193
 30
0.0
 10
11.4855396769
 20
8.3253883277
 30
0.0
 10
11.4951063562
 20
8.3339527493
 30
0.0
 10
11.5040728326
 20
8.3434264209
 30
0.0
 10
11.515267703
 20
8.3572906642
 30
0.0
 10
11.5225228774
 20
8.3687065597
 30
0.0
 10
11.5268551464
 20
8.3766528095
 30
0.0
  0
SPLINE
  5
2AF
100
AcDbEntity
  8
0
100
AcDbSpline
 62
7
  6
CONTINUOUS
 70
0
 71
3
 72
14
 73
10
 74
0
 42
0.0000001
 43
0.0000001
 44
0.0000000001
 40
0.0
 40
0.0
 40
0.0
 40
0.0
 40
0.2619256577
 40
0.3896825156
 40
0.5153232852
 40
0.6389766527
 40
0.7608225129
 40
0.8810806737
 40
1.0
 40
1.0
 40
1.0
 40
1.0
 10
11.5269137995
 20
8.6077215008
 30
0.0
 10
11.5225811582
 20
8.6156799001
 30
0.0
 10
11.5153237228
 20
8.6271135341
 30
0.0
 10
11.5041222475
 20
8.6409995149
 30
0.0
 10
11.4951493685
 20
8.6504878472
 30
0.0
 10
11.485574824
 20
8.6590652874
 30
0.0
 10
11.4754388268
 20
8.6666680643
 30
0.0
 10
11.4647921123
 20
8.6732305291
 30
0.0
 10
11.4573533391
 20
8.6768892362
 30
0.0
 10
11.4535760456
 20
8.678519344
 30
0.0
  0
SPLINE
  5
2B0
100
AcDbEntity
  8
0
100
AcDbSpline
 62
7
  6
CONTINUOUS
 70
0
 71
3
 72
13
 73
9
 74
0
 42
0.0000001
 43
0.0000001
 44
0.0000000001
 40
0.0
 40
0.0
 40
0.0
 40
0.0
 40
0.22182491
 40
0.3425165788
 40
0.4681690158
 40
0.5976225989
 40
0.7298825002
 40
1.0
 40
1.0
 40
1.0
 40
1.0
 10
11.5708287877
 20
8.3771597564
 30
0.0
 10
11.5693009076
 20
8.3777071149
 30
0.0
 10
11.5669020248
 20
8.3784458469
 30
0.0
 10
11.5635706658
 20
8.3792454853
 30
0.0
 10
11.5608714298
 20
8.3797734474
 30
0.0
 10
11.5580684103
 20
8.3801985645
 30
0.0
 10
11.5541987731
 20
8.3806143875
 30
0.0
 10
11.5512527381
 20
8.3807409815
 30
0.0
 10
11.5492764427
 20
8.3807409815
 30
0.0
  0
SPLINE
  5
2B1
100
AcDbEntity
  8
0
100
AcDbSpline
 62
7
  6
CONTINUOUS
 70
0
 71
3
 72
13
 73
9
 74
0
 42
0.0000001
 43
0.0000001
 44
0.0000000001
 40
0.0
 40
0.0
 40
0.0
 40
0.0
 40
0.2705115791
 40
0.4028504633
 40
0.5323073121
 40
0.6579401103
 40
0.7785730876
 40
1.0
 40
1.0
 40
1.0
 40
1.0
 10
11.5492764427
 20
8.6037409815
 30
0.0
 10
11.5512666485
 20
8.6037409815
 30
0.0
 10
11.5542326026
 20
8.6038695382
 30
0.0
 10
11.5581269875
 20
8.6042908055
 30
0.0
 10
11.5609457141
 20
8.6047209194
 30
0.0
 10
11.563658624
 20
8.6052559754
 30
0.0
 10
11.5670039303
 20
8.6060642238
 30
0.0
 10
11.5694115999
 20
8.6068107489
 30
0.0
 10
11.5709438962
 20
8.6073638958
 30
0.0
  0
SPLINE
  5
2B2
100
AcDbEntity
  8
0
100
AcDbSpline
 62
7
  6
CONTINUOUS
 70
0
 71
3
 72
45
 73
41
 74
0
 42
0.0000001
 43
0.0000001
 44
0.0000000001
 40
0.0
 40
0.0
 40
0.0
 40
0.0
 40
0.013507467
 40
0.0270346408
 40
0.0406030278
 40
0.0542319962
 40
0.067941064
 40
0.0817491088
 40
0.1097193783
 40
0.1382867288
 40
0.1675566677
 40
0.1976055329
 40
0.2284768763
 40
0.2601804366
 40
0.2926926163
 40
0.3259589635
 40
0.3598973633
 40
0.3944022052
 40
0.4293487332
 40
0.4645977867
 40
0.5000005048
 40
0.5354032148
 40
0.5706522436
 40
0.6055987346
 40
0.6401035241
 40
0.6740418553
 40
0.7073081227
 40
0.739820216
 40
0.7715236853
 40
0.8023949293
 40
0.8324436971
 40
0.8617135418
 40
0.8902808039
 40
0.918250998
 40
0.9320590127
 40
0.9457680538
 40
0.9593969991
 40
0.9729653688
 40
0.9864925425
 40
1.0
 40
1.0
 40
1.0
 40
1.0
 10
11.6867787154
 20
8.6882409815
 30
0.0
 10
11.6843639028
 20
8.6882409815
 30
0.0
 10
11.6795291307
 20
8.6880755888
 30
0.0
 10
11.672303036
 20
8.6873327557
 30
0.0
 10
11.6651221448
 20
8.6860985411
 30
0.0
 10
11.6580087731
 20
8.6843782751
 30
0.0
 10
11.650983464
 20
8.6821793674
 30
0.0
 10
11.6417229552
 20
8.6786071604
 30
0.0
 10
11.6304435373
 20
8.6729657207
 30
0.0
 10
11.617620179
 20
8.6644845703
 30
0.0
 10
11.6055550227
 20
8.6543703471
 30
0.0
 10
11.5943462062
 20
8.6427405495
 30
0.0
 10
11.5840777187
 20
8.629717478
 30
0.0
 10
11.5748252221
 20
8.6154293567
 30
0.0
 10
11.566656814
 20
8.6000110067
 30
0.0
 10
11.5596336543
 20
8.5836047089
 30
0.0
 10
11.5538095437
 20
8.5663604223
 30
0.0
 10
11.5492301704
 20
8.548435507
 30
0.0
 10
11.5459322195
 20
8.5299938574
 30
0.0
 10
11.5439425438
 20
8.5112046445
 30
0.0
 10
11.5432774994
 20
8.4922407117
 30
0.0
 10
11.5439425844
 20
8.4732767847
 30
0.0
 10
11.5459322963
 20
8.4544875885
 30
0.0
 10
11.5492302741
 20
8.4360459644
 30
0.0
 10
11.5538096762
 20
8.4181210855
 30
0.0
 10
11.5596338112
 20
8.4008768451
 30
0.0
 10
11.5666569873
 20
8.3844706
 30
0.0
 10
11.5748254018
 20
8.3690523058
 30
0.0
 10
11.584077893
 20
8.35476424
 30
0.0
 10
11.5943463698
 20
8.3417412256
 30
0.0
 10
11.6055551675
 20
8.3301114825
 30
0.0
 10
11.6176202983
 20
8.3199973071
 30
0.0
 10
11.6304436254
 20
8.3115161941
 30
0.0
 10
11.6417230145
 20
8.3058747743
 30
0.0
 10
11.6509835039
 20
8.3023025831
 30
0.0
 10
11.6580087995
 20
8.3001036801
 30
0.0
 10
11.66512216
 20
8.2983834187
 30
0.0
 10
11.6723030441
 20
8.2971492057
 30
0.0
 10
11.6795291341
 20
8.2964063745
 30
0.0
 10
11.6843639045
 20
8.2962409815
 30
0.0
 10
11.6867787154
 20
8.2962409815
 30
0.0
  0
SPLINE
  5
2B3
100
AcDbEntity
  8
0
100
AcDbSpline
 62
7
  6
CONTINUOUS
 70
0
 71
3
 72
35
 73
31
 74
0
 42
0.0000001
 43
0.0000001
 44
0.0000000001
 40
0.0
 40
0.0
 40
0.0
 40
0.0
 40
0.0056625809
 40
0.0103034213
 40
0.0139385925
 40
0.0165837655
 40
0.0182542785
 40
0.0189670561
 40
0.020340336
 40
0.0223899373
 40
0.0253245004
 40
0.0291266746
 40
0.0337778661
 40
0.0455481007
 40
0.0604800908
 40
0.0784236524
 40
0.0992284181
 40
0.1227407206
 40
0.1488105599
 40
0.177291976
 40
0.2080388271
 40
0.2409062476
 40
0.2757527516
 40
0.3508355551
 40
0.4322569015
 40
0.5190280272
 40
0.6101563661
 40
0.7046308124
 40
0.8015243999
 40
1.0
 40
1.0
 40
1.0
 40
1.0
 10
11.5194224023
 20
8.6112630067
 30
0.0
 10
11.5193774972
 20
8.6113044548
 30
0.0
 10
11.5192955827
 20
8.6113793037
 30
0.0
 10
11.5191827047
 20
8.611480001
 30
0.0
 10
11.5190955653
 20
8.6115561579
 30
0.0
 10
11.5190263672
 20
8.6116148935
 30
0.0
 10
11.5189920688
 20
8.6116438429
 30
0.0
 10
11.5189466771
 20
8.6116805524
 30
0.0
 10
11.5190128599
 20
8.6116284828
 30
0.0
 10
11.5190523272
 20
8.6115994092
 30
0.0
 10
11.5191353978
 20
8.611537726
 30
0.0
 10
11.5192325343
 20
8.6114681019
 30
0.0
 10
11.5194124818
 20
8.6113417613
 30
0.0
 10
11.5196921905
 20
8.6111531751
 30
0.0
 10
11.5200979332
 20
8.6108924309
 30
0.0
 10
11.5205924128
 20
8.6105908179
 30
0.0
 10
11.5211741536
 20
8.6102543808
 30
0.0
 10
11.5218402974
 20
8.609889239
 30
0.0
 10
11.5225882868
 20
8.6095014557
 30
0.0
 10
11.5234154028
 20
8.609097227
 30
0.0
 10
11.5243183376
 20
8.6086816682
 30
0.0
 10
11.525293666
 20
8.608259759
 30
0.0
 10
11.5267219798
 20
8.607680869
 30
0.0
 10
11.5286635057
 20
8.60697501
 30
0.0
 10
11.5311703353
 20
8.606191891
 30
0.0
 10
11.5338788465
 20
8.6054835221
 30
0.0
 10
11.5367551892
 20
8.6048729614
 30
0.0
 10
11.5397644543
 20
8.6043769805
 30
0.0
 10
11.5439442749
 20
8.603889296
 30
0.0
 10
11.5471345214
 20
8.6037409815
 30
0.0
 10
11.5492764427
 20
8.6037409815
 30
0.0
  0
SPLINE
  5
2B4
100
AcDbEntity
  8
0
100
AcDbSpline
 62
7
  6
CONTINUOUS
 70
0
 71
3
 72
20
 73
16
 74
0
 42
0.0000001
 43
0.0000001
 44
0.0000000001
 40
0.0
 40
0.0
 40
0.0
 40
0.0
 40
0.1787330588
 40
0.352142391
 40
0.435741713
 40
0.516396965
 40
0.5933931425
 40
0.6660226849
 40
0.7953451629
 40
0.8505900355
 40
0.898494232
 40
0.9382275152
 40
0.9689579898
 40
0.9898262154
 40
1.0
 40
1.0
 40
1.0
 40
1.0
 10
11.5492764427
 20
8.3807409815
 30
0.0
 10
11.5473858676
 20
8.3807409815
 30
0.0
 10
11.543659397
 20
8.3805876454
 30
0.0
 10
11.5390792586
 20
8.3800253189
 30
0.0
 10
11.5355676623
 20
8.3793680701
 30
0.0
 10
11.5330796142
 20
8.3787978379
 30
0.0
 10
11.5307288362
 20
8.3781568271
 30
0.0
 10
11.5279166767
 20
8.3772618459
 30
0.0
 10
11.5253728358
 20
8.3762869626
 30
0.0
 10
11.5231380736
 20
8.3752596981
 30
0.0
 10
11.5217907878
 20
8.3745738503
 30
0.0
 10
11.5206993011
 20
8.3739597437
 30
0.0
 10
11.5198762857
 20
8.3734532932
 30
0.0
 10
11.5193340422
 20
8.3730884622
 30
0.0
 10
11.5190681443
 20
8.3728956494
 30
0.0
 10
11.5189828792
 20
8.3728299928
 30
0.0
  0
SPLINE
  5
2B5
100
AcDbEntity
  8
0
100
AcDbSpline
 62
7
  6
CONTINUOUS
 70
0
 71
3
 72
23
 73
19
 74
0
 42
0.0000001
 43
0.0000001
 44
0.0000000001
 40
0.0
 40
0.0
 40
0.0
 40
0.0
 40
0.061551624
 40
0.1231125399
 40
0.184691758
 40
0.2463039987
 40
0.3079685577
 40
0.369710636
 40
0.4315624751
 40
0.4935620277
 40
0.5557526766
 40
0.6181805616
 40
0.6808924857
 40
0.7439325433
 40
0.8073393461
 40
0.8711424905
 40
0.9353610878
 40
1.0
 40
1.0
 40
1.0
 40
1.0
 10
11.4998183383
 20
6.909271898
 30
0.0
 10
11.4998183383
 20
6.9001592317
 30
0.0
 10
11.4990390998
 20
6.8819229644
 30
0.0
 10
11.4955459362
 20
6.8547719437
 30
0.0
 10
11.4897668841
 20
6.8280033992
 30
0.0
 10
11.4817642317
 20
6.801798882
 30
0.0
 10
11.4716200978
 20
6.7763216558
 30
0.0
 10
11.4594329596
 20
6.7517179006
 30
0.0
 10
11.4453128329
 20
6.728113954
 30
0.0
 10
11.4293770568
 20
6.7056160716
 30
0.0
 10
11.4117462539
 20
6.6843114249
 30
0.0
 10
11.3925411761
 20
6.6642699147
 30
0.0
 10
11.3718805443
 20
6.645546826
 30
0.0
 10
11.3498797923
 20
6.6281856096
 30
0.0
 10
11.3266509781
 20
6.6122208094
 30
0.0
 10
11.3023026535
 20
6.597680217
 30
0.0
 10
11.2769427661
 20
6.5845878283
 30
0.0
 10
11.2594855139
 20
6.5768622305
 30
0.0
 10
11.2506256592
 20
6.57324521
 30
0.0
  0
LINE
  5
2B6
100
AcDbEntity
  8
0
100
AcDbLine
 62
7
  6
CONTINUOUS
 10
11.0473586076
 20
6.5342421574
 11
11.047027709
 21
6.5342422309
  0
SPLINE
  5
2B7
100
AcDbEntity
  8
0
100
AcDbSpline
 62
7
  6
CONTINUOUS
 70
0
 71
3
 72
32
 73
28
 74
0
 42
0.0000001
 43
0.0000001
 44
0.0000000001
 40
0.0
 40
0.0
 40
0.0
 40
0.0
 40
0.0654482824
 40
0.1307310237
 40
0.1956967571
 40
0.2280264166
 40
0.260232169
 40
0.3242196162
 40
0.3876205364
 40
0.4191049555
 40
0.4504434952
 40
0.5126884741
 40
0.5744361337
 40
0.6051601741
 40
0.635793734
 40
0.6663488502
 40
0.6968373305
 40
0.7272704413
 40
0.7576583075
 40
0.7880102535
 40
0.8183344452
 40
0.8486374938
 40
0.8789252341
 40
0.9092020053
 40
0.939471892
 40
0.9697364404
 40
1.0
 40
1.0
 40
1.0
 40
1.0
 10
11.047027709
 20
6.5342422309
 30
0.0
 10
11.0328007418
 20
6.5342495765
 30
0.0
 10
11.0043712006
 20
6.5353433377
 30
0.0
 10
10.9620723304
 20
6.5402159379
 30
0.0
 10
10.9273416204
 20
6.546965473
 30
0.0
 10
10.9000689033
 20
6.5539668722
 30
0.0
 10
10.87330215
 20
6.5619939522
 30
0.0
 10
10.8407009681
 20
6.5739771803
 30
0.0
 10
10.8093639436
 20
6.5886008231
 30
0.0
 10
10.7853137694
 20
6.601825547
 30
0.0
 10
10.7620974396
 20
6.615987558
 30
0.0
 10
10.7345081105
 20
6.6355445875
 30
0.0
 10
10.7090308191
 20
6.6575902331
 30
0.0
 10
10.6901784147
 20
6.6765964778
 30
0.0
 10
10.6768562053
 20
6.6914991134
 30
0.0
 10
10.6643754913
 20
6.7070476169
 30
0.0
 10
10.6527812434
 20
6.7232149324
 30
0.0
 10
10.6421189301
 20
6.7399688163
 30
0.0
 10
10.6324331362
 20
6.7572719998
 30
0.0
 10
10.6237671935
 20
6.7750818772
 30
0.0
 10
10.6161621422
 20
6.7933503345
 30
0.0
 10
10.6096560238
 20
6.8120239306
 30
0.0
 10
10.6042828815
 20
6.8310440557
 30
0.0
 10
10.6000717603
 20
6.8503475192
 30
0.0
 10
10.5970464809
 20
6.8698672589
 30
0.0
 10
10.5952240693
 20
6.8895322488
 30
0.0
 10
10.5948183383
 20
6.902693288
 30
0.0
 10
10.5948183383
 20
6.909271898
 30
0.0
  0
SPLINE
  5
2B8
100
AcDbEntity
  8
0
100
AcDbSpline
 62
7
  6
CONTINUOUS
 70
0
 71
3
 72
11
 73
7
 74
0
 42
0.0000001
 43
0.0000001
 44
0.0000000001
 40
0.0
 40
0.0
 40
0.0
 40
0.0
 40
0.2470576369
 40
0.4965269903
 40
0.7477867597
 40
1.0
 40
1.0
 40
1.0
 40
1.0
 10
11.2506256592
 20
6.57324521
 30
0.0
 10
11.2347708034
 20
6.5667724923
 30
0.0
 10
11.2022084237
 20
6.5554123453
 30
0.0
 10
11.1517436959
 20
6.5432393632
 30
0.0
 10
11.0999952416
 20
6.535895937
 30
0.0
 10
11.0650750911
 20
6.5342507662
 30
0.0
 10
11.0475925227
 20
6.5342422231
 30
0.0
  0
SPLINE
  5
2B9
100
AcDbEntity
  8
0
100
AcDbSpline
 62
7
  6
CONTINUOUS
 70
0
 71
3
 72
15
 73
11
 74
0
 42
0.0000001
 43
0.0000001
 44
0.0000000001
 40
0.0
 40
0.0
 40
0.0
 40
0.0
 40
0.1211536291
 40
0.2426981765
 40
0.3650157867
 40
0.4884715561
 40
0.6134061218
 40
0.7401293414
 40
0.8689155131
 40
1.0
 40
1.0
 40
1.0
 40
1.0
 10
11.4998183383
 20
7.1370506854
 30
0.0
 10
11.4998183383
 20
7.1431263273
 30
0.0
 10
11.4993271372
 20
7.1553028784
 30
0.0
 10
11.497120541
 20
7.1734930314
 30
0.0
 10
11.4934513999
 20
7.1915640884
 30
0.0
 10
11.4883322878
 20
7.2094550821
 30
0.0
 10
11.4817806392
 20
7.2271077406
 30
0.0
 10
11.473818527
 20
7.2444646438
 30
0.0
 10
11.464473363
 20
7.2614685351
 30
0.0
 10
11.457406403
 20
7.2724324629
 30
0.0
 10
11.4536623055
 20
7.277835675
 30
0.0
  0
SPLINE
  5
2BA
100
AcDbEntity
  8
0
100
AcDbSpline
 62
7
  6
CONTINUOUS
 70
0
 71
3
 72
15
 73
11
 74
0
 42
0.0000001
 43
0.0000001
 44
0.0000000001
 40
0.0
 40
0.0
 40
0.0
 40
0.0
 40
0.1211120236
 40
0.2426194895
 40
0.3649088579
 40
0.4883491425
 40
0.6132843457
 40
0.7400270222
 40
0.8688534054
 40
1.0
 40
1.0
 40
1.0
 40
1.0
 10
10.5948183383
 20
7.1370506854
 30
0.0
 10
10.5948183383
 20
7.1431626304
 30
0.0
 10
10.5953154468
 20
7.1554122417
 30
0.0
 10
10.5975485381
 20
7.1737106254
 30
0.0
 10
10.6012616289
 20
7.191887742
 30
0.0
 10
10.6064418307
 20
7.2098815251
 30
0.0
 10
10.6130712768
 20
7.2276326674
 30
0.0
 10
10.6211273706
 20
7.2450827347
 30
0.0
 10
10.6305820424
 20
7.2621734834
 30
0.0
 10
10.6377305373
 20
7.2731891483
 30
0.0
 10
10.6415175901
 20
7.2786169176
 30
0.0
  0
SPLINE
  5
2BB
100
AcDbEntity
  8
0
100
AcDbSpline
 62
7
  6
CONTINUOUS
 70
0
 71
3
 72
21
 73
17
 74
0
 42
0.0000001
 43
0.0000001
 44
0.0000000001
 40
0.0
 40
0.0
 40
0.0
 40
0.0
 40
0.0554312147
 40
0.1110880434
 40
0.167189721
 40
0.2239431617
 40
0.28153781
 40
0.3401415304
 40
0.3998976378
 40
0.4609230446
 40
0.5233074127
 40
0.5871131661
 40
0.7190397986
 40
0.7872249614
 40
0.8568286554
 40
1.0
 40
1.0
 40
1.0
 40
1.0
 10
11.5098183383
 20
6.6067205995
 30
0.0
 10
11.5098183383
 20
6.5997409293
 30
0.0
 10
11.5091835357
 20
6.5857449716
 30
0.0
 10
11.5063331042
 20
6.5648598112
 30
0.0
 10
11.501596424
 20
6.5441481977
 30
0.0
 10
11.4949943014
 20
6.5236986141
 30
0.0
 10
11.4865554358
 20
6.5035950616
 30
0.0
 10
11.4763161272
 20
6.483920386
 30
0.0
 10
11.4643198501
 20
6.4647549116
 30
0.0
 10
11.4506173709
 20
6.446176852
 30
0.0
 10
11.4352649345
 20
6.4282606256
 30
0.0
 10
11.4124333463
 20
6.405100517
 30
0.0
 10
11.3867525204
 20
6.3838400829
 30
0.0
 10
11.3587317764
 20
6.3646258103
 30
0.0
 10
11.3284224392
 20
6.3463489819
 30
0.0
 10
11.3043256077
 20
6.3344807053
 30
0.0
 10
11.2877663721
 20
6.3273544069
 30
0.0
  0
SPLINE
  5
2BC
100
AcDbEntity
  8
0
100
AcDbSpline
 62
7
  6
CONTINUOUS
 70
0
 71
3
 72
22
 73
18
 74
0
 42
0.0000001
 43
0.0000001
 44
0.0000000001
 40
0.0
 40
0.0
 40
0.0
 40
0.0
 40
0.0552228319
 40
0.1106806258
 40
0.1666014043
 40
0.2231998013
 40
0.2806715131
 40
0.3391889119
 40
0.3988979417
 40
0.4599162487
 40
0.5223324203
 40
0.5862061152
 40
0.6515689469
 40
0.7184256912
 40
0.7867564077
 40
0.8565170931
 40
1.0
 40
1.0
 40
1.0
 40
1.0
 10
11.6223183075
 20
5.9561823608
 30
0.0
 10
11.6223182793
 20
5.9473088593
 30
0.0
 10
11.6214928918
 20
5.9295131913
 30
0.0
 10
11.6177868052
 20
5.9029644132
 30
0.0
 10
11.6116291432
 20
5.876646554
 30
0.0
 10
11.6030482178
 20
5.8506772325
 30
0.0
 10
11.5920831143
 20
5.8251679968
 30
0.0
 10
11.5787831896
 20
5.8002286967
 30
0.0
 10
11.5632076215
 20
5.7759657868
 30
0.0
 10
11.5454249934
 20
5.7524823928
 30
0.0
 10
11.5255129071
 20
5.7298779439
 30
0.0
 10
11.5035576957
 20
5.7082479493
 30
0.0
 10
11.479653886
 20
5.6876836478
 30
0.0
 10
11.4539046105
 20
5.6682720024
 30
0.0
 10
11.426418375
 20
5.650094107
 30
0.0
 10
11.3872562496
 20
5.627398117
 30
0.0
 10
11.3561636805
 20
5.6127824097
 30
0.0
 10
11.3348183383
 20
5.6040682103
 30
0.0
  0
SPLINE
  5
2BD
100
AcDbEntity
  8
0
100
AcDbSpline
 62
7
  6
CONTINUOUS
 70
0
 71
3
 72
21
 73
17
 74
0
 42
0.0000001
 43
0.0000001
 44
0.0000000001
 40
0.0
 40
0.0
 40
0.0
 40
0.0
 40
0.0587089197
 40
0.1175207515
 40
0.1765371212
 40
0.2358572293
 40
0.2955765938
 40
0.3557860755
 40
0.4165709955
 40
0.4780101653
 40
0.5401755565
 40
0.6031315221
 40
0.6669345728
 40
0.7316332064
 40
0.8638349701
 40
1.0
 40
1.0
 40
1.0
 40
1.0
 10
10.4723183726
 20
6.6208627351
 30
0.0
 10
10.4723183848
 20
6.6265455929
 30
0.0
 10
10.4726559322
 20
6.6379241501
 30
0.0
 10
10.4741740109
 20
6.6549543809
 30
0.0
 10
10.4767008355
 20
6.6719247244
 30
0.0
 10
10.480232069
 20
6.6888042734
 30
0.0
 10
10.4847612251
 20
6.7055633519
 30
0.0
 10
10.4902800098
 20
6.7221723161
 30
0.0
 10
10.4967787189
 20
6.7386017757
 30
0.0
 10
10.5042453647
 20
6.7548229033
 30
0.0
 10
10.512666843
 20
6.7708070789
 30
0.0
 10
10.5220279126
 20
6.7865262243
 30
0.0
 10
10.5323121272
 20
6.801953073
 30
0.0
 10
10.5473367451
 20
6.8222392737
 30
0.0
 10
10.5683874466
 20
6.8467237972
 30
0.0
 10
10.5870652163
 20
6.8648327069
 30
0.0
 10
10.5969057292
 20
6.8736012307
 30
0.0
  0
SPLINE
  5
2BE
100
AcDbEntity
  8
0
100
AcDbSpline
 62
7
  6
CONTINUOUS
 70
0
 71
3
 72
43
 73
39
 74
0
 42
0.0000001
 43
0.0000001
 44
0.0000000001
 40
0.0
 40
0.0
 40
0.0
 40
0.0
 40
0.0125787851
 40
0.0252168739
 40
0.0379244946
 40
0.0507110946
 40
0.0635855117
 40
0.0765560158
 40
0.0896301842
 40
0.1028149072
 40
0.1161163804
 40
0.1295400871
 40
0.156767999
 40
0.1845336769
 40
0.212856999
 40
0.2417485442
 40
0.2712105748
 40
0.3012379177
 40
0.3318186831
 40
0.3629348126
 40
0.3945624837
 40
0.4266724392
 40
0.4592302871
 40
0.4921968231
 40
0.525528391
 40
0.5591773147
 40
0.593092385
 40
0.6272194024
 40
0.6615017775
 40
0.6958811586
 40
0.7302980916
 40
0.7646926959
 40
0.7990053449
 40
0.8331773432
 40
0.8671515897
 40
0.9008732239
 40
0.9342902259
 40
1.0
 40
1.0
 40
1.0
 40
1.0
 10
8.9090527873
 20
4.7411498167
 30
0.0
 10
8.9113900101
 20
4.7251964204
 30
0.0
 10
8.9167664969
 20
4.6933113774
 30
0.0
 10
8.9268951639
 20
4.6457517492
 30
0.0
 10
8.9390975094
 20
4.5984055827
 30
0.0
 10
8.9533631238
 20
4.5513235753
 30
0.0
 10
8.969679196
 20
4.5045554399
 30
0.0
 10
8.9880301477
 20
4.458151389
 30
0.0
 10
9.0083976625
 20
4.41216132
 30
0.0
 10
9.0307604964
 20
4.3666351425
 30
0.0
 10
9.0550954332
 20
4.3216215498
 30
0.0
 10
9.0902982633
 20
4.2620772462
 30
0.0
 10
9.1391833026
 20
4.1891620068
 30
0.0
 10
9.2049621419
 20
4.1049167646
 30
0.0
 10
9.2778450946
 20
4.0238482709
 30
0.0
 10
9.3575055938
 20
3.9462876103
 30
0.0
 10
9.4435963668
 20
3.8725365158
 30
0.0
 10
9.5357507366
 20
3.8028734083
 30
0.0
 10
9.633586977
 20
3.737552369
 30
0.0
 10
9.7367102462
 20
3.6768045277
 30
0.0
 10
9.8447143828
 20
3.6208397842
 30
0.0
 10
9.9571824174
 20
3.5698478567
 30
0.0
 10
10.0736870133
 20
3.5239994219
 30
0.0
 10
10.1937907183
 20
3.4834469743
 30
0.0
 10
10.3170461216
 20
3.4483248011
 30
0.0
 10
10.4429964545
 20
3.418749314
 30
0.0
 10
10.5711762977
 20
3.3948187487
 30
0.0
 10
10.7011126166
 20
3.3766126787
 30
0.0
 10
10.8323261357
 20
3.3641919839
 30
0.0
 10
10.9643328441
 20
3.3575982159
 30
0.0
 10
11.0966457244
 20
3.3568534342
 30
0.0
 10
11.2287766384
 20
3.3619602527
 30
0.0
 10
11.3602379521
 20
3.3729013995
 30
0.0
 10
11.4905452989
 20
3.3896404366
 30
0.0
 10
11.6192159093
 20
3.4121208106
 30
0.0
 10
11.745782887
 20
3.4402700125
 30
0.0
 10
11.9101384927
 20
3.4849699989
 30
0.0
 10
12.0303199573
 20
3.5270346436
 30
0.0
 10
12.1082998133
 20
3.558869767
 30
0.0
  0
SPLINE
  5
2BF
100
AcDbEntity
  8
0
100
AcDbSpline
 62
7
  6
CONTINUOUS
 70
0
 71
3
 72
30
 73
26
 74
0
 42
0.0000001
 43
0.0000001
 44
0.0000000001
 40
0.0
 40
0.0
 40
0.0
 40
0.0
 40
0.0706701277
 40
0.1403522933
 40
0.2089855861
 40
0.2765181444
 40
0.3429091339
 40
0.4081290376
 40
0.4721605492
 40
0.5037327116
 40
0.53500753
 40
0.5966651556
 40
0.6571685614
 40
0.6870055405
 40
0.7165727107
 40
0.7458788984
 40
0.7749342521
 40
0.8037502432
 40
0.8323397075
 40
0.8607168023
 40
0.8888969706
 40
0.916896958
 40
0.9447345454
 40
0.9724287391
 40
1.0
 40
1.0
 40
1.0
 40
1.0
 10
12.1082998141
 20
3.5588697672
 30
0.0
 10
12.144775645
 20
3.5737609712
 30
0.0
 10
12.2165248972
 20
3.6050690943
 30
0.0
 10
12.3209169568
 20
3.6569106191
 30
0.0
 10
12.4210044529
 20
3.7131626461
 30
0.0
 10
12.5164285666
 20
3.7736486064
 30
0.0
 10
12.6068442254
 20
3.8381765732
 30
0.0
 10
12.691912919
 20
3.9065334017
 30
0.0
 10
12.7583924096
 20
3.9667824511
 30
0.0
 10
12.8085431644
 20
4.0166794843
 30
0.0
 10
12.8561862168
 20
4.0671711244
 30
0.0
 10
12.9118766961
 20
4.1321842649
 30
0.0
 10
12.9626103006
 20
4.2001460992
 30
0.0
 10
12.999738194
 20
4.2557498048
 30
0.0
 10
13.0257291968
 20
4.2978381378
 30
0.0
 10
13.0499653992
 20
4.3404600283
 30
0.0
 10
13.072423117
 20
4.3835740567
 30
0.0
 10
13.0930801845
 20
4.4271376737
 30
0.0
 10
13.1119169545
 20
4.4711079696
 30
0.0
 10
13.1289159382
 20
4.5154417256
 30
0.0
 10
13.1440617743
 20
4.560095673
 30
0.0
 10
13.1573414708
 20
4.6050262988
 30
0.0
 10
13.1687444027
 20
4.6501905406
 30
0.0
 10
13.1782617751
 20
4.6955445423
 30
0.0
 10
13.183355777
 20
4.725941191
 30
0.0
 10
13.1855838795
 20
4.7411497482
 30
0.0
  0
SPLINE
  5
2C0
100
AcDbEntity
  8
0
100
AcDbSpline
 62
7
  6
CONTINUOUS
 70
0
 71
3
 72
30
 73
26
 74
0
 42
0.0000001
 43
0.0000001
 44
0.0000000001
 40
0.0
 40
0.0
 40
0.0
 40
0.0
 40
0.0277603939
 40
0.0555493041
 40
0.0833931012
 40
0.1113197109
 40
0.1393556983
 40
0.1675269395
 40
0.1958585088
 40
0.2243743682
 40
0.2530972952
 40
0.2820487566
 40
0.3112487927
 40
0.3407159342
 40
0.3704671325
 40
0.4005177001
 40
0.4615588038
 40
0.5239394461
 40
0.5877206838
 40
0.6529366387
 40
0.7195954734
 40
0.7876808056
 40
0.8571534111
 40
0.9279526777
 40
1.0
 40
1.0
 40
1.0
 40
1.0
 10
9.4273183383
 20
5.4851550294
 30
0.0
 10
9.4273183383
 20
5.4977881657
 30
0.0
 10
9.4279029514
 20
5.5230713027
 30
0.0
 10
9.4305318131
 20
5.5609433107
 30
0.0
 10
9.434909709
 20
5.5987300803
 30
0.0
 10
9.4410309838
 20
5.6363874289
 30
0.0
 10
9.4488879941
 20
5.6738733925
 30
0.0
 10
9.458470921
 20
5.7111457874
 30
0.0
 10
9.4697679899
 20
5.748163062
 30
0.0
 10
9.4827653993
 20
5.7848842492
 30
0.0
 10
9.497447361
 20
5.8212690425
 30
0.0
 10
9.5137963606
 20
5.8572777606
 30
0.0
 10
9.5317931264
 20
5.892871481
 30
0.0
 10
9.5514164209
 20
5.9280119002
 30
0.0
 10
9.5726440038
 20
5.9626620812
 30
0.0
 10
9.6032094442
 20
6.0083925966
 30
0.0
 10
9.6453849139
 20
6.0641545469
 30
0.0
 10
9.7017108261
 20
6.1281651116
 30
0.0
 10
9.7637711457
 20
6.1893671266
 30
0.0
 10
9.8312923109
 20
6.2475072174
 30
0.0
 10
9.9039827383
 20
6.3023491342
 30
0.0
 10
9.9815299745
 20
6.3536690012
 30
0.0
 10
10.063603781
 20
6.4012574655
 30
0.0
 10
10.1498517789
 20
6.4449186192
 30
0.0
 10
10.2094040648
 20
6.4710749582
 30
0.0
 10
10.2397590488
 20
6.4834673285
 30
0.0
  0
SPLINE
  5
2C1
100
AcDbEntity
  8
0
100
AcDbSpline
 62
7
  6
CONTINUOUS
 70
0
 71
3
 72
9
 73
5
 74
0
 42
0.0000001
 43
0.0000001
 44
0.0000000001
 40
0.0
 40
0.0
 40
0.0
 40
0.0
 40
0.2468608335
 40
1.0
 40
1.0
 40
1.0
 40
1.0
 10
10.2397590488
 20
6.4834673285
 30
0.0
 10
10.2584461561
 20
6.4910963081
 30
0.0
 10
10.3346411976
 20
6.5207748482
 30
0.0
 10
10.4127152117
 20
6.5455967527
 30
0.0
 10
10.4721727258
 20
6.5616242289
 30
0.0
  0
SPLINE
  5
2C2
100
AcDbEntity
  8
0
100
AcDbSpline
 62
7
  6
CONTINUOUS
 70
0
 71
3
 72
30
 73
26
 74
0
 42
0.0000001
 43
0.0000001
 44
0.0000000001
 40
0.0
 40
0.0
 40
0.0
 40
0.0
 40
0.0728186293
 40
0.1445060884
 40
0.2149141423
 40
0.2839167732
 40
0.3514135647
 40
0.4173331457
 40
0.4816364277
 40
0.5443197026
 40
0.6054172502
 40
0.6353999297
 40
0.6650174721
 40
0.6942855544
 40
0.7232223894
 40
0.7518486786
 40
0.7801875349
 40
0.8082643632
 40
0.8361067226
 40
0.8637441409
 40
0.8912079102
 40
0.9185308916
 40
0.9457469754
 40
0.9728916941
 40
1.0
 40
1.0
 40
1.0
 40
1.0
 10
11.6224744836
 20
6.5616213848
 30
0.0
 10
11.6602188415
 20
6.5514467277
 30
0.0
 10
11.734568826
 20
6.5291299761
 30
0.0
 10
11.8429985562
 20
6.4895171688
 30
0.0
 10
11.9469545012
 20
6.4442145589
 30
0.0
 10
12.0458474422
 20
6.3934701734
 30
0.0
 10
12.1391218622
 20
6.3375587071
 30
0.0
 10
12.2262506679
 20
6.2767828564
 30
0.0
 10
12.3067403396
 20
6.2114688093
 30
0.0
 10
12.3801270357
 20
6.1419725487
 30
0.0
 10
12.4353627654
 20
6.0804903656
 30
0.0
 10
12.4754951432
 20
6.0295983738
 30
0.0
 10
12.5033832186
 20
5.9908708478
 30
0.0
 10
12.5292029461
 20
5.9514041293
 30
0.0
 10
12.5529159498
 20
5.9112527135
 30
0.0
 10
12.5744857852
 20
5.8704733021
 30
0.0
 10
12.5938791145
 20
5.8291237436
 30
0.0
 10
12.6110655157
 20
5.7872632655
 30
0.0
 10
12.6260176604
 20
5.7449523527
 30
0.0
 10
12.6387114441
 20
5.7022527235
 30
0.0
 10
12.6491261456
 20
5.6592271632
 30
0.0
 10
12.6572445333
 20
5.6159397163
 30
0.0
 10
12.6630532619
 20
5.5724544885
 30
0.0
 10
12.6665423285
 20
5.5288386922
 30
0.0
 10
12.6673183383
 20
5.4997077544
 30
0.0
 10
12.6673183383
 20
5.4851550294
 30
0.0
  0
SPLINE
  5
2C3
100
AcDbEntity
  8
0
100
AcDbSpline
 62
7
  6
CONTINUOUS
 70
0
 71
3
 72
32
 73
28
 74
0
 42
0.0000001
 43
0.0000001
 44
0.0000000001
 40
0.0
 40
0.0
 40
0.0
 40
0.0
 40
0.0280959541
 40
0.0562163717
 40
0.0843851607
 40
0.112626394
 40
0.1409635264
 40
0.1694195253
 40
0.1980167023
 40
0.2267765666
 40
0.2557197369
 40
0.2848658191
 40
0.3142332984
 40
0.3438394564
 40
0.373700301
 40
0.4038304746
 40
0.4342431986
 40
0.464950242
 40
0.5272766152
 40
0.5908843158
 40
0.6231863931
 40
0.6558214395
 40
0.7220851424
 40
0.7896758284
 40
0.8585627417
 40
0.9286941223
 40
1.0
 40
1.0
 40
1.0
 40
1.0
 10
9.1423183383
 20
5.3277726261
 30
0.0
 10
9.1423183383
 20
5.3429742559
 30
0.0
 10
9.1430193666
 20
5.3733954003
 30
0.0
 10
9.1461716963
 20
5.4189593136
 30
0.0
 10
9.1514199548
 20
5.4644096322
 30
0.0
 10
9.1587557632
 20
5.5096883926
 30
0.0
 10
9.1681676477
 20
5.5547401938
 30
0.0
 10
9.1796409273
 20
5.599510187
 30
0.0
 10
9.1931581447
 20
5.6439448766
 30
0.0
 10
9.2086992377
 20
5.6879920792
 30
0.0
 10
9.2262415704
 20
5.7316011153
 30
0.0
 10
9.245760192
 20
5.7747228574
 30
0.0
 10
9.2672281307
 20
5.8173097081
 30
0.0
 10
9.2906165069
 20
5.8593155923
 30
0.0
 10
9.3158946005
 20
5.9006960627
 30
0.0
 10
9.3430299322
 20
5.9414079558
 30
0.0
 10
9.3719891299
 20
5.981410132
 30
0.0
 10
9.4131854198
 20
6.0340011873
 30
0.0
 10
9.4691449833
 20
6.0977594647
 30
0.0
 10
9.5300853991
 20
6.157996668
 30
0.0
 10
9.5819627448
 20
6.2043383584
 30
0.0
 10
9.6364480148
 20
6.2498599801
 30
0.0
 10
9.7083630433
 20
6.3042171719
 30
0.0
 10
9.79985186
 20
6.3648567468
 30
0.0
 10
9.8965855853
 20
6.4210130478
 30
0.0
 10
9.9981496212
 20
6.4724686995
 30
0.0
 10
10.0682520844
 20
6.5032685035
 30
0.0
 10
10.1039710028
 20
6.5178506909
 30
0.0
  0
SPLINE
  5
2C4
100
AcDbEntity
  8
0
100
AcDbSpline
 62
7
  6
CONTINUOUS
 70
0
 71
3
 72
11
 73
7
 74
0
 42
0.0000001
 43
0.0000001
 44
0.0000000001
 40
0.0
 40
0.0
 40
0.0
 40
0.0
 40
0.2461040738
 40
0.4949770628
 40
0.7463681004
 40
1.0
 40
1.0
 40
1.0
 40
1.0
 10
10.1039710028
 20
6.5178506909
 30
0.0
 10
10.1333356949
 20
6.5298387763
 30
0.0
 10
10.1929256289
 20
6.5526718401
 30
0.0
 10
10.284140837
 20
6.5832912519
 30
0.0
 10
10.3774684674
 20
6.6104065349
 30
0.0
 10
10.4406711518
 20
6.6260374831
 30
0.0
 10
10.4725514168
 20
6.633257749
 30
0.0
  0
SPLINE
  5
2C5
100
AcDbEntity
  8
0
100
AcDbSpline
 62
7
  6
CONTINUOUS
 70
0
 71
3
 72
31
 73
27
 74
0
 42
0.0000001
 43
0.0000001
 44
0.0000000001
 40
0.0
 40
0.0
 40
0.0
 40
0.0
 40
0.0722201805
 40
0.1434348004
 40
0.2134809228
 40
0.282218901
 40
0.3495362949
 40
0.4153516402
 40
0.4796179239
 40
0.5423256456
 40
0.5731097119
 40
0.6035190251
 40
0.6335638405
 40
0.6632570102
 40
0.6926139506
 40
0.7216525696
 40
0.7503931833
 40
0.7788584122
 40
0.8070730207
 40
0.8350637436
 40
0.8628591085
 40
0.8904892059
 40
0.917985465
 40
0.9453803594
 40
0.9727072774
 40
1.0
 40
1.0
 40
1.0
 40
1.0
 10
11.6220830507
 20
6.6332582591
 30
0.0
 10
11.66926888
 20
6.6225716193
 30
0.0
 10
11.7623890282
 20
6.5986049387
 30
0.0
 10
11.8985691658
 20
6.5546507151
 30
0.0
 10
12.0295882345
 20
6.5031567869
 30
0.0
 10
12.1546474064
 20
6.4444125294
 30
0.0
 10
12.2729900686
 20
6.3787433551
 30
0.0
 10
12.383896407
 20
6.3065085357
 30
0.0
 10
12.4866799649
 20
6.2281063135
 30
0.0
 10
12.5655234437
 20
6.157541501
 30
0.0
 10
12.623809358
 20
6.0984179962
 30
0.0
 10
12.6648414104
 20
6.0530906119
 30
0.0
 10
12.7033857732
 20
6.0065750671
 30
0.0
 10
12.7393775868
 20
5.9589368411
 30
0.0
 10
12.7727537513
 20
5.9102449539
 30
0.0
 10
12.803454392
 20
5.8605709434
 30
0.0
 10
12.8314227143
 20
5.8099893536
 30
0.0
 10
12.8566053651
 20
5.7585778115
 30
0.0
 10
12.8789527523
 20
5.7064171814
 30
0.0
 10
12.898419456
 20
5.6535916164
 30
0.0
 10
12.9149646682
 20
5.60018855
 30
0.0
 10
12.9285527066
 20
5.5462984946
 30
0.0
 10
12.9391534748
 20
5.4920150751
 30
0.0
 10
12.9467430164
 20
5.4374336412
 30
0.0
 10
12.951303815
 20
5.3826544283
 30
0.0
 10
12.9523183383
 20
5.3460562297
 30
0.0
 10
12.9523183383
 20
5.3277726261
 30
0.0
  0
SPLINE
  5
2C6
100
AcDbEntity
  8
0
100
AcDbSpline
 62
7
  6
CONTINUOUS
 70
0
 71
3
 72
21
 73
17
 74
0
 42
0.0000001
 43
0.0000001
 44
0.0000000001
 40
0.0
 40
0.0
 40
0.0
 40
0.0
 40
0.0601468449
 40
0.1204046654
 40
0.1808209201
 40
0.2414433259
 40
0.3023179696
 40
0.3634897235
 40
0.4250019103
 40
0.4868960309
 40
0.5492116161
 40
0.6119860113
 40
0.6752541951
 40
0.7390486424
 40
0.8683101632
 40
1.0
 40
1.0
 40
1.0
 40
1.0
 10
8.8990731305
 20
4.9580644672
 30
0.0
 10
8.9000014925
 20
4.9746012921
 30
0.0
 10
8.9025966434
 20
5.0076687845
 30
0.0
 10
8.9086892576
 20
5.0571035057
 30
0.0
 10
8.9169757383
 20
5.1063517972
 30
0.0
 10
8.9274440076
 20
5.1553561045
 30
0.0
 10
8.9400792901
 20
5.2040616776
 30
0.0
 10
8.9548638409
 20
5.2524144224
 30
0.0
 10
8.9717774141
 20
5.3003616813
 30
0.0
 10
8.9907974015
 20
5.3478521165
 30
0.0
 10
9.011898921
 20
5.3948359191
 30
0.0
 10
9.0350548387
 20
5.4412645846
 30
0.0
 10
9.0602367176
 20
5.487091784
 30
0.0
 10
9.0966279651
 20
5.5475903851
 30
0.0
 10
9.1471196061
 20
5.6215065615
 30
0.0
 10
9.1919516439
 20
5.6777561831
 30
0.0
 10
9.2155297978
 20
5.7053087328
 30
0.0
  0
SPLINE
  5
2C7
100
AcDbEntity
  8
0
100
AcDbSpline
 62
7
  6
CONTINUOUS
 70
0
 71
3
 72
21
 73
17
 74
0
 42
0.0000001
 43
0.0000001
 44
0.0000000001
 40
0.0
 40
0.0
 40
0.0
 40
0.0
 40
0.1316902572
 40
0.2609520557
 40
0.324746586
 40
0.388014821
 40
0.4507892385
 40
0.5131048123
 40
0.5749988907
 40
0.636511014
 40
0.6976826818
 40
0.7585572207
 40
0.8191795016
 40
0.8795956193
 40
0.9398533141
 40
1.0
 40
1.0
 40
1.0
 40
1.0
 10
12.8790831986
 20
5.7053363987
 30
0.0
 10
12.9026631224
 20
5.6777831078
 30
0.0
 10
12.9474985197
 20
5.6215318578
 30
0.0
 10
12.9979939956
 20
5.5476132571
 30
0.0
 10
13.0343880316
 20
5.4871125692
 30
0.0
 10
13.0595718373
 20
5.4412837489
 30
0.0
 10
13.0827295096
 20
5.3948533831
 30
0.0
 10
13.1038326284
 20
5.3478678194
 30
0.0
 10
13.1228540703
 20
5.3003755718
 30
0.0
 10
13.1397689132
 20
5.2524264395
 30
0.0
 10
13.1545545608
 20
5.2040717722
 30
0.0
 10
13.1671907733
 20
5.1553642383
 30
0.0
 10
13.177659801
 20
5.1063579368
 30
0.0
 10
13.1859468497
 20
5.0571076159
 30
0.0
 10
13.1920398527
 20
5.007670847
 30
0.0
 10
13.1946351456
 20
4.9746019771
 30
0.0
 10
13.1955635461
 20
4.9580644672
 30
0.0
  0
SPLINE
  5
2C8
100
AcDbEntity
  8
0
100
AcDbSpline
 62
7
  6
CONTINUOUS
 70
0
 71
3
 72
20
 73
16
 74
0
 42
0.0000001
 43
0.0000001
 44
0.0000000001
 40
0.0
 40
0.0
 40
0.0
 40
0.0
 40
0.0536595596
 40
0.1086687455
 40
0.1650480162
 40
0.2228078688
 40
0.3423209727
 40
0.404031945
 40
0.4669352118
 40
0.53094181
 40
0.5959494911
 40
0.7284643668
 40
0.7957571132
 40
0.8635436407
 40
1.0
 40
1.0
 40
1.0
 40
1.0
 10
10.6953467171
 20
7.0539658238
 30
0.0
 10
10.6998293009
 20
7.048644121
 30
0.0
 10
10.7093208021
 20
7.0382088449
 30
0.0
 10
10.7248289622
 20
7.0234363252
 30
0.0
 10
10.7417181258
 20
7.0094154501
 30
0.0
 10
10.766251328
 20
6.9916087443
 30
0.0
 10
10.7930049105
 20
6.9757967379
 30
0.0
 10
10.8215279352
 20
6.9620411896
 30
0.0
 10
10.8441193288
 20
6.9526351497
 30
0.0
 10
10.8675785112
 20
6.9442955639
 30
0.0
 10
10.9000836574
 20
6.9345871851
 30
0.0
 10
10.9336954317
 20
6.9272480137
 30
0.0
 10
10.9680469165
 20
6.9222788579
 30
0.0
 10
11.0031026504
 20
6.9188843425
 30
0.0
 10
11.0296274621
 20
6.9181814549
 30
0.0
 10
11.0473183383
 20
6.9185277047
 30
0.0
  0
SPLINE
  5
2C9
100
AcDbEntity
  8
0
100
AcDbSpline
 62
7
  6
CONTINUOUS
 70
0
 71
3
 72
14
 73
10
 74
0
 42
0.0000001
 43
0.0000001
 44
0.0000000001
 40
0.0
 40
0.0
 40
0.0
 40
0.0
 40
0.1287254756
 40
0.2571753789
 40
0.3849269513
 40
0.5115839912
 40
0.6367646456
 40
0.7601190619
 40
1.0
 40
1.0
 40
1.0
 40
1.0
 10
11.0473183383
 20
6.8687190447
 30
0.0
 10
11.0583209025
 20
6.8689334065
 30
0.0
 10
11.0802954372
 20
6.8699928618
 30
0.0
 10
11.1130361307
 20
6.873467274
 30
0.0
 10
11.1453469617
 20
6.8788091213
 30
0.0
 10
11.1770130343
 20
6.8859868736
 30
0.0
 10
11.2078307539
 20
6.894959833
 30
0.0
 10
11.2471331606
 20
6.9091044895
 30
0.0
 10
11.2753271712
 20
6.9224080378
 30
0.0
 10
11.2932036771
 20
6.9324568232
 30
0.0
  0
SPLINE
  5
2CA
100
AcDbEntity
  8
0
100
AcDbSpline
 62
7
  6
CONTINUOUS
 70
0
 71
3
 72
21
 73
17
 74
0
 42
0.0000001
 43
0.0000001
 44
0.0000000001
 40
0.0
 40
0.0
 40
0.0
 40
0.0
 40
0.1403388488
 40
0.2758036173
 40
0.3416900584
 40
0.4063373041
 40
0.4697737225
 40
0.5320466679
 40
0.5932222987
 40
0.6533853196
 40
0.7126392264
 40
0.7711047826
 40
0.8289184035
 40
0.8862302624
 40
0.9432012903
 40
1.0
 40
1.0
 40
1.0
 40
1.0
 10
11.2932036771
 20
6.9324568232
 30
0.0
 10
11.3054015193
 20
6.9393135043
 30
0.0
 10
11.3287358612
 20
6.9539675606
 30
0.0
 10
11.3555625618
 20
6.9750882118
 30
0.0
 10
11.3749121383
 20
6.9932467667
 30
0.0
 10
11.3882100786
 20
7.0073069179
 30
0.0
 10
11.400380809
 20
7.021887494
 30
0.0
 10
11.4113841473
 20
7.0369423667
 30
0.0
 10
11.4211831771
 20
7.0524234156
 30
0.0
 10
11.4297444871
 20
7.0682813917
 30
0.0
 10
11.437039292
 20
7.0844652096
 30
0.0
 10
11.4430426102
 20
7.1009228092
 30
0.0
 10
11.4477334582
 20
7.1176008963
 30
0.0
 10
11.4510959837
 20
7.1344454962
 30
0.0
 10
11.4531182174
 20
7.1514003044
 30
0.0
 10
11.4535682681
 20
7.1627491665
 30
0.0
 10
11.4535682682
 20
7.1684124525
 30
0.0
  0
SPLINE
  5
2CB
100
AcDbEntity
  8
0
100
AcDbSpline
 62
7
  6
CONTINUOUS
 70
0
 71
3
 72
28
 73
24
 74
0
 42
0.0000001
 43
0.0000001
 44
0.0000000001
 40
0.0
 40
0.0
 40
0.0
 40
0.0
 40
0.0717759405
 40
0.1433042638
 40
0.2142517435
 40
0.284299133
 40
0.3531545179
 40
0.4205600187
 40
0.4863011532
 40
0.5502160655
 40
0.6122043678
 40
0.6722362312
 40
0.7303597781
 40
0.7587552938
 40
0.7867305818
 40
0.8143155
 40
0.8415452472
 40
0.8684599337
 40
0.8951042536
 40
0.9215269882
 40
0.9477802593
 40
0.9739190138
 40
1.0
 40
1.0
 40
1.0
 40
1.0
 10
11.0473183383
 20
6.9185277047
 30
0.0
 10
11.0606085613
 20
6.9187878239
 30
0.0
 10
11.0871344197
 20
6.9202270889
 30
0.0
 10
11.1265404215
 20
6.9251302563
 30
0.0
 10
11.1651914497
 20
6.9327383373
 30
0.0
 10
11.202715699
 20
6.9429870076
 30
0.0
 10
11.2387550666
 20
6.9557866744
 30
0.0
 10
11.2729649541
 20
6.9710240894
 30
0.0
 10
11.3050183452
 20
6.9885633404
 30
0.0
 10
11.3346081754
 20
7.0082470945
 30
0.0
 10
11.361450777
 20
7.0298993265
 30
0.0
 10
11.3852850639
 20
7.0533225933
 30
0.0
 10
11.4025849393
 20
7.0743115415
 30
0.0
 10
11.4146474526
 20
7.0917622639
 30
0.0
 10
11.4227414475
 20
7.1050486207
 30
0.0
 10
11.4299305526
 20
7.1186017031
 30
0.0
 10
11.4361977811
 20
7.1323900037
 30
0.0
 10
11.4415273841
 20
7.1463812248
 30
0.0
 10
11.4459061942
 20
7.1605425024
 30
0.0
 10
11.449323486
 20
7.1748403403
 30
0.0
 10
11.4517703498
 20
7.1892412525
 30
0.0
 10
11.4532411862
 20
7.2037101704
 30
0.0
 10
11.4535682682
 20
7.2133843476
 30
0.0
 10
11.4535682681
 20
7.2182144969
 30
0.0
  0
SPLINE
  5
2CC
100
AcDbEntity
  8
0
100
AcDbSpline
 62
7
  6
CONTINUOUS
 70
0
 71
3
 72
28
 73
24
 74
0
 42
0.0000001
 43
0.0000001
 44
0.0000000001
 40
0.0
 40
0.0
 40
0.0
 40
0.0
 40
0.0717724117
 40
0.1432970844
 40
0.2142409689
 40
0.2842849682
 40
0.3531373373
 40
0.4205403108
 40
0.486279567
 40
0.5501933399
 40
0.6121813468
 40
0.672213829
 40
0.7303389456
 40
0.7587356184
 40
0.7867122956
 40
0.8142988246
 40
0.8415304155
 40
0.8684471699
 40
0.8950937417
 40
0.9215188926
 40
0.9477747403
 40
0.9739162057
 40
1.0
 40
1.0
 40
1.0
 40
1.0
 10
11.0473183383
 20
6.9681751956
 30
0.0
 10
11.0606085919
 20
6.968434586
 30
0.0
 10
11.0871345369
 20
6.9698726341
 30
0.0
 10
11.1265406988
 20
6.9747746667
 30
0.0
 10
11.1651918521
 20
6.9823822594
 30
0.0
 10
11.2027161935
 20
6.9926310491
 30
0.0
 10
11.2387556182
 20
7.0054314053
 30
0.0
 10
11.2729655362
 20
7.0206700391
 30
0.0
 10
11.3050189275
 20
7.0382110071
 30
0.0
 10
11.3346087375
 20
7.0578969333
 30
0.0
 10
11.3614512938
 20
7.0795517604
 30
0.0
 10
11.3852855159
 20
7.1029780036
 30
0.0
 10
11.402585248
 20
7.1239696507
 30
0.0
 10
11.4146476586
 20
7.14142267
 30
0.0
 10
11.4227416188
 20
7.1547108672
 30
0.0
 10
11.4299306906
 20
7.1682658572
 30
0.0
 10
11.4361978849
 20
7.1820561342
 30
0.0
 10
11.4415274606
 20
7.1960493933
 30
0.0
 10
11.4459062463
 20
7.2102127647
 30
0.0
 10
11.4493235168
 20
7.2245127472
 30
0.0
 10
11.4517703626
 20
7.2389158542
 30
0.0
 10
11.4532411901
 20
7.2533870147
 30
0.0
 10
11.4535682681
 20
7.263062701
 30
0.0
 10
11.4535682682
 20
7.2678936138
 30
0.0
  0
SPLINE
  5
2CD
100
AcDbEntity
  8
0
100
AcDbSpline
 62
7
  6
CONTINUOUS
 70
0
 71
3
 72
21
 73
17
 74
0
 42
0.0000001
 43
0.0000001
 44
0.0000000001
 40
0.0
 40
0.0
 40
0.0
 40
0.0
 40
0.1361685312
 40
0.268371642
 40
0.3330709107
 40
0.3968743027
 40
0.4598304228
 40
0.5219957217
 40
0.5834346643
 40
0.6442191368
 40
0.7044280161
 40
0.7641466552
 40
0.8234658864
 40
0.8824813142
 40
0.9412921304
 40
1.0
 40
1.0
 40
1.0
 40
1.0
 10
11.4976917702
 20
6.8736361198
 30
0.0
 10
11.5075353057
 20
6.8648669011
 30
0.0
 10
11.5262187864
 20
6.8467564433
 30
0.0
 10
11.5472760248
 20
6.8222691356
 30
0.0
 10
11.5623053504
 20
6.8019804659
 30
0.0
 10
11.5725927829
 20
6.7865516064
 30
0.0
 10
11.5819568847
 20
6.7708303718
 30
0.0
 10
11.5903809527
 20
6.7548438891
 30
0.0
 10
11.5978500803
 20
6.7386204342
 30
0.0
 10
11.6043508233
 20
6.722188476
 30
0.0
 10
11.6098713956
 20
6.7055769568
 30
0.0
 10
11.6144020794
 20
6.6888152591
 30
0.0
 10
11.6179343564
 20
6.6719329972
 30
0.0
 10
11.6204621173
 20
6.6549599345
 30
0.0
 10
11.6219805817
 20
6.6379269276
 30
0.0
 10
11.6223183161
 20
6.6265465175
 30
0.0
 10
11.6223183039
 20
6.6208627351
 30
0.0
  0
SPLINE
  5
2CE
100
AcDbEntity
  8
0
100
AcDbSpline
 62
7
  6
CONTINUOUS
 70
0
 71
3
 72
38
 73
34
 74
0
 42
0.0000001
 43
0.0000001
 44
0.0000000001
 40
0.0
 40
0.0
 40
0.0
 40
0.0
 40
0.0667136112
 40
0.1007432544
 40
0.1351323451
 40
0.1698136193
 40
0.2047169602
 40
0.2397696655
 40
0.2748974641
 40
0.3100252628
 40
0.3450779725
 40
0.3799813094
 40
0.4146626076
 40
0.4490516368
 40
0.4830814331
 40
0.5166891427
 40
0.5498168828
 40
0.5824126211
 40
0.6144310749
 40
0.6458346266
 40
0.6765942502
 40
0.7066904363
 40
0.7361140963
 40
0.7648674158
 40
0.7929646134
 40
0.8204325475
 40
0.8473110964
 40
0.8736532214
 40
0.8995246216
 40
0.9250028928
 40
0.9501761291
 40
0.9751409495
 40
1.0
 40
1.0
 40
1.0
 40
1.0
 10
11.3348183383
 20
5.6040682103
 30
0.0
 10
11.3127712348
 20
5.5950675179
 30
0.0
 10
11.2787201336
 20
5.58324929
 30
0.0
 10
11.2320918562
 20
5.5708543413
 30
0.0
 10
11.196091256
 20
5.5631407321
 30
0.0
 10
11.1594575541
 20
5.5571074977
 30
0.0
 10
11.1223447171
 20
5.5527794763
 30
0.0
 10
11.0849117766
 20
5.5501753119
 30
0.0
 10
11.0473183371
 20
5.5493060125
 30
0.0
 10
11.009724906
 20
5.5501752984
 30
0.0
 10
10.9722919341
 20
5.5527794663
 30
0.0
 10
10.935179199
 20
5.5571074416
 30
0.0
 10
10.8985451
 20
5.5631408187
 30
0.0
 10
10.8625459839
 20
5.5708539487
 30
0.0
 10
10.827335474
 20
5.58021405
 30
0.0
 10
10.7930638156
 20
5.5911813656
 30
0.0
 10
10.7598772405
 20
5.6037093457
 30
0.0
 10
10.7279173529
 20
5.6177448611
 30
0.0
 10
10.6973205405
 20
5.6332284449
 30
0.0
 10
10.6682174173
 20
5.6500945612
 30
0.0
 10
10.6407322992
 20
5.6682718958
 30
0.0
 10
10.6149827181
 20
5.6876836645
 30
0.0
 10
10.5910789758
 20
5.7082479316
 30
0.0
 10
10.5691237365
 20
5.7298779309
 30
0.0
 10
10.5492116561
 20
5.7524823808
 30
0.0
 10
10.5314290367
 20
5.7759657816
 30
0.0
 10
10.5158534858
 20
5.8002286983
 30
0.0
 10
10.5025535794
 20
5.8251680034
 30
0.0
 10
10.4915884889
 20
5.8506772408
 30
0.0
 10
10.4830075692
 20
5.8766465602
 30
0.0
 10
10.4768498912
 20
5.9029644164
 30
0.0
 10
10.4731438289
 20
5.929513192
 30
0.0
 10
10.4723183408
 20
5.9473088594
 30
0.0
 10
10.4723183691
 20
5.9561823608
 30
0.0
  0
SPLINE
  5
2CF
100
AcDbEntity
  8
0
100
AcDbSpline
 62
7
  6
CONTINUOUS
 70
0
 71
3
 72
36
 73
32
 74
0
 42
0.0000001
 43
0.0000001
 44
0.0000000001
 40
0.0
 40
0.0
 40
0.0
 40
0.0
 40
0.0667162529
 40
0.1007470763
 40
0.1351375233
 40
0.2047054208
 40
0.2397594678
 40
0.2748886124
 40
0.345052929
 40
0.379957597
 40
0.4146402169
 40
0.4490305589
 40
0.4830616583
 40
0.5166706584
 40
0.5497996713
 40
0.5823966582
 40
0.6144163346
 40
0.6458210832
 40
0.6765818792
 40
0.7066792141
 40
0.7361039996
 40
0.7648584207
 40
0.7929566944
 40
0.8204256778
 40
0.8473052521
 40
0.8736483825
 40
0.8995207715
 40
0.9250000181
 40
0.9501742192
 40
0.9751399967
 40
1.0
 40
1.0
 40
1.0
 40
1.0
 10
11.2785683383
 20
6.323498348
 30
0.0
 10
11.2608347745
 20
6.3162586509
 30
0.0
 10
11.2334461709
 20
6.3067527492
 30
0.0
 10
11.1959399518
 20
6.296782741
 30
0.0
 10
11.1571888528
 20
6.288479818
 30
0.0
 10
11.1175942075
 20
6.2829350846
 30
0.0
 10
11.077556563
 20
6.2801497221
 30
0.0
 10
11.0372615401
 20
6.2792178972
 30
0.0
 10
10.9969841348
 20
6.2810766689
 30
0.0
 10
10.957120022
 20
6.2857255127
 30
0.0
 10
10.9276527711
 20
6.2905785348
 30
0.0
 10
10.8986971454
 20
6.296782546
 30
0.0
 10
10.8703755948
 20
6.3043113151
 30
0.0
 10
10.8428092649
 20
6.3131328344
 30
0.0
 10
10.8161157039
 20
6.3232096778
 30
0.0
 10
10.7904088381
 20
6.3344991175
 30
0.0
 10
10.7657983641
 20
6.3469533134
 30
0.0
 10
10.7423893387
 20
6.360519546
 30
0.0
 10
10.7202817507
 20
6.3751404506
 30
0.0
 10
10.699570134
 20
6.3907542652
 30
0.0
 10
10.6803432085
 20
6.4072950857
 30
0.0
 10
10.6626835538
 20
6.4246931242
 30
0.0
 10
10.6466673107
 20
6.4428749615
 30
0.0
 10
10.6323639037
 20
6.4617637865
 30
0.0
 10
10.6198357507
 20
6.4812796136
 30
0.0
 10
10.6091380044
 20
6.50133949
 30
0.0
 10
10.6003182562
 20
6.521857788
 30
0.0
 10
10.5934162016
 20
6.542746151
 30
0.0
 10
10.5884632763
 20
6.5639148595
 30
0.0
 10
10.5854822845
 20
6.5852693095
 30
0.0
 10
10.5848183383
 20
6.5995832173
 30
0.0
 10
10.5848183383
 20
6.6067205995
 30
0.0
  0
LINE
  5
2D0
100
AcDbEntity
  8
0
100
AcDbLine
 62
7
  6
CONTINUOUS
 10
11.0470277119
 20
6.5342422367
 11
11.0473586076
 21
6.5342421638
  0
SPLINE
  5
2D1
100
AcDbEntity
  8
0
100
AcDbSpline
 62
7
  6
CONTINUOUS
 70
0
 71
3
 72
18
 73
14
 74
0
 42
0.0000001
 43
0.0000001
 44
0.0000000001
 40
0.0
 40
0.0
 40
0.0
 40
0.0
 40
0.1411562682
 40
0.2778150583
 40
0.4096206736
 40
0.5364261907
 40
0.6583328099
 40
0.717586529
 40
0.7757789995
 40
0.8330009513
 40
0.8893601274
 40
0.9449804013
 40
1.0
 40
1.0
 40
1.0
 40
1.0
 10
11.2201279562
 20
6.4869480864
 30
0.0
 10
11.2311137078
 20
6.4914330007
 30
0.0
 10
11.252357886
 20
6.5012274185
 30
0.0
 10
11.2821542487
 20
6.518593003
 30
0.0
 10
11.3090510021
 20
6.5382112954
 30
0.0
 10
11.3327070224
 20
6.5598429783
 30
0.0
 10
11.3496367113
 20
6.5795268132
 30
0.0
 10
11.3612076812
 20
6.5960029627
 30
0.0
 10
11.3688263512
 20
6.6085686354
 30
0.0
 10
11.375440785
 20
6.6214177549
 30
0.0
 10
11.3810300562
 20
6.6345110359
 30
0.0
 10
11.3855758053
 20
6.647806237
 30
0.0
 10
11.387911976
 20
6.6568198772
 30
0.0
 10
11.388897719
 20
6.6613387035
 30
0.0
  0
SPLINE
  5
2D2
100
AcDbEntity
  8
0
100
AcDbSpline
 62
9
  6
CONTINUOUS
 70
0
 71
3
 72
23
 73
19
 74
0
 42
0.0000001
 43
0.0000001
 44
0.0000000001
 40
0.0
 40
0.0
 40
0.0
 40
0.0
 40
0.1169601454
 40
0.147315344
 40
0.1780601903
 40
0.2405989007
 40
0.3043477354
 40
0.3690325884
 40
0.4343549173
 40
0.5
 40
0.5656450827
 40
0.6309674116
 40
0.6956522646
 40
0.7594010993
 40
0.8219398097
 40
0.852684656
 40
0.8830398546
 40
1.0
 40
1.0
 40
1.0
 40
1.0
 10
11.6604032257
 20
8.3314141415
 30
0.0
 10
11.6526349409
 20
8.3421889175
 30
0.0
 10
11.6441444687
 20
8.3567461269
 30
0.0
 10
11.635779896
 20
8.3751556444
 30
0.0
 10
11.6304930527
 20
8.3881688113
 30
0.0
 10
11.6247726697
 20
8.4050807256
 30
0.0
 10
11.6193943055
 20
8.4261122701
 30
0.0
 10
11.6155147543
 20
8.4477920357
 30
0.0
 10
11.6131718867
 20
8.4699070929
 30
0.0
 10
11.6123883975
 20
8.4922409815
 30
0.0
 10
11.6131718867
 20
8.5145748701
 30
0.0
 10
11.6155147543
 20
8.5366899273
 30
0.0
 10
11.6193943055
 20
8.5583696929
 30
0.0
 10
11.6247726697
 20
8.5794012373
 30
0.0
 10
11.6304930527
 20
8.5963131517
 30
0.0
 10
11.635779896
 20
8.6093263185
 30
0.0
 10
11.6441444687
 20
8.6277358361
 30
0.0
 10
11.6526349409
 20
8.6422930455
 30
0.0
 10
11.6604032257
 20
8.6530678215
 30
0.0
  0
SPLINE
  5
2D3
100
AcDbEntity
  8
0
100
AcDbSpline
 62
9
  6
CONTINUOUS
 70
0
 71
3
 72
9
 73
5
 74
0
 42
0.0000001
 43
0.0000001
 44
0.0000000001
 40
0.0
 40
0.0
 40
0.0
 40
0.0
 40
0.2468299263
 40
1.0
 40
1.0
 40
1.0
 40
1.0
 10
10.2451611418
 20
6.4814021058
 30
0.0
 10
10.2634198081
 20
6.4888561751
 30
0.0
 10
10.3378700378
 20
6.5178758327
 30
0.0
 10
10.4141304919
 20
6.5422205091
 30
0.0
 10
10.4722056464
 20
6.5579896912
 30
0.0
  0
SPLINE
  5
2D4
100
AcDbEntity
  8
0
100
AcDbSpline
 62
9
  6
CONTINUOUS
 70
0
 71
3
 72
53
 73
49
 74
0
 42
0.0000001
 43
0.0000001
 44
0.0000000001
 40
0.0
 40
0.0
 40
0.0
 40
0.0
 40
0.0370117361
 40
0.0734793406
 40
0.1093346927
 40
0.1445185505
 40
0.178981901
 40
0.2126873029
 40
0.2456102335
 40
0.2777404215
 40
0.3090830909
 40
0.3396600234
 40
0.35467602
 40
0.3695167724
 40
0.3841899555
 40
0.398704357
 40
0.4130698634
 40
0.4272974043
 40
0.4413989325
 40
0.4553873559
 40
0.469276454
 40
0.4830808105
 40
0.4968156976
 40
0.510496963
 40
0.5241409134
 40
0.5377641717
 40
0.5513835384
 40
0.5650158488
 40
0.5786778278
 40
0.5923859425
 40
0.6061562685
 40
0.6200043638
 40
0.6339451369
 40
0.6479927527
 40
0.6621605374
 40
0.6764608829
 40
0.6909052053
 40
0.7055038792
 40
0.7202661928
 40
0.7352003492
 40
0.7656053231
 40
0.7967685613
 40
0.8287157934
 40
0.861455973
 40
0.8949823077
 40
0.9292735015
 40
0.9642946953
 40
1.0
 40
1.0
 40
1.0
 40
1.0
 10
11.6224310322
 20
6.5579896953
 30
0.0
 10
11.6573169168
 20
6.5485171236
 30
0.0
 10
11.7260947606
 20
6.5278790315
 30
0.0
 10
11.8265978265
 20
6.4916353413
 30
0.0
 10
11.923263324
 20
6.4504866213
 30
0.0
 10
12.0156110602
 20
6.4046349376
 30
0.0
 10
12.1031867896
 20
6.3543039863
 30
0.0
 10
12.1855582907
 20
6.2997392105
 30
0.0
 10
12.2623184891
 20
6.2412065688
 30
0.0
 10
12.3330880228
 20
6.1789898551
 30
0.0
 10
12.3975128312
 20
6.1133953122
 30
0.0
 10
12.445942504
 20
6.0558289829
 30
0.0
 10
12.4811246965
 20
6.0084177155
 30
0.0
 10
12.5055818088
 20
5.9724378035
 30
0.0
 10
12.5282344442
 20
5.9358705786
 30
0.0
 10
12.5490548118
 20
5.8987606127
 30
0.0
 10
12.5680169131
 20
5.8611540099
 30
0.0
 10
12.5850968344
 20
5.8230971411
 30
0.0
 10
12.6002732261
 20
5.7846371909
 30
0.0
 10
12.6135271054
 20
5.7458218513
 30
0.0
 10
12.6248415475
 20
5.7066992081
 30
0.0
 10
12.6342024757
 20
5.667317922
 30
0.0
 10
12.641598034
 20
5.6277269369
 30
0.0
 10
12.6470186835
 20
5.5879754981
 30
0.0
 10
12.6504578019
 20
5.5481131459
 30
0.0
 10
12.6519108809
 20
5.5081895256
 30
0.0
 10
12.6513760209
 20
5.4682544097
 30
0.0
 10
12.6488541157
 20
5.428357567
 30
0.0
 10
12.6443481377
 20
5.3885487287
 30
0.0
 10
12.6378638859
 20
5.3488774875
 30
0.0
 10
12.6294096932
 20
5.3093931975
 30
0.0
 10
12.6189960124
 20
5.2701450273
 30
0.0
 10
12.6066361877
 20
5.2311817063
 30
0.0
 10
12.5923457965
 20
5.1925515913
 30
0.0
 10
12.5761426417
 20
5.1543026582
 30
0.0
 10
12.5580473061
 20
5.1164822045
 30
0.0
 10
12.5380823249
 20
5.0791370346
 30
0.0
 10
12.5162727509
 20
5.0423135246
 30
0.0
 10
12.4926454951
 20
5.0060564502
 30
0.0
 10
12.4585590046
 20
4.9582491014
 30
0.0
 10
12.4114582376
 20
4.9001322565
 30
0.0
 10
12.348545297
 20
4.8338017313
 30
0.0
 10
12.2792106989
 20
4.7707766422
 30
0.0
 10
12.2038016474
 20
4.7113671993
 30
0.0
 10
12.1226912155
 20
4.6558615442
 30
0.0
 10
12.0362795844
 20
4.6045299805
 30
0.0
 10
11.9449969316
 20
4.557623859
 30
0.0
 10
11.8817617327
 20
4.5297070659
 30
0.0
 10
11.8494755348
 20
4.5165262808
 30
0.0
  0
SPLINE
  5
2D5
100
AcDbEntity
  8
0
100
AcDbSpline
 62
9
  6
CONTINUOUS
 70
0
 71
3
 72
29
 73
25
 74
0
 42
0.0000001
 43
0.0000001
 44
0.0000000001
 40
0.0
 40
0.0
 40
0.0
 40
0.0
 40
0.072399798
 40
0.1435167252
 40
0.2132683558
 40
0.2815895964
 40
0.3484372792
 40
0.4137911799
 40
0.4776561603
 40
0.5400638101
 40
0.6010737892
 40
0.6607746698
 40
0.6901759386
 40
0.7192964769
 40
0.7481553775
 40
0.7767734267
 40
0.8051729668
 40
0.8333778008
 40
0.8614130888
 40
0.8893051569
 40
0.9170813763
 40
0.9447699509
 40
0.9723997284
 40
1.0
 40
1.0
 40
1.0
 40
1.0
 10
11.8573183383
 20
4.4690782324
 30
0.0
 10
11.8876675038
 20
4.4814682274
 30
0.0
 10
11.9471976565
 20
4.5076113101
 30
0.0
 10
12.0333987741
 20
4.5512338881
 30
0.0
 10
12.1153941097
 20
4.5987524492
 30
0.0
 10
12.1928303315
 20
4.6499651074
 30
0.0
 10
12.2653770039
 20
4.7046556439
 30
0.0
 10
12.3327231895
 20
4.7625932943
 30
0.0
 10
12.3945795685
 20
4.8235333301
 30
0.0
 10
12.4506799751
 20
4.8872195036
 30
0.0
 10
12.5007794857
 20
4.9533793133
 30
0.0
 10
12.5375381025
 20
5.0106413909
 30
0.0
 10
12.5636667283
 20
5.0573738189
 30
0.0
 10
12.5815421803
 20
5.0926824894
 30
0.0
 10
12.5977739079
 20
5.1283868637
 30
0.0
 10
12.6123449709
 20
5.1644491616
 30
0.0
 10
12.6252393611
 20
5.2008306064
 30
0.0
 10
12.6364429922
 20
5.237492222
 30
0.0
 10
12.6459439093
 20
5.2743945423
 30
0.0
 10
12.6537314268
 20
5.3114980087
 30
0.0
 10
12.6597973373
 20
5.3487625579
 30
0.0
 10
12.6641348572
 20
5.3861483963
 30
0.0
 10
12.6667392057
 20
5.423614193
 30
0.0
 10
12.6673183383
 20
5.4486248551
 30
0.0
 10
12.6673183383
 20
5.4611215783
 30
0.0
  0
SPLINE
  5
2D6
100
AcDbEntity
  8
0
100
AcDbSpline
 62
9
  6
CONTINUOUS
 70
0
 71
3
 72
36
 73
32
 74
0
 42
0.0000001
 43
0.0000001
 44
0.0000000001
 40
0.0
 40
0.0
 40
0.0
 40
0.0
 40
0.073985173
 40
0.1103335297
 40
0.1462244134
 40
0.2165616526
 40
0.2510003855
 40
0.2849392746
 40
0.351296204
 40
0.383737041
 40
0.4156917611
 40
0.4471736918
 40
0.4782003229
 40
0.508793342
 40
0.5389786223
 40
0.5687861526
 40
0.598249904
 40
0.6274076208
 40
0.6563005271
 40
0.6849729581
 40
0.7134719142
 40
0.741846542
 40
0.7701475556
 40
0.7984266072
 40
0.8267356302
 40
0.8551261741
 40
0.8836487515
 40
0.9123522155
 40
0.9412831863
 40
0.9704855451
 40
1.0
 40
1.0
 40
1.0
 40
1.0
 10
12.0484360611
 20
3.774667227
 30
0.0
 10
12.0974463794
 20
3.7946756057
 30
0.0
 10
12.1695508594
 20
3.827032846
 30
0.0
 10
12.2625390892
 20
3.8750277171
 30
0.0
 10
12.3514073008
 20
3.9251600114
 30
0.0
 10
12.4362249917
 20
3.9795724664
 30
0.0
 10
12.5163717971
 20
4.0381583306
 30
0.0
 10
12.5917908435
 20
4.0982391074
 30
0.0
 10
12.6622747772
 20
4.162114833
 30
0.0
 10
12.7271503701
 20
4.2295584547
 30
0.0
 10
12.7723629052
 20
4.2811887443
 30
0.0
 10
12.8144055919
 20
4.3341449018
 30
0.0
 10
12.8532020907
 20
4.388331441
 30
0.0
 10
12.8886800241
 20
4.4436488304
 30
0.0
 10
12.9207734791
 20
4.499995815
 30
0.0
 10
12.9494225115
 20
4.5572690049
 30
0.0
 10
12.9745734895
 20
4.6153631608
 30
0.0
 10
12.9961792035
 20
4.6741713228
 30
0.0
 10
13.0141989423
 20
4.7335850264
 30
0.0
 10
13.0285986255
 20
4.7934944807
 30
0.0
 10
13.0393509188
 20
4.8537887777
 30
0.0
 10
13.0464353313
 20
4.9143561172
 30
0.0
 10
13.0498383921
 20
4.9750840441
 30
0.0
 10
13.0495536318
 20
5.035859725
 30
0.0
 10
13.0455815975
 20
5.0965702177
 30
0.0
 10
13.0379298639
 20
5.1571027229
 30
0.0
 10
13.026612957
 20
5.2173449135
 30
0.0
 10
13.0116524577
 20
5.2771849445
 30
0.0
 10
12.993076503
 20
5.336512663
 30
0.0
 10
12.9709212387
 20
5.3952162227
 30
0.0
 10
12.953887824
 20
5.4336488405
 30
0.0
 10
12.9448060328
 20
5.4527141836
 30
0.0
  0
SPLINE
  5
2D7
100
AcDbEntity
  8
0
100
AcDbSpline
 62
9
  6
CONTINUOUS
 70
0
 71
3
 72
33
 73
29
 74
0
 42
0.0000001
 43
0.0000001
 44
0.0000000001
 40
0.0
 40
0.0
 40
0.0
 40
0.0
 40
0.0623836978
 40
0.0940520997
 40
0.1259978167
 40
0.1905890947
 40
0.2231800765
 40
0.2559200759
 40
0.3216990209
 40
0.3546761298
 40
0.3876608459
 40
0.4535004208
 40
0.4862930836
 40
0.5189512761
 40
0.5837191226
 40
0.6157730295
 40
0.6475623855
 40
0.6790580628
 40
0.7102327113
 40
0.7410609718
 40
0.771519693
 40
0.8015881524
 40
0.8312482798
 40
0.8892726711
 40
0.9176293061
 40
0.9455363764
 40
0.9729924371
 40
1.0
 40
1.0
 40
1.0
 40
1.0
 10
11.8494755348
 20
4.5165262808
 30
0.0
 10
11.8057506752
 20
4.4986756816
 30
0.0
 10
11.7387724233
 20
4.4742647203
 30
0.0
 10
11.6475078542
 20
4.4464749225
 30
0.0
 10
11.5536961021
 20
4.4215098585
 30
0.0
 10
11.4579471361
 20
4.4013452792
 30
0.0
 10
11.3607796831
 20
4.3859868487
 30
0.0
 10
11.2622574981
 20
4.3737957021
 30
0.0
 10
11.1628855414
 20
4.3665284973
 30
0.0
 10
11.063162685
 20
4.3641858077
 30
0.0
 10
10.963370899
 20
4.3651359858
 30
0.0
 10
10.8638158251
 20
4.3710166844
 30
0.0
 10
10.7649952586
 20
4.3818275157
 30
0.0
 10
10.6673965293
 20
4.3958294145
 30
0.0
 10
10.5711038135
 20
4.4146555006
 30
0.0
 10
10.4766361204
 20
4.4382999973
 30
0.0
 10
10.4072640187
 20
4.458285122
 30
0.0
 10
10.3392863653
 20
4.4805374584
 30
0.0
 10
10.2728497934
 20
4.50500901
 30
0.0
 10
10.208099104
 20
4.5316466728
 30
0.0
 10
10.1451757687
 20
4.5603923119
 30
0.0
 10
10.0842145144
 20
4.591184941
 30
0.0
 10
10.0063108128
 20
4.6345560585
 30
0.0
 10
9.932223349
 20
4.6820033647
 30
0.0
 10
9.8626005686
 20
4.7334122218
 30
0.0
 10
9.8133550647
 20
4.7733504089
 30
0.0
 10
9.766798815
 20
4.8148712936
 30
0.0
 10
9.7373775368
 20
4.8437871763
 30
0.0
 10
9.7231614597
 20
4.858482651
 30
0.0
  0
SPLINE
  5
2D8
100
AcDbEntity
  8
0
100
AcDbSpline
 62
9
  6
CONTINUOUS
 70
0
 71
3
 72
40
 73
36
 74
0
 42
0.0000001
 43
0.0000001
 44
0.0000000001
 40
0.0
 40
0.0
 40
0.0
 40
0.0
 40
0.0322234067
 40
0.0481199447
 40
0.0638754772
 40
0.0949731128
 40
0.1255505535
 40
0.1406577645
 40
0.1556498332
 40
0.1853083502
 40
0.2145819651
 40
0.2435288546
 40
0.2722126951
 40
0.300701744
 40
0.329067744
 40
0.357384681
 40
0.3857274444
 40
0.4141704477
 40
0.442786269
 40
0.4716443739
 40
0.5008099694
 40
0.5303430278
 40
0.5602975022
 40
0.5907207421
 40
0.6216531009
 40
0.65312772
 40
0.6851704682
 40
0.7178000084
 40
0.7510279699
 40
0.7848591957
 40
0.8192920632
 40
0.8543188
 40
0.8899259678
 40
0.9260945625
 40
1.0
 40
1.0
 40
1.0
 40
1.0
 10
9.7231614597
 20
4.858482651
 30
0.0
 10
9.7077626723
 20
4.8744007194
 30
0.0
 10
9.685410143
 20
4.8988082081
 30
0.0
 10
9.6571798378
 20
4.9324363159
 30
0.0
 10
9.6304202643
 20
4.9662661022
 30
0.0
 10
9.5992647363
 20
5.0094536616
 30
0.0
 10
9.5710547894
 20
5.054097633
 30
0.0
 10
9.5504836716
 20
5.0903819957
 30
0.0
 10
9.5313856901
 20
5.1267505341
 30
0.0
 10
9.5099736588
 20
5.1728715624
 30
0.0
 10
9.4882650053
 20
5.2292845488
 30
0.0
 10
9.4706911258
 20
5.2864216595
 30
0.0
 10
9.4573012168
 20
5.3441290782
 30
0.0
 10
9.4481322072
 20
5.4022526796
 30
0.0
 10
9.443209676
 20
5.4606363696
 30
0.0
 10
9.4425473544
 20
5.5191231939
 30
0.0
 10
9.4461470984
 20
5.5775557723
 30
0.0
 10
9.4539988512
 20
5.6357769407
 30
0.0
 10
9.4660807306
 20
5.6936303333
 30
0.0
 10
9.4823591942
 20
5.7509609428
 30
0.0
 10
9.5027892729
 20
5.8076156231
 30
0.0
 10
9.5273148462
 20
5.8634435326
 30
0.0
 10
9.555868936
 20
5.9182965206
 30
0.0
 10
9.5883740113
 20
5.972029463
 30
0.0
 10
9.6247422828
 20
6.0245005664
 30
0.0
 10
9.6648759902
 20
6.0755716517
 30
0.0
 10
9.7086676855
 20
6.1251084302
 30
0.0
 10
9.7560005099
 20
6.172980777
 30
0.0
 10
9.8067485048
 20
6.2190630145
 30
0.0
 10
9.8607768396
 20
6.2632341706
 30
0.0
 10
9.9179424158
 20
6.3053783668
 30
0.0
 10
9.9780931466
 20
6.3453846558
 30
0.0
 10
10.0410723739
 20
6.383149147
 30
0.0
 10
10.1292089317
 20
6.4307130039
 30
0.0
 10
10.1981333707
 20
6.4622030986
 30
0.0
 10
10.2451611418
 20
6.4814021058
 30
0.0
  0
SPLINE
  5
2D9
100
AcDbEntity
  8
0
100
AcDbSpline
 62
9
  6
CONTINUOUS
 70
0
 71
3
 72
47
 73
43
 74
0
 42
0.0000001
 43
0.0000001
 44
0.0000000001
 40
0.0
 40
0.0
 40
0.0
 40
0.0
 40
0.0330546315
 40
0.0665836832
 40
0.1005311181
 40
0.1348352958
 40
0.1694309314
 40
0.2042494507
 40
0.2392198983
 40
0.2742697021
 40
0.3093254546
 40
0.3443136864
 40
0.3791616384
 40
0.4137980382
 40
0.4481538852
 40
0.4821632448
 40
0.5157640539
 40
0.5488989433
 40
0.5815160778
 40
0.6135700158
 40
0.6450225885
 40
0.6758437847
 40
0.706012637
 40
0.7355180943
 40
0.7500235408
 40
0.7643639851
 40
0.7785411815
 40
0.7925576672
 40
0.8201177409
 40
0.8470844934
 40
0.8603627019
 40
0.8735118454
 40
0.8865399382
 40
0.8994557356
 40
0.9122686904
 40
0.924988936
 40
0.9376272074
 40
0.9501948067
 40
0.9627035231
 40
0.9751655589
 40
0.9875934565
 40
1.0
 40
1.0
 40
1.0
 40
1.0
 10
11.8573183383
 20
4.4931116836
 30
0.0
 10
11.8267847194
 20
4.4806463859
 30
0.0
 10
11.7646060202
 20
4.4571546146
 30
0.0
 10
11.6690596241
 20
4.4264983627
 30
0.0
 10
11.5709098894
 20
4.4002766089
 30
0.0
 10
11.4705703749
 20
4.3786000373
 30
0.0
 10
11.3684600813
 20
4.3615585152
 30
0.0
 10
11.2650063151
 20
4.3492232169
 30
0.0
 10
11.1606418095
 20
4.3416455389
 30
0.0
 10
11.0558031993
 20
4.3388570637
 30
0.0
 10
10.9509290904
 20
4.3408694087
 30
0.0
 10
10.8464582432
 20
4.3476741818
 30
0.0
 10
10.7428277201
 20
4.3592430152
 30
0.0
 10
10.6404710531
 20
4.3755277025
 30
0.0
 10
10.5398164128
 20
4.3964603661
 30
0.0
 10
10.4412848098
 20
4.4219537789
 30
0.0
 10
10.3452883453
 20
4.451901787
 30
0.0
 10
10.2522284968
 20
4.4861797838
 30
0.0
 10
10.1624944839
 20
4.524645251
 30
0.0
 10
10.0764616076
 20
4.5671384657
 30
0.0
 10
9.9944899729
 20
4.6134829126
 30
0.0
 10
9.9169221251
 20
4.6634869664
 30
0.0
 10
9.8440852081
 20
4.7169415973
 30
0.0
 10
9.787259576
 20
4.7644506654
 30
0.0
 10
9.744505026
 20
4.8039812186
 30
0.0
 10
9.7139847485
 20
4.8341788249
 30
0.0
 10
9.6848630488
 20
4.8650608067
 30
0.0
 10
9.6481497772
 20
4.906866089
 30
0.0
 10
9.6058245182
 20
4.9606674289
 30
0.0
 10
9.5681029989
 20
5.0169150487
 30
0.0
 10
9.5411136311
 20
5.0628601796
 30
0.0
 10
9.5225543236
 20
5.0975899682
 30
0.0
 10
9.5055958037
 20
5.1327275993
 30
0.0
 10
9.4902556039
 20
5.168236671
 30
0.0
 10
9.4765503522
 20
5.2040798451
 30
0.0
 10
9.4644942951
 20
5.2402193564
 30
0.0
 10
9.454100599
 20
5.2766172785
 30
0.0
 10
9.4453801406
 20
5.313235234
 30
0.0
 10
9.4383422897
 20
5.3500345835
 30
0.0
 10
9.4329947102
 20
5.3869768123
 30
0.0
 10
9.4293428567
 20
5.4240218776
 30
0.0
 10
9.4280409234
 20
5.4487763276
 30
0.0
 10
9.4276741328
 20
5.4611494531
 30
0.0
  0
SPLINE
  5
2DA
100
AcDbEntity
  8
0
100
AcDbSpline
 62
7
  6
CONTINUOUS
 70
0
 71
3
 72
15
 73
11
 74
0
 42
0.0000001
 43
0.0000001
 44
0.0000000001
 40
0.0
 40
0.0
 40
0.0
 40
0.0
 40
0.1194658352
 40
0.2397612362
 40
0.3613053915
 40
0.484488419
 40
0.6096636563
 40
0.7371376761
 40
0.8671836233
 40
1.0
 40
1.0
 40
1.0
 40
1.0
 10
10.6416012175
 20
7.1435710942
 30
0.0
 10
10.6420107617
 20
7.1380829779
 30
0.0
 10
10.6433064198
 20
7.1270982999
 30
0.0
 10
10.6466535959
 20
7.1107751898
 30
0.0
 10
10.6513968694
 20
7.0946225871
 30
0.0
 10
10.6575186491
 20
7.0787005275
 30
0.0
 10
10.6649965965
 20
7.0630661415
 30
0.0
 10
10.6738036611
 20
7.0477749055
 30
0.0
 10
10.6839078158
 20
7.0328827905
 30
0.0
 10
10.6914038888
 20
7.0233583159
 30
0.0
 10
10.6953467171
 20
7.0186797703
 30
0.0
  0
SPLINE
  5
2DB
100
AcDbEntity
  8
0
100
AcDbSpline
 62
9
  6
CONTINUOUS
 70
0
 71
3
 72
46
 73
42
 74
0
 42
0.0000001
 43
0.0000001
 44
0.0000000001
 40
0.0
 40
0.0
 40
0.0
 40
0.0
 40
0.0331257319
 40
0.0667311211
 40
0.1007587626
 40
0.1351455688
 40
0.1698246304
 40
0.2047257169
 40
0.2397761664
 40
0.2749017017
 40
0.3100272369
 40
0.3450776866
 40
0.3799787728
 40
0.4146578346
 40
0.4490446456
 40
0.4830722483
 40
0.5166777945
 40
0.5498034032
 40
0.5823970418
 40
0.6144134327
 40
0.6458149626
 40
0.6765726049
 40
0.7066668476
 40
0.7360886071
 40
0.7648400717
 40
0.792935458
 40
0.8204016199
 40
0.8339132789
 40
0.847283691
 40
0.860519892
 40
0.8736297031
 40
0.8866217311
 40
0.8995053306
 40
0.9122905554
 40
0.9249881292
 40
0.9376093723
 40
0.9501661398
 40
0.9626707538
 40
0.97513591
 40
0.9875745967
 40
1.0
 40
1.0
 40
1.0
 40
1.0
 10
11.9998183383
 20
4.1612031361
 30
0.0
 10
11.9635474902
 20
4.1463956244
 30
0.0
 10
11.8896725638
 20
4.1185075317
 30
0.0
 10
11.7761315605
 20
4.082173498
 30
0.0
 10
11.6594770657
 20
4.0511627859
 30
0.0
 10
11.5402105789
 20
4.0256089226
 30
0.0
 10
11.418840171
 20
4.0056200725
 30
0.0
 10
11.2958840817
 20
3.9912813027
 30
0.0
 10
11.1718670188
 20
3.9826535395
 30
0.0
 10
11.0473183385
 20
3.9797735153
 30
0.0
 10
10.9227696568
 20
3.9826535398
 30
0.0
 10
10.7987525979
 20
3.9912813014
 30
0.0
 10
10.675796495
 20
4.0056200776
 30
0.0
 10
10.5544261317
 20
4.0256089035
 30
0.0
 10
10.4351594993
 20
4.0511628527
 30
0.0
 10
10.318505545
 20
4.0821732699
 30
0.0
 10
10.2049620297
 20
4.1185084276
 30
0.0
 10
10.0950134353
 20
4.1600141282
 30
0.0
 10
9.9891289329
 20
4.2065144143
 30
0.0
 10
9.8877603628
 20
4.2578122123
 30
0.0
 10
9.7913404369
 20
4.3136903869
 30
0.0
 10
9.7002810447
 20
4.3739126649
 30
0.0
 10
9.6149715689
 20
4.4382247859
 30
0.0
 10
9.5357775779
 20
4.5063549538
 30
0.0
 10
9.4630385348
 20
4.5780167058
 30
0.0
 10
9.3970703453
 20
4.6529039731
 30
0.0
 10
9.3477029117
 20
4.718098875
 30
0.0
 10
9.3119484846
 20
4.7715297172
 30
0.0
 10
9.2871340199
 20
4.8119858112
 30
0.0
 10
9.26420465
 20
4.8529954484
 30
0.0
 10
9.2431848498
 20
4.8945154881
 30
0.0
 10
9.2240974156
 20
4.9365012685
 30
0.0
 10
9.2069629033
 20
4.9789078175
 30
0.0
 10
9.1918001496
 20
5.0216897441
 30
0.0
 10
9.1786254064
 20
5.0648010526
 30
0.0
 10
9.1674531066
 20
5.1081954704
 30
0.0
 10
9.1582955357
 20
5.1518263904
 30
0.0
 10
9.1511624538
 20
5.1956467382
 30
0.0
 10
9.1460618937
 20
5.2396097196
 30
0.0
 10
9.1429993335
 20
5.2836667182
 30
0.0
 10
9.1423183383
 20
5.3130774053
 30
0.0
 10
9.1423183383
 20
5.3277726261
 30
0.0
  0
SPLINE
  5
2DC
100
AcDbEntity
  8
0
100
AcDbSpline
 62
9
  6
CONTINUOUS
 70
0
 71
3
 72
38
 73
34
 74
0
 42
0.0000001
 43
0.0000001
 44
0.0000000001
 40
0.0
 40
0.0
 40
0.0
 40
0.0
 40
0.0740845448
 40
0.1103966061
 40
0.1461872446
 40
0.181438813
 40
0.2161381394
 40
0.2502765732
 40
0.2838503722
 40
0.3168609498
 40
0.3493151388
 40
0.3812254066
 40
0.4126100273
 40
0.4434931898
 40
0.4739050272
 40
0.5038815508
 40
0.5334644707
 40
0.5627008901
 40
0.59164286
 40
0.6203467932
 40
0.6488727392
 40
0.6772835337
 40
0.7056438468
 40
0.7340191608
 40
0.762474716
 40
0.7910744664
 40
0.8198800854
 40
0.8489500563
 40
0.8783388776
 40
0.9080964002
 40
0.9382673059
 40
0.968890727
 40
1.0
 40
1.0
 40
1.0
 40
1.0
 10
12.0978596418
 20
3.6610013494
 30
0.0
 10
12.1554688469
 20
3.6845202089
 30
0.0
 10
12.2400280033
 20
3.7228840242
 30
0.0
 10
12.3485247935
 20
3.7804246346
 30
0.0
 10
12.4263628513
 20
3.8259983544
 30
0.0
 10
12.5010144556
 20
3.8741661039
 30
0.0
 10
12.5723098193
 20
3.9248185414
 30
0.0
 10
12.6400833546
 20
3.9778390693
 30
0.0
 10
12.7041783985
 20
4.033106074
 30
0.0
 10
12.7644463973
 20
4.0904927104
 30
0.0
 10
12.8207475261
 20
4.1498672844
 30
0.0
 10
12.8729509028
 20
4.2110934974
 30
0.0
 10
12.9209348919
 20
4.2740307203
 30
0.0
 10
12.9645873668
 20
4.3385342595
 30
0.0
 10
13.0038059743
 20
4.4044556236
 30
0.0
 10
13.0384983935
 20
4.4716427923
 30
0.0
 10
13.0685825975
 20
4.5399404938
 30
0.0
 10
13.0939871211
 20
4.6091904971
 30
0.0
 10
13.1146513238
 20
4.6792319344
 30
0.0
 10
13.1305256487
 20
4.7499016578
 30
0.0
 10
13.1415718652
 20
4.8210346403
 30
0.0
 10
13.147763279
 20
4.8924644242
 30
0.0
 10
13.149084893
 20
4.9640236122
 30
0.0
 10
13.1455335028
 20
5.0355443917
 30
0.0
 10
13.1371177174
 20
5.1068590738
 30
0.0
 10
13.1238579044
 20
5.1778006274
 30
0.0
 10
13.1057860591
 20
5.248203194
 30
0.0
 10
13.0829456335
 20
5.3179025426
 30
0.0
 10
13.0553912547
 20
5.3867365666
 30
0.0
 10
13.0231886795
 20
5.4545453944
 30
0.0
 10
12.9864137448
 20
5.5211727555
 30
0.0
 10
12.9451550981
 20
5.5864623721
 30
0.0
 10
12.9149665616
 20
5.6286583318
 30
0.0
 10
12.8991829057
 20
5.6494817737
 30
0.0
  0
SPLINE
  5
2DD
100
AcDbEntity
  8
0
100
AcDbSpline
 62
9
  6
CONTINUOUS
 70
0
 71
3
 72
57
 73
53
 74
0
 42
0.0000001
 43
0.0000001
 44
0.0000000001
 40
0.0
 40
0.0
 40
0.0
 40
0.0
 40
0.0141152338
 40
0.0280437487
 40
0.0417957716
 40
0.0553830996
 40
0.0688190585
 40
0.0821184352
 40
0.0952973798
 40
0.1083732834
 40
0.1213646298
 40
0.1342908237
 40
0.147171992
 40
0.1600287679
 40
0.1728820612
 40
0.1857528213
 40
0.1986617988
 40
0.2116293129
 40
0.2246750308
 40
0.2378177644
 40
0.2510752863
 40
0.2644641718
 40
0.2779996708
 40
0.2916956041
 40
0.3055642861
 40
0.3196164678
 40
0.3338613109
 40
0.3483063806
 40
0.362957654
 40
0.377819542
 40
0.40817882
 40
0.423683931
 40
0.4394024832
 40
0.4714623906
 40
0.487800053
 40
0.5043331048
 40
0.5379506351
 40
0.5550224249
 40
0.5722549965
 40
0.6071547284
 40
0.6425605244
 40
0.678369694
 40
0.7144726201
 40
0.7507547581
 40
0.7870986086
 40
0.8233856605
 40
0.8594983331
 40
0.8953219217
 40
0.9307465579
 40
0.948278856
 40
0.9656733266
 40
1.0
 40
1.0
 40
1.0
 40
1.0
 10
9.1950295712
 20
5.6489218227
 30
0.0
 10
9.1817637855
 20
5.6314023138
 30
0.0
 10
9.1562111989
 20
5.5959772431
 30
0.0
 10
9.1207085727
 20
5.5414169081
 30
0.0
 10
9.0883497024
 20
5.4858816548
 30
0.0
 10
9.0591892166
 20
5.4294634359
 30
0.0
 10
9.0332751975
 20
5.3722538898
 30
0.0
 10
9.0106507477
 20
5.3143466068
 30
0.0
 10
8.9913535582
 20
5.2558363095
 30
0.0
 10
8.9754159115
 20
5.1968188933
 30
0.0
 10
8.9628645912
 20
5.1373912216
 30
0.0
 10
8.9537206684
 20
5.0776509987
 30
0.0
 10
8.9479994971
 20
5.0176965551
 30
0.0
 10
8.945710724
 20
4.9576266534
 30
0.0
 10
8.9468582417
 20
4.897540297
 30
0.0
 10
8.9514401671
 20
4.8375365333
 30
0.0
 10
8.9594487079
 20
4.7777142318
 30
0.0
 10
8.9708703478
 20
4.7181718816
 30
0.0
 10
8.9856858811
 20
4.6590074023
 30
0.0
 10
9.0038704966
 20
4.6003179726
 30
0.0
 10
9.0253937677
 20
4.5421998397
 30
0.0
 10
9.0502197156
 20
4.4847481344
 30
0.0
 10
9.0783070218
 20
4.4280567582
 30
0.0
 10
9.1096090929
 20
4.372218238
 30
0.0
 10
9.1440741858
 20
4.3173236079
 30
0.0
 10
9.1816453493
 20
4.2634622433
 30
0.0
 10
9.2222607601
 20
4.2107216481
 30
0.0
 10
9.2658533121
 20
4.1591878434
 30
0.0
 10
9.3123528076
 20
4.1089433813
 30
0.0
 10
9.3785856181
 20
4.0433231907
 30
0.0
 10
9.4499352855
 20
3.9811034508
 30
0.0
 10
9.5258142723
 20
3.9224694944
 30
0.0
 10
9.6060639286
 20
3.8652773664
 30
0.0
 10
9.6906031843
 20
3.8120020072
 30
0.0
 10
9.7788892492
 20
3.7627334292
 30
0.0
 10
9.8710011879
 20
3.7154695648
 30
0.0
 10
9.9665319872
 20
3.6725051559
 30
0.0
 10
10.0649839489
 20
3.6338791282
 30
0.0
 10
10.1665070318
 20
3.5977593147
 30
0.0
 10
10.2970182043
 20
3.5581862882
 30
0.0
 10
10.4578358137
 20
3.5199458017
 30
0.0
 10
10.6224848898
 20
3.4909953675
 30
0.0
 10
10.789892237
 20
3.4715232848
 30
0.0
 10
10.9589717494
 20
3.4616547486
 30
0.0
 10
11.1286250739
 20
3.4614539138
 30
0.0
 10
11.2977501085
 20
3.4709217267
 30
0.0
 10
11.4652494225
 20
3.4899974508
 30
0.0
 10
11.630031416
 20
3.5185568793
 30
0.0
 10
11.7646675473
 20
3.5502172367
 30
0.0
 10
11.8700404793
 20
3.5801527746
 30
0.0
 10
11.9728040324
 20
3.6128135387
 30
0.0
 10
12.0483824248
 20
3.6408023602
 30
0.0
 10
12.0978596418
 20
3.6610013494
 30
0.0
  0
SPLINE
  5
2DE
100
AcDbEntity
  8
0
100
AcDbSpline
 62
7
  6
CONTINUOUS
 70
0
 71
3
 72
44
 73
40
 74
0
 42
0.0000001
 43
0.0000001
 44
0.0000000001
 40
0.0
 40
0.0
 40
0.0
 40
0.0
 40
0.0327678156
 40
0.0659894699
 40
0.0996139854
 40
0.1335854188
 40
0.1678445071
 40
0.2023290094
 40
0.2369744472
 40
0.2717147627
 40
0.3064829744
 40
0.3412118298
 40
0.3758344586
 40
0.4102850258
 40
0.4444993893
 40
0.4784157635
 40
0.5119753982
 40
0.5451232634
 40
0.5778087472
 40
0.6099863697
 40
0.6416165177
 40
0.672666187
 40
0.7031097274
 40
0.7329295892
 40
0.7621170574
 40
0.7906729515
 40
0.8186082431
 40
0.8459445685
 40
0.8727145811
 40
0.8859028854
 40
0.898966972
 40
0.9119140319
 40
0.9247519017
 40
0.9374890592
 40
0.9501345713
 40
0.9626980623
 40
0.9751896716
 40
0.9876199875
 40
1.0
 40
1.0
 40
1.0
 40
1.0
 10
12.122286909
 20
3.5812019778
 30
0.0
 10
12.0833840518
 20
3.5653199528
 30
0.0
 10
12.004216705
 20
3.5353144812
 30
0.0
 10
11.8826574221
 20
3.4959083252
 30
0.0
 10
11.7578717328
 20
3.4619185182
 30
0.0
 10
11.6303446897
 20
3.4334773891
 30
0.0
 10
11.5005675084
 20
3.4106938272
 30
0.0
 10
11.3690412034
 20
3.3936555698
 30
0.0
 10
11.2362732707
 20
3.3824280783
 30
0.0
 10
11.1027761062
 20
3.3770545592
 30
0.0
 10
10.9690649083
 20
3.3775557163
 30
0.0
 10
10.8356557193
 20
3.3839296511
 30
0.0
 10
10.7030634029
 20
3.3961517866
 30
0.0
 10
10.571799651
 20
3.4141750921
 30
0.0
 10
10.4423710059
 20
3.4379302536
 30
0.0
 10
10.3152769071
 20
3.4673259804
 30
0.0
 10
10.1910077333
 20
3.5022492563
 30
0.0
 10
10.0700429286
 20
3.5425659017
 30
0.0
 10
9.9528491844
 20
3.5881211432
 30
0.0
 10
9.8398786776
 20
3.6387402615
 30
0.0
 10
9.7315673371
 20
3.6942292335
 30
0.0
 10
9.6283332086
 20
3.7543755028
 30
0.0
 10
9.530574978
 20
3.8189489278
 30
0.0
 10
9.4386705727
 20
3.8877026215
 30
0.0
 10
9.3529757743
 20
3.9603740116
 30
0.0
 10
9.2738231822
 20
4.0366852111
 30
0.0
 10
9.2015202468
 20
4.116345774
 30
0.0
 10
9.1363516736
 20
4.1990474119
 30
0.0
 10
9.0879574629
 20
4.2706013932
 30
0.0
 10
9.0531335239
 20
4.3290163022
 30
0.0
 10
9.0290726208
 20
4.3731663349
 30
0.0
 10
9.006965647
 20
4.417825235
 30
0.0
 10
8.9868339604
 20
4.462950554
 30
0.0
 10
8.9686971554
 20
4.5084982989
 30
0.0
 10
8.9525730843
 20
4.5544244563
 30
0.0
 10
8.938477654
 20
4.6006843981
 30
0.0
 10
8.9264244434
 20
4.647233487
 30
0.0
 10
8.9164257827
 20
4.6940254071
 30
0.0
 10
8.9111265147
 20
4.7254085529
 30
0.0
 10
8.9088252861
 20
4.7411164201
 30
0.0
  0
SPLINE
  5
2DF
100
AcDbEntity
  8
0
100
AcDbSpline
 62
7
  6
CONTINUOUS
 70
0
 71
3
 72
29
 73
25
 74
0
 42
0.0000001
 43
0.0000001
 44
0.0000000001
 40
0.0
 40
0.0
 40
0.0
 40
0.0
 40
0.0260033265
 40
0.0521214282
 40
0.0784048209
 40
0.104901479
 40
0.1316563773
 40
0.1587108246
 40
0.1861021207
 40
0.2138631913
 40
0.2420222708
 40
0.27060291
 40
0.2996237686
 40
0.329098905
 40
0.389426721
 40
0.4516247906
 40
0.5156450826
 40
0.5813789191
 40
0.6486648339
 40
0.7172961846
 40
0.7870291196
 40
0.8575904378
 40
0.9286837537
 40
1.0
 40
1.0
 40
1.0
 40
1.0
 10
11.4529371093
 20
7.2183073104
 30
0.0
 10
11.4525793285
 20
7.2136458972
 30
0.0
 10
11.4515579269
 20
7.2043230476
 30
0.0
 10
11.4491208387
 20
7.190429613
 30
0.0
 10
11.4457815894
 20
7.1766332927
 30
0.0
 10
11.4415482218
 20
7.1629650979
 30
0.0
 10
11.4364303539
 20
7.1494547971
 30
0.0
 10
11.4304397997
 20
7.1361319546
 30
0.0
 10
11.4235903661
 20
7.1230255259
 30
0.0
 10
11.4158975064
 20
7.1101641088
 30
0.0
 10
11.4073789818
 20
7.0975753852
 30
0.0
 10
11.3980538408
 20
7.0852869094
 30
0.0
 10
11.3879432651
 20
7.0733246307
 30
0.0
 10
11.3733345644
 20
7.0577264243
 30
0.0
 10
11.3531864742
 20
7.0391953548
 30
0.0
 10
11.3264744845
 20
7.0188421934
 30
0.0
 10
11.2972765625
 20
7.0003665809
 30
0.0
 10
11.2658550138
 20
6.9839247819
 30
0.0
 10
11.2324892936
 20
6.9696533127
 30
0.0
 10
11.1974764023
 20
6.9576706845
 30
0.0
 10
11.1611279246
 20
6.9480753134
 30
0.0
 10
11.1237667297
 20
6.9409449805
 30
0.0
 10
11.0857273961
 20
6.9363355593
 30
0.0
 10
11.0601376681
 20
6.9349658739
 30
0.0
 10
11.0473183383
 20
6.9347087464
 30
0.0
  0
SPLINE
  5
2E0
100
AcDbEntity
  8
0
100
AcDbSpline
 62
9
  6
CONTINUOUS
 70
0
 71
3
 72
15
 73
11
 74
0
 42
0.0000001
 43
0.0000001
 44
0.0000000001
 40
0.0
 40
0.0
 40
0.0
 40
0.0
 40
0.1338095119
 40
0.2653091861
 40
0.3943527459
 40
0.5208234335
 40
0.6446420333
 40
0.7657683619
 40
0.8842049824
 40
1.0
 40
1.0
 40
1.0
 40
1.0
 10
11.8632509719
 20
4.4488927861
 30
0.0
 10
11.8930975109
 20
4.4610775847
 30
0.0
 10
11.9516696125
 20
4.4867565908
 30
0.0
 10
12.0365662667
 20
4.5295089752
 30
0.0
 10
12.1174422884
 20
4.5760090971
 30
0.0
 10
12.1939656946
 20
4.626068695
 30
0.0
 10
12.2658251111
 20
4.6794859185
 30
0.0
 10
12.3327282016
 20
4.7360470418
 30
0.0
 10
12.3943975818
 20
4.7955200164
 30
0.0
 10
12.4322786482
 20
4.8374223763
 30
0.0
 10
12.4502258458
 20
4.8587808975
 30
0.0
  0
SPLINE
  5
2E1
100
AcDbEntity
  8
0
100
AcDbSpline
 62
9
  6
CONTINUOUS
 70
0
 71
3
 72
24
 73
20
 74
0
 42
0.0000001
 43
0.0000001
 44
0.0000000001
 40
0.0
 40
0.0
 40
0.0
 40
0.0
 40
0.0673765035
 40
0.1006550556
 40
0.1336675393
 40
0.1989194912
 40
0.2632114339
 40
0.3266281524
 40
0.3892662587
 40
0.4512333498
 40
0.5126468612
 40
0.5736326191
 40
0.6343231098
 40
0.6948555105
 40
0.7553695428
 40
0.8160052248
 40
0.8769006129
 40
0.9381896216
 40
1.0
 40
1.0
 40
1.0
 40
1.0
 10
12.4502258458
 20
4.8587808975
 30
0.0
 10
12.4634962795
 20
4.8745737164
 30
0.0
 10
12.4826951716
 20
4.8987052726
 30
0.0
 10
12.5068072508
 20
4.9317764153
 30
0.0
 10
12.5296038504
 20
4.9649824751
 30
0.0
 10
12.5559946619
 20
5.007213724
 30
0.0
 10
12.5842861058
 20
5.0591160343
 30
0.0
 10
12.6090119326
 20
5.1119288958
 30
0.0
 10
12.6301127371
 20
5.1655288168
 30
0.0
 10
12.6475382649
 20
5.2197913155
 30
0.0
 10
12.6612466349
 20
5.2745897181
 30
0.0
 10
12.6712047944
 20
5.3297958427
 30
0.0
 10
12.6773886244
 20
5.3852802409
 30
0.0
 10
12.6797831047
 20
5.4409125724
 30
0.0
 10
12.6783824075
 20
5.4965620883
 30
0.0
 10
12.6731900155
 20
5.552097726
 30
0.0
 10
12.6642182971
 20
5.6073897711
 30
0.0
 10
12.6514899259
 20
5.6623055925
 30
0.0
 10
12.6405713667
 20
5.6984106194
 30
0.0
 10
12.6345138282
 20
5.7163388626
 30
0.0
  0
SPLINE
  5
2E2
100
AcDbEntity
  8
0
100
AcDbSpline
 62
9
  6
CONTINUOUS
 70
0
 71
3
 72
10
 73
6
 74
0
 42
0.0000001
 43
0.0000001
 44
0.0000000001
 40
0.0
 40
0.0
 40
0.0
 40
0.0
 40
0.2459075453
 40
0.6201299451
 40
1.0
 40
1.0
 40
1.0
 40
1.0
 10
10.1170657142
 20
6.5155428207
 30
0.0
 10
10.1453684381
 20
6.5270973593
 30
0.0
 10
10.2173693269
 20
6.5547187252
 30
0.0
 10
10.3356569694
 20
6.5932113579
 30
0.0
 10
10.4264391561
 20
6.6168517062
 30
0.0
 10
10.472464576
 20
6.6274246954
 30
0.0
  0
SPLINE
  5
2E3
100
AcDbEntity
  8
0
100
AcDbSpline
 62
9
  6
CONTINUOUS
 70
0
 71
3
 72
54
 73
50
 74
0
 42
0.0000001
 43
0.0000001
 44
0.0000000001
 40
0.0
 40
0.0
 40
0.0
 40
0.0
 40
0.0371953808
 40
0.0738914234
 40
0.1100113843
 40
0.145487008
 40
0.1802599774
 40
0.2142833854
 40
0.2475231932
 40
0.2799597226
 40
0.3115890641
 40
0.3424243454
 40
0.3575564119
 40
0.3725032579
 40
0.3872717445
 40
0.4018699157
 40
0.416306994
 40
0.4305933733
 40
0.4447405661
 40
0.4587611541
 40
0.4726687363
 40
0.4864778339
 40
0.5002037914
 40
0.5138626739
 40
0.527471132
 40
0.5410462617
 40
0.5546054606
 40
0.5681662697
 40
0.5817462158
 40
0.5953626515
 40
0.6090326028
 40
0.6227726246
 40
0.6365986558
 40
0.6505258992
 40
0.6645687167
 40
0.6787405219
 40
0.6930537059
 40
0.7075195835
 40
0.7221483314
 40
0.7369489567
 40
0.7519292926
 40
0.7670959744
 40
0.7980030422
 40
0.8297061143
 40
0.8622167113
 40
0.8955294147
 40
0.9296231956
 40
0.9644625675
 40
1.0
 40
1.0
 40
1.0
 40
1.0
 10
11.62235566
 20
6.6273825041
 30
0.0
 10
11.6645600937
 20
6.6176839067
 30
0.0
 10
11.7479091975
 20
6.5961856017
 30
0.0
 10
11.8700542297
 20
6.5574406559
 30
0.0
 10
11.987957982
 20
6.5125863437
 30
0.0
 10
12.1010075907
 20
6.4618532954
 30
0.0
 10
12.2086209378
 20
6.4055006366
 30
0.0
 10
12.3102423408
 20
6.3438162675
 30
0.0
 10
12.4053464528
 20
6.2771149297
 30
0.0
 10
12.4934418665
 20
6.2057352456
 30
0.0
 10
12.5740681237
 20
6.130044771
 30
0.0
 10
12.6350709426
 20
6.0632702973
 30
0.0
 10
12.6796395677
 20
6.0080840856
 30
0.0
 10
12.7107462624
 20
5.966128703
 30
0.0
 10
12.7396980322
 20
5.9234073287
 30
0.0
 10
12.7664576743
 20
5.8799744585
 30
0.0
 10
12.7909899154
 20
5.8358863644
 30
0.0
 10
12.8132628111
 20
5.7912001396
 30
0.0
 10
12.8332471041
 20
5.7459736607
 30
0.0
 10
12.8509163683
 20
5.7002655114
 30
0.0
 10
12.8662474734
 20
5.6541350942
 30
0.0
 10
12.8792201824
 20
5.6076423507
 30
0.0
 10
12.8898171609
 20
5.5608477315
 30
0.0
 10
12.8980245156
 20
5.5138122272
 30
0.0
 10
12.9038313828
 20
5.4665971486
 30
0.0
 10
12.9072298615
 20
5.419264076
 30
0.0
 10
12.9082155685
 20
5.3718748122
 30
0.0
 10
12.9067872478
 20
5.3244912184
 30
0.0
 10
12.9029466149
 20
5.2771751659
 30
0.0
 10
12.8966988905
 20
5.2299884128
 30
0.0
 10
12.8880524542
 20
5.1829924917
 30
0.0
 10
12.8770186051
 20
5.1362486924
 30
0.0
 10
12.8636120444
 20
5.0898178775
 30
0.0
 10
12.8478505992
 20
5.0437604093
 30
0.0
 10
12.8297549169
 20
4.9981361843
 30
0.0
 10
12.8093488832
 20
4.95300441
 30
0.0
 10
12.7866594284
 20
4.9084235381
 30
0.0
 10
12.7617161977
 20
4.8644513806
 30
0.0
 10
12.7345518256
 20
4.8211447886
 30
0.0
 10
12.7052020986
 20
4.7785598489
 30
0.0
 10
12.6737045848
 20
4.7367509875
 30
0.0
 10
12.6286214035
 20
4.6817736878
 30
0.0
 10
12.5669975533
 20
4.6152866553
 30
0.0
 10
12.4856686365
 20
4.5399759717
 30
0.0
 10
12.3969108357
 20
4.4690104246
 30
0.0
 10
12.3011883772
 20
4.4027553577
 30
0.0
 10
12.198994518
 20
4.3415469399
 30
0.0
 10
12.0908623079
 20
4.28569922
 30
0.0
 10
12.0158760411
 20
4.2525365426
 30
0.0
 10
11.9775709624
 20
4.2368985597
 30
0.0
  0
SPLINE
  5
2E4
100
AcDbEntity
  8
0
100
AcDbSpline
 62
9
  6
CONTINUOUS
 70
0
 71
3
 72
24
 73
20
 74
0
 42
0.0000001
 43
0.0000001
 44
0.0000000001
 40
0.0
 40
0.0
 40
0.0
 40
0.0
 40
0.0618098015
 40
0.123098742
 40
0.183994491
 40
0.2446308717
 40
0.3051458411
 40
0.3656793125
 40
0.4263709006
 40
0.4873576775
 40
0.5487720291
 40
0.610739689
 40
0.6733780109
 40
0.736794522
 40
0.8010857787
 40
0.866336525
 40
0.8993481999
 40
0.932625805
 40
1.0
 40
1.0
 40
1.0
 40
1.0
 10
9.460069258
 20
5.7161802039
 30
0.0
 10
9.454017618
 20
5.6982582091
 30
0.0
 10
9.4431099975
 20
5.6621659933
 30
0.0
 10
9.4303953846
 20
5.607270435
 30
0.0
 10
9.4214345704
 20
5.5519992277
 30
0.0
 10
9.4162501828
 20
5.4964848495
 30
0.0
 10
9.4148545611
 20
5.4408568638
 30
0.0
 10
9.4172511729
 20
5.38524618
 30
0.0
 10
9.42343419
 20
5.3297833935
 30
0.0
 10
9.4333886063
 20
5.2745986918
 30
0.0
 10
9.4470903312
 20
5.219821372
 30
0.0
 10
9.4645063545
 20
5.1655794666
 30
0.0
 10
9.4855948513
 20
5.1119995034
 30
0.0
 10
9.5103056361
 20
5.0592058214
 30
0.0
 10
9.5385793866
 20
5.0073217727
 30
0.0
 10
9.5649534386
 20
4.965104728
 30
0.0
 10
9.5877354338
 20
4.9319094459
 30
0.0
 10
9.6118318975
 20
4.8988488852
 30
0.0
 10
9.631018356
 20
4.8747246161
 30
0.0
 10
9.6442802092
 20
4.8589363749
 30
0.0
  0
SPLINE
  5
2E5
100
AcDbEntity
  8
0
100
AcDbSpline
 62
9
  6
CONTINUOUS
 70
0
 71
3
 72
15
 73
11
 74
0
 42
0.0000001
 43
0.0000001
 44
0.0000000001
 40
0.0
 40
0.0
 40
0.0
 40
0.0
 40
0.1160114412
 40
0.2345959576
 40
0.3558010859
 40
0.4796322098
 40
0.6060551297
 40
0.7349989222
 40
0.8663589599
 40
1.0
 40
1.0
 40
1.0
 40
1.0
 10
9.6442802092
 20
4.8589363749
 30
0.0
 10
9.6617266494
 20
4.8381663812
 30
0.0
 10
9.6984972877
 20
4.797396356
 30
0.0
 10
9.7582481622
 20
4.7394317942
 30
0.0
 10
9.8229652111
 20
4.6842087053
 30
0.0
 10
9.8923945695
 20
4.631941548
 30
0.0
 10
9.9662689517
 20
4.5828283864
 30
0.0
 10
10.0443040302
 20
4.5370564793
 30
0.0
 10
10.1261965102
 20
4.4948015493
 30
0.0
 10
10.1826969559
 20
4.4692900218
 30
0.0
 10
10.2114888756
 20
4.457148795
 30
0.0
  0
SPLINE
  5
2E6
100
AcDbEntity
  8
0
100
AcDbSpline
 62
9
  6
CONTINUOUS
 70
0
 71
3
 72
23
 73
19
 74
0
 42
0.0000001
 43
0.0000001
 44
0.0000000001
 40
0.0
 40
0.0
 40
0.0
 40
0.0
 40
0.0600909339
 40
0.1210874585
 40
0.1828833854
 40
0.2453627964
 40
0.3084017073
 40
0.3718696919
 40
0.4356314752
 40
0.4995485064
 40
0.5634805208
 40
0.6272870898
 40
0.6908291686
 40
0.7539706515
 40
0.8165799236
 40
0.8785316231
 40
0.9397074696
 40
1.0
 40
1.0
 40
1.0
 40
1.0
 10
10.2114888756
 20
4.457148795
 30
0.0
 10
10.2427275554
 20
4.4439757972
 30
0.0
 10
10.3064096823
 20
4.4191387545
 30
0.0
 10
10.404405583
 20
4.3867053587
 30
0.0
 10
10.5052225283
 20
4.3589317782
 30
0.0
 10
10.60841496
 20
4.3359406465
 30
0.0
 10
10.7135316125
 20
4.3178318729
 30
0.0
 10
10.8201114629
 20
4.3046846466
 30
0.0
 10
10.9276873878
 20
4.2965563986
 30
0.0
 10
11.0357877673
 20
4.2934826215
 30
0.0
 10
11.1439386961
 20
4.295476719
 30
0.0
 10
11.2516660481
 20
4.3025299803
 30
0.0
 10
11.3584975422
 20
4.3146115938
 30
0.0
 10
11.46396492
 20
4.3316688653
 30
0.0
 10
11.5676056833
 20
4.3536271467
 30
0.0
 10
11.6689663418
 20
4.3803910447
 30
0.0
 10
11.7675993638
 20
4.4118421869
 30
0.0
 10
11.8317580072
 20
4.4360358372
 30
0.0
 10
11.8632509719
 20
4.4488927861
 30
0.0
  0
SPLINE
  5
2E7
100
AcDbEntity
  8
0
100
AcDbSpline
 62
9
  6
CONTINUOUS
 70
0
 71
3
 72
11
 73
7
 74
0
 42
0.0000001
 43
0.0000001
 44
0.0000000001
 40
0.0
 40
0.0
 40
0.0
 40
0.0
 40
0.245172134
 40
0.4938429022
 40
0.7456023949
 40
1.0
 40
1.0
 40
1.0
 40
1.0
 10
11.9775709624
 20
4.2368985597
 30
0.0
 10
11.942735353
 20
4.2226769817
 30
0.0
 10
11.8718042299
 20
4.195864369
 30
0.0
 10
11.762821324
 20
4.1608374855
 30
0.0
 10
11.6508840462
 20
4.1308358377
 30
0.0
 10
11.5749397244
 20
4.1143422987
 30
0.0
 10
11.536602744
 20
4.106953086
 30
0.0
  0
SPLINE
  5
2E8
100
AcDbEntity
  8
0
100
AcDbSpline
 62
9
  6
CONTINUOUS
 70
0
 71
3
 72
11
 73
7
 74
0
 42
0.0000001
 43
0.0000001
 44
0.0000000001
 40
0.0
 40
0.0
 40
0.0
 40
0.0
 40
0.248689013
 40
0.4359754079
 40
0.6237383942
 40
1.0
 40
1.0
 40
1.0
 40
1.0
 10
11.452260946
 20
4.092183859
 30
0.0
 10
11.4183742261
 20
4.0868404584
 30
0.0
 10
11.3587701983
 20
4.0786760407
 30
0.0
 10
11.2731564405
 20
4.0699858211
 30
0.0
 10
11.1697696789
 20
4.0625973106
 30
0.0
 10
11.0919331431
 20
4.0605111667
 30
0.0
 10
11.0400299163
 20
4.0606549106
 30
0.0
  0
SPLINE
  5
2E9
100
AcDbEntity
  8
0
100
AcDbSpline
 62
9
  6
CONTINUOUS
 70
0
 71
3
 72
59
 73
55
 74
0
 42
0.0000001
 43
0.0000001
 44
0.0000000001
 40
0.0
 40
0.0
 40
0.0
 40
0.0
 40
0.0373571563
 40
0.0745841144
 40
0.1115588337
 40
0.1481635669
 40
0.1842869759
 40
0.2198263277
 40
0.2546897039
 40
0.2718452225
 40
0.2888034436
 40
0.3220939592
 40
0.3384203823
 40
0.35452688
 40
0.3860650321
 40
0.4015024772
 40
0.4167187333
 40
0.4317173204
 40
0.4465033946
 40
0.4610837894
 40
0.475467034
 40
0.4896633519
 40
0.5036846436
 40
0.51754445
 40
0.5312578889
 40
0.544841556
 40
0.5583134017
 40
0.5716925802
 40
0.5849992722
 40
0.5982544755
 40
0.6114797773
 40
0.6246971107
 40
0.6379285021
 40
0.6511958141
 40
0.6645204946
 40
0.6779233377
 40
0.6914242588
 40
0.7050420959
 40
0.7187944388
 40
0.7326974857
 40
0.7467659263
 40
0.7610128517
 40
0.7754497018
 40
0.7900862329
 40
0.8049305043
 40
0.8199888807
 40
0.8352660618
 40
0.8664808742
 40
0.88242667
 40
0.8985943371
 40
0.9315767894
 40
0.9483876661
 40
0.9654011309
 40
1.0
 40
1.0
 40
1.0
 40
1.0
 10
11.0400299163
 20
4.0606549106
 30
0.0
 10
10.9894080678
 20
4.0607951058
 30
0.0
 10
10.8883243949
 20
4.0639911784
 30
0.0
 10
10.7376773024
 20
4.0775110882
 30
0.0
 10
10.5890796693
 20
4.0996650402
 30
0.0
 10
10.4435242949
 20
4.1303063962
 30
0.0
 10
10.3019739581
 20
4.1692339991
 30
0.0
 10
10.1653719931
 20
4.2161895269
 30
0.0
 10
10.0558209605
 20
4.262000861
 30
0.0
 10
9.9715259545
 20
4.302424871
 30
0.0
 10
9.8905741264
 20
4.3447570574
 30
0.0
 10
9.8128704573
 20
4.3907783735
 30
0.0
 10
9.738903644
 20
4.4404175249
 30
0.0
 10
9.6688161633
 20
4.4914567697
 30
0.0
 10
9.6027001888
 20
4.5458163059
 30
0.0
 10
9.5410874498
 20
4.6033451168
 30
0.0
 10
9.497710916
 20
4.6474813249
 30
0.0
 10
9.4569179513
 20
4.6928349772
 30
0.0
 10
9.4187757667
 20
4.739331876
 30
0.0
 10
9.3833486625
 20
4.7868945576
 30
0.0
 10
9.3506960676
 20
4.8354440635
 30
0.0
 10
9.3208730087
 20
4.8848996709
 30
0.0
 10
9.2939298915
 20
4.9351791079
 30
0.0
 10
9.269912367
 20
4.9861986014
 30
0.0
 10
9.2488611527
 20
5.0378729856
 30
0.0
 10
9.2308120919
 20
5.0901158969
 30
0.0
 10
9.2157960454
 20
5.1428398836
 30
0.0
 10
9.2038388056
 20
5.195956544
 30
0.0
 10
9.1949608379
 20
5.2493766482
 30
0.0
 10
9.1891773997
 20
5.3030103603
 30
0.0
 10
9.1864984749
 20
5.3567673987
 30
0.0
 10
9.1869287673
 20
5.4105572133
 30
0.0
 10
9.1904674893
 20
5.464289177
 30
0.0
 10
9.1971084873
 20
5.5178727977
 30
0.0
 10
9.2068403196
 20
5.5712178997
 30
0.0
 10
9.2196463091
 20
5.6242347912
 30
0.0
 10
9.2355044783
 20
5.6768344582
 30
0.0
 10
9.2543876125
 20
5.7289287525
 30
0.0
 10
9.2762634785
 20
5.7804305064
 30
0.0
 10
9.3010948889
 20
5.8312536706
 30
0.0
 10
9.3288397522
 20
5.8813134452
 30
0.0
 10
9.3594510601
 20
5.9305264852
 30
0.0
 10
9.3928771203
 20
5.9788109076
 30
0.0
 10
9.4290617576
 20
6.026086535
 30
0.0
 10
9.4679439165
 20
6.072274535
 30
0.0
 10
9.5094595342
 20
6.1172993501
 30
0.0
 10
9.5686468893
 20
6.1760944701
 30
0.0
 10
9.632469636
 20
6.2318155388
 30
0.0
 10
9.7003902984
 20
6.2842925607
 30
0.0
 10
9.7722648706
 20
6.3354640248
 30
0.0
 10
9.848017684
 20
6.3830890317
 30
0.0
 10
9.927153172
 20
6.4270855448
 30
0.0
 10
10.0097411617
 20
6.4692614618
 30
0.0
 10
10.0736592546
 20
6.4978222078
 30
0.0
 10
10.1170657142
 20
6.5155428207
 30
0.0
  0
SPLINE
  5
2EA
100
AcDbEntity
  8
0
100
AcDbSpline
 62
7
  6
CONTINUOUS
 70
0
 71
3
 72
21
 73
17
 74
0
 42
0.0000001
 43
0.0000001
 44
0.0000000001
 40
0.0
 40
0.0
 40
0.0
 40
0.0
 40
0.1181142299
 40
0.1791175825
 40
0.2411968715
 40
0.3041792827
 40
0.3678778772
 40
0.4320953518
 40
0.4966273572
 40
0.5612658677
 40
0.6258028763
 40
0.6900332736
 40
0.7537587431
 40
0.8167908522
 40
0.8789545585
 40
1.0
 40
1.0
 40
1.0
 40
1.0
 10
10.817095716
 20
6.9641704105
 30
0.0
 10
10.8335824026
 20
6.9556745695
 30
0.0
 10
10.8595398924
 20
6.9445620221
 30
0.0
 10
10.8956254963
 20
6.9330146417
 30
0.0
 10
10.9239684915
 20
6.9258388406
 30
0.0
 10
10.9531028604
 20
6.9202960813
 30
0.0
 10
10.9828449047
 20
6.9164245744
 30
0.0
 10
11.0130026151
 20
6.914253551
 30
0.0
 10
11.0433824792
 20
6.913800909
 30
0.0
 10
11.0737892592
 20
6.9150737231
 30
0.0
 10
11.1040275289
 20
6.9180679536
 30
0.0
 10
11.1339032754
 20
6.9227686731
 30
0.0
 10
11.1632237065
 20
6.9291495753
 30
0.0
 10
11.1918038167
 20
6.9371753613
 30
0.0
 10
11.2283360831
 20
6.9498865313
 30
0.0
 10
11.254602271
 20
6.9618861674
 30
0.0
 10
11.2712994992
 20
6.9709679079
 30
0.0
  0
SPLINE
  5
2EB
100
AcDbEntity
  8
0
100
AcDbSpline
 62
9
  6
CONTINUOUS
 70
0
 71
3
 72
13
 73
9
 74
0
 42
0.0000001
 43
0.0000001
 44
0.0000000001
 40
0.0
 40
0.0
 40
0.0
 40
0.0
 40
0.2339643967
 40
0.3561623317
 40
0.4812633629
 40
0.6087850166
 40
0.7381795983
 40
1.0
 40
1.0
 40
1.0
 40
1.0
 10
10.4638199696
 20
8.6120309221
 30
0.0
 10
10.4696060861
 20
8.6040054628
 30
0.0
 10
10.4772463772
 20
8.5909064678
 30
0.0
 10
10.4852743144
 20
8.5721925631
 30
0.0
 10
10.4903591128
 20
8.5571612946
 30
0.0
 10
10.494365062
 20
8.5414952899
 30
0.0
 10
10.4982317638
 20
8.5198890226
 30
0.0
 10
10.499388416
 20
8.5033127382
 30
0.0
 10
10.499388416
 20
8.4922409815
 30
0.0
  0
SPLINE
  5
2EC
100
AcDbEntity
  8
0
100
AcDbSpline
 62
7
  6
CONTINUOUS
 70
0
 71
3
 72
29
 73
25
 74
0
 42
0.0000001
 43
0.0000001
 44
0.0000000001
 40
0.0
 40
0.0
 40
0.0
 40
0.0
 40
0.0259986325
 40
0.0521171423
 40
0.0784054116
 40
0.1049107536
 40
0.1316774416
 40
0.1587461427
 40
0.1861534433
 40
0.2139316222
 40
0.2421082628
 40
0.2707063857
 40
0.2997441046
 40
0.3292350256
 40
0.3895897636
 40
0.4518063657
 40
0.5158352198
 40
0.5815670312
 40
0.648840429
 40
0.7174495535
 40
0.7871519059
 40
0.8576760197
 40
0.9287276655
 40
1.0
 40
1.0
 40
1.0
 40
1.0
 10
11.4528112575
 20
7.2680067535
 30
0.0
 10
11.452420791
 20
7.2633623329
 30
0.0
 10
11.4513361414
 20
7.2540746892
 30
0.0
 10
11.4488112381
 20
7.2402382574
 30
0.0
 10
11.4453913318
 20
7.2265013916
 30
0.0
 10
11.4410843436
 20
7.2128948097
 30
0.0
 10
11.4359002226
 20
7.1994478513
 30
0.0
 10
11.4298506208
 20
7.1861898121
 30
0.0
 10
11.4229495804
 20
7.1731492002
 30
0.0
 10
11.41521238
 20
7.1603543668
 30
0.0
 10
11.4066568987
 20
7.1478325579
 30
0.0
 10
11.3973020066
 20
7.1356110706
 30
0.0
 10
11.387168892
 20
7.1237154504
 30
0.0
 10
11.3725397768
 20
7.1082064408
 30
0.0
 10
11.3523843758
 20
7.0897846067
 30
0.0
 10
11.3256889993
 20
7.0695543204
 30
0.0
 10
11.2965319281
 20
7.0511929319
 30
0.0
 10
11.2651732476
 20
7.0348546716
 30
0.0
 10
11.2318899104
 20
7.0206742463
 30
0.0
 10
11.1969761228
 20
7.0087685905
 30
0.0
 10
11.1607404355
 20
6.9992347932
 30
0.0
 10
11.1235024763
 20
6.9921495758
 30
0.0
 10
11.0855934138
 20
6.9875680599
 30
0.0
 10
11.0600928344
 20
6.9862051847
 30
0.0
 10
11.0473183383
 20
6.9859484935
 30
0.0
  0
SPLINE
  5
2ED
100
AcDbEntity
  8
0
100
AcDbSpline
 62
9
  6
CONTINUOUS
 70
0
 71
3
 72
13
 73
9
 74
0
 42
0.0000001
 43
0.0000001
 44
0.0000000001
 40
0.0
 40
0.0
 40
0.0
 40
0.0
 40
0.2339643967
 40
0.3561623317
 40
0.4812633629
 40
0.6087850166
 40
0.7381795983
 40
1.0
 40
1.0
 40
1.0
 40
1.0
 10
10.4638199696
 20
8.3724510408
 30
0.0
 10
10.4696060861
 20
8.3804765002
 30
0.0
 10
10.4772463772
 20
8.3935754951
 30
0.0
 10
10.4852743144
 20
8.4122893999
 30
0.0
 10
10.4903591128
 20
8.4273206683
 30
0.0
 10
10.494365062
 20
8.442986673
 30
0.0
 10
10.4982317638
 20
8.4645929404
 30
0.0
 10
10.499388416
 20
8.4811692248
 30
0.0
 10
10.499388416
 20
8.4922409815
 30
0.0
  0
SPLINE
  5
2EE
100
AcDbEntity
  8
0
100
AcDbSpline
 62
7
  6
CONTINUOUS
 70
0
 71
3
 72
29
 73
25
 74
0
 42
0.0000001
 43
0.0000001
 44
0.0000000001
 40
0.0
 40
0.0
 40
0.0
 40
0.0
 40
0.0260118114
 40
0.0521332846
 40
0.0784155092
 40
0.104907042
 40
0.1316535096
 40
0.1586968712
 40
0.1860750986
 40
0.2138216953
 40
0.2419655244
 40
0.270530675
 40
0.2995363399
 40
0.3289970021
 40
0.3892994323
 40
0.45147912
 40
0.5154896082
 40
0.5812230033
 40
0.6485178339
 40
0.717166831
 40
0.7869249988
 40
0.8575175727
 40
0.9286462633
 40
1.0
 40
1.0
 40
1.0
 40
1.0
 10
11.453048279
 20
7.1684853958
 30
0.0
 10
11.4527224447
 20
7.1638066658
 30
0.0
 10
11.4517628763
 20
7.154447997
 30
0.0
 10
11.4494116915
 20
7.1404967009
 30
0.0
 10
11.4461514133
 20
7.1266401268
 30
0.0
 10
11.4419901755
 20
7.1129095914
 30
0.0
 10
11.4369372822
 20
7.0993352771
 30
0.0
 10
11.4310046881
 20
7.0859470157
 30
0.0
 10
11.4242059749
 20
7.0727741982
 30
0.0
 10
11.4165567704
 20
7.0598456742
 30
0.0
 10
11.4080747017
 20
7.0471895672
 30
0.0
 10
11.3987790067
 20
7.0348336702
 30
0.0
 10
11.3886908377
 20
7.022804344
 30
0.0
 10
11.3741027183
 20
7.0071165547
 30
0.0
 10
11.3539625934
 20
6.9884758278
 30
0.0
 10
11.327235251
 20
6.9679992915
 30
0.0
 10
11.2979983056
 20
6.9494090644
 30
0.0
 10
11.266516217
 20
6.9328634605
 30
0.0
 10
11.2330708801
 20
6.9185007909
 30
0.0
 10
11.1979620151
 20
6.9064411648
 30
0.0
 10
11.1615041698
 20
6.8967843329
 30
0.0
 10
11.1240233715
 20
6.8896091568
 30
0.0
 10
11.0858575329
 20
6.8849722893
 30
0.0
 10
11.0601812072
 20
6.8835962454
 30
0.0
 10
11.0473183383
 20
6.8833389507
 30
0.0
  0
SPLINE
  5
2EF
100
AcDbEntity
  8
0
100
AcDbSpline
 62
7
  6
CONTINUOUS
 70
0
 71
3
 72
30
 73
26
 74
0
 42
0.0000001
 43
0.0000001
 44
0.0000000001
 40
0.0
 40
0.0
 40
0.0
 40
0.0
 40
0.0274397957
 40
0.0549841063
 40
0.0826548778
 40
0.1104733374
 40
0.1384598505
 40
0.1666338484
 40
0.1950137339
 40
0.2236167887
 40
0.2524591533
 40
0.2815557154
 40
0.3109201318
 40
0.3405647543
 40
0.4007286766
 40
0.462129385
 40
0.4933144206
 40
0.5248262617
 40
0.5888348411
 40
0.6541743534
 40
0.7208375993
 40
0.788799887
 40
0.8580205329
 40
0.9284433354
 40
1.0
 40
1.0
 40
1.0
 40
1.0
 10
13.185811374
 20
4.7411163523
 30
0.0
 10
13.1836296053
 20
4.7262241374
 30
0.0
 10
13.1786401642
 20
4.6964697913
 30
0.0
 10
13.1693125009
 20
4.6520898735
 30
0.0
 10
13.1581372658
 20
4.6079238782
 30
0.0
 10
13.1451241599
 20
4.5640114429
 30
0.0
 10
13.1302848108
 20
4.5203905561
 30
0.0
 10
13.1136322794
 20
4.477099322
 30
0.0
 10
13.0951810876
 20
4.4341755
 30
0.0
 10
13.0749477124
 20
4.3916563637
 30
0.0
 10
13.0529495985
 20
4.3495790297
 30
0.0
 10
13.0292064136
 20
4.307980079
 30
0.0
 10
13.0037384098
 20
4.2668952927
 30
0.0
 10
12.9673359536
 20
4.2125869114
 30
0.0
 10
12.917553878
 20
4.1461599399
 30
0.0
 10
12.862883677
 20
4.0825847738
 30
0.0
 10
12.8160686409
 20
4.0331565734
 30
0.0
 10
12.7667028801
 20
3.9842210779
 30
0.0
 10
12.7011733707
 20
3.9250468278
 30
0.0
 10
12.6172071244
 20
3.8578021431
 30
0.0
 10
12.5277900528
 20
3.7941800677
 30
0.0
 10
12.4332353676
 20
3.7344014409
 30
0.0
 10
12.333870366
 20
3.6786713729
 30
0.0
 10
12.2300432232
 20
3.6271829628
 30
0.0
 10
12.1586253694
 20
3.5960370921
 30
0.0
 10
12.122286909
 20
3.5812019778
 30
0.0
  0
SPLINE
  5
2F0
100
AcDbEntity
  8
0
100
AcDbSpline
 62
9
  6
CONTINUOUS
 70
0
 71
3
 72
54
 73
50
 74
0
 42
0.0000001
 43
0.0000001
 44
0.0000000001
 40
0.0
 40
0.0
 40
0.0
 40
0.0
 40
0.0133171943
 40
0.0265085104
 40
0.0395880053
 40
0.0525707449
 40
0.0654726968
 40
0.0783105934
 40
0.0911017853
 40
0.1038640821
 40
0.1166155809
 40
0.1293744861
 40
0.1421589281
 40
0.1549867828
 40
0.1678754995
 40
0.180841939
 40
0.1939022202
 40
0.2070715852
 40
0.2203642888
 40
0.2337935016
 40
0.2473712243
 40
0.2611082344
 40
0.2750140501
 40
0.289096901
 40
0.3033637113
 40
0.3178201147
 40
0.3324704691
 40
0.3473178704
 40
0.3623641862
 40
0.3776101034
 40
0.393055166
 40
0.4086978107
 40
0.4405597466
 40
0.4731683687
 40
0.5064767959
 40
0.5404255544
 40
0.5749442449
 40
0.6099531878
 40
0.645365038
 40
0.6810863365
 40
0.7170190573
 40
0.7530620988
 40
0.789112777
 40
0.8250682993
 40
0.8608272361
 40
0.896291012
 40
0.9313653974
 40
0.9659619053
 40
1.0
 40
1.0
 40
1.0
 40
1.0
 10
9.1497881848
 20
5.4526250401
 30
0.0
 10
9.1417779391
 20
5.4358054913
 30
0.0
 10
9.1266388035
 20
5.4019342609
 30
0.0
 10
9.1065623217
 20
5.3502977517
 30
0.0
 10
9.0892599365
 20
5.2981574445
 30
0.0
 10
9.0747576772
 20
5.2455896152
 30
0.0
 10
9.063076451
 20
5.1926693492
 30
0.0
 10
9.0542334016
 20
5.139472807
 30
0.0
 10
9.0482416022
 20
5.0860764773
 30
0.0
 10
9.0451098528
 20
5.0325572619
 30
0.0
 10
9.0448426601
 20
4.9789922636
 30
0.0
 10
9.0474404453
 20
4.9254586557
 30
0.0
 10
9.0528995058
 20
4.8720335763
 30
0.0
 10
9.0612117091
 20
4.8187939566
 30
0.0
 10
9.0723648116
 20
4.7658163922
 30
0.0
 10
9.0863425481
 20
4.7131770515
 30
0.0
 10
9.1031245085
 20
4.660951533
 30
0.0
 10
9.1226860855
 20
4.6092146943
 30
0.0
 10
9.1449988036
 20
4.5580406192
 30
0.0
 10
9.1700303553
 20
4.5075025441
 30
0.0
 10
9.1977443967
 20
4.4576726372
 30
0.0
 10
9.228100794
 20
4.4086219666
 30
0.0
 10
9.2610557886
 20
4.3604204747
 30
0.0
 10
9.2965619737
 20
4.3131368654
 30
0.0
 10
9.3345681954
 20
4.2668383795
 30
0.0
 10
9.3750198731
 20
4.2215908759
 30
0.0
 10
9.4178590708
 20
4.1774587653
 30
0.0
 10
9.4630243859
 20
4.1345048005
 30
0.0
 10
9.5104511598
 20
4.0927899583
 30
0.0
 10
9.5600713939
 20
4.0523736909
 30
0.0
 10
9.6118149235
 20
4.0133130369
 30
0.0
 10
9.6839736145
 20
3.962809227
 30
0.0
 10
9.7791418728
 20
3.9034406908
 30
0.0
 10
9.8998526105
 20
3.8389069775
 30
0.0
 10
10.0270920298
 20
3.781002731
 30
0.0
 10
10.1601324565
 20
3.7300568229
 30
0.0
 10
10.2982185757
 20
3.6863557354
 30
0.0
 10
10.4405649618
 20
3.650146311
 30
0.0
 10
10.5863623489
 20
3.6216333109
 30
0.0
 10
10.7347815646
 20
3.6009777815
 30
0.0
 10
10.8849785314
 20
3.5882969168
 30
0.0
 10
11.0360989118
 20
3.5836622249
 30
0.0
 10
11.1872831216
 20
3.5871002168
 30
0.0
 10
11.3376711504
 20
3.598591213
 30
0.0
 10
11.4864077321
 20
3.6180703066
 30
0.0
 10
11.632646427
 20
3.64542703
 30
0.0
 10
11.7755572725
 20
3.6805072653
 30
0.0
 10
11.9143212697
 20
3.7231101172
 30
0.0
 10
12.0043519408
 20
3.7566699603
 30
0.0
 10
12.0484360611
 20
3.774667227
 30
0.0
  0
SPLINE
  5
2F1
100
AcDbEntity
  8
0
100
AcDbSpline
 62
9
  6
CONTINUOUS
 70
0
 71
3
 72
30
 73
26
 74
0
 42
0.0000001
 43
0.0000001
 44
0.0000000001
 40
0.0
 40
0.0
 40
0.0
 40
0.0
 40
0.0282652318
 40
0.0565528576
 40
0.0848851525
 40
0.1132841359
 40
0.1417714739
 40
0.1703683402
 40
0.1990953325
 40
0.2279723526
 40
0.2570185237
 40
0.2862521114
 40
0.3156904292
 40
0.3453498138
 40
0.375245513
 40
0.4053917166
 40
0.4664776779
 40
0.5287072934
 40
0.5921518328
 40
0.6568635958
 40
0.722876276
 40
0.7902056028
 40
0.8588501878
 40
0.9287925113
 40
1.0
 40
1.0
 40
1.0
 40
1.0
 10
9.1423183383
 20
5.1983375589
 30
0.0
 10
9.1423183383
 20
5.1856898288
 30
0.0
 10
9.1428226695
 20
5.1603814568
 30
0.0
 10
9.1450908309
 20
5.1224564777
 30
0.0
 10
9.1488693209
 20
5.0845913662
 30
0.0
 10
9.15415475
 20
5.0468170507
 30
0.0
 10
9.1609431354
 20
5.0091634444
 30
0.0
 10
9.1692288177
 20
4.9716605539
 30
0.0
 10
9.1790052344
 20
4.9343382315
 30
0.0
 10
9.1902645149
 20
4.8972261736
 30
0.0
 10
9.2029975388
 20
4.8603538539
 30
0.0
 10
9.2171942458
 20
4.8237506452
 30
0.0
 10
9.2328430452
 20
4.7874454867
 30
0.0
 10
9.2499316085
 20
4.7514674506
 30
0.0
 10
9.2684462682
 20
4.7158444668
 30
0.0
 10
9.2951288075
 20
4.6686559275
 30
0.0
 10
9.3320380529
 20
4.6106802753
 30
0.0
 10
9.3815698359
 20
4.5432999139
 30
0.0
 10
9.4363813707
 20
4.4780083337
 30
0.0
 10
9.49629562
 20
4.4150132483
 30
0.0
 10
9.5611216441
 20
4.3545116927
 30
0.0
 10
9.6306527367
 20
4.2966938167
 30
0.0
 10
9.7046686556
 20
4.2417406229
 30
0.0
 10
9.7829319975
 20
4.1898260964
 30
0.0
 10
9.8373049612
 20
4.1576286458
 30
0.0
 10
9.8651101363
 20
4.1420684873
 30
0.0
  0
SPLINE
  5
2F2
100
AcDbEntity
  8
0
100
AcDbSpline
 62
9
  6
CONTINUOUS
 70
0
 71
3
 72
24
 73
20
 74
0
 42
0.0000001
 43
0.0000001
 44
0.0000000001
 40
0.0
 40
0.0
 40
0.0
 40
0.0
 40
0.0584992007
 40
0.088213401
 40
0.1182181957
 40
0.1790356495
 40
0.2408330768
 40
0.3034695984
 40
0.3667916176
 40
0.4306354812
 40
0.4948300534
 40
0.5591992478
 40
0.6235645438
 40
0.6877474745
 40
0.7515721155
 40
0.8148676116
 40
0.8774706943
 40
0.9392280133
 40
1.0
 40
1.0
 40
1.0
 40
1.0
 10
9.8651101363
 20
4.1420684873
 30
0.0
 10
9.9026417782
 20
4.1210652643
 30
0.0
 10
9.9603021655
 20
4.0912500572
 30
0.0
 10
10.0392915396
 20
4.0549679851
 30
0.0
 10
10.12092873
 20
4.0204580519
 30
0.0
 10
10.2262191068
 20
3.9814681358
 30
0.0
 10
10.3565390932
 20
3.941641535
 30
0.0
 10
10.4906840143
 20
3.9087826658
 30
0.0
 10
10.6279086945
 20
3.8830731934
 30
0.0
 10
10.7674546677
 20
3.8646544214
 30
0.0
 10
10.9085494853
 20
3.8536279295
 30
0.0
 10
11.0504123361
 20
3.8500542959
 30
0.0
 10
11.1922580656
 20
3.8539534599
 30
0.0
 10
11.3333015971
 20
3.8653036589
 30
0.0
 10
11.472762466
 20
3.8840426267
 30
0.0
 10
11.6098684834
 20
3.9100668228
 30
0.0
 10
11.7438625045
 20
3.943233685
 30
0.0
 10
11.8739974075
 20
3.9833583168
 30
0.0
 10
11.9584528893
 20
4.014880695
 30
0.0
 10
11.9998183383
 20
4.0317680689
 30
0.0
  0
SPLINE
  5
2F3
100
AcDbEntity
  8
0
100
AcDbSpline
 62
9
  6
CONTINUOUS
 70
0
 71
3
 72
45
 73
41
 74
0
 42
0.0000001
 43
0.0000001
 44
0.0000000001
 40
0.0
 40
0.0
 40
0.0
 40
0.0
 40
0.0124254686
 40
0.0248642206
 40
0.0373294426
 40
0.0498341218
 40
0.0623909554
 40
0.0750122656
 40
0.0877099044
 40
0.1004951986
 40
0.1133788643
 40
0.1263709598
 40
0.1394808429
 40
0.1527171091
 40
0.1795940699
 40
0.2070603785
 40
0.2351559098
 40
0.2639075221
 40
0.2933294371
 40
0.3234238416
 40
0.3541816453
 40
0.3855833385
 40
0.4175998971
 40
0.4501937073
 40
0.4833194899
 40
0.516925213
 40
0.5509529954
 40
0.5853399872
 40
0.6200192298
 40
0.6549204993
 40
0.6899711337
 40
0.7250968536
 40
0.7602225735
 40
0.7952732078
 40
0.8301744772
 40
0.8648537215
 40
0.8992407021
 40
0.9332685366
 40
0.9668740941
 40
1.0
 40
1.0
 40
1.0
 40
1.0
 10
9.4273183383
 20
5.4611215783
 30
0.0
 10
9.4273183383
 20
5.4486248551
 30
0.0
 10
9.4278974709
 20
5.423614193
 30
0.0
 10
9.4305018194
 20
5.3861483963
 30
0.0
 10
9.4348393393
 20
5.3487625579
 30
0.0
 10
9.4409052498
 20
5.3114980087
 30
0.0
 10
9.4486927673
 20
5.2743945423
 30
0.0
 10
9.4581936844
 20
5.237492222
 30
0.0
 10
9.4693973155
 20
5.2008306064
 30
0.0
 10
9.4822917057
 20
5.1644491616
 30
0.0
 10
9.4968627686
 20
5.1283868637
 30
0.0
 10
9.5130944963
 20
5.0926824894
 30
0.0
 10
9.5309699482
 20
5.0573738189
 30
0.0
 10
9.557098574
 20
5.0106413909
 30
0.0
 10
9.5938571909
 20
4.9533793133
 30
0.0
 10
9.6439567013
 20
4.8872195037
 30
0.0
 10
9.7000571086
 20
4.8235333299
 30
0.0
 10
9.761913485
 20
4.7625932947
 30
0.0
 10
9.8292596799
 20
4.7046556432
 30
0.0
 10
9.9018063198
 20
4.6499651086
 30
0.0
 10
9.9792426569
 20
4.598752439
 30
0.0
 10
10.0612375414
 20
4.5512339819
 30
0.0
 10
10.1474407322
 20
4.5076106538
 30
0.0
 10
10.2374842478
 20
4.4680671099
 30
0.0
 10
10.3309838379
 20
4.4327709173
 30
0.0
 10
10.4275405304
 20
4.4018717318
 30
0.0
 10
10.5267423236
 20
4.3755006834
 30
0.0
 10
10.6281659169
 20
4.3537697743
 30
0.0
 10
10.7313785008
 20
4.3367713628
 30
0.0
 10
10.8359395951
 20
4.3245777511
 30
0.0
 10
10.9414029236
 20
4.3172407887
 30
0.0
 10
11.0473183385
 20
4.314791663
 30
0.0
 10
11.1532337522
 20
4.3172407884
 30
0.0
 10
11.2586970838
 20
4.3245777526
 30
0.0
 10
11.3632581682
 20
4.3367713574
 30
0.0
 10
11.4664707844
 20
4.353769793
 30
0.0
 10
11.5678942646
 20
4.3755006223
 30
0.0
 10
11.6670965128
 20
4.4018719323
 30
0.0
 10
11.7636510756
 20
4.4327701569
 30
0.0
 10
11.8264738377
 20
4.4564860178
 30
0.0
 10
11.8573183383
 20
4.4690782324
 30
0.0
  0
SPLINE
  5
2F4
100
AcDbEntity
  8
0
100
AcDbSpline
 62
9
  6
CONTINUOUS
 70
0
 71
3
 72
14
 73
10
 74
0
 42
0.0000001
 43
0.0000001
 44
0.0000000001
 40
0.0
 40
0.0
 40
0.0
 40
0.0
 40
0.2339261535
 40
0.3561041491
 40
0.4811846901
 40
0.6086855574
 40
0.7380588065
 40
0.8687054409
 40
1.0
 40
1.0
 40
1.0
 40
1.0
 10
10.4342334439
 20
8.6530678114
 30
0.0
 10
10.4420017808
 20
8.6422930759
 30
0.0
 10
10.4522593933
 20
8.6247066205
 30
0.0
 10
10.463037447
 20
8.5995819502
 30
0.0
 10
10.4698642449
 20
8.5794009524
 30
0.0
 10
10.4752423348
 20
8.5583698119
 30
0.0
 10
10.4791218933
 20
8.5366897603
 30
0.0
 10
10.4814648012
 20
8.5145756396
 30
0.0
 10
10.4819867016
 20
8.4996963465
 30
0.0
 10
10.4819867016
 20
8.4922409815
 30
0.0
  0
SPLINE
  5
2F5
100
AcDbEntity
  8
0
100
AcDbSpline
 62
9
  6
CONTINUOUS
 70
0
 71
3
 72
30
 73
26
 74
0
 42
0.0000001
 43
0.0000001
 44
0.0000000001
 40
0.0
 40
0.0
 40
0.0
 40
0.0
 40
0.0282652308
 40
0.0565528556
 40
0.0848851495
 40
0.1132841319
 40
0.1417714689
 40
0.1703683342
 40
0.1990953254
 40
0.2279723444
 40
0.2570185145
 40
0.2862521011
 40
0.3156904178
 40
0.3453498012
 40
0.3752454992
 40
0.4053917017
 40
0.4664776606
 40
0.5287072736
 40
0.5921518103
 40
0.6568635706
 40
0.7228762479
 40
0.7902055718
 40
0.8588501545
 40
0.9287924676
 40
1.0
 40
1.0
 40
1.0
 40
1.0
 10
12.9523183383
 20
5.1983375589
 30
0.0
 10
12.9523183383
 20
5.1856898292
 30
0.0
 10
12.9518140071
 20
5.1603814581
 30
0.0
 10
12.9495458459
 20
5.1224564802
 30
0.0
 10
12.9457673561
 20
5.08459137
 30
0.0
 10
12.9404819273
 20
5.0468170557
 30
0.0
 10
12.9336935424
 20
5.0091634507
 30
0.0
 10
12.9254078607
 20
4.9716605615
 30
0.0
 10
12.9156314446
 20
4.9343382402
 30
0.0
 10
12.9043721648
 20
4.8972261835
 30
0.0
 10
12.8916391418
 20
4.860353865
 30
0.0
 10
12.8774424357
 20
4.8237506574
 30
0.0
 10
12.8617936374
 20
4.7874455001
 30
0.0
 10
12.8447050752
 20
4.7514674651
 30
0.0
 10
12.8261904167
 20
4.7158444823
 30
0.0
 10
12.7995078791
 20
4.6686559443
 30
0.0
 10
12.7625986362
 20
4.6106802937
 30
0.0
 10
12.7130668564
 20
4.543299934
 30
0.0
 10
12.6582553251
 20
4.4780083553
 30
0.0
 10
12.5983410795
 20
4.4150132712
 30
0.0
 10
12.5335150595
 20
4.3545117166
 30
0.0
 10
12.4639839709
 20
4.2966938411
 30
0.0
 10
12.3899680584
 20
4.24174065
 30
0.0
 10
12.3117047073
 20
4.1898261126
 30
0.0
 10
12.2573317326
 20
4.1576286502
 30
0.0
 10
12.2295265348
 20
4.142068492
 30
0.0
  0
SPLINE
  5
2F6
100
AcDbEntity
  8
0
100
AcDbSpline
 62
9
  6
CONTINUOUS
 70
0
 71
3
 72
9
 73
5
 74
0
 42
0.0000001
 43
0.0000001
 44
0.0000000001
 40
0.0
 40
0.0
 40
0.0
 40
0.0
 40
0.2462392192
 40
1.0
 40
1.0
 40
1.0
 40
1.0
 10
12.2295265348
 20
4.142068492
 30
0.0
 10
12.211268255
 20
4.131850916
 30
0.0
 10
12.1364570075
 20
4.0915481986
 30
0.0
 10
12.0591139782
 20
4.0559754125
 30
0.0
 10
11.9998183383
 20
4.0317680689
 30
0.0
  0
SPLINE
  5
2F7
100
AcDbEntity
  8
0
100
AcDbSpline
 62
9
  6
CONTINUOUS
 70
0
 71
3
 72
30
 73
26
 74
0
 42
0.0000001
 43
0.0000001
 44
0.0000000001
 40
0.0
 40
0.0
 40
0.0
 40
0.0
 40
0.0275999493
 40
0.0552294047
 40
0.0829176552
 40
0.1106935514
 40
0.1385852939
 40
0.1666202528
 40
0.1948247615
 40
0.2232239649
 40
0.2518416835
 40
0.2807002489
 40
0.3098204404
 40
0.3392213757
 40
0.3689204276
 40
0.3989332244
 40
0.4599424861
 40
0.5223494133
 40
0.5862136556
 40
0.6515667921
 40
0.7184136825
 40
0.7867341401
 40
0.8564849306
 40
0.927601048
 40
1.0
 40
1.0
 40
1.0
 40
1.0
 10
12.9523183383
 20
5.3277726261
 30
0.0
 10
12.9523183383
 20
5.3130774053
 30
0.0
 10
12.9516373431
 20
5.2836667182
 30
0.0
 10
12.9485747828
 20
5.2396097196
 30
0.0
 10
12.9434742227
 20
5.1956467382
 30
0.0
 10
12.9363411408
 20
5.1518263904
 30
0.0
 10
12.92718357
 20
5.1081954704
 30
0.0
 10
12.9160112701
 20
5.0648010526
 30
0.0
 10
12.902836527
 20
5.0216897441
 30
0.0
 10
12.8876737733
 20
4.9789078175
 30
0.0
 10
12.870539261
 20
4.9365012685
 30
0.0
 10
12.8514518268
 20
4.8945154881
 30
0.0
 10
12.8304320265
 20
4.8529954484
 30
0.0
 10
12.8075026567
 20
4.8119858112
 30
0.0
 10
12.782688192
 20
4.7715297172
 30
0.0
 10
12.7469337648
 20
4.718098875
 30
0.0
 10
12.6975663311
 20
4.652903973
 30
0.0
 10
12.6315981424
 20
4.578016706
 30
0.0
 10
12.5588590963
 20
4.5063549528
 30
0.0
 10
12.4796651165
 20
4.4382247888
 30
0.0
 10
12.394355601
 20
4.3739126576
 30
0.0
 10
12.3032963469
 20
4.3136904084
 30
0.0
 10
12.2068758965
 20
4.2578120978
 30
0.0
 10
12.1055097651
 20
4.2065151921
 30
0.0
 10
12.0355067084
 20
4.1757728522
 30
0.0
 10
11.9998183383
 20
4.1612031361
 30
0.0
  0
SPLINE
  5
2F8
100
AcDbEntity
  8
0
100
AcDbSpline
 62
9
  6
CONTINUOUS
 70
0
 71
3
 72
29
 73
25
 74
0
 42
0.0000001
 43
0.0000001
 44
0.0000000001
 40
0.0
 40
0.0
 40
0.0
 40
0.0
 40
0.0276002716
 40
0.0552300491
 40
0.0829186237
 40
0.1106948431
 40
0.1385869112
 40
0.1666221992
 40
0.1948270332
 40
0.2232265733
 40
0.2518446225
 40
0.2807035231
 40
0.3098240614
 40
0.3392253302
 40
0.3989262108
 40
0.4599361899
 40
0.5223438397
 40
0.5862088201
 40
0.6515627208
 40
0.7184104036
 40
0.7867316442
 40
0.8564832748
 40
0.927600202
 40
1.0
 40
1.0
 40
1.0
 40
1.0
 10
12.6673183383
 20
5.4851550294
 30
0.0
 10
12.6673183383
 20
5.4726583063
 30
0.0
 10
12.6667392057
 20
5.4476476441
 30
0.0
 10
12.6641348572
 20
5.4101818474
 30
0.0
 10
12.6597973373
 20
5.372796009
 30
0.0
 10
12.6537314268
 20
5.3355314598
 30
0.0
 10
12.6459439093
 20
5.2984279935
 30
0.0
 10
12.6364429922
 20
5.2615256731
 30
0.0
 10
12.6252393611
 20
5.2248640575
 30
0.0
 10
12.6123449709
 20
5.1884826128
 30
0.0
 10
12.5977739079
 20
5.1524203148
 30
0.0
 10
12.5815421803
 20
5.1167159406
 30
0.0
 10
12.5636667283
 20
5.0814072701
 30
0.0
 10
12.5375381025
 20
5.034674842
 30
0.0
 10
12.5007794857
 20
4.9774127645
 30
0.0
 10
12.4506799751
 20
4.9112529548
 30
0.0
 10
12.3945795685
 20
4.8475667812
 30
0.0
 10
12.3327231895
 20
4.7866267455
 30
0.0
 10
12.2653770039
 20
4.728689095
 30
0.0
 10
12.1928303315
 20
4.6739985585
 30
0.0
 10
12.1153941097
 20
4.6227859003
 30
0.0
 10
12.0333987741
 20
4.5752673393
 30
0.0
 10
11.9471976565
 20
4.5316447612
 30
0.0
 10
11.8876675038
 20
4.5055016785
 30
0.0
 10
11.8573183383
 20
4.4931116836
 30
0.0
  0
SPLINE
  5
2F9
100
AcDbEntity
  8
0
100
AcDbSpline
 62
7
  6
CONTINUOUS
 70
0
 71
3
 72
23
 73
19
 74
0
 42
0.0000001
 43
0.0000001
 44
0.0000000001
 40
0.0
 40
0.0
 40
0.0
 40
0.0
 40
0.1171674018
 40
0.1475480226
 40
0.17830845
 40
0.240850621
 40
0.3045698001
 40
0.3691983648
 40
0.4344459065
 40
0.5000065409
 40
0.565566942
 40
0.6308137839
 40
0.6954412055
 40
0.7591588214
 40
0.8216990536
 40
0.8524583911
 40
0.8828378408
 40
1.0
 40
1.0
 40
1.0
 40
1.0
 10
10.7762459474
 20
7.1284923837
 30
0.0
 10
10.7945467636
 20
7.115592203
 30
0.0
 10
10.8191943464
 20
7.1014971473
 30
0.0
 10
10.850308196
 20
7.087610881
 30
0.0
 10
10.872265227
 20
7.078842996
 30
0.0
 10
10.9007662062
 20
7.0693588899
 30
0.0
 10
10.9361719317
 20
7.0604442431
 30
0.0
 10
10.9726369364
 20
7.0540161989
 30
0.0
 10
11.0098129947
 20
7.0501357413
 30
0.0
 10
11.0473463447
 20
7.0488394483
 30
0.0
 10
11.0848794272
 20
7.0501396093
 30
0.0
 10
11.1220546878
 20
7.0540238966
 30
0.0
 10
11.1585183703
 20
7.0604556988
 30
0.0
 10
11.1939222653
 20
7.0693739907
 30
0.0
 10
11.2224213366
 20
7.078861058
 30
0.0
 10
11.244376601
 20
7.0876312049
 30
0.0
 10
11.2754874602
 20
7.101520652
 30
0.0
 10
11.3001321942
 20
7.1156182663
 30
0.0
 10
11.3184304278
 20
7.1285203717
 30
0.0
  0
SPLINE
  5
2FA
100
AcDbEntity
  8
0
100
AcDbSpline
 62
7
  6
CONTINUOUS
 70
0
 71
3
 72
23
 73
19
 74
0
 42
0.0000001
 43
0.0000001
 44
0.0000000001
 40
0.0
 40
0.0
 40
0.0
 40
0.0
 40
0.0572383863
 40
0.116232374
 40
0.1768350767
 40
0.2388583479
 40
0.3020806741
 40
0.3662539022
 40
0.4311103849
 40
0.4963695314
 40
0.5617441707
 40
0.6269472684
 40
0.691697816
 40
0.7557277613
 40
0.8187879512
 40
0.8498887889
 40
0.8806660912
 40
1.0
 40
1.0
 40
1.0
 40
1.0
 10
10.7842589116
 20
7.0806535531
 30
0.0
 10
10.793082102
 20
7.0749833684
 30
0.0
 10
10.8115195564
 20
7.0642614823
 30
0.0
 10
10.8408034341
 20
7.0503161047
 30
0.0
 10
10.8719018493
 20
7.0383763404
 30
0.0
 10
10.9045394911
 20
7.0285535756
 30
0.0
 10
10.93843127
 20
7.0209388773
 30
0.0
 10
10.97328009
 20
7.0156049423
 30
0.0
 10
11.008780709
 20
7.0126045792
 30
0.0
 10
11.0446220683
 20
7.0119703839
 30
0.0
 10
11.0804901966
 20
7.0137143612
 30
0.0
 10
11.1160708168
 20
7.0178278087
 30
0.0
 10
11.1510526023
 20
7.0242814996
 30
0.0
 10
11.1851283967
 20
7.0330256291
 30
0.0
 10
11.2126505323
 20
7.0422061305
 30
0.0
 10
11.2339386945
 20
7.0506434413
 30
0.0
 10
11.2643246872
 20
7.0640264969
 30
0.0
 10
11.2884915014
 20
7.0775085503
 30
0.0
 10
11.30658492
 20
7.0897868422
 30
0.0
  0
SPLINE
  5
2FB
100
AcDbEntity
  8
0
100
AcDbSpline
 62
7
  6
CONTINUOUS
 70
0
 71
3
 72
22
 73
18
 74
0
 42
0.0000001
 43
0.0000001
 44
0.0000000001
 40
0.0
 40
0.0
 40
0.0
 40
0.0
 40
0.0576286739
 40
0.1168193226
 40
0.1774355219
 40
0.239310923
 40
0.3022541101
 40
0.3660540741
 40
0.4304848081
 40
0.4953101208
 40
0.5602884759
 40
0.6251771704
 40
0.6897373513
 40
0.753738159
 40
0.8169615856
 40
0.8792070916
 40
1.0
 40
1.0
 40
1.0
 40
1.0
 10
10.79750102
 20
7.0236591073
 30
0.0
 10
10.8058945973
 20
7.0187212856
 30
0.0
 10
10.8233133773
 20
7.0093845362
 30
0.0
 10
10.8507398851
 20
6.9972073525
 30
0.0
 10
10.8796326818
 20
6.986752553
 30
0.0
 10
10.9097746834
 20
6.9781033957
 30
0.0
 10
10.9409422999
 20
6.9713283389
 30
0.0
 10
10.9729035217
 20
6.9664825566
 30
0.0
 10
11.0054206406
 20
6.9636069056
 30
0.0
 10
11.0382517443
 20
6.9627277189
 30
0.0
 10
11.0711526226
 20
6.9638565873
 30
0.0
 10
11.1038784948
 20
6.9669901858
 30
0.0
 10
11.1361862992
 20
6.972110572
 30
0.0
 10
11.167834707
 20
6.979184464
 30
0.0
 10
11.1985927431
 20
6.9881666037
 30
0.0
 10
11.2376967716
 20
7.0024525244
 30
0.0
 10
11.2656465631
 20
7.0160230594
 30
0.0
 10
11.2832725863
 20
7.0263173618
 30
0.0
  0
SPLINE
  5
2FC
100
AcDbEntity
  8
0
100
AcDbSpline
 62
7
  6
CONTINUOUS
 70
0
 71
3
 72
39
 73
35
 74
0
 42
0.0000001
 43
0.0000001
 44
0.0000000001
 40
0.0
 40
0.0
 40
0.0
 40
0.0
 40
0.0248338428
 40
0.0498056236
 40
0.0750449271
 40
0.1006750037
 40
0.1268030267
 40
0.153520257
 40
0.1808992739
 40
0.2089933431
 40
0.223322707
 40
0.2378420645
 40
0.2674499377
 40
0.2978204473
 40
0.3289354474
 40
0.3607620877
 40
0.3932543369
 40
0.4263546452
 40
0.4599953398
 40
0.494100293
 40
0.5285863272
 40
0.5633645975
 40
0.5983421453
 40
0.6334231112
 40
0.6685102283
 40
0.7035061693
 40
0.7383148433
 40
0.7728428051
 40
0.8070006732
 40
0.8407044039
 40
0.8738768719
 40
0.9064495289
 40
0.93836262
 40
1.0
 40
1.0
 40
1.0
 40
1.0
 10
10.6410683386
 20
7.3116695084
 30
0.0
 10
10.6410683526
 20
7.3045254013
 30
0.0
 10
10.6418268009
 20
7.2901861334
 30
0.0
 10
10.6452290839
 20
7.2688294869
 30
0.0
 10
10.6508768095
 20
7.2477156277
 30
0.0
 10
10.6587348858
 20
7.2269674552
 30
0.0
 10
10.6687569047
 20
7.2067003873
 30
0.0
 10
10.6808839133
 20
7.1870271496
 30
0.0
 10
10.6950453612
 20
7.1680567383
 30
0.0
 10
10.7083884053
 20
7.1530178062
 30
0.0
 10
10.7199742232
 20
7.1414323574
 30
0.0
 10
10.7323232624
 20
7.1300119437
 30
0.0
 10
10.7488825457
 20
7.1163733861
 30
0.0
 10
10.7702759373
 20
7.1012028358
 30
0.0
 10
10.7932034849
 20
7.0872028446
 30
0.0
 10
10.8175373283
 20
7.0744506639
 30
0.0
 10
10.8431429427
 20
7.0630159125
 30
0.0
 10
10.8698785308
 20
7.0529613081
 30
0.0
 10
10.8975961672
 20
7.0443420002
 30
0.0
 10
10.9261424835
 20
7.0372053737
 30
0.0
 10
10.9553595162
 20
7.0315906774
 30
0.0
 10
10.9850855841
 20
7.0275288494
 30
0.0
 10
11.0151561481
 20
7.0250422927
 30
0.0
 10
11.0454047528
 20
7.0241446958
 30
0.0
 10
11.0756639457
 20
7.0248409819
 30
0.0
 10
11.1057662266
 20
7.027127307
 30
0.0
 10
11.1355449642
 20
7.0309910635
 30
0.0
 10
11.1648353539
 20
7.0364109933
 30
0.0
 10
11.1934752139
 20
7.0433572289
 30
0.0
 10
11.2213062781
 20
7.0517917273
 30
0.0
 10
11.248173753
 20
7.0616675104
 30
0.0
 10
11.2739319516
 20
7.0729323925
 30
0.0
 10
11.30621645
 20
7.0895193091
 30
0.0
 10
11.3289514747
 20
7.1041247349
 30
0.0
 10
11.3431286757
 20
7.1147744769
 30
0.0
  0
SPLINE
  5
2FD
100
AcDbEntity
  8
0
100
AcDbSpline
 62
9
  6
CONTINUOUS
 70
0
 71
3
 72
28
 73
24
 74
0
 42
0.0000001
 43
0.0000001
 44
0.0000000001
 40
0.0
 40
0.0
 40
0.0
 40
0.0
 40
0.025710759
 40
0.0514832452
 40
0.0773781129
 40
0.1034540659
 40
0.1297667892
 40
0.1563683132
 40
0.1833062147
 40
0.2106231408
 40
0.2383564783
 40
0.2665379169
 40
0.324322071
 40
0.3841398506
 40
0.4460434467
 40
0.510003724
 40
0.5759188583
 40
0.6436238128
 40
0.7129000752
 40
0.7834849773
 40
0.8550817396
 40
0.9273660511
 40
1.0
 40
1.0
 40
1.0
 40
1.0
 10
11.4535682695
 20
8.1198041144
 30
0.0
 10
11.4535682695
 20
8.1151028565
 30
0.0
 10
11.4532411174
 20
8.1056857872
 30
0.0
 10
11.4517700165
 20
8.0916029753
 30
0.0
 10
11.4493227389
 20
8.0775882938
 30
0.0
 10
11.4459049056
 20
8.0636768777
 30
0.0
 10
11.4415254632
 20
8.0499022251
 30
0.0
 10
11.4361951782
 20
8.0362978434
 30
0.0
 10
11.4299272549
 20
8.0228966031
 30
0.0
 10
11.4227374719
 20
8.0097307969
 30
0.0
 10
11.4146428499
 20
7.996831923
 30
0.0
 10
11.4025726216
 20
7.9798923049
 30
0.0
 10
11.3852598176
 20
7.9595449305
 30
0.0
 10
11.3614230916
 20
7.9369000314
 30
0.0
 10
11.3345791618
 20
7.916026585
 30
0.0
 10
11.3049889046
 20
7.8971217629
 30
0.0
 10
11.2729356866
 20
7.8803614396
 30
0.0
 10
11.2387262968
 20
7.8659029291
 30
0.0
 10
11.2026875492
 20
7.8538822107
 30
0.0
 10
11.1651638673
 20
7.8444126145
 30
0.0
 10
11.1265132572
 20
7.8375838872
 30
0.0
 10
11.0871074297
 20
7.8334604248
 30
0.0
 10
11.0605995846
 20
7.8325419845
 30
0.0
 10
11.0473183383
 20
7.8325419845
 30
0.0
  0
SPLINE
  5
2FE
100
AcDbEntity
  8
0
100
AcDbSpline
 62
7
  6
CONTINUOUS
 70
0
 71
3
 72
20
 73
16
 74
0
 42
0.0000001
 43
0.0000001
 44
0.0000000001
 40
0.0
 40
0.0
 40
0.0
 40
0.0
 40
0.1364621779
 40
0.2042499669
 40
0.2715430514
 40
0.4040563825
 40
0.4690625298
 40
0.5330672917
 40
0.5959685941
 40
0.6576776581
 40
0.7771878522
 40
0.8349471797
 40
0.8913268288
 40
0.9463375346
 40
1.0
 40
1.0
 40
1.0
 40
1.0
 10
11.0473183383
 20
6.8833389507
 30
0.0
 10
11.0296279301
 20
6.8829850912
 30
0.0
 10
11.0031034727
 20
6.8836770712
 30
0.0
 10
10.9680476192
 20
6.8870582774
 30
0.0
 10
10.9336964446
 20
6.8920149935
 30
0.0
 10
10.9000846565
 20
6.8993429663
 30
0.0
 10
10.8675793716
 20
6.9090415112
 30
0.0
 10
10.8441201482
 20
6.9173744466
 30
0.0
 10
10.8215286836
 20
6.9267745659
 30
0.0
 10
10.7930054751
 20
6.9405233178
 30
0.0
 10
10.7662516405
 20
6.9563300076
 30
0.0
 10
10.7417183686
 20
6.9741328434
 30
0.0
 10
10.7248290466
 20
6.9881517499
 30
0.0
 10
10.7093207312
 20
7.0029231501
 30
0.0
 10
10.6998292721
 20
7.0133581017
 30
0.0
 10
10.6953467171
 20
7.0186797703
 30
0.0
  0
SPLINE
  5
2FF
100
AcDbEntity
  8
0
100
AcDbSpline
 62
7
  6
CONTINUOUS
 70
0
 71
3
 72
28
 73
24
 74
0
 42
0.0000001
 43
0.0000001
 44
0.0000000001
 40
0.0
 40
0.0
 40
0.0
 40
0.0
 40
0.0730371792
 40
0.145649268
 40
0.2175183475
 40
0.2883387116
 40
0.3578277125
 40
0.4257323188
 40
0.4918374923
 40
0.5559748474
 40
0.618031212
 40
0.6779576707
 40
0.7357779442
 40
0.7639380866
 40
0.7916177282
 40
0.8188432323
 40
0.8456462657
 40
0.8720638893
 40
0.898138228
 40
0.9239161248
 40
0.9494487285
 40
0.9747907655
 40
1.0
 40
1.0
 40
1.0
 40
1.0
 10
11.0473183383
 20
6.9347087464
 30
0.0
 10
11.0345232358
 20
6.9344521049
 30
0.0
 10
11.0089821027
 20
6.9347918287
 30
0.0
 10
10.9709638532
 20
6.9378541754
 30
0.0
 10
10.9336230303
 20
6.9434342646
 30
0.0
 10
10.8972935413
 20
6.9514762327
 30
0.0
 10
10.8622975655
 20
6.9619022792
 30
0.0
 10
10.8289459953
 20
6.9746139989
 30
0.0
 10
10.7975348802
 20
6.9894932289
 30
0.0
 10
10.7683434339
 20
7.0064030679
 30
0.0
 10
10.7416309696
 20
7.02519024
 30
0.0
 10
10.7176379551
 20
7.0456828358
 30
0.0
 10
10.6999309707
 20
7.0641954711
 30
0.0
 10
10.6873812691
 20
7.0796707778
 30
0.0
 10
10.6788555843
 20
7.0914772037
 30
0.0
 10
10.6711545148
 20
7.1035563131
 30
0.0
 10
10.6642955844
 20
7.1158808128
 30
0.0
 10
10.6582943454
 20
7.1284220947
 30
0.0
 10
10.6531646818
 20
7.1411513163
 30
0.0
 10
10.6489184556
 20
7.1540389491
 30
0.0
 10
10.6455654058
 20
7.167055287
 30
0.0
 10
10.6431136306
 20
7.1801692823
 30
0.0
 10
10.642081583
 20
7.1889748579
 30
0.0
 10
10.6417185595
 20
7.1933771123
 30
0.0
  0
SPLINE
  5
300
100
AcDbEntity
  8
0
100
AcDbSpline
 62
7
  6
CONTINUOUS
 70
0
 71
3
 72
28
 73
24
 74
0
 42
0.0000001
 43
0.0000001
 44
0.0000000001
 40
0.0
 40
0.0
 40
0.0
 40
0.0
 40
0.0729877314
 40
0.1455531811
 40
0.2173807713
 40
0.288167059
 40
0.3576312564
 40
0.4255217856
 40
0.4916244672
 40
0.5557710748
 40
0.6178477916
 40
0.677804046
 40
0.7356608939
 40
0.7638405903
 40
0.7915399337
 40
0.8187846825
 40
0.8456057683
 40
0.8720395333
 40
0.8981272877
 40
0.9239151144
 40
0.9494533483
 40
0.9747959673
 40
1.0
 40
1.0
 40
1.0
 40
1.0
 10
11.0473183383
 20
6.9859484935
 30
0.0
 10
11.0345683144
 20
6.9856922941
 30
0.0
 10
11.0091168123
 20
6.9860269358
 30
0.0
 10
10.971229798
 20
6.9890638554
 30
0.0
 10
10.9340131215
 20
6.9946012199
 30
0.0
 10
10.8977972604
 20
7.0025839376
 30
0.0
 10
10.8629011363
 20
7.0129352903
 30
0.0
 10
10.8296325927
 20
7.0255582218
 30
0.0
 10
10.7982848777
 20
7.0403361687
 30
0.0
 10
10.7691346881
 20
7.0571340667
 30
0.0
 10
10.7424391408
 20
7.0758006539
 30
0.0
 10
10.7184368119
 20
7.0961662695
 30
0.0
 10
10.7006991047
 20
7.1145682704
 30
0.0
 10
10.6881094849
 20
7.1299548474
 30
0.0
 10
10.6795466854
 20
7.1416956165
 30
0.0
 10
10.6718010718
 20
7.1537094327
 30
0.0
 10
10.6648902766
 20
7.1659694383
 30
0.0
 10
10.6588296839
 20
7.178447279
 30
0.0
 10
10.653633401
 20
7.1911145651
 30
0.0
 10
10.6493131331
 20
7.2039420356
 30
0.0
 10
10.6458789485
 20
7.2169004233
 30
0.0
 10
10.6433388241
 20
7.2299589787
 30
0.0
 10
10.6422430906
 20
7.238730531
 30
0.0
 10
10.6418471686
 20
7.2431164081
 30
0.0
  0
SPLINE
  5
301
100
AcDbEntity
  8
0
100
AcDbSpline
 62
9
  6
CONTINUOUS
 70
0
 71
3
 72
28
 73
24
 74
0
 42
0.0000001
 43
0.0000001
 44
0.0000000001
 40
0.0
 40
0.0
 40
0.0
 40
0.0
 40
0.0726339489
 40
0.1449182604
 40
0.2165150227
 40
0.2870999248
 40
0.3563761872
 40
0.4240811417
 40
0.489996276
 40
0.5539565533
 40
0.6158601494
 40
0.675677929
 40
0.7334620831
 40
0.7616435217
 40
0.7893768592
 40
0.8166937853
 40
0.8436316868
 40
0.8702332108
 40
0.8965459341
 40
0.9226218871
 40
0.9485167548
 40
0.974289241
 40
1.0
 40
1.0
 40
1.0
 40
1.0
 10
11.0473183383
 20
7.8325419845
 30
0.0
 10
11.034037092
 20
7.8325419845
 30
0.0
 10
11.0075292469
 20
7.8334604248
 30
0.0
 10
10.9681234194
 20
7.8375838872
 30
0.0
 10
10.9294728093
 20
7.8444126145
 30
0.0
 10
10.8919491274
 20
7.8538822107
 30
0.0
 10
10.8559103798
 20
7.8659029291
 30
0.0
 10
10.82170099
 20
7.8803614396
 30
0.0
 10
10.789647772
 20
7.8971217629
 30
0.0
 10
10.7600575147
 20
7.916026585
 30
0.0
 10
10.7332135849
 20
7.9369000314
 30
0.0
 10
10.709376859
 20
7.9595449305
 30
0.0
 10
10.6920640549
 20
7.9798923049
 30
0.0
 10
10.6799938266
 20
7.996831923
 30
0.0
 10
10.6718992047
 20
8.0097307969
 30
0.0
 10
10.6647094216
 20
8.0228966031
 30
0.0
 10
10.6584414984
 20
8.0362978434
 30
0.0
 10
10.6531112133
 20
8.0499022251
 30
0.0
 10
10.6487317709
 20
8.0636768777
 30
0.0
 10
10.6453139377
 20
8.0775882938
 30
0.0
 10
10.64286666
 20
8.0916029753
 30
0.0
 10
10.6413955591
 20
8.1056857872
 30
0.0
 10
10.6410684071
 20
8.1151028565
 30
0.0
 10
10.6410684071
 20
8.1198041144
 30
0.0
  0
SPLINE
  5
302
100
AcDbEntity
  8
0
100
AcDbSpline
 62
7
  6
CONTINUOUS
 70
0
 71
3
 72
33
 73
29
 74
0
 42
0.0000001
 43
0.0000001
 44
0.0000000001
 40
0.0
 40
0.0
 40
0.0
 40
0.0
 40
0.0707202511
 40
0.1062864005
 40
0.1419121455
 40
0.2131015553
 40
0.2838550699
 40
0.353739341
 40
0.3882351899
 40
0.4223651374
 40
0.4893392253
 40
0.5221243317
 40
0.554392608
 40
0.6172595397
 40
0.6478440161
 40
0.6778433595
 40
0.7072571685
 40
0.7360926419
 40
0.7643649336
 40
0.7920974311
 40
0.819321916
 40
0.846078581
 40
0.8724158163
 40
0.8983897615
 40
0.924063606
 40
0.9495066191
 40
0.9747929201
 40
1.0
 40
1.0
 40
1.0
 40
1.0
 10
11.1770814628
 20
6.2247651893
 30
0.0
 10
11.1559873342
 20
6.2213099293
 30
0.0
 10
11.1240532993
 20
6.2174126655
 30
0.0
 10
11.0812338216
 20
6.2147700676
 30
0.0
 10
11.0381990956
 20
6.2138291231
 30
0.0
 10
10.9845052679
 20
6.215851023
 30
0.0
 10
10.9208557724
 20
6.2233568826
 30
0.0
 10
10.8688975752
 20
6.233814542
 30
0.0
 10
10.828448057
 20
6.2446522236
 30
0.0
 10
10.7893405552
 20
6.2569468906
 30
0.0
 10
10.7515478295
 20
6.2715969595
 30
0.0
 10
10.7154239381
 20
6.2885834537
 30
0.0
 10
10.6812489601
 20
6.3066890359
 30
0.0
 10
10.6489943885
 20
6.3269268182
 30
0.0
 10
10.6190617678
 20
6.3492293113
 30
0.0
 10
10.5981632823
 20
6.3666650208
 30
0.0
 10
10.5786809024
 20
6.3849049266
 30
0.0
 10
10.5606755119
 20
6.403892633
 30
0.0
 10
10.5442045618
 20
6.4235686488
 30
0.0
 10
10.5293205648
 20
6.443871477
 30
0.0
 10
10.5160713048
 20
6.4647375217
 30
0.0
 10
10.5044994832
 20
6.4861012363
 30
0.0
 10
10.4946426362
 20
6.5078952894
 30
0.0
 10
10.4865329952
 20
6.5300507957
 30
0.0
 10
10.4801973057
 20
6.5524972543
 30
0.0
 10
10.4756566482
 20
6.5751635886
 30
0.0
 10
10.4729261676
 20
6.5979753015
 30
0.0
 10
10.4723183563
 20
6.6132438778
 30
0.0
 10
10.4723183726
 20
6.6208627351
 30
0.0
  0
SPLINE
  5
303
100
AcDbEntity
  8
0
100
AcDbSpline
 62
7
  6
CONTINUOUS
 70
0
 71
3
 72
33
 73
29
 74
0
 42
0.0000001
 43
0.0000001
 44
0.0000000001
 40
0.0
 40
0.0
 40
0.0
 40
0.0
 40
0.0310803596
 40
0.0616777197
 40
0.0918256685
 40
0.1215635448
 40
0.1509361183
 40
0.1799933504
 40
0.2087897596
 40
0.2373837516
 40
0.2658369166
 40
0.294213041
 40
0.3225771212
 40
0.350994374
 40
0.3795291723
 40
0.4082439881
 40
0.4371985053
 40
0.4664488066
 40
0.4960465406
 40
0.526038456
 40
0.556465985
 40
0.5873647772
 40
0.6506662904
 40
0.7161369862
 40
0.7838531429
 40
0.8538052959
 40
0.9259052595
 40
1.0
 40
1.0
 40
1.0
 40
1.0
 10
11.4733011389
 20
6.7810889282
 30
0.0
 10
11.4768972586
 20
6.776308538
 30
0.0
 10
11.4837736538
 20
6.7666228224
 30
0.0
 10
11.4931656275
 20
6.7516400346
 30
0.0
 10
11.5015308615
 20
6.7363534431
 30
0.0
 10
11.5088493615
 20
6.720798802
 30
0.0
 10
11.5151037439
 20
6.7050117171
 30
0.0
 10
11.5202793196
 20
6.6890287937
 30
0.0
 10
11.5243637629
 20
6.6728870399
 30
0.0
 10
11.5273470991
 20
6.6566239231
 30
0.0
 10
11.5292223993
 20
6.6402773616
 30
0.0
 10
11.5299850346
 20
6.6238854569
 30
0.0
 10
11.5296330653
 20
6.6074864966
 30
0.0
 10
11.528167572
 20
6.5911187682
 30
0.0
 10
11.5255918917
 20
6.5748204773
 30
0.0
 10
11.5219122503
 20
6.5586296177
 30
0.0
 10
11.5171376264
 20
6.5425837873
 30
0.0
 10
11.5112791992
 20
6.52672028
 30
0.0
 10
11.5043510008
 20
6.5110757284
 30
0.0
 10
11.4963695717
 20
6.4956862932
 30
0.0
 10
11.4873531254
 20
6.4805870861
 30
0.0
 10
11.4738741592
 20
6.4607318249
 30
0.0
 10
11.4544720873
 20
6.436812513
 30
0.0
 10
11.4276479749
 20
6.4100649632
 30
0.0
 10
11.3973401041
 20
6.3852714283
 30
0.0
 10
11.3638300212
 20
6.3626560192
 30
0.0
 10
11.3274279797
 20
6.3424208525
 30
0.0
 10
11.3017713696
 20
6.3307831498
 30
0.0
 10
11.2885683383
 20
6.3253930349
 30
0.0
  0
SPLINE
  5
304
100
AcDbEntity
  8
0
100
AcDbSpline
 62
7
  6
CONTINUOUS
 70
0
 71
3
 72
39
 73
35
 74
0
 42
0.0000001
 43
0.0000001
 44
0.0000000001
 40
0.0
 40
0.0
 40
0.0
 40
0.0
 40
0.0695843146
 40
0.1051487626
 40
0.141082539
 40
0.1772766315
 40
0.2136175691
 40
0.2499895444
 40
0.286276263
 40
0.3223627751
 40
0.3581374111
 40
0.3934936149
 40
0.4283319516
 40
0.4625620164
 40
0.4961045337
 40
0.5288933849
 40
0.5608777862
 40
0.5920243953
 40
0.6072815035
 40
0.6223257478
 40
0.6517769812
 40
0.6804153558
 40
0.7082961906
 40
0.7354995673
 40
0.7621295952
 40
0.7883123178
 40
0.8141919739
 40
0.8399257603
 40
0.8656772632
 40
0.8916093041
 40
0.9178767877
 40
0.9446204389
 40
0.9719618215
 40
1.0
 40
1.0
 40
1.0
 40
1.0
 10
11.2793073182
 20
6.3217078356
 30
0.0
 10
11.2563537009
 20
6.3128079284
 30
0.0
 10
11.2207513648
 20
6.3015966558
 30
0.0
 10
11.1719807389
 20
6.2908915599
 30
0.0
 10
11.1343285301
 20
6.2849072796
 30
0.0
 10
11.0961249463
 20
6.2810681637
 30
0.0
 10
11.0576095574
 20
6.2793975667
 30
0.0
 10
11.0190288105
 20
6.2799063377
 30
0.0
 10
10.9806282646
 20
6.2825911867
 30
0.0
 10
10.9426526638
 20
6.287435109
 30
0.0
 10
10.9053439386
 20
6.2944074061
 30
0.0
 10
10.8689397496
 20
6.3034639302
 30
0.0
 10
10.8336719738
 20
6.3145473759
 30
0.0
 10
10.7997651879
 20
6.3275877335
 30
0.0
 10
10.7674354272
 20
6.3425026503
 30
0.0
 10
10.7368883398
 20
6.3591984619
 30
0.0
 10
10.7083198325
 20
6.3775692409
 30
0.0
 10
10.686159513
 20
6.3942945953
 30
0.0
 10
10.6696176955
 20
6.4084094726
 30
0.0
 10
10.6541055903
 20
6.4227792022
 30
0.0
 10
10.6362347554
 20
6.4415384135
 30
0.0
 10
10.6172644831
 20
6.4653666673
 30
0.0
 10
10.6010425229
 20
6.4902053905
 30
0.0
 10
10.5876778445
 20
6.5158966258
 30
0.0
 10
10.5772609626
 20
6.5422765442
 30
0.0
 10
10.5698641559
 20
6.5691746839
 30
0.0
 10
10.5655397333
 20
6.5964151699
 30
0.0
 10
10.5643187818
 20
6.6238180421
 30
0.0
 10
10.5662101399
 20
6.6512012588
 30
0.0
 10
10.5712001422
 20
6.6783830875
 30
0.0
 10
10.5792529018
 20
6.7051841249
 30
0.0
 10
10.5903121774
 20
6.7314302353
 30
0.0
 10
10.6042997446
 20
6.7569497363
 30
0.0
 10
10.615369617
 20
6.7731580919
 30
0.0
 10
10.6213328649
 20
6.7810853758
 30
0.0
  0
SPLINE
  5
305
100
AcDbEntity
  8
0
100
AcDbSpline
 62
7
  6
CONTINUOUS
 70
0
 71
3
 72
11
 73
7
 74
0
 42
0.0000001
 43
0.0000001
 44
0.0000000001
 40
0.0
 40
0.0
 40
0.0
 40
0.0
 40
0.2446557474
 40
0.4932515703
 40
0.7452341505
 40
1.0
 40
1.0
 40
1.0
 40
1.0
 10
11.3348183383
 20
6.0212612112
 30
0.0
 10
11.3224300842
 20
6.0162037276
 30
0.0
 10
11.2971410207
 20
6.0067579269
 30
0.0
 10
11.2581796414
 20
5.994716396
 30
0.0
 10
11.2180691537
 20
5.9847417747
 30
0.0
 10
11.1908320037
 20
5.9795301817
 30
0.0
 10
11.1770814628
 20
5.9772778159
 30
0.0
  0
SPLINE
  5
306
100
AcDbEntity
  8
0
100
AcDbSpline
 62
7
  6
CONTINUOUS
 70
0
 71
3
 72
10
 73
6
 74
0
 42
0.0000001
 43
0.0000001
 44
0.0000000001
 40
0.0
 40
0.0
 40
0.0
 40
0.0
 40
0.4887328342
 40
0.7417534297
 40
1.0
 40
1.0
 40
1.0
 40
1.0
 10
11.4675552138
 20
6.0958632282
 30
0.0
 10
11.4477321813
 20
6.0808542101
 30
0.0
 10
11.4159396802
 20
6.0602419803
 30
0.0
 10
11.3707812464
 20
6.0367750777
 30
0.0
 10
11.3469819434
 20
6.0262269822
 30
0.0
 10
11.3348183383
 20
6.0212612112
 30
0.0
  0
SPLINE
  5
307
100
AcDbEntity
  8
0
100
AcDbSpline
 62
7
  6
CONTINUOUS
 70
0
 71
3
 72
9
 73
5
 74
0
 42
0.0000001
 43
0.0000001
 44
0.0000000001
 40
0.0
 40
0.0
 40
0.0
 40
0.0
 40
0.5060216488
 40
1.0
 40
1.0
 40
1.0
 40
1.0
 10
11.4484926485
 20
6.7341003552
 30
0.0
 10
11.4540532149
 20
6.727246387
 30
0.0
 10
11.4644908474
 20
6.7132431895
 30
0.0
 10
11.4736661963
 20
6.6983785219
 30
0.0
 10
11.477847447
 20
6.6908452515
 30
0.0
  0
SPLINE
  5
308
100
AcDbEntity
  8
0
100
AcDbSpline
 62
7
  6
CONTINUOUS
 70
0
 71
3
 72
13
 73
9
 74
0
 42
0.0000001
 43
0.0000001
 44
0.0000000001
 40
0.0
 40
0.0
 40
0.0
 40
0.0
 40
0.2564540414
 40
0.5077245719
 40
0.6318406404
 40
0.7551380531
 40
0.877795855
 40
1.0
 40
1.0
 40
1.0
 40
1.0
 10
11.477847447
 20
6.6908452515
 30
0.0
 10
11.4822986075
 20
6.6828256905
 30
0.0
 10
11.4903337157
 20
6.6665013064
 30
0.0
 10
11.4981585724
 20
6.6452535784
 30
0.0
 10
11.5029399057
 20
6.6280631276
 30
0.0
 10
11.5057829605
 20
6.615129324
 30
0.0
 10
11.5078918706
 20
6.602125622
 30
0.0
 10
11.5088075992
 20
6.593410674
 30
0.0
 10
11.5091413861
 20
6.5890528291
 30
0.0
  0
SPLINE
  5
309
100
AcDbEntity
  8
0
100
AcDbSpline
 62
7
  6
CONTINUOUS
 70
0
 71
3
 72
15
 73
11
 74
0
 42
0.0000001
 43
0.0000001
 44
0.0000000001
 40
0.0
 40
0.0
 40
0.0
 40
0.0
 40
0.1313513069
 40
0.2603104764
 40
0.3871175865
 40
0.5120551097
 40
0.6354444125
 40
0.7576405568
 40
0.8790255001
 40
1.0
 40
1.0
 40
1.0
 40
1.0
 10
11.460244374
 20
6.7540269464
 30
0.0
 10
11.4642606462
 20
6.7483978279
 30
0.0
 10
11.4718434539
 20
6.7369669716
 30
0.0
 10
11.4818784268
 20
6.7192092125
 30
0.0
 10
11.4904313891
 20
6.7010625297
 30
0.0
 10
11.4974713563
 20
6.6825898316
 30
0.0
 10
11.5029734101
 20
6.6638543256
 30
0.0
 10
11.5069177741
 20
6.644920184
 30
0.0
 10
11.5092901825
 20
6.625854625
 30
0.0
 10
11.5098183383
 20
6.6130893245
 30
0.0
 10
11.5098183383
 20
6.6067205995
 30
0.0
  0
SPLINE
  5
30A
100
AcDbEntity
  8
0
100
AcDbSpline
 62
7
  6
CONTINUOUS
 70
0
 71
3
 72
15
 73
11
 74
0
 42
0.0000001
 43
0.0000001
 44
0.0000000001
 40
0.0
 40
0.0
 40
0.0
 40
0.0
 40
0.1223574381
 40
0.2450039312
 40
0.3681848387
 40
0.4921380121
 40
0.6170905033
 40
0.7432561462
 40
0.8708326484
 40
1.0
 40
1.0
 40
1.0
 40
1.0
 10
10.5873681968
 20
6.5736958401
 30
0.0
 10
10.5874179532
 20
6.5786039825
 30
0.0
 10
10.587832563
 20
6.5884315585
 30
0.0
 10
10.5893970377
 20
6.6031278322
 30
0.0
 10
10.5919009957
 20
6.6177589316
 30
0.0
 10
10.5953393163
 20
6.6322937649
 30
0.0
 10
10.5997043941
 20
6.6467025747
 30
0.0
 10
10.6049873506
 20
6.6609556906
 30
0.0
 10
10.6111766068
 20
6.675023316
 30
0.0
 10
10.6158680739
 20
6.6841995756
 30
0.0
 10
10.6183556379
 20
6.6887449855
 30
0.0
  0
SPLINE
  5
30B
100
AcDbEntity
  8
0
100
AcDbSpline
 62
9
  6
CONTINUOUS
 70
0
 71
3
 72
30
 73
26
 74
0
 42
0.0000001
 43
0.0000001
 44
0.0000000001
 40
0.0
 40
0.0
 40
0.0
 40
0.0
 40
0.0656145113
 40
0.0990443172
 40
0.1328156471
 40
0.2011377527
 40
0.2701211954
 40
0.3392646407
 40
0.4080608613
 40
0.4760154887
 40
0.5426660779
 40
0.6076014929
 40
0.6393268703
 40
0.6705034376
 40
0.7310825649
 40
0.7604754143
 40
0.7892539341
 40
0.8174227766
 40
0.8449961972
 40
0.8719984512
 40
0.8984640038
 40
0.9244375611
 40
0.94997387
 40
0.9751371276
 40
1.0
 40
1.0
 40
1.0
 40
1.0
 10
11.2201279562
 20
6.4869480864
 30
0.0
 10
11.2078548941
 20
6.4819376298
 30
0.0
 10
11.1889391647
 20
6.475288903
 30
0.0
 10
11.1630639638
 20
6.4681592082
 30
0.0
 10
11.136355892
 20
6.4620895043
 30
0.0
 10
11.1021665951
 20
6.4566978702
 30
0.0
 10
11.0605082158
 20
6.4537861223
 30
0.0
 10
11.018656309
 20
6.4544483205
 30
0.0
 10
10.9772218513
 20
6.4586748627
 30
0.0
 10
10.9368061019
 20
6.466405549
 30
0.0
 10
10.8979991667
 20
6.4775282385
 30
0.0
 10
10.8672261835
 20
6.4895875909
 30
0.0
 10
10.8439509039
 20
6.5008069771
 30
0.0
 10
10.8220624178
 20
6.5127932968
 30
0.0
 10
10.8015483275
 20
6.5262564445
 30
0.0
 10
10.7827161635
 20
6.5411395664
 30
0.0
 10
10.7697023727
 20
6.5527727852
 30
0.0
 10
10.7577085008
 20
6.5649442369
 30
0.0
 10
10.7467783366
 20
6.5776101272
 30
0.0
 10
10.7369526718
 20
6.5907242136
 30
0.0
 10
10.7282682279
 20
6.604238759
 30
0.0
 10
10.7207578428
 20
6.6181042819
 30
0.0
 10
10.7144499528
 20
6.6322702528
 30
0.0
 10
10.7093690176
 20
6.6466830202
 30
0.0
 10
10.7067993303
 20
6.6564721873
 30
0.0
 10
10.7057299112
 20
6.6613801973
 30
0.0
  0
SPLINE
  5
30C
100
AcDbEntity
  8
0
100
AcDbSpline
 62
7
  6
CONTINUOUS
 70
0
 71
3
 72
36
 73
32
 74
0
 42
0.0000001
 43
0.0000001
 44
0.0000000001
 40
0.0
 40
0.0
 40
0.0
 40
0.0
 40
0.0667162525
 40
0.1007470761
 40
0.135137523
 40
0.2047054206
 40
0.2397594676
 40
0.2748886123
 40
0.3450529289
 40
0.3799575968
 40
0.4146402167
 40
0.4490305588
 40
0.4830616581
 40
0.5166706583
 40
0.5497996711
 40
0.5823966581
 40
0.6144163344
 40
0.6458210831
 40
0.6765818791
 40
0.706679214
 40
0.7361039995
 40
0.7648584206
 40
0.7929566943
 40
0.8204256777
 40
0.8473052521
 40
0.8736483825
 40
0.8995207714
 40
0.9250000181
 40
0.9501742192
 40
0.9751399967
 40
1.0
 40
1.0
 40
1.0
 40
1.0
 10
11.2735683383
 20
6.8599521582
 30
0.0
 10
11.256218203
 20
6.8528689952
 30
0.0
 10
11.2294217855
 20
6.8435686265
 30
0.0
 10
11.1927265117
 20
6.8338141861
 30
0.0
 10
11.1548132742
 20
6.8256907857
 30
0.0
 10
11.1160747294
 20
6.8202659384
 30
0.0
 10
11.0769027637
 20
6.8175407999
 30
0.0
 10
11.0374789845
 20
6.8166291226
 30
0.0
 10
10.998072442
 20
6.8184477046
 30
0.0
 10
10.959070256
 20
6.8229960328
 30
0.0
 10
10.9302401349
 20
6.8277441248
 30
0.0
 10
10.9019105768
 20
6.8338139952
 30
0.0
 10
10.8742013839
 20
6.8411799801
 30
0.0
 10
10.8472310828
 20
6.8498107638
 30
0.0
 10
10.8211146799
 20
6.8596697296
 30
0.0
 10
10.7959636382
 20
6.8707150732
 30
0.0
 10
10.7718852826
 20
6.8828999892
 30
0.0
 10
10.7489823982
 20
6.8961728978
 30
0.0
 10
10.7273528121
 20
6.9104776748
 30
0.0
 10
10.7070890142
 20
6.9257538934
 30
0.0
 10
10.688277806
 20
6.9419370746
 30
0.0
 10
10.6709999816
 20
6.9589589393
 30
0.0
 10
10.6553300356
 20
6.9767476557
 30
0.0
 10
10.6413358915
 20
6.9952280737
 30
0.0
 10
10.6290786174
 20
7.014321937
 30
0.0
 10
10.6186121738
 20
7.0339480863
 30
0.0
 10
10.6099831228
 20
7.0540227454
 30
0.0
 10
10.6032303019
 20
7.0744594682
 30
0.0
 10
10.5983844668
 20
7.0951704749
 30
0.0
 10
10.5954679289
 20
7.116063207
 30
0.0
 10
10.5948183383
 20
7.130067625
 30
0.0
 10
10.5948183383
 20
7.1370506854
 30
0.0
  0
SPLINE
  5
30D
100
AcDbEntity
  8
0
100
AcDbSpline
 62
7
  6
CONTINUOUS
 70
0
 71
3
 72
21
 73
17
 74
0
 42
0.0000001
 43
0.0000001
 44
0.0000000001
 40
0.0
 40
0.0
 40
0.0
 40
0.0
 40
0.1434929659
 40
0.2132581786
 40
0.281593691
 40
0.4137535652
 40
0.4776316676
 40
0.5400521405
 40
0.6010746404
 40
0.6607877649
 40
0.7193091762
 40
0.7767848328
 40
0.8333871215
 40
0.8893117497
 40
0.9447733639
 40
1.0
 40
1.0
 40
1.0
 40
1.0
 10
11.2735683383
 20
6.8599521582
 30
0.0
 10
11.2903662163
 20
6.8668098632
 30
0.0
 10
11.3148341143
 20
6.8783113174
 30
0.0
 10
11.3456545438
 20
6.8961733001
 30
0.0
 10
11.3741702914
 20
6.9150314232
 30
0.0
 10
11.4003406648
 20
6.9360076972
 30
0.0
 10
11.4236361836
 20
6.9589584947
 30
0.0
 10
11.4393067733
 20
6.9767477708
 30
0.0
 10
11.4533007507
 20
6.9952280438
 30
0.0
 10
11.465558068
 20
7.0143219447
 30
0.0
 10
11.4760245004
 20
7.0339480843
 30
0.0
 10
11.4846535543
 20
7.054022746
 30
0.0
 10
11.4914063745
 20
7.074459468
 30
0.0
 10
11.4962522098
 20
7.0951704749
 30
0.0
 10
11.4991687477
 20
7.116063207
 30
0.0
 10
11.4998183383
 20
7.130067625
 30
0.0
 10
11.4998183383
 20
7.1370506854
 30
0.0
  0
SPLINE
  5
30E
100
AcDbEntity
  8
0
100
AcDbSpline
 62
9
  6
CONTINUOUS
 70
0
 71
3
 72
20
 73
16
 74
0
 42
0.0000001
 43
0.0000001
 44
0.0000000001
 40
0.0
 40
0.0
 40
0.0
 40
0.0
 40
0.1384070853
 40
0.2722303471
 40
0.4016121682
 40
0.4647563208
 40
0.5269278785
 40
0.5881973086
 40
0.648646846
 40
0.7083698861
 40
0.7674699477
 40
0.8260597251
 40
0.8842596685
 40
0.9421962161
 40
1.0
 40
1.0
 40
1.0
 40
1.0
 10
11.3727462656
 20
6.6869512803
 30
0.0
 10
11.3826423172
 20
6.6941940894
 30
0.0
 10
11.4014798328
 20
6.7093271079
 30
0.0
 10
11.4269542857
 20
6.7342528328
 30
0.0
 10
11.4454367476
 20
6.7565725918
 30
0.0
 10
11.4583152539
 20
6.7751168429
 30
0.0
 10
11.466950992
 20
6.7892256897
 30
0.0
 10
11.4746192935
 20
6.8036128755
 30
0.0
 10
11.4813024443
 20
6.818245694
 30
0.0
 10
11.4869847088
 20
6.8330902125
 30
0.0
 10
11.4916524607
 20
6.8481122092
 30
0.0
 10
11.4952945699
 20
6.8632767473
 30
0.0
 10
11.4979024541
 20
6.8785487959
 30
0.0
 10
11.4994696282
 20
6.8938918688
 30
0.0
 10
11.4998183166
 20
6.9041502751
 30
0.0
 10
11.4998183056
 20
6.909271898
 30
0.0
  0
SPLINE
  5
30F
100
AcDbEntity
  8
0
100
AcDbSpline
 62
7
  6
CONTINUOUS
 70
0
 71
3
 72
28
 73
24
 74
0
 42
0.0000001
 43
0.0000001
 44
0.0000000001
 40
0.0
 40
0.0
 40
0.0
 40
0.0
 40
0.0756263001
 40
0.1500658353
 40
0.2231837664
 40
0.2948538379
 40
0.3649179606
 40
0.4331932443
 40
0.4994696938
 40
0.5635078348
 40
0.6250534601
 40
0.6838656577
 40
0.7397847331
 40
0.7666888114
 40
0.7929291173
 40
0.8185912442
 40
0.8438122448
 40
0.8687856029
 40
0.8937670894
 40
0.9190615369
 40
0.9449948779
 40
0.9718885799
 40
1.0
 40
1.0
 40
1.0
 40
1.0
 10
11.2648183383
 20
6.5868820766
 30
0.0
 10
11.2619115808
 20
6.5856953978
 30
0.0
 10
11.2561021469
 20
6.5834407781
 30
0.0
 10
11.2473460539
 20
6.5804043913
 30
0.0
 10
11.2386365184
 20
6.5777544799
 30
0.0
 10
11.2300004461
 20
6.5755121544
 30
0.0
 10
11.2214677839
 20
6.5737049778
 30
0.0
 10
11.213074964
 20
6.5723669996
 30
0.0
 10
11.204866586
 20
6.5715408053
 30
0.0
 10
11.19689872
 20
6.5712786736
 30
0.0
 10
11.1892418817
 20
6.571643882
 30
0.0
 10
11.1819883961
 20
6.5727119357
 30
0.0
 10
11.1762998472
 20
6.5742851592
 30
0.0
 10
11.1721074644
 20
6.5760086754
 30
0.0
 10
11.1692012307
 20
6.5775222125
 30
0.0
 10
11.166520859
 20
6.5792847725
 30
0.0
 10
11.1640973021
 20
6.5813074913
 30
0.0
 10
11.1619643423
 20
6.5835979947
 30
0.0
 10
11.160157642
 20
6.5861589442
 30
0.0
 10
11.1587127355
 20
6.5889857328
 30
0.0
 10
11.1576603538
 20
6.5920651272
 30
0.0
 10
11.1570245721
 20
6.595374765
 30
0.0
 10
11.1568904109
 20
6.5976614395
 30
0.0
 10
11.1568904109
 20
6.5988284967
 30
0.0
  0
SPLINE
  5
310
100
AcDbEntity
  8
0
100
AcDbSpline
 62
7
  6
CONTINUOUS
 70
0
 71
3
 72
26
 73
22
 74
0
 42
0.0000001
 43
0.0000001
 44
0.0000000001
 40
0.0
 40
0.0
 40
0.0
 40
0.0
 40
0.0491167519
 40
0.0755337867
 40
0.1031094687
 40
0.1317411195
 40
0.1613047181
 40
0.1916690139
 40
0.2227025744
 40
0.2862959405
 40
0.3512881967
 40
0.4170675502
 40
0.4831935496
 40
0.5493529758
 40
0.6153209903
 40
0.6809323229
 40
0.7460638669
 40
0.810616132
 40
0.8745055622
 40
0.9376632433
 40
1.0
 40
1.0
 40
1.0
 40
1.0
 10
11.3727462656
 20
6.6869512803
 30
0.0
 10
11.3727462656
 20
6.6844416946
 30
0.0
 10
11.3722593814
 20
6.6805738385
 30
0.0
 10
11.3708806863
 20
6.6754866636
 30
0.0
 10
11.3694376065
 20
6.6715136405
 30
0.0
 10
11.3676400481
 20
6.6675133297
 30
0.0
 10
11.3655199826
 20
6.6635125886
 30
0.0
 10
11.3631100862
 20
6.6595358996
 30
0.0
 10
11.3595235143
 20
6.6542490419
 30
0.0
 10
11.3544838277
 20
6.6478235013
 30
0.0
 10
11.3477848086
 20
6.6404825439
 30
0.0
 10
11.3405450807
 20
6.6334886993
 30
0.0
 10
11.3328915861
 20
6.6268610355
 30
0.0
 10
11.3249209843
 20
6.6206040417
 30
0.0
 10
11.3167076763
 20
6.6147152801
 30
0.0
 10
11.3083094547
 20
6.6091890875
 30
0.0
 10
11.2997718917
 20
6.6040195363
 30
0.0
 10
11.291131637
 20
6.5992020719
 30
0.0
 10
11.2824191486
 20
6.5947335346
 30
0.0
 10
11.2736612358
 20
6.5906144253
 30
0.0
 10
11.267767124
 20
6.5880859133
 30
0.0
 10
11.2648183383
 20
6.5868820766
 30
0.0
  0
SPLINE
  5
311
100
AcDbEntity
  8
0
100
AcDbSpline
 62
7
  6
CONTINUOUS
 70
0
 71
3
 72
15
 73
11
 74
0
 42
0.0000001
 43
0.0000001
 44
0.0000000001
 40
0.0
 40
0.0
 40
0.0
 40
0.0
 40
0.1291673515
 40
0.2567438538
 40
0.3829094967
 40
0.5078619879
 40
0.6318151613
 40
0.7549960688
 40
0.8776425619
 40
1.0
 40
1.0
 40
1.0
 40
1.0
 10
11.4762810386
 20
6.6887449855
 30
0.0
 10
11.4787686027
 20
6.6841995756
 30
0.0
 10
11.4834600698
 20
6.675023316
 30
0.0
 10
11.489649326
 20
6.6609556906
 30
0.0
 10
11.4949322825
 20
6.6467025747
 30
0.0
 10
11.4992973603
 20
6.6322937649
 30
0.0
 10
11.5027356808
 20
6.6177589316
 30
0.0
 10
11.5052396388
 20
6.6031278322
 30
0.0
 10
11.5068041136
 20
6.5884315585
 30
0.0
 10
11.5072187234
 20
6.5786039825
 30
0.0
 10
11.5072684798
 20
6.5736958401
 30
0.0
  0
SPLINE
  5
312
100
AcDbEntity
  8
0
100
AcDbSpline
 62
9
  6
CONTINUOUS
 70
0
 71
3
 72
30
 73
26
 74
0
 42
0.0000001
 43
0.0000001
 44
0.0000000001
 40
0.0
 40
0.0
 40
0.0
 40
0.0
 40
0.0251794503
 40
0.0504395275
 40
0.0758590621
 40
0.1015133823
 40
0.1274728063
 40
0.153801371
 40
0.1805558289
 40
0.2077849113
 40
0.2355289143
 40
0.2638195154
 40
0.3220982353
 40
0.3521334656
 40
0.382758114
 40
0.4457139051
 40
0.4780286776
 40
0.5108598421
 40
0.5779190907
 40
0.646595751
 40
0.7165166129
 40
0.7872656887
 40
0.8583994983
 40
0.9294617436
 40
1.0
 40
1.0
 40
1.0
 40
1.0
 10
10.5948183709
 20
6.909271898
 30
0.0
 10
10.5948183839
 20
6.9032196713
 30
0.0
 10
10.5953057282
 20
6.8910902388
 30
0.0
 10
10.5974952926
 20
6.8729698892
 30
0.0
 10
10.601136275
 20
6.8549672587
 30
0.0
 10
10.6062162151
 20
6.8371426268
 30
0.0
 10
10.6127179083
 20
6.8195535014
 30
0.0
 10
10.6206195229
 20
6.8022569271
 30
0.0
 10
10.6298948278
 20
6.7853085829
 30
0.0
 10
10.6405128938
 20
6.7687630356
 30
0.0
 10
10.6524395444
 20
6.7526724895
 30
0.0
 10
10.6702049183
 20
6.7316916053
 30
0.0
 10
10.6903059489
 20
6.7120451112
 30
0.0
 10
10.7123865502
 20
6.6938693983
 30
0.0
 10
10.7363442483
 20
6.6762723514
 30
0.0
 10
10.7621459695
 20
6.6603414867
 30
0.0
 10
10.7894696416
 20
6.6461276117
 30
0.0
 10
10.8183399494
 20
6.6328232156
 30
0.0
 10
10.8562908767
 20
6.6184609764
 30
0.0
 10
10.9039369216
 20
6.6050722403
 30
0.0
 10
10.9534106667
 20
6.5955726442
 30
0.0
 10
11.0040793875
 20
6.5900827745
 30
0.0
 10
11.0552997891
 20
6.5886715398
 30
0.0
 10
11.1064149936
 20
6.5913561535
 30
0.0
 10
11.140193582
 20
6.5958818949
 30
0.0
 10
11.1568904109
 20
6.5988284967
 30
0.0
  0
SPLINE
  5
313
100
AcDbEntity
  8
0
100
AcDbSpline
 62
9
  6
CONTINUOUS
 70
0
 71
3
 72
14
 73
10
 74
0
 42
0.0000001
 43
0.0000001
 44
0.0000000001
 40
0.0
 40
0.0
 40
0.0
 40
0.0
 40
0.2339261535
 40
0.3561041491
 40
0.4811846901
 40
0.6086855574
 40
0.7380588065
 40
0.8687054409
 40
1.0
 40
1.0
 40
1.0
 40
1.0
 10
10.4342334439
 20
8.3314141515
 30
0.0
 10
10.4420017808
 20
8.342188887
 30
0.0
 10
10.4522593933
 20
8.3597753424
 30
0.0
 10
10.463037447
 20
8.3849000127
 30
0.0
 10
10.4698642449
 20
8.4050810106
 30
0.0
 10
10.4752423348
 20
8.4261121511
 30
0.0
 10
10.4791218933
 20
8.4477922027
 30
0.0
 10
10.4814648012
 20
8.4699063234
 30
0.0
 10
10.4819867016
 20
8.4847856164
 30
0.0
 10
10.4819867016
 20
8.4922409815
 30
0.0
  0
SPLINE
  5
314
100
AcDbEntity
  8
0
100
AcDbSpline
 62
9
  6
CONTINUOUS
 70
0
 71
3
 72
21
 73
17
 74
0
 42
0.0000001
 43
0.0000001
 44
0.0000000001
 40
0.0
 40
0.0
 40
0.0
 40
0.0
 40
0.1169630786
 40
0.1780520597
 40
0.2405923471
 40
0.304342796
 40
0.3690292872
 40
0.4343532613
 40
0.5
 40
0.5656467387
 40
0.6309707128
 40
0.695657204
 40
0.7594076529
 40
0.8219479403
 40
0.8830369214
 40
1.0
 40
1.0
 40
1.0
 40
1.0
 10
11.6308167069
 20
8.3724510408
 30
0.0
 10
11.6250305905
 20
8.3804765002
 30
0.0
 10
11.6173902946
 20
8.3935755296
 30
0.0
 10
11.6093623708
 20
8.4122893388
 30
0.0
 10
11.6042775295
 20
8.4273209094
 30
0.0
 10
11.6002717438
 20
8.4429857449
 30
0.0
 10
11.5973820614
 20
8.4591337337
 30
0.0
 10
11.5956370062
 20
8.4756058483
 30
0.0
 10
11.5950534088
 20
8.4922409815
 30
0.0
 10
11.5956370062
 20
8.5088761147
 30
0.0
 10
11.5973820614
 20
8.5253482293
 30
0.0
 10
11.6002717438
 20
8.541496218
 30
0.0
 10
11.6042775295
 20
8.5571610536
 30
0.0
 10
11.6093623708
 20
8.5721926241
 30
0.0
 10
11.6173902946
 20
8.5909064334
 30
0.0
 10
11.6250305905
 20
8.6040054628
 30
0.0
 10
11.6308167069
 20
8.6120309221
 30
0.0
  0
SPLINE
  5
315
100
AcDbEntity
  8
0
100
AcDbSpline
 62
7
  6
CONTINUOUS
 70
0
 71
3
 72
13
 73
9
 74
0
 42
0.0000001
 43
0.0000001
 44
0.0000000001
 40
0.0
 40
0.0
 40
0.0
 40
0.0
 40
0.122204145
 40
0.2448619469
 40
0.3681593596
 40
0.4922754281
 40
0.7435459586
 40
1.0
 40
1.0
 40
1.0
 40
1.0
 10
10.5854952905
 20
6.5890528291
 30
0.0
 10
10.5858290773
 20
6.593410674
 30
0.0
 10
10.5867448059
 20
6.602125622
 30
0.0
 10
10.5888537161
 20
6.615129324
 30
0.0
 10
10.5916967708
 20
6.6280631276
 30
0.0
 10
10.5964781041
 20
6.6452535784
 30
0.0
 10
10.6043029609
 20
6.6665013064
 30
0.0
 10
10.6123380691
 20
6.6828256905
 30
0.0
 10
10.6167892295
 20
6.6908452515
 30
0.0
  0
SPLINE
  5
316
100
AcDbEntity
  8
0
100
AcDbSpline
 62
7
  6
CONTINUOUS
 70
0
 71
3
 72
9
 73
5
 74
0
 42
0.0000001
 43
0.0000001
 44
0.0000000001
 40
0.0
 40
0.0
 40
0.0
 40
0.0
 40
0.493979778
 40
1.0
 40
1.0
 40
1.0
 40
1.0
 10
10.6167892295
 20
6.6908452515
 30
0.0
 10
10.6209695414
 20
6.6983768302
 30
0.0
 10
10.6301426427
 20
6.7132382025
 30
0.0
 10
10.6405774908
 20
6.7272385092
 30
0.0
 10
10.6461365235
 20
6.7340911047
 30
0.0
  0
SPLINE
  5
317
100
AcDbEntity
  8
0
100
AcDbSpline
 62
9
  6
CONTINUOUS
 70
0
 71
3
 72
15
 73
11
 74
0
 42
0.0000001
 43
0.0000001
 44
0.0000000001
 40
0.0
 40
0.0
 40
0.0
 40
0.0
 40
0.1136600905
 40
0.2299099822
 40
0.3492210711
 40
0.471947877
 40
0.598325315
 40
0.7284714758
 40
0.8623942003
 40
1.0
 40
1.0
 40
1.0
 40
1.0
 10
10.6410442236
 20
8.3106762595
 30
0.0
 10
10.6374393347
 20
8.3118946659
 30
0.0
 10
10.6302813114
 20
8.3147744277
 30
0.0
 10
10.6199485661
 20
8.3202883567
 30
0.0
 10
10.6099820899
 20
8.3269993163
 30
0.0
 10
10.6004521365
 20
8.3348580731
 30
0.0
 10
10.5914232053
 20
8.3438086963
 30
0.0
 10
10.5829567159
 20
8.3537882735
 30
0.0
 10
10.575110601
 20
8.3647262377
 30
0.0
 10
10.5703897809
 20
8.3725065084
 30
0.0
 10
10.5681432786
 20
8.3765285458
 30
0.0
  0
SPLINE
  5
318
100
AcDbEntity
  8
0
100
AcDbSpline
 62
9
  6
CONTINUOUS
 70
0
 71
3
 72
15
 73
11
 74
0
 42
0.0000001
 43
0.0000001
 44
0.0000000001
 40
0.0
 40
0.0
 40
0.0
 40
0.0
 40
0.1376035903
 40
0.271524552
 40
0.401669554
 40
0.5280465495
 40
0.6507736865
 40
0.7700858747
 40
0.8863375609
 40
1.0
 40
1.0
 40
1.0
 40
1.0
 10
10.5681540484
 20
8.6079726964
 30
0.0
 10
10.5704004842
 20
8.6119935269
 30
0.0
 10
10.5751210605
 20
8.6197714485
 30
0.0
 10
10.5829664613
 20
8.6307060699
 30
0.0
 10
10.5914319251
 20
8.6406825935
 30
0.0
 10
10.6004595485
 20
8.6496305014
 30
0.0
 10
10.6099879444
 20
8.6574869248
 30
0.0
 10
10.6199526485
 20
8.6641959715
 30
0.0
 10
10.6302834466
 20
8.669708442
 30
0.0
 10
10.6374400522
 20
8.6725875395
 30
0.0
 10
10.6410442236
 20
8.6738057034
 30
0.0
  0
SPLINE
  5
319
100
AcDbEntity
  8
0
100
AcDbSpline
 62
7
  6
CONTINUOUS
 70
0
 71
3
 72
23
 73
19
 74
0
 42
0.0000001
 43
0.0000001
 44
0.0000000001
 40
0.0
 40
0.0
 40
0.0
 40
0.0
 40
0.0513244634
 40
0.1034996518
 40
0.156876923
 40
0.2117455577
 40
0.2683237372
 40
0.3267554909
 40
0.3566996178
 40
0.387127956
 40
0.4494116009
 40
0.51356252
 40
0.5794654379
 40
0.6469569096
 40
0.7158329471
 40
0.7858559299
 40
0.8567623355
 40
1.0
 40
1.0
 40
1.0
 40
1.0
 10
10.4116406126
 20
8.6804231255
 30
0.0
 10
10.4157440609
 20
8.6798521546
 30
0.0
 10
10.423953215
 20
8.678160752
 30
0.0
 10
10.4359652027
 20
8.6740560177
 30
0.0
 10
10.4476513805
 20
8.6684069523
 30
0.0
 10
10.458910119
 20
8.6612658572
 30
0.0
 10
10.4696477598
 20
8.6526970448
 30
0.0
 10
10.4780204863
 20
8.6444944628
 30
0.0
 10
10.4843808796
 20
8.6373133644
 30
0.0
 10
10.4905990241
 20
8.6296045507
 30
0.0
 10
10.497876427
 20
8.6192213447
 30
0.0
 10
10.5056988755
 20
8.6057909466
 30
0.0
 10
10.5126152475
 20
8.5914051004
 30
0.0
 10
10.5185677684
 20
8.5761854025
 30
0.0
 10
10.5235071216
 20
8.5602600583
 30
0.0
 10
10.527392394
 20
8.5437613219
 30
0.0
 10
10.5311352053
 20
8.5211185302
 30
0.0
 10
10.5322553169
 20
8.5038033234
 30
0.0
 10
10.5322553169
 20
8.4922409815
 30
0.0
  0
SPLINE
  5
31A
100
AcDbEntity
  8
0
100
AcDbSpline
 62
7
  6
CONTINUOUS
 70
0
 71
3
 72
23
 73
19
 74
0
 42
0.0000001
 43
0.0000001
 44
0.0000000001
 40
0.0
 40
0.0
 40
0.0
 40
0.0
 40
0.0513242366
 40
0.1034977982
 40
0.156872514
 40
0.2117381275
 40
0.2683132381
 40
0.3267422251
 40
0.3566851774
 40
0.3871125117
 40
0.4493947255
 40
0.5135450875
 40
0.5794483638
 40
0.6469410893
 40
0.7158192039
 40
0.7858449722
 40
0.8567547234
 40
1.0
 40
1.0
 40
1.0
 40
1.0
 10
10.4115818681
 20
8.304050682
 30
0.0
 10
10.4156866539
 20
8.304619252
 30
0.0
 10
10.4238986941
 20
8.3063061614
 30
0.0
 10
10.4359155128
 20
8.3104053384
 30
0.0
 10
10.4476067458
 20
8.3160499663
 30
0.0
 10
10.4588706515
 20
8.3231877466
 30
0.0
 10
10.4696134689
 20
8.3317543483
 30
0.0
 10
10.4779903818
 20
8.33995597
 30
0.0
 10
10.4843540325
 20
8.3471367858
 30
0.0
 10
10.4905754537
 20
8.3548456965
 30
0.0
 10
10.4978567856
 20
8.3652296579
 30
0.0
 10
10.5056835384
 20
8.3786618101
 30
0.0
 10
10.5126037995
 20
8.3930502252
 30
0.0
 10
10.5185597279
 20
8.4082732124
 30
0.0
 10
10.5235019501
 20
8.4242024622
 30
0.0
 10
10.5273895053
 20
8.4407056094
 30
0.0
 10
10.5311345412
 20
8.4633548535
 30
0.0
 10
10.5322553169
 20
8.4806751981
 30
0.0
 10
10.5322553169
 20
8.4922409815
 30
0.0
  0
SPLINE
  5
31B
100
AcDbEntity
  8
0
100
AcDbSpline
 62
9
  6
CONTINUOUS
 70
0
 71
3
 72
22
 73
18
 74
0
 42
0.0000001
 43
0.0000001
 44
0.0000000001
 40
0.0
 40
0.0
 40
0.0
 40
0.0
 40
0.0514715343
 40
0.1040021434
 40
0.1578645896
 40
0.213273114
 40
0.2703796074
 40
0.3292735281
 40
0.3899845373
 40
0.4524868676
 40
0.516704658
 40
0.5825177584
 40
0.6497676926
 40
0.7182636
 40
0.7877877242
 40
0.8581015599
 40
1.0
 40
1.0
 40
1.0
 40
1.0
 10
10.4206853041
 20
8.6704049588
 30
0.0
 10
10.4243798368
 20
8.6694868608
 30
0.0
 10
10.4317393723
 20
8.667177457
 30
0.0
 10
10.442421738
 20
8.6624060082
 30
0.0
 10
10.4527628117
 20
8.6563367088
 30
0.0
 10
10.4626823874
 20
8.6490190596
 30
0.0
 10
10.4721069328
 20
8.6405106907
 30
0.0
 10
10.4809662279
 20
8.6308777349
 30
0.0
 10
10.4891945956
 20
8.6201941724
 30
0.0
 10
10.4967309485
 20
8.6085414898
 30
0.0
 10
10.5035192525
 20
8.5960081886
 30
0.0
 10
10.5095089069
 20
8.5826892825
 30
0.0
 10
10.5146551766
 20
8.5686855175
 30
0.0
 10
10.5189194776
 20
8.5541032412
 30
0.0
 10
10.5222699963
 20
8.5390514509
 30
0.0
 10
10.5254939746
 20
8.5184552021
 30
0.0
 10
10.5264590485
 20
8.502735966
 30
0.0
 10
10.5264590485
 20
8.4922409815
 30
0.0
  0
SPLINE
  5
31C
100
AcDbEntity
  8
0
100
AcDbSpline
 62
9
  6
CONTINUOUS
 70
0
 71
3
 72
22
 73
18
 74
0
 42
0.0000001
 43
0.0000001
 44
0.0000000001
 40
0.0
 40
0.0
 40
0.0
 40
0.0
 40
0.051472137
 40
0.1040037745
 40
0.157867492
 40
0.213277361
 40
0.2703851255
 40
0.3292801253
 40
0.3899919334
 40
0.4524947238
 40
0.5167126045
 40
0.5825254189
 40
0.649774706
 40
0.7182696385
 40
0.787792508
 40
0.8581048691
 40
1.0
 40
1.0
 40
1.0
 40
1.0
 10
10.4207083983
 20
8.3140827462
 30
0.0
 10
10.4244023475
 20
8.3150016863
 30
0.0
 10
10.4317606468
 20
8.3173126452
 30
0.0
 10
10.4424410268
 20
8.3220859686
 30
0.0
 10
10.4527800596
 20
8.3281567205
 30
0.0
 10
10.4626975778
 20
8.3354754037
 30
0.0
 10
10.4721200842
 20
8.3439843974
 30
0.0
 10
10.4809773923
 20
8.3536175829
 30
0.0
 10
10.4892038564
 20
8.3643009988
 30
0.0
 10
10.496738419
 20
8.3759531816
 30
0.0
 10
10.5035250732
 20
8.3884856571
 30
0.0
 10
10.5095132438
 20
8.4018034427
 30
0.0
 10
10.514658218
 20
8.4158058272
 30
0.0
 10
10.5189214313
 20
8.4303865012
 30
0.0
 10
10.5222710865
 20
8.4454365078
 30
0.0
 10
10.5254942254
 20
8.4660301735
 30
0.0
 10
10.5264590485
 20
8.4817473655
 30
0.0
 10
10.5264590485
 20
8.4922409815
 30
0.0
  0
SPLINE
  5
31D
100
AcDbEntity
  8
0
100
AcDbSpline
 62
7
  6
CONTINUOUS
 70
0
 71
3
 72
15
 73
11
 74
0
 42
0.0000001
 43
0.0000001
 44
0.0000000001
 40
0.0
 40
0.0
 40
0.0
 40
0.0
 40
0.1209748216
 40
0.2423600515
 40
0.3645564137
 40
0.4879458354
 40
0.6128833528
 40
0.739690312
 40
0.8686491713
 40
1.0
 40
1.0
 40
1.0
 40
1.0
 10
10.5848183383
 20
6.6067205995
 30
0.0
 10
10.5848183383
 20
6.6130890414
 30
0.0
 10
10.5853464469
 20
6.6258537721
 30
0.0
 10
10.587718644
 20
6.6449184875
 30
0.0
 10
10.5916626577
 20
6.6638518032
 30
0.0
 10
10.5971642246
 20
6.6825865099
 30
0.0
 10
10.6042035722
 20
6.7010584438
 30
0.0
 10
10.6127557863
 20
6.7192044059
 30
0.0
 10
10.6227898881
 20
6.7369614954
 30
0.0
 10
10.6303720478
 20
6.7483919553
 30
0.0
 10
10.6343879787
 20
6.7540208862
 30
0.0
  0
SPLINE
  5
31E
100
AcDbEntity
  8
0
100
AcDbSpline
 62
7
  6
CONTINUOUS
 70
0
 71
3
 72
21
 73
17
 74
0
 42
0.0000001
 43
0.0000001
 44
0.0000000001
 40
0.0
 40
0.0
 40
0.0
 40
0.0
 40
0.0579602375
 40
0.1160478115
 40
0.1743880859
 40
0.233102613
 40
0.292307413
 40
0.3521113266
 40
0.412614798
 40
0.4739088442
 40
0.5360741009
 40
0.5991803316
 40
0.6632862344
 40
0.7284394485
 40
0.8619769084
 40
1.0
 40
1.0
 40
1.0
 40
1.0
 10
11.6223183039
 20
6.6208627351
 30
0.0
 10
11.6223182903
 20
6.6144981967
 30
0.0
 10
11.62189467
 20
6.6017510965
 30
0.0
 10
11.6199901452
 20
6.5826833659
 30
0.0
 10
11.6168208951
 20
6.5636999843
 30
0.0
 10
11.6123942295
 20
6.5448443274
 30
0.0
 10
11.6067200973
 20
6.5261580681
 30
0.0
 10
11.5998115827
 20
6.5076827019
 30
0.0
 10
11.5916843993
 20
6.489459053
 30
0.0
 10
11.5823567507
 20
6.471527431
 30
0.0
 10
11.57184974
 20
6.4539272373
 30
0.0
 10
11.5601870218
 20
6.4366972149
 30
0.0
 10
11.5473941589
 20
6.4198748941
 30
0.0
 10
11.5287180626
 20
6.3978606226
 30
0.0
 10
11.5026263488
 20
6.3715706592
 30
0.0
 10
11.4796385243
 20
6.3524994857
 30
0.0
 10
11.4675552138
 20
6.3433506016
 30
0.0
  0
SPLINE
  5
31F
100
AcDbEntity
  8
0
100
AcDbSpline
 62
9
  6
CONTINUOUS
 70
0
 71
3
 72
15
 73
11
 74
0
 42
0.0000001
 43
0.0000001
 44
0.0000000001
 40
0.0
 40
0.0
 40
0.0
 40
0.0
 40
0.1136456771
 40
0.2298840748
 40
0.3491877909
 40
0.4719120126
 40
0.5982918758
 40
0.7284452669
 40
0.8623794411
 40
1.0
 40
1.0
 40
1.0
 40
1.0
 10
11.453576433
 20
8.6738111321
 30
0.0
 10
11.4571861814
 20
8.6725917903
 30
0.0
 10
11.4643538218
 20
8.6697088634
 30
0.0
 10
11.4746999708
 20
8.664187107
 30
0.0
 10
11.4846787865
 20
8.6574652212
 30
0.0
 10
11.4942197578
 20
8.6495926766
 30
0.0
 10
11.5032581428
 20
8.640625642
 30
0.0
 10
11.5117323077
 20
8.6306273151
 30
0.0
 10
11.5195840958
 20
8.6196685638
 30
0.0
 10
11.5243072424
 20
8.6118735876
 30
0.0
 10
11.5265545042
 20
8.6078439392
 30
0.0
  0
SPLINE
  5
320
100
AcDbEntity
  8
0
100
AcDbSpline
 62
9
  6
CONTINUOUS
 70
0
 71
3
 72
15
 73
11
 74
0
 42
0.0000001
 43
0.0000001
 44
0.0000000001
 40
0.0
 40
0.0
 40
0.0
 40
0.0
 40
0.137612363
 40
0.2715399946
 40
0.4016890846
 40
0.5280673049
 40
0.6507927541
 40
0.7701005493
 40
0.8863456068
 40
1.0
 40
1.0
 40
1.0
 40
1.0
 10
11.5265145597
 20
8.3765664338
 30
0.0
 10
11.5242675411
 20
8.3725412669
 30
0.0
 10
11.5195452941
 20
8.3647550135
 30
0.0
 10
11.5116961494
 20
8.3538086762
 30
0.0
 10
11.5032257856
 20
8.3438216892
 30
0.0
 10
11.4941922509
 20
8.3348647382
 30
0.0
 10
11.4846570582
 20
8.3270008589
 30
0.0
 10
11.4746848188
 20
8.3202860761
 30
0.0
 10
11.4643458966
 20
8.3147697351
 30
0.0
 10
11.4571835184
 20
8.3118892731
 30
0.0
 10
11.4535764331
 20
8.3106708308
 30
0.0
  0
SPLINE
  5
321
100
AcDbEntity
  8
0
100
AcDbSpline
 62
7
  6
CONTINUOUS
 70
0
 71
3
 72
43
 73
39
 74
0
 42
0.0000001
 43
0.0000001
 44
0.0000000001
 40
0.0
 40
0.0
 40
0.0
 40
0.0
 40
0.0127950721
 40
0.0256721799
 40
0.038656
 40
0.0517691542
 40
0.0784544032
 40
0.1058851981
 40
0.134170676
 40
0.1633829379
 40
0.1935575605
 40
0.2246958615
 40
0.2567678816
 40
0.2897159747
 40
0.3234584427
 40
0.3578932661
 40
0.3929016674
 40
0.4283516773
 40
0.4641014687
 40
0.5000027564
 40
0.5359040039
 40
0.5716536754
 40
0.6071034883
 40
0.6421116198
 40
0.6765461067
 40
0.7102881796
 40
0.7432358285
 40
0.7753073673
 40
0.8064451634
 40
0.8366192732
 40
0.8658310319
 40
0.8941160349
 40
0.9215464031
 40
0.9482312927
 40
0.9613442985
 40
0.9743279934
 40
0.9872050008
 40
1.0
 40
1.0
 40
1.0
 40
1.0
 10
11.6830193699
 20
8.3040555776
 30
0.0
 10
11.680972887
 20
8.3043398359
 30
0.0
 10
11.6768840489
 20
8.305043175
 30
0.0
 10
11.6708085097
 20
8.3064926287
 30
0.0
 10
11.6647866074
 20
8.3083361454
 30
0.0
 10
11.6568020178
 20
8.3113308194
 30
0.0
 10
11.6470019466
 20
8.316065538
 30
0.0
 10
11.6357417628
 20
8.3232051989
 30
0.0
 10
11.625001425
 20
8.3317737458
 30
0.0
 10
11.6148711113
 20
8.3416958455
 30
0.0
 10
11.6054338136
 20
8.352886246
 30
0.0
 10
11.5967672445
 20
8.3652496634
 30
0.0
 10
11.58894275
 20
8.3786815498
 30
0.0
 10
11.5820249443
 20
8.3930686944
 30
0.0
 10
11.5760711111
 20
8.4082900426
 30
0.0
 10
11.5711306892
 20
8.4242175908
 30
0.0
 10
11.5672448008
 20
8.4407174097
 30
0.0
 10
11.5644458447
 20
8.4576507259
 30
0.0
 10
11.5627571837
 20
8.4748750928
 30
0.0
 10
11.5621929223
 20
8.4922455861
 30
0.0
 10
11.562757781
 20
8.5096160406
 30
0.0
 10
11.5644470344
 20
8.5268402916
 30
0.0
 10
11.5672465729
 20
8.5437734157
 30
0.0
 10
11.571133029
 20
8.5602729679
 30
0.0
 10
11.5760739991
 20
8.5762001772
 30
0.0
 10
11.5820283564
 20
8.5914211171
 30
0.0
 10
11.5889466579
 20
8.6058077873
 30
0.0
 10
11.596771616
 20
8.6192391373
 30
0.0
 10
11.6054386125
 20
8.6316019606
 30
0.0
 10
11.6148762983
 20
8.6427917139
 30
0.0
 10
11.6250069573
 20
8.6527131186
 30
0.0
 10
11.6357475949
 20
8.6612809281
 30
0.0
 10
11.64700803
 20
8.6684198147
 30
0.0
 10
11.6568082624
 20
8.6731538552
 30
0.0
 10
11.6647929502
 20
8.6761479765
 30
0.0
 10
11.6708149166
 20
8.6779910781
 30
0.0
 10
11.6768905063
 20
8.6794401126
 30
0.0
 10
11.6809793648
 20
8.6801431691
 30
0.0
 10
11.6830258553
 20
8.6804272859
 30
0.0
  0
SPLINE
  5
322
100
AcDbEntity
  8
0
100
AcDbSpline
 62
9
  6
CONTINUOUS
 70
0
 71
3
 72
39
 73
35
 74
0
 42
0.0000001
 43
0.0000001
 44
0.0000000001
 40
0.0
 40
0.0
 40
0.0
 40
0.0
 40
0.0257338566
 40
0.0519968456
 40
0.0789255848
 40
0.1066272929
 40
0.1351780547
 40
0.1646226905
 40
0.194976085
 40
0.2262253872
 40
0.2583326868
 40
0.2912379135
 40
0.3248618049
 40
0.3591088528
 40
0.3938701794
 40
0.4290263301
 40
0.4644499904
 40
0.5000086421
 40
0.5355671774
 40
0.5709904906
 40
0.6061460703
 40
0.6409066132
 40
0.6751526804
 40
0.7087754148
 40
0.7416793335
 40
0.7737852045
 40
0.8050329932
 40
0.83538483
 40
0.864827909
 40
0.8933771649
 40
0.9210774707
 40
0.9480049655
 40
0.9742669204
 40
1.0
 40
1.0
 40
1.0
 40
1.0
 10
11.6739878911
 20
8.3140679327
 30
0.0
 10
11.6702922393
 20
8.3149847952
 30
0.0
 10
11.6629303286
 20
8.3172918232
 30
0.0
 10
11.6522442823
 20
8.3220607214
 30
0.0
 10
11.6418994819
 20
8.3281282138
 30
0.0
 10
11.631976216
 20
8.3354448544
 30
0.0
 10
11.6225480734
 20
8.343952963
 30
0.0
 10
11.6136853388
 20
8.3535863835
 30
0.0
 10
11.6054537498
 20
8.3642710904
 30
0.0
 10
11.5979144499
 20
8.3759255476
 30
0.0
 10
11.5911235252
 20
8.3884611904
 30
0.0
 10
11.5851316182
 20
8.4017829645
 30
0.0
 10
11.579983521
 20
8.4157899549
 30
0.0
 10
11.5757178003
 20
8.4303760889
 30
0.0
 10
11.5723664724
 20
8.4454309068
 30
0.0
 10
11.5699547278
 20
8.4608403816
 30
0.0
 10
11.5685007143
 20
8.4764877786
 30
0.0
 10
11.568015381
 20
8.4922545424
 30
0.0
 10
11.5685023837
 20
8.5080212035
 30
0.0
 10
11.569958054
 20
8.523668293
 30
0.0
 10
11.5723714305
 20
8.539077258
 30
0.0
 10
11.5757243529
 20
8.5541313676
 30
0.0
 10
11.579991619
 20
8.5687166001
 30
0.0
 10
11.5851412009
 20
8.5827225029
 30
0.0
 10
11.5911345207
 20
8.5960430113
 30
0.0
 10
11.5979267763
 20
8.6085772199
 30
0.0
 10
11.6054673151
 20
8.6202300851
 30
0.0
 10
11.6137000423
 20
8.6309130537
 30
0.0
 10
11.6225638059
 20
8.6405446021
 30
0.0
 10
11.6319928606
 20
8.6490507183
 30
0.0
 10
11.6419169146
 20
8.6563652598
 30
0.0
 10
11.6522623723
 20
8.6624305612
 30
0.0
 10
11.6629489383
 20
8.6671971924
 30
0.0
 10
11.6703110638
 20
8.6695026441
 30
0.0
 10
11.6740067929
 20
8.6704187175
 30
0.0
  0
SPLINE
  5
323
100
AcDbEntity
  8
0
100
AcDbSpline
 62
7
  6
CONTINUOUS
 70
0
 71
3
 72
23
 73
19
 74
0
 42
0.0000001
 43
0.0000001
 44
0.0000000001
 40
0.0
 40
0.0
 40
0.0
 40
0.0
 40
0.061272293
 40
0.1209264644
 40
0.1793258466
 40
0.2368834504
 40
0.2940411534
 40
0.3512456807
 40
0.4089282942
 40
0.4674881849
 40
0.5272804633
 40
0.5886104987
 40
0.6517338541
 40
0.7168577138
 40
0.7841439276
 40
0.8537136418
 40
0.9256500235
 40
1.0
 40
1.0
 40
1.0
 40
1.0
 10
10.6410262208
 20
8.2879915196
 30
0.0
 10
10.6384349397
 20
8.2883226947
 30
0.0
 10
10.6333461547
 20
8.2892023873
 30
0.0
 10
10.625957412
 20
8.2912110323
 30
0.0
 10
10.6189471605
 20
8.2938756663
 30
0.0
 10
10.6123327149
 20
8.2971782478
 30
0.0
 10
10.606124321
 20
8.3010973736
 30
0.0
 10
10.6003265415
 20
8.3056093708
 30
0.0
 10
10.5949382457
 20
8.3106894109
 30
0.0
 10
10.5899534473
 20
8.3163127422
 30
0.0
 10
10.585362358
 20
8.3224556417
 30
0.0
 10
10.5811523185
 20
8.3290958679
 30
0.0
 10
10.5773086354
 20
8.3362128633
 30
0.0
 10
10.5738154363
 20
8.3437877821
 30
0.0
 10
10.5706561557
 20
8.3518031872
 30
0.0
 10
10.5678139378
 20
8.3602427567
 30
0.0
 10
10.5652720305
 20
8.3690906021
 30
0.0
 10
10.5637910263
 20
8.3751509424
 30
0.0
 10
10.5630925199
 20
8.3782429536
 30
0.0
  0
SPLINE
  5
324
100
AcDbEntity
  8
0
100
AcDbSpline
 62
7
  6
CONTINUOUS
 70
0
 71
3
 72
23
 73
19
 74
0
 42
0.0000001
 43
0.0000001
 44
0.0000000001
 40
0.0
 40
0.0
 40
0.0
 40
0.0
 40
0.0743480141
 40
0.1462826414
 40
0.2158508489
 40
0.2831358331
 40
0.3482587655
 40
0.4113815143
 40
0.472711273
 40
0.532503607
 40
0.5910638755
 40
0.6487471632
 40
0.7059526201
 40
0.7631114532
 40
0.8206703186
 40
0.8790710179
 40
0.9387264884
 40
1.0
 40
1.0
 40
1.0
 40
1.0
 10
10.5630955482
 20
8.6062524132
 30
0.0
 10
10.563794118
 20
8.6093439754
 30
0.0
 10
10.5652752416
 20
8.6154034339
 30
0.0
 10
10.5678173004
 20
8.6242499758
 30
0.0
 10
10.5706596373
 20
8.6326882945
 30
0.0
 10
10.5738189998
 20
8.6407025052
 30
0.0
 10
10.5773122392
 20
8.6482762895
 30
0.0
 10
10.5811559158
 20
8.6553922135
 30
0.0
 10
10.5853658968
 20
8.6620314351
 30
0.0
 10
10.5899568702
 20
8.668173401
 30
0.0
 10
10.59494149
 20
8.6737958743
 30
0.0
 10
10.6003295395
 20
8.678875138
 30
0.0
 10
10.6061270009
 20
8.6833864468
 30
0.0
 10
10.6123350022
 20
8.6873049794
 30
0.0
 10
10.6189489801
 20
8.6906070701
 30
0.0
 10
10.6259586897
 20
8.6932713225
 30
0.0
 10
10.6333468203
 20
8.6952797008
 30
0.0
 10
10.6384351666
 20
8.6961592972
 30
0.0
 10
10.6410262211
 20
8.6964904434
 30
0.0
  0
SPLINE
  5
325
100
AcDbEntity
  8
0
100
AcDbSpline
 62
7
  6
CONTINUOUS
 70
0
 71
3
 72
23
 73
19
 74
0
 42
0.0000001
 43
0.0000001
 44
0.0000000001
 40
0.0
 40
0.0
 40
0.0
 40
0.0
 40
0.0612660475
 40
0.1209135572
 40
0.1793061866
 40
0.236857324
 40
0.2940092334
 40
0.3512089936
 40
0.408888155
 40
0.4674461082
 40
0.5272380956
 40
0.5885695538
 40
0.6516960197
 40
0.7168246298
 40
0.7841171507
 40
0.8536945943
 40
0.9256399687
 40
1.0
 40
1.0
 40
1.0
 40
1.0
 10
11.4536104622
 20
8.6964904427
 30
0.0
 10
11.4562029059
 20
8.6961591188
 30
0.0
 10
11.4612939397
 20
8.6952789329
 30
0.0
 10
11.4686858205
 20
8.6932689199
 30
0.0
 10
11.4756988496
 20
8.6906023286
 30
0.0
 10
11.482315693
 20
8.6872972298
 30
0.0
 10
11.4885260984
 20
8.6833750615
 30
0.0
 10
11.4943255081
 20
8.678859534
 30
0.0
 10
11.4997150653
 20
8.6737755116
 30
0.0
 10
11.5047007782
 20
8.6681477809
 30
0.0
 10
11.5092924605
 20
8.6620000935
 30
0.0
 10
11.5135027989
 20
8.655354716
 30
0.0
 10
11.5173465142
 20
8.6482322267
 30
0.0
 10
11.5208395062
 20
8.6406514902
 30
0.0
 10
11.5239983658
 20
8.6326299604
 30
0.0
 10
11.5268399731
 20
8.6241839763
 30
0.0
 10
11.5293811025
 20
8.6153294469
 30
0.0
 10
11.530861494
 20
8.6092645856
 30
0.0
 10
11.5315596756
 20
8.6061702719
 30
0.0
  0
SPLINE
  5
326
100
AcDbEntity
  8
0
100
AcDbSpline
 62
7
  6
CONTINUOUS
 70
0
 71
3
 72
23
 73
19
 74
0
 42
0.0000001
 43
0.0000001
 44
0.0000000001
 40
0.0
 40
0.0
 40
0.0
 40
0.0
 40
0.0743634005
 40
0.1463117872
 40
0.2158918186
 40
0.2831864517
 40
0.3483166547
 40
0.4114441633
 40
0.4727760976
 40
0.5325679897
 40
0.5911252946
 40
0.6488032984
 40
0.7060014615
 40
0.7631514294
 40
0.8207003993
 40
0.8790907649
 40
0.9387360422
 40
1.0
 40
1.0
 40
1.0
 40
1.0
 10
11.5315648724
 20
8.3783347276
 30
0.0
 10
11.5308667997
 20
8.3752396423
 30
0.0
 10
11.5293866135
 20
8.3691732656
 30
0.0
 10
11.526845745
 20
8.3603164959
 30
0.0
 10
11.5240043425
 20
8.3518683622
 30
0.0
 10
11.5208456241
 20
8.3438447796
 30
0.0
 10
11.5173527016
 20
8.3362620931
 30
0.0
 10
11.5135089757
 20
8.3291377625
 30
0.0
 10
11.5092985372
 20
8.3224906585
 30
0.0
 10
11.5047066563
 20
8.3163413663
 30
0.0
 10
11.499720637
 20
8.3107121611
 30
0.0
 10
11.494330657
 20
8.3056268042
 30
0.0
 10
11.4885307012
 20
8.3011100935
 30
0.0
 10
11.4823196217
 20
8.2971869056
 30
0.0
 10
11.4757019748
 20
8.2938809633
 30
0.0
 10
11.4686880149
 20
8.2912137161
 30
0.0
 10
11.4612950822
 20
8.2892032448
 30
0.0
 10
11.4562032946
 20
8.2883228937
 30
0.0
 10
11.4536104612
 20
8.2879915201
 30
0.0
  0
ELLIPSE
  5
327
100
AcDbEntity
  8
0
100
AcDbEllipse
 62
7
  6
CONTINUOUS
 10
11.0473183383
 20
6.7410708879
 30
0.0
 11
0.4522967215
 21
0.1611958191
 31
0.0
 40
0.084133201
 41
4.9269927592
 42
5.4850315861
  0
ELLIPSE
  5
328
100
AcDbEntity
  8
0
100
AcDbEllipse
 62
7
  6
CONTINUOUS
 10
11.0473183383
 20
9.5437422111
 30
0.0
 11
-1.0411369379
 21
0.9898582626
 31
0.0
 40
0.5769821704
 41
-0.7198762049
 42
-0.021858488
  0
ELLIPSE
  5
329
100
AcDbEntity
  8
0
100
AcDbEllipse
 62
7
  6
CONTINUOUS
 10
11.0473183383
 20
9.5437422111
 30
0.0
 11
1.0411369379
 21
0.9898582626
 31
0.0
 40
0.5769821704
 41
0.021858488
 42
0.7198762046
  0
ENDSEC
  0
SECTION
  2
OBJECTS
  0
DICTIONARY
  5
C
100
AcDbDictionary
280
0
281
1
  3
ACAD_GROUP
350
D
  3
ACAD_MLINESTYLE
350
17
  3
ACAD_LAYOUT
350
1A
  3
ACAD_PLOTSETTINGS
350
19
  3
ACAD_PLOTSTYLENAME
350
E
  0
DICTIONARY
  5
D
102
{ACAD_REACTORS
330
C
102
}
100
AcDbDictionary
280
0
281
1
  0
ACDBDICTIONARYWDFLT
  5
E
102
{ACAD_REACTORS
330
C
102
}
100
AcDbDictionary
281
1
  3
Normal
350
F
100
AcDbDictionaryWithDefault
340
F
  0
DICTIONARY
  5
17
102
{ACAD_REACTORS
330
C
102
}
100
AcDbDictionary
280
0
281
1
  3
Standard
350
18
  0
DICTIONARY
  5
19
102
{ACAD_REACTORS
330
C
102
}
100
AcDbDictionary
281
1
  0
DICTIONARY
  5
1A
102
{ACAD_REACTORS
330
C
102
}
100
AcDbDictionary
281
1
  3
Model
350
32A
  3
Layout1
350
32B
  0
ACDBPLACEHOLDER
  5
F
102
{ACAD_REACTORS
330
E
102
}
  0
MLINESTYLE
  5
18
102
{ACAD_REACTORS
330
17
102
}
100
AcDbMlineStyle
  2
STANDARD
 70
0
  3

 62
256
 51
90.0
 52
90.0
 71
2
 49
0.5
 62
256
  6
BYLAYER
 49
-0.5
 62
256
  6
BYLAYER
  0
LAYOUT
  5
32A
102
{ACAD_REACTORS
330
1A
102
}
100
AcDbPlotSettings
  1

  2
none_device
  4
ANSI_C_(22.00_x_17.00_Inches)
  6

 40
0.0
 41
0.0
 42
0.0
 43
0.0
 44
558.8
 45
431.8
 46
0.0
 47
0.0
 48
0.0
 49
0.0
140
0.0
141
0.0
142
1.0
143
1.0
 70
1024
 72
0
 73
0
 74
0
  7

 75
0
147
1.0
148
0.0
149
0.0
100
AcDbLayout
  1
Model
 70
0
 71
0
 10
0.0
 20
0.0
 11
22.0
 21
17.0
 12
0.0
 22
0.0
 32
0.0
 14
0.0
 24
0.0
 34
0.0
 15
0.0
 25
0.0
 35
0.0
146
0.0
 13
0.0
 23
0.0
 33
0.0
 16
1.0
 26
0.0
 36
0.0
 17
0.0
 27
1.0
 37
0.0
 76
0
330
205
345
0
346
0
  0
LAYOUT
  5
32B
102
{ACAD_REACTORS
330
1A
102
}
100
AcDbPlotSettings
  1

  2
none_device
  4
ANSI_C_(22.00_x_17.00_Inches)
  6

 40
0.0
 41
0.0
 42
0.0
 43
0.0
 44
558.8
 45
431.8
 46
0.0
 47
0.0
 48
0.0
 49
0.0
140
0.0
141
0.0
142
1.0
143
1.0
 70
0
 72
0
 73
0
 74
0
  7

 75
0
147
1.0
148
0.0
149
0.0
100
AcDbLayout
  1
Layout1
 70
0
 71
1
 10
0.0
 20
0.0
 11
22.0
 21
17.0
 12
0.0
 22
0.0
 32
0.0
 14
0.0
 24
0.0
 34
0.0
 15
0.0
 25
0.0
 35
0.0
146
0.0
 13
0.0
 23
0.0
 33
0.0
 16
1.0
 26
0.0
 36
0.0
 17
0.0
 27
1.0
 37
0.0
 76
0
330
206
345
0
346
0
  0
ENDSEC
  0
EOF
