999
DXF file: 3-1226_front.dxf
999
Pro/ENGINEER 2014000 by Parametric Technology Corporation
  0
SECTION
  2
HEADER
  9
$ACADVER
  1
AC1015
  9
$DWGCODEPAGE
  3
ANSI_1252
  9
$EXTMAX
 10
17.0
 20
11.0
 30
0.0
  9
$EXTMIN
 10
0.0
 20
0.0
 30
0.0
  9
$LIMMIN
 10
0.0
 20
0.0
  9
$LIMMAX
 10
17.0
 20
11.0
  9
$VIEWCTR
 10
8.5
 20
5.5
  9
$VIEWSIZE
 40
11.0
  9
$CLAYER
  8
0
  9
$LTSCALE
 40
0.935
  9
$CELTYPE
  6
BYLAYER
  9
$DIMSCALE
 40
1.0
  9
$DIMASZ
 40
0.1875
  9
$DIMEXO
 40
0.0625
  9
$DIMDLI
 40
0.646
  9
$DIMEXE
 40
0.125
  9
$DIMCEN
 40
0.153
  9
$DIMLFAC
 40
1.0
  9
$DIMBLK
  1
_CLOSED
  9
$DIMTXT
 40
0.15625
  9
$DIMTOL
 70
0
  9
$DIMLIM
 70
0
  9
$DIMTFAC
 40
1.0
  9
$DIMGAP
 40
0.09
  9
$DIMDSEP
 70
46
  9
$PDMODE
 70
3
  9
$PDSIZE
 40
0.3125
  9
$HANDSEED
  5
55D
  9
$TILEMODE
 70
1
  9
$MEASUREMENT
 70
0
  9
$INSUNITS
 70
1
  0
ENDSEC
  0
SECTION
  2
CLASSES
  0
CLASS
  1
ACDBDICTIONARYWDFLT
  2
AcDbDictionaryWithDefault
  3
AutoCAD 2000
 90
0
280
0
281
0
  0
CLASS
  1
ACDBPLACEHOLDER
  2
AcDbPlaceHolder
  3
AutoCAD 2000
 90
0
280
0
281
0
  0
CLASS
  1
LAYOUT
  2
AcDbLayout
  3
AutoCAD 2000
 90
0
280
0
281
0
  0
ENDSEC
  0
SECTION
  2
TABLES
  0
TABLE
  2
VPORT
  5
8
100
AcDbSymbolTable
 70
2
  0
VPORT
  5
1F4
100
AcDbSymbolTableRecord
100
AcDbViewportTableRecord
  2
*ACTIVE
 70
0
 10
0.0
 20
0.0
 11
1.0
 21
1.0
 12
8.5
 22
5.5
 13
0.0
 23
0.0
 14
1.0
 24
1.0
 15
0.0
 25
0.0
 16
0.0
 26
0.0
 36
1.0
 17
0.0
 27
0.0
 37
0.0
 40
11.0
 41
1.5454545455
 42
50.0
 43
0.0
 44
0.0
 50
0.0
 51
0.0
 71
0
 72
100
 73
1
 74
1
 75
0
 76
0
 77
0
 78
0
  0
ENDTAB
  0
TABLE
  2
LTYPE
  5
5
100
AcDbSymbolTable
 70
6
  0
LTYPE
  5
14
100
AcDbSymbolTableRecord
100
AcDbLinetypeTableRecord
  2
BYBLOCK
 70
0
  3

 72
65
 73
0
 40
0.0
  0
LTYPE
  5
15
100
AcDbSymbolTableRecord
100
AcDbLinetypeTableRecord
  2
BYLAYER
 70
0
  3

 72
65
 73
0
 40
0.0
  0
LTYPE
  5
16
100
AcDbSymbolTableRecord
100
AcDbLinetypeTableRecord
  2
CONTINUOUS
 70
64
  3
Solid line
 72
65
 73
0
 40
0.0
  0
LTYPE
  5
1F5
100
AcDbSymbolTableRecord
100
AcDbLinetypeTableRecord
  2
CENTER
 70
64
  3
____ _ ____ _ ____ _ ____ _ ____ _ ____ _ ____
 72
65
 73
4
 40
0.6
 49
0.375
 74
0
 49
-0.075
 74
0
 49
0.075
 74
0
 49
-0.075
 74
0
  0
LTYPE
  5
1F6
100
AcDbSymbolTableRecord
100
AcDbLinetypeTableRecord
  2
HIDDEN
 70
64
  3
- - - - - - - - - - - - - - - - - - - -
 72
65
 73
2
 40
0.2
 49
0.1
 74
0
 49
-0.1
 74
0
  0
LTYPE
  5
1F7
100
AcDbSymbolTableRecord
100
AcDbLinetypeTableRecord
  2
PHANTOM
 70
64
  3
_____ _ _ _____ _ _ _____ _ _ _____
 72
65
 73
6
 40
0.8
 49
0.45
 74
0
 49
-0.05
 74
0
 49
0.1
 74
0
 49
-0.05
 74
0
 49
0.1
 74
0
 49
-0.05
 74
0
  0
LTYPE
  5
1F8
100
AcDbSymbolTableRecord
100
AcDbLinetypeTableRecord
  2
DOT
 70
64
  3
. . . . . . . . . . . . . . . . . . . .
 72
65
 73
2
 40
0.2
 49
0.1
 74
0
 49
-0.1
 74
0
  0
LTYPE
  5
1F9
100
AcDbSymbolTableRecord
100
AcDbLinetypeTableRecord
  2
DASHED
 70
64
  3
- - - - - - - - - - - - - - - - - - - -
 72
65
 73
2
 40
0.2
 49
0.1
 74
0
 49
-0.1
 74
0
  0
ENDTAB
  0
TABLE
  2
LAYER
  5
2
100
AcDbSymbolTable
 70
36
  0
LAYER
  5
10
100
AcDbSymbolTableRecord
100
AcDbLayerTableRecord
  2
0
 70
0
 62
7
  6
CONTINUOUS
370
-3
390
F
  0
LAYER
  5
1FA
100
AcDbSymbolTableRecord
100
AcDbLayerTableRecord
  2
DEFAULT_1
 70
0
 62
7
  6
CENTER
370
-3
390
F
  0
LAYER
  5
1FB
100
AcDbSymbolTableRecord
100
AcDbLayerTableRecord
  2
DEFAULT_2
 70
0
 62
8
  6
HIDDEN
370
-3
390
F
  0
LAYER
  5
1FC
100
AcDbSymbolTableRecord
100
AcDbLayerTableRecord
  2
DEFAULT_3
 70
0
 62
7
  6
PHANTOM
370
-3
390
F
  0
LAYER
  5
1FD
100
AcDbSymbolTableRecord
100
AcDbLayerTableRecord
  2
2-141_ASSY_DATUMS
 70
0
 62
7
  6
CONTINUOUS
370
-3
390
F
  0
LAYER
  5
1FE
100
AcDbSymbolTableRecord
100
AcDbLayerTableRecord
  2
2-142_ASSY_DATUMS
 70
0
 62
7
  6
CONTINUOUS
370
-3
390
F
  0
LAYER
  5
1FF
100
AcDbSymbolTableRecord
100
AcDbLayerTableRecord
  2
ALL_ASSEMBLY_MEMBERS
 70
0
 62
7
  6
CONTINUOUS
370
-3
390
F
  0
LAYER
  5
200
100
AcDbSymbolTableRecord
100
AcDbLayerTableRecord
  2
ALL_FEATURES
 70
0
 62
7
  6
CONTINUOUS
370
-3
390
F
  0
LAYER
  5
201
100
AcDbSymbolTableRecord
100
AcDbLayerTableRecord
  2
AXES_FEATURES
 70
0
 62
7
  6
CONTINUOUS
370
-3
390
F
  0
LAYER
  5
202
100
AcDbSymbolTableRecord
100
AcDbLayerTableRecord
  2
CHAMFER_FEATURES
 70
0
 62
7
  6
CONTINUOUS
370
-3
390
F
  0
LAYER
  5
203
100
AcDbSymbolTableRecord
100
AcDbLayerTableRecord
  2
CURVES_AUX
 70
0
 62
7
  6
CONTINUOUS
370
-3
390
F
  0
LAYER
  5
204
100
AcDbSymbolTableRecord
100
AcDbLayerTableRecord
  2
CURVES_REF
 70
0
 62
7
  6
CONTINUOUS
370
-3
390
F
  0
LAYER
  5
205
100
AcDbSymbolTableRecord
100
AcDbLayerTableRecord
  2
CUT_FEATURES
 70
0
 62
7
  6
CONTINUOUS
370
-3
390
F
  0
LAYER
  5
206
100
AcDbSymbolTableRecord
100
AcDbLayerTableRecord
  2
DATUM_CURVES
 70
0
 62
7
  6
CONTINUOUS
370
-3
390
F
  0
LAYER
  5
207
100
AcDbSymbolTableRecord
100
AcDbLayerTableRecord
  2
DATUM_PLANES
 70
0
 62
7
  6
CONTINUOUS
370
-3
390
F
  0
LAYER
  5
208
100
AcDbSymbolTableRecord
100
AcDbLayerTableRecord
  2
DATUM_SHAPER
 70
0
 62
7
  6
CONTINUOUS
370
-3
390
F
  0
LAYER
  5
209
100
AcDbSymbolTableRecord
100
AcDbLayerTableRecord
  2
DEFAULT_COORDINATE_SYSTEM
 70
0
 62
7
  6
CONTINUOUS
370
-3
390
F
  0
LAYER
  5
20A
100
AcDbSymbolTableRecord
100
AcDbLayerTableRecord
  2
DEFAULT_DATUM_AXES
 70
0
 62
7
  6
CONTINUOUS
370
-3
390
F
  0
LAYER
  5
20B
100
AcDbSymbolTableRecord
100
AcDbLayerTableRecord
  2
DEFAULT_DATUM_CURVES
 70
0
 62
7
  6
CONTINUOUS
370
-3
390
F
  0
LAYER
  5
20C
100
AcDbSymbolTableRecord
100
AcDbLayerTableRecord
  2
DEFAULT_DATUM_PLANES
 70
0
 62
7
  6
CONTINUOUS
370
-3
390
F
  0
LAYER
  5
20D
100
AcDbSymbolTableRecord
100
AcDbLayerTableRecord
  2
DEFAULT_SURFACES
 70
0
 62
7
  6
CONTINUOUS
370
-3
390
F
  0
LAYER
  5
20E
100
AcDbSymbolTableRecord
100
AcDbLayerTableRecord
  2
DIMENSIONS
 70
0
 62
7
  6
CONTINUOUS
370
-3
390
F
  0
LAYER
  5
20F
100
AcDbSymbolTableRecord
100
AcDbLayerTableRecord
  2
HOLE_FEATURES
 70
0
 62
7
  6
CONTINUOUS
370
-3
390
F
  0
LAYER
  5
210
100
AcDbSymbolTableRecord
100
AcDbLayerTableRecord
  2
LAY0001
 70
0
 62
7
  6
CONTINUOUS
370
-3
390
F
  0
LAYER
  5
211
100
AcDbSymbolTableRecord
100
AcDbLayerTableRecord
  2
NOTES
 70
0
 62
7
  6
CONTINUOUS
370
-3
390
F
  0
LAYER
  5
212
100
AcDbSymbolTableRecord
100
AcDbLayerTableRecord
  2
PART_REFERENCE_DIMENSIONS
 70
0
 62
7
  6
CONTINUOUS
370
-3
390
F
  0
LAYER
  5
213
100
AcDbSymbolTableRecord
100
AcDbLayerTableRecord
  2
PLATED_SURAFCE
 70
0
 62
7
  6
CONTINUOUS
370
-3
390
F
  0
LAYER
  5
214
100
AcDbSymbolTableRecord
100
AcDbLayerTableRecord
  2
PLATED_SURFACE_AREA
 70
0
 62
7
  6
CONTINUOUS
370
-3
390
F
  0
LAYER
  5
215
100
AcDbSymbolTableRecord
100
AcDbLayerTableRecord
  2
PROTRUSION_FEATURES
 70
0
 62
7
  6
CONTINUOUS
370
-3
390
F
  0
LAYER
  5
216
100
AcDbSymbolTableRecord
100
AcDbLayerTableRecord
  2
QUILT
 70
0
 62
7
  6
CONTINUOUS
370
-3
390
F
  0
LAYER
  5
217
100
AcDbSymbolTableRecord
100
AcDbLayerTableRecord
  2
QUILTS
 70
0
 62
7
  6
CONTINUOUS
370
-3
390
F
  0
LAYER
  5
218
100
AcDbSymbolTableRecord
100
AcDbLayerTableRecord
  2
REFERENCE_DIMENSIONS
 70
0
 62
7
  6
CONTINUOUS
370
-3
390
F
  0
LAYER
  5
219
100
AcDbSymbolTableRecord
100
AcDbLayerTableRecord
  2
REF_PROT
 70
0
 62
7
  6
CONTINUOUS
370
-3
390
F
  0
LAYER
  5
21A
100
AcDbSymbolTableRecord
100
AcDbLayerTableRecord
  2
ROUND_FEATURES
 70
0
 62
7
  6
CONTINUOUS
370
-3
390
F
  0
LAYER
  5
21B
100
AcDbSymbolTableRecord
100
AcDbLayerTableRecord
  2
SURFACE_FEATURES
 70
0
 62
7
  6
CONTINUOUS
370
-3
390
F
  0
LAYER
  5
21C
100
AcDbSymbolTableRecord
100
AcDbLayerTableRecord
  2
SURFS_REF
 70
0
 62
7
  6
CONTINUOUS
370
-3
390
F
  0
LAYER
  5
21D
100
AcDbSymbolTableRecord
100
AcDbLayerTableRecord
  2
SURF_MERGES_REF
 70
0
 62
7
  6
CONTINUOUS
370
-3
390
F
  0
LAYER
  5
21E
100
AcDbSymbolTableRecord
100
AcDbLayerTableRecord
  2
XSEC_DATUMS
 70
0
 62
7
  6
CONTINUOUS
370
-3
390
F
  0
ENDTAB
  0
TABLE
  2
STYLE
  5
3
100
AcDbSymbolTable
 70
1
  0
STYLE
  5
11
100
AcDbSymbolTableRecord
100
AcDbTextStyleTableRecord
  2
STANDARD
 70
0
 40
0.0
 41
0.8
 50
0.0
 71
0
 42
0.2
  3
txt
  4

  0
STYLE
  5
21F
100
AcDbSymbolTableRecord
100
AcDbTextStyleTableRecord
  2
TEXTSTYLE_1
 70
0
 40
0.0
 41
0.8
 50
0.0
 71
0
 42
0.2
  3
gdt
  4

  0
ENDTAB
  0
TABLE
  2
VIEW
  5
6
100
AcDbSymbolTable
 70
0
  0
ENDTAB
  0
TABLE
  2
UCS
  5
7
100
AcDbSymbolTable
 70
0
  0
ENDTAB
  0
TABLE
  2
APPID
  5
9
100
AcDbSymbolTable
 70
1
  0
APPID
  5
220
100
AcDbSymbolTableRecord
100
AcDbRegAppTableRecord
  2
ACAD
 70
0
  0
ENDTAB
  0
TABLE
  2
BLOCK_RECORD
  5
1
100
AcDbSymbolTable
 70
0
  0
BLOCK_RECORD
  5
221
100
AcDbSymbolTableRecord
100
AcDbBlockTableRecord
  2
*Model_Space
  0
BLOCK_RECORD
  5
222
100
AcDbSymbolTableRecord
100
AcDbBlockTableRecord
  2
*Paper_Space
  0
ENDTAB
  0
TABLE
  2
DIMSTYLE
  5
A
100
AcDbSymbolTable
 70
1
100
AcDbDimStyleTable
 71
0
  0
DIMSTYLE
105
223
100
AcDbSymbolTableRecord
100
AcDbDimStyleTableRecord
  2
STANDARD
 70
0
  3

  4

 40
1.0
 41
0.1875
 42
0.0625
 43
0.38
 44
0.125
 45
0.0
 46
0.0
 47
0.01
 48
0.01
140
0.15625
141
0.09
142
0.0
143
25.4
144
1.0
145
0.0
146
1.0
147
0.09
 71
0.0
 72
0.0
 73
1
 74
1
 75
0
 76
0
 77
0
 78
4
170
0
171
2
172
0
173
0
174
0
175
0
176
0
177
0
178
0
270
2
271
2
272
2
273
2
274
2
275
0
280
0
281
0
282
0
283
1
284
4
285
0
286
0
287
3
288
0
340
11
278
46
  0
ENDTAB
  0
ENDSEC
  0
SECTION
  2
BLOCKS
  0
BLOCK
  5
20
100
AcDbEntity
  8
0
100
AcDbBlockBegin
  2
*Model_Space
 70
0
 10
0.0
 20
0.0
 30
0.0
  3
*Model_Space
  1

  0
ENDBLK
  5
21
100
AcDbEntity
  8
0
100
AcDbBlockEnd
  0
BLOCK
  5
1C
100
AcDbEntity
  8
0
100
AcDbBlockBegin
  2
*Paper_Space
 70
0
 10
0.0
 20
0.0
 30
0.0
  3
*Paper_Space
  1

  0
ENDBLK
  5
1D
100
AcDbEntity
  8
0
100
AcDbBlockEnd
  0
ENDSEC
  0
SECTION
  2
ENTITIES
  0
LINE
  5
224
100
AcDbEntity
  8
ALL_FEATURES
100
AcDbLine
 62
7
  6
CONTINUOUS
 10
3.2794256757
 20
2.3960525501
 11
3.2794256757
 21
2.5476735917
  0
LINE
  5
225
100
AcDbEntity
  8
ALL_ASSEMBLY_MEMBERS
100
AcDbLine
 62
9
  6
CONTINUOUS
 10
3.4421591957
 20
4.5317857379
 11
3.4421591957
 21
4.9823193623
  0
LINE
  5
226
100
AcDbEntity
  8
ALL_ASSEMBLY_MEMBERS
100
AcDbLine
 62
9
  6
CONTINUOUS
 10
3.5242484527
 20
4.5892652545
 11
3.5242484527
 21
4.9248398457
  0
LINE
  5
227
100
AcDbEntity
  8
ALL_ASSEMBLY_MEMBERS
100
AcDbLine
 62
7
  6
CONTINUOUS
 10
3.5494256757
 20
4.5679616604
 11
3.5494256757
 21
4.9461434398
  0
LINE
  5
228
100
AcDbEntity
  8
ALL_ASSEMBLY_MEMBERS
100
AcDbLine
 62
9
  6
CONTINUOUS
 10
3.5742888343
 20
4.5661352569
 11
3.5742888343
 21
4.9479698434
  0
LINE
  5
229
100
AcDbEntity
  8
ALL_ASSEMBLY_MEMBERS
100
AcDbLine
 62
7
  6
CONTINUOUS
 10
3.9094256757
 20
4.5520525501
 11
3.9394256757
 21
4.4730525501
  0
LINE
  5
22A
100
AcDbEntity
  8
ALL_ASSEMBLY_MEMBERS
100
AcDbLine
 62
9
  6
CONTINUOUS
 10
3.9357596546
 20
4.9121113263
 11
3.9357596628
 21
4.6019940379
  0
LINE
  5
22B
100
AcDbEntity
  8
ALL_ASSEMBLY_MEMBERS
100
AcDbLine
 62
7
  6
CONTINUOUS
 10
3.9394256757
 20
5.1443366472
 11
3.9394256757
 21
5.0730525501
  0
LINE
  5
22C
100
AcDbEntity
  8
ALL_ASSEMBLY_MEMBERS
100
AcDbLine
 62
9
  6
CONTINUOUS
 10
3.9579196952
 20
4.8542629396
 11
3.9579196959
 21
4.6598431301
  0
LINE
  5
22D
100
AcDbEntity
  8
ALL_FEATURES
100
AcDbLine
 62
7
  6
CONTINUOUS
 10
4.0369256757
 20
4.0430525501
 11
4.0369256757
 21
3.9230525501
  0
LINE
  5
22E
100
AcDbEntity
  8
ALL_ASSEMBLY_MEMBERS
100
AcDbLine
 62
7
  6
CONTINUOUS
 10
4.1234256757
 20
4.4220525501
 11
4.1234256757
 21
4.0630525501
  0
LINE
  5
22F
100
AcDbEntity
  8
ALL_ASSEMBLY_MEMBERS
100
AcDbLine
 62
7
  6
CONTINUOUS
 10
4.2019256757
 20
5.232875077
 11
4.2019256757
 21
5.2340231266
  0
LINE
  5
230
100
AcDbEntity
  8
ALL_ASSEMBLY_MEMBERS
100
AcDbLine
 62
7
  6
CONTINUOUS
 10
4.2184256757
 20
5.2365213498
 11
4.2184256757
 21
5.2375347676
  0
LINE
  5
231
100
AcDbEntity
  8
ALL_ASSEMBLY_MEMBERS
100
AcDbLine
 62
7
  6
CONTINUOUS
 10
4.2184256757
 20
5.2376794899
 11
4.2184256757
 21
5.238011571
  0
LINE
  5
232
100
AcDbEntity
  8
ALL_ASSEMBLY_MEMBERS
100
AcDbLine
 62
7
  6
CONTINUOUS
 10
4.2229738362
 20
4.2469200636
 11
4.2229738362
 21
4.1891850367
  0
LINE
  5
233
100
AcDbEntity
  8
ALL_ASSEMBLY_MEMBERS
100
AcDbLine
 62
7
  6
CONTINUOUS
 10
4.2584256757
 20
5.2424869337
 11
4.2584256757
 21
5.2439388294
  0
LINE
  5
234
100
AcDbEntity
  8
ALL_FEATURES
100
AcDbLine
 62
7
  6
CONTINUOUS
 10
5.4799256757
 20
2.7178206769
 11
5.6544409706
 21
2.5476586783
  0
LINE
  5
235
100
AcDbEntity
  8
ALL_ASSEMBLY_MEMBERS
100
AcDbLine
 62
7
  6
CONTINUOUS
 10
4.2749256757
 20
5.2449105822
 11
4.2749256757
 21
5.2437706682
  0
LINE
  5
236
100
AcDbEntity
  8
ALL_ASSEMBLY_MEMBERS
100
AcDbLine
 62
7
  6
CONTINUOUS
 10
4.2760068448
 20
4.2469200636
 11
4.2760068448
 21
4.1891850367
  0
LINE
  5
237
100
AcDbEntity
  8
ALL_ASSEMBLY_MEMBERS
100
AcDbLine
 62
7
  6
CONTINUOUS
 10
4.2919256757
 20
5.2457997397
 11
4.2919256757
 21
5.2469381513
  0
LINE
  5
238
100
AcDbEntity
  8
ALL_ASSEMBLY_MEMBERS
100
AcDbLine
 62
7
  6
CONTINUOUS
 10
4.3084256757
 20
5.248452136
 11
4.3084256757
 21
5.2494577131
  0
LINE
  5
239
100
AcDbEntity
  8
ALL_ASSEMBLY_MEMBERS
100
AcDbLine
 62
7
  6
CONTINUOUS
 10
4.3084256757
 20
5.2495657231
 11
4.3084256757
 21
5.2498984169
  0
LINE
  5
23A
100
AcDbEntity
  8
ALL_ASSEMBLY_MEMBERS
100
AcDbLine
 62
7
  6
CONTINUOUS
 10
4.3484256757
 20
5.2520428585
 11
4.3484256757
 21
5.2535181195
  0
LINE
  5
23B
100
AcDbEntity
  8
ALL_ASSEMBLY_MEMBERS
100
AcDbLine
 62
7
  6
CONTINUOUS
 10
4.3649256757
 20
5.2534913591
 11
4.3649256757
 21
5.2523577762
  0
LINE
  5
23C
100
AcDbEntity
  8
ALL_ASSEMBLY_MEMBERS
100
AcDbLine
 62
7
  6
CONTINUOUS
 10
4.4232256757
 20
5.2564362674
 11
4.4232256757
 21
5.257436665
  0
LINE
  5
23D
100
AcDbEntity
  8
ALL_FEATURES
100
AcDbLine
 62
7
  6
CONTINUOUS
 10
4.4669256757
 20
3.9230525501
 11
4.4669256757
 21
3.5302443999
  0
LINE
  5
23E
100
AcDbEntity
  8
ALL_FEATURES
100
AcDbLine
 62
7
  6
CONTINUOUS
 10
4.4669256757
 20
2.7178206769
 11
4.4669256757
 21
2.7027997929
  0
LINE
  5
23F
100
AcDbEntity
  8
ALL_ASSEMBLY_MEMBERS
100
AcDbLine
 62
7
  6
CONTINUOUS
 10
4.5082256757
 20
5.2565021126
 11
4.5082256757
 21
5.2575024677
  0
LINE
  5
240
100
AcDbEntity
  8
ALL_ASSEMBLY_MEMBERS
100
AcDbLine
 62
7
  6
CONTINUOUS
 10
4.6049256757
 20
5.24955908
 11
4.6049256757
 21
5.2506947185
  0
LINE
  5
241
100
AcDbEntity
  8
ALL_ASSEMBLY_MEMBERS
100
AcDbLine
 62
7
  6
CONTINUOUS
 10
4.6234256757
 20
5.248846875
 11
4.6234256757
 21
5.2501264236
  0
LINE
  5
242
100
AcDbEntity
  8
ALL_ASSEMBLY_MEMBERS
100
AcDbLine
 62
7
  6
CONTINUOUS
 10
4.6578445066
 20
4.1891850367
 11
4.6578445066
 21
4.2469200636
  0
LINE
  5
243
100
AcDbEntity
  8
ALL_ASSEMBLY_MEMBERS
100
AcDbLine
 62
7
  6
CONTINUOUS
 10
4.6594256757
 20
5.2447661278
 11
4.6594256757
 21
5.2460576943
  0
LINE
  5
244
100
AcDbEntity
  8
ALL_ASSEMBLY_MEMBERS
100
AcDbLine
 62
7
  6
CONTINUOUS
 10
4.6779256757
 20
5.2424185267
 11
4.6779256757
 21
5.2412767608
  0
LINE
  5
245
100
AcDbEntity
  8
ALL_FEATURES
100
AcDbLine
 62
7
  6
CONTINUOUS
 10
3.9669256757
 20
3.9230525501
 11
3.8914156955
 21
3.5302443999
  0
LINE
  5
246
100
AcDbEntity
  8
ALL_ASSEMBLY_MEMBERS
100
AcDbLine
 62
7
  6
CONTINUOUS
 10
3.9394256757
 20
5.0420525501
 11
3.9094256757
 21
4.9620525501
  0
LINE
  5
247
100
AcDbEntity
  8
ALL_ASSEMBLY_MEMBERS
100
AcDbLine
 62
7
  6
CONTINUOUS
 10
4.2229738362
 20
4.1891850367
 11
4.2583291752
 21
4.1603175232
  0
LINE
  5
248
100
AcDbEntity
  8
ALL_ASSEMBLY_MEMBERS
100
AcDbLine
 62
7
  6
CONTINUOUS
 10
4.2760068448
 20
4.1891850367
 11
4.2847573865
 21
4.1820402492
  0
LINE
  5
249
100
AcDbEntity
  8
ALL_FEATURES
100
AcDbLine
 62
7
  6
CONTINUOUS
 10
4.9669256757
 20
3.9230525501
 11
5.0424356559
 21
3.5302443999
  0
LINE
  5
24A
100
AcDbEntity
  8
ALL_ASSEMBLY_MEMBERS
100
AcDbLine
 62
7
  6
CONTINUOUS
 10
4.7108775152
 20
4.1891850367
 11
4.7108775152
 21
4.2469200636
  0
LINE
  5
24B
100
AcDbEntity
  8
ALL_ASSEMBLY_MEMBERS
100
AcDbLine
 62
7
  6
CONTINUOUS
 10
4.8104256757
 20
4.4220525501
 11
4.8104256757
 21
4.0630525501
  0
LINE
  5
24C
100
AcDbEntity
  8
ALL_FEATURES
100
AcDbLine
 62
7
  6
CONTINUOUS
 10
4.8969256757
 20
4.0430525501
 11
4.8969256757
 21
3.9230525501
  0
LINE
  5
24D
100
AcDbEntity
  8
ALL_ASSEMBLY_MEMBERS
100
AcDbLine
 62
9
  6
CONTINUOUS
 10
4.9759316561
 20
4.6598432291
 11
4.9759316555
 21
4.8542628196
  0
LINE
  5
24E
100
AcDbEntity
  8
ALL_ASSEMBLY_MEMBERS
100
AcDbLine
 62
7
  6
CONTINUOUS
 10
4.9944256757
 20
5.1443366472
 11
4.9944256757
 21
5.0730525501
  0
LINE
  5
24F
100
AcDbEntity
  8
ALL_ASSEMBLY_MEMBERS
100
AcDbLine
 62
9
  6
CONTINUOUS
 10
4.9980916967
 20
4.6019940602
 11
4.9980916886
 21
4.9121112635
  0
LINE
  5
250
100
AcDbEntity
  8
ALL_ASSEMBLY_MEMBERS
100
AcDbLine
 62
7
  6
CONTINUOUS
 10
3.9536915234
 20
5.1639719022
 11
3.9394256757
 21
5.1443366472
  0
LINE
  5
251
100
AcDbEntity
  8
ALL_ASSEMBLY_MEMBERS
100
AcDbLine
 62
7
  6
CONTINUOUS
 10
3.5242484527
 20
4.9248398457
 11
3.4421591957
 21
4.9823193623
  0
LINE
  5
252
100
AcDbEntity
  8
ALL_ASSEMBLY_MEMBERS
100
AcDbLine
 62
7
  6
CONTINUOUS
 10
4.2850797372
 20
4.2539458346
 11
4.2583291752
 21
4.275787577
  0
LINE
  5
253
100
AcDbEntity
  8
ALL_ASSEMBLY_MEMBERS
100
AcDbLine
 62
7
  6
CONTINUOUS
 10
4.6503019636
 20
4.1809097405
 11
4.6755221761
 21
4.1603175232
  0
LINE
  5
254
100
AcDbEntity
  8
ALL_ASSEMBLY_MEMBERS
100
AcDbLine
 62
7
  6
CONTINUOUS
 10
4.6578445066
 20
4.2469200636
 11
4.6499563515
 21
4.2533607152
  0
LINE
  5
255
100
AcDbEntity
  8
ALL_ASSEMBLY_MEMBERS
100
AcDbLine
 62
7
  6
CONTINUOUS
 10
4.7108775152
 20
4.2469200636
 11
4.6755221761
 21
4.275787577
  0
LINE
  5
256
100
AcDbEntity
  8
ALL_ASSEMBLY_MEMBERS
100
AcDbLine
 62
7
  6
CONTINUOUS
 10
4.9944256757
 20
5.0420525501
 11
5.0244256757
 21
4.9620525501
  0
LINE
  5
257
100
AcDbEntity
  8
ALL_ASSEMBLY_MEMBERS
100
AcDbLine
 62
9
  6
CONTINUOUS
 10
5.3595625171
 20
4.5661352569
 11
5.3595625171
 21
4.9479698434
  0
LINE
  5
258
100
AcDbEntity
  8
ALL_ASSEMBLY_MEMBERS
100
AcDbLine
 62
7
  6
CONTINUOUS
 10
5.3844256757
 20
4.5679616604
 11
5.3844256757
 21
4.9461434398
  0
LINE
  5
259
100
AcDbEntity
  8
ALL_ASSEMBLY_MEMBERS
100
AcDbLine
 62
9
  6
CONTINUOUS
 10
5.4096028987
 20
4.5892652545
 11
5.4096028987
 21
4.9248398457
  0
LINE
  5
25A
100
AcDbEntity
  8
ALL_ASSEMBLY_MEMBERS
100
AcDbLine
 62
9
  6
CONTINUOUS
 10
5.4916921557
 20
4.5317857379
 11
5.4916921557
 21
4.9823193623
  0
LINE
  5
25B
100
AcDbEntity
  8
ALL_FEATURES
100
AcDbLine
 62
7
  6
CONTINUOUS
 10
13.5589256757
 20
2.3810525501
 11
11.3749256757
 21
2.3810525501
  0
LINE
  5
25C
100
AcDbEntity
  8
ALL_FEATURES
100
AcDbLine
 62
7
  6
CONTINUOUS
 10
5.5589256757
 20
2.3810525501
 11
3.3749256757
 21
2.3810525501
  0
LINE
  5
25D
100
AcDbEntity
  8
ALL_FEATURES
100
AcDbLine
 62
7
  6
CONTINUOUS
 10
13.6544152732
 20
2.3960525501
 11
11.2794256757
 21
2.3960525501
  0
LINE
  5
25E
100
AcDbEntity
  8
ALL_FEATURES
100
AcDbLine
 62
7
  6
CONTINUOUS
 10
5.6544152732
 20
2.3960525501
 11
3.2794256757
 21
2.3960525501
  0
LINE
  5
25F
100
AcDbEntity
  8
ALL_ASSEMBLY_MEMBERS
100
AcDbLine
 62
7
  6
CONTINUOUS
 10
6.9719256757
 20
2.3960525501
 11
9.9619256757
 21
2.3960525501
  0
LINE
  5
260
100
AcDbEntity
  8
ALL_FEATURES
100
AcDbLine
 62
9
  6
CONTINUOUS
 10
3.4539256757
 20
2.7178206769
 11
5.4799256757
 21
2.7178206769
  0
LINE
  5
261
100
AcDbEntity
  8
ALL_FEATURES
100
AcDbLine
 62
9
  6
CONTINUOUS
 10
11.4539256757
 20
2.7178206769
 11
13.4799256757
 21
2.7178206769
  0
LINE
  5
262
100
AcDbEntity
  8
ALL_ASSEMBLY_MEMBERS
100
AcDbLine
 62
7
  6
CONTINUOUS
 10
4.9801598279
 20
5.1639719022
 11
4.9944256757
 21
5.1443366472
  0
LINE
  5
263
100
AcDbEntity
  8
ALL_FEATURES
100
AcDbLine
 62
7
  6
CONTINUOUS
 10
5.6544256757
 20
2.3960525501
 11
5.6544256757
 21
2.5476735917
  0
LINE
  5
264
100
AcDbEntity
  8
ALL_ASSEMBLY_MEMBERS
100
AcDbLine
 62
7
  6
CONTINUOUS
 10
5.0244256757
 20
4.5520525501
 11
4.9944256757
 21
4.4730525501
  0
LINE
  5
265
100
AcDbEntity
  8
ALL_ASSEMBLY_MEMBERS
100
AcDbLine
 62
7
  6
CONTINUOUS
 10
8.0909154309
 20
8.9383338949
 11
8.0909069166
 21
8.9383252207
  0
LINE
  5
266
100
AcDbEntity
  8
ALL_ASSEMBLY_MEMBERS
100
AcDbLine
 62
9
  6
CONTINUOUS
 10
9.2144256757
 20
3.035996037
 11
7.7194256757
 21
3.035996037
  0
LINE
  5
267
100
AcDbEntity
  8
ALL_ASSEMBLY_MEMBERS
100
AcDbLine
 62
7
  6
CONTINUOUS
 10
7.7194256757
 20
3.035996037
 11
6.9719256757
 21
3.035996037
  0
LINE
  5
268
100
AcDbEntity
  8
ALL_ASSEMBLY_MEMBERS
100
AcDbLine
 62
7
  6
CONTINUOUS
 10
9.2144256757
 20
3.035996037
 11
9.9619256757
 21
3.035996037
  0
LINE
  5
269
100
AcDbEntity
  8
ALL_ASSEMBLY_MEMBERS
100
AcDbLine
 62
7
  6
CONTINUOUS
 10
3.9394256757
 20
4.4730525501
 11
4.0964256757
 21
4.4220525501
  0
LINE
  5
26A
100
AcDbEntity
  8
ALL_ASSEMBLY_MEMBERS
100
AcDbLine
 62
7
  6
CONTINUOUS
 10
3.9394256757
 20
5.0730525501
 11
3.9662724632
 21
5.0575525501
  0
LINE
  5
26B
100
AcDbEntity
  8
ALL_ASSEMBLY_MEMBERS
100
AcDbLine
 62
7
  6
CONTINUOUS
 10
5.4096028987
 20
4.5892652545
 11
5.4916921557
 21
4.5317857379
  0
LINE
  5
26C
100
AcDbEntity
  8
ALL_FEATURES
100
AcDbLine
 62
9
  6
CONTINUOUS
 10
3.8914156955
 20
3.5302443999
 11
5.0424356559
 21
3.5302443999
  0
LINE
  5
26D
100
AcDbEntity
  8
ALL_FEATURES
100
AcDbLine
 62
9
  6
CONTINUOUS
 10
11.8914156955
 20
3.5302443999
 11
13.0424356559
 21
3.5302443999
  0
LINE
  5
26E
100
AcDbEntity
  8
ALL_ASSEMBLY_MEMBERS
100
AcDbLine
 62
7
  6
CONTINUOUS
 10
4.9675788882
 20
5.0575525501
 11
4.9944256757
 21
5.0420525501
  0
LWPOLYLINE
  5
26F
100
AcDbEntity
  8
ALL_ASSEMBLY_MEMBERS
100
AcDbPolyline
 62
7
  6
CONTINUOUS
 90
16
 70
0
 10
8.0909069166
 20
8.9383252207
 10
8.0721116725
 20
8.9035114792
 10
8.044676789
 20
8.8527668101
 10
8.0175017117
 20
8.8022053367
 10
7.990862151
 20
8.7519486832
 10
7.9649794847
 20
8.7020609435
 10
7.9400308168
 20
8.6525628532
 10
7.916182509
 20
8.6034929635
 10
7.893580876
 20
8.5550282707
 10
7.8722717517
 20
8.5074739601
 10
7.8521956993
 20
8.4609509805
 10
7.8333310175
 20
8.4156633821
 10
7.8157363336
 20
8.3720246176
 10
7.7993628026
 20
8.330201479
 10
7.7840714975
 20
8.2901181797
 10
7.7768332433
 20
8.2708181126
  0
LINE
  5
270
100
AcDbEntity
  8
ALL_ASSEMBLY_MEMBERS
100
AcDbLine
 62
7
  6
CONTINUOUS
 10
3.5242484527
 20
4.5892652545
 11
3.4421591957
 21
4.5317857379
  0
LINE
  5
271
100
AcDbEntity
  8
ALL_ASSEMBLY_MEMBERS
100
AcDbLine
 62
7
  6
CONTINUOUS
 10
3.9662724632
 20
5.0575525501
 11
3.9394256757
 21
5.0420525501
  0
LINE
  5
272
100
AcDbEntity
  8
ALL_FEATURES
100
AcDbLine
 62
7
  6
CONTINUOUS
 10
3.9669256757
 20
3.9230525501
 11
4.9669256757
 21
3.9230525501
  0
LINE
  5
273
100
AcDbEntity
  8
ALL_FEATURES
100
AcDbLine
 62
7
  6
CONTINUOUS
 10
11.9669256757
 20
3.9230525501
 11
12.9669256757
 21
3.9230525501
  0
LINE
  5
274
100
AcDbEntity
  8
ALL_ASSEMBLY_MEMBERS
100
AcDbLine
 62
7
  6
CONTINUOUS
 10
6.9719256757
 20
2.3960525501
 11
6.9719256757
 21
3.035996037
  0
LINE
  5
275
100
AcDbEntity
  8
ALL_FEATURES
100
AcDbLine
 62
7
  6
CONTINUOUS
 10
3.2794103808
 20
2.5476586783
 11
3.4539256757
 21
2.7178206769
  0
LINE
  5
276
100
AcDbEntity
  8
ALL_ASSEMBLY_MEMBERS
100
AcDbLine
 62
7
  6
CONTINUOUS
 10
4.2583291752
 20
4.275787577
 11
4.2229738362
 21
4.2469200636
  0
LINE
  5
277
100
AcDbEntity
  8
ALL_ASSEMBLY_MEMBERS
100
AcDbLine
 62
7
  6
CONTINUOUS
 10
4.2848456795
 20
4.2541369419
 11
4.2760068448
 21
4.2469200636
  0
LINE
  5
278
100
AcDbEntity
  8
ALL_ASSEMBLY_MEMBERS
100
AcDbLine
 62
7
  6
CONTINUOUS
 10
4.2583291752
 20
4.1603175232
 11
4.2846820745
 21
4.1818345754
  0
LINE
  5
279
100
AcDbEntity
  8
ALL_ASSEMBLY_MEMBERS
100
AcDbLine
 62
7
  6
CONTINUOUS
 10
4.6755221761
 20
4.275787577
 11
4.6511884084
 21
4.2559191389
  0
LINE
  5
27A
100
AcDbEntity
  8
ALL_ASSEMBLY_MEMBERS
100
AcDbLine
 62
7
  6
CONTINUOUS
 10
4.649649075
 20
4.1824934948
 11
4.6578445066
 21
4.1891850367
  0
LINE
  5
27B
100
AcDbEntity
  8
ALL_ASSEMBLY_MEMBERS
100
AcDbLine
 62
7
  6
CONTINUOUS
 10
4.6755221761
 20
4.1603175232
 11
4.7108775152
 21
4.1891850367
  0
LINE
  5
27C
100
AcDbEntity
  8
ALL_ASSEMBLY_MEMBERS
100
AcDbLine
 62
7
  6
CONTINUOUS
 10
8.4012289191
 20
7.1838544696
 11
8.280709623
 21
7.1333299141
  0
LINE
  5
27D
100
AcDbEntity
  8
ALL_ASSEMBLY_MEMBERS
100
AcDbLine
 62
7
  6
CONTINUOUS
 10
8.4956672509
 20
7.2234452646
 11
8.5425775941
 21
7.2431111962
  0
LINE
  5
27E
100
AcDbEntity
  8
ALL_ASSEMBLY_MEMBERS
100
AcDbLine
 62
7
  6
CONTINUOUS
 10
8.4381841004
 20
7.1811963784
 11
8.3176648043
 21
7.1306718228
  0
LINE
  5
27F
100
AcDbEntity
  8
ALL_ASSEMBLY_MEMBERS
100
AcDbLine
 62
7
  6
CONTINUOUS
 10
8.5326224322
 20
7.2207871733
 11
8.5822126459
 21
7.2415765704
  0
LINE
  5
280
100
AcDbEntity
  8
ALL_FEATURES
100
AcDbLine
 62
7
  6
CONTINUOUS
 10
4.0369373962
 20
4.0430525501
 11
4.8969139551
 21
4.0430525501
  0
LINE
  5
281
100
AcDbEntity
  8
ALL_FEATURES
100
AcDbLine
 62
7
  6
CONTINUOUS
 10
12.0369373962
 20
4.0430525501
 11
12.8969139551
 21
4.0430525501
  0
LINE
  5
282
100
AcDbEntity
  8
ALL_ASSEMBLY_MEMBERS
100
AcDbLine
 62
7
  6
CONTINUOUS
 10
4.1234256757
 20
4.0630525501
 11
4.8104256757
 21
4.0630525501
  0
LINE
  5
283
100
AcDbEntity
  8
ALL_ASSEMBLY_MEMBERS
100
AcDbLine
 62
7
  6
CONTINUOUS
 10
12.1234256757
 20
4.0630525501
 11
12.8104256757
 21
4.0630525501
  0
LINE
  5
284
100
AcDbEntity
  8
ALL_ASSEMBLY_MEMBERS
100
AcDbLine
 62
7
  6
CONTINUOUS
 10
12.7108775152
 20
4.1891850367
 11
12.6578445066
 21
4.1891850367
  0
LINE
  5
285
100
AcDbEntity
  8
ALL_ASSEMBLY_MEMBERS
100
AcDbLine
 62
7
  6
CONTINUOUS
 10
4.7108775152
 20
4.1891850367
 11
4.6578445066
 21
4.1891850367
  0
LINE
  5
286
100
AcDbEntity
  8
ALL_ASSEMBLY_MEMBERS
100
AcDbLine
 62
7
  6
CONTINUOUS
 10
4.2229738362
 20
4.1891850367
 11
4.2760068448
 21
4.1891850367
  0
LINE
  5
287
100
AcDbEntity
  8
ALL_ASSEMBLY_MEMBERS
100
AcDbLine
 62
7
  6
CONTINUOUS
 10
12.2229738362
 20
4.1891850367
 11
12.2760068448
 21
4.1891850367
  0
LINE
  5
288
100
AcDbEntity
  8
ALL_ASSEMBLY_MEMBERS
100
AcDbLine
 62
7
  6
CONTINUOUS
 10
12.7108775152
 20
4.2469200636
 11
12.6578445066
 21
4.2469200636
  0
LINE
  5
289
100
AcDbEntity
  8
ALL_ASSEMBLY_MEMBERS
100
AcDbLine
 62
7
  6
CONTINUOUS
 10
4.7108775152
 20
4.2469200636
 11
4.6578445066
 21
4.2469200636
  0
LINE
  5
28A
100
AcDbEntity
  8
ALL_ASSEMBLY_MEMBERS
100
AcDbLine
 62
7
  6
CONTINUOUS
 10
4.2229738362
 20
4.2469200636
 11
4.2760068448
 21
4.2469200636
  0
LINE
  5
28B
100
AcDbEntity
  8
ALL_ASSEMBLY_MEMBERS
100
AcDbLine
 62
7
  6
CONTINUOUS
 10
12.2229738362
 20
4.2469200636
 11
12.2760068448
 21
4.2469200636
  0
LINE
  5
28C
100
AcDbEntity
  8
ALL_ASSEMBLY_MEMBERS
100
AcDbLine
 62
7
  6
CONTINUOUS
 10
4.0964256757
 20
4.4220525501
 11
4.8374256757
 21
4.4220525501
  0
LINE
  5
28D
100
AcDbEntity
  8
ALL_ASSEMBLY_MEMBERS
100
AcDbLine
 62
7
  6
CONTINUOUS
 10
12.0964256757
 20
4.4220525501
 11
12.8374256757
 21
4.4220525501
  0
LINE
  5
28E
100
AcDbEntity
  8
ALL_ASSEMBLY_MEMBERS
100
AcDbLine
 62
7
  6
CONTINUOUS
 10
4.9214356318
 20
5.1830525501
 11
4.9801598279
 21
5.1639719022
  0
LINE
  5
28F
100
AcDbEntity
  8
ALL_ASSEMBLY_MEMBERS
100
AcDbLine
 62
7
  6
CONTINUOUS
 10
5.4096028987
 20
4.9248398457
 11
5.4916921557
 21
4.9823193623
  0
LINE
  5
290
100
AcDbEntity
  8
ALL_ASSEMBLY_MEMBERS
100
AcDbLine
 62
7
  6
CONTINUOUS
 10
4.9944256757
 20
5.0730525501
 11
4.9675788882
 21
5.0575525501
  0
LINE
  5
291
100
AcDbEntity
  8
ALL_ASSEMBLY_MEMBERS
100
AcDbLine
 62
7
  6
CONTINUOUS
 10
4.0124157196
 20
5.1830525501
 11
3.9536915234
 21
5.1639719022
  0
LINE
  5
292
100
AcDbEntity
  8
ALL_ASSEMBLY_MEMBERS
100
AcDbLine
 62
7
  6
CONTINUOUS
 10
12.1589256757
 20
5.2271567285
 11
12.1589279415
 21
5.2271571537
  0
LINE
  5
293
100
AcDbEntity
  8
ALL_ASSEMBLY_MEMBERS
100
AcDbLine
 62
7
  6
CONTINUOUS
 10
3.9394256757
 20
4.4730525501
 11
4.9944256757
 21
4.4730525501
  0
LINE
  5
294
100
AcDbEntity
  8
ALL_ASSEMBLY_MEMBERS
100
AcDbLine
 62
7
  6
CONTINUOUS
 10
11.9394256757
 20
4.4730525501
 11
12.9944256757
 21
4.4730525501
  0
LINE
  5
295
100
AcDbEntity
  8
ALL_ASSEMBLY_MEMBERS
100
AcDbLine
 62
7
  6
CONTINUOUS
 10
12.283658451
 20
4.5520525501
 11
11.9094256757
 21
4.5520525501
  0
LINE
  5
296
100
AcDbEntity
  8
ALL_ASSEMBLY_MEMBERS
100
AcDbLine
 62
7
  6
CONTINUOUS
 10
4.283658451
 20
4.5520525501
 11
3.9094256757
 21
4.5520525501
  0
LINE
  5
297
100
AcDbEntity
  8
ALL_ASSEMBLY_MEMBERS
100
AcDbLine
 62
7
  6
CONTINUOUS
 10
4.6501929004
 20
4.5520525501
 11
5.0244256757
 21
4.5520525501
  0
LINE
  5
298
100
AcDbEntity
  8
ALL_ASSEMBLY_MEMBERS
100
AcDbLine
 62
7
  6
CONTINUOUS
 10
12.6501929004
 20
4.5520525501
 11
13.0244256757
 21
4.5520525501
  0
LINE
  5
299
100
AcDbEntity
  8
ALL_ASSEMBLY_MEMBERS
100
AcDbLine
 62
7
  6
CONTINUOUS
 10
4.6234256757
 20
5.2491298897
 11
4.6594256757
 21
5.2450498936
  0
LINE
  5
29A
100
AcDbEntity
  8
ALL_ASSEMBLY_MEMBERS
100
AcDbLine
 62
7
  6
CONTINUOUS
 10
4.5082740049
 20
5.2574939999
 11
4.5082256757
 21
5.2575024677
  0
LINE
  5
29B
100
AcDbEntity
  8
ALL_ASSEMBLY_MEMBERS
100
AcDbLine
 62
7
  6
CONTINUOUS
 10
7.9169256757
 20
7.1678525501
 11
7.9169256757
 21
7.1952417197
  0
LINE
  5
29C
100
AcDbEntity
  8
ALL_ASSEMBLY_MEMBERS
100
AcDbLine
 62
7
  6
CONTINUOUS
 10
8.0919256757
 20
4.9508557116
 11
8.0919255169
 21
7.0591510051
  0
LINE
  5
29D
100
AcDbEntity
  8
ALL_ASSEMBLY_MEMBERS
100
AcDbLine
 62
7
  6
CONTINUOUS
 10
7.7344256765
 20
7.1678525501
 11
7.7344372314
 21
7.1684264383
  0
LINE
  5
29E
100
AcDbEntity
  8
ALL_ASSEMBLY_MEMBERS
100
AcDbLine
 62
7
  6
CONTINUOUS
 10
7.7348100507
 20
7.1828504358
 11
7.7344333056
 21
7.1684264422
  0
LINE
  5
29F
100
AcDbEntity
  8
ALL_ASSEMBLY_MEMBERS
100
AcDbLine
 62
9
  6
CONTINUOUS
 10
8.8419256757
 20
4.9508557116
 11
8.0919256757
 21
4.9508557116
  0
LINE
  5
2A0
100
AcDbEntity
  8
ALL_ASSEMBLY_MEMBERS
100
AcDbLine
 62
7
  6
CONTINUOUS
 10
12.283658451
 20
4.9620525501
 11
11.9094256757
 21
4.9620525501
  0
LINE
  5
2A1
100
AcDbEntity
  8
ALL_ASSEMBLY_MEMBERS
100
AcDbLine
 62
7
  6
CONTINUOUS
 10
4.283658451
 20
4.9620525501
 11
3.9094256757
 21
4.9620525501
  0
LINE
  5
2A2
100
AcDbEntity
  8
ALL_ASSEMBLY_MEMBERS
100
AcDbLine
 62
7
  6
CONTINUOUS
 10
4.6501929004
 20
4.9620525501
 11
5.0244256757
 21
4.9620525501
  0
LINE
  5
2A3
100
AcDbEntity
  8
ALL_ASSEMBLY_MEMBERS
100
AcDbLine
 62
7
  6
CONTINUOUS
 10
12.6501929004
 20
4.9620525501
 11
13.0244256757
 21
4.9620525501
  0
LINE
  5
2A4
100
AcDbEntity
  8
ALL_ASSEMBLY_MEMBERS
100
AcDbLine
 62
7
  6
CONTINUOUS
 10
3.9394256757
 20
5.0420525501
 11
4.9944256757
 21
5.0420525501
  0
LINE
  5
2A5
100
AcDbEntity
  8
ALL_ASSEMBLY_MEMBERS
100
AcDbLine
 62
7
  6
CONTINUOUS
 10
11.9394256757
 20
5.0420525501
 11
12.9944256757
 21
5.0420525501
  0
LINE
  5
2A6
100
AcDbEntity
  8
ALL_ASSEMBLY_MEMBERS
100
AcDbLine
 62
7
  6
CONTINUOUS
 10
3.9662724632
 20
5.0575525501
 11
4.9675788882
 21
5.0575525501
  0
LINE
  5
2A7
100
AcDbEntity
  8
ALL_ASSEMBLY_MEMBERS
100
AcDbLine
 62
7
  6
CONTINUOUS
 10
11.9662724632
 20
5.0575525501
 11
12.9675788882
 21
5.0575525501
  0
LINE
  5
2A8
100
AcDbEntity
  8
ALL_ASSEMBLY_MEMBERS
100
AcDbLine
 62
7
  6
CONTINUOUS
 10
3.9394256757
 20
5.0730525501
 11
4.9944256757
 21
5.0730525501
  0
LINE
  5
2A9
100
AcDbEntity
  8
ALL_ASSEMBLY_MEMBERS
100
AcDbLine
 62
7
  6
CONTINUOUS
 10
11.9394256757
 20
5.0730525501
 11
12.9944256757
 21
5.0730525501
  0
LINE
  5
2AA
100
AcDbEntity
  8
ALL_ASSEMBLY_MEMBERS
100
AcDbLine
 62
7
  6
CONTINUOUS
 10
3.9394256757
 20
5.1443366472
 11
4.9944256757
 21
5.1443366472
  0
LINE
  5
2AB
100
AcDbEntity
  8
ALL_ASSEMBLY_MEMBERS
100
AcDbLine
 62
7
  6
CONTINUOUS
 10
11.9394256757
 20
5.1443366472
 11
12.9944256757
 21
5.1443366472
  0
LINE
  5
2AC
100
AcDbEntity
  8
ALL_ASSEMBLY_MEMBERS
100
AcDbLine
 62
7
  6
CONTINUOUS
 10
3.9536915234
 20
5.1639719022
 11
4.9801598279
 21
5.1639719022
  0
LINE
  5
2AD
100
AcDbEntity
  8
ALL_ASSEMBLY_MEMBERS
100
AcDbLine
 62
7
  6
CONTINUOUS
 10
11.9536915234
 20
5.1639719022
 11
12.9801598279
 21
5.1639719022
  0
LINE
  5
2AE
100
AcDbEntity
  8
ALL_ASSEMBLY_MEMBERS
100
AcDbLine
 62
7
  6
CONTINUOUS
 10
4.0124210451
 20
5.1830525501
 11
4.9214303062
 21
5.1830525501
  0
LINE
  5
2AF
100
AcDbEntity
  8
ALL_ASSEMBLY_MEMBERS
100
AcDbLine
 62
7
  6
CONTINUOUS
 10
12.0124210451
 20
5.1830525501
 11
12.9214303062
 21
5.1830525501
  0
LINE
  5
2B0
100
AcDbEntity
  8
ALL_ASSEMBLY_MEMBERS
100
AcDbLine
 62
9
  6
CONTINUOUS
 10
12.8620703322
 20
5.2068618434
 11
12.0717810191
 21
5.2068618434
  0
LINE
  5
2B1
100
AcDbEntity
  8
ALL_ASSEMBLY_MEMBERS
100
AcDbLine
 62
9
  6
CONTINUOUS
 10
4.8620703322
 20
5.2068618434
 11
4.0717810191
 21
5.2068618434
  0
LINE
  5
2B2
100
AcDbEntity
  8
ALL_ASSEMBLY_MEMBERS
100
AcDbLine
 62
7
  6
CONTINUOUS
 10
8.4469256757
 20
7.1808944376
 11
8.4469256757
 21
7.1262070528
  0
LINE
  5
2B3
100
AcDbEntity
  8
ALL_ASSEMBLY_MEMBERS
100
AcDbLine
 62
7
  6
CONTINUOUS
 10
8.4469256757
 20
7.2237472053
 11
8.4469256757
 21
7.2441689809
  0
LINE
  5
2B4
100
AcDbEntity
  8
ALL_ASSEMBLY_MEMBERS
100
AcDbLine
 62
9
  6
CONTINUOUS
 10
8.4669256757
 20
8.9689613339
 11
8.4669256757
 21
7.2950498403
  0
LINE
  5
2B5
100
AcDbEntity
  8
ALL_ASSEMBLY_MEMBERS
100
AcDbLine
 62
9
  6
CONTINUOUS
 10
8.4669256757
 20
7.040655262
 11
8.4669256757
 21
4.9508557116
  0
LINE
  5
2B6
100
AcDbEntity
  8
ALL_ASSEMBLY_MEMBERS
100
AcDbLine
 62
7
  6
CONTINUOUS
 10
8.4869256757
 20
7.1808944376
 11
8.4869256757
 21
7.1262070528
  0
LINE
  5
2B7
100
AcDbEntity
  8
ALL_ASSEMBLY_MEMBERS
100
AcDbLine
 62
7
  6
CONTINUOUS
 10
8.4869256757
 20
7.2237472053
 11
8.4869256757
 21
7.2441689809
  0
LINE
  5
2B8
100
AcDbEntity
  8
ALL_ASSEMBLY_MEMBERS
100
AcDbLine
 62
7
  6
CONTINUOUS
 10
11.9394256757
 20
4.4730525501
 11
12.0964256757
 21
4.4220525501
  0
LINE
  5
2B9
100
AcDbEntity
  8
ALL_ASSEMBLY_MEMBERS
100
AcDbLine
 62
7
  6
CONTINUOUS
 10
8.8419258345
 20
7.0591510052
 11
8.8419256757
 21
4.9508557116
  0
LINE
  5
2BA
100
AcDbEntity
  8
ALL_ASSEMBLY_MEMBERS
100
AcDbLine
 62
7
  6
CONTINUOUS
 10
4.9944256757
 20
4.4730525501
 11
4.8374256757
 21
4.4220525501
  0
LINE
  5
2BB
100
AcDbEntity
  8
ALL_ASSEMBLY_MEMBERS
100
AcDbLine
 62
7
  6
CONTINUOUS
 10
4.4231581811
 20
5.2564276762
 11
4.4232256757
 21
5.2564362674
  0
LINE
  5
2BC
100
AcDbEntity
  8
ALL_ASSEMBLY_MEMBERS
100
AcDbLine
 62
7
  6
CONTINUOUS
 10
12.6669256757
 20
5.2440923826
 11
12.703207556
 21
5.2389333924
  0
LINE
  5
2BD
100
AcDbEntity
  8
ALL_ASSEMBLY_MEMBERS
100
AcDbLine
 62
7
  6
CONTINUOUS
 10
9.1994180562
 20
7.1684260508
 11
9.1990415831
 21
7.1828394188
  0
LINE
  5
2BE
100
AcDbEntity
  8
ALL_ASSEMBLY_MEMBERS
100
AcDbLine
 62
7
  6
CONTINUOUS
 10
9.1994140575
 20
7.1684260468
 11
9.1994256748
 21
7.16785255
  0
LINE
  5
2BF
100
AcDbEntity
  8
ALL_ASSEMBLY_MEMBERS
100
AcDbLine
 62
7
  6
CONTINUOUS
 10
9.0169256757
 20
7.1678525501
 11
9.0169256757
 21
7.1952417197
  0
LINE
  5
2C0
100
AcDbEntity
  8
ALL_ASSEMBLY_MEMBERS
100
AcDbLine
 62
7
  6
CONTINUOUS
 10
9.2752160525
 20
6.4410525501
 11
9.1905623923
 21
6.4410525501
  0
LINE
  5
2C1
100
AcDbEntity
  8
ALL_ASSEMBLY_MEMBERS
100
AcDbLine
 62
7
  6
CONTINUOUS
 10
7.6586352988
 20
6.4410525501
 11
7.7432888468
 21
6.4410525501
  0
LINE
  5
2C2
100
AcDbEntity
  8
ALL_ASSEMBLY_MEMBERS
100
AcDbLine
 62
7
  6
CONTINUOUS
 10
12.7875865956
 20
5.2245337537
 11
12.7875543738
 21
5.2245426446
  0
LINE
  5
2C3
100
AcDbEntity
  8
ALL_ASSEMBLY_MEMBERS
100
AcDbLine
 62
7
  6
CONTINUOUS
 10
12.9214356318
 20
5.1830525501
 11
12.9801598279
 21
5.1639719022
  0
LINE
  5
2C4
100
AcDbEntity
  8
ALL_ASSEMBLY_MEMBERS
100
AcDbLine
 62
7
  6
CONTINUOUS
 10
11.9394256757
 20
5.0730525501
 11
11.9662724632
 21
5.0575525501
  0
LINE
  5
2C5
100
AcDbEntity
  8
ALL_ASSEMBLY_MEMBERS
100
AcDbLine
 62
7
  6
CONTINUOUS
 10
11.5242484527
 20
4.9248398457
 11
11.4421591957
 21
4.9823193623
  0
LINE
  5
2C6
100
AcDbEntity
  8
ALL_ASSEMBLY_MEMBERS
100
AcDbLine
 62
7
  6
CONTINUOUS
 10
12.2229738362
 20
4.1891850367
 11
12.2583291752
 21
4.1603175232
  0
LINE
  5
2C7
100
AcDbEntity
  8
ALL_ASSEMBLY_MEMBERS
100
AcDbLine
 62
7
  6
CONTINUOUS
 10
12.2760068448
 20
4.1891850367
 11
12.2847573865
 21
4.1820402492
  0
LINE
  5
2C8
100
AcDbEntity
  8
ALL_ASSEMBLY_MEMBERS
100
AcDbLine
 62
7
  6
CONTINUOUS
 10
12.2850797372
 20
4.2539458346
 11
12.2583291752
 21
4.275787577
  0
LINE
  5
2C9
100
AcDbEntity
  8
ALL_ASSEMBLY_MEMBERS
100
AcDbLine
 62
7
  6
CONTINUOUS
 10
9.9619256757
 20
2.3960525501
 11
9.9619256757
 21
3.035996037
  0
LINE
  5
2CA
100
AcDbEntity
  8
ALL_ASSEMBLY_MEMBERS
100
AcDbLine
 62
7
  6
CONTINUOUS
 10
12.0124157196
 20
5.1830525501
 11
11.9536915234
 21
5.1639719022
  0
LINE
  5
2CB
100
AcDbEntity
  8
ALL_ASSEMBLY_MEMBERS
100
AcDbLine
 62
7
  6
CONTINUOUS
 10
8.3938181695
 20
7.1847143241
 11
8.1711275476
 21
7.1460445034
  0
LINE
  5
2CC
100
AcDbEntity
  8
ALL_ASSEMBLY_MEMBERS
100
AcDbLine
 62
7
  6
CONTINUOUS
 10
8.5683174531
 20
7.2150158067
 11
8.6810656666
 21
7.2345943285
  0
LINE
  5
2CD
100
AcDbEntity
  8
ALL_ASSEMBLY_MEMBERS
100
AcDbLine
 62
7
  6
CONTINUOUS
 10
8.3655338982
 20
7.1896258363
 11
8.1428432763
 21
7.1509560156
  0
LINE
  5
2CE
100
AcDbEntity
  8
ALL_ASSEMBLY_MEMBERS
100
AcDbLine
 62
7
  6
CONTINUOUS
 10
8.5400331819
 20
7.2199273189
 11
8.6432115359
 21
7.237844052
  0
LINE
  5
2CF
100
AcDbEntity
  8
ALL_ASSEMBLY_MEMBERS
100
AcDbLine
 62
7
  6
CONTINUOUS
 10
8.3605821936
 20
7.1909126994
 11
8.0696228744
 21
7.1699847433
  0
LINE
  5
2D0
100
AcDbEntity
  8
ALL_ASSEMBLY_MEMBERS
100
AcDbLine
 62
7
  6
CONTINUOUS
 10
8.588576495
 20
7.2073117436
 11
8.7818185479
 21
7.2212111479
  0
LINE
  5
2D1
100
AcDbEntity
  8
ALL_ASSEMBLY_MEMBERS
100
AcDbLine
 62
7
  6
CONTINUOUS
 10
8.3452748563
 20
7.1973298993
 11
8.0543155371
 21
7.1764019432
  0
LINE
  5
2D2
100
AcDbEntity
  8
ALL_ASSEMBLY_MEMBERS
100
AcDbLine
 62
7
  6
CONTINUOUS
 10
8.5732691577
 20
7.2137289435
 11
8.7494997602
 21
7.2264047579
  0
LINE
  5
2D3
100
AcDbEntity
  8
ALL_ASSEMBLY_MEMBERS
100
AcDbLine
 62
7
  6
CONTINUOUS
 10
8.3435360489
 20
7.1988478579
 11
8.0647783906
 21
7.1988478579
  0
LINE
  5
2D4
100
AcDbEntity
  8
ALL_ASSEMBLY_MEMBERS
100
AcDbLine
 62
7
  6
CONTINUOUS
 10
8.5903153025
 20
7.1988478579
 11
8.8690729608
 21
7.1988478579
  0
LINE
  5
2D5
100
AcDbEntity
  8
ALL_ASSEMBLY_MEMBERS
100
AcDbLine
 62
7
  6
CONTINUOUS
 10
8.3435360489
 20
7.205793785
 11
8.0850423868
 21
7.205793785
  0
LINE
  5
2D6
100
AcDbEntity
  8
ALL_ASSEMBLY_MEMBERS
100
AcDbLine
 62
7
  6
CONTINUOUS
 10
8.5903153025
 20
7.205793785
 11
8.8488089646
 21
7.205793785
  0
LINE
  5
2D7
100
AcDbEntity
  8
ALL_ASSEMBLY_MEMBERS
100
AcDbLine
 62
7
  6
CONTINUOUS
 10
8.3452748563
 20
7.2073117436
 11
8.1520328035
 21
7.2212111479
  0
LINE
  5
2D8
100
AcDbEntity
  8
ALL_ASSEMBLY_MEMBERS
100
AcDbLine
 62
7
  6
CONTINUOUS
 10
8.5732691577
 20
7.1909126994
 11
8.8642284769
 21
7.1699847433
  0
LINE
  5
2D9
100
AcDbEntity
  8
ALL_ASSEMBLY_MEMBERS
100
AcDbLine
 62
7
  6
CONTINUOUS
 10
8.3605821936
 20
7.2137289435
 11
8.1843515912
 21
7.2264047579
  0
LINE
  5
2DA
100
AcDbEntity
  8
ALL_ASSEMBLY_MEMBERS
100
AcDbLine
 62
7
  6
CONTINUOUS
 10
8.588576495
 20
7.1973298993
 11
8.8795358142
 21
7.1764019432
  0
LINE
  5
2DB
100
AcDbEntity
  8
ALL_ASSEMBLY_MEMBERS
100
AcDbLine
 62
7
  6
CONTINUOUS
 10
8.3655338982
 20
7.2150158067
 11
8.2527856847
 21
7.2345943285
  0
LINE
  5
2DC
100
AcDbEntity
  8
ALL_ASSEMBLY_MEMBERS
100
AcDbLine
 62
7
  6
CONTINUOUS
 10
8.5400331819
 20
7.1847143241
 11
8.7627238038
 21
7.1460445034
  0
LINE
  5
2DD
100
AcDbEntity
  8
ALL_ASSEMBLY_MEMBERS
100
AcDbLine
 62
7
  6
CONTINUOUS
 10
8.3938181695
 20
7.2199273189
 11
8.2906398154
 21
7.237844052
  0
LINE
  5
2DE
100
AcDbEntity
  8
ALL_ASSEMBLY_MEMBERS
100
AcDbLine
 62
7
  6
CONTINUOUS
 10
8.5683174531
 20
7.1896258363
 11
8.791008075
 21
7.1509560156
  0
LINE
  5
2DF
100
AcDbEntity
  8
ALL_ASSEMBLY_MEMBERS
100
AcDbLine
 62
7
  6
CONTINUOUS
 10
8.4012289191
 20
7.2207871733
 11
8.3516387055
 21
7.2415765704
  0
LINE
  5
2E0
100
AcDbEntity
  8
ALL_ASSEMBLY_MEMBERS
100
AcDbLine
 62
7
  6
CONTINUOUS
 10
8.4956672509
 20
7.1811963784
 11
8.616186547
 21
7.1306718228
  0
LINE
  5
2E1
100
AcDbEntity
  8
ALL_ASSEMBLY_MEMBERS
100
AcDbLine
 62
7
  6
CONTINUOUS
 10
8.4381841004
 20
7.2234452646
 11
8.3912737573
 21
7.2431111962
  0
LINE
  5
2E2
100
AcDbEntity
  8
ALL_ASSEMBLY_MEMBERS
100
AcDbLine
 62
7
  6
CONTINUOUS
 10
8.5326224322
 20
7.1838544696
 11
8.6531417283
 21
7.1333299141
  0
LINE
  5
2E3
100
AcDbEntity
  8
ALL_ASSEMBLY_MEMBERS
100
AcDbLine
 62
7
  6
CONTINUOUS
 10
12.9675788882
 20
5.0575525501
 11
12.9944256757
 21
5.0420525501
  0
LINE
  5
2E4
100
AcDbEntity
  8
ALL_ASSEMBLY_MEMBERS
100
AcDbLine
 62
7
  6
CONTINUOUS
 10
12.6503019636
 20
4.1809097405
 11
12.6755221761
 21
4.1603175232
  0
LINE
  5
2E5
100
AcDbEntity
  8
ALL_ASSEMBLY_MEMBERS
100
AcDbLine
 62
7
  6
CONTINUOUS
 10
12.6578445066
 20
4.2469200636
 11
12.6499563515
 21
4.2533607152
  0
LINE
  5
2E6
100
AcDbEntity
  8
ALL_ASSEMBLY_MEMBERS
100
AcDbLine
 62
7
  6
CONTINUOUS
 10
12.7108775152
 20
4.2469200636
 11
12.6755221761
 21
4.275787577
  0
LINE
  5
2E7
100
AcDbEntity
  8
ALL_FEATURES
100
AcDbLine
 62
7
  6
CONTINUOUS
 10
13.4799256757
 20
2.7178206769
 11
13.6544409706
 21
2.5476586783
  0
LWPOLYLINE
  5
2E8
100
AcDbEntity
  8
ALL_ASSEMBLY_MEMBERS
100
AcDbPolyline
 62
7
  6
CONTINUOUS
 90
16
 70
0
 10
9.1570152383
 20
8.2708257959
 10
9.1491050297
 20
8.2918804733
 10
9.1336820873
 20
8.3320958483
 10
9.1171590733
 20
8.3739791335
 10
9.0994252217
 20
8.4176106506
 10
9.0804589832
 20
8.4628501771
 10
9.0603435035
 20
8.5093325484
 10
9.0390896632
 20
8.5568914986
 10
9.0166766242
 20
8.6054417613
 10
8.9931770187
 20
8.6547113226
 10
8.9686892385
 20
8.7044371619
 10
8.9432527335
 20
8.7545049352
 10
8.9168777332
 20
8.8048537156
 10
8.8896323523
 20
8.8553061357
 10
8.8616536977
 20
8.9055625561
 10
8.8429438768
 20
8.9383262417
  0
LINE
  5
2E9
100
AcDbEntity
  8
ALL_ASSEMBLY_MEMBERS
100
AcDbLine
 62
7
  6
CONTINUOUS
 10
13.4096028987
 20
4.5892652545
 11
13.4916921557
 21
4.5317857379
  0
LINE
  5
2EA
100
AcDbEntity
  8
ALL_ASSEMBLY_MEMBERS
100
AcDbLine
 62
7
  6
CONTINUOUS
 10
11.9662724632
 20
5.0575525501
 11
11.9394256757
 21
5.0420525501
  0
LINE
  5
2EB
100
AcDbEntity
  8
ALL_ASSEMBLY_MEMBERS
100
AcDbLine
 62
7
  6
CONTINUOUS
 10
12.9944256757
 20
4.4730525501
 11
12.8374256757
 21
4.4220525501
  0
LINE
  5
2EC
100
AcDbEntity
  8
ALL_FEATURES
100
AcDbLine
 62
7
  6
CONTINUOUS
 10
11.2794256757
 20
2.3960525501
 11
11.2794256757
 21
2.5476735917
  0
LINE
  5
2ED
100
AcDbEntity
  8
ALL_ASSEMBLY_MEMBERS
100
AcDbLine
 62
9
  6
CONTINUOUS
 10
11.4421591957
 20
4.5317857379
 11
11.4421591957
 21
4.9823193623
  0
LINE
  5
2EE
100
AcDbEntity
  8
ALL_ASSEMBLY_MEMBERS
100
AcDbLine
 62
7
  6
CONTINUOUS
 10
11.5242484527
 20
4.5892652545
 11
11.4421591957
 21
4.5317857379
  0
LINE
  5
2EF
100
AcDbEntity
  8
ALL_ASSEMBLY_MEMBERS
100
AcDbLine
 62
7
  6
CONTINUOUS
 10
12.9944256757
 20
5.0730525501
 11
12.9675788882
 21
5.0575525501
  0
LINE
  5
2F0
100
AcDbEntity
  8
ALL_ASSEMBLY_MEMBERS
100
AcDbLine
 62
7
  6
CONTINUOUS
 10
8.842935786
 20
8.9383339129
 11
8.8429438768
 21
8.9383262417
  0
LINE
  5
2F1
100
AcDbEntity
  8
ALL_ASSEMBLY_MEMBERS
100
AcDbLine
 62
7
  6
CONTINUOUS
 10
11.9094256757
 20
4.5520525501
 11
11.9394256757
 21
4.4730525501
  0
LINE
  5
2F2
100
AcDbEntity
  8
ALL_ASSEMBLY_MEMBERS
100
AcDbLine
 62
9
  6
CONTINUOUS
 10
11.5242484527
 20
4.5892652545
 11
11.5242484527
 21
4.9248398457
  0
LINE
  5
2F3
100
AcDbEntity
  8
ALL_ASSEMBLY_MEMBERS
100
AcDbLine
 62
7
  6
CONTINUOUS
 10
11.5494256757
 20
4.5679616604
 11
11.5494256757
 21
4.9461434398
  0
LINE
  5
2F4
100
AcDbEntity
  8
ALL_ASSEMBLY_MEMBERS
100
AcDbLine
 62
9
  6
CONTINUOUS
 10
11.5742888343
 20
4.5661352569
 11
11.5742888343
 21
4.9479698434
  0
LINE
  5
2F5
100
AcDbEntity
  8
ALL_ASSEMBLY_MEMBERS
100
AcDbLine
 62
7
  6
CONTINUOUS
 10
11.9536915234
 20
5.1639719022
 11
11.9394256757
 21
5.1443366472
  0
LINE
  5
2F6
100
AcDbEntity
  8
ALL_ASSEMBLY_MEMBERS
100
AcDbLine
 62
7
  6
CONTINUOUS
 10
13.4096028987
 20
4.9248398457
 11
13.4916921557
 21
4.9823193623
  0
LWPOLYLINE
  5
2F7
100
AcDbEntity
  8
ALL_ASSEMBLY_MEMBERS
100
AcDbPolyline
 62
7
  6
CONTINUOUS
 90
10
 70
0
 10
8.4669256757
 20
8.9689613358
 10
8.4447354667
 20
8.9688236415
 10
8.4011307192
 20
8.9677777297
 10
8.3564911382
 20
8.9657107129
 10
8.3105631991
 20
8.9626303435
 10
8.263505078
 20
8.9585891686
 10
8.2158774127
 20
8.9537225697
 10
8.1678035938
 20
8.9481675936
 10
8.1189776872
 20
8.9420264115
 10
8.0909154309
 20
8.9383338949
  0
LWPOLYLINE
  5
2F8
100
AcDbEntity
  8
ALL_ASSEMBLY_MEMBERS
100
AcDbPolyline
 62
7
  6
CONTINUOUS
 90
10
 70
0
 10
8.842935786
 20
8.9383339129
 10
8.8129329782
 20
8.9428609988
 10
8.7642581837
 20
8.949494582
 10
8.7161472639
 20
8.9551543636
 10
8.668498506
 20
8.9598469553
 10
8.6214770378
 20
8.9635566799
 10
8.5755221995
 20
8.9662709216
 10
8.5308088217
 20
8.9680230514
 10
8.4872388743
 20
8.968865762
 10
8.4669256757
 20
8.9689613339
  0
LINE
  5
2F9
100
AcDbEntity
  8
ALL_ASSEMBLY_MEMBERS
100
AcDbLine
 62
7
  6
CONTINUOUS
 10
12.9801598279
 20
5.1639719022
 11
12.9944256757
 21
5.1443366472
  0
LINE
  5
2FA
100
AcDbEntity
  8
ALL_ASSEMBLY_MEMBERS
100
AcDbLine
 62
9
  6
CONTINUOUS
 10
11.9357596546
 20
4.9121113263
 11
11.9357596628
 21
4.6019940379
  0
LINE
  5
2FB
100
AcDbEntity
  8
ALL_ASSEMBLY_MEMBERS
100
AcDbLine
 62
7
  6
CONTINUOUS
 10
11.9394256757
 20
5.1443366472
 11
11.9394256757
 21
5.0730525501
  0
LINE
  5
2FC
100
AcDbEntity
  8
ALL_ASSEMBLY_MEMBERS
100
AcDbLine
 62
9
  6
CONTINUOUS
 10
11.9579196952
 20
4.8542629396
 11
11.9579196959
 21
4.6598431301
  0
LINE
  5
2FD
100
AcDbEntity
  8
ALL_FEATURES
100
AcDbLine
 62
7
  6
CONTINUOUS
 10
12.0369256757
 20
4.0430525501
 11
12.0369256757
 21
3.9230525501
  0
LINE
  5
2FE
100
AcDbEntity
  8
ALL_ASSEMBLY_MEMBERS
100
AcDbLine
 62
7
  6
CONTINUOUS
 10
12.1234256757
 20
4.4220525501
 11
12.1234256757
 21
4.0630525501
  0
LINE
  5
2FF
100
AcDbEntity
  8
ALL_ASSEMBLY_MEMBERS
100
AcDbLine
 62
7
  6
CONTINUOUS
 10
12.1589256757
 20
5.2261362249
 11
12.1589256757
 21
5.2271565678
  0
LINE
  5
300
100
AcDbEntity
  8
ALL_ASSEMBLY_MEMBERS
100
AcDbLine
 62
9
  6
CONTINUOUS
 10
12.1648946932
 20
5.2270251878
 11
12.1648946932
 21
5.2280449342
  0
LINE
  5
301
100
AcDbEntity
  8
ALL_ASSEMBLY_MEMBERS
100
AcDbLine
 62
9
  6
CONTINUOUS
 10
12.198213441
 20
5.2324113742
 11
12.198213441
 21
5.2334275213
  0
LINE
  5
302
100
AcDbEntity
  8
ALL_ASSEMBLY_MEMBERS
100
AcDbLine
 62
7
  6
CONTINUOUS
 10
12.2229738362
 20
4.2469200636
 11
12.2229738362
 21
4.1891850367
  0
LINE
  5
303
100
AcDbEntity
  8
ALL_ASSEMBLY_MEMBERS
100
AcDbLine
 62
7
  6
CONTINUOUS
 10
12.2693755641
 20
5.2443771384
 11
12.2693755641
 21
5.2452302028
  0
LINE
  5
304
100
AcDbEntity
  8
ALL_ASSEMBLY_MEMBERS
100
AcDbLine
 62
7
  6
CONTINUOUS
 10
12.2760068448
 20
4.2469200636
 11
12.2760068448
 21
4.1891850367
  0
LINE
  5
305
100
AcDbEntity
  8
ALL_ASSEMBLY_MEMBERS
100
AcDbLine
 62
7
  6
CONTINUOUS
 10
12.3432256757
 20
5.2521075804
 11
12.3432256757
 21
5.2531107795
  0
LINE
  5
306
100
AcDbEntity
  8
ALL_FEATURES
100
AcDbLine
 62
7
  6
CONTINUOUS
 10
11.9669256757
 20
3.9230525501
 11
11.8914156955
 21
3.5302443999
  0
LINE
  5
307
100
AcDbEntity
  8
ALL_ASSEMBLY_MEMBERS
100
AcDbLine
 62
7
  6
CONTINUOUS
 10
11.9394256757
 20
5.0420525501
 11
11.9094256757
 21
4.9620525501
  0
LINE
  5
308
100
AcDbEntity
  8
ALL_ASSEMBLY_MEMBERS
100
AcDbLine
 62
7
  6
CONTINUOUS
 10
12.2583291752
 20
4.275787577
 11
12.2229738362
 21
4.2469200636
  0
LINE
  5
309
100
AcDbEntity
  8
ALL_ASSEMBLY_MEMBERS
100
AcDbLine
 62
7
  6
CONTINUOUS
 10
12.2848456795
 20
4.2541369419
 11
12.2760068448
 21
4.2469200636
  0
LINE
  5
30A
100
AcDbEntity
  8
ALL_ASSEMBLY_MEMBERS
100
AcDbLine
 62
7
  6
CONTINUOUS
 10
12.2583291752
 20
4.1603175232
 11
12.2846820745
 21
4.1818345754
  0
LINE
  5
30B
100
AcDbEntity
  8
ALL_ASSEMBLY_MEMBERS
100
AcDbLine
 62
7
  6
CONTINUOUS
 10
12.6755221761
 20
4.275787577
 11
12.6511884084
 21
4.2559191389
  0
LINE
  5
30C
100
AcDbEntity
  8
ALL_ASSEMBLY_MEMBERS
100
AcDbLine
 62
7
  6
CONTINUOUS
 10
12.649649075
 20
4.1824934948
 11
12.6578445066
 21
4.1891850367
  0
LINE
  5
30D
100
AcDbEntity
  8
ALL_ASSEMBLY_MEMBERS
100
AcDbLine
 62
7
  6
CONTINUOUS
 10
12.6755221761
 20
4.1603175232
 11
12.7108775152
 21
4.1891850367
  0
LINE
  5
30E
100
AcDbEntity
  8
ALL_ASSEMBLY_MEMBERS
100
AcDbLine
 62
7
  6
CONTINUOUS
 10
12.4282256757
 20
5.2565692461
 11
12.4282256757
 21
5.2575695578
  0
LINE
  5
30F
100
AcDbEntity
  8
ALL_FEATURES
100
AcDbLine
 62
7
  6
CONTINUOUS
 10
12.4669256757
 20
3.9230525501
 11
12.4669256757
 21
3.5302443999
  0
LINE
  5
310
100
AcDbEntity
  8
ALL_FEATURES
100
AcDbLine
 62
7
  6
CONTINUOUS
 10
12.4669256757
 20
2.7178206769
 11
12.4669256757
 21
2.7027997929
  0
LINE
  5
311
100
AcDbEntity
  8
ALL_ASSEMBLY_MEMBERS
100
AcDbLine
 62
7
  6
CONTINUOUS
 10
12.4769256757
 20
5.2556888664
 11
12.4769256757
 21
5.2568200122
  0
LINE
  5
312
100
AcDbEntity
  8
ALL_ASSEMBLY_MEMBERS
100
AcDbLine
 62
7
  6
CONTINUOUS
 10
12.4984256757
 20
5.2575750145
 11
12.4984256757
 21
5.2577267195
  0
LINE
  5
313
100
AcDbEntity
  8
ALL_ASSEMBLY_MEMBERS
100
AcDbLine
 62
7
  6
CONTINUOUS
 10
12.4984256757
 20
5.2563971167
 11
12.4984256757
 21
5.2573975396
  0
LINE
  5
314
100
AcDbEntity
  8
ALL_ASSEMBLY_MEMBERS
100
AcDbLine
 62
7
  6
CONTINUOUS
 10
12.5344256757
 20
5.2552462804
 11
12.5344256757
 21
5.2565827305
  0
LINE
  5
315
100
AcDbEntity
  8
ALL_ASSEMBLY_MEMBERS
100
AcDbLine
 62
9
  6
CONTINUOUS
 10
12.5644256757
 20
5.2527298788
 11
12.5644256757
 21
5.2537326742
  0
LINE
  5
316
100
AcDbEntity
  8
ALL_ASSEMBLY_MEMBERS
100
AcDbLine
 62
9
  6
CONTINUOUS
 10
12.5884256757
 20
5.2510283535
 11
12.5884256757
 21
5.2520322536
  0
LINE
  5
317
100
AcDbEntity
  8
ALL_ASSEMBLY_MEMBERS
100
AcDbLine
 62
9
  6
CONTINUOUS
 10
12.6140908656
 20
5.2493093317
 11
12.6140908656
 21
5.2503143502
  0
LINE
  5
318
100
AcDbEntity
  8
ALL_ASSEMBLY_MEMBERS
100
AcDbLine
 62
7
  6
CONTINUOUS
 10
12.6273706124
 20
5.2485080323
 11
12.6273706124
 21
5.249513573
  0
LINE
  5
319
100
AcDbEntity
  8
ALL_ASSEMBLY_MEMBERS
100
AcDbLine
 62
7
  6
CONTINUOUS
 10
12.6569256757
 20
5.2440192832
 11
12.6569256757
 21
5.2451590128
  0
LINE
  5
31A
100
AcDbEntity
  8
ALL_ASSEMBLY_MEMBERS
100
AcDbLine
 62
7
  6
CONTINUOUS
 10
12.6578445066
 20
4.1891850367
 11
12.6578445066
 21
4.2469200636
  0
LINE
  5
31B
100
AcDbEntity
  8
ALL_ASSEMBLY_MEMBERS
100
AcDbLine
 62
7
  6
CONTINUOUS
 10
12.6669256757
 20
5.2434370089
 11
12.6669256757
 21
5.2451008108
  0
LINE
  5
31C
100
AcDbEntity
  8
ALL_ASSEMBLY_MEMBERS
100
AcDbLine
 62
7
  6
CONTINUOUS
 10
12.703207556
 20
5.2379455127
 11
12.703207556
 21
5.2399451863
  0
LINE
  5
31D
100
AcDbEntity
  8
ALL_ASSEMBLY_MEMBERS
100
AcDbLine
 62
9
  6
CONTINUOUS
 10
12.709207556
 20
5.2367796862
 11
12.709207556
 21
5.237792933
  0
LINE
  5
31E
100
AcDbEntity
  8
ALL_ASSEMBLY_MEMBERS
100
AcDbLine
 62
7
  6
CONTINUOUS
 10
12.7108775152
 20
4.1891850367
 11
12.7108775152
 21
4.2469200636
  0
LINE
  5
31F
100
AcDbEntity
  8
ALL_ASSEMBLY_MEMBERS
100
AcDbLine
 62
9
  6
CONTINUOUS
 10
12.7370704638
 20
5.2321047881
 11
12.7370704638
 21
5.2331211395
  0
LINE
  5
320
100
AcDbEntity
  8
ALL_FEATURES
100
AcDbLine
 62
7
  6
CONTINUOUS
 10
11.2794103808
 20
2.5476586783
 11
11.4539256757
 21
2.7178206769
  0
LINE
  5
321
100
AcDbEntity
  8
ALL_ASSEMBLY_MEMBERS
100
AcDbLine
 62
7
  6
CONTINUOUS
 10
12.9944256757
 20
5.0420525501
 11
13.0244256757
 21
4.9620525501
  0
LINE
  5
322
100
AcDbEntity
  8
ALL_FEATURES
100
AcDbLine
 62
7
  6
CONTINUOUS
 10
12.9669256757
 20
3.9230525501
 11
13.0424356559
 21
3.5302443999
  0
LINE
  5
323
100
AcDbEntity
  8
ALL_ASSEMBLY_MEMBERS
100
AcDbLine
 62
9
  6
CONTINUOUS
 10
12.7826056816
 20
5.2242968273
 11
12.7826056816
 21
5.2253184066
  0
LINE
  5
324
100
AcDbEntity
  8
ALL_ASSEMBLY_MEMBERS
100
AcDbLine
 62
7
  6
CONTINUOUS
 10
12.7875865956
 20
5.2235116457
 11
12.7875865956
 21
5.2245337536
  0
LINE
  5
325
100
AcDbEntity
  8
ALL_ASSEMBLY_MEMBERS
100
AcDbLine
 62
7
  6
CONTINUOUS
 10
12.8104256757
 20
4.4220525501
 11
12.8104256757
 21
4.0630525501
  0
LINE
  5
326
100
AcDbEntity
  8
ALL_FEATURES
100
AcDbLine
 62
7
  6
CONTINUOUS
 10
12.8969256757
 20
4.0430525501
 11
12.8969256757
 21
3.9230525501
  0
LINE
  5
327
100
AcDbEntity
  8
ALL_ASSEMBLY_MEMBERS
100
AcDbLine
 62
9
  6
CONTINUOUS
 10
12.9759316561
 20
4.6598432291
 11
12.9759316555
 21
4.8542628196
  0
LINE
  5
328
100
AcDbEntity
  8
ALL_ASSEMBLY_MEMBERS
100
AcDbLine
 62
7
  6
CONTINUOUS
 10
12.9944256757
 20
5.1443366472
 11
12.9944256757
 21
5.0730525501
  0
LINE
  5
329
100
AcDbEntity
  8
ALL_ASSEMBLY_MEMBERS
100
AcDbLine
 62
9
  6
CONTINUOUS
 10
12.9980916967
 20
4.6019940602
 11
12.9980916886
 21
4.9121112635
  0
LINE
  5
32A
100
AcDbEntity
  8
ALL_ASSEMBLY_MEMBERS
100
AcDbLine
 62
7
  6
CONTINUOUS
 10
13.0244256757
 20
4.5520525501
 11
12.9944256757
 21
4.4730525501
  0
LINE
  5
32B
100
AcDbEntity
  8
ALL_ASSEMBLY_MEMBERS
100
AcDbLine
 62
9
  6
CONTINUOUS
 10
13.3595625171
 20
4.5661352569
 11
13.3595625171
 21
4.9479698434
  0
LINE
  5
32C
100
AcDbEntity
  8
ALL_ASSEMBLY_MEMBERS
100
AcDbLine
 62
7
  6
CONTINUOUS
 10
13.3844256757
 20
4.5679616604
 11
13.3844256757
 21
4.9461434398
  0
LINE
  5
32D
100
AcDbEntity
  8
ALL_ASSEMBLY_MEMBERS
100
AcDbLine
 62
9
  6
CONTINUOUS
 10
13.4096028987
 20
4.5892652545
 11
13.4096028987
 21
4.9248398457
  0
LINE
  5
32E
100
AcDbEntity
  8
ALL_ASSEMBLY_MEMBERS
100
AcDbLine
 62
9
  6
CONTINUOUS
 10
13.4916921557
 20
4.5317857379
 11
13.4916921557
 21
4.9823193623
  0
LINE
  5
32F
100
AcDbEntity
  8
ALL_FEATURES
100
AcDbLine
 62
7
  6
CONTINUOUS
 10
13.6544256757
 20
2.3960525501
 11
13.6544256757
 21
2.5476735917
  0
ARC
  5
330
100
AcDbEntity
  8
ALL_FEATURES
100
AcDbCircle
 62
7
  6
CONTINUOUS
 10
2.3781222967
 20
3.8211465987
 40
1.541
100
AcDbArc
 50
314.2763891045
 51
349.1186996529
  0
ARC
  5
331
100
AcDbEntity
  8
ALL_ASSEMBLY_MEMBERS
100
AcDbCircle
 62
7
  6
CONTINUOUS
 10
-3.6571464091
 20
6.9614674014
 40
11.3278253039
100
AcDbArc
 50
353.4954147759
 51
353.9652471606
  0
ARC
  5
332
100
AcDbEntity
  8
ALL_ASSEMBLY_MEMBERS
100
AcDbCircle
 62
7
  6
CONTINUOUS
 10
-3.5990971157
 20
6.9560383426
 40
11.2695269576
100
AcDbArc
 50
353.9616687099
 51
357.3808263309
  0
ARC
  5
333
100
AcDbEntity
  8
ALL_ASSEMBLY_MEMBERS
100
AcDbCircle
 62
7
  6
CONTINUOUS
 10
4.4669256757
 20
3.7073825347
 40
1.5506700155
100
AcDbArc
 50
75.2369687319
 51
82.8689119537
  0
ARC
  5
334
100
AcDbEntity
  8
ALL_ASSEMBLY_MEMBERS
100
AcDbCircle
 62
7
  6
CONTINUOUS
 10
4.4669256757
 20
3.7073825347
 40
1.5506700155
100
AcDbArc
 50
99.221599439
 51
104.7630312681
  0
ARC
  5
335
100
AcDbEntity
  8
ALL_ASSEMBLY_MEMBERS
100
AcDbCircle
 62
7
  6
CONTINUOUS
 10
4.4669256757
 20
3.7073825347
 40
1.5506700155
100
AcDbArc
 50
92.9572365879
 51
94.3827348818
  0
ARC
  5
336
100
AcDbEntity
  8
ALL_ASSEMBLY_MEMBERS
100
AcDbCircle
 62
7
  6
CONTINUOUS
 10
4.4669256757
 20
3.7073825347
 40
1.5506700155
100
AcDbArc
 50
84.2076123619
 51
87.1537528796
  0
ARC
  5
337
100
AcDbEntity
  8
ALL_ASSEMBLY_MEMBERS
100
AcDbCircle
 62
7
  6
CONTINUOUS
 10
4.4669256757
 20
3.7073825347
 40
1.5506700155
100
AcDbArc
 50
88.473823884
 51
91.6148871629
  0
ARC
  5
338
100
AcDbEntity
  8
ALL_ASSEMBLY_MEMBERS
100
AcDbCircle
 62
7
  6
CONTINUOUS
 10
4.4669256757
 20
3.7073825347
 40
1.5506648564
100
AcDbArc
 50
96.0895968736
 51
97.5036381507
  0
ARC
  5
339
100
AcDbEntity
  8
ALL_ASSEMBLY_MEMBERS
100
AcDbCircle
 62
7
  6
CONTINUOUS
 10
4.4669256757
 20
3.7073825347
 40
1.5496700155
100
AcDbArc
 50
94.3855685892
 51
95.8705803471
  0
ARC
  5
33A
100
AcDbEntity
  8
ALL_ASSEMBLY_MEMBERS
100
AcDbCircle
 62
7
  6
CONTINUOUS
 10
4.4669256757
 20
3.7073825347
 40
1.5496700155
100
AcDbArc
 50
97.7347778199
 51
99.2217090667
  0
ARC
  5
33B
100
AcDbEntity
  8
ALL_ASSEMBLY_MEMBERS
100
AcDbCircle
 62
7
  6
CONTINUOUS
 10
4.4669256757
 20
3.7073825347
 40
1.5496700155
100
AcDbArc
 50
91.6159295237
 51
92.3340349546
  0
ARC
  5
33C
100
AcDbEntity
  8
ALL_ASSEMBLY_MEMBERS
100
AcDbCircle
 62
7
  6
CONTINUOUS
 10
4.4669256757
 20
3.7073825347
 40
1.5496700155
100
AcDbArc
 50
87.7888246493
 51
88.4728388114
  0
ARC
  5
33D
100
AcDbEntity
  8
ALL_ASSEMBLY_MEMBERS
100
AcDbCircle
 62
7
  6
CONTINUOUS
 10
4.4669256757
 20
3.7073825347
 40
1.5483386247
100
AcDbArc
 50
93.777213052
 51
96.4896869064
  0
ARC
  5
33E
100
AcDbEntity
  8
ALL_ASSEMBLY_MEMBERS
100
AcDbCircle
 62
7
  6
CONTINUOUS
 10
4.4669256757
 20
3.7073825347
 40
1.5483386247
100
AcDbArc
 50
97.123234868
 51
99.8547584824
  0
ARC
  5
33F
100
AcDbEntity
  8
ALL_ASSEMBLY_MEMBERS
100
AcDbCircle
 62
7
  6
CONTINUOUS
 10
4.4669256757
 20
3.7073825347
 40
1.5483386247
100
AcDbArc
 50
82.167640832
 51
84.8865685068
  0
ARC
  5
340
100
AcDbEntity
  8
ALL_FEATURES
100
AcDbCircle
 62
7
  6
CONTINUOUS
 10
5.5589256757
 20
2.4160525501
 40
0.035
100
AcDbArc
 50
270.0
 51
325.1179564063
  0
ARC
  5
341
100
AcDbEntity
  8
ALL_FEATURES
100
AcDbCircle
 62
7
  6
CONTINUOUS
 10
3.3749256757
 20
2.4160525501
 40
0.035
100
AcDbArc
 50
214.8820435936
 51
270.0
  0
ARC
  5
342
100
AcDbEntity
  8
ALL_ASSEMBLY_MEMBERS
100
AcDbCircle
 62
7
  6
CONTINUOUS
 10
3.7570497167
 20
4.3955525501
 40
0.25
100
AcDbArc
 50
47.7235811409
 51
136.9739483152
  0
ARC
  5
343
100
AcDbEntity
  8
ALL_ASSEMBLY_MEMBERS
100
AcDbCircle
 62
7
  6
CONTINUOUS
 10
4.1716542858
 20
4.2180676951
 40
0.1196262958
100
AcDbArc
 50
355.2160562275
 51
357.2807424062
  0
ARC
  5
344
100
AcDbEntity
  8
ALL_ASSEMBLY_MEMBERS
100
AcDbCircle
 62
7
  6
CONTINUOUS
 10
4.171685816
 20
4.2180650268
 40
0.1195946529
100
AcDbArc
 50
354.9650753069
 51
355.216070362
  0
ARC
  5
345
100
AcDbEntity
  8
ALL_ASSEMBLY_MEMBERS
100
AcDbCircle
 62
7
  6
CONTINUOUS
 10
4.1718628141
 20
4.2180586575
 40
0.1194175736
100
AcDbArc
 50
357.2803271355
 51
359.32649856
  0
ARC
  5
346
100
AcDbEntity
  8
ALL_ASSEMBLY_MEMBERS
100
AcDbCircle
 62
7
  6
CONTINUOUS
 10
4.1719500344
 20
4.2180500767
 40
0.1193303273
100
AcDbArc
 50
0.2626971885
 51
3.2409962192
  0
ARC
  5
347
100
AcDbEntity
  8
ALL_ASSEMBLY_MEMBERS
100
AcDbCircle
 62
7
  6
CONTINUOUS
 10
4.1722302843
 20
4.2180532866
 40
0.1190500656
100
AcDbArc
 50
359.3270043985
 51
0.2617707601
  0
ARC
  5
348
100
AcDbEntity
  8
ALL_ASSEMBLY_MEMBERS
100
AcDbCircle
 62
7
  6
CONTINUOUS
 10
4.1922457732
 20
4.2277705856
 40
0.0966380198
100
AcDbArc
 50
35.5959246712
 51
36.1275381608
  0
ARC
  5
349
100
AcDbEntity
  8
ALL_ASSEMBLY_MEMBERS
100
AcDbCircle
 62
7
  6
CONTINUOUS
 10
4.2191100909
 20
4.2363723287
 40
0.0672583496
100
AcDbArc
 50
40.7536638979
 51
45.0571253094
  0
ARC
  5
34A
100
AcDbEntity
  8
ALL_ASSEMBLY_MEMBERS
100
AcDbCircle
 62
7
  6
CONTINUOUS
 10
4.2396467218
 20
4.2515628589
 40
0.0485396494
100
AcDbArc
 50
101.6232959728
 51
107.2818045588
  0
ARC
  5
34B
100
AcDbEntity
  8
ALL_ASSEMBLY_MEMBERS
100
AcDbCircle
 62
7
  6
CONTINUOUS
 10
4.2393396688
 20
4.2529728264
 40
0.0470967346
100
AcDbArc
 50
96.9716753556
 51
101.6030019136
  0
ARC
  5
34C
100
AcDbEntity
  8
ALL_ASSEMBLY_MEMBERS
100
AcDbCircle
 62
7
  6
CONTINUOUS
 10
4.231238508
 20
4.2556016401
 40
0.044149518
100
AcDbArc
 50
86.9940886621
 51
96.2104478419
  0
ARC
  5
34D
100
AcDbEntity
  8
ALL_ASSEMBLY_MEMBERS
100
AcDbCircle
 62
7
  6
CONTINUOUS
 10
4.2312319598
 20
4.2556203446
 40
0.0441311832
100
AcDbArc
 50
81.255917332
 51
86.9843252921
  0
ARC
  5
34E
100
AcDbEntity
  8
ALL_ASSEMBLY_MEMBERS
100
AcDbCircle
 62
7
  6
CONTINUOUS
 10
4.2491170642
 20
4.2440004839
 40
0.039169757
100
AcDbArc
 50
100.2857599793
 51
106.2983349561
  0
ARC
  5
34F
100
AcDbEntity
  8
ALL_ASSEMBLY_MEMBERS
100
AcDbCircle
 62
7
  6
CONTINUOUS
 10
4.2489231974
 20
4.2451123643
 40
0.0380411295
100
AcDbArc
 50
94.1889905696
 51
100.2974832556
  0
ARC
  5
350
100
AcDbEntity
  8
ALL_ASSEMBLY_MEMBERS
100
AcDbCircle
 62
7
  6
CONTINUOUS
 10
4.2461269716
 20
4.2453450593
 40
0.0378077523
100
AcDbArc
 50
84.6280278972
 51
88.1627514769
  0
ARC
  5
351
100
AcDbEntity
  8
ALL_ASSEMBLY_MEMBERS
100
AcDbCircle
 62
7
  6
CONTINUOUS
 10
4.2461363144
 20
4.2455704627
 40
0.0375821653
100
AcDbArc
 50
88.1659703995
 51
90.0072307124
  0
ARC
  5
352
100
AcDbEntity
  8
ALL_ASSEMBLY_MEMBERS
100
AcDbCircle
 62
7
  6
CONTINUOUS
 10
4.2615801151
 20
4.2467142319
 40
0.0365895948
100
AcDbArc
 50
112.6009655726
 51
112.8791341631
  0
ARC
  5
353
100
AcDbEntity
  8
ALL_ASSEMBLY_MEMBERS
100
AcDbCircle
 62
7
  6
CONTINUOUS
 10
4.2609674819
 20
4.2483073943
 40
0.0348833709
100
AcDbArc
 50
102.1260026745
 51
112.6776445582
  0
ARC
  5
354
100
AcDbEntity
  8
ALL_ASSEMBLY_MEMBERS
100
AcDbCircle
 62
7
  6
CONTINUOUS
 10
4.2583330506
 20
4.2489850555
 40
0.0310674949
100
AcDbArc
 50
90.0071471896
 51
95.0548480164
  0
ARC
  5
355
100
AcDbEntity
  8
ALL_ASSEMBLY_MEMBERS
100
AcDbCircle
 62
7
  6
CONTINUOUS
 10
4.2583272435
 20
4.2490082596
 40
0.0310442906
100
AcDbArc
 50
83.7458876617
 51
89.9964348151
  0
ARC
  5
356
100
AcDbEntity
  8
ALL_ASSEMBLY_MEMBERS
100
AcDbCircle
 62
7
  6
CONTINUOUS
 10
4.2569154575
 20
4.1822514468
 40
0.0293228058
100
AcDbArc
 50
284.0170141384
 51
285.1163398969
  0
ARC
  5
357
100
AcDbEntity
  8
ALL_ASSEMBLY_MEMBERS
100
AcDbCircle
 62
7
  6
CONTINUOUS
 10
4.2571188822
 20
4.1813311558
 40
0.0283806575
100
AcDbArc
 50
272.8967482878
 51
284.0685675019
  0
ARC
  5
358
100
AcDbEntity
  8
ALL_ASSEMBLY_MEMBERS
100
AcDbCircle
 62
7
  6
CONTINUOUS
 10
4.260007175
 20
4.1813181848
 40
0.0283676405
100
AcDbArc
 50
256.1295104749
 51
267.0571464245
  0
ARC
  5
359
100
AcDbEntity
  8
ALL_ASSEMBLY_MEMBERS
100
AcDbCircle
 62
7
  6
CONTINUOUS
 10
4.2571790592
 20
4.180563365
 40
0.0276108149
100
AcDbArc
 50
270.0022017205
 51
272.8525504992
  0
ARC
  5
35A
100
AcDbEntity
  8
ALL_ASSEMBLY_MEMBERS
100
AcDbCircle
 62
7
  6
CONTINUOUS
 10
3.5334256757
 20
4.5761588218
 40
0.016
100
AcDbArc
 50
0.0
 51
125.0
  0
ARC
  5
35B
100
AcDbEntity
  8
ALL_ASSEMBLY_MEMBERS
100
AcDbCircle
 62
7
  6
CONTINUOUS
 10
3.5625921378
 20
4.5770525501
 40
0.016
100
AcDbArc
 50
214.6234510997
 51
316.9739483152
  0
ARC
  5
35C
100
AcDbEntity
  8
ALL_ASSEMBLY_MEMBERS
100
AcDbCircle
 62
7
  6
CONTINUOUS
 10
3.2844256757
 20
4.7570525501
 40
0.275
100
AcDbArc
 50
55.0
 51
305.0
  0
ARC
  5
35D
100
AcDbEntity
  8
ALL_ASSEMBLY_MEMBERS
100
AcDbCircle
 62
7
  6
CONTINUOUS
 10
3.7570497167
 20
5.1185525501
 40
0.25
100
AcDbArc
 50
223.0260516848
 51
312.2764321242
  0
ARC
  5
35E
100
AcDbEntity
  8
ALL_ASSEMBLY_MEMBERS
100
AcDbCircle
 62
7
  6
CONTINUOUS
 10
4.0794256757
 20
5.1778522031
 40
0.03
100
AcDbArc
 50
104.7630312681
 51
170.0159018876
  0
ARC
  5
35F
100
AcDbEntity
  8
ALL_ASSEMBLY_MEMBERS
100
AcDbCircle
 62
7
  6
CONTINUOUS
 10
3.5334256757
 20
4.9379462784
 40
0.016
100
AcDbArc
 50
235.0
 51
360.0
  0
ARC
  5
360
100
AcDbEntity
  8
ALL_ASSEMBLY_MEMBERS
100
AcDbCircle
 62
7
  6
CONTINUOUS
 10
3.5625921378
 20
4.9370525501
 40
0.016
100
AcDbArc
 50
43.0260516848
 51
145.3765489003
  0
ARC
  5
361
100
AcDbEntity
  8
ALL_ASSEMBLY_MEMBERS
100
AcDbCircle
 62
7
  6
CONTINUOUS
 10
4.7621925323
 20
4.2180680115
 40
0.1196218103
100
AcDbArc
 50
183.5508657839
 51
184.5850623747
  0
ARC
  5
362
100
AcDbEntity
  8
ALL_ASSEMBLY_MEMBERS
100
AcDbCircle
 62
7
  6
CONTINUOUS
 10
4.7621839188
 20
4.2180381233
 40
0.1196131291
100
AcDbArc
 50
174.6634547961
 51
177.4857301775
  0
ARC
  5
363
100
AcDbEntity
  8
ALL_ASSEMBLY_MEMBERS
100
AcDbCircle
 62
7
  6
CONTINUOUS
 10
4.7621624509
 20
4.2180662429
 40
0.1195916774
100
AcDbArc
 50
182.7275729929
 51
183.5508920449
  0
ARC
  5
364
100
AcDbEntity
  8
ALL_ASSEMBLY_MEMBERS
100
AcDbCircle
 62
7
  6
CONTINUOUS
 10
4.762105914
 20
4.2180417456
 40
0.1195350405
100
AcDbArc
 50
177.4858245375
 51
177.7627759336
  0
ARC
  5
365
100
AcDbEntity
  8
ALL_ASSEMBLY_MEMBERS
100
AcDbCircle
 62
7
  6
CONTINUOUS
 10
4.7620789574
 20
4.2180622689
 40
0.1195080893
100
AcDbArc
 50
182.0441550414
 51
182.7275747712
  0
ARC
  5
366
100
AcDbEntity
  8
ALL_ASSEMBLY_MEMBERS
100
AcDbCircle
 62
7
  6
CONTINUOUS
 10
4.7619385028
 20
4.2180475873
 40
0.1193675289
100
AcDbArc
 50
177.7624409354
 51
179.34881274
  0
ARC
  5
367
100
AcDbEntity
  8
ALL_ASSEMBLY_MEMBERS
100
AcDbCircle
 62
7
  6
CONTINUOUS
 10
4.7618925752
 20
4.2180560273
 40
0.1193216032
100
AcDbArc
 50
180.7528144159
 51
182.0443521524
  0
ARC
  5
368
100
AcDbEntity
  8
ALL_ASSEMBLY_MEMBERS
100
AcDbCircle
 62
7
  6
CONTINUOUS
 10
4.7617225759
 20
4.2180509033
 40
0.1191515782
100
AcDbArc
 50
179.3492270935
 51
179.492282534
  0
ARC
  5
369
100
AcDbEntity
  8
ALL_ASSEMBLY_MEMBERS
100
AcDbCircle
 62
7
  6
CONTINUOUS
 10
4.7616798358
 20
4.2180526803
 40
0.1191088381
100
AcDbArc
 50
180.4190014918
 51
180.7525490902
  0
ARC
  5
36A
100
AcDbEntity
  8
ALL_ASSEMBLY_MEMBERS
100
AcDbCircle
 62
7
  6
CONTINUOUS
 10
4.7615989014
 20
4.2180518752
 40
0.1190278999
100
AcDbArc
 50
179.4922228227
 51
180.4188988623
  0
ARC
  5
36B
100
AcDbEntity
  8
ALL_ASSEMBLY_MEMBERS
100
AcDbCircle
 62
7
  6
CONTINUOUS
 10
4.7608846091
 20
4.2181941952
 40
0.1183049481
100
AcDbArc
 50
166.1109402704
 51
174.6800316103
  0
ARC
  5
36C
100
AcDbEntity
  8
ALL_ASSEMBLY_MEMBERS
100
AcDbCircle
 62
7
  6
CONTINUOUS
 10
4.7594141881
 20
4.2185358066
 40
0.1167955194
100
AcDbArc
 50
162.5481958072
 51
166.1004714385
  0
ARC
  5
36D
100
AcDbEntity
  8
ALL_ASSEMBLY_MEMBERS
100
AcDbCircle
 62
7
  6
CONTINUOUS
 10
4.7453615792
 20
4.2206176012
 40
0.1025095907
100
AcDbArc
 50
162.5147920785
 51
163.0863519997
  0
ARC
  5
36E
100
AcDbEntity
  8
ALL_ASSEMBLY_MEMBERS
100
AcDbCircle
 62
7
  6
CONTINUOUS
 10
4.7417823438
 20
4.2276430286
 40
0.0968559997
100
AcDbArc
 50
143.8768770011
 51
144.5756293112
  0
ARC
  5
36F
100
AcDbEntity
  8
ALL_ASSEMBLY_MEMBERS
100
AcDbCircle
 62
7
  6
CONTINUOUS
 10
4.6317631235
 20
4.2180519444
 40
0.0875996756
100
AcDbArc
 50
0.6571031419
 51
2.0857653944
  0
ARC
  5
370
100
AcDbEntity
  8
ALL_ASSEMBLY_MEMBERS
100
AcDbCircle
 62
7
  6
CONTINUOUS
 10
4.6317736804
 20
4.2180529197
 40
0.0875891169
100
AcDbArc
 50
358.0716458518
 51
359.8566552125
  0
ARC
  5
371
100
AcDbEntity
  8
ALL_ASSEMBLY_MEMBERS
100
AcDbCircle
 62
7
  6
CONTINUOUS
 10
4.6317921161
 20
4.2180521723
 40
0.0875706664
100
AcDbArc
 50
357.8613415962
 51
358.0717287068
  0
ARC
  5
372
100
AcDbEntity
  8
ALL_ASSEMBLY_MEMBERS
100
AcDbCircle
 62
7
  6
CONTINUOUS
 10
4.6318048946
 20
4.2180533973
 40
0.0875578793
100
AcDbArc
 50
2.0858101384
 51
2.2188740554
  0
ARC
  5
373
100
AcDbEntity
  8
ALL_ASSEMBLY_MEMBERS
100
AcDbCircle
 62
7
  6
CONTINUOUS
 10
4.6318212469
 20
4.2180525167
 40
0.0875415495
100
AcDbArc
 50
359.8568410994
 51
0.6571649227
  0
ARC
  5
374
100
AcDbEntity
  8
ALL_ASSEMBLY_MEMBERS
100
AcDbCircle
 62
7
  6
CONTINUOUS
 10
4.7196713497
 20
4.2252395441
 40
0.076218631
100
AcDbArc
 50
157.53650653
 51
161.8444244958
  0
ARC
  5
375
100
AcDbEntity
  8
ALL_ASSEMBLY_MEMBERS
100
AcDbCircle
 62
7
  6
CONTINUOUS
 10
4.7153799991
 20
4.2234603434
 40
0.0719568434
100
AcDbArc
 50
153.1695582927
 51
157.5204299638
  0
ARC
  5
376
100
AcDbEntity
  8
ALL_ASSEMBLY_MEMBERS
100
AcDbCircle
 62
7
  6
CONTINUOUS
 10
4.6988531535
 20
4.1934192797
 40
0.0478563793
100
AcDbArc
 50
237.3900063375
 51
238.6032643776
  0
ARC
  5
377
100
AcDbEntity
  8
ALL_ASSEMBLY_MEMBERS
100
AcDbCircle
 62
7
  6
CONTINUOUS
 10
4.6766884625
 20
4.1908058804
 40
0.0378536841
100
AcDbArc
 50
264.5191704749
 51
267.8403554799
  0
ARC
  5
378
100
AcDbEntity
  8
ALL_ASSEMBLY_MEMBERS
100
AcDbCircle
 62
7
  6
CONTINUOUS
 10
4.6981490604
 20
4.2618915959
 40
0.0378522348
100
AcDbArc
 50
86.7537874102
 51
96.635124586
  0
ARC
  5
379
100
AcDbEntity
  8
ALL_ASSEMBLY_MEMBERS
100
AcDbCircle
 62
7
  6
CONTINUOUS
 10
4.6766720734
 20
4.1904347143
 40
0.0374821642
100
AcDbArc
 50
267.8440095749
 51
269.9987124607
  0
ARC
  5
37A
100
AcDbEntity
  8
ALL_ASSEMBLY_MEMBERS
100
AcDbCircle
 62
7
  6
CONTINUOUS
 10
4.6945336518
 20
4.2630481712
 40
0.0370087358
100
AcDbArc
 50
76.724610648
 51
82.5756387265
  0
ARC
  5
37B
100
AcDbEntity
  8
ALL_ASSEMBLY_MEMBERS
100
AcDbCircle
 62
7
  6
CONTINUOUS
 10
4.6723010697
 20
4.2467840917
 40
0.0365136405
100
AcDbArc
 50
67.0687688959
 51
68.0232961128
  0
ARC
  5
37C
100
AcDbEntity
  8
ALL_ASSEMBLY_MEMBERS
100
AcDbCircle
 62
7
  6
CONTINUOUS
 10
4.6727408653
 20
4.2479180223
 40
0.035297525
100
AcDbArc
 50
67.9964933458
 51
74.0977912705
  0
ARC
  5
37D
100
AcDbEntity
  8
ALL_ASSEMBLY_MEMBERS
100
AcDbCircle
 62
7
  6
CONTINUOUS
 10
4.6730546258
 20
4.2489693584
 40
0.0342004563
100
AcDbArc
 50
74.1207276285
 51
76.8723140276
  0
ARC
  5
37E
100
AcDbEntity
  8
ALL_ASSEMBLY_MEMBERS
100
AcDbCircle
 62
7
  6
CONTINUOUS
 10
4.675551049
 20
4.1875088686
 40
0.0314565931
100
AcDbArc
 50
255.6816693295
 51
269.9474098138
  0
ARC
  5
37F
100
AcDbEntity
  8
ALL_ASSEMBLY_MEMBERS
100
AcDbCircle
 62
7
  6
CONTINUOUS
 10
4.6755226425
 20
4.2491147064
 40
0.0309378437
100
AcDbArc
 50
90.0008637735
 51
91.8758373949
  0
ARC
  5
380
100
AcDbEntity
  8
ALL_ASSEMBLY_MEMBERS
100
AcDbCircle
 62
7
  6
CONTINUOUS
 10
4.6755221616
 20
4.2491679925
 40
0.0308845577
100
AcDbArc
 50
89.5859869195
 51
89.9999730348
  0
ARC
  5
381
100
AcDbEntity
  8
ALL_ASSEMBLY_MEMBERS
100
AcDbCircle
 62
7
  6
CONTINUOUS
 10
4.6882025925
 20
4.253102905
 40
0.0301044569
100
AcDbArc
 50
104.8250458898
 51
111.527223704
  0
ARC
  5
382
100
AcDbEntity
  8
ALL_ASSEMBLY_MEMBERS
100
AcDbCircle
 62
7
  6
CONTINUOUS
 10
4.6877854513
 20
4.2547242329
 40
0.0284303695
100
AcDbArc
 50
92.6476553686
 51
104.848405727
  0
ARC
  5
383
100
AcDbEntity
  8
ALL_ASSEMBLY_MEMBERS
100
AcDbCircle
 62
7
  6
CONTINUOUS
 10
4.684914158
 20
4.2549990249
 40
0.0281540092
100
AcDbArc
 50
80.6566577034
 51
86.8246740875
  0
ARC
  5
384
100
AcDbEntity
  8
ALL_ASSEMBLY_MEMBERS
100
AcDbCircle
 62
7
  6
CONTINUOUS
 10
4.6877247134
 20
4.2554924537
 40
0.0276601744
100
AcDbArc
 50
90.0102199141
 51
92.5954845976
  0
ARC
  5
385
100
AcDbEntity
  8
ALL_ASSEMBLY_MEMBERS
100
AcDbCircle
 62
7
  6
CONTINUOUS
 10
5.1768016346
 20
4.3955525501
 40
0.25
100
AcDbArc
 50
43.0260516848
 51
132.276418804
  0
ARC
  5
386
100
AcDbEntity
  8
ALL_ASSEMBLY_MEMBERS
100
AcDbCircle
 62
7
  6
CONTINUOUS
 10
5.4004256757
 20
4.5761588218
 40
0.016
100
AcDbArc
 50
55.0
 51
180.0
  0
ARC
  5
387
100
AcDbEntity
  8
ALL_ASSEMBLY_MEMBERS
100
AcDbCircle
 62
7
  6
CONTINUOUS
 10
5.3712592136
 20
4.5770525501
 40
0.016
100
AcDbArc
 50
223.0260516848
 51
325.3765489003
  0
CIRCLE
  5
388
100
AcDbEntity
  8
ALL_ASSEMBLY_MEMBERS
100
AcDbCircle
 62
7
  6
CONTINUOUS
 10
4.4669256757
 20
4.7570525501
 40
0.275
  0
ARC
  5
389
100
AcDbEntity
  8
ALL_ASSEMBLY_MEMBERS
100
AcDbCircle
 62
7
  6
CONTINUOUS
 10
5.6494256757
 20
4.7570525501
 40
0.275
100
AcDbArc
 50
235.0
 51
125.0
  0
ARC
  5
38A
100
AcDbEntity
  8
ALL_ASSEMBLY_MEMBERS
100
AcDbCircle
 62
7
  6
CONTINUOUS
 10
5.1768016346
 20
5.1185525501
 40
0.25
100
AcDbArc
 50
227.7235680858
 51
316.9739483152
  0
ARC
  5
38B
100
AcDbEntity
  8
ALL_ASSEMBLY_MEMBERS
100
AcDbCircle
 62
7
  6
CONTINUOUS
 10
4.8544256757
 20
5.1778522031
 40
0.03
100
AcDbArc
 50
9.9840981124
 51
75.2369687319
  0
ARC
  5
38C
100
AcDbEntity
  8
ALL_ASSEMBLY_MEMBERS
100
AcDbCircle
 62
7
  6
CONTINUOUS
 10
5.4004256757
 20
4.9379462784
 40
0.016
100
AcDbArc
 50
180.0
 51
305.0
  0
ARC
  5
38D
100
AcDbEntity
  8
ALL_ASSEMBLY_MEMBERS
100
AcDbCircle
 62
7
  6
CONTINUOUS
 10
5.3712592136
 20
4.9370525501
 40
0.016
100
AcDbArc
 50
34.6234510997
 51
136.9739483152
  0
ARC
  5
38E
100
AcDbEntity
  8
ALL_ASSEMBLY_MEMBERS
100
AcDbCircle
 62
7
  6
CONTINUOUS
 10
8.4656524402
 20
4.0899320152
 40
3.1773343717
100
AcDbArc
 50
89.9770401813
 51
93.020021988
  0
ARC
  5
38F
100
AcDbEntity
  8
ALL_ASSEMBLY_MEMBERS
100
AcDbCircle
 62
7
  6
CONTINUOUS
 10
8.4501644368
 20
4.4245895072
 40
2.8423264973
100
AcDbArc
 50
93.0636623929
 51
93.4090053135
  0
ARC
  5
390
100
AcDbEntity
  8
ALL_FEATURES
100
AcDbCircle
 62
7
  6
CONTINUOUS
 10
6.5557290547
 20
3.8211465987
 40
1.541
100
AcDbArc
 50
190.8813003471
 51
225.7236108955
  0
ARC
  5
391
100
AcDbEntity
  8
ALL_ASSEMBLY_MEMBERS
100
AcDbCircle
 62
7
  6
CONTINUOUS
 10
8.4669241544
 20
9.651290596
 40
2.5251627352
100
AcDbArc
 50
269.5462310656
 51
270.0000345186
  0
ARC
  5
392
100
AcDbEntity
  8
ALL_ASSEMBLY_MEMBERS
100
AcDbCircle
 62
7
  6
CONTINUOUS
 10
8.4669322375
 20
9.6500176081
 40
2.5238897473
100
AcDbArc
 50
269.9998510372
 51
270.4538833787
  0
ARC
  5
393
100
AcDbEntity
  8
ALL_ASSEMBLY_MEMBERS
100
AcDbCircle
 62
7
  6
CONTINUOUS
 10
8.4444622405
 20
9.1517453014
 40
2.0250470601
100
AcDbArc
 50
265.3617921683
 51
266.4101014579
  0
ARC
  5
394
100
AcDbEntity
  8
ALL_ASSEMBLY_MEMBERS
100
AcDbCircle
 62
7
  6
CONTINUOUS
 10
8.3166284651
 20
8.0678479616
 40
0.933216016
100
AcDbArc
 50
259.2676242629
 51
261.0302235039
  0
ARC
  5
395
100
AcDbEntity
  8
ALL_ASSEMBLY_MEMBERS
100
AcDbCircle
 62
7
  6
CONTINUOUS
 10
4.1855872572
 20
6.0436615851
 40
0.8037316205
100
AcDbArc
 50
276.2476753382
 51
276.3818740072
  0
ARC
  5
396
100
AcDbEntity
  8
ALL_ASSEMBLY_MEMBERS
100
AcDbCircle
 62
7
  6
CONTINUOUS
 10
8.4661122984
 20
6.5415787155
 40
0.6824382573
100
AcDbArc
 50
91.6110723117
 51
92.3454354288
  0
ARC
  5
397
100
AcDbEntity
  8
ALL_ASSEMBLY_MEMBERS
100
AcDbCircle
 62
7
  6
CONTINUOUS
 10
8.4659509322
 20
7.858391166
 40
0.6777638064
100
AcDbArc
 50
267.6520321316
 51
268.3914601278
  0
ARC
  5
398
100
AcDbEntity
  8
ALL_ASSEMBLY_MEMBERS
100
AcDbCircle
 62
7
  6
CONTINUOUS
 10
8.4467115808
 20
6.7964247874
 40
0.4267928152
100
AcDbArc
 50
96.1175409481
 51
97.1191011202
  0
ARC
  5
399
100
AcDbEntity
  8
ALL_ASSEMBLY_MEMBERS
100
AcDbCircle
 62
7
  6
CONTINUOUS
 10
8.4456021741
 20
7.5986553127
 40
0.4171675026
100
AcDbArc
 50
262.8693440682
 51
263.8940138637
  0
ARC
  5
39A
100
AcDbEntity
  8
ALL_ASSEMBLY_MEMBERS
100
AcDbCircle
 62
7
  6
CONTINUOUS
 10
8.3981043697
 20
7.0795180669
 40
0.1393573576
100
AcDbArc
 50
103.5161281314
 51
105.6197309679
  0
ARC
  5
39B
100
AcDbEntity
  8
ALL_ASSEMBLY_MEMBERS
100
AcDbCircle
 62
7
  6
CONTINUOUS
 10
8.3964440258
 20
7.3187347599
 40
0.1327574862
100
AcDbArc
 50
254.3279737284
 51
256.5361671723
  0
ARC
  5
39C
100
AcDbEntity
  8
ALL_ASSEMBLY_MEMBERS
100
AcDbCircle
 62
7
  6
CONTINUOUS
 10
15.3417312029
 20
-12.9785093054
 40
18.4800698333
100
AcDbArc
 50
99.5700714214
 51
99.7931909233
  0
ARC
  5
39D
100
AcDbEntity
  8
ALL_ASSEMBLY_MEMBERS
100
AcDbCircle
 62
7
  6
CONTINUOUS
 10
8.4681989112
 20
4.0899320152
 40
3.1773343717
100
AcDbArc
 50
86.979978012
 51
90.0229598187
  0
ARC
  5
39E
100
AcDbEntity
  8
ALL_FEATURES
100
AcDbCircle
 62
7
  6
CONTINUOUS
 10
10.3781222967
 20
3.8211465987
 40
1.541
100
AcDbArc
 50
314.2763891045
 51
349.1186996529
  0
ARC
  5
39F
100
AcDbEntity
  8
ALL_ASSEMBLY_MEMBERS
100
AcDbCircle
 62
7
  6
CONTINUOUS
 10
9.9693889601
 20
2.9928768806
 40
0.5980269054
100
AcDbArc
 50
230.4539868233
 51
233.2352746778
  0
ARC
  5
3A0
100
AcDbEntity
  8
ALL_ASSEMBLY_MEMBERS
100
AcDbCircle
 62
7
  6
CONTINUOUS
 10
13.238576909
 20
-0.5097794414
 40
5.8352092756
100
AcDbArc
 50
99.4138995318
 51
99.5594306455
  0
ARC
  5
3A1
100
AcDbEntity
  8
ALL_FEATURES
100
AcDbCircle
 62
7
  6
CONTINUOUS
 10
11.3749256757
 20
2.4160525501
 40
0.035
100
AcDbArc
 50
214.8820435936
 51
270.0
  0
ARC
  5
3A2
100
AcDbEntity
  8
ALL_ASSEMBLY_MEMBERS
100
AcDbCircle
 62
7
  6
CONTINUOUS
 10
12.4280191143
 20
3.942579198
 40
1.3122756632
100
AcDbArc
 50
96.2161846784
 51
96.9435817286
  0
ARC
  5
3A3
100
AcDbEntity
  8
ALL_ASSEMBLY_MEMBERS
100
AcDbCircle
 62
7
  6
CONTINUOUS
 10
12.1716542858
 20
4.2180676951
 40
0.1196262958
100
AcDbArc
 50
355.2160562275
 51
357.2807424061
  0
ARC
  5
3A4
100
AcDbEntity
  8
ALL_ASSEMBLY_MEMBERS
100
AcDbCircle
 62
7
  6
CONTINUOUS
 10
12.1716858157
 20
4.2180650268
 40
0.1195946532
100
AcDbArc
 50
354.9650753074
 51
355.2160703618
  0
ARC
  5
3A5
100
AcDbEntity
  8
ALL_ASSEMBLY_MEMBERS
100
AcDbCircle
 62
7
  6
CONTINUOUS
 10
12.1718628141
 20
4.2180586575
 40
0.1194175736
100
AcDbArc
 50
357.2803271356
 51
359.32649856
  0
ARC
  5
3A6
100
AcDbEntity
  8
ALL_ASSEMBLY_MEMBERS
100
AcDbCircle
 62
7
  6
CONTINUOUS
 10
12.1719500344
 20
4.2180500767
 40
0.1193303273
100
AcDbArc
 50
0.2626971885
 51
3.2409962192
  0
ARC
  5
3A7
100
AcDbEntity
  8
ALL_ASSEMBLY_MEMBERS
100
AcDbCircle
 62
7
  6
CONTINUOUS
 10
12.1722302844
 20
4.2180532866
 40
0.1190500656
100
AcDbArc
 50
359.3270043984
 51
0.2617707601
  0
ARC
  5
3A8
100
AcDbEntity
  8
ALL_ASSEMBLY_MEMBERS
100
AcDbCircle
 62
7
  6
CONTINUOUS
 10
12.1922457731
 20
4.2277705855
 40
0.0966380199
100
AcDbArc
 50
35.5959246716
 51
36.1275381604
  0
ARC
  5
3A9
100
AcDbEntity
  8
ALL_ASSEMBLY_MEMBERS
100
AcDbCircle
 62
7
  6
CONTINUOUS
 10
12.2191100909
 20
4.2363723287
 40
0.0672583496
100
AcDbArc
 50
40.7536638979
 51
45.0571253094
  0
ARC
  5
3AA
100
AcDbEntity
  8
ALL_ASSEMBLY_MEMBERS
100
AcDbCircle
 62
7
  6
CONTINUOUS
 10
12.2396467218
 20
4.2515628589
 40
0.0485396494
100
AcDbArc
 50
101.6232959728
 51
107.2818045589
  0
ARC
  5
3AB
100
AcDbEntity
  8
ALL_ASSEMBLY_MEMBERS
100
AcDbCircle
 62
7
  6
CONTINUOUS
 10
12.2393396688
 20
4.2529728264
 40
0.0470967346
100
AcDbArc
 50
96.9716753556
 51
101.6030019136
  0
ARC
  5
3AC
100
AcDbEntity
  8
ALL_ASSEMBLY_MEMBERS
100
AcDbCircle
 62
7
  6
CONTINUOUS
 10
12.231238508
 20
4.2556016401
 40
0.044149518
100
AcDbArc
 50
86.9940886621
 51
96.2104478419
  0
ARC
  5
3AD
100
AcDbEntity
  8
ALL_ASSEMBLY_MEMBERS
100
AcDbCircle
 62
7
  6
CONTINUOUS
 10
12.2312319598
 20
4.2556203446
 40
0.0441311832
100
AcDbArc
 50
81.255917332
 51
86.9843252921
  0
ARC
  5
3AE
100
AcDbEntity
  8
ALL_ASSEMBLY_MEMBERS
100
AcDbCircle
 62
7
  6
CONTINUOUS
 10
12.2491170642
 20
4.2440004839
 40
0.039169757
100
AcDbArc
 50
100.2857599794
 51
106.298334956
  0
ARC
  5
3AF
100
AcDbEntity
  8
ALL_ASSEMBLY_MEMBERS
100
AcDbCircle
 62
7
  6
CONTINUOUS
 10
12.2489231974
 20
4.2451123643
 40
0.0380411295
100
AcDbArc
 50
94.1889905696
 51
100.2974832556
  0
ARC
  5
3B0
100
AcDbEntity
  8
ALL_ASSEMBLY_MEMBERS
100
AcDbCircle
 62
7
  6
CONTINUOUS
 10
12.2461269716
 20
4.2453450593
 40
0.0378077523
100
AcDbArc
 50
84.6280278972
 51
88.1627514769
  0
ARC
  5
3B1
100
AcDbEntity
  8
ALL_ASSEMBLY_MEMBERS
100
AcDbCircle
 62
7
  6
CONTINUOUS
 10
12.2461363144
 20
4.2455704627
 40
0.0375821653
100
AcDbArc
 50
88.1659703997
 51
90.0072307124
  0
ARC
  5
3B2
100
AcDbEntity
  8
ALL_ASSEMBLY_MEMBERS
100
AcDbCircle
 62
7
  6
CONTINUOUS
 10
12.261580115
 20
4.2467142319
 40
0.0365895947
100
AcDbArc
 50
112.6009655724
 51
112.8791341634
  0
ARC
  5
3B3
100
AcDbEntity
  8
ALL_ASSEMBLY_MEMBERS
100
AcDbCircle
 62
7
  6
CONTINUOUS
 10
12.2609674819
 20
4.2483073943
 40
0.0348833709
100
AcDbArc
 50
102.1260026745
 51
112.6776445582
  0
ARC
  5
3B4
100
AcDbEntity
  8
ALL_ASSEMBLY_MEMBERS
100
AcDbCircle
 62
7
  6
CONTINUOUS
 10
12.2583330506
 20
4.2489850555
 40
0.0310674949
100
AcDbArc
 50
90.0071471897
 51
95.0548480163
  0
ARC
  5
3B5
100
AcDbEntity
  8
ALL_ASSEMBLY_MEMBERS
100
AcDbCircle
 62
7
  6
CONTINUOUS
 10
12.2583272435
 20
4.2490082596
 40
0.0310442906
100
AcDbArc
 50
83.7458876616
 51
89.9964348151
  0
ARC
  5
3B6
100
AcDbEntity
  8
ALL_ASSEMBLY_MEMBERS
100
AcDbCircle
 62
7
  6
CONTINUOUS
 10
12.2569154575
 20
4.1822514468
 40
0.0293228059
100
AcDbArc
 50
284.0170141388
 51
285.1163398966
  0
ARC
  5
3B7
100
AcDbEntity
  8
ALL_ASSEMBLY_MEMBERS
100
AcDbCircle
 62
7
  6
CONTINUOUS
 10
12.2571188822
 20
4.1813311558
 40
0.0283806575
100
AcDbArc
 50
272.8967482878
 51
284.0685675018
  0
ARC
  5
3B8
100
AcDbEntity
  8
ALL_ASSEMBLY_MEMBERS
100
AcDbCircle
 62
7
  6
CONTINUOUS
 10
12.260007175
 20
4.1813181848
 40
0.0283676405
100
AcDbArc
 50
256.129510475
 51
267.0571464244
  0
ARC
  5
3B9
100
AcDbEntity
  8
ALL_ASSEMBLY_MEMBERS
100
AcDbCircle
 62
7
  6
CONTINUOUS
 10
12.2571790592
 20
4.180563365
 40
0.0276108149
100
AcDbArc
 50
270.0022017205
 51
272.8525504992
  0
ARC
  5
3BA
100
AcDbEntity
  8
ALL_FEATURES
100
AcDbCircle
 62
7
  6
CONTINUOUS
 10
13.5589256757
 20
2.4160525501
 40
0.035
100
AcDbArc
 50
270.0
 51
325.1179564064
  0
ARC
  5
3BB
100
AcDbEntity
  8
ALL_ASSEMBLY_MEMBERS
100
AcDbCircle
 62
7
  6
CONTINUOUS
 10
12.4669256757
 20
3.7073825347
 40
1.5506700155
100
AcDbArc
 50
78.0669933483
 51
81.2354682492
  0
ARC
  5
3BC
100
AcDbEntity
  8
ALL_ASSEMBLY_MEMBERS
100
AcDbCircle
 62
7
  6
CONTINUOUS
 10
12.4669256757
 20
3.7073825347
 40
1.5506700155
100
AcDbArc
 50
91.4300766046
 51
94.5754586167
  0
ARC
  5
3BD
100
AcDbEntity
  8
ALL_ASSEMBLY_MEMBERS
100
AcDbCircle
 62
7
  6
CONTINUOUS
 10
12.4669256757
 20
3.7073825347
 40
1.5506700155
100
AcDbArc
 50
95.9223880643
 51
101.456409806
  0
ARC
  5
3BE
100
AcDbEntity
  8
ALL_ASSEMBLY_MEMBERS
100
AcDbCircle
 62
7
  6
CONTINUOUS
 10
12.4669256757
 20
3.7073825347
 40
1.5506700155
100
AcDbArc
 50
88.836024953
 51
90.1108472106
  0
ARC
  5
3BF
100
AcDbEntity
  8
ALL_ASSEMBLY_MEMBERS
100
AcDbCircle
 62
7
  6
CONTINUOUS
 10
12.4669256757
 20
3.7073825347
 40
1.5506700155
100
AcDbArc
 50
82.589547494
 51
87.505151011
  0
ARC
  5
3C0
100
AcDbEntity
  8
ALL_ASSEMBLY_MEMBERS
100
AcDbCircle
 62
7
  6
CONTINUOUS
 10
12.4669256757
 20
3.7073825347
 40
1.5506700155
100
AcDbArc
 50
75.2369687319
 51
76.6139015814
  0
ARC
  5
3C1
100
AcDbEntity
  8
ALL_ASSEMBLY_MEMBERS
100
AcDbCircle
 62
7
  6
CONTINUOUS
 10
12.4669256757
 20
3.7073825347
 40
1.5506700155
100
AcDbArc
 50
103.0445666344
 51
104.7630312681
  0
ARC
  5
3C2
100
AcDbEntity
  8
ALL_ASSEMBLY_MEMBERS
100
AcDbCircle
 62
7
  6
CONTINUOUS
 10
12.4669256757
 20
3.7073825347
 40
1.5496700155
100
AcDbArc
 50
77.4927834773
 51
78.0591795779
  0
ARC
  5
3C3
100
AcDbEntity
  8
ALL_ASSEMBLY_MEMBERS
100
AcDbCircle
 62
7
  6
CONTINUOUS
 10
12.4669256757
 20
3.7073825347
 40
1.5496700155
100
AcDbArc
 50
87.503540069
 51
88.835273738
  0
ARC
  5
3C4
100
AcDbEntity
  8
ALL_ASSEMBLY_MEMBERS
100
AcDbCircle
 62
7
  6
CONTINUOUS
 10
12.4669256757
 20
3.7073825347
 40
1.5496700155
100
AcDbArc
 50
101.4639028364
 51
102.1588830673
  0
ARC
  5
3C5
100
AcDbEntity
  8
ALL_ASSEMBLY_MEMBERS
100
AcDbCircle
 62
7
  6
CONTINUOUS
 10
12.4669256757
 20
3.7073825347
 40
1.5496700155
100
AcDbArc
 50
94.5784174525
 51
95.2141967489
  0
ARC
  5
3C6
100
AcDbEntity
  8
ALL_ASSEMBLY_MEMBERS
100
AcDbCircle
 62
7
  6
CONTINUOUS
 10
12.4669256757
 20
3.7073825347
 40
1.5496700155
100
AcDbArc
 50
90.8290115916
 51
91.430999623
  0
ARC
  5
3C7
100
AcDbEntity
  8
ALL_ASSEMBLY_MEMBERS
100
AcDbCircle
 62
7
  6
CONTINUOUS
 10
12.4669256757
 20
3.7073825347
 40
1.549469747
100
AcDbArc
 50
79.9593632588
 51
81.0040654587
  0
ARC
  5
3C8
100
AcDbEntity
  8
ALL_ASSEMBLY_MEMBERS
100
AcDbCircle
 62
7
  6
CONTINUOUS
 10
12.4669256757
 20
3.7073825347
 40
1.5494208609
100
AcDbArc
 50
85.5024540677
 51
86.3921798126
  0
ARC
  5
3C9
100
AcDbEntity
  8
ALL_ASSEMBLY_MEMBERS
100
AcDbCircle
 62
7
  6
CONTINUOUS
 10
12.4669256757
 20
3.7073825347
 40
1.5484689719
100
AcDbArc
 50
79.9528066769
 51
80.9982030894
  0
ARC
  5
3CA
100
AcDbEntity
  8
ALL_ASSEMBLY_MEMBERS
100
AcDbCircle
 62
7
  6
CONTINUOUS
 10
12.4669256757
 20
3.7073825347
 40
1.5484200542
100
AcDbArc
 50
85.49954113
 51
86.3898448421
  0
ARC
  5
3CB
100
AcDbEntity
  8
ALL_ASSEMBLY_MEMBERS
100
AcDbCircle
 62
7
  6
CONTINUOUS
 10
12.4669256757
 20
3.7073825347
 40
1.5483386247
100
AcDbArc
 50
84.0880697177
 51
89.6299506004
  0
ARC
  5
3CC
100
AcDbEntity
  8
ALL_ASSEMBLY_MEMBERS
100
AcDbCircle
 62
7
  6
CONTINUOUS
 10
12.4669256757
 20
3.7073825347
 40
1.5483386247
100
AcDbArc
 50
79.7882367111
 51
82.9513441199
  0
ARC
  5
3CD
100
AcDbEntity
  8
ALL_ASSEMBLY_MEMBERS
100
AcDbCircle
 62
7
  6
CONTINUOUS
 10
12.600015929
 20
4.0253122847
 40
1.2128078789
100
AcDbArc
 50
81.2093425106
 51
81.341125856
  0
ARC
  5
3CE
100
AcDbEntity
  8
ALL_ASSEMBLY_MEMBERS
100
AcDbCircle
 62
7
  6
CONTINUOUS
 10
12.4980113276
 20
4.1165323489
 40
1.1403421761
100
AcDbArc
 50
83.0535751546
 51
83.4864024216
  0
ARC
  5
3CF
100
AcDbEntity
  8
ALL_ASSEMBLY_MEMBERS
100
AcDbCircle
 62
7
  6
CONTINUOUS
 10
12.7621925322
 20
4.2180680115
 40
0.1196218102
100
AcDbArc
 50
183.5508657837
 51
184.585062375
  0
ARC
  5
3D0
100
AcDbEntity
  8
ALL_ASSEMBLY_MEMBERS
100
AcDbCircle
 62
7
  6
CONTINUOUS
 10
12.7621839189
 20
4.2180381233
 40
0.1196131292
100
AcDbArc
 50
174.6634547961
 51
177.4857301774
  0
ARC
  5
3D1
100
AcDbEntity
  8
ALL_ASSEMBLY_MEMBERS
100
AcDbCircle
 62
7
  6
CONTINUOUS
 10
12.762162451
 20
4.2180662429
 40
0.1195916775
100
AcDbArc
 50
182.7275729932
 51
183.5508920446
  0
ARC
  5
3D2
100
AcDbEntity
  8
ALL_ASSEMBLY_MEMBERS
100
AcDbCircle
 62
7
  6
CONTINUOUS
 10
12.7621059139
 20
4.2180417456
 40
0.1195350404
100
AcDbArc
 50
177.4858245369
 51
177.7627759334
  0
ARC
  5
3D3
100
AcDbEntity
  8
ALL_ASSEMBLY_MEMBERS
100
AcDbCircle
 62
7
  6
CONTINUOUS
 10
12.7620789574
 20
4.2180622689
 40
0.1195080893
100
AcDbArc
 50
182.0441550415
 51
182.7275747712
  0
ARC
  5
3D4
100
AcDbEntity
  8
ALL_ASSEMBLY_MEMBERS
100
AcDbCircle
 62
7
  6
CONTINUOUS
 10
12.7619385028
 20
4.2180475873
 40
0.1193675289
100
AcDbArc
 50
177.7624409353
 51
179.3488127402
  0
ARC
  5
3D5
100
AcDbEntity
  8
ALL_ASSEMBLY_MEMBERS
100
AcDbCircle
 62
7
  6
CONTINUOUS
 10
12.7618925753
 20
4.2180560273
 40
0.1193216032
100
AcDbArc
 50
180.752814416
 51
182.0443521523
  0
ARC
  5
3D6
100
AcDbEntity
  8
ALL_ASSEMBLY_MEMBERS
100
AcDbCircle
 62
7
  6
CONTINUOUS
 10
12.7617225784
 20
4.2180509033
 40
0.1191515807
100
AcDbArc
 50
179.3492270947
 51
179.4922825321
  0
ARC
  5
3D7
100
AcDbEntity
  8
ALL_ASSEMBLY_MEMBERS
100
AcDbCircle
 62
7
  6
CONTINUOUS
 10
12.7616798357
 20
4.2180526803
 40
0.119108838
100
AcDbArc
 50
180.4190014914
 51
180.7525490901
  0
ARC
  5
3D8
100
AcDbEntity
  8
ALL_ASSEMBLY_MEMBERS
100
AcDbCircle
 62
7
  6
CONTINUOUS
 10
12.7615989014
 20
4.2180518752
 40
0.1190278999
100
AcDbArc
 50
179.4922228228
 51
180.4188988623
  0
ARC
  5
3D9
100
AcDbEntity
  8
ALL_ASSEMBLY_MEMBERS
100
AcDbCircle
 62
7
  6
CONTINUOUS
 10
12.7608846091
 20
4.2181941952
 40
0.1183049481
100
AcDbArc
 50
166.1109402705
 51
174.6800316102
  0
ARC
  5
3DA
100
AcDbEntity
  8
ALL_ASSEMBLY_MEMBERS
100
AcDbCircle
 62
7
  6
CONTINUOUS
 10
12.7594141881
 20
4.2185358066
 40
0.1167955194
100
AcDbArc
 50
162.5481958072
 51
166.1004714385
  0
ARC
  5
3DB
100
AcDbEntity
  8
ALL_ASSEMBLY_MEMBERS
100
AcDbCircle
 62
7
  6
CONTINUOUS
 10
12.7453615794
 20
4.2206176011
 40
0.1025095908
100
AcDbArc
 50
162.5147920789
 51
163.0863519993
  0
ARC
  5
3DC
100
AcDbEntity
  8
ALL_ASSEMBLY_MEMBERS
100
AcDbCircle
 62
7
  6
CONTINUOUS
 10
12.7417823439
 20
4.2276430285
 40
0.0968559998
100
AcDbArc
 50
143.8768770017
 51
144.5756293108
  0
ARC
  5
3DD
100
AcDbEntity
  8
ALL_ASSEMBLY_MEMBERS
100
AcDbCircle
 62
7
  6
CONTINUOUS
 10
12.6317631235
 20
4.2180519444
 40
0.0875996756
100
AcDbArc
 50
0.6571031418
 51
2.0857653946
  0
ARC
  5
3DE
100
AcDbEntity
  8
ALL_ASSEMBLY_MEMBERS
100
AcDbCircle
 62
7
  6
CONTINUOUS
 10
12.6317736803
 20
4.2180529197
 40
0.0875891169
100
AcDbArc
 50
358.0716458519
 51
359.8566552125
  0
ARC
  5
3DF
100
AcDbEntity
  8
ALL_ASSEMBLY_MEMBERS
100
AcDbCircle
 62
7
  6
CONTINUOUS
 10
12.6317921152
 20
4.2180521723
 40
0.0875706673
100
AcDbArc
 50
357.8613415974
 51
358.0717287059
  0
ARC
  5
3E0
100
AcDbEntity
  8
ALL_ASSEMBLY_MEMBERS
100
AcDbCircle
 62
7
  6
CONTINUOUS
 10
12.6318048917
 20
4.2180533972
 40
0.0875578822
100
AcDbArc
 50
2.0858101411
 51
2.2188740537
  0
ARC
  5
3E1
100
AcDbEntity
  8
ALL_ASSEMBLY_MEMBERS
100
AcDbCircle
 62
7
  6
CONTINUOUS
 10
12.6318212468
 20
4.2180525167
 40
0.0875415496
100
AcDbArc
 50
359.8568410997
 51
0.6571649221
  0
ARC
  5
3E2
100
AcDbEntity
  8
ALL_ASSEMBLY_MEMBERS
100
AcDbCircle
 62
7
  6
CONTINUOUS
 10
12.7196713497
 20
4.2252395441
 40
0.076218631
100
AcDbArc
 50
157.5365065301
 51
161.8444244957
  0
ARC
  5
3E3
100
AcDbEntity
  8
ALL_ASSEMBLY_MEMBERS
100
AcDbCircle
 62
7
  6
CONTINUOUS
 10
12.7153799991
 20
4.2234603434
 40
0.0719568434
100
AcDbArc
 50
153.1695582927
 51
157.5204299638
  0
ARC
  5
3E4
100
AcDbEntity
  8
ALL_ASSEMBLY_MEMBERS
100
AcDbCircle
 62
7
  6
CONTINUOUS
 10
12.6988531535
 20
4.1934192797
 40
0.0478563793
100
AcDbArc
 50
237.3900063378
 51
238.6032643773
  0
ARC
  5
3E5
100
AcDbEntity
  8
ALL_ASSEMBLY_MEMBERS
100
AcDbCircle
 62
7
  6
CONTINUOUS
 10
12.6766884625
 20
4.1908058804
 40
0.0378536841
100
AcDbArc
 50
264.5191704748
 51
267.84035548
  0
ARC
  5
3E6
100
AcDbEntity
  8
ALL_ASSEMBLY_MEMBERS
100
AcDbCircle
 62
7
  6
CONTINUOUS
 10
12.6981490604
 20
4.2618915959
 40
0.0378522348
100
AcDbArc
 50
86.7537874102
 51
96.635124586
  0
ARC
  5
3E7
100
AcDbEntity
  8
ALL_ASSEMBLY_MEMBERS
100
AcDbCircle
 62
7
  6
CONTINUOUS
 10
12.6766720734
 20
4.1904347143
 40
0.0374821642
100
AcDbArc
 50
267.8440095748
 51
269.9987124608
  0
ARC
  5
3E8
100
AcDbEntity
  8
ALL_ASSEMBLY_MEMBERS
100
AcDbCircle
 62
7
  6
CONTINUOUS
 10
12.6945336518
 20
4.2630481712
 40
0.0370087358
100
AcDbArc
 50
76.7246106479
 51
82.5756387265
  0
ARC
  5
3E9
100
AcDbEntity
  8
ALL_ASSEMBLY_MEMBERS
100
AcDbCircle
 62
7
  6
CONTINUOUS
 10
12.6723010697
 20
4.2467840917
 40
0.0365136405
100
AcDbArc
 50
67.0687688959
 51
68.0232961131
  0
ARC
  5
3EA
100
AcDbEntity
  8
ALL_ASSEMBLY_MEMBERS
100
AcDbCircle
 62
7
  6
CONTINUOUS
 10
12.6727408653
 20
4.2479180223
 40
0.035297525
100
AcDbArc
 50
67.9964933458
 51
74.0977912704
  0
ARC
  5
3EB
100
AcDbEntity
  8
ALL_ASSEMBLY_MEMBERS
100
AcDbCircle
 62
7
  6
CONTINUOUS
 10
12.6730546258
 20
4.2489693584
 40
0.0342004563
100
AcDbArc
 50
74.1207276283
 51
76.8723140279
  0
ARC
  5
3EC
100
AcDbEntity
  8
ALL_ASSEMBLY_MEMBERS
100
AcDbCircle
 62
7
  6
CONTINUOUS
 10
12.675551049
 20
4.1875088686
 40
0.0314565931
100
AcDbArc
 50
255.6816693295
 51
269.9474098138
  0
ARC
  5
3ED
100
AcDbEntity
  8
ALL_ASSEMBLY_MEMBERS
100
AcDbCircle
 62
7
  6
CONTINUOUS
 10
12.6755226425
 20
4.2491147064
 40
0.0309378437
100
AcDbArc
 50
90.0008637736
 51
91.8758373946
  0
ARC
  5
3EE
100
AcDbEntity
  8
ALL_ASSEMBLY_MEMBERS
100
AcDbCircle
 62
7
  6
CONTINUOUS
 10
12.6755221616
 20
4.2491679924
 40
0.0308845577
100
AcDbArc
 50
89.5859869197
 51
89.999973034
  0
ARC
  5
3EF
100
AcDbEntity
  8
ALL_ASSEMBLY_MEMBERS
100
AcDbCircle
 62
7
  6
CONTINUOUS
 10
12.6882025925
 20
4.253102905
 40
0.0301044569
100
AcDbArc
 50
104.8250458899
 51
111.5272237039
  0
ARC
  5
3F0
100
AcDbEntity
  8
ALL_ASSEMBLY_MEMBERS
100
AcDbCircle
 62
7
  6
CONTINUOUS
 10
12.6877854513
 20
4.2547242329
 40
0.0284303695
100
AcDbArc
 50
92.6476553686
 51
104.8484057271
  0
ARC
  5
3F1
100
AcDbEntity
  8
ALL_ASSEMBLY_MEMBERS
100
AcDbCircle
 62
7
  6
CONTINUOUS
 10
12.684914158
 20
4.2549990249
 40
0.0281540092
100
AcDbArc
 50
80.6566577034
 51
86.8246740875
  0
ARC
  5
3F2
100
AcDbEntity
  8
ALL_ASSEMBLY_MEMBERS
100
AcDbCircle
 62
7
  6
CONTINUOUS
 10
12.6877247134
 20
4.2554924537
 40
0.0276601744
100
AcDbArc
 50
90.0102199141
 51
92.5954845975
  0
ARC
  5
3F3
100
AcDbEntity
  8
ALL_ASSEMBLY_MEMBERS
100
AcDbCircle
 62
7
  6
CONTINUOUS
 10
8.4829130541
 20
4.4109037214
 40
2.8560340826
100
AcDbArc
 50
86.5918234286
 51
86.9355088649
  0
ARC
  5
3F4
100
AcDbEntity
  8
ALL_ASSEMBLY_MEMBERS
100
AcDbCircle
 62
7
  6
CONTINUOUS
 10
8.4920142633
 20
9.1152480635
 40
1.9884570931
100
AcDbArc
 50
273.5802531989
 51
274.6478531748
  0
ARC
  5
3F5
100
AcDbEntity
  8
ALL_ASSEMBLY_MEMBERS
100
AcDbCircle
 62
7
  6
CONTINUOUS
 10
8.6172228863
 20
8.0678479616
 40
0.933216016
100
AcDbArc
 50
278.9697764961
 51
280.7323757371
  0
ARC
  5
3F6
100
AcDbEntity
  8
ALL_ASSEMBLY_MEMBERS
100
AcDbCircle
 62
7
  6
CONTINUOUS
 10
8.4677390536
 20
7.8630629072
 40
0.682438237
100
AcDbArc
 50
271.6110723008
 51
272.3454354397
  0
ARC
  5
3F7
100
AcDbEntity
  8
ALL_ASSEMBLY_MEMBERS
100
AcDbCircle
 62
7
  6
CONTINUOUS
 10
8.4679004188
 20
6.5462504651
 40
0.6777638183
100
AcDbArc
 50
87.6520321381
 51
88.3914601214
  0
ARC
  5
3F8
100
AcDbEntity
  8
ALL_ASSEMBLY_MEMBERS
100
AcDbCircle
 62
7
  6
CONTINUOUS
 10
8.4871397726
 20
7.6082168376
 40
0.4267927972
100
AcDbArc
 50
276.1175409268
 51
277.1191011414
  0
ARC
  5
3F9
100
AcDbEntity
  8
ALL_ASSEMBLY_MEMBERS
100
AcDbCircle
 62
7
  6
CONTINUOUS
 10
8.4882491765
 20
6.8059863237
 40
0.4171675091
100
AcDbArc
 50
82.8693440762
 51
83.8940138556
  0
ARC
  5
3FA
100
AcDbEntity
  8
ALL_ASSEMBLY_MEMBERS
100
AcDbCircle
 62
7
  6
CONTINUOUS
 10
12.5957358055
 20
4.835408677
 40
0.4153114806
100
AcDbArc
 50
85.6314757902
 51
87.4669370001
  0
ARC
  5
3FB
100
AcDbEntity
  8
ALL_ASSEMBLY_MEMBERS
100
AcDbCircle
 62
7
  6
CONTINUOUS
 10
12.5957417989
 20
4.8347936723
 40
0.4149215832
100
AcDbArc
 50
85.9359292619
 51
87.4653835889
  0
ARC
  5
3FC
100
AcDbEntity
  8
ALL_ASSEMBLY_MEMBERS
100
AcDbCircle
 62
7
  6
CONTINUOUS
 10
12.6991577443
 20
5.6515182869
 40
0.4085479253
100
AcDbArc
 50
264.0666703896
 51
264.387187558
  0
CIRCLE
  5
3FD
100
AcDbEntity
  8
ALL_ASSEMBLY_MEMBERS
100
AcDbCircle
 62
7
  6
CONTINUOUS
 10
12.4669256757
 20
4.7570525501
 40
0.275
  0
ARC
  5
3FE
100
AcDbEntity
  8
ALL_ASSEMBLY_MEMBERS
100
AcDbCircle
 62
7
  6
CONTINUOUS
 10
11.2844256757
 20
4.7570525501
 40
0.275
100
AcDbArc
 50
55.0
 51
305.0
  0
ARC
  5
3FF
100
AcDbEntity
  8
ALL_ASSEMBLY_MEMBERS
100
AcDbCircle
 62
7
  6
CONTINUOUS
 10
13.6494256757
 20
4.7570525501
 40
0.275
100
AcDbArc
 50
235.0
 51
125.0
  0
ARC
  5
400
100
AcDbEntity
  8
ALL_ASSEMBLY_MEMBERS
100
AcDbCircle
 62
7
  6
CONTINUOUS
 10
11.7570497167
 20
5.1185525501
 40
0.25
100
AcDbArc
 50
223.0260516848
 51
312.2764321242
  0
ARC
  5
401
100
AcDbEntity
  8
ALL_ASSEMBLY_MEMBERS
100
AcDbCircle
 62
7
  6
CONTINUOUS
 10
11.7570497167
 20
4.3955525501
 40
0.25
100
AcDbArc
 50
47.7235811409
 51
136.9739483152
  0
ARC
  5
402
100
AcDbEntity
  8
ALL_ASSEMBLY_MEMBERS
100
AcDbCircle
 62
7
  6
CONTINUOUS
 10
13.1768016346
 20
5.1185525501
 40
0.25
100
AcDbArc
 50
227.7235680858
 51
316.9739483152
  0
ARC
  5
403
100
AcDbEntity
  8
ALL_ASSEMBLY_MEMBERS
100
AcDbCircle
 62
7
  6
CONTINUOUS
 10
13.1768016346
 20
4.3955525501
 40
0.25
100
AcDbArc
 50
43.0260516848
 51
132.276418804
  0
ARC
  5
404
100
AcDbEntity
  8
ALL_ASSEMBLY_MEMBERS
100
AcDbCircle
 62
7
  6
CONTINUOUS
 10
8.5357469843
 20
7.3251235658
 40
0.139357347
100
AcDbArc
 50
283.5161280513
 51
285.619731048
  0
ARC
  5
405
100
AcDbEntity
  8
ALL_ASSEMBLY_MEMBERS
100
AcDbCircle
 62
7
  6
CONTINUOUS
 10
8.5374073251
 20
7.0859068815
 40
0.1327574879
100
AcDbArc
 50
74.3279737423
 51
76.5361671583
  0
ARC
  5
406
100
AcDbEntity
  8
ALL_ASSEMBLY_MEMBERS
100
AcDbCircle
 62
7
  6
CONTINUOUS
 10
12.6364658904
 20
5.1994568801
 40
0.0490719096
100
AcDbArc
 50
100.4961117262
 51
101.8320402201
  0
ARC
  5
407
100
AcDbEntity
  8
ALL_ASSEMBLY_MEMBERS
100
AcDbCircle
 62
7
  6
CONTINUOUS
 10
12.6363147632
 20
5.2002975067
 40
0.0482178185
100
AcDbArc
 50
98.0863412392
 51
100.501503558
  0
ARC
  5
408
100
AcDbEntity
  8
ALL_ASSEMBLY_MEMBERS
100
AcDbCircle
 62
7
  6
CONTINUOUS
 10
12.6361530051
 20
5.2015467347
 40
0.0469582601
100
AcDbArc
 50
92.2491151825
 51
98.1053427046
  0
ARC
  5
409
100
AcDbEntity
  8
ALL_ASSEMBLY_MEMBERS
100
AcDbCircle
 62
7
  6
CONTINUOUS
 10
12.6361315633
 20
5.2019919771
 40
0.0465125194
100
AcDbArc
 50
90.2536205701
 51
92.2442469628
  0
ARC
  5
40A
100
AcDbEntity
  8
ALL_ASSEMBLY_MEMBERS
100
AcDbCircle
 62
7
  6
CONTINUOUS
 10
12.8544256757
 20
5.1778522031
 40
0.03
100
AcDbArc
 50
9.9840981124
 51
75.2369687319
  0
ARC
  5
40B
100
AcDbEntity
  8
ALL_ASSEMBLY_MEMBERS
100
AcDbCircle
 62
7
  6
CONTINUOUS
 10
12.0794256757
 20
5.1778522031
 40
0.03
100
AcDbArc
 50
104.7630312681
 51
170.0159018876
  0
ARC
  5
40C
100
AcDbEntity
  8
ALL_ASSEMBLY_MEMBERS
100
AcDbCircle
 62
7
  6
CONTINUOUS
 10
11.5334256757
 20
4.9379462784
 40
0.016
100
AcDbArc
 50
235.0
 51
360.0
  0
ARC
  5
40D
100
AcDbEntity
  8
ALL_ASSEMBLY_MEMBERS
100
AcDbCircle
 62
7
  6
CONTINUOUS
 10
11.5625921378
 20
4.9370525501
 40
0.016
100
AcDbArc
 50
43.0260516849
 51
145.3765489003
  0
ARC
  5
40E
100
AcDbEntity
  8
ALL_ASSEMBLY_MEMBERS
100
AcDbCircle
 62
7
  6
CONTINUOUS
 10
11.5334256757
 20
4.5761588218
 40
0.016
100
AcDbArc
 50
0.0
 51
125.0
  0
ARC
  5
40F
100
AcDbEntity
  8
ALL_ASSEMBLY_MEMBERS
100
AcDbCircle
 62
7
  6
CONTINUOUS
 10
11.5625921378
 20
4.5770525501
 40
0.016
100
AcDbArc
 50
214.6234510997
 51
316.9739483152
  0
ARC
  5
410
100
AcDbEntity
  8
ALL_ASSEMBLY_MEMBERS
100
AcDbCircle
 62
7
  6
CONTINUOUS
 10
13.4004256757
 20
4.9379462784
 40
0.016
100
AcDbArc
 50
180.0
 51
305.0
  0
ARC
  5
411
100
AcDbEntity
  8
ALL_ASSEMBLY_MEMBERS
100
AcDbCircle
 62
7
  6
CONTINUOUS
 10
13.3712592136
 20
4.9370525501
 40
0.016
100
AcDbArc
 50
34.6234510997
 51
136.9739483151
  0
ARC
  5
412
100
AcDbEntity
  8
ALL_ASSEMBLY_MEMBERS
100
AcDbCircle
 62
7
  6
CONTINUOUS
 10
13.4004256757
 20
4.5761588218
 40
0.016
100
AcDbArc
 50
55.0
 51
180.0
  0
ARC
  5
413
100
AcDbEntity
  8
ALL_ASSEMBLY_MEMBERS
100
AcDbCircle
 62
7
  6
CONTINUOUS
 10
13.3712592136
 20
4.5770525501
 40
0.016
100
AcDbArc
 50
223.0260516849
 51
325.3765489003
  0
ARC
  5
414
100
AcDbEntity
  8
ALL_FEATURES
100
AcDbCircle
 62
7
  6
CONTINUOUS
 10
14.5557290547
 20
3.8211465987
 40
1.541
100
AcDbArc
 50
190.8813003471
 51
225.7236108955
  0
ARC
  5
415
100
AcDbEntity
  8
ALL_ASSEMBLY_MEMBERS
100
AcDbCircle
 62
7
  6
CONTINUOUS
 10
20.5911092297
 20
6.9614310561
 40
11.3279238815
100
AcDbArc
 50
186.034515026
 51
186.5038676212
  0
ARC
  5
416
100
AcDbEntity
  8
ALL_ASSEMBLY_MEMBERS
100
AcDbCircle
 62
7
  6
CONTINUOUS
 10
20.533073772
 20
6.9560036098
 40
11.2696394608
100
AcDbArc
 50
182.6189681575
 51
186.0380929686
  0
SPLINE
  5
417
100
AcDbEntity
  8
ALL_ASSEMBLY_MEMBERS
100
AcDbSpline
 62
7
  6
CONTINUOUS
 70
0
 71
3
 72
15
 73
11
 74
0
 42
0.0000001
 43
0.0000001
 44
0.0000000001
 40
0.0
 40
0.0
 40
0.0
 40
0.0
 40
0.1150878211
 40
0.2325819788
 40
0.3527849533
 40
0.4759287402
 40
0.6021627876
 40
0.7315842918
 40
0.8642350692
 40
1.0
 40
1.0
 40
1.0
 40
1.0
 10
12.2473545032
 20
4.2804252155
 30
0.0
 10
12.2463066003
 20
4.279983015
 30
0.0
 10
12.2442293914
 20
4.2789901608
 30
0.0
 10
12.2412262418
 20
4.277210924
 30
0.0
 10
12.2383201752
 20
4.2751369
 30
0.0
 10
12.2355260878
 20
4.2727786391
 30
0.0
 10
12.2328573695
 20
4.2701482888
 30
0.0
 10
12.2303270721
 20
4.2672586997
 30
0.0
 10
12.2279481153
 20
4.2641247003
 30
0.0
 10
12.2264869709
 20
4.2619080683
 30
0.0
 10
12.2257841555
 20
4.2607651375
 30
0.0
  0
SPLINE
  5
418
100
AcDbEntity
  8
ALL_ASSEMBLY_MEMBERS
100
AcDbSpline
 62
7
  6
CONTINUOUS
 70
0
 71
3
 72
11
 73
7
 74
0
 42
0.0000001
 43
0.0000001
 44
0.0000000001
 40
0.0
 40
0.0
 40
0.0
 40
0.0
 40
0.2534224548
 40
0.5039952218
 40
0.7525876855
 40
1.0
 40
1.0
 40
1.0
 40
1.0
 10
12.269433904
 20
4.1580744718
 30
0.0
 10
12.2685353169
 20
4.1577417359
 30
0.0
 10
12.2667192688
 20
4.1571551555
 30
0.0
 10
12.2639417572
 20
4.1565200075
 30
0.0
 10
12.2611411777
 20
4.1561379544
 30
0.0
 10
12.2592646632
 20
4.1560525501
 30
0.0
 10
12.2583291752
 20
4.1560525501
 30
0.0
  0
SPLINE
  5
419
100
AcDbEntity
  8
ALL_ASSEMBLY_MEMBERS
100
AcDbSpline
 62
7
  6
CONTINUOUS
 70
0
 71
3
 72
14
 73
10
 74
0
 42
0.0000001
 43
0.0000001
 44
0.0000000001
 40
0.0
 40
0.0
 40
0.0
 40
0.0
 40
0.240287456
 40
0.3629533377
 40
0.487269215
 40
0.6132114976
 40
0.7407412443
 40
0.8697375274
 40
1.0
 40
1.0
 40
1.0
 40
1.0
 10
12.2448606815
 20
4.2829045958
 30
0.0
 10
12.2429774338
 20
4.2814878269
 30
0.0
 10
12.2402521053
 20
4.2791832169
 30
0.0
 10
12.2368590858
 20
4.275815862
 30
0.0
 10
12.2344000803
 20
4.273105889
 30
0.0
 10
12.2320523847
 20
4.2702373955
 30
0.0
 10
12.229823568
 20
4.267218288
 30
0.0
 10
12.2277212472
 20
4.2640589422
 30
0.0
 10
12.2264145549
 20
4.2618763476
 30
0.0
 10
12.2257841555
 20
4.2607651375
 30
0.0
  0
SPLINE
  5
41A
100
AcDbEntity
  8
ALL_ASSEMBLY_MEMBERS
100
AcDbSpline
 62
7
  6
CONTINUOUS
 70
0
 71
3
 72
15
 73
11
 74
0
 42
0.0000001
 43
0.0000001
 44
0.0000000001
 40
0.0
 40
0.0
 40
0.0
 40
0.0
 40
0.1193007966
 40
0.23927684
 40
0.3604043945
 40
0.4832069279
 40
0.6081909093
 40
0.7357768557
 40
0.8662939475
 40
1.0
 40
1.0
 40
1.0
 40
1.0
 10
12.2583291752
 20
4.1560525501
 30
0.0
 10
12.257293934
 20
4.1560525501
 30
0.0
 10
12.2552161273
 20
4.1561572324
 30
0.0
 10
12.2521189662
 20
4.1566251601
 30
0.0
 10
12.2490532161
 20
4.1574030035
 30
0.0
 10
12.2460355887
 20
4.158485875
 30
0.0
 10
12.243081113
 20
4.1598681555
 30
0.0
 10
12.2402042624
 20
4.1615423605
 30
0.0
 10
12.237419541
 20
4.1634996281
 30
0.0
 10
12.2356555239
 20
4.1649687569
 30
0.0
 10
12.234793071
 20
4.165744863
 30
0.0
  0
SPLINE
  5
41B
100
AcDbEntity
  8
ALL_ASSEMBLY_MEMBERS
100
AcDbSpline
 62
7
  6
CONTINUOUS
 70
0
 71
3
 72
29
 73
25
 74
0
 42
0.0000001
 43
0.0000001
 44
0.0000000001
 40
0.0
 40
0.0
 40
0.0
 40
0.0
 40
0.0269626548
 40
0.0544537541
 40
0.0824788799
 40
0.1110371914
 40
0.1401227219
 40
0.1697222746
 40
0.2303706869
 40
0.292800018
 40
0.3246089811
 40
0.3567585357
 40
0.4218994015
 40
0.4878796207
 40
0.5210718829
 40
0.5543287886
 40
0.6208242509
 40
0.6539755313
 40
0.6869923755
 40
0.7198269571
 40
0.7524324233
 40
0.8167642965
 40
0.8796702915
 40
1.0
 40
1.0
 40
1.0
 40
1.0
 10
12.234793071
 20
4.165744863
 30
0.0
 10
12.2341099088
 20
4.1663596285
 30
0.0
 10
12.2327676018
 20
4.1676434197
 30
0.0
 10
12.2308510542
 20
4.1697022276
 30
0.0
 10
12.2290172813
 20
4.1719063486
 30
0.0
 10
12.2272718162
 20
4.1742490324
 30
0.0
 10
12.2256201717
 20
4.1767235506
 30
0.0
 10
12.2235324957
 20
4.180216177
 30
0.0
 10
12.2211908184
 20
4.184872911
 30
0.0
 10
12.2192515123
 20
4.1897909056
 30
0.0
 10
12.217930337
 20
4.1938925046
 30
0.0
 10
12.2167575141
 20
4.1981349935
 30
0.0
 10
12.2156083706
 20
4.2035869352
 30
0.0
 10
12.2148915445
 20
4.2091477941
 30
0.0
 10
12.2145771886
 20
4.213651829
 30
0.0
 10
12.2144373169
 20
4.2181821077
 30
0.0
 10
12.2145613181
 20
4.2227160054
 30
0.0
 10
12.2149484167
 20
4.2272222425
 30
0.0
 10
12.215369163
 20
4.230571427
 30
0.0
 10
12.2159190389
 20
4.2338830261
 30
0.0
 10
12.2168178995
 20
4.2382149776
 30
0.0
 10
12.2182491032
 20
4.2434800472
 30
0.0
 10
12.2211431604
 20
4.2514123502
 30
0.0
 10
12.2240543687
 20
4.2569934883
 30
0.0
 10
12.2263175287
 20
4.260414133
 30
0.0
  0
SPLINE
  5
41C
100
AcDbEntity
  8
ALL_ASSEMBLY_MEMBERS
100
AcDbSpline
 62
7
  6
CONTINUOUS
 70
0
 71
3
 72
22
 73
18
 74
0
 42
0.0000001
 43
0.0000001
 44
0.0000000001
 40
0.0
 40
0.0
 40
0.0
 40
0.0
 40
0.0699277937
 40
0.1387523828
 40
0.2064654544
 40
0.273066002
 40
0.4029350008
 40
0.4663006329
 40
0.5286582413
 40
0.5900621119
 40
0.6505768523
 40
0.7102760626
 40
0.7692476188
 40
0.8275946488
 40
0.8854282274
 40
0.9428626719
 40
1.0
 40
1.0
 40
1.0
 40
1.0
 10
12.2263175287
 20
4.260414133
 30
0.0
 10
12.2267857041
 20
4.261121755
 30
0.0
 10
12.2277451938
 20
4.262505952
 30
0.0
 10
12.2292640881
 20
4.2644991752
 30
0.0
 10
12.2308479661
 20
4.2663890363
 30
0.0
 10
12.2330229112
 20
4.2687449511
 30
0.0
 10
12.2353315595
 20
4.2709017878
 30
0.0
 10
12.2377607676
 20
4.2728316348
 30
0.0
 10
12.2396143657
 20
4.2741450675
 30
0.0
 10
12.2415099559
 20
4.2753331749
 30
0.0
 10
12.2434432197
 20
4.2763935478
 30
0.0
 10
12.2454099143
 20
4.2773235857
 30
0.0
 10
12.2474057649
 20
4.2781210257
 30
0.0
 10
12.2494263391
 20
4.278784324
 30
0.0
 10
12.2514673459
 20
4.2793118753
 30
0.0
 10
12.253524001
 20
4.279702058
 30
0.0
 10
12.2549051235
 20
4.2798706699
 30
0.0
 10
12.2555957142
 20
4.279931723
 30
0.0
  0
SPLINE
  5
41D
100
AcDbEntity
  8
ALL_ASSEMBLY_MEMBERS
100
AcDbSpline
 62
7
  6
CONTINUOUS
 70
0
 71
3
 72
15
 73
11
 74
0
 42
0.0000001
 43
0.0000001
 44
0.0000000001
 40
0.0
 40
0.0
 40
0.0
 40
0.0
 40
0.1150878211
 40
0.2325819788
 40
0.3527849533
 40
0.4759287402
 40
0.6021627876
 40
0.7315842918
 40
0.8642350692
 40
1.0
 40
1.0
 40
1.0
 40
1.0
 10
4.2473545032
 20
4.2804252155
 30
0.0
 10
4.2463066003
 20
4.279983015
 30
0.0
 10
4.2442293914
 20
4.2789901608
 30
0.0
 10
4.2412262418
 20
4.277210924
 30
0.0
 10
4.2383201752
 20
4.2751369
 30
0.0
 10
4.2355260878
 20
4.2727786391
 30
0.0
 10
4.2328573695
 20
4.2701482888
 30
0.0
 10
4.2303270721
 20
4.2672586997
 30
0.0
 10
4.2279481153
 20
4.2641247003
 30
0.0
 10
4.2264869709
 20
4.2619080683
 30
0.0
 10
4.2257841555
 20
4.2607651375
 30
0.0
  0
SPLINE
  5
41E
100
AcDbEntity
  8
ALL_ASSEMBLY_MEMBERS
100
AcDbSpline
 62
7
  6
CONTINUOUS
 70
0
 71
3
 72
11
 73
7
 74
0
 42
0.0000001
 43
0.0000001
 44
0.0000000001
 40
0.0
 40
0.0
 40
0.0
 40
0.0
 40
0.2534224548
 40
0.5039952218
 40
0.7525876855
 40
1.0
 40
1.0
 40
1.0
 40
1.0
 10
4.269433904
 20
4.1580744718
 30
0.0
 10
4.2685353169
 20
4.1577417359
 30
0.0
 10
4.2667192688
 20
4.1571551555
 30
0.0
 10
4.2639417572
 20
4.1565200075
 30
0.0
 10
4.2611411777
 20
4.1561379544
 30
0.0
 10
4.2592646632
 20
4.1560525501
 30
0.0
 10
4.2583291752
 20
4.1560525501
 30
0.0
  0
SPLINE
  5
41F
100
AcDbEntity
  8
ALL_ASSEMBLY_MEMBERS
100
AcDbSpline
 62
7
  6
CONTINUOUS
 70
0
 71
3
 72
14
 73
10
 74
0
 42
0.0000001
 43
0.0000001
 44
0.0000000001
 40
0.0
 40
0.0
 40
0.0
 40
0.0
 40
0.240287456
 40
0.3629533377
 40
0.487269215
 40
0.6132114976
 40
0.7407412443
 40
0.8697375274
 40
1.0
 40
1.0
 40
1.0
 40
1.0
 10
4.2448606815
 20
4.2829045958
 30
0.0
 10
4.2429774338
 20
4.2814878269
 30
0.0
 10
4.2402521053
 20
4.2791832169
 30
0.0
 10
4.2368590858
 20
4.275815862
 30
0.0
 10
4.2344000803
 20
4.273105889
 30
0.0
 10
4.2320523847
 20
4.2702373955
 30
0.0
 10
4.229823568
 20
4.267218288
 30
0.0
 10
4.2277212472
 20
4.2640589422
 30
0.0
 10
4.2264145549
 20
4.2618763476
 30
0.0
 10
4.2257841555
 20
4.2607651375
 30
0.0
  0
SPLINE
  5
420
100
AcDbEntity
  8
ALL_ASSEMBLY_MEMBERS
100
AcDbSpline
 62
7
  6
CONTINUOUS
 70
0
 71
3
 72
15
 73
11
 74
0
 42
0.0000001
 43
0.0000001
 44
0.0000000001
 40
0.0
 40
0.0
 40
0.0
 40
0.0
 40
0.1193007966
 40
0.23927684
 40
0.3604043945
 40
0.4832069279
 40
0.6081909093
 40
0.7357768557
 40
0.8662939475
 40
1.0
 40
1.0
 40
1.0
 40
1.0
 10
4.2583291752
 20
4.1560525501
 30
0.0
 10
4.257293934
 20
4.1560525501
 30
0.0
 10
4.2552161273
 20
4.1561572324
 30
0.0
 10
4.2521189662
 20
4.1566251601
 30
0.0
 10
4.2490532161
 20
4.1574030035
 30
0.0
 10
4.2460355887
 20
4.158485875
 30
0.0
 10
4.243081113
 20
4.1598681555
 30
0.0
 10
4.2402042624
 20
4.1615423605
 30
0.0
 10
4.237419541
 20
4.1634996281
 30
0.0
 10
4.2356555239
 20
4.1649687569
 30
0.0
 10
4.234793071
 20
4.165744863
 30
0.0
  0
SPLINE
  5
421
100
AcDbEntity
  8
ALL_ASSEMBLY_MEMBERS
100
AcDbSpline
 62
7
  6
CONTINUOUS
 70
0
 71
3
 72
29
 73
25
 74
0
 42
0.0000001
 43
0.0000001
 44
0.0000000001
 40
0.0
 40
0.0
 40
0.0
 40
0.0
 40
0.0269626548
 40
0.0544537541
 40
0.0824788799
 40
0.1110371914
 40
0.1401227219
 40
0.1697222746
 40
0.2303706869
 40
0.292800018
 40
0.3246089811
 40
0.3567585357
 40
0.4218994015
 40
0.4878796207
 40
0.5210718829
 40
0.5543287886
 40
0.6208242509
 40
0.6539755313
 40
0.6869923755
 40
0.7198269571
 40
0.7524324233
 40
0.8167642965
 40
0.8796702915
 40
1.0
 40
1.0
 40
1.0
 40
1.0
 10
4.234793071
 20
4.165744863
 30
0.0
 10
4.2341099088
 20
4.1663596285
 30
0.0
 10
4.2327676018
 20
4.1676434197
 30
0.0
 10
4.2308510542
 20
4.1697022276
 30
0.0
 10
4.2290172813
 20
4.1719063486
 30
0.0
 10
4.2272718162
 20
4.1742490324
 30
0.0
 10
4.2256201717
 20
4.1767235506
 30
0.0
 10
4.2235324957
 20
4.180216177
 30
0.0
 10
4.2211908184
 20
4.184872911
 30
0.0
 10
4.2192515123
 20
4.1897909056
 30
0.0
 10
4.217930337
 20
4.1938925046
 30
0.0
 10
4.2167575141
 20
4.1981349935
 30
0.0
 10
4.2156083706
 20
4.2035869352
 30
0.0
 10
4.2148915445
 20
4.2091477941
 30
0.0
 10
4.2145771886
 20
4.213651829
 30
0.0
 10
4.2144373169
 20
4.2181821077
 30
0.0
 10
4.2145613181
 20
4.2227160054
 30
0.0
 10
4.2149484167
 20
4.2272222425
 30
0.0
 10
4.215369163
 20
4.230571427
 30
0.0
 10
4.2159190389
 20
4.2338830261
 30
0.0
 10
4.2168178995
 20
4.2382149776
 30
0.0
 10
4.2182491032
 20
4.2434800472
 30
0.0
 10
4.2211431604
 20
4.2514123502
 30
0.0
 10
4.2240543687
 20
4.2569934883
 30
0.0
 10
4.2263175287
 20
4.260414133
 30
0.0
  0
SPLINE
  5
422
100
AcDbEntity
  8
ALL_ASSEMBLY_MEMBERS
100
AcDbSpline
 62
7
  6
CONTINUOUS
 70
0
 71
3
 72
22
 73
18
 74
0
 42
0.0000001
 43
0.0000001
 44
0.0000000001
 40
0.0
 40
0.0
 40
0.0
 40
0.0
 40
0.0699277937
 40
0.1387523828
 40
0.2064654544
 40
0.273066002
 40
0.4029350008
 40
0.4663006329
 40
0.5286582413
 40
0.5900621119
 40
0.6505768523
 40
0.7102760626
 40
0.7692476188
 40
0.8275946488
 40
0.8854282274
 40
0.9428626719
 40
1.0
 40
1.0
 40
1.0
 40
1.0
 10
4.2263175287
 20
4.260414133
 30
0.0
 10
4.2267857041
 20
4.261121755
 30
0.0
 10
4.2277451938
 20
4.262505952
 30
0.0
 10
4.2292640881
 20
4.2644991752
 30
0.0
 10
4.2308479661
 20
4.2663890363
 30
0.0
 10
4.2330229112
 20
4.2687449511
 30
0.0
 10
4.2353315595
 20
4.2709017878
 30
0.0
 10
4.2377607676
 20
4.2728316348
 30
0.0
 10
4.2396143657
 20
4.2741450675
 30
0.0
 10
4.2415099559
 20
4.2753331749
 30
0.0
 10
4.2434432197
 20
4.2763935478
 30
0.0
 10
4.2454099143
 20
4.2773235857
 30
0.0
 10
4.2474057649
 20
4.2781210257
 30
0.0
 10
4.2494263391
 20
4.278784324
 30
0.0
 10
4.2514673459
 20
4.2793118753
 30
0.0
 10
4.253524001
 20
4.279702058
 30
0.0
 10
4.2549051235
 20
4.2798706699
 30
0.0
 10
4.2555957142
 20
4.279931723
 30
0.0
  0
SPLINE
  5
423
100
AcDbEntity
  8
ALL_ASSEMBLY_MEMBERS
100
AcDbSpline
 62
7
  6
CONTINUOUS
 70
0
 71
3
 72
28
 73
24
 74
0
 42
0.0000001
 43
0.0000001
 44
0.0000000001
 40
0.0
 40
0.0
 40
0.0
 40
0.0
 40
0.0587078452
 40
0.1192079513
 40
0.1813604589
 40
0.213001849
 40
0.2449743206
 40
0.3097605749
 40
0.375423377
 40
0.4416162594
 40
0.4748017843
 40
0.5079783968
 40
0.5740972548
 40
0.6395920298
 40
0.7040757265
 40
0.7358290338
 40
0.7671944397
 40
0.7981313599
 40
0.8286018952
 40
0.8879913539
 40
0.9451704769
 40
0.972892741
 40
1.0
 40
1.0
 40
1.0
 40
1.0
 10
4.7013124949
 20
4.1637327993
 30
0.0
 10
4.7026958739
 20
4.1654068536
 30
0.0
 10
4.7053332869
 20
4.16895122
 30
0.0
 10
4.7088191191
 20
4.1746933437
 30
0.0
 10
4.7113393379
 20
4.1798230877
 30
0.0
 10
4.7131232808
 20
4.1841209168
 30
0.0
 10
4.7147612496
 20
4.1885805113
 30
0.0
 10
4.7164852963
 20
4.1943433857
 30
0.0
 10
4.718017235
 20
4.2014614104
 30
0.0
 10
4.7188395027
 20
4.2075174723
 30
0.0
 10
4.7192202997
 20
4.212407068
 30
0.0
 10
4.7194144234
 20
4.2173048823
 30
0.0
 10
4.7193067537
 20
4.2234062959
 30
0.0
 10
4.7186185305
 20
4.2306344992
 30
0.0
 10
4.7175806676
 20
4.2365337674
 30
0.0
 10
4.7164756066
 20
4.2411239563
 30
0.0
 10
4.7155192497
 20
4.2444703036
 30
0.0
 10
4.714433732
 20
4.2477271103
 30
0.0
 10
4.7128329442
 20
4.251900268
 30
0.0
 10
4.7105392175
 20
4.2568415059
 30
0.0
 10
4.7078201272
 20
4.2614465438
 30
0.0
 10
4.705429746
 20
4.2648329318
 30
0.0
 10
4.7041683889
 20
4.2664229538
 30
0.0
 10
4.7035221077
 20
4.2671896312
 30
0.0
  0
SPLINE
  5
424
100
AcDbEntity
  8
ALL_ASSEMBLY_MEMBERS
100
AcDbSpline
 62
7
  6
CONTINUOUS
 70
0
 71
3
 72
14
 73
10
 74
0
 42
0.0000001
 43
0.0000001
 44
0.0000000001
 40
0.0
 40
0.0
 40
0.0
 40
0.0
 40
0.1330904111
 40
0.263773039
 40
0.5177724005
 40
0.6413677714
 40
0.7628287808
 40
0.8823109064
 40
1.0
 40
1.0
 40
1.0
 40
1.0
 10
4.7035221077
 20
4.2671896312
 30
0.0
 10
4.7029132505
 20
4.2679376728
 30
0.0
 10
4.7016675788
 20
4.2693891885
 30
0.0
 10
4.6990720551
 20
4.2721006295
 30
0.0
 10
4.6963029047
 20
4.2745450671
 30
0.0
 10
4.693381198
 20
4.2766798725
 30
0.0
 10
4.6911524547
 20
4.2781018628
 30
0.0
 10
4.6888733097
 20
4.279354716
 30
0.0
 10
4.6873132282
 20
4.2800798705
 30
0.0
 10
4.686527734
 20
4.2804121747
 30
0.0
  0
SPLINE
  5
425
100
AcDbEntity
  8
ALL_ASSEMBLY_MEMBERS
100
AcDbSpline
 62
7
  6
CONTINUOUS
 70
0
 71
3
 72
17
 73
13
 74
0
 42
0.0000001
 43
0.0000001
 44
0.0000000001
 40
0.0
 40
0.0
 40
0.0
 40
0.0
 40
0.1174057569
 40
0.2357301073
 40
0.355643704
 40
0.4164444342
 40
0.4779041179
 40
0.6030348542
 40
0.66686271
 40
0.7315841758
 40
0.8638194685
 40
1.0
 40
1.0
 40
1.0
 40
1.0
 10
4.6757453281
 20
4.2800517438
 30
0.0
 10
4.6769650059
 20
4.280042931
 30
0.0
 10
4.6794152728
 20
4.279879785
 30
0.0
 10
4.683055536
 20
4.2792038559
 30
0.0
 10
4.6860315566
 20
4.2782874621
 30
0.0
 10
4.6883675417
 20
4.2773503264
 30
0.0
 10
4.6906982936
 20
4.2762647423
 30
0.0
 10
4.692965826
 20
4.2749781787
 30
0.0
 10
4.6951544784
 20
4.2735086433
 30
0.0
 10
4.6973275277
 20
4.2718889451
 30
0.0
 10
4.699950135
 20
4.2696226504
 30
0.0
 10
4.7018901911
 20
4.2676139989
 30
0.0
 10
4.7028296084
 20
4.2665561546
 30
0.0
  0
SPLINE
  5
426
100
AcDbEntity
  8
ALL_ASSEMBLY_MEMBERS
100
AcDbSpline
 62
7
  6
CONTINUOUS
 70
0
 71
3
 72
17
 73
13
 74
0
 42
0.0000001
 43
0.0000001
 44
0.0000000001
 40
0.0
 40
0.0
 40
0.0
 40
0.0
 40
0.1133357378
 40
0.1715569116
 40
0.2307754921
 40
0.2909595882
 40
0.3520704655
 40
0.4140588524
 40
0.476868139
 40
0.6046687815
 40
0.7349282054
 40
1.0
 40
1.0
 40
1.0
 40
1.0
 10
4.7028296084
 20
4.2665561546
 30
0.0
 10
4.7040569686
 20
4.2651740681
 30
0.0
 10
4.7058021458
 20
4.2629787047
 30
0.0
 10
4.7079195871
 20
4.2598660277
 30
0.0
 10
4.7094323008
 20
4.257394062
 30
0.0
 10
4.7108508005
 20
4.2548131841
 30
0.0
 10
4.7121709386
 20
4.2521302148
 30
0.0
 10
4.7133893519
 20
4.2493527269
 30
0.0
 10
4.7148822496
 20
4.2455120551
 30
0.0
 10
4.7164702047
 20
4.2405185716
 30
0.0
 10
4.7184027548
 20
4.23220252
 30
0.0
 10
4.7191297481
 20
4.2257632018
 30
0.0
 10
4.7192971245
 20
4.2214433738
 30
0.0
  0
SPLINE
  5
427
100
AcDbEntity
  8
ALL_ASSEMBLY_MEMBERS
100
AcDbSpline
 62
7
  6
CONTINUOUS
 70
0
 71
3
 72
31
 73
27
 74
0
 42
0.0000001
 43
0.0000001
 44
0.0000000001
 40
0.0
 40
0.0
 40
0.0
 40
0.0
 40
0.0729059622
 40
0.1453049763
 40
0.216884819
 40
0.2522803225
 40
0.287363286
 40
0.3564506171
 40
0.3904095808
 40
0.4239403433
 40
0.4896165796
 40
0.5533563972
 40
0.5844813504
 40
0.6150991445
 40
0.645210275
 40
0.6748203589
 40
0.7325672898
 40
0.7885054592
 40
0.8158766078
 40
0.842886892
 40
0.8695789795
 40
0.896001287
 40
0.9222056404
 40
0.9482429937
 40
0.9741590653
 40
1.0
 40
1.0
 40
1.0
 40
1.0
 10
4.7193017845
 20
4.2147842133
 30
0.0
 10
4.7192288209
 20
4.212830393
 30
0.0
 10
4.7189531024
 20
4.2089398688
 30
0.0
 10
4.7181493581
 20
4.2031750603
 30
0.0
 10
4.7171579269
 20
4.1984634812
 30
0.0
 10
4.7161752456
 20
4.1947819379
 30
0.0
 10
4.7150802603
 20
4.1912021909
 30
0.0
 10
4.7138027478
 20
4.1877206953
 30
0.0
 10
4.7123439986
 20
4.1843601712
 30
0.0
 10
4.7107940427
 20
4.1811419337
 30
0.0
 10
4.7086619662
 20
4.1773215035
 30
0.0
 10
4.7062477258
 20
4.1737494048
 30
0.0
 10
4.7041753919
 20
4.171096688
 30
0.0
 10
4.7025688731
 20
4.1692280681
 30
0.0
 10
4.7009013516
 20
4.1674691217
 30
0.0
 10
4.6986209262
 20
4.165294143
 30
0.0
 10
4.6956379602
 20
4.1628592124
 30
0.0
 10
4.6924524644
 20
4.1608023802
 30
0.0
 10
4.6898328482
 20
4.1594241204
 30
0.0
 10
4.68784954
 20
4.1585297596
 30
0.0
 10
4.6858382435
 20
4.1577695285
 30
0.0
 10
4.6838033222
 20
4.1571449105
 30
0.0
 10
4.6817492238
 20
4.1566576358
 30
0.0
 10
4.6796808248
 20
4.1563089916
 30
0.0
 10
4.6776036332
 20
4.1560993299
 30
0.0
 10
4.6762151748
 20
4.1560525501
 30
0.0
 10
4.6755221761
 20
4.1560525501
 30
0.0
  0
SPLINE
  5
428
100
AcDbEntity
  8
ALL_ASSEMBLY_MEMBERS
100
AcDbSpline
 62
7
  6
CONTINUOUS
 70
0
 71
3
 72
28
 73
24
 74
0
 42
0.0000001
 43
0.0000001
 44
0.0000000001
 40
0.0
 40
0.0
 40
0.0
 40
0.0
 40
0.0587078452
 40
0.1192079513
 40
0.1813604589
 40
0.213001849
 40
0.2449743206
 40
0.3097605749
 40
0.375423377
 40
0.4416162594
 40
0.4748017843
 40
0.5079783968
 40
0.5740972548
 40
0.6395920298
 40
0.7040757265
 40
0.7358290338
 40
0.7671944397
 40
0.7981313599
 40
0.8286018952
 40
0.8879913539
 40
0.9451704769
 40
0.972892741
 40
1.0
 40
1.0
 40
1.0
 40
1.0
 10
12.7013124949
 20
4.1637327993
 30
0.0
 10
12.7026958739
 20
4.1654068536
 30
0.0
 10
12.7053332869
 20
4.16895122
 30
0.0
 10
12.7088191191
 20
4.1746933437
 30
0.0
 10
12.7113393379
 20
4.1798230877
 30
0.0
 10
12.7131232808
 20
4.1841209168
 30
0.0
 10
12.7147612496
 20
4.1885805113
 30
0.0
 10
12.7164852963
 20
4.1943433857
 30
0.0
 10
12.718017235
 20
4.2014614104
 30
0.0
 10
12.7188395027
 20
4.2075174723
 30
0.0
 10
12.7192202997
 20
4.212407068
 30
0.0
 10
12.7194144234
 20
4.2173048823
 30
0.0
 10
12.7193067537
 20
4.2234062959
 30
0.0
 10
12.7186185305
 20
4.2306344992
 30
0.0
 10
12.7175806676
 20
4.2365337674
 30
0.0
 10
12.7164756066
 20
4.2411239563
 30
0.0
 10
12.7155192497
 20
4.2444703036
 30
0.0
 10
12.714433732
 20
4.2477271103
 30
0.0
 10
12.7128329442
 20
4.251900268
 30
0.0
 10
12.7105392175
 20
4.2568415059
 30
0.0
 10
12.7078201272
 20
4.2614465438
 30
0.0
 10
12.705429746
 20
4.2648329318
 30
0.0
 10
12.7041683889
 20
4.2664229538
 30
0.0
 10
12.7035221077
 20
4.2671896312
 30
0.0
  0
SPLINE
  5
429
100
AcDbEntity
  8
ALL_ASSEMBLY_MEMBERS
100
AcDbSpline
 62
7
  6
CONTINUOUS
 70
0
 71
3
 72
14
 73
10
 74
0
 42
0.0000001
 43
0.0000001
 44
0.0000000001
 40
0.0
 40
0.0
 40
0.0
 40
0.0
 40
0.1330904111
 40
0.263773039
 40
0.5177724005
 40
0.6413677714
 40
0.7628287808
 40
0.8823109064
 40
1.0
 40
1.0
 40
1.0
 40
1.0
 10
12.7035221077
 20
4.2671896312
 30
0.0
 10
12.7029132505
 20
4.2679376728
 30
0.0
 10
12.7016675788
 20
4.2693891885
 30
0.0
 10
12.6990720551
 20
4.2721006295
 30
0.0
 10
12.6963029047
 20
4.2745450671
 30
0.0
 10
12.693381198
 20
4.2766798725
 30
0.0
 10
12.6911524547
 20
4.2781018628
 30
0.0
 10
12.6888733097
 20
4.279354716
 30
0.0
 10
12.6873132282
 20
4.2800798705
 30
0.0
 10
12.686527734
 20
4.2804121747
 30
0.0
  0
SPLINE
  5
42A
100
AcDbEntity
  8
ALL_ASSEMBLY_MEMBERS
100
AcDbSpline
 62
7
  6
CONTINUOUS
 70
0
 71
3
 72
17
 73
13
 74
0
 42
0.0000001
 43
0.0000001
 44
0.0000000001
 40
0.0
 40
0.0
 40
0.0
 40
0.0
 40
0.1174057569
 40
0.2357301073
 40
0.355643704
 40
0.4164444342
 40
0.4779041179
 40
0.6030348542
 40
0.66686271
 40
0.7315841758
 40
0.8638194685
 40
1.0
 40
1.0
 40
1.0
 40
1.0
 10
12.6757453281
 20
4.2800517438
 30
0.0
 10
12.6769650059
 20
4.280042931
 30
0.0
 10
12.6794152728
 20
4.279879785
 30
0.0
 10
12.683055536
 20
4.2792038559
 30
0.0
 10
12.6860315566
 20
4.2782874621
 30
0.0
 10
12.6883675417
 20
4.2773503264
 30
0.0
 10
12.6906982936
 20
4.2762647423
 30
0.0
 10
12.692965826
 20
4.2749781787
 30
0.0
 10
12.6951544784
 20
4.2735086433
 30
0.0
 10
12.6973275277
 20
4.2718889451
 30
0.0
 10
12.699950135
 20
4.2696226504
 30
0.0
 10
12.7018901911
 20
4.2676139989
 30
0.0
 10
12.7028296084
 20
4.2665561546
 30
0.0
  0
SPLINE
  5
42B
100
AcDbEntity
  8
ALL_ASSEMBLY_MEMBERS
100
AcDbSpline
 62
7
  6
CONTINUOUS
 70
0
 71
3
 72
17
 73
13
 74
0
 42
0.0000001
 43
0.0000001
 44
0.0000000001
 40
0.0
 40
0.0
 40
0.0
 40
0.0
 40
0.1133357378
 40
0.1715569116
 40
0.2307754921
 40
0.2909595882
 40
0.3520704655
 40
0.4140588524
 40
0.476868139
 40
0.6046687815
 40
0.7349282054
 40
1.0
 40
1.0
 40
1.0
 40
1.0
 10
12.7028296084
 20
4.2665561546
 30
0.0
 10
12.7040569686
 20
4.2651740681
 30
0.0
 10
12.7058021458
 20
4.2629787047
 30
0.0
 10
12.7079195871
 20
4.2598660277
 30
0.0
 10
12.7094323008
 20
4.257394062
 30
0.0
 10
12.7108508005
 20
4.2548131841
 30
0.0
 10
12.7121709386
 20
4.2521302148
 30
0.0
 10
12.7133893519
 20
4.2493527269
 30
0.0
 10
12.7148822496
 20
4.2455120551
 30
0.0
 10
12.7164702047
 20
4.2405185716
 30
0.0
 10
12.7184027548
 20
4.23220252
 30
0.0
 10
12.7191297481
 20
4.2257632018
 30
0.0
 10
12.7192971245
 20
4.2214433738
 30
0.0
  0
SPLINE
  5
42C
100
AcDbEntity
  8
ALL_ASSEMBLY_MEMBERS
100
AcDbSpline
 62
7
  6
CONTINUOUS
 70
0
 71
3
 72
31
 73
27
 74
0
 42
0.0000001
 43
0.0000001
 44
0.0000000001
 40
0.0
 40
0.0
 40
0.0
 40
0.0
 40
0.0729059622
 40
0.1453049763
 40
0.216884819
 40
0.2522803225
 40
0.287363286
 40
0.3564506171
 40
0.3904095808
 40
0.4239403433
 40
0.4896165796
 40
0.5533563972
 40
0.5844813504
 40
0.6150991445
 40
0.645210275
 40
0.6748203589
 40
0.7325672898
 40
0.7885054592
 40
0.8158766078
 40
0.842886892
 40
0.8695789795
 40
0.896001287
 40
0.9222056404
 40
0.9482429937
 40
0.9741590653
 40
1.0
 40
1.0
 40
1.0
 40
1.0
 10
12.7193017845
 20
4.2147842133
 30
0.0
 10
12.7192288209
 20
4.212830393
 30
0.0
 10
12.7189531024
 20
4.2089398688
 30
0.0
 10
12.7181493581
 20
4.2031750603
 30
0.0
 10
12.7171579269
 20
4.1984634812
 30
0.0
 10
12.7161752456
 20
4.1947819379
 30
0.0
 10
12.7150802603
 20
4.1912021909
 30
0.0
 10
12.7138027478
 20
4.1877206953
 30
0.0
 10
12.7123439986
 20
4.1843601712
 30
0.0
 10
12.7107940427
 20
4.1811419337
 30
0.0
 10
12.7086619662
 20
4.1773215035
 30
0.0
 10
12.7062477258
 20
4.1737494048
 30
0.0
 10
12.7041753919
 20
4.171096688
 30
0.0
 10
12.7025688731
 20
4.1692280681
 30
0.0
 10
12.7009013516
 20
4.1674691217
 30
0.0
 10
12.6986209262
 20
4.165294143
 30
0.0
 10
12.6956379602
 20
4.1628592124
 30
0.0
 10
12.6924524644
 20
4.1608023802
 30
0.0
 10
12.6898328482
 20
4.1594241204
 30
0.0
 10
12.68784954
 20
4.1585297596
 30
0.0
 10
12.6858382435
 20
4.1577695285
 30
0.0
 10
12.6838033222
 20
4.1571449105
 30
0.0
 10
12.6817492238
 20
4.1566576358
 30
0.0
 10
12.6796808248
 20
4.1563089916
 30
0.0
 10
12.6776036332
 20
4.1560993299
 30
0.0
 10
12.6762151748
 20
4.1560525501
 30
0.0
 10
12.6755221761
 20
4.1560525501
 30
0.0
  0
LINE
  5
42D
100
AcDbEntity
  8
ALL_ASSEMBLY_MEMBERS
100
AcDbLine
 62
7
  6
CONTINUOUS
 10
4.5439256757
 20
5.256139616
 11
4.5421544223
 21
5.2561012935
  0
LINE
  5
42E
100
AcDbEntity
  8
ALL_ASSEMBLY_MEMBERS
100
AcDbLine
 62
7
  6
CONTINUOUS
 10
4.5421544223
 20
5.2561012935
 11
4.5098771192
 21
5.2558177177
  0
LINE
  5
42F
100
AcDbEntity
  8
ALL_ASSEMBLY_MEMBERS
100
AcDbLine
 62
7
  6
CONTINUOUS
 10
4.5098771192
 20
5.2558177177
 11
4.5082471263
 21
5.2558137696
  0
LINE
  5
430
100
AcDbEntity
  8
ALL_ASSEMBLY_MEMBERS
100
AcDbLine
 62
7
  6
CONTINUOUS
 10
4.5082471263
 20
5.2558137696
 11
4.505581317
 21
5.2558079361
  0
LINE
  5
431
100
AcDbEntity
  8
ALL_ASSEMBLY_MEMBERS
100
AcDbLine
 62
7
  6
CONTINUOUS
 10
4.505581317
 20
5.2558079361
 11
4.4249416594
 21
5.2557179461
  0
LINE
  5
432
100
AcDbEntity
  8
ALL_ASSEMBLY_MEMBERS
100
AcDbLine
 62
7
  6
CONTINUOUS
 10
4.4249416594
 20
5.2557179461
 11
4.4232067815
 21
5.2557178575
  0
LINE
  5
433
100
AcDbEntity
  8
ALL_ASSEMBLY_MEMBERS
100
AcDbLine
 62
7
  6
CONTINUOUS
 10
4.4232067815
 20
5.2557178575
 11
4.4206695194
 21
5.2557183435
  0
LINE
  5
434
100
AcDbEntity
  8
ALL_ASSEMBLY_MEMBERS
100
AcDbLine
 62
7
  6
CONTINUOUS
 10
4.4206695194
 20
5.2557183435
 11
4.3887110173
 21
5.2559484412
  0
LINE
  5
435
100
AcDbEntity
  8
ALL_ASSEMBLY_MEMBERS
100
AcDbLine
 62
7
  6
CONTINUOUS
 10
4.3887110173
 20
5.2559484412
 11
4.3869256756
 21
5.2559875511
  0
LINE
  5
436
100
AcDbEntity
  8
ALL_ASSEMBLY_MEMBERS
100
AcDbLine
 62
7
  6
CONTINUOUS
 10
4.3084256757
 20
5.2498984169
 11
4.3073012181
 21
5.249801168
  0
LINE
  5
437
100
AcDbEntity
  8
ALL_ASSEMBLY_MEMBERS
100
AcDbLine
 62
7
  6
CONTINUOUS
 10
4.3073012181
 20
5.249801168
 11
4.3024256757
 21
5.2492973335
  0
LINE
  5
438
100
AcDbEntity
  8
ALL_ASSEMBLY_MEMBERS
100
AcDbLine
 62
7
  6
CONTINUOUS
 10
4.2644256757
 20
5.2447683831
 11
4.2584256757
 21
5.2439388294
  0
SPLINE
  5
439
100
AcDbEntity
  8
ALL_ASSEMBLY_MEMBERS
100
AcDbSpline
 62
7
  6
CONTINUOUS
 70
0
 71
3
 72
27
 73
23
 74
0
 42
0.0000001
 43
0.0000001
 44
0.0000000001
 40
0.0
 40
0.0
 40
0.0
 40
0.0
 40
0.2093562745
 40
0.4029247906
 40
0.4921078649
 40
0.5755111501
 40
0.6526199677
 40
0.7229666732
 40
0.7861183809
 40
0.8416461184
 40
0.8891955359
 40
0.9284996842
 40
0.9593015664
 40
0.9714477821
 40
0.9814114908
 40
0.9855747429
 40
0.9891930149
 40
0.992268263
 40
0.9948045677
 40
0.9968104024
 40
0.9983047798
 40
1.0
 40
1.0
 40
1.0
 40
1.0
 10
4.2749256757
 20
5.2439020291
 30
0.0
 10
4.2737754977
 20
5.2437733272
 30
0.0
 10
4.2715613693
 20
5.2435301447
 30
0.0
 10
4.2688557964
 20
5.2432458536
 30
0.0
 10
4.2668417849
 20
5.2430433335
 30
0.0
 10
4.2654679031
 20
5.2429097649
 30
0.0
 10
4.2641971983
 20
5.2427911419
 30
0.0
 10
4.2630374834
 20
5.2426881813
 30
0.0
 10
4.2619961115
 20
5.2426014798
 30
0.0
 10
4.2610798228
 20
5.2425316104
 30
0.0
 10
4.2602944609
 20
5.2424789309
 30
0.0
 10
4.2596449828
 20
5.2424437298
 30
0.0
 10
4.2591905013
 20
5.2424275374
 30
0.0
 10
4.258897988
 20
5.2424250873
 30
0.0
 10
4.2587527413
 20
5.2424274245
 30
0.0
 10
4.2586547316
 20
5.2424319796
 30
0.0
 10
4.2585948803
 20
5.242436267
 30
0.0
 10
4.2585440672
 20
5.2424417005
 30
0.0
 10
4.2585025978
 20
5.2424479845
 30
0.0
 10
4.2584695778
 20
5.2424558155
 30
0.0
 10
4.2584436566
 20
5.2424643815
 30
0.0
 10
4.2584256757
 20
5.2424775623
 30
0.0
 10
4.2584256757
 20
5.2424869337
 30
0.0
  0
SPLINE
  5
43A
100
AcDbEntity
  8
ALL_ASSEMBLY_MEMBERS
100
AcDbSpline
 62
7
  6
CONTINUOUS
 70
0
 71
3
 72
26
 73
22
 74
0
 42
0.0000001
 43
0.0000001
 44
0.0000000001
 40
0.0
 40
0.0
 40
0.0
 40
0.0
 40
0.2095791783
 40
0.4032072363
 40
0.4923623034
 40
0.5757078444
 40
0.6527363652
 40
0.7229904998
 40
0.7860482
 40
0.8414914756
 40
0.8889775066
 40
0.9282480518
 40
0.959054342
 40
0.9712194047
 40
0.9812133671
 40
0.9890357145
 40
0.9921357477
 40
0.9946993344
 40
0.9967345463
 40
0.9982593194
 40
1.0
 40
1.0
 40
1.0
 40
1.0
 10
4.3649256757
 20
5.252488407
 30
0.0
 10
4.3637725688
 20
5.2524272611
 30
0.0
 10
4.3615538721
 20
5.2523142032
 30
0.0
 10
4.3588439594
 20
5.2521890143
 30
0.0
 10
4.356828432
 20
5.2521050101
 30
0.0
 10
4.355454598
 20
5.2520523266
 30
0.0
 10
4.3541846477
 20
5.2520085282
 30
0.0
 10
4.3530262411
 20
5.2519738563
 30
0.0
 10
4.3519865523
 20
5.2519484634
 30
0.0
 10
4.3510721382
 20
5.25193251
 30
0.0
 10
4.3502886617
 20
5.2519260063
 30
0.0
 10
4.3496409153
 20
5.251928921
 30
0.0
 10
4.3491878378
 20
5.2519393794
 30
0.0
 10
4.3488963625
 20
5.2519539526
 30
0.0
 10
4.3487316
 20
5.2519663126
 30
0.0
 10
4.3486170519
 20
5.251979005
 30
0.0
 10
4.3485436293
 20
5.2519910763
 30
0.0
 10
4.3485022794
 20
5.2519997628
 30
0.0
 10
4.3484693642
 20
5.2520093995
 30
0.0
 10
4.3484435063
 20
5.252019604
 30
0.0
 10
4.3484256757
 20
5.2520332678
 30
0.0
 10
4.3484256757
 20
5.2520428585
 30
0.0
  0
SPLINE
  5
43B
100
AcDbEntity
  8
ALL_ASSEMBLY_MEMBERS
100
AcDbSpline
 62
7
  6
CONTINUOUS
 70
0
 71
3
 72
25
 73
21
 74
0
 42
0.0000001
 43
0.0000001
 44
0.0000000001
 40
0.0
 40
0.0
 40
0.0
 40
0.0
 40
0.0017403056
 40
0.0032267547
 40
0.0052095631
 40
0.0077099679
 40
0.0107376857
 40
0.0183913546
 40
0.0401275414
 40
0.0704233203
 40
0.1091337495
 40
0.1560283357
 40
0.2108689351
 40
0.2733789195
 40
0.3431824654
 40
0.419886443
 40
0.5030917712
 40
0.5923501426
 40
0.7871272841
 40
1.0
 40
1.0
 40
1.0
 40
1.0
 10
4.2584256757
 20
5.2434964159
 30
0.0
 10
4.2584256757
 20
5.2434878872
 30
0.0
 10
4.2584408988
 20
5.2434754167
 30
0.0
 10
4.2584638905
 20
5.243467067
 30
0.0
 10
4.2584926051
 20
5.2434595322
 30
0.0
 10
4.2585287715
 20
5.24345334
 30
0.0
 10
4.2585929703
 20
5.2434454559
 30
0.0
 10
4.2587515477
 20
5.243435239
 30
0.0
 10
4.2590442409
 20
5.2434340188
 30
0.0
 10
4.2594887526
 20
5.2434466473
 30
0.0
 10
4.2600561035
 20
5.2434746057
 30
0.0
 10
4.2607430413
 20
5.2435176501
 30
0.0
 10
4.2615458618
 20
5.2435758211
 30
0.0
 10
4.2624601386
 20
5.2436488382
 30
0.0
 10
4.2634807314
 20
5.243736291
 30
0.0
 10
4.2646019064
 20
5.2438377075
 30
0.0
 10
4.2658175854
 20
5.2439525766
 30
0.0
 10
4.267608745
 20
5.2441280333
 30
0.0
 10
4.2700312305
 20
5.2443765669
 30
0.0
 10
4.2720175648
 20
5.244590003
 30
0.0
 10
4.2730545908
 20
5.2447035241
 30
0.0
  0
LINE
  5
43C
100
AcDbEntity
  8
ALL_ASSEMBLY_MEMBERS
100
AcDbLine
 62
7
  6
CONTINUOUS
 10
4.2919256757
 20
5.2469381513
 11
4.2935375845
 21
5.2471439848
  0
SPLINE
  5
43D
100
AcDbEntity
  8
ALL_ASSEMBLY_MEMBERS
100
AcDbSpline
 62
7
  6
CONTINUOUS
 70
0
 71
3
 72
26
 73
22
 74
0
 42
0.0000001
 43
0.0000001
 44
0.0000000001
 40
0.0
 40
0.0
 40
0.0
 40
0.0
 40
0.2112258011
 40
0.4048515434
 40
0.4937516215
 40
0.5767370927
 40
0.6533638219
 40
0.7231937334
 40
0.7858294578
 40
0.8409379793
 40
0.8881961014
 40
0.9273418348
 40
0.9438090529
 40
0.9581732582
 40
0.9704117798
 40
0.980511927
 40
0.9884738794
 40
0.9943094216
 40
0.9964434798
 40
0.9980730038
 40
1.0
 40
1.0
 40
1.0
 40
1.0
 10
4.2935375845
 20
5.2471439848
 30
0.0
 10
4.2945911654
 20
5.247279592
 30
0.0
 10
4.2966100267
 20
5.2475435123
 30
0.0
 10
4.2990706552
 20
5.2478770472
 30
0.0
 10
4.300891058
 20
5.2481321435
 30
0.0
 10
4.3021281655
 20
5.2483097504
 30
0.0
 10
4.3032696973
 20
5.2484781538
 30
0.0
 10
4.3043092666
 20
5.2486364187
 30
0.0
 10
4.3052410355
 20
5.2487836655
 30
0.0
 10
4.3060597481
 20
5.2489189857
 30
0.0
 10
4.306760791
 20
5.2490416218
 30
0.0
 10
4.3072692401
 20
5.2491373007
 30
0.0
 10
4.3076140361
 20
5.249207806
 30
0.0
 10
4.3078256642
 20
5.2492539694
 30
0.0
 10
4.308005316
 20
5.2492964762
 30
0.0
 10
4.3081526921
 20
5.249335107
 30
0.0
 10
4.3082678785
 20
5.2493700164
 30
0.0
 10
4.3083429308
 20
5.249397392
 30
0.0
 10
4.3083868399
 20
5.2494188307
 30
0.0
 10
4.3084102283
 20
5.2494333612
 30
0.0
 10
4.3084256757
 20
5.2494480221
 30
0.0
 10
4.3084256757
 20
5.2494577131
 30
0.0
  0
LINE
  5
43E
100
AcDbEntity
  8
ALL_ASSEMBLY_MEMBERS
100
AcDbLine
 62
7
  6
CONTINUOUS
 10
4.3084256757
 20
5.248452136
 11
4.3079383555
 21
5.2482751331
  0
SPLINE
  5
43F
100
AcDbEntity
  8
ALL_ASSEMBLY_MEMBERS
100
AcDbSpline
 62
7
  6
CONTINUOUS
 70
0
 71
3
 72
15
 73
11
 74
0
 42
0.0000001
 43
0.0000001
 44
0.0000000001
 40
0.0
 40
0.0
 40
0.0
 40
0.0
 40
0.0232894056
 40
0.0527796511
 40
0.1298320946
 40
0.2298059528
 40
0.3509387815
 40
0.4910640037
 40
0.6477836399
 40
1.0
 40
1.0
 40
1.0
 40
1.0
 10
4.3079383555
 20
5.2482751331
 30
0.0
 10
4.307816157
 20
5.2482458502
 30
0.0
 10
4.3075378787
 20
5.2481851458
 30
0.0
 10
4.3068504913
 20
5.2480500944
 30
0.0
 10
4.3057525884
 20
5.2478592378
 30
0.0
 10
4.3041639437
 20
5.2476058219
 30
0.0
 10
4.3022363244
 20
5.2473175282
 30
0.0
 10
4.3000036782
 20
5.2469992964
 30
0.0
 10
4.2965340515
 20
5.2465240266
 30
0.0
 10
4.2938109686
 20
5.2461699575
 30
0.0
 10
4.2919256757
 20
5.2459309274
 30
0.0
  0
LINE
  5
440
100
AcDbEntity
  8
ALL_ASSEMBLY_MEMBERS
100
AcDbLine
 62
7
  6
CONTINUOUS
 10
4.6234256757
 20
5.248846875
 11
4.6226178264
 21
5.2487646948
  0
SPLINE
  5
441
100
AcDbEntity
  8
ALL_ASSEMBLY_MEMBERS
100
AcDbSpline
 62
7
  6
CONTINUOUS
 70
0
 71
3
 72
15
 73
11
 74
0
 42
0.0000001
 43
0.0000001
 44
0.0000000001
 40
0.0
 40
0.0
 40
0.0
 40
0.0
 40
0.0255836606
 40
0.0567202456
 40
0.1352811784
 40
0.234845797
 40
0.3542260657
 40
0.4920920008
 40
0.6469122631
 40
1.0
 40
1.0
 40
1.0
 40
1.0
 10
4.6226178264
 20
5.2487646948
 30
0.0
 10
4.6224667347
 20
5.2487630627
 30
0.0
 10
4.6221317147
 20
5.2487635363
 30
0.0
 10
4.6213328096
 20
5.2487759677
 30
0.0
 10
4.6200974177
 20
5.2488144632
 30
0.0
 10
4.6183418518
 20
5.2488883714
 30
0.0
 10
4.6162370636
 20
5.2489930661
 30
0.0
 10
4.6138070498
 20
5.2491274639
 30
0.0
 10
4.6099997851
 20
5.2493546263
 30
0.0
 10
4.6070063276
 20
5.2495495543
 30
0.0
 10
4.6049256757
 20
5.2496899479
 30
0.0
  0
LINE
  5
442
100
AcDbEntity
  8
ALL_ASSEMBLY_MEMBERS
100
AcDbLine
 62
7
  6
CONTINUOUS
 10
4.2019256757
 20
5.2340231266
 11
4.2035272237
 21
5.2343237562
  0
SPLINE
  5
443
100
AcDbEntity
  8
ALL_ASSEMBLY_MEMBERS
100
AcDbSpline
 62
7
  6
CONTINUOUS
 70
0
 71
3
 72
27
 73
23
 74
0
 42
0.0000001
 43
0.0000001
 44
0.0000000001
 40
0.0
 40
0.0
 40
0.0
 40
0.0
 40
0.2101149109
 40
0.4030613256
 40
0.4917874736
 40
0.5747049444
 40
0.6513588258
 40
0.7212990907
 40
0.7841146395
 40
0.839454438
 40
0.8869768689
 40
0.926402511
 40
0.9430099207
 40
0.9575114277
 40
0.9698820592
 40
0.9801073108
 40
0.9881856687
 40
0.9941265797
 40
0.9963077941
 40
0.9979792151
 40
0.9991761034
 40
1.0
 40
1.0
 40
1.0
 40
1.0
 10
4.2035272237
 20
5.2343237562
 30
0.0
 10
4.2045775267
 20
5.2345219681
 30
0.0
 10
4.2065915784
 20
5.2349061014
 30
0.0
 10
4.2090467928
 20
5.2353861652
 30
0.0
 10
4.2108653933
 20
5.2357500669
 30
0.0
 10
4.2121030958
 20
5.2360019764
 30
0.0
 10
4.2132462637
 20
5.2362391685
 30
0.0
 10
4.2142883189
 20
5.2364603
 30
0.0
 10
4.2152231987
 20
5.2366641069
 30
0.0
 10
4.2160453978
 20
5.2368493256
 30
0.0
 10
4.2167500313
 20
5.2370148781
 30
0.0
 10
4.2172613213
 20
5.2371418004
 30
0.0
 10
4.217608197
 20
5.2372335779
 30
0.0
 10
4.217821286
 20
5.2372928821
 30
0.0
 10
4.2180022066
 20
5.2373465737
 30
0.0
 10
4.2181507378
 20
5.2373945011
 30
0.0
 10
4.2182666741
 20
5.2374365768
 30
0.0
 10
4.2183425783
 20
5.237469026
 30
0.0
 10
4.2183863331
 20
5.2374929265
 30
0.0
 10
4.2184075456
 20
5.2375075771
 30
0.0
 10
4.2184211757
 20
5.2375205783
 30
0.0
 10
4.2184256757
 20
5.2375305765
 30
0.0
 10
4.2184256757
 20
5.2375347676
 30
0.0
  0
LINE
  5
444
100
AcDbEntity
  8
ALL_ASSEMBLY_MEMBERS
100
AcDbLine
 62
7
  6
CONTINUOUS
 10
4.2184256757
 20
5.2365213498
 11
4.2182073314
 21
5.2364017824
  0
SPLINE
  5
445
100
AcDbEntity
  8
ALL_ASSEMBLY_MEMBERS
100
AcDbSpline
 62
7
  6
CONTINUOUS
 70
0
 71
3
 72
18
 73
14
 74
0
 42
0.0000001
 43
0.0000001
 44
0.0000000001
 40
0.0
 40
0.0
 40
0.0
 40
0.0
 40
0.0181077947
 40
0.0432290738
 40
0.0752267191
 40
0.1139344243
 40
0.1591636516
 40
0.2106625526
 40
0.3313866834
 40
0.4736329212
 40
0.6345850874
 40
0.8112331628
 40
1.0
 40
1.0
 40
1.0
 40
1.0
 10
4.2182073314
 20
5.2364017824
 30
0.0
 10
4.2181140061
 20
5.2363679614
 30
0.0
 10
4.2178876765
 20
5.2362971884
 30
0.0
 10
4.2174902552
 20
5.2361871407
 30
0.0
 10
4.2169811182
 20
5.2360576196
 30
0.0
 10
4.2163631181
 20
5.2359093189
 30
0.0
 10
4.2156394798
 20
5.2357432308
 30
0.0
 10
4.214475681
 20
5.2354852329
 30
0.0
 10
4.212789311
 20
5.2351274164
 30
0.0
 10
4.2105123731
 20
5.2346625712
 30
0.0
 10
4.2079320015
 20
5.2341516287
 30
0.0
 10
4.2050988453
 20
5.2336045836
 30
0.0
 10
4.2031304935
 20
5.2332327515
 30
0.0
 10
4.2021133438
 20
5.2330424637
 30
0.0
  0
SPLINE
  5
446
100
AcDbEntity
  8
ALL_ASSEMBLY_MEMBERS
100
AcDbSpline
 62
7
  6
CONTINUOUS
 70
0
 71
3
 72
28
 73
24
 74
0
 42
0.0000001
 43
0.0000001
 44
0.0000000001
 40
0.0
 40
0.0
 40
0.0
 40
0.0
 40
0.0007318784
 40
0.001828642
 40
0.0033886397
 40
0.0054440968
 40
0.0110854257
 40
0.0187970762
 40
0.0285889154
 40
0.0404616819
 40
0.0544073668
 40
0.0704098577
 40
0.1085145742
 40
0.1546295815
 40
0.2085665869
 40
0.2700943245
 40
0.3389726342
 40
0.4149097966
 40
0.4975872699
 40
0.5866811179
 40
0.6818449697
 40
0.7827260453
 40
1.0
 40
1.0
 40
1.0
 40
1.0
 10
4.6594256757
 20
5.2457741144
 30
0.0
 10
4.6594256757
 20
5.2457700156
 30
0.0
 10
4.6594306324
 20
5.2457601583
 30
0.0
 10
4.6594451213
 20
5.2457478721
 30
0.0
 10
4.6594676625
 20
5.2457339519
 30
0.0
 10
4.6595143519
 20
5.24571135
 30
0.0
 10
4.6595952428
 20
5.2456809156
 30
0.0
 10
4.6597187906
 20
5.2456417
 30
0.0
 10
4.6598772137
 20
5.2455972116
 30
0.0
 10
4.6600703611
 20
5.2455475154
 30
0.0
 10
4.660298089
 20
5.2454927388
 30
0.0
 10
4.6606696759
 20
5.245407986
 30
0.0
 10
4.6612186402
 20
5.2452909096
 30
0.0
 10
4.6619771659
 20
5.2451382112
 30
0.0
 10
4.6628657486
 20
5.2449670295
 30
0.0
 10
4.66388071
 20
5.2447780701
 30
0.0
 10
4.6650178309
 20
5.2445721803
 30
0.0
 10
4.6662723998
 20
5.2443501991
 30
0.0
 10
4.6676392482
 20
5.2441130376
 30
0.0
 10
4.6691129086
 20
5.2438616543
 30
0.0
 10
4.6706877196
 20
5.2435969965
 30
0.0
 10
4.6729712921
 20
5.2432183269
 30
0.0
 10
4.6747299486
 20
5.2429320586
 30
0.0
 10
4.6759312592
 20
5.2427383824
 30
0.0
  0
LINE
  5
447
100
AcDbEntity
  8
ALL_ASSEMBLY_MEMBERS
100
AcDbLine
 62
7
  6
CONTINUOUS
 10
4.6759312592
 20
5.2427383824
 11
4.6779256757
 21
5.2424185267
  0
LINE
  5
448
100
AcDbEntity
  8
ALL_ASSEMBLY_MEMBERS
100
AcDbLine
 62
7
  6
CONTINUOUS
 10
4.5082256757
 20
5.2565021126
 11
4.5054978296
 21
5.2563579417
  0
SPLINE
  5
449
100
AcDbEntity
  8
ALL_ASSEMBLY_MEMBERS
100
AcDbSpline
 62
7
  6
CONTINUOUS
 70
0
 71
3
 72
22
 73
18
 74
0
 42
0.0000001
 43
0.0000001
 44
0.0000000001
 40
0.0
 40
0.0
 40
0.0
 40
0.0
 40
0.0274545337
 40
0.0661548581
 40
0.1170740283
 40
0.1797364123
 40
0.2520018172
 40
0.3319017751
 40
0.5069064749
 40
0.5959293098
 40
0.6812707047
 40
0.7605587174
 40
0.8318650535
 40
0.8928825735
 40
0.9410633915
 40
0.976254534
 40
1.0
 40
1.0
 40
1.0
 40
1.0
 10
4.5054978296
 20
5.2563579417
 30
0.0
 10
4.5047644158
 20
5.2563289065
 30
0.0
 10
4.5029967585
 20
5.2562693581
 30
0.0
 10
4.4998677931
 20
5.2561903435
 30
0.0
 10
4.4957972773
 20
5.2561140216
 30
0.0
 10
4.4908291769
 20
5.2560456229
 30
0.0
 10
4.4850861656
 20
5.2559825697
 30
0.0
 10
4.4763397026
 20
5.2559069984
 30
0.0
 10
4.4671449353
 20
5.2558625953
 30
0.0
 10
4.4578046531
 20
5.2558726655
 30
0.0
 10
4.4510233906
 20
5.2559005131
 30
0.0
 10
4.4447158516
 20
5.2559417398
 30
0.0
 10
4.4390587019
 20
5.2559929864
 30
0.0
 10
4.4342333162
 20
5.2560524606
 30
0.0
 10
4.4303737439
 20
5.2561245714
 30
0.0
 10
4.4275110207
 20
5.256202745
 30
0.0
 10
4.4259365014
 20
5.2562639795
 30
0.0
 10
4.4253024017
 20
5.2562943693
 30
0.0
  0
LINE
  5
44A
100
AcDbEntity
  8
ALL_ASSEMBLY_MEMBERS
100
AcDbLine
 62
7
  6
CONTINUOUS
 10
4.4253024017
 20
5.2562943693
 11
4.423267951
 21
5.25643078
  0
SPLINE
  5
44B
100
AcDbEntity
  8
ALL_ASSEMBLY_MEMBERS
100
AcDbSpline
 62
7
  6
CONTINUOUS
 70
0
 71
3
 72
28
 73
24
 74
0
 42
0.0000001
 43
0.0000001
 44
0.0000000001
 40
0.0
 40
0.0
 40
0.0
 40
0.0
 40
0.2152111914
 40
0.3156802847
 40
0.4106660239
 40
0.4997329571
 40
0.5825221302
 40
0.658676928
 40
0.7278623598
 40
0.7897720879
 40
0.8441027733
 40
0.890591152
 40
0.9108329008
 40
0.9290416921
 40
0.9451944312
 40
0.9592686622
 40
0.9712486787
 40
0.9811286247
 40
0.9889065466
 40
0.9945886661
 40
0.998208414
 40
0.9992935626
 40
1.0
 40
1.0
 40
1.0
 40
1.0
 10
4.6777636626
 20
5.2414342136
 30
0.0
 10
4.6764420076
 20
5.2416454071
 30
0.0
 10
4.6745038181
 20
5.2419581314
 30
0.0
 10
4.6719836244
 20
5.2423721767
 30
0.0
 10
4.6702381675
 20
5.2426627264
 30
0.0
 10
4.6686018256
 20
5.2429391231
 30
0.0
 10
4.6670816657
 20
5.2432001627
 30
0.0
 10
4.6656841423
 20
5.2434447501
 30
0.0
 10
4.6644153871
 20
5.2436718192
 30
0.0
 10
4.6632811981
 20
5.2438802936
 30
0.0
 10
4.6622869489
 20
5.2440691945
 30
0.0
 10
4.6615484045
 20
5.2442155384
 30
0.0
 10
4.6610311504
 20
5.2443227501
 30
0.0
 10
4.660699119
 20
5.2443939836
 30
0.0
 10
4.6604051447
 20
5.244459719
 30
0.0
 10
4.6601496376
 20
5.2445198646
 30
0.0
 10
4.6599328642
 20
5.2445743194
 30
0.0
 10
4.659755114
 20
5.244622974
 30
0.0
 10
4.6596161945
 20
5.2446656313
 30
0.0
 10
4.659516676
 20
5.2447021177
 30
0.0
 10
4.6594576754
 20
5.2447301104
 30
0.0
 10
4.659431403
 20
5.2447511054
 30
0.0
 10
4.6594256757
 20
5.2447617344
 30
0.0
 10
4.6594256757
 20
5.2447661278
 30
0.0
  0
LINE
  5
44C
100
AcDbEntity
  8
ALL_ASSEMBLY_MEMBERS
100
AcDbLine
 62
7
  6
CONTINUOUS
 10
4.4232256757
 20
5.257436665
 11
4.4240508089
 21
5.2573652879
  0
SPLINE
  5
44D
100
AcDbEntity
  8
ALL_ASSEMBLY_MEMBERS
100
AcDbSpline
 62
7
  6
CONTINUOUS
 70
0
 71
3
 72
16
 73
12
 74
0
 42
0.0000001
 43
0.0000001
 44
0.0000000001
 40
0.0
 40
0.0
 40
0.0
 40
0.0
 40
0.0321781051
 40
0.0882718135
 40
0.1275645219
 40
0.1751872584
 40
0.2959643989
 40
0.4459371172
 40
0.6175230605
 40
0.8047478131
 40
1.0
 40
1.0
 40
1.0
 40
1.0
 10
4.4240508089
 20
5.2573652879
 30
0.0
 10
4.4245142585
 20
5.2573338676
 30
0.0
 10
4.4257869141
 20
5.2572676288
 30
0.0
 10
4.4276272353
 20
5.2572010877
 30
0.0
 10
4.4296909063
 20
5.2571444503
 30
0.0
 10
4.4326883833
 20
5.2570785131
 30
0.0
 10
4.4372838825
 20
5.2570119164
 30
0.0
 10
4.4436690137
 20
5.2569499277
 30
0.0
 10
4.4510135035
 20
5.2569003106
 30
0.0
 10
4.4590117398
 20
5.2568689238
 30
0.0
 10
4.4645330846
 20
5.2568681789
 30
0.0
 10
4.4673516795
 20
5.256874664
 30
0.0
  0
SPLINE
  5
44E
100
AcDbEntity
  8
ALL_ASSEMBLY_MEMBERS
100
AcDbSpline
 62
7
  6
CONTINUOUS
 70
0
 71
3
 72
15
 73
11
 74
0
 42
0.0000001
 43
0.0000001
 44
0.0000000001
 40
0.0
 40
0.0
 40
0.0
 40
0.0
 40
0.2227747084
 40
0.4289755389
 40
0.610627361
 40
0.7592251508
 40
0.8683278376
 40
0.9398430478
 40
0.9811206942
 40
1.0
 40
1.0
 40
1.0
 40
1.0
 10
4.4673516795
 20
5.256874664
 30
0.0
 10
4.4703768519
 20
5.2568816244
 30
0.0
 10
4.476202105
 20
5.2569085843
 30
0.0
 10
4.4844938863
 20
5.2569761838
 30
0.0
 10
4.4917782117
 20
5.2570562006
 30
0.0
 10
4.4977437807
 20
5.2571457156
 30
0.0
 10
4.5022133195
 20
5.2572453943
 30
0.0
 10
4.5052250681
 20
5.2573427596
 30
0.0
 10
4.5070113341
 20
5.2574233303
 30
0.0
 10
4.507826857
 20
5.257471824
 30
0.0
 10
4.5080825181
 20
5.2574909102
 30
0.0
  0
SPLINE
  5
44F
100
AcDbEntity
  8
ALL_ASSEMBLY_MEMBERS
100
AcDbSpline
 62
7
  6
CONTINUOUS
 70
0
 71
3
 72
8
 73
4
 74
0
 42
0.0000001
 43
0.0000001
 44
0.0000000001
 40
0.0
 40
0.0
 40
0.0
 40
0.0
 40
1.0
 40
1.0
 40
1.0
 40
1.0
 10
4.5080825181
 20
5.2574909102
 30
0.0
 10
4.5080986723
 20
5.2574921405
 30
0.0
 10
4.5081148265
 20
5.2574933708
 30
0.0
 10
4.5081309808
 20
5.257494601
 30
0.0
  0
SPLINE
  5
450
100
AcDbEntity
  8
ALL_ASSEMBLY_MEMBERS
100
AcDbSpline
 62
7
  6
CONTINUOUS
 70
0
 71
3
 72
8
 73
4
 74
0
 42
0.0000001
 43
0.0000001
 44
0.0000000001
 40
0.0
 40
0.0
 40
0.0
 40
0.0
 40
1.0
 40
1.0
 40
1.0
 40
1.0
 10
4.5081309808
 20
5.257494601
 30
0.0
 10
4.5081411234
 20
5.2574954029
 30
0.0
 10
4.5081512661
 20
5.2574962047
 30
0.0
 10
4.5081614088
 20
5.2574970066
 30
0.0
  0
LINE
  5
451
100
AcDbEntity
  8
ALL_ASSEMBLY_MEMBERS
100
AcDbLine
 62
7
  6
CONTINUOUS
 10
4.6049256757
 20
5.2506947185
 11
4.6071027188
 21
5.2505498839
  0
SPLINE
  5
452
100
AcDbEntity
  8
ALL_ASSEMBLY_MEMBERS
100
AcDbSpline
 62
7
  6
CONTINUOUS
 70
0
 71
3
 72
27
 73
23
 74
0
 42
0.0000001
 43
0.0000001
 44
0.0000000001
 40
0.0
 40
0.0
 40
0.0
 40
0.0
 40
0.2191475057
 40
0.3207216447
 40
0.4163946243
 40
0.5058262413
 40
0.5886773072
 40
0.6646297668
 40
0.7334048556
 40
0.7947284624
 40
0.8483388434
 40
0.8940461266
 40
0.9316889058
 40
0.9611116388
 40
0.9727067437
 40
0.9822199155
 40
0.9896535956
 40
0.9925944941
 40
0.9950225668
 40
0.9969456551
 40
0.998380842
 40
1.0
 40
1.0
 40
1.0
 40
1.0
 10
4.6071027188
 20
5.2505498839
 30
0.0
 10
4.6082951392
 20
5.2504716756
 30
0.0
 10
4.6100404256
 20
5.2503599591
 30
0.0
 10
4.6123067707
 20
5.2502218983
 30
0.0
 10
4.6138673121
 20
5.2501303754
 30
0.0
 10
4.6153261479
 20
5.2500485509
 30
0.0
 10
4.6166778372
 20
5.2499767341
 30
0.0
 10
4.6179172698
 20
5.2499151977
 30
0.0
 10
4.6190396828
 20
5.2498641441
 30
0.0
 10
4.6200406152
 20
5.2498237456
 30
0.0
 10
4.620916078
 20
5.2497941689
 30
0.0
 10
4.6216626866
 20
5.249775415
 30
0.0
 10
4.6222775811
 20
5.2497675115
 30
0.0
 10
4.6227065613
 20
5.2497697021
 30
0.0
 10
4.6229819781
 20
5.2497782839
 30
0.0
 10
4.623137409
 20
5.249786905
 30
0.0
 10
4.6232454153
 20
5.2497966537
 30
0.0
 10
4.6233146271
 20
5.2498065304
 30
0.0
 10
4.6233535484
 20
5.2498138114
 30
0.0
 10
4.6233845489
 20
5.2498221397
 30
0.0
 10
4.6234087371
 20
5.2498309935
 30
0.0
 10
4.6234256757
 20
5.2498433658
 30
0.0
 10
4.6234256757
 20
5.2498521948
 30
0.0
  0
SPLINE
  5
453
100
AcDbEntity
  8
ALL_ASSEMBLY_MEMBERS
100
AcDbSpline
 62
7
  6
CONTINUOUS
 70
0
 71
3
 72
26
 73
22
 74
0
 42
0.0000001
 43
0.0000001
 44
0.0000000001
 40
0.0
 40
0.0
 40
0.0
 40
0.0
 40
0.0017771499
 40
0.0032952558
 40
0.0053114222
 40
0.0078455207
 40
0.0109068202
 40
0.0186270392
 40
0.0284898969
 40
0.0404983849
 40
0.0709052556
 40
0.109684552
 40
0.1566433045
 40
0.2115403645
 40
0.2740591199
 40
0.3438723515
 40
0.4205963125
 40
0.5037875539
 40
0.592996804
 40
0.7875308036
 40
1.0
 40
1.0
 40
1.0
 40
1.0
 10
4.3484256757
 20
5.2530460996
 30
0.0
 10
4.3484256757
 20
5.2530372276
 30
0.0
 10
4.3484412213
 20
5.2530242067
 30
0.0
 10
4.3484646244
 20
5.2530143453
 30
0.0
 10
4.348493958
 20
5.2530051402
 30
0.0
 10
4.348530899
 20
5.2529967862
 30
0.0
 10
4.3485964331
 20
5.2529851445
 30
0.0
 10
4.3486987681
 20
5.2529727718
 30
0.0
 10
4.3488460219
 20
5.2529605516
 30
0.0
 10
4.3491066101
 20
5.2529458237
 30
0.0
 10
4.3495118593
 20
5.2529343873
 30
0.0
 10
4.350091678
 20
5.2529293543
 30
0.0
 10
4.3507937784
 20
5.2529327377
 30
0.0
 10
4.3516143049
 20
5.2529445468
 30
0.0
 10
4.3525487921
 20
5.2529647955
 30
0.0
 10
4.3535920694
 20
5.252993433
 30
0.0
 10
4.354738348
 20
5.2530303232
 30
0.0
 10
4.3559812381
 20
5.2530752485
 30
0.0
 10
4.3578116467
 20
5.2531477119
 30
0.0
 10
4.3602864758
 20
5.2532570801
 30
0.0
 10
4.3623159186
 20
5.2533565902
 30
0.0
 10
4.3633752442
 20
5.2534106791
 30
0.0
  0
LINE
  5
454
100
AcDbEntity
  8
ALL_ASSEMBLY_MEMBERS
100
AcDbLine
 62
7
  6
CONTINUOUS
 10
4.3633752442
 20
5.2534106791
 11
4.3649256757
 21
5.2534913591
  0
LINE
  5
455
100
AcDbEntity
  8
ALL_ASSEMBLY_MEMBERS
100
AcDbLine
 62
7
  6
CONTINUOUS
 10
12.1405483501
 20
5.2222015529
 11
12.1195989971
 21
5.21850904
  0
LINE
  5
456
100
AcDbEntity
  8
ALL_ASSEMBLY_MEMBERS
100
AcDbLine
 62
7
  6
CONTINUOUS
 10
12.1195989971
 20
5.21850904
 11
12.1190020187
 21
5.218403685
  0
LINE
  5
457
100
AcDbEntity
  8
ALL_ASSEMBLY_MEMBERS
100
AcDbLine
 62
7
  6
CONTINUOUS
 10
12.1190020187
 20
5.218403685
 11
12.1179560715
 21
5.2182190774
  0
LINE
  5
458
100
AcDbEntity
  8
ALL_ASSEMBLY_MEMBERS
100
AcDbLine
 62
7
  6
CONTINUOUS
 10
12.1179560715
 20
5.2182190774
 11
12.1169256757
 21
5.218037193
  0
LINE
  5
459
100
AcDbEntity
  8
ALL_ASSEMBLY_MEMBERS
100
AcDbLine
 62
7
  6
CONTINUOUS
 10
12.2859256757
 20
5.2471392276
 11
12.2841391968
 21
5.246844217
  0
LINE
  5
45A
100
AcDbEntity
  8
ALL_ASSEMBLY_MEMBERS
100
AcDbLine
 62
7
  6
CONTINUOUS
 10
12.269520484
 20
5.2444013809
 11
12.2693515789
 21
5.2443729703
  0
LINE
  5
45B
100
AcDbEntity
  8
ALL_ASSEMBLY_MEMBERS
100
AcDbLine
 62
7
  6
CONTINUOUS
 10
12.198411944
 20
5.2322710962
 11
12.1982424339
 21
5.2322418643
  0
LINE
  5
45C
100
AcDbEntity
  8
ALL_ASSEMBLY_MEMBERS
100
AcDbLine
 62
7
  6
CONTINUOUS
 10
12.1982424339
 20
5.2322418643
 11
12.1651477504
 21
5.2265070296
  0
LINE
  5
45D
100
AcDbEntity
  8
ALL_ASSEMBLY_MEMBERS
100
AcDbLine
 62
7
  6
CONTINUOUS
 10
12.1651477504
 20
5.2265070296
 11
12.1649775936
 21
5.2264773911
  0
LINE
  5
45E
100
AcDbEntity
  8
ALL_ASSEMBLY_MEMBERS
100
AcDbLine
 62
7
  6
CONTINUOUS
 10
12.1649775936
 20
5.2264773911
 11
12.1641108402
 21
5.2263263903
  0
LINE
  5
45F
100
AcDbEntity
  8
ALL_ASSEMBLY_MEMBERS
100
AcDbLine
 62
7
  6
CONTINUOUS
 10
12.1641108402
 20
5.2263263903
 11
12.1592156018
 21
5.2254727052
  0
LINE
  5
460
100
AcDbEntity
  8
ALL_ASSEMBLY_MEMBERS
100
AcDbLine
 62
7
  6
CONTINUOUS
 10
12.1592156018
 20
5.2254727052
 11
12.159045403
 21
5.2254429968
  0
LINE
  5
461
100
AcDbEntity
  8
ALL_ASSEMBLY_MEMBERS
100
AcDbLine
 62
7
  6
CONTINUOUS
 10
12.159045403
 20
5.2254429968
 11
12.1588467885
 21
5.2254083262
  0
LINE
  5
462
100
AcDbEntity
  8
ALL_ASSEMBLY_MEMBERS
100
AcDbLine
 62
7
  6
CONTINUOUS
 10
12.1588467885
 20
5.2254083262
 11
12.1405483501
 21
5.2222015529
  0
LINE
  5
463
100
AcDbEntity
  8
ALL_ASSEMBLY_MEMBERS
100
AcDbLine
 62
7
  6
CONTINUOUS
 10
12.4639256757
 20
5.2580496481
 11
12.463701835
 21
5.2580479895
  0
LINE
  5
464
100
AcDbEntity
  8
ALL_ASSEMBLY_MEMBERS
100
AcDbLine
 62
7
  6
CONTINUOUS
 10
12.4638706546
 20
5.2580417702
 11
12.461416774
 21
5.2578673877
  0
LINE
  5
465
100
AcDbEntity
  8
ALL_ASSEMBLY_MEMBERS
100
AcDbLine
 62
7
  6
CONTINUOUS
 10
12.461416774
 20
5.2578673877
 11
12.4298859853
 21
5.2559706769
  0
LINE
  5
466
100
AcDbEntity
  8
ALL_ASSEMBLY_MEMBERS
100
AcDbLine
 62
7
  6
CONTINUOUS
 10
12.4298859853
 20
5.2559706769
 11
12.4282762881
 21
5.255883648
  0
LINE
  5
467
100
AcDbEntity
  8
ALL_ASSEMBLY_MEMBERS
100
AcDbLine
 62
7
  6
CONTINUOUS
 10
12.4282762881
 20
5.255883648
 11
12.4264466953
 21
5.2557850615
  0
LINE
  5
468
100
AcDbEntity
  8
ALL_ASSEMBLY_MEMBERS
100
AcDbLine
 62
7
  6
CONTINUOUS
 10
12.4264466953
 20
5.2557850615
 11
12.3433356758
 21
5.2513928962
  0
LINE
  5
469
100
AcDbEntity
  8
ALL_ASSEMBLY_MEMBERS
100
AcDbLine
 62
7
  6
CONTINUOUS
 10
12.3433356758
 20
5.2513928962
 11
12.3088257718
 21
5.2498329429
  0
LINE
  5
46A
100
AcDbEntity
  8
ALL_ASSEMBLY_MEMBERS
100
AcDbLine
 62
7
  6
CONTINUOUS
 10
12.3088257718
 20
5.2498329429
 11
12.3071469122
 21
5.2497820298
  0
LINE
  5
46B
100
AcDbEntity
  8
ALL_ASSEMBLY_MEMBERS
100
AcDbLine
 62
7
  6
CONTINUOUS
 10
12.3071469122
 20
5.2497820298
 11
12.3069256756
 21
5.2497759659
  0
LINE
  5
46C
100
AcDbEntity
  8
ALL_ASSEMBLY_MEMBERS
100
AcDbLine
 62
7
  6
CONTINUOUS
 10
12.8259256664
 20
5.2159236352
 11
12.8252913058
 21
5.2160356395
  0
LINE
  5
46D
100
AcDbEntity
  8
ALL_ASSEMBLY_MEMBERS
100
AcDbLine
 62
7
  6
CONTINUOUS
 10
12.8252913058
 20
5.2160356395
 11
12.8232289278
 21
5.2164072488
  0
LINE
  5
46E
100
AcDbEntity
  8
ALL_ASSEMBLY_MEMBERS
100
AcDbLine
 62
7
  6
CONTINUOUS
 10
12.8232289278
 20
5.2164072488
 11
12.788851939
 21
5.2226316207
  0
LINE
  5
46F
100
AcDbEntity
  8
ALL_ASSEMBLY_MEMBERS
100
AcDbLine
 62
7
  6
CONTINUOUS
 10
12.788851939
 20
5.2226316207
 11
12.7874603784
 21
5.2228833874
  0
LINE
  5
470
100
AcDbEntity
  8
ALL_ASSEMBLY_MEMBERS
100
AcDbLine
 62
7
  6
CONTINUOUS
 10
12.7874603784
 20
5.2228833874
 11
12.7872826621
 21
5.2229155384
  0
LINE
  5
471
100
AcDbEntity
  8
ALL_ASSEMBLY_MEMBERS
100
AcDbLine
 62
7
  6
CONTINUOUS
 10
12.7872826621
 20
5.2229155384
 11
12.784129603
 21
5.2234858857
  0
LINE
  5
472
100
AcDbEntity
  8
ALL_ASSEMBLY_MEMBERS
100
AcDbLine
 62
7
  6
CONTINUOUS
 10
12.784129603
 20
5.2234858857
 11
12.7825310817
 21
5.2237749791
  0
LINE
  5
473
100
AcDbEntity
  8
ALL_ASSEMBLY_MEMBERS
100
AcDbLine
 62
7
  6
CONTINUOUS
 10
12.7825310817
 20
5.2237749791
 11
12.7823526692
 21
5.2238072426
  0
LINE
  5
474
100
AcDbEntity
  8
ALL_ASSEMBLY_MEMBERS
100
AcDbLine
 62
7
  6
CONTINUOUS
 10
12.7823526692
 20
5.2238072426
 11
12.7414256757
 21
5.2311942838
  0
SPLINE
  5
475
100
AcDbEntity
  8
ALL_ASSEMBLY_MEMBERS
100
AcDbSpline
 62
7
  6
CONTINUOUS
 70
0
 71
3
 72
32
 73
28
 74
0
 42
0.0000001
 43
0.0000001
 44
0.0000000001
 40
0.0
 40
0.0
 40
0.0
 40
0.0
 40
0.0006072559
 40
0.0010748068
 40
0.0016742434
 40
0.0032924621
 40
0.0054879102
 40
0.0082686247
 40
0.0116377258
 40
0.0201439268
 40
0.0309972324
 40
0.0441716835
 40
0.0596385481
 40
0.0773660703
 40
0.0973091113
 40
0.1194170962
 40
0.1436392304
 40
0.169920398
 40
0.2283864051
 40
0.294251419
 40
0.3668826502
 40
0.4455929532
 40
0.5296184857
 40
0.6181430572
 40
0.7103381588
 40
0.8053637037
 40
1.0
 40
1.0
 40
1.0
 40
1.0
 10
12.5344256757
 20
5.2562474466
 30
0.0
 10
12.5344256757
 20
5.2562413481
 30
0.0
 10
12.5344334446
 20
5.2562316365
 30
0.0
 10
12.5344469611
 20
5.2562222801
 30
0.0
 10
12.534470948
 20
5.2562094666
 30
0.0
 10
12.5345124385
 20
5.2561938802
 30
0.0
 10
12.5345759726
 20
5.2561749836
 30
0.0
 10
12.5346573663
 20
5.2561549618
 30
0.0
 10
12.5348013203
 20
5.2561241962
 30
0.0
 10
12.5350260966
 20
5.2560842017
 30
0.0
 10
12.5353490531
 20
5.2560346208
 30
0.0
 10
12.5357420371
 20
5.255980839
 30
0.0
 10
12.5362041045
 20
5.2559229939
 30
0.0
 10
12.5367341751
 20
5.2558613051
 30
0.0
 10
12.5373309455
 20
5.2557959285
 30
0.0
 10
12.5379929345
 20
5.2557270432
 30
0.0
 10
12.5387185643
 20
5.2556548269
 30
0.0
 10
12.5398079364
 20
5.2555505979
 30
0.0
 10
12.5413143195
 20
5.2554140356
 30
0.0
 10
12.5432851299
 20
5.2552451179
 30
0.0
 10
12.5454592291
 20
5.2550675001
 30
0.0
 10
12.5478157337
 20
5.254882929
 30
0.0
 10
12.5503319227
 20
5.2546931856
 30
0.0
 10
12.5529836592
 20
5.2545001121
 30
0.0
 10
12.5557460405
 20
5.2543055329
 30
0.0
 10
12.5595720202
 20
5.2540445266
 30
0.0
 10
12.5624748779
 20
5.2538556754
 30
0.0
 10
12.5644256757
 20
5.2537326742
 30
0.0
  0
LINE
  5
476
100
AcDbEntity
  8
ALL_ASSEMBLY_MEMBERS
100
AcDbLine
 62
7
  6
CONTINUOUS
 10
12.4984256757
 20
5.2563971167
 11
12.4977455994
 21
5.2562656173
  0
SPLINE
  5
477
100
AcDbEntity
  8
ALL_ASSEMBLY_MEMBERS
100
AcDbSpline
 62
7
  6
CONTINUOUS
 70
0
 71
3
 72
15
 73
11
 74
0
 42
0.0000001
 43
0.0000001
 44
0.0000000001
 40
0.0
 40
0.0
 40
0.0
 40
0.0
 40
0.0236130549
 40
0.0533921766
 40
0.1309154887
 40
0.2312282364
 40
0.3525679503
 40
0.4927354253
 40
0.6492650097
 40
1.0
 40
1.0
 40
1.0
 40
1.0
 10
12.4977455994
 20
5.2562656173
 30
0.0
 10
12.4975824024
 20
5.256250092
 30
0.0
 10
12.4972128264
 20
5.2562210248
 30
0.0
 10
12.4963056526
 20
5.2561650637
 30
0.0
 10
12.4948655679
 20
5.2561020515
 30
0.0
 10
12.4927896038
 20
5.2560352071
 30
0.0
 10
12.4902783696
 20
5.255974685
 30
0.0
 10
12.4873766242
 20
5.2559214921
 30
0.0
 10
12.4828822352
 20
5.2558597712
 30
0.0
 10
12.4793606228
 20
5.2558318307
 30
0.0
 10
12.4769256757
 20
5.2558192162
 30
0.0
  0
LINE
  5
478
100
AcDbEntity
  8
ALL_ASSEMBLY_MEMBERS
100
AcDbLine
 62
7
  6
CONTINUOUS
 10
12.7853629245
 20
5.2238736901
 11
12.7874470348
 21
5.2235408085
  0
LINE
  5
479
100
AcDbEntity
  8
ALL_ASSEMBLY_MEMBERS
100
AcDbLine
 62
7
  6
CONTINUOUS
 10
12.7874470348
 20
5.2235408085
 11
12.7875543401
 21
5.2235205266
  0
SPLINE
  5
47A
100
AcDbEntity
  8
ALL_ASSEMBLY_MEMBERS
100
AcDbSpline
 62
7
  6
CONTINUOUS
 70
0
 71
3
 72
25
 73
21
 74
0
 42
0.0000001
 43
0.0000001
 44
0.0000000001
 40
0.0
 40
0.0
 40
0.0
 40
0.0
 40
0.219831909
 40
0.4172052854
 40
0.5893270152
 40
0.6651285662
 40
0.7337141312
 40
0.7948060654
 40
0.8481758099
 40
0.893656042
 40
0.9310880616
 40
0.9467398243
 40
0.9603324378
 40
0.9718661042
 40
0.9813463237
 40
0.9887887306
 40
0.9942342151
 40
0.9962432401
 40
0.9978176498
 40
1.0
 40
1.0
 40
1.0
 40
1.0
 10
12.6591995309
 20
5.2449291227
 30
0.0
 10
12.65976568
 20
5.2448735909
 30
0.0
 10
12.6608403975
 20
5.2447707979
 30
0.0
 10
12.6623593614
 20
5.2446349103
 30
0.0
 10
12.6635078612
 20
5.2445410692
 30
0.0
 10
12.6643247096
 20
5.2444811311
 30
0.0
 10
12.664855254
 20
5.2444456511
 30
0.0
 10
12.6653281191
 20
5.244417828
 30
0.0
 10
12.665741529
 20
5.2443977435
 30
0.0
 10
12.6660939861
 20
5.2443854363
 30
0.0
 10
12.6663490406
 20
5.2443813289
 30
0.0
 10
12.6665215842
 20
5.2443826152
 30
0.0
 10
12.6666270781
 20
5.2443854871
 30
0.0
 10
12.6667165111
 20
5.2443902989
 30
0.0
 10
12.6667898822
 20
5.2443969334
 30
0.0
 10
12.6668471554
 20
5.2444054937
 30
0.0
 10
12.6668847646
 20
5.2444144383
 30
0.0
 10
12.6669064381
 20
5.2444235828
 30
0.0
 10
12.6669191226
 20
5.24443108
 30
0.0
 10
12.6669256757
 20
5.2444402197
 30
0.0
 10
12.6669256757
 20
5.244445867
 30
0.0
  0
LINE
  5
47B
100
AcDbEntity
  8
ALL_ASSEMBLY_MEMBERS
100
AcDbLine
 62
7
  6
CONTINUOUS
 10
12.6273706124
 20
5.2485080323
 11
12.6287718343
 21
5.2483470639
  0
LINE
  5
47C
100
AcDbEntity
  8
ALL_ASSEMBLY_MEMBERS
100
AcDbLine
 62
7
  6
CONTINUOUS
 10
12.6287718343
 20
5.2483470639
 11
12.6304524083
 21
5.2481516857
  0
LINE
  5
47D
100
AcDbEntity
  8
ALL_ASSEMBLY_MEMBERS
100
AcDbLine
 62
7
  6
CONTINUOUS
 10
12.6251481012
 20
5.2486719026
 11
12.6264841586
 21
5.2485748276
  0
LINE
  5
47E
100
AcDbEntity
  8
ALL_ASSEMBLY_MEMBERS
100
AcDbLine
 62
7
  6
CONTINUOUS
 10
12.6264841586
 20
5.2485748276
 11
12.6273706124
 21
5.2485080323
  0
LINE
  5
47F
100
AcDbEntity
  8
ALL_ASSEMBLY_MEMBERS
100
AcDbLine
 62
7
  6
CONTINUOUS
 10
12.1589279459
 20
5.2261368119
 11
12.1595952785
 21
5.2262388918
  0
LINE
  5
480
100
AcDbEntity
  8
ALL_ASSEMBLY_MEMBERS
100
AcDbLine
 62
7
  6
CONTINUOUS
 10
12.1595952785
 20
5.2262388918
 11
12.161594981
 21
5.2265367447
  0
LINE
  5
481
100
AcDbEntity
  8
ALL_ASSEMBLY_MEMBERS
100
AcDbLine
 62
7
  6
CONTINUOUS
 10
12.161594981
 20
5.2265367447
 11
12.1648946932
 21
5.2270251878
  0
LINE
  5
482
100
AcDbEntity
  8
ALL_ASSEMBLY_MEMBERS
100
AcDbLine
 62
7
  6
CONTINUOUS
 10
12.2314152917
 20
5.2379353577
 11
12.198213441
 21
5.2324113742
  0
LINE
  5
483
100
AcDbEntity
  8
ALL_ASSEMBLY_MEMBERS
100
AcDbLine
 62
7
  6
CONTINUOUS
 10
12.198213441
 20
5.2324113742
 11
12.1648946932
 21
5.2270251878
  0
LINE
  5
484
100
AcDbEntity
  8
ALL_ASSEMBLY_MEMBERS
100
AcDbLine
 62
7
  6
CONTINUOUS
 10
12.4769256757
 20
5.2568200122
 11
12.4789499119
 21
5.2568321452
  0
SPLINE
  5
485
100
AcDbEntity
  8
ALL_ASSEMBLY_MEMBERS
100
AcDbSpline
 62
7
  6
CONTINUOUS
 70
0
 71
3
 72
30
 73
26
 74
0
 42
0.0000001
 43
0.0000001
 44
0.0000000001
 40
0.0
 40
0.0
 40
0.0
 40
0.0
 40
0.2113707669
 40
0.3108562834
 40
0.4054347038
 40
0.4945856282
 40
0.5778076025
 40
0.654635712
 40
0.7246111129
 40
0.7873296018
 40
0.8424519103
 40
0.8896490476
 40
0.9101923958
 40
0.9286640877
 40
0.9450386178
 40
0.959290993
 40
0.9713978783
 40
0.9813474904
 40
0.9891383386
 40
0.9922262973
 40
0.9947789681
 40
0.9968021989
 40
0.9983092209
 40
0.9993352406
 40
1.0
 40
1.0
 40
1.0
 40
1.0
 10
12.4789499119
 20
5.2568321452
 30
0.0
 10
12.4803241751
 20
5.256841528
 30
0.0
 10
12.4823452406
 20
5.2568587745
 30
0.0
 10
12.4849811271
 20
5.2568895505
 30
0.0
 10
12.4868223629
 20
5.2569152073
 30
0.0
 10
12.4885578004
 20
5.2569437504
 30
0.0
 10
12.4901777618
 20
5.2569750261
 30
0.0
 10
12.4916729681
 20
5.2570088147
 30
0.0
 10
12.4930347684
 20
5.2570449238
 30
0.0
 10
12.4942553245
 20
5.2570831246
 30
0.0
 10
12.4953276326
 20
5.257123134
 30
0.0
 10
12.4961256646
 20
5.2571591939
 30
0.0
 10
12.4966853898
 20
5.2571894026
 30
0.0
 10
12.4970448597
 20
5.2572113058
 30
0.0
 10
12.4973633251
 20
5.2572334694
 30
0.0
 10
12.4976402764
 20
5.2572558481
 30
0.0
 10
12.4978752884
 20
5.2572783699
 30
0.0
 10
12.4980680411
 20
5.2573009829
 30
0.0
 10
12.4982020353
 20
5.2573209417
 30
0.0
 10
12.4982877765
 20
5.2573376159
 30
0.0
 10
12.4983362683
 20
5.257349149
 30
0.0
 10
12.4983742052
 20
5.2573604642
 30
0.0
 10
12.4984015952
 20
5.2573719909
 30
0.0
 10
12.4984194409
 20
5.2573827949
 30
0.0
 10
12.4984256757
 20
5.2573932174
 30
0.0
 10
12.4984256757
 20
5.2573975396
 30
0.0
  0
LINE
  5
486
100
AcDbEntity
  8
ALL_ASSEMBLY_MEMBERS
100
AcDbLine
 62
7
  6
CONTINUOUS
 10
12.4282256757
 20
5.2565692461
 11
12.4257694197
 21
5.2563091935
  0
SPLINE
  5
487
100
AcDbEntity
  8
ALL_ASSEMBLY_MEMBERS
100
AcDbSpline
 62
7
  6
CONTINUOUS
 70
0
 71
3
 72
23
 73
19
 74
0
 42
0.0000001
 43
0.0000001
 44
0.0000000001
 40
0.0
 40
0.0
 40
0.0
 40
0.0
 40
0.0261432068
 40
0.063437679
 40
0.1131303398
 40
0.1749071865
 40
0.246677749
 40
0.3264126219
 40
0.4123432588
 40
0.5020077902
 40
0.5918452961
 40
0.6780675342
 40
0.7582345049
 40
0.8304295006
 40
0.8921308968
 40
0.9408080342
 40
0.9762546072
 40
1.0
 40
1.0
 40
1.0
 40
1.0
 10
12.4257694197
 20
5.2563091935
 30
0.0
 10
12.4250699045
 20
5.2562442191
 30
0.0
 10
12.4233715212
 20
5.2560970973
 30
0.0
 10
12.4203406555
 20
5.2558604433
 30
0.0
 10
12.4163530792
 20
5.2555768686
 30
0.0
 10
12.4114396608
 20
5.2552529845
 30
0.0
 10
12.4057196048
 20
5.2548929374
 30
0.0
 10
12.3993508322
 20
5.2545072124
 30
0.0
 10
12.3925011141
 20
5.2541087728
 30
0.0
 10
12.3853790354
 20
5.2537181119
 30
0.0
 10
12.3782476894
 20
5.2533542935
 30
0.0
 10
12.3713701376
 20
5.2530258003
 30
0.0
 10
12.3649654089
 20
5.252735682
 30
0.0
 10
12.3592183185
 20
5.2524893851
 30
0.0
 10
12.3543159656
 20
5.2522957262
 30
0.0
 10
12.3503994268
 20
5.2521660712
 30
0.0
 10
12.3475015741
 20
5.2520949392
 30
0.0
 10
12.3459110185
 20
5.2520749
 30
0.0
 10
12.3452729305
 20
5.2520727382
 30
0.0
  0
LINE
  5
488
100
AcDbEntity
  8
ALL_ASSEMBLY_MEMBERS
100
AcDbLine
 62
7
  6
CONTINUOUS
 10
12.3452729305
 20
5.2520727382
 11
12.3432256757
 21
5.2521075804
  0
LINE
  5
489
100
AcDbEntity
  8
ALL_ASSEMBLY_MEMBERS
100
AcDbLine
 62
7
  6
CONTINUOUS
 10
12.198213441
 20
5.2334275213
 11
12.2693755641
 21
5.2452302028
  0
LINE
  5
48A
100
AcDbEntity
  8
ALL_ASSEMBLY_MEMBERS
100
AcDbLine
 62
7
  6
CONTINUOUS
 10
12.6140908656
 20
5.2493093317
 11
12.5884256757
 21
5.2510283535
  0
SPLINE
  5
48B
100
AcDbEntity
  8
ALL_ASSEMBLY_MEMBERS
100
AcDbSpline
 62
7
  6
CONTINUOUS
 70
0
 71
3
 72
32
 73
28
 74
0
 42
0.0000001
 43
0.0000001
 44
0.0000000001
 40
0.0
 40
0.0
 40
0.0
 40
0.0
 40
0.1946199981
 40
0.2896947353
 40
0.3819170129
 40
0.4704479642
 40
0.5544649093
 40
0.6331789731
 40
0.7058176912
 40
0.7716762052
 40
0.8301360805
 40
0.8564068986
 40
0.8806236883
 40
0.902729819
 40
0.9226687941
 40
0.9403873718
 40
0.9558479438
 40
0.9690182534
 40
0.9798670941
 40
0.988367701
 40
0.9917347772
 40
0.994513997
 40
0.9967084182
 40
0.9983260169
 40
0.998925278
 40
0.9993927337
 40
1.0
 40
1.0
 40
1.0
 40
1.0
 10
12.5644256757
 20
5.2527298788
 30
0.0
 10
12.5624750362
 20
5.2528529498
 30
0.0
 10
12.5595718426
 20
5.2530419616
 30
0.0
 10
12.5557452512
 20
5.2533031577
 30
0.0
 10
12.5529820363
 20
5.2534979343
 30
0.0
 10
12.5503300444
 20
5.2536911447
 30
0.0
 10
12.5478138373
 20
5.2538810301
 30
0.0
 10
12.5454573039
 20
5.2540657327
 30
0.0
 10
12.5432831545
 20
5.2542434618
 30
0.0
 10
12.5413123966
 20
5.2544125074
 30
0.0
 10
12.5398062427
 20
5.2545491292
 30
0.0
 10
12.5387170919
 20
5.2546534295
 30
0.0
 10
12.5379916389
 20
5.2547256814
 30
0.0
 10
12.5373297635
 20
5.2547945982
 30
0.0
 10
12.5367331428
 20
5.2548599997
 30
0.0
 10
12.5362032682
 20
5.2549217195
 30
0.0
 10
12.5357413971
 20
5.2549795858
 30
0.0
 10
12.5353485648
 20
5.2550333876
 30
0.0
 10
12.5350257533
 20
5.2550829847
 30
0.0
 10
12.5348011029
 20
5.2551230009
 30
0.0
 10
12.5346572435
 20
5.2551537753
 30
0.0
 10
12.5345758978
 20
5.2551738029
 30
0.0
 10
12.5345123978
 20
5.2551927043
 30
0.0
 10
12.5344709277
 20
5.2552082945
 30
0.0
 10
12.5344469523
 20
5.25522111
 30
0.0
 10
12.5344334401
 20
5.2552304693
 30
0.0
 10
12.5344256757
 20
5.2552401818
 30
0.0
 10
12.5344256757
 20
5.2552462804
 30
0.0
  0
LINE
  5
48C
100
AcDbEntity
  8
ALL_ASSEMBLY_MEMBERS
100
AcDbLine
 62
7
  6
CONTINUOUS
 10
12.7875543401
 20
5.2245426286
 11
12.787029257
 21
5.224633024
  0
LINE
  5
48D
100
AcDbEntity
  8
ALL_ASSEMBLY_MEMBERS
100
AcDbLine
 62
7
  6
CONTINUOUS
 10
12.787029257
 20
5.224633024
 11
12.7826056816
 21
5.2253184066
  0
LINE
  5
48E
100
AcDbEntity
  8
ALL_ASSEMBLY_MEMBERS
100
AcDbLine
 62
7
  6
CONTINUOUS
 10
12.1648946932
 20
5.2280449342
 11
12.198213441
 21
5.2334275213
  0
LINE
  5
48F
100
AcDbEntity
  8
ALL_ASSEMBLY_MEMBERS
100
AcDbLine
 62
7
  6
CONTINUOUS
 10
12.1589279415
 20
5.2271571537
 11
12.1596447351
 21
5.2272665785
  0
LINE
  5
490
100
AcDbEntity
  8
ALL_ASSEMBLY_MEMBERS
100
AcDbLine
 62
7
  6
CONTINUOUS
 10
12.1596447351
 20
5.2272665785
 11
12.1648946932
 21
5.2280449342
  0
LINE
  5
491
100
AcDbEntity
  8
ALL_ASSEMBLY_MEMBERS
100
AcDbLine
 62
7
  6
CONTINUOUS
 10
12.7826056816
 20
5.2242968273
 11
12.7436767351
 21
5.2309377634
  0
LINE
  5
492
100
AcDbEntity
  8
ALL_ASSEMBLY_MEMBERS
100
AcDbLine
 62
7
  6
CONTINUOUS
 10
12.7436767351
 20
5.2309377634
 11
12.740376576
 21
5.231519885
  0
LINE
  5
493
100
AcDbEntity
  8
ALL_ASSEMBLY_MEMBERS
100
AcDbLine
 62
7
  6
CONTINUOUS
 10
12.740376576
 20
5.231519885
 11
12.7370704638
 21
5.2321047881
  0
LINE
  5
494
100
AcDbEntity
  8
ALL_ASSEMBLY_MEMBERS
100
AcDbLine
 62
7
  6
CONTINUOUS
 10
12.709207556
 20
5.2367796862
 11
12.703207556
 21
5.2379455127
  0
LINE
  5
495
100
AcDbEntity
  8
ALL_ASSEMBLY_MEMBERS
100
AcDbLine
 62
7
  6
CONTINUOUS
 10
12.5884256757
 20
5.2520322536
 11
12.6140908656
 21
5.2503143502
  0
LINE
  5
496
100
AcDbEntity
  8
ALL_ASSEMBLY_MEMBERS
100
AcDbLine
 62
7
  6
CONTINUOUS
 10
12.6669256757
 20
5.2434370089
 11
12.6661369029
 21
5.2433765007
  0
LINE
  5
497
100
AcDbEntity
  8
ALL_ASSEMBLY_MEMBERS
100
AcDbLine
 62
7
  6
CONTINUOUS
 10
12.6661369029
 20
5.2433765007
 11
12.6569256757
 21
5.2441506228
  0
LINE
  5
498
100
AcDbEntity
  8
ALL_ASSEMBLY_MEMBERS
100
AcDbLine
 62
7
  6
CONTINUOUS
 10
12.7370704638
 20
5.2331211395
 11
12.7403749784
 21
5.2325369081
  0
LINE
  5
499
100
AcDbEntity
  8
ALL_ASSEMBLY_MEMBERS
100
AcDbLine
 62
7
  6
CONTINUOUS
 10
12.7403749784
 20
5.2325369081
 11
12.7436743124
 21
5.2319553192
  0
LINE
  5
49A
100
AcDbEntity
  8
ALL_ASSEMBLY_MEMBERS
100
AcDbLine
 62
7
  6
CONTINUOUS
 10
12.7436743124
 20
5.2319553192
 11
12.7826056816
 21
5.2253184066
  0
LINE
  5
49B
100
AcDbEntity
  8
ALL_ASSEMBLY_MEMBERS
100
AcDbLine
 62
7
  6
CONTINUOUS
 10
12.703207556
 20
5.2389579882
 11
12.709207556
 21
5.237792933
  0
LINE
  5
49C
100
AcDbEntity
  8
ALL_ASSEMBLY_MEMBERS
100
AcDbLine
 62
7
  6
CONTINUOUS
 10
12.3432256757
 20
5.2531107795
 11
12.3439832698
 21
5.2530830592
  0
SPLINE
  5
49D
100
AcDbEntity
  8
ALL_ASSEMBLY_MEMBERS
100
AcDbSpline
 62
7
  6
CONTINUOUS
 70
0
 71
3
 72
29
 73
25
 74
0
 42
0.0000001
 43
0.0000001
 44
0.0000000001
 40
0.0
 40
0.0
 40
0.0
 40
0.0
 40
0.007304721
 40
0.0176768717
 40
0.0499922425
 40
0.0731483901
 40
0.1014134139
 40
0.173192978
 40
0.2613737083
 40
0.3612652974
 40
0.4688175684
 40
0.5235728406
 40
0.5776929548
 40
0.6808849181
 40
0.773779569
 40
0.8152840011
 40
0.8527839283
 40
0.9137586939
 40
0.955865208
 40
0.9706281809
 40
0.9818166045
 40
0.9953725716
 40
0.9986104664
 40
1.0
 40
1.0
 40
1.0
 40
1.0
 10
12.3439832698
 20
5.2530830592
 30
0.0
 10
12.3441886611
 20
5.2530793566
 30
0.0
 10
12.3446857663
 20
5.2530745454
 30
0.0
 10
12.3460916757
 20
5.253076674
 30
0.0
 10
12.3479431806
 20
5.2531083012
 30
0.0
 10
12.3502972454
 20
5.2531690579
 30
0.0
 10
12.3537602297
 20
5.2532779738
 30
0.0
 10
12.3590495819
 20
5.2534837531
 30
0.0
 10
12.3663504061
 20
5.2537984511
 30
0.0
 10
12.3746552251
 20
5.2541809223
 30
0.0
 10
12.382019812
 20
5.2545460455
 30
0.0
 10
12.3880976886
 20
5.25486847
 30
0.0
 10
12.3940522938
 20
5.2551995155
 30
0.0
 10
12.4010766627
 20
5.2556103258
 30
0.0
 10
12.4077456747
 20
5.2560200688
 30
0.0
 10
12.412569988
 20
5.2563287314
 30
0.0
 10
12.4164979239
 20
5.2565885463
 30
0.0
 10
12.420441629
 20
5.2568664286
 30
0.0
 10
12.4237453801
 20
5.2571281499
 30
0.0
 10
12.4256518269
 20
5.2572975258
 30
0.0
 10
12.4267577925
 20
5.2574034748
 30
0.0
 10
12.4275405341
 20
5.2574849761
 30
0.0
 10
12.4280482323
 20
5.2575460708
 30
0.0
 10
12.4281772928
 20
5.2575627766
 30
0.0
 10
12.4282159934
 20
5.2575681858
 30
0.0
  0
SPLINE
  5
49E
100
AcDbEntity
  8
ALL_ASSEMBLY_MEMBERS
100
AcDbSpline
 62
7
  6
CONTINUOUS
 70
0
 71
3
 72
8
 73
4
 74
0
 42
0.0000001
 43
0.0000001
 44
0.0000000001
 40
0.0
 40
0.0
 40
0.0
 40
0.0
 40
1.0
 40
1.0
 40
1.0
 40
1.0
 10
12.4282159934
 20
5.2575681858
 30
0.0
 10
12.4282192208
 20
5.2575686431
 30
0.0
 10
12.4282224482
 20
5.2575691005
 30
0.0
 10
12.4282256757
 20
5.2575695578
 30
0.0
  0
SPLINE
  5
49F
100
AcDbEntity
  8
ALL_ASSEMBLY_MEMBERS
100
AcDbSpline
 62
7
  6
CONTINUOUS
 70
0
 71
3
 72
29
 73
25
 74
0
 42
0.0000001
 43
0.0000001
 44
0.0000000001
 40
0.0
 40
0.0
 40
0.0
 40
0.0
 40
0.008274664
 40
0.0171558912
 40
0.0271320321
 40
0.0385443046
 40
0.0516153037
 40
0.0664787661
 40
0.0832050025
 40
0.1018297771
 40
0.1223673553
 40
0.1448157634
 40
0.1691495705
 40
0.1953309472
 40
0.2530574293
 40
0.3175825554
 40
0.3883575958
 40
0.4647826613
 40
0.5461555573
 40
0.631729966
 40
0.720738189
 40
0.8123944598
 40
0.9058242908
 40
1.0
 40
1.0
 40
1.0
 40
1.0
 10
8.3894256757
 20
7.2023208215
 30
0.0
 10
8.3894256757
 20
7.2025431319
 30
0.0
 10
8.389493954
 20
7.2030062121
 30
0.0
 10
8.3897904377
 20
7.2036795202
 30
0.0
 10
8.3902723537
 20
7.2043405967
 30
0.0
 10
8.3909352433
 20
7.2049912985
 30
0.0
 10
8.3917778412
 20
7.2056331008
 30
0.0
 10
8.3927988506
 20
7.2062660323
 30
0.0
 10
8.3939962714
 20
7.2068896261
 30
0.0
 10
8.3953677709
 20
7.2075025952
 30
0.0
 10
8.3969106883
 20
7.2081035042
 30
0.0
 10
8.3986218154
 20
7.2086906471
 30
0.0
 10
8.4004970549
 20
7.2092628618
 30
0.0
 10
8.4033026833
 20
7.2100292011
 30
0.0
 10
8.4071895337
 20
7.2109280506
 30
0.0
 10
8.412285607
 20
7.2118946348
 30
0.0
 10
8.4179066613
 20
7.2127723461
 30
0.0
 10
8.4239986936
 20
7.2135510652
 30
0.0
 10
8.4305030761
 20
7.2142239897
 30
0.0
 10
8.4373573399
 20
7.2147838215
 30
0.0
 10
8.4444970231
 20
7.2152251488
 30
0.0
 10
8.4518544678
 20
7.2155435406
 30
0.0
 10
8.4593551262
 20
7.2157354719
 30
0.0
 10
8.4643955141
 20
7.2157785552
 30
0.0
 10
8.4669256757
 20
7.2157785552
 30
0.0
  0
SPLINE
  5
4A0
100
AcDbEntity
  8
ALL_ASSEMBLY_MEMBERS
100
AcDbSpline
 62
7
  6
CONTINUOUS
 70
0
 71
3
 72
41
 73
37
 74
0
 42
0.0000001
 43
0.0000001
 44
0.0000000001
 40
0.0
 40
0.0
 40
0.0
 40
0.0
 40
0.0939707217
 40
0.1870746686
 40
0.2784427304
 40
0.3672369035
 40
0.4526387231
 40
0.5338694468
 40
0.5726900539
 40
0.610196551
 40
0.6463064761
 40
0.6809407534
 40
0.7140251571
 40
0.7454906305
 40
0.7752728316
 40
0.8033147575
 40
0.8295645262
 40
0.8539800761
 40
0.8765264447
 40
0.8971817045
 40
0.9067973357
 40
0.9159379132
 40
0.9246055567
 40
0.9328037138
 40
0.9405373815
 40
0.947813616
 40
0.954642661
 40
0.9610380692
 40
0.9670171677
 40
0.972602061
 40
0.9778211981
 40
0.9827106655
 40
0.987314899
 40
0.9916876192
 40
0.9958920931
 40
1.0
 40
1.0
 40
1.0
 40
1.0
 10
8.4669256757
 20
7.2442577483
 30
0.0
 10
8.4812456362
 20
7.2442577483
 30
0.0
 10
8.5097540721
 20
7.2440165954
 30
0.0
 10
8.5521734418
 20
7.2429334714
 30
0.0
 10
8.5937793873
 20
7.2411398643
 30
0.0
 10
8.6341740382
 20
7.2386536799
 30
0.0
 10
8.6729724272
 20
7.235499032
 30
0.0
 10
8.7041193538
 20
7.232292968
 30
0.0
 10
8.7279545835
 20
7.2293980394
 30
0.0
 10
8.7449360702
 20
7.2271131533
 30
0.0
 10
8.7612533819
 20
7.2246875393
 30
0.0
 10
8.7768676384
 20
7.222126933
 30
0.0
 10
8.7917416135
 20
7.2194375385
 30
0.0
 10
8.805839896
 20
7.2166260585
 30
0.0
 10
8.8191289884
 20
7.2136990571
 30
0.0
 10
8.8315773803
 20
7.21066411
 30
0.0
 10
8.8431556521
 20
7.2075281391
 30
0.0
 10
8.8538367255
 20
7.2042994275
 30
0.0
 10
8.8635954771
 20
7.2009852835
 30
0.0
 10
8.871110305
 20
7.1980946142
 30
0.0
 10
8.8766329453
 20
7.1957329692
 30
0.0
 10
8.8804306858
 20
7.1939876077
 30
0.0
 10
8.8839817911
 20
7.1922268028
 30
0.0
 10
8.8872842853
 20
7.1904515341
 30
0.0
 10
8.8903362582
 20
7.1886628217
 30
0.0
 10
8.8931358956
 20
7.186861519
 30
0.0
 10
8.8956817314
 20
7.1850486347
 30
0.0
 10
8.8979725082
 20
7.1832250839
 30
0.0
 10
8.9000070019
 20
7.181391647
 30
0.0
 10
8.9017839357
 20
7.1795488858
 30
0.0
 10
8.9033021014
 20
7.1776972741
 30
0.0
 10
8.9045604466
 20
7.1758373068
 30
0.0
 10
8.9055575437
 20
7.1739694128
 30
0.0
 10
8.9062915042
 20
7.1720940714
 30
0.0
 10
8.90675998
 20
7.1702130129
 30
0.0
 10
8.9068950071
 20
7.1689486137
 30
0.0
 10
8.9069171802
 20
7.168323013
 30
0.0
  0
SPLINE
  5
4A1
100
AcDbEntity
  8
ALL_ASSEMBLY_MEMBERS
100
AcDbSpline
 62
7
  6
CONTINUOUS
 70
0
 71
3
 72
41
 73
37
 74
0
 42
0.0000001
 43
0.0000001
 44
0.0000000001
 40
0.0
 40
0.0
 40
0.0
 40
0.0
 40
0.0939707217
 40
0.1870746686
 40
0.2784427304
 40
0.3672369035
 40
0.4526387231
 40
0.5338694468
 40
0.5726900539
 40
0.610196551
 40
0.6463064761
 40
0.6809407534
 40
0.7140251571
 40
0.7454906305
 40
0.7752728316
 40
0.8033147575
 40
0.8295645262
 40
0.8539800761
 40
0.8765264447
 40
0.8971817045
 40
0.9067973357
 40
0.9159379132
 40
0.9246055567
 40
0.9328037138
 40
0.9405373815
 40
0.947813616
 40
0.954642661
 40
0.9610380692
 40
0.9670171677
 40
0.972602061
 40
0.9778211981
 40
0.9827106655
 40
0.987314899
 40
0.9916876192
 40
0.9958920931
 40
1.0
 40
1.0
 40
1.0
 40
1.0
 10
8.4669256757
 20
7.2442577483
 30
0.0
 10
8.4526057152
 20
7.2442577483
 30
0.0
 10
8.4240972793
 20
7.2440165954
 30
0.0
 10
8.3816779096
 20
7.2429334714
 30
0.0
 10
8.3400719641
 20
7.2411398643
 30
0.0
 10
8.2996773131
 20
7.2386536799
 30
0.0
 10
8.2608789241
 20
7.235499032
 30
0.0
 10
8.2297319975
 20
7.232292968
 30
0.0
 10
8.2058967679
 20
7.2293980394
 30
0.0
 10
8.1889152811
 20
7.2271131533
 30
0.0
 10
8.1725979694
 20
7.2246875393
 30
0.0
 10
8.156983713
 20
7.222126933
 30
0.0
 10
8.1421097378
 20
7.2194375385
 30
0.0
 10
8.1280114553
 20
7.2166260585
 30
0.0
 10
8.114722363
 20
7.2136990571
 30
0.0
 10
8.1022739711
 20
7.21066411
 30
0.0
 10
8.0906956993
 20
7.2075281391
 30
0.0
 10
8.0800146259
 20
7.2042994275
 30
0.0
 10
8.0702558743
 20
7.2009852835
 30
0.0
 10
8.0627410463
 20
7.1980946142
 30
0.0
 10
8.0572184061
 20
7.1957329692
 30
0.0
 10
8.0534206655
 20
7.1939876077
 30
0.0
 10
8.0498695603
 20
7.1922268028
 30
0.0
 10
8.0465670661
 20
7.1904515341
 30
0.0
 10
8.0435150931
 20
7.1886628217
 30
0.0
 10
8.0407154557
 20
7.186861519
 30
0.0
 10
8.0381696199
 20
7.1850486347
 30
0.0
 10
8.0358788431
 20
7.1832250839
 30
0.0
 10
8.0338443494
 20
7.181391647
 30
0.0
 10
8.0320674157
 20
7.1795488858
 30
0.0
 10
8.03054925
 20
7.1776972741
 30
0.0
 10
8.0292909048
 20
7.1758373068
 30
0.0
 10
8.0282938077
 20
7.1739694128
 30
0.0
 10
8.0275598472
 20
7.1720940714
 30
0.0
 10
8.0270913714
 20
7.1702130129
 30
0.0
 10
8.0269563443
 20
7.1689486137
 30
0.0
 10
8.0269341711
 20
7.168323013
 30
0.0
  0
LINE
  5
4A2
100
AcDbEntity
  8
ALL_ASSEMBLY_MEMBERS
100
AcDbLine
 62
7
  6
CONTINUOUS
 10
8.3435360489
 20
7.1988478579
 11
8.3452748563
 21
7.1973298993
  0
LINE
  5
4A3
100
AcDbEntity
  8
ALL_ASSEMBLY_MEMBERS
100
AcDbLine
 62
7
  6
CONTINUOUS
 10
8.588576495
 20
7.1973298993
 11
8.5903153025
 21
7.1988478579
  0
SPLINE
  5
4A4
100
AcDbEntity
  8
ALL_ASSEMBLY_MEMBERS
100
AcDbSpline
 62
7
  6
CONTINUOUS
 70
0
 71
3
 72
29
 73
25
 74
0
 42
0.0000001
 43
0.0000001
 44
0.0000000001
 40
0.0
 40
0.0
 40
0.0
 40
0.0
 40
0.0941757092
 40
0.1876055402
 40
0.279261811
 40
0.368270034
 40
0.4538444427
 40
0.5352173387
 40
0.6116424042
 40
0.6824174446
 40
0.7469425707
 40
0.8046690528
 40
0.8308504295
 40
0.8551842366
 40
0.8776326447
 40
0.8981702229
 40
0.9167949975
 40
0.9335212339
 40
0.9483846963
 40
0.9614556954
 40
0.9728679679
 40
0.9828441088
 40
0.991725336
 40
1.0
 40
1.0
 40
1.0
 40
1.0
 10
8.4669256757
 20
7.2157785552
 30
0.0
 10
8.4694558373
 20
7.2157785552
 30
0.0
 10
8.4744962251
 20
7.2157354719
 30
0.0
 10
8.4819968836
 20
7.2155435406
 30
0.0
 10
8.4893543282
 20
7.2152251488
 30
0.0
 10
8.4964940114
 20
7.2147838215
 30
0.0
 10
8.5033482753
 20
7.2142239897
 30
0.0
 10
8.5098526578
 20
7.2135510652
 30
0.0
 10
8.51594469
 20
7.2127723461
 30
0.0
 10
8.5215657443
 20
7.2118946348
 30
0.0
 10
8.5266618176
 20
7.2109280506
 30
0.0
 10
8.530548668
 20
7.2100292011
 30
0.0
 10
8.5333542965
 20
7.2092628618
 30
0.0
 10
8.5352295359
 20
7.2086906471
 30
0.0
 10
8.5369406631
 20
7.2081035042
 30
0.0
 10
8.5384835804
 20
7.2075025952
 30
0.0
 10
8.53985508
 20
7.2068896261
 30
0.0
 10
8.5410525007
 20
7.2062660323
 30
0.0
 10
8.5420735102
 20
7.2056331008
 30
0.0
 10
8.542916108
 20
7.2049912985
 30
0.0
 10
8.5435789976
 20
7.2043405967
 30
0.0
 10
8.5440609136
 20
7.2036795202
 30
0.0
 10
8.5443573973
 20
7.2030062121
 30
0.0
 10
8.5444256757
 20
7.2025431319
 30
0.0
 10
8.5444256757
 20
7.2023208215
 30
0.0
  0
SPLINE
  5
4A5
100
AcDbEntity
  8
ALL_ASSEMBLY_MEMBERS
100
AcDbSpline
 62
7
  6
CONTINUOUS
 70
0
 71
3
 72
42
 73
38
 74
0
 42
0.0000001
 43
0.0000001
 44
0.0000000001
 40
0.0
 40
0.0
 40
0.0
 40
0.0
 40
0.0041075526
 40
0.0082935
 40
0.0126319059
 40
0.0171889216
 40
0.0220212237
 40
0.0271759778
 40
0.032691437
 40
0.0385977615
 40
0.0449187511
 40
0.0516731618
 40
0.058875378
 40
0.0665359431
 40
0.0746627668
 40
0.083261708
 40
0.0923365197
 40
0.1018890359
 40
0.1224278227
 40
0.1448727387
 40
0.1692014065
 40
0.1953807433
 40
0.2233675759
 40
0.2531112242
 40
0.2845536042
 40
0.3176307141
 40
0.3522727891
 40
0.3884050743
 40
0.425948213
 40
0.4648185052
 40
0.5049285549
 40
0.5461872046
 40
0.6317695016
 40
0.7207792827
 40
0.8123924401
 40
0.9057558472
 40
1.0
 40
1.0
 40
1.0
 40
1.0
 10
7.9169257936
 20
7.1678525501
 30
0.0
 10
7.9169257936
 20
7.1670693203
 30
0.0
 10
7.9170386986
 20
7.1654857142
 30
0.0
 10
7.917544461
 20
7.1631235056
 30
0.0
 10
7.9183852615
 20
7.160767949
 30
0.0
 10
7.9195581871
 20
7.158421505
 30
0.0
 10
7.9210607874
 20
7.1560849251
 30
0.0
 10
7.9228912198
 20
7.1537588444
 30
0.0
 10
7.9250479536
 20
7.1514438183
 30
0.0
 10
7.9275293384
 20
7.1491403033
 30
0.0
 10
7.9303339427
 20
7.1468490661
 30
0.0
 10
7.9334603575
 20
7.1445711237
 30
0.0
 10
7.9369069276
 20
7.1423075982
 30
0.0
 10
7.9406716393
 20
7.1400595267
 30
0.0
 10
7.9447523974
 20
7.1378281401
 30
0.0
 10
7.9491469888
 20
7.1356148005
 30
0.0
 10
7.9538528894
 20
7.1334207488
 30
0.0
 10
7.9607058808
 20
7.1304505308
 30
0.0
 10
7.9700445521
 20
7.1268148055
 30
0.0
 10
7.9821871783
 20
7.1226472262
 30
0.0
 10
7.995494313
 20
7.1185859251
 30
0.0
 10
8.0099344672
 20
7.1146411071
 30
0.0
 10
8.0254736251
 20
7.1108223657
 30
0.0
 10
8.0420747781
 20
7.1071392806
 30
0.0
 10
8.05969829
 20
7.103600832
 30
0.0
 10
8.078301941
 20
7.1002157831
 30
0.0
 10
8.097841108
 20
7.0969924157
 30
0.0
 10
8.1182688569
 20
7.0939386121
 30
0.0
 10
8.1395360864
 20
7.091061874
 30
0.0
 10
8.161591645
 20
7.0883691667
 30
0.0
 10
8.1843824788
 20
7.0858670883
 30
0.0
 10
8.2160648968
 20
7.082755369
 30
0.0
 10
8.2570901169
 20
7.0794052895
 30
0.0
 10
8.3077564873
 20
7.0762735665
 30
0.0
 10
8.3599543416
 20
7.0740143583
 30
0.0
 10
8.4131813087
 20
7.0726498006
 30
0.0
 10
8.4489551609
 20
7.0723460524
 30
0.0
 10
8.4669256757
 20
7.0723460524
 30
0.0
  0
SPLINE
  5
4A6
100
AcDbEntity
  8
ALL_ASSEMBLY_MEMBERS
100
AcDbSpline
 62
7
  6
CONTINUOUS
 70
0
 71
3
 72
42
 73
38
 74
0
 42
0.0000001
 43
0.0000001
 44
0.0000000001
 40
0.0
 40
0.0
 40
0.0
 40
0.0
 40
0.0041075526
 40
0.0082935
 40
0.0126319059
 40
0.0171889216
 40
0.0220212237
 40
0.0271759778
 40
0.032691437
 40
0.0385977615
 40
0.0449187511
 40
0.0516731618
 40
0.058875378
 40
0.0665359431
 40
0.0746627668
 40
0.083261708
 40
0.0923365197
 40
0.1018890359
 40
0.1224278227
 40
0.1448727387
 40
0.1692014065
 40
0.1953807433
 40
0.2233675759
 40
0.2531112242
 40
0.2845536042
 40
0.3176307141
 40
0.3522727891
 40
0.3884050743
 40
0.425948213
 40
0.4648185052
 40
0.5049285549
 40
0.5461872046
 40
0.6317695016
 40
0.7207792827
 40
0.8123924401
 40
0.9057558472
 40
1.0
 40
1.0
 40
1.0
 40
1.0
 10
9.0169255578
 20
7.1678525501
 30
0.0
 10
9.0169255578
 20
7.1670693203
 30
0.0
 10
9.0168126528
 20
7.1654857142
 30
0.0
 10
9.0163068904
 20
7.1631235056
 30
0.0
 10
9.0154660899
 20
7.160767949
 30
0.0
 10
9.0142931642
 20
7.158421505
 30
0.0
 10
9.0127905639
 20
7.1560849251
 30
0.0
 10
9.0109601315
 20
7.1537588444
 30
0.0
 10
9.0088033977
 20
7.1514438183
 30
0.0
 10
9.006322013
 20
7.1491403033
 30
0.0
 10
9.0035174087
 20
7.1468490661
 30
0.0
 10
9.0003909938
 20
7.1445711237
 30
0.0
 10
8.9969444237
 20
7.1423075982
 30
0.0
 10
8.993179712
 20
7.1400595267
 30
0.0
 10
8.9890989539
 20
7.1378281401
 30
0.0
 10
8.9847043626
 20
7.1356148005
 30
0.0
 10
8.9799984619
 20
7.1334207488
 30
0.0
 10
8.9731454706
 20
7.1304505308
 30
0.0
 10
8.9638067993
 20
7.1268148055
 30
0.0
 10
8.9516641731
 20
7.1226472262
 30
0.0
 10
8.9383570384
 20
7.1185859251
 30
0.0
 10
8.9239168842
 20
7.1146411071
 30
0.0
 10
8.9083777262
 20
7.1108223657
 30
0.0
 10
8.8917765733
 20
7.1071392806
 30
0.0
 10
8.8741530613
 20
7.103600832
 30
0.0
 10
8.8555494104
 20
7.1002157831
 30
0.0
 10
8.8360102434
 20
7.0969924157
 30
0.0
 10
8.8155824945
 20
7.0939386121
 30
0.0
 10
8.794315265
 20
7.091061874
 30
0.0
 10
8.7722597063
 20
7.0883691667
 30
0.0
 10
8.7494688725
 20
7.0858670883
 30
0.0
 10
8.7177864546
 20
7.082755369
 30
0.0
 10
8.6767612345
 20
7.0794052895
 30
0.0
 10
8.6260948641
 20
7.0762735665
 30
0.0
 10
8.5738970098
 20
7.0740143583
 30
0.0
 10
8.5206700426
 20
7.0726498006
 30
0.0
 10
8.4848961905
 20
7.0723460524
 30
0.0
 10
8.4669256757
 20
7.0723460524
 30
0.0
  0
SPLINE
  5
4A7
100
AcDbEntity
  8
ALL_ASSEMBLY_MEMBERS
100
AcDbSpline
 62
7
  6
CONTINUOUS
 70
0
 71
3
 72
9
 73
5
 74
0
 42
0.0000001
 43
0.0000001
 44
0.0000000001
 40
0.0
 40
0.0
 40
0.0
 40
0.0
 40
0.522692649
 40
1.0
 40
1.0
 40
1.0
 40
1.0
 10
8.0696228744
 20
7.1699847433
 30
0.0
 10
8.0669103925
 20
7.1709896867
 30
0.0
 10
8.0617555534
 20
7.1730078156
 30
0.0
 10
8.0566968768
 20
7.1752588398
 30
0.0
 10
8.0543155371
 20
7.1764019432
 30
0.0
  0
SPLINE
  5
4A8
100
AcDbEntity
  8
ALL_ASSEMBLY_MEMBERS
100
AcDbSpline
 62
7
  6
CONTINUOUS
 70
0
 71
3
 72
29
 73
25
 74
0
 42
0.0000001
 43
0.0000001
 44
0.0000000001
 40
0.0
 40
0.0
 40
0.0
 40
0.0
 40
0.0941757092
 40
0.1876055402
 40
0.279261811
 40
0.368270034
 40
0.4538444427
 40
0.5352173387
 40
0.6116424042
 40
0.6824174446
 40
0.7469425707
 40
0.8046690528
 40
0.8308504295
 40
0.8551842366
 40
0.8776326447
 40
0.8981702229
 40
0.9167949975
 40
0.9335212339
 40
0.9483846963
 40
0.9614556954
 40
0.9728679679
 40
0.9828441088
 40
0.991725336
 40
1.0
 40
1.0
 40
1.0
 40
1.0
 10
8.4669256757
 20
7.1888630877
 30
0.0
 10
8.4643955141
 20
7.1888630877
 30
0.0
 10
8.4593551262
 20
7.188906171
 30
0.0
 10
8.4518544678
 20
7.1890981024
 30
0.0
 10
8.4444970231
 20
7.1894164941
 30
0.0
 10
8.4373573399
 20
7.1898578215
 30
0.0
 10
8.4305030761
 20
7.1904176533
 30
0.0
 10
8.4239986936
 20
7.1910905778
 30
0.0
 10
8.4179066613
 20
7.1918692968
 30
0.0
 10
8.412285607
 20
7.1927470082
 30
0.0
 10
8.4071895337
 20
7.1937135923
 30
0.0
 10
8.4033026833
 20
7.1946124418
 30
0.0
 10
8.4004970549
 20
7.1953787812
 30
0.0
 10
8.3986218154
 20
7.1959509958
 30
0.0
 10
8.3969106883
 20
7.1965381388
 30
0.0
 10
8.3953677709
 20
7.1971390478
 30
0.0
 10
8.3939962714
 20
7.1977520168
 30
0.0
 10
8.3927988506
 20
7.1983756107
 30
0.0
 10
8.3917778412
 20
7.1990085422
 30
0.0
 10
8.3909352433
 20
7.1996503445
 30
0.0
 10
8.3902723537
 20
7.2003010462
 30
0.0
 10
8.3897904377
 20
7.2009621228
 30
0.0
 10
8.389493954
 20
7.2016354309
 30
0.0
 10
8.3894256757
 20
7.2020985111
 30
0.0
 10
8.3894256757
 20
7.2023208215
 30
0.0
  0
LINE
  5
4A9
100
AcDbEntity
  8
ALL_ASSEMBLY_MEMBERS
100
AcDbLine
 62
7
  6
CONTINUOUS
 10
8.5903646731
 20
7.207440348
 11
8.5903153025
 21
7.205793785
  0
SPLINE
  5
4AA
100
AcDbEntity
  8
ALL_ASSEMBLY_MEMBERS
100
AcDbSpline
 62
7
  6
CONTINUOUS
 70
0
 71
3
 72
42
 73
38
 74
0
 42
0.0000001
 43
0.0000001
 44
0.0000000001
 40
0.0
 40
0.0
 40
0.0
 40
0.0
 40
0.0942441528
 40
0.1876075599
 40
0.2792207173
 40
0.3682304984
 40
0.4538127954
 40
0.4950714451
 40
0.5351814948
 40
0.574051787
 40
0.6115949257
 40
0.6477272109
 40
0.6823692859
 40
0.7154463958
 40
0.7468887758
 40
0.7766324241
 40
0.8046192567
 40
0.8307985935
 40
0.8551272613
 40
0.8775721773
 40
0.8981109641
 40
0.9076634803
 40
0.916738292
 40
0.9253372332
 40
0.9334640569
 40
0.941124622
 40
0.9483268382
 40
0.9550812489
 40
0.9614022385
 40
0.967308563
 40
0.9728240222
 40
0.9779787763
 40
0.9828110784
 40
0.9873680941
 40
0.9917065
 40
0.9958924474
 40
1.0
 40
1.0
 40
1.0
 40
1.0
 10
8.4669256757
 20
7.2633590478
 30
0.0
 10
8.4489551609
 20
7.2633590478
 30
0.0
 10
8.4131813087
 20
7.2630552997
 30
0.0
 10
8.3599543416
 20
7.2616907419
 30
0.0
 10
8.3077564873
 20
7.2594315337
 30
0.0
 10
8.2570901169
 20
7.2562998107
 30
0.0
 10
8.2160648968
 20
7.2529497312
 30
0.0
 10
8.1843824788
 20
7.2498380119
 30
0.0
 10
8.161591645
 20
7.2473359336
 30
0.0
 10
8.1395360864
 20
7.2446432262
 30
0.0
 10
8.1182688569
 20
7.2417664882
 30
0.0
 10
8.097841108
 20
7.2387126846
 30
0.0
 10
8.078301941
 20
7.2354893171
 30
0.0
 10
8.05969829
 20
7.2321042683
 30
0.0
 10
8.0420747781
 20
7.2285658197
 30
0.0
 10
8.0254736251
 20
7.2248827346
 30
0.0
 10
8.0099344672
 20
7.2210639932
 30
0.0
 10
7.995494313
 20
7.2171191752
 30
0.0
 10
7.9821871783
 20
7.213057874
 30
0.0
 10
7.9700445521
 20
7.2088902947
 30
0.0
 10
7.9607058808
 20
7.2052545695
 30
0.0
 10
7.9538528894
 20
7.2022843514
 30
0.0
 10
7.9491469888
 20
7.2000902997
 30
0.0
 10
7.9447523974
 20
7.1978769601
 30
0.0
 10
7.9406716393
 20
7.1956455735
 30
0.0
 10
7.9369069276
 20
7.193397502
 30
0.0
 10
7.9334603575
 20
7.1911339766
 30
0.0
 10
7.9303339427
 20
7.1888560341
 30
0.0
 10
7.9275293384
 20
7.186564797
 30
0.0
 10
7.9250479536
 20
7.1842612819
 30
0.0
 10
7.9228912198
 20
7.1819462559
 30
0.0
 10
7.9210607874
 20
7.1796201752
 30
0.0
 10
7.9195581871
 20
7.1772835952
 30
0.0
 10
7.9183852615
 20
7.1749371513
 30
0.0
 10
7.917544461
 20
7.1725815947
 30
0.0
 10
7.9170386986
 20
7.170219386
 30
0.0
 10
7.9169257936
 20
7.16863578
 30
0.0
 10
7.9169257936
 20
7.1678525501
 30
0.0
  0
SPLINE
  5
4AB
100
AcDbEntity
  8
ALL_ASSEMBLY_MEMBERS
100
AcDbSpline
 62
7
  6
CONTINUOUS
 70
0
 71
3
 72
42
 73
38
 74
0
 42
0.0000001
 43
0.0000001
 44
0.0000000001
 40
0.0
 40
0.0
 40
0.0
 40
0.0
 40
0.0942441528
 40
0.1876075599
 40
0.2792207173
 40
0.3682304984
 40
0.4538127954
 40
0.4950714451
 40
0.5351814948
 40
0.574051787
 40
0.6115949257
 40
0.6477272109
 40
0.6823692859
 40
0.7154463958
 40
0.7468887758
 40
0.7766324241
 40
0.8046192567
 40
0.8307985935
 40
0.8551272613
 40
0.8775721773
 40
0.8981109641
 40
0.9076634803
 40
0.916738292
 40
0.9253372332
 40
0.9334640569
 40
0.941124622
 40
0.9483268382
 40
0.9550812489
 40
0.9614022385
 40
0.967308563
 40
0.9728240222
 40
0.9779787763
 40
0.9828110784
 40
0.9873680941
 40
0.9917065
 40
0.9958924474
 40
1.0
 40
1.0
 40
1.0
 40
1.0
 10
8.4669256757
 20
7.2633590478
 30
0.0
 10
8.4848961905
 20
7.2633590478
 30
0.0
 10
8.5206700426
 20
7.2630552997
 30
0.0
 10
8.5738970098
 20
7.2616907419
 30
0.0
 10
8.6260948641
 20
7.2594315337
 30
0.0
 10
8.6767612345
 20
7.2562998107
 30
0.0
 10
8.7177864546
 20
7.2529497312
 30
0.0
 10
8.7494688725
 20
7.2498380119
 30
0.0
 10
8.7722597063
 20
7.2473359336
 30
0.0
 10
8.794315265
 20
7.2446432262
 30
0.0
 10
8.8155824945
 20
7.2417664882
 30
0.0
 10
8.8360102434
 20
7.2387126846
 30
0.0
 10
8.8555494104
 20
7.2354893171
 30
0.0
 10
8.8741530613
 20
7.2321042683
 30
0.0
 10
8.8917765733
 20
7.2285658197
 30
0.0
 10
8.9083777262
 20
7.2248827346
 30
0.0
 10
8.9239168842
 20
7.2210639932
 30
0.0
 10
8.9383570384
 20
7.2171191752
 30
0.0
 10
8.9516641731
 20
7.213057874
 30
0.0
 10
8.9638067993
 20
7.2088902947
 30
0.0
 10
8.9731454706
 20
7.2052545695
 30
0.0
 10
8.9799984619
 20
7.2022843514
 30
0.0
 10
8.9847043626
 20
7.2000902997
 30
0.0
 10
8.9890989539
 20
7.1978769601
 30
0.0
 10
8.993179712
 20
7.1956455735
 30
0.0
 10
8.9969444237
 20
7.193397502
 30
0.0
 10
9.0003909938
 20
7.1911339766
 30
0.0
 10
9.0035174087
 20
7.1888560341
 30
0.0
 10
9.006322013
 20
7.186564797
 30
0.0
 10
9.0088033977
 20
7.1842612819
 30
0.0
 10
9.0109601315
 20
7.1819462559
 30
0.0
 10
9.0127905639
 20
7.1796201752
 30
0.0
 10
9.0142931642
 20
7.1772835952
 30
0.0
 10
9.0154660899
 20
7.1749371513
 30
0.0
 10
9.0163068904
 20
7.1725815947
 30
0.0
 10
9.0168126528
 20
7.170219386
 30
0.0
 10
9.0169255578
 20
7.16863578
 30
0.0
 10
9.0169255578
 20
7.1678525501
 30
0.0
  0
LINE
  5
4AC
100
AcDbEntity
  8
ALL_ASSEMBLY_MEMBERS
100
AcDbLine
 62
7
  6
CONTINUOUS
 10
8.573299698
 20
7.2158809416
 11
8.5732691577
 21
7.2137289435
  0
SPLINE
  5
4AD
100
AcDbEntity
  8
ALL_ASSEMBLY_MEMBERS
100
AcDbSpline
 62
7
  6
CONTINUOUS
 70
0
 71
3
 72
40
 73
36
 74
0
 42
0.0000001
 43
0.0000001
 44
0.0000000001
 40
0.0
 40
0.0
 40
0.0
 40
0.0
 40
0.0041120101
 40
0.008283686
 40
0.0125913492
 40
0.0171040917
 40
0.0218814682
 40
0.0269732333
 40
0.0324200538
 40
0.0382544605
 40
0.0445016766
 40
0.0511813966
 40
0.058309013
 40
0.0658964337
 40
0.0739520971
 40
0.0824818633
 40
0.1009769227
 40
0.1213987809
 40
0.1437403471
 40
0.167981655
 40
0.1940887508
 40
0.2220199086
 40
0.2517235457
 40
0.2831420582
 40
0.3162108707
 40
0.3508597944
 40
0.3870138753
 40
0.4245926034
 40
0.4635123167
 40
0.545015383
 40
0.630776961
 40
0.7200028369
 40
0.8118579362
 40
0.9054859929
 40
1.0
 40
1.0
 40
1.0
 40
1.0
 10
8.0269341711
 20
7.168323013
 30
0.0
 10
8.0269119303
 20
7.167695501
 30
0.0
 10
8.0269573476
 20
7.1664263481
 30
0.0
 10
8.0272973604
 20
7.1645279917
 30
0.0
 10
8.0279080036
 20
7.1626344757
 30
0.0
 10
8.0287871229
 20
7.1607481056
 30
0.0
 10
8.0299324553
 20
7.1588695892
 30
0.0
 10
8.0313423239
 20
7.1569994333
 30
0.0
 10
8.0330154941
 20
7.1551380392
 30
0.0
 10
8.0349508685
 20
7.1532859538
 30
0.0
 10
8.0371471074
 20
7.1514436293
 30
0.0
 10
8.0396029593
 20
7.1496117975
 30
0.0
 10
8.0423171563
 20
7.1477913071
 30
0.0
 10
8.0452883353
 20
7.145983218
 30
0.0
 10
8.0485147492
 20
7.1441883726
 30
0.0
 10
8.0532844082
 20
7.1417480219
 30
0.0
 10
8.0598877735
 20
7.1387564189
 30
0.0
 10
8.0685932996
 20
7.13532565
 30
0.0
 10
8.0782621631
 20
7.1319713272
 30
0.0
 10
8.0888716612
 20
7.1287023435
 30
0.0
 10
8.1003969178
 20
7.1255262448
 30
0.0
 10
8.1128104797
 20
7.1224514829
 30
0.0
 10
8.1260826038
 20
7.1194853108
 30
0.0
 10
8.1401813435
 20
7.1166353758
 30
0.0
 10
8.1550726722
 20
7.1139086104
 30
0.0
 10
8.1707206023
 20
7.1113117576
 30
0.0
 10
8.1870872283
 20
7.1088513588
 30
0.0
 10
8.2041329546
 20
7.1065332052
 30
0.0
 10
8.2280808414
 20
7.1035948552
 30
0.0
 10
8.2593997653
 20
7.1003404032
 30
0.0
 10
8.2984375359
 20
7.0971380577
 30
0.0
 10
8.3391087803
 20
7.0946137267
 30
0.0
 10
8.3810197271
 20
7.0927923152
 30
0.0
 10
8.4237633397
 20
7.0916922743
 30
0.0
 10
8.4524933403
 20
7.0914473519
 30
0.0
 10
8.4669256757
 20
7.0914473519
 30
0.0
  0
SPLINE
  5
4AE
100
AcDbEntity
  8
ALL_ASSEMBLY_MEMBERS
100
AcDbSpline
 62
7
  6
CONTINUOUS
 70
0
 71
3
 72
29
 73
25
 74
0
 42
0.0000001
 43
0.0000001
 44
0.0000000001
 40
0.0
 40
0.0
 40
0.0
 40
0.0
 40
0.008274664
 40
0.0171558912
 40
0.0271320321
 40
0.0385443046
 40
0.0516153037
 40
0.0664787661
 40
0.0832050025
 40
0.1018297771
 40
0.1223673553
 40
0.1448157634
 40
0.1691495705
 40
0.1953309472
 40
0.2530574293
 40
0.3175825554
 40
0.3883575958
 40
0.4647826613
 40
0.5461555573
 40
0.631729966
 40
0.720738189
 40
0.8123944598
 40
0.9058242908
 40
1.0
 40
1.0
 40
1.0
 40
1.0
 10
8.5444256757
 20
7.2023208215
 30
0.0
 10
8.5444256757
 20
7.2020985111
 30
0.0
 10
8.5443573973
 20
7.2016354309
 30
0.0
 10
8.5440609136
 20
7.2009621228
 30
0.0
 10
8.5435789976
 20
7.2003010462
 30
0.0
 10
8.542916108
 20
7.1996503445
 30
0.0
 10
8.5420735102
 20
7.1990085422
 30
0.0
 10
8.5410525007
 20
7.1983756107
 30
0.0
 10
8.53985508
 20
7.1977520168
 30
0.0
 10
8.5384835804
 20
7.1971390478
 30
0.0
 10
8.5369406631
 20
7.1965381388
 30
0.0
 10
8.5352295359
 20
7.1959509958
 30
0.0
 10
8.5333542965
 20
7.1953787812
 30
0.0
 10
8.530548668
 20
7.1946124418
 30
0.0
 10
8.5266618176
 20
7.1937135923
 30
0.0
 10
8.5215657443
 20
7.1927470082
 30
0.0
 10
8.51594469
 20
7.1918692968
 30
0.0
 10
8.5098526578
 20
7.1910905778
 30
0.0
 10
8.5033482753
 20
7.1904176533
 30
0.0
 10
8.4964940114
 20
7.1898578215
 30
0.0
 10
8.4893543282
 20
7.1894164941
 30
0.0
 10
8.4819968836
 20
7.1890981024
 30
0.0
 10
8.4744962251
 20
7.188906171
 30
0.0
 10
8.4694558373
 20
7.1888630877
 30
0.0
 10
8.4669256757
 20
7.1888630877
 30
0.0
  0
LINE
  5
4AF
100
AcDbEntity
  8
ALL_ASSEMBLY_MEMBERS
100
AcDbLine
 62
7
  6
CONTINUOUS
 10
8.5400184604
 20
7.2238877003
 11
8.5400331819
 21
7.2199273189
  0
LINE
  5
4B0
100
AcDbEntity
  8
ALL_ASSEMBLY_MEMBERS
100
AcDbLine
 62
7
  6
CONTINUOUS
 10
8.4952318321
 20
7.2440908328
 11
8.4956672509
 21
7.2234452646
  0
LINE
  5
4B1
100
AcDbEntity
  8
ALL_ASSEMBLY_MEMBERS
100
AcDbLine
 62
7
  6
CONTINUOUS
 10
8.4869256757
 20
7.2237472053
 11
8.4876458188
 21
7.2441622598
  0
LINE
  5
4B2
100
AcDbEntity
  8
ALL_ASSEMBLY_MEMBERS
100
AcDbLine
 62
7
  6
CONTINUOUS
 10
8.4462055326
 20
7.24416226
 11
8.4469256757
 21
7.2237472053
  0
LINE
  5
4B3
100
AcDbEntity
  8
ALL_ASSEMBLY_MEMBERS
100
AcDbLine
 62
7
  6
CONTINUOUS
 10
8.4381841004
 20
7.2234452646
 11
8.4386195192
 21
7.2440908327
  0
LINE
  5
4B4
100
AcDbEntity
  8
ALL_ASSEMBLY_MEMBERS
100
AcDbLine
 62
7
  6
CONTINUOUS
 10
8.3938181695
 20
7.2199273189
 11
8.3938328909
 21
7.2238877003
  0
SPLINE
  5
4B5
100
AcDbEntity
  8
ALL_ASSEMBLY_MEMBERS
100
AcDbSpline
 62
7
  6
CONTINUOUS
 70
0
 71
3
 72
40
 73
36
 74
0
 42
0.0000001
 43
0.0000001
 44
0.0000000001
 40
0.0
 40
0.0
 40
0.0
 40
0.0
 40
0.0041120101
 40
0.008283686
 40
0.0125913492
 40
0.0171040917
 40
0.0218814682
 40
0.0269732333
 40
0.0324200538
 40
0.0382544605
 40
0.0445016766
 40
0.0511813966
 40
0.058309013
 40
0.0658964337
 40
0.0739520971
 40
0.0824818633
 40
0.1009769227
 40
0.1213987809
 40
0.1437403471
 40
0.167981655
 40
0.1940887508
 40
0.2220199086
 40
0.2517235457
 40
0.2831420582
 40
0.3162108707
 40
0.3508597944
 40
0.3870138753
 40
0.4245926034
 40
0.4635123167
 40
0.545015383
 40
0.630776961
 40
0.7200028369
 40
0.8118579362
 40
0.9054859929
 40
1.0
 40
1.0
 40
1.0
 40
1.0
 10
8.9069171802
 20
7.168323013
 30
0.0
 10
8.9069394211
 20
7.167695501
 30
0.0
 10
8.9068940038
 20
7.1664263481
 30
0.0
 10
8.906553991
 20
7.1645279917
 30
0.0
 10
8.9059433478
 20
7.1626344757
 30
0.0
 10
8.9050642285
 20
7.1607481056
 30
0.0
 10
8.903918896
 20
7.1588695892
 30
0.0
 10
8.9025090274
 20
7.1569994333
 30
0.0
 10
8.9008358573
 20
7.1551380392
 30
0.0
 10
8.8989004829
 20
7.1532859538
 30
0.0
 10
8.896704244
 20
7.1514436293
 30
0.0
 10
8.8942483921
 20
7.1496117975
 30
0.0
 10
8.8915341951
 20
7.1477913071
 30
0.0
 10
8.8885630161
 20
7.145983218
 30
0.0
 10
8.8853366022
 20
7.1441883726
 30
0.0
 10
8.8805669431
 20
7.1417480219
 30
0.0
 10
8.8739635778
 20
7.1387564189
 30
0.0
 10
8.8652580518
 20
7.13532565
 30
0.0
 10
8.8555891882
 20
7.1319713272
 30
0.0
 10
8.8449796901
 20
7.1287023435
 30
0.0
 10
8.8334544336
 20
7.1255262448
 30
0.0
 10
8.8210408716
 20
7.1224514829
 30
0.0
 10
8.8077687476
 20
7.1194853108
 30
0.0
 10
8.7936700079
 20
7.1166353758
 30
0.0
 10
8.7787786792
 20
7.1139086104
 30
0.0
 10
8.763130749
 20
7.1113117576
 30
0.0
 10
8.7467641231
 20
7.1088513588
 30
0.0
 10
8.7297183968
 20
7.1065332052
 30
0.0
 10
8.70577051
 20
7.1035948552
 30
0.0
 10
8.674451586
 20
7.1003404032
 30
0.0
 10
8.6354138155
 20
7.0971380577
 30
0.0
 10
8.594742571
 20
7.0946137267
 30
0.0
 10
8.5528316243
 20
7.0927923152
 30
0.0
 10
8.5100880117
 20
7.0916922743
 30
0.0
 10
8.4813580111
 20
7.0914473519
 30
0.0
 10
8.4669256757
 20
7.0914473519
 30
0.0
  0
LINE
  5
4B6
100
AcDbEntity
  8
ALL_ASSEMBLY_MEMBERS
100
AcDbLine
 62
7
  6
CONTINUOUS
 10
8.3605821936
 20
7.2137289435
 11
8.3605516534
 21
7.2158809416
  0
LINE
  5
4B7
100
AcDbEntity
  8
ALL_ASSEMBLY_MEMBERS
100
AcDbLine
 62
7
  6
CONTINUOUS
 10
8.3435360489
 20
7.205793785
 11
8.3434866783
 21
7.207440348
  0
LINE
  5
4B8
100
AcDbEntity
  8
ALL_ASSEMBLY_MEMBERS
100
AcDbLine
 62
7
  6
CONTINUOUS
 10
8.5903153025
 20
7.205793785
 11
8.588576495
 21
7.2073117436
  0
LINE
  5
4B9
100
AcDbEntity
  8
ALL_ASSEMBLY_MEMBERS
100
AcDbLine
 62
7
  6
CONTINUOUS
 10
8.0543155371
 20
7.1764019432
 11
8.0546885585
 21
7.1945293901
  0
LINE
  5
4BA
100
AcDbEntity
  8
ALL_ASSEMBLY_MEMBERS
100
AcDbLine
 62
7
  6
CONTINUOUS
 10
8.3452748563
 20
7.2073117436
 11
8.3435360489
 21
7.205793785
  0
LINE
  5
4BB
100
AcDbEntity
  8
ALL_ASSEMBLY_MEMBERS
100
AcDbLine
 62
7
  6
CONTINUOUS
 10
8.1428432763
 20
7.1509560156
 11
8.1428721026
 21
7.1752533627
  0
LINE
  5
4BC
100
AcDbEntity
  8
ALL_ASSEMBLY_MEMBERS
100
AcDbLine
 62
7
  6
CONTINUOUS
 10
8.280709623
 20
7.1333299141
 11
8.2801278673
 21
7.1649722083
  0
LINE
  5
4BD
100
AcDbEntity
  8
ALL_ASSEMBLY_MEMBERS
100
AcDbLine
 62
7
  6
CONTINUOUS
 10
8.8791627928
 20
7.1945293902
 11
8.8795358142
 21
7.1764019432
  0
LINE
  5
4BE
100
AcDbEntity
  8
ALL_ASSEMBLY_MEMBERS
100
AcDbLine
 62
7
  6
CONTINUOUS
 10
8.7909792487
 20
7.1752533627
 11
8.791008075
 21
7.1509560156
  0
LINE
  5
4BF
100
AcDbEntity
  8
ALL_ASSEMBLY_MEMBERS
100
AcDbLine
 62
7
  6
CONTINUOUS
 10
8.4469256757
 20
7.1262070528
 11
8.4450013257
 21
7.1808266018
  0
LINE
  5
4C0
100
AcDbEntity
  8
ALL_ASSEMBLY_MEMBERS
100
AcDbLine
 62
7
  6
CONTINUOUS
 10
8.4888500257
 20
7.1808266018
 11
8.4869256757
 21
7.1262070528
  0
LINE
  5
4C1
100
AcDbEntity
  8
ALL_ASSEMBLY_MEMBERS
100
AcDbLine
 62
7
  6
CONTINUOUS
 10
8.6537234841
 20
7.1649722083
 11
8.6531417283
 21
7.1333299141
  0
SPLINE
  5
4C2
100
AcDbEntity
  8
ALL_ASSEMBLY_MEMBERS
100
AcDbSpline
 62
7
  6
CONTINUOUS
 70
0
 71
3
 72
9
 73
5
 74
0
 42
0.0000001
 43
0.0000001
 44
0.0000000001
 40
0.0
 40
0.0
 40
0.0
 40
0.0
 40
0.477307351
 40
1.0
 40
1.0
 40
1.0
 40
1.0
 10
8.8795358142
 20
7.1764019432
 30
0.0
 10
8.8771544746
 20
7.1752588398
 30
0.0
 10
8.872095798
 20
7.1730078156
 30
0.0
 10
8.8669409588
 20
7.1709896867
 30
0.0
 10
8.8642284769
 20
7.1699847433
 30
0.0
  0
SPLINE
  5
4C3
100
AcDbEntity
  8
ALL_ASSEMBLY_MEMBERS
100
AcDbSpline
 62
7
  6
CONTINUOUS
 70
0
 71
3
 72
103
 73
99
 74
0
 42
0.0000001
 43
0.0000001
 44
0.0000000001
 40
0.0
 40
0.0
 40
0.0
 40
0.0
 40
0.0000027196
 40
0.0000108754
 40
0.0000244632
 40
0.0000434788
 40
0.0000679181
 40
0.0000977767
 40
0.0001737352
 40
0.0002713207
 40
0.0003904995
 40
0.0005312378
 40
0.0006935019
 40
0.001082473
 40
0.0015571433
 40
0.0021172434
 40
0.002762504
 40
0.0034926558
 40
0.0043074298
 40
0.0052065569
 40
0.0061897681
 40
0.0084073276
 40
0.0109564539
 40
0.0138316378
 40
0.0170272586
 40
0.0205377056
 40
0.0243573793
 40
0.0284806911
 40
0.0329020317
 40
0.0426129778
 40
0.0534354413
 40
0.0653143036
 40
0.0781950293
 40
0.0920246638
 40
0.1067516041
 40
0.1223251331
 40
0.1386962958
 40
0.1558205369
 40
0.1921591149
 40
0.2310206441
 40
0.2721096521
 40
0.3151400324
 40
0.3372885181
 40
0.3598094989
 40
0.3826566437
 40
0.405779064
 40
0.4291286561
 40
0.4526548631
 40
0.4762984025
 40
0.4999999095
 40
0.5237014101
 40
0.5473449363
 40
0.5708711357
 40
0.5942207493
 40
0.6173432369
 40
0.6401904699
 40
0.6627115347
 40
0.6848600779
 40
0.7278905232
 40
0.7689795527
 40
0.8078410548
 40
0.8441796392
 40
0.8613038864
 40
0.8776750461
 40
0.8932485665
 40
0.9079754992
 40
0.9218051248
 40
0.9346858386
 40
0.9465646898
 40
0.957387145
 40
0.9670980866
 40
0.9715194253
 40
0.9756427276
 40
0.9794623862
 40
0.9829728167
 40
0.9861684234
 40
0.9890435996
 40
0.9915927289
 40
0.9938103006
 40
0.9947935143
 40
0.9956926411
 40
0.9965074125
 40
0.9972375597
 40
0.9978828141
 40
0.9984429067
 40
0.9989175686
 40
0.9993065309
 40
0.9994687906
 40
0.9996095244
 40
0.9997286988
 40
0.9998262799
 40
0.9999022343
 40
0.999932091
 40
0.9999565283
 40
0.999975542
 40
0.999989128
 40
0.9999972821
 40
1.0
 40
1.0
 40
1.0
 40
1.0
 10
3.9094256757
 20
4.9620525501
 30
0.0
 10
3.9094260694
 20
4.9620525501
 30
0.0
 10
3.9094264031
 20
4.9620503714
 30
0.0
 10
3.909428663
 20
4.962048121
 30
0.0
 10
3.9094314135
 20
4.9620425906
 30
0.0
 10
3.9094357379
 20
4.962035686
 30
0.0
 10
3.9094411035
 20
4.9620264757
 30
0.0
 10
3.909450734
 20
4.9620102854
 30
0.0
 10
3.9094657202
 20
4.961984918
 30
0.0
 10
3.9094873031
 20
4.9619484506
 30
0.0
 10
3.9095136404
 20
4.9619038888
 30
0.0
 10
3.9095447313
 20
4.9618512622
 30
0.0
 10
3.9095956649
 20
4.9617649878
 30
0.0
 10
3.909671122
 20
4.961637047
 30
0.0
 10
3.9097757411
 20
4.961459433
 30
0.0
 10
3.9098990751
 20
4.9612497773
 30
0.0
 10
3.910041028
 20
4.961008159
 30
0.0
 10
3.9102015038
 20
4.9607346577
 30
0.0
 10
3.9103804066
 20
4.9604293525
 30
0.0
 10
3.9105776411
 20
4.9600923234
 30
0.0
 10
3.9108771609
 20
4.9595798292
 30
0.0
 10
3.9112966079
 20
4.9588607234
 30
0.0
 10
3.9118527599
 20
4.9579042355
 30
0.0
 10
3.9124780634
 20
4.956824152
 30
0.0
 10
3.9131704884
 20
4.9556221044
 30
0.0
 10
3.9139279666
 20
4.9542997218
 30
0.0
 10
3.9147484396
 20
4.9528586397
 30
0.0
 10
3.9156298296
 20
4.9513004873
 30
0.0
 10
3.9169245138
 20
4.9489961602
 30
0.0
 10
3.9186788613
 20
4.9458375717
 30
0.0
 10
3.9209264652
 20
4.9417179796
 30
0.0
 10
3.9233553687
 20
4.9371746981
 30
0.0
 10
3.9259436714
 20
4.9322231762
 30
0.0
 10
3.9286676209
 20
4.9268775952
 30
0.0
 10
3.9315028525
 20
4.9211515801
 30
0.0
 10
3.9344252746
 20
4.9150586831
 30
0.0
 10
3.9374109629
 20
4.9086118252
 30
0.0
 10
3.9415241926
 20
4.8993750876
 30
0.0
 10
3.9466633697
 20
4.8870323512
 30
0.0
 10
3.952563538
 20
4.871258559
 30
0.0
 10
3.9580979267
 20
4.8543287615
 30
0.0
 10
3.9621844455
 20
4.8394881163
 30
0.0
 10
3.9650757148
 20
4.8271227467
 30
0.0
 10
3.9670363535
 20
4.8175446507
 30
0.0
 10
3.9687453287
 20
4.8077752476
 30
0.0
 10
3.9701812161
 20
4.7978406135
 30
0.0
 10
3.9713207376
 20
4.7877685409
 30
0.0
 10
3.9721448012
 20
4.7775900069
 30
0.0
 10
3.9726463948
 20
4.7673394687
 30
0.0
 10
3.9728164388
 20
4.7570525905
 30
0.0
 10
3.9726463973
 20
4.7467657142
 30
0.0
 10
3.9721448155
 20
4.7365151794
 30
0.0
 10
3.971320753
 20
4.726336645
 30
0.0
 10
3.9701812152
 20
4.7162645624
 30
0.0
 10
3.9687453256
 20
4.7063299029
 30
0.0
 10
3.9670363504
 20
4.6965604646
 30
0.0
 10
3.9650757131
 20
4.6869823344
 30
0.0
 10
3.9621844378
 20
4.6746169354
 30
0.0
 10
3.9580979036
 20
4.6597762727
 30
0.0
 10
3.9525635136
 20
4.6428464667
 30
0.0
 10
3.9466633408
 20
4.6270726759
 30
0.0
 10
3.9415241615
 20
4.6147299428
 30
0.0
 10
3.9374109322
 20
4.6054932036
 30
0.0
 10
3.9344252418
 20
4.5990463475
 30
0.0
 10
3.9315028188
 20
4.592953454
 30
0.0
 10
3.9286675897
 20
4.5872274417
 30
0.0
 10
3.9259436428
 20
4.581881864
 30
0.0
 10
3.9233553385
 20
4.5769303482
 30
0.0
 10
3.9209264365
 20
4.572387071
 30
0.0
 10
3.9186788355
 20
4.5682674813
 30
0.0
 10
3.9169244895
 20
4.5651088944
 30
0.0
 10
3.9156298042
 20
4.5628045706
 30
0.0
 10
3.9147484168
 20
4.5612464211
 30
0.0
 10
3.9139279485
 20
4.5598053431
 30
0.0
 10
3.9131704757
 20
4.5584829652
 30
0.0
 10
3.9124780548
 20
4.5572809215
 30
0.0
 10
3.9118527526
 20
4.5562008404
 30
0.0
 10
3.9112965977
 20
4.5552443529
 30
0.0
 10
3.9108771443
 20
4.5545252479
 30
0.0
 10
3.9105776201
 20
4.5540127538
 30
0.0
 10
3.9103803836
 20
4.5536757259
 30
0.0
 10
3.9102014797
 20
4.5533704227
 30
0.0
 10
3.9100410036
 20
4.5530969238
 30
0.0
 10
3.9098990512
 20
4.5528553083
 30
0.0
 10
3.9097757186
 20
4.5526456555
 30
0.0
 10
3.9096711012
 20
4.5524680444
 30
0.0
 10
3.9095956472
 20
4.5523401059
 30
0.0
 10
3.9095447145
 20
4.5522538332
 30
0.0
 10
3.9095136285
 20
4.5522012078
 30
0.0
 10
3.9094872842
 20
4.5521566471
 30
0.0
 10
3.909465728
 20
4.5521201806
 30
0.0
 10
3.9094506874
 20
4.5520948138
 30
0.0
 10
3.9094411446
 20
4.5520786239
 30
0.0
 10
3.9094355998
 20
4.5520694138
 30
0.0
 10
3.9094317426
 20
4.5520625096
 30
0.0
 10
3.9094279388
 20
4.5520569789
 30
0.0
 10
3.90942753
 20
4.5520547295
 30
0.0
 10
3.9094252822
 20
4.5520525501
 30
0.0
 10
3.9094256757
 20
4.5520525501
 30
0.0
  0
SPLINE
  5
4C4
100
AcDbEntity
  8
ALL_ASSEMBLY_MEMBERS
100
AcDbSpline
 62
7
  6
CONTINUOUS
 70
0
 71
3
 72
103
 73
99
 74
0
 42
0.0000001
 43
0.0000001
 44
0.0000000001
 40
0.0
 40
0.0
 40
0.0
 40
0.0
 40
0.0000027196
 40
0.0000108753
 40
0.0000244629
 40
0.0000434781
 40
0.0000679167
 40
0.0000977746
 40
0.0001737312
 40
0.0002713143
 40
0.0003904902
 40
0.0005312253
 40
0.0006934859
 40
0.0010824493
 40
0.0015571114
 40
0.0021172033
 40
0.0027624563
 40
0.0034926017
 40
0.0043073707
 40
0.005206495
 40
0.0061897059
 40
0.0084072724
 40
0.0109563982
 40
0.0138315726
 40
0.0170271785
 40
0.0205376091
 40
0.024357268
 40
0.0284805706
 40
0.0329019088
 40
0.042612847
 40
0.0534352963
 40
0.0653141406
 40
0.0781948486
 40
0.0920244702
 40
0.1067514005
 40
0.1223249198
 40
0.1386960809
 40
0.1558203323
 40
0.1921589254
 40
0.2310204294
 40
0.2721094658
 40
0.3151399243
 40
0.3372884725
 40
0.3598095401
 40
0.3826567749
 40
0.4057792628
 40
0.4291288747
 40
0.4526550715
 40
0.4762985951
 40
0.500000093
 40
0.5237015973
 40
0.5473451339
 40
0.5708713383
 40
0.5942209286
 40
0.6173433488
 40
0.6401904949
 40
0.6627114786
 40
0.6848599694
 40
0.7278903626
 40
0.7689793769
 40
0.807840907
 40
0.8441794936
 40
0.8613037389
 40
0.877674903
 40
0.8932484309
 40
0.907975369
 40
0.9218049996
 40
0.9346857196
 40
0.9465645753
 40
0.9573870328
 40
0.9670979749
 40
0.9715193146
 40
0.9756426258
 40
0.9794622989
 40
0.9829727452
 40
0.9861683649
 40
0.9890435471
 40
0.9915926711
 40
0.9938102276
 40
0.9947934373
 40
0.9956925631
 40
0.996507336
 40
0.997237487
 40
0.9978827471
 40
0.998442847
 40
0.9989175176
 40
0.9993064894
 40
0.9994687541
 40
0.9996094931
 40
0.9997286727
 40
0.9998262592
 40
0.9999022189
 40
0.9999320781
 40
0.999956518
 40
0.9999755344
 40
0.999989123
 40
0.9999972796
 40
1.0
 40
1.0
 40
1.0
 40
1.0
 10
5.0244256757
 20
4.5520525501
 30
0.0
 10
5.0244252819
 20
4.5520525496
 30
0.0
 10
5.024424948
 20
4.5520547295
 30
0.0
 10
5.0244226883
 20
4.5520569787
 30
0.0
 10
5.0244199376
 20
4.5520625096
 30
0.0
 10
5.0244156133
 20
4.5520694138
 30
0.0
 10
5.0244102478
 20
4.5520786239
 30
0.0
 10
5.0244006176
 20
4.5520948137
 30
0.0
 10
5.0243856318
 20
4.5521201805
 30
0.0
 10
5.0243640496
 20
4.5521566471
 30
0.0
 10
5.024337713
 20
4.5522012079
 30
0.0
 10
5.0243066231
 20
4.5522538335
 30
0.0
 10
5.0242556908
 20
4.5523401062
 30
0.0
 10
5.0241802356
 20
4.5524680449
 30
0.0
 10
5.0240756188
 20
4.5526456562
 30
0.0
 10
5.023952287
 20
4.5528553092
 30
0.0
 10
5.0238103362
 20
4.5530969249
 30
0.0
 10
5.0236498619
 20
4.553370424
 30
0.0
 10
5.0234709602
 20
4.5536757273
 30
0.0
 10
5.0232737259
 20
4.5540127553
 30
0.0
 10
5.0229742049
 20
4.5545252494
 30
0.0
 10
5.0225547547
 20
4.5552443544
 30
0.0
 10
5.021998602
 20
4.5562008413
 30
0.0
 10
5.0213733007
 20
4.557280922
 30
0.0
 10
5.0206808798
 20
4.5584829652
 30
0.0
 10
5.0199234063
 20
4.5598053427
 30
0.0
 10
5.0191029369
 20
4.5612464201
 30
0.0
 10
5.0182215484
 20
4.5628045691
 30
0.0
 10
5.0169268624
 20
4.5651088918
 30
0.0
 10
5.0151725168
 20
4.5682674774
 30
0.0
 10
5.0129249174
 20
4.5723870653
 30
0.0
 10
5.0104960171
 20
4.5769303404
 30
0.0
 10
5.0079077138
 20
4.581881854
 30
0.0
 10
5.0051837678
 20
4.5872274302
 30
0.0
 10
5.0023485392
 20
4.5929534414
 30
0.0
 10
4.9994261157
 20
4.5990463344
 30
0.0
 10
4.9964404245
 20
4.6054931908
 30
0.0
 10
4.9923271945
 20
4.614729932
 30
0.0
 10
4.9871880141
 20
4.627072667
 30
0.0
 10
4.9812878396
 20
4.6428464599
 30
0.0
 10
4.9757534491
 20
4.6597762691
 30
0.0
 10
4.971666914
 20
4.6746169352
 30
0.0
 10
4.9687756377
 20
4.6869823371
 30
0.0
 10
4.9668149999
 20
4.6965604686
 30
0.0
 10
4.9651060251
 20
4.7063299077
 30
0.0
 10
4.963670136
 20
4.7162645674
 30
0.0
 10
4.9625305976
 20
4.7263366493
 30
0.0
 10
4.9617065352
 20
4.7365151828
 30
0.0
 10
4.961204954
 20
4.7467657165
 30
0.0
 10
4.9610349126
 20
4.7570525916
 30
0.0
 10
4.9612049563
 20
4.7673394686
 30
0.0
 10
4.9617065497
 20
4.7775900056
 30
0.0
 10
4.9625306134
 20
4.7877685386
 30
0.0
 10
4.9636701352
 20
4.7978406105
 30
0.0
 10
4.9651060222
 20
4.8077752446
 30
0.0
 10
4.9668149973
 20
4.8175446483
 30
0.0
 10
4.9687756363
 20
4.8271227456
 30
0.0
 10
4.9716669066
 20
4.839488118
 30
0.0
 10
4.9757534265
 20
4.8543287666
 30
0.0
 10
4.9812878156
 20
4.871258567
 30
0.0
 10
4.9871879856
 20
4.8870323611
 30
0.0
 10
4.9923271638
 20
4.8993750992
 30
0.0
 10
4.9964403941
 20
4.9086118387
 30
0.0
 10
4.9994260832
 20
4.9150586969
 30
0.0
 10
5.0023485058
 20
4.9211515935
 30
0.0
 10
5.0051837369
 20
4.9268776077
 30
0.0
 10
5.0079076854
 20
4.9322231872
 30
0.0
 10
5.0104959874
 20
4.9371747068
 30
0.0
 10
5.0129248896
 20
4.941717986
 30
0.0
 10
5.015172492
 20
4.9458375762
 30
0.0
 10
5.0169268388
 20
4.9489961633
 30
0.0
 10
5.0182215232
 20
4.9513004893
 30
0.0
 10
5.0191029136
 20
4.9528586412
 30
0.0
 10
5.0199233871
 20
4.9542997228
 30
0.0
 10
5.0206808654
 20
4.9556221048
 30
0.0
 10
5.0213732903
 20
4.9568241519
 30
0.0
 10
5.0219985931
 20
4.957904235
 30
0.0
 10
5.0225547439
 20
4.9588607224
 30
0.0
 10
5.0229741891
 20
4.9595798281
 30
0.0
 10
5.0232737073
 20
4.9600923223
 30
0.0
 10
5.0234709407
 20
4.9604293514
 30
0.0
 10
5.0236498424
 20
4.9607346566
 30
0.0
 10
5.0238103174
 20
4.9610081581
 30
0.0
 10
5.0239522696
 20
4.9612497765
 30
0.0
 10
5.0240756032
 20
4.9614594324
 30
0.0
 10
5.0241802223
 20
4.9616370466
 30
0.0
 10
5.0242556796
 20
4.9617649875
 30
0.0
 10
5.0243066137
 20
4.9618512619
 30
0.0
 10
5.024337705
 20
4.9619038886
 30
0.0
 10
5.0243640429
 20
4.9619484505
 30
0.0
 10
5.0243856265
 20
4.961984918
 30
0.0
 10
5.0244006135
 20
4.9620102854
 30
0.0
 10
5.0244102446
 20
4.9620264757
 30
0.0
 10
5.0244156108
 20
4.9620356859
 30
0.0
 10
5.0244199356
 20
4.9620425908
 30
0.0
 10
5.0244226872
 20
4.9620481207
 30
0.0
 10
5.0244249468
 20
4.9620503719
 30
0.0
 10
5.0244252818
 20
4.96205255
 30
0.0
 10
5.0244256757
 20
4.9620525501
 30
0.0
  0
SPLINE
  5
4C5
100
AcDbEntity
  8
ALL_ASSEMBLY_MEMBERS
100
AcDbSpline
 62
7
  6
CONTINUOUS
 70
0
 71
3
 72
36
 73
32
 74
0
 42
0.0000001
 43
0.0000001
 44
0.0000000001
 40
0.0
 40
0.0
 40
0.0
 40
0.0
 40
0.0247609371
 40
0.0498815102
 40
0.0755407321
 40
0.1019151768
 40
0.1291611781
 40
0.1573957025
 40
0.1866801422
 40
0.2170424603
 40
0.2484704913
 40
0.2809214005
 40
0.3143220827
 40
0.3485701352
 40
0.3835453804
 40
0.4191026207
 40
0.4550877703
 40
0.4913337893
 40
0.5276691312
 40
0.5639208644
 40
0.635444032
 40
0.7046715062
 40
0.7705894173
 40
0.8021454265
 40
0.8327086036
 40
0.8623050505
 40
0.8910033601
 40
0.9189300948
 40
0.9462674824
 40
0.9732251633
 40
1.0
 40
1.0
 40
1.0
 40
1.0
 10
4.7002925109
 20
4.2996830936
 30
0.0
 10
4.7020018278
 20
4.2995859677
 30
0.0
 10
4.7054361084
 20
4.2991531295
 30
0.0
 10
4.7104989773
 20
4.2978113802
 30
0.0
 10
4.7154478949
 20
4.2957802267
 30
0.0
 10
4.7202327238
 20
4.2930782329
 30
0.0
 10
4.7248112238
 20
4.2897301647
 30
0.0
 10
4.7291402871
 20
4.2857627632
 30
0.0
 10
4.7331828466
 20
4.2812127009
 30
0.0
 10
4.7368972708
 20
4.276116219
 30
0.0
 10
4.7402504977
 20
4.2705193407
 30
0.0
 10
4.7432085272
 20
4.2644698208
 30
0.0
 10
4.7457417909
 20
4.258021164
 30
0.0
 10
4.7478249836
 20
4.2512309734
 30
0.0
 10
4.7494328816
 20
4.2441601481
 30
0.0
 10
4.7505502149
 20
4.2368740914
 30
0.0
 10
4.7511588744
 20
4.2294399425
 30
0.0
 10
4.7512524742
 20
4.221927892
 30
0.0
 10
4.7508235039
 20
4.2144084854
 30
0.0
 10
4.7495627314
 20
4.2045178013
 30
0.0
 10
4.7467300419
 20
4.1925627308
 30
0.0
 10
4.7413687439
 20
4.1792570592
 30
0.0
 10
4.7353175382
 20
4.1693671579
 30
0.0
 10
4.7296556127
 20
4.16254484
 30
0.0
 10
4.7251217998
 20
4.158093629
 30
0.0
 10
4.7202845968
 20
4.1542844067
 30
0.0
 10
4.7151892934
 20
4.1511610864
 30
0.0
 10
4.7098844493
 20
4.1487633946
 30
0.0
 10
4.7044229444
 20
4.147121589
 30
0.0
 10
4.6988658656
 20
4.1462631852
 30
0.0
 10
4.69513606
 20
4.1462178087
 30
0.0
 10
4.6932880108
 20
4.1463278658
 30
0.0
  0
SPLINE
  5
4C6
100
AcDbEntity
  8
ALL_ASSEMBLY_MEMBERS
100
AcDbSpline
 62
7
  6
CONTINUOUS
 70
0
 71
3
 72
12
 73
8
 74
0
 42
0.0000001
 43
0.0000001
 44
0.0000000001
 40
0.0
 40
0.0
 40
0.0
 40
0.0
 40
0.2408380416
 40
0.362967697
 40
0.4865337857
 40
0.738914261
 40
1.0
 40
1.0
 40
1.0
 40
1.0
 10
4.6779547433
 20
4.1531723966
 30
0.0
 10
4.6800302951
 20
4.1533970716
 30
0.0
 10
4.6831376097
 20
4.153994806
 30
0.0
 10
4.6871578566
 20
4.1552791661
 30
0.0
 10
4.6911593761
 20
4.1569115376
 30
0.0
 10
4.6960197864
 20
4.1595762545
 30
0.0
 10
4.6995928935
 20
4.1622565056
 30
0.0
 10
4.7013125064
 20
4.1637278884
 30
0.0
  0
SPLINE
  5
4C7
100
AcDbEntity
  8
ALL_ASSEMBLY_MEMBERS
100
AcDbSpline
 62
7
  6
CONTINUOUS
 70
0
 71
3
 72
30
 73
26
 74
0
 42
0.0000001
 43
0.0000001
 44
0.0000000001
 40
0.0
 40
0.0
 40
0.0
 40
0.0
 40
0.0611105072
 40
0.0927087823
 40
0.1249680481
 40
0.1578537336
 40
0.1913210012
 40
0.2253098325
 40
0.2597477565
 40
0.3296195443
 40
0.4002428012
 40
0.4356015449
 40
0.4708462131
 40
0.5405516466
 40
0.6085858432
 40
0.6742148308
 40
0.736836386
 40
0.7668964324
 40
0.7960667052
 40
0.8516462189
 40
0.9037489192
 40
0.928664472
 40
0.9529287318
 40
0.9766604583
 40
1.0
 40
1.0
 40
1.0
 40
1.0
 10
4.7013125064
 20
4.1637278884
 30
0.0
 10
4.7034997477
 20
4.1655993963
 30
0.0
 10
4.7065918169
 20
4.1687148549
 30
0.0
 10
4.7102638087
 20
4.1733194755
 30
0.0
 10
4.7128536527
 20
4.1770739434
 30
0.0
 10
4.7152336561
 20
4.1810667756
 30
0.0
 10
4.7173904372
 20
4.1852761614
 30
0.0
 10
4.7193140691
 20
4.1896768479
 30
0.0
 10
4.7215669133
 20
4.1957929638
 30
0.0
 10
4.7237368511
 20
4.203761883
 30
0.0
 10
4.725026853
 20
4.2119619049
 30
0.0
 10
4.7255245405
 20
4.2185986649
 30
0.0
 10
4.7256642339
 20
4.2252092161
 30
0.0
 10
4.7251765541
 20
4.2333605955
 30
0.0
 10
4.7235510435
 20
4.2428219706
 30
0.0
 10
4.7209328882
 20
4.2517119934
 30
0.0
 10
4.7179447787
 20
4.2585701664
 30
0.0
 10
4.7151128548
 20
4.2635680222
 30
0.0
 10
4.7121115521
 20
4.2680716956
 30
0.0
 10
4.7079330264
 20
4.2730186724
 30
0.0
 10
4.7031101614
 20
4.2770493832
 30
0.0
 10
4.6990276723
 20
4.2795323678
 30
0.0
 10
4.6959188897
 20
4.2810078882
 30
0.0
 10
4.6927387952
 20
4.2821135884
 30
0.0
 10
4.6905698206
 20
4.2826011285
 30
0.0
 10
4.6894849697
 20
4.2827795201
 30
0.0
  0
SPLINE
  5
4C8
100
AcDbEntity
  8
ALL_ASSEMBLY_MEMBERS
100
AcDbSpline
 62
7
  6
CONTINUOUS
 70
0
 71
3
 72
14
 73
10
 74
0
 42
0.0000001
 43
0.0000001
 44
0.0000000001
 40
0.0
 40
0.0
 40
0.0
 40
0.0
 40
0.1129313228
 40
0.2287927042
 40
0.3479264544
 40
0.4706464559
 40
0.5971865943
 40
0.7276587141
 40
1.0
 40
1.0
 40
1.0
 40
1.0
 10
4.6771559648
 20
4.2811073749
 30
0.0
 10
4.6758461563
 20
4.28063178
 30
0.0
 10
4.673247398
 20
4.2795104471
 30
0.0
 10
4.66951102
 20
4.2773800821
 30
0.0
 10
4.6659222961
 20
4.2747967465
 30
0.0
 10
4.6625097775
 20
4.2717833061
 30
0.0
 10
4.659297826
 20
4.2683625593
 30
0.0
 10
4.6552578593
 20
4.2632222784
 30
0.0
 10
4.6526869906
 20
4.2589365625
 30
0.0
 10
4.6511695878
 20
4.2559381881
 30
0.0
  0
SPLINE
  5
4C9
100
AcDbEntity
  8
ALL_ASSEMBLY_MEMBERS
100
AcDbSpline
 62
7
  6
CONTINUOUS
 70
0
 71
3
 72
11
 73
7
 74
0
 42
0.0000001
 43
0.0000001
 44
0.0000000001
 40
0.0
 40
0.0
 40
0.0
 40
0.0
 40
0.2439506126
 40
0.4910308411
 40
0.7425837889
 40
1.0
 40
1.0
 40
1.0
 40
1.0
 10
4.6932880108
 20
4.1463278658
 30
0.0
 10
4.6916207256
 20
4.1464271577
 30
0.0
 10
4.6882740269
 20
4.1468446357
 30
0.0
 10
4.6833357749
 20
4.1481062874
 30
0.0
 10
4.6785048874
 20
4.1499999898
 30
0.0
 10
4.6754262367
 20
4.151651869
 30
0.0
 10
4.6739218463
 20
4.1525700085
 30
0.0
  0
SPLINE
  5
4CA
100
AcDbEntity
  8
ALL_ASSEMBLY_MEMBERS
100
AcDbSpline
 62
7
  6
CONTINUOUS
 70
0
 71
3
 72
13
 73
9
 74
0
 42
0.0000001
 43
0.0000001
 44
0.0000000001
 40
0.0
 40
0.0
 40
0.0
 40
0.0
 40
0.1152676306
 40
0.2332347451
 40
0.4775203876
 40
0.604082024
 40
0.7334610744
 40
1.0
 40
1.0
 40
1.0
 40
1.0
 10
4.6730625027
 20
4.1531070561
 30
0.0
 10
4.6718839037
 20
4.1538610269
 30
0.0
 10
4.6695643356
 20
4.1554913542
 30
0.0
 10
4.6651097008
 20
4.1592073032
 30
0.0
 10
4.6610181274
 20
4.1635412536
 30
0.0
 10
4.6573425025
 20
4.1683785371
 30
0.0
 10
4.6538578755
 20
4.1736820971
 30
0.0
 10
4.651624257
 20
4.1779564628
 30
0.0
 10
4.6503004921
 20
4.1809085252
 30
0.0
  0
SPLINE
  5
4CB
100
AcDbEntity
  8
ALL_ASSEMBLY_MEMBERS
100
AcDbSpline
 62
7
  6
CONTINUOUS
 70
0
 71
3
 72
11
 73
7
 74
0
 42
0.0000001
 43
0.0000001
 44
0.0000000001
 40
0.0
 40
0.0
 40
0.0
 40
0.0
 40
0.244054941
 40
0.4930732052
 40
0.7455998455
 40
1.0
 40
1.0
 40
1.0
 40
1.0
 10
4.6503004921
 20
4.1809085252
 30
0.0
 10
4.6492571154
 20
4.1832353078
 30
0.0
 10
4.647369718
 20
4.188038153
 30
0.0
 10
4.6451773657
 20
4.1955236767
 30
0.0
 10
4.6436158824
 20
4.2032757304
 30
0.0
 10
4.6430116583
 20
4.2085452085
 30
0.0
 10
4.6428197383
 20
4.2111963732
 30
0.0
  0
SPLINE
  5
4CC
100
AcDbEntity
  8
ALL_ASSEMBLY_MEMBERS
100
AcDbSpline
 62
7
  6
CONTINUOUS
 70
0
 71
3
 72
11
 73
7
 74
0
 42
0.0000001
 43
0.0000001
 44
0.0000000001
 40
0.0
 40
0.0
 40
0.0
 40
0.0
 40
0.2576979141
 40
0.5114193183
 40
0.7595194441
 40
1.0
 40
1.0
 40
1.0
 40
1.0
 10
4.6426535671
 20
4.2219945677
 30
0.0
 10
4.6427608551
 20
4.2245510776
 30
0.0
 10
4.6431826496
 20
4.2296184832
 30
0.0
 10
4.6444411778
 20
4.2370634831
 30
0.0
 10
4.6463080301
 20
4.2442034379
 30
0.0
 10
4.6479642492
 20
4.2487725924
 30
0.0
 10
4.6488907297
 20
4.2509733289
 30
0.0
  0
SPLINE
  5
4CD
100
AcDbEntity
  8
ALL_ASSEMBLY_MEMBERS
100
AcDbSpline
 62
7
  6
CONTINUOUS
 70
0
 71
3
 72
9
 73
5
 74
0
 42
0.0000001
 43
0.0000001
 44
0.0000000001
 40
0.0
 40
0.0
 40
0.0
 40
0.0
 40
0.515886405
 40
1.0
 40
1.0
 40
1.0
 40
1.0
 10
4.6475884901
 20
4.2514175885
 30
0.0
 10
4.6492674706
 20
4.2567473171
 30
0.0
 10
4.6533735298
 20
4.2668358646
 30
0.0
 10
4.6592985157
 20
4.2760052623
 30
0.0
 10
4.6626173577
 20
4.2800651262
 30
0.0
  0
SPLINE
  5
4CE
100
AcDbEntity
  8
ALL_ASSEMBLY_MEMBERS
100
AcDbSpline
 62
7
  6
CONTINUOUS
 70
0
 71
3
 72
13
 73
9
 74
0
 42
0.0000001
 43
0.0000001
 44
0.0000000001
 40
0.0
 40
0.0
 40
0.0
 40
0.0
 40
0.2679977141
 40
0.5223599012
 40
0.6451623083
 40
0.765446249
 40
0.8835893366
 40
1.0
 40
1.0
 40
1.0
 40
1.0
 10
4.6626173577
 20
4.2800651262
 30
0.0
 10
4.6647375657
 20
4.2826587284
 30
0.0
 10
4.6692394956
 20
4.2874284931
 30
0.0
 10
4.6756932643
 20
4.2923358791
 30
0.0
 10
4.6811187348
 20
4.2953901535
 30
0.0
 10
4.6852530985
 20
4.2972236182
 30
0.0
 10
4.6894712204
 20
4.2986171567
 30
0.0
 10
4.6923400174
 20
4.2992513591
 30
0.0
 10
4.693775382
 20
4.2994903009
 30
0.0
  0
SPLINE
  5
4CF
100
AcDbEntity
  8
ALL_ASSEMBLY_MEMBERS
100
AcDbSpline
 62
7
  6
CONTINUOUS
 70
0
 71
3
 72
11
 73
7
 74
0
 42
0.0000001
 43
0.0000001
 44
0.0000000001
 40
0.0
 40
0.0
 40
0.0
 40
0.0
 40
0.2383666397
 40
0.4829077336
 40
0.7361542464
 40
1.0
 40
1.0
 40
1.0
 40
1.0
 10
4.2379408401
 20
4.2992386006
 30
0.0
 10
4.2405329346
 20
4.2988406773
 30
0.0
 10
4.2457235782
 20
4.2975690149
 30
0.0
 10
4.2531822692
 20
4.2943233518
 30
0.0
 10
4.2602650523
 20
4.289785731
 30
0.0
 10
4.2645664476
 20
4.2860286621
 30
0.0
 10
4.2666214851
 20
4.2839785575
 30
0.0
  0
SPLINE
  5
4D0
100
AcDbEntity
  8
ALL_ASSEMBLY_MEMBERS
100
AcDbSpline
 62
7
  6
CONTINUOUS
 70
0
 71
3
 72
9
 73
5
 74
0
 42
0.0000001
 43
0.0000001
 44
0.0000000001
 40
0.0
 40
0.0
 40
0.0
 40
0.0
 40
0.2435854928
 40
1.0
 40
1.0
 40
1.0
 40
1.0
 10
4.2700598539
 20
4.2802791305
 30
0.0
 10
4.2709547872
 20
4.2792418897
 30
0.0
 10
4.2745030882
 20
4.2748760163
 30
0.0
 10
4.2775512784
 20
4.270110166
 30
0.0
 10
4.2795721892
 20
4.2663666587
 30
0.0
  0
SPLINE
  5
4D1
100
AcDbEntity
  8
ALL_ASSEMBLY_MEMBERS
100
AcDbSpline
 62
7
  6
CONTINUOUS
 70
0
 71
3
 72
9
 73
5
 74
0
 42
0.0000001
 43
0.0000001
 44
0.0000000001
 40
0.0
 40
0.0
 40
0.0
 40
0.0
 40
0.2542556498
 40
1.0
 40
1.0
 40
1.0
 40
1.0
 10
4.2645749819
 20
4.1539245673
 30
0.0
 10
4.2641237152
 20
4.1535895156
 30
0.0
 10
4.262324721
 20
4.1523047025
 30
0.0
 10
4.2604276112
 20
4.151156203
 30
0.0
 10
4.2589671056
 20
4.1503916424
 30
0.0
  0
SPLINE
  5
4D2
100
AcDbEntity
  8
ALL_ASSEMBLY_MEMBERS
100
AcDbSpline
 62
7
  6
CONTINUOUS
 70
0
 71
3
 72
11
 73
7
 74
0
 42
0.0000001
 43
0.0000001
 44
0.0000000001
 40
0.0
 40
0.0
 40
0.0
 40
0.0
 40
0.256900883
 40
0.5078029634
 40
0.7548111145
 40
1.0
 40
1.0
 40
1.0
 40
1.0
 10
4.2589671056
 20
4.1503916424
 30
0.0
 10
4.2575196323
 20
4.1496339042
 30
0.0
 10
4.2545623669
 20
4.1483103651
 30
0.0
 10
4.2499453896
 20
4.1469440569
 30
0.0
 10
4.2452569098
 20
4.1462413557
 30
0.0
 10
4.2421142068
 20
4.1462193667
 30
0.0
 10
4.2405581642
 20
4.1463205452
 30
0.0
  0
SPLINE
  5
4D3
100
AcDbEntity
  8
ALL_ASSEMBLY_MEMBERS
100
AcDbSpline
 62
7
  6
CONTINUOUS
 70
0
 71
3
 72
22
 73
18
 74
0
 42
0.0000001
 43
0.0000001
 44
0.0000000001
 40
0.0
 40
0.0
 40
0.0
 40
0.0
 40
0.0482383222
 40
0.0976520696
 40
0.1488815469
 40
0.2024978614
 40
0.2588706184
 40
0.3181367001
 40
0.3802547386
 40
0.4450259426
 40
0.5120972568
 40
0.5810119843
 40
0.7219596839
 40
0.7929103898
 40
0.8633011724
 40
0.9325590977
 40
1.0
 40
1.0
 40
1.0
 40
1.0
 10
4.2405581642
 20
4.1463205452
 30
0.0
 10
4.2385232567
 20
4.146452861
 30
0.0
 10
4.2344198741
 20
4.1471107988
 30
0.0
 10
4.2284578329
 20
4.1492232597
 30
0.0
 10
4.2227507873
 20
4.1524411101
 30
0.0
 10
4.2173999446
 20
4.1567041825
 30
0.0
 10
4.2124933963
 20
4.1619434891
 30
0.0
 10
4.208115876
 20
4.1680758387
 30
0.0
 10
4.2043437161
 20
4.1750026556
 30
0.0
 10
4.2012484566
 20
4.1826124666
 30
0.0
 10
4.198886124
 20
4.1907800023
 30
0.0
 10
4.1967705785
 20
4.2023089682
 30
0.0
 10
4.1963341959
 20
4.2142586805
 30
0.0
 10
4.1975876906
 20
4.226139364
 30
0.0
 10
4.1993782769
 20
4.2348763618
 30
0.0
 10
4.2019980189
 20
4.243244663
 30
0.0
 10
4.2043035414
 20
4.2485588746
 30
0.0
 10
4.2055889297
 20
4.2511036305
 30
0.0
  0
SPLINE
  5
4D4
100
AcDbEntity
  8
ALL_ASSEMBLY_MEMBERS
100
AcDbSpline
 62
7
  6
CONTINUOUS
 70
0
 71
3
 72
11
 73
7
 74
0
 42
0.0000001
 43
0.0000001
 44
0.0000000001
 40
0.0
 40
0.0
 40
0.0
 40
0.0
 40
0.245420261
 40
0.4931405151
 40
0.7443454978
 40
1.0
 40
1.0
 40
1.0
 40
1.0
 10
4.2496665823
 20
4.2829867555
 30
0.0
 10
4.2510016242
 20
4.282861247
 30
0.0
 10
4.2536728656
 20
4.2824663293
 30
0.0
 10
4.2576190553
 20
4.2814541926
 30
0.0
 10
4.2614937349
 20
4.2800257547
 30
0.0
 10
4.2639902402
 20
4.2788155317
 30
0.0
 10
4.2652173827
 20
4.278148223
 30
0.0
  0
SPLINE
  5
4D5
100
AcDbEntity
  8
ALL_ASSEMBLY_MEMBERS
100
AcDbSpline
 62
7
  6
CONTINUOUS
 70
0
 71
3
 72
10
 73
6
 74
0
 42
0.0000001
 43
0.0000001
 44
0.0000000001
 40
0.0
 40
0.0
 40
0.0
 40
0.0
 40
0.2411796807
 40
0.4880821636
 40
1.0
 40
1.0
 40
1.0
 40
1.0
 10
4.2652173827
 20
4.278148223
 30
0.0
 10
4.2665345283
 20
4.2774319714
 30
0.0
 10
4.2691292195
 20
4.2758475435
 30
0.0
 10
4.2741079678
 20
4.2721145886
 30
0.0
 10
4.2774854266
 20
4.2687774333
 30
0.0
 10
4.2795653503
 20
4.2663688605
 30
0.0
  0
SPLINE
  5
4D6
100
AcDbEntity
  8
ALL_ASSEMBLY_MEMBERS
100
AcDbSpline
 62
7
  6
CONTINUOUS
 70
0
 71
3
 72
9
 73
5
 74
0
 42
0.0000001
 43
0.0000001
 44
0.0000000001
 40
0.0
 40
0.0
 40
0.0
 40
0.0
 40
0.4956869553
 40
1.0
 40
1.0
 40
1.0
 40
1.0
 10
4.2381245099
 20
4.2815961434
 30
0.0
 10
4.2367922326
 20
4.2812072519
 30
0.0
 10
4.2341437297
 20
4.2802820083
 30
0.0
 10
4.2316024194
 20
4.2790947671
 30
0.0
 10
4.2303529876
 20
4.2784369346
 30
0.0
  0
SPLINE
  5
4D7
100
AcDbEntity
  8
ALL_ASSEMBLY_MEMBERS
100
AcDbSpline
 62
7
  6
CONTINUOUS
 70
0
 71
3
 72
14
 73
10
 74
0
 42
0.0000001
 43
0.0000001
 44
0.0000000001
 40
0.0
 40
0.0
 40
0.0
 40
0.0
 40
0.2328993246
 40
0.3535563109
 40
0.4771437375
 40
0.6037241424
 40
0.7332600701
 40
0.8654780964
 40
1.0
 40
1.0
 40
1.0
 40
1.0
 10
4.2303529876
 20
4.2784369346
 30
0.0
 10
4.2277775233
 20
4.2770809389
 30
0.0
 10
4.224060721
 20
4.2746316649
 30
0.0
 10
4.219548026
 20
4.2707275123
 30
0.0
 10
4.2163030151
 20
4.2674108836
 30
0.0
 10
4.2132602063
 20
4.2637636356
 30
0.0
 10
4.2104392934
 20
4.2598090232
 30
0.0
 10
4.2078562077
 20
4.2555791691
 30
0.0
 10
4.2063156816
 20
4.2526195979
 30
0.0
 10
4.2055889297
 20
4.2511036305
 30
0.0
  0
SPLINE
  5
4D8
100
AcDbEntity
  8
ALL_ASSEMBLY_MEMBERS
100
AcDbSpline
 62
7
  6
CONTINUOUS
 70
0
 71
3
 72
39
 73
35
 74
0
 42
0.0000001
 43
0.0000001
 44
0.0000000001
 40
0.0
 40
0.0
 40
0.0
 40
0.0
 40
0.0259055329
 40
0.0515709678
 40
0.0773693361
 40
0.1037096837
 40
0.1309101066
 40
0.1592000813
 40
0.1886933093
 40
0.219433024
 40
0.2514018774
 40
0.2845271081
 40
0.3187068863
 40
0.3538048744
 40
0.389663872
 40
0.4261094801
 40
0.4629532051
 40
0.4999980781
 40
0.5370429389
 40
0.5738866119
 40
0.6103320887
 40
0.6461909332
 40
0.6812888464
 40
0.7154685589
 40
0.7485938441
 40
0.7805628307
 40
0.8113024882
 40
0.8407959675
 40
0.869085674
 40
0.896286251
 40
0.9226272305
 40
0.9484267656
 40
0.9740939323
 40
1.0
 40
1.0
 40
1.0
 40
1.0
 10
4.709816855
 20
4.3131525501
 30
0.0
 10
4.7118773148
 20
4.3131525501
 30
0.0
 10
4.7159882099
 20
4.3128055317
 30
0.0
 10
4.7219681467
 20
4.3112310772
 30
0.0
 10
4.7276173127
 20
4.3086328237
 30
0.0
 10
4.7328731956
 20
4.3050954584
 30
0.0
 10
4.7376963973
 20
4.3006943542
 30
0.0
 10
4.742072745
 20
4.2955217518
 30
0.0
 10
4.7459975187
 20
4.2896608495
 30
0.0
 10
4.7494724701
 20
4.2831916815
 30
0.0
 10
4.752507538
 20
4.2761911823
 30
0.0
 10
4.7551119048
 20
4.2687304994
 30
0.0
 10
4.7572953531
 20
4.260878533
 30
0.0
 10
4.7590682667
 20
4.2527020273
 30
0.0
 10
4.7604377054
 20
4.2442663116
 30
0.0
 10
4.7614110915
 20
4.2356364501
 30
0.0
 10
4.7619934307
 20
4.2268771117
 30
0.0
 10
4.7621867024
 20
4.2180530195
 30
0.0
 10
4.7619934785
 20
4.2092289298
 30
0.0
 10
4.7614111607
 20
4.2004696061
 30
0.0
 10
4.760437854
 20
4.1918397625
 30
0.0
 10
4.759068444
 20
4.1834040708
 30
0.0
 10
4.7572956
 20
4.1752275748
 30
0.0
 10
4.7551122226
 20
4.1673755954
 30
0.0
 10
4.752507904
 20
4.1599148855
 30
0.0
 10
4.7494729211
 20
4.1529143403
 30
0.0
 10
4.7459980381
 20
4.146445101
 30
0.0
 10
4.7420732944
 20
4.1405841968
 30
0.0
 10
4.7376971704
 20
4.1354113822
 30
0.0
 10
4.732873886
 20
4.1310103088
 30
0.0
 10
4.7276180496
 20
4.1274726121
 30
0.0
 10
4.7219686322
 20
4.1248741791
 30
0.0
 10
4.7159884175
 20
4.1232997491
 30
0.0
 10
4.7118773573
 20
4.1229525501
 30
0.0
 10
4.709816855
 20
4.1229525501
 30
0.0
  0
SPLINE
  5
4D9
100
AcDbEntity
  8
ALL_ASSEMBLY_MEMBERS
100
AcDbSpline
 62
7
  6
CONTINUOUS
 70
0
 71
3
 72
22
 73
18
 74
0
 42
0.0000001
 43
0.0000001
 44
0.0000000001
 40
0.0
 40
0.0
 40
0.0
 40
0.0
 40
0.0501855587
 40
0.1021222961
 40
0.1560424788
 40
0.2120816246
 40
0.2702332902
 40
0.3303976605
 40
0.3923919146
 40
0.4559932214
 40
0.5871299539
 40
0.654361268
 40
0.7224319429
 40
0.7911717851
 40
0.8604378271
 40
0.9300899674
 40
1.0
 40
1.0
 40
1.0
 40
1.0
 10
4.709816855
 20
4.1229525501
 30
0.0
 10
4.7078476132
 20
4.1229525501
 30
0.0
 10
4.7038349618
 20
4.1232756485
 30
0.0
 10
4.6978498756
 20
4.1246556511
 30
0.0
 10
4.6918933662
 20
4.1269152645
 30
0.0
 10
4.6860434833
 20
4.1299952883
 30
0.0
 10
4.6803680845
 20
4.1338386332
 30
0.0
 10
4.6749293522
 20
4.1383807653
 30
0.0
 10
4.669780055
 20
4.1435538078
 30
0.0
 10
4.6633053399
 20
4.1512839027
 30
0.0
 10
4.6576822693
 20
4.1599473804
 30
0.0
 10
4.6529826106
 20
4.1692932132
 30
0.0
 10
4.6499067391
 20
4.1766933412
 30
0.0
 10
4.6473385381
 20
4.1843677772
 30
0.0
 10
4.6452957742
 20
4.1922628251
 30
0.0
 10
4.643798348
 20
4.2003254747
 30
0.0
 10
4.6431728316
 20
4.2057711219
 30
0.0
 10
4.6429535413
 20
4.2085055575
 30
0.0
  0
SPLINE
  5
4DA
100
AcDbEntity
  8
ALL_ASSEMBLY_MEMBERS
100
AcDbSpline
 62
7
  6
CONTINUOUS
 70
0
 71
3
 72
9
 73
5
 74
0
 42
0.0000001
 43
0.0000001
 44
0.0000000001
 40
0.0
 40
0.0
 40
0.0
 40
0.0
 40
0.5072108574
 40
1.0
 40
1.0
 40
1.0
 40
1.0
 10
4.6479948179
 20
4.2535631858
 30
0.0
 10
4.6497082158
 20
4.259011209
 30
0.0
 10
4.6538878003
 20
4.2695178352
 30
0.0
 10
4.6596399835
 20
4.2792619339
 30
0.0
 10
4.6628561984
 20
4.2837834619
 30
0.0
  0
SPLINE
  5
4DB
100
AcDbEntity
  8
ALL_ASSEMBLY_MEMBERS
100
AcDbSpline
 62
7
  6
CONTINUOUS
 70
0
 71
3
 72
14
 73
10
 74
0
 42
0.0000001
 43
0.0000001
 44
0.0000000001
 40
0.0
 40
0.0
 40
0.0
 40
0.0
 40
0.2757934499
 40
0.4080295969
 40
0.5357617218
 40
0.658719875
 40
0.7768469101
 40
0.8904293251
 40
1.0
 40
1.0
 40
1.0
 40
1.0
 10
4.663546713
 20
4.2847418092
 30
0.0
 10
4.6665939342
 20
4.2889169079
 30
0.0
 10
4.6716155617
 20
4.2947542893
 30
0.0
 10
4.6791878566
 20
4.3013675822
 30
0.0
 10
4.6850601798
 20
4.3055186037
 30
0.0
 10
4.6911343372
 20
4.3088511303
 30
0.0
 10
4.6973347864
 20
4.3113017643
 30
0.0
 10
4.7035749283
 20
4.3128007651
 30
0.0
 10
4.7077633097
 20
4.3131525501
 30
0.0
 10
4.709816855
 20
4.3131525501
 30
0.0
  0
SPLINE
  5
4DC
100
AcDbEntity
  8
ALL_ASSEMBLY_MEMBERS
100
AcDbSpline
 62
7
  6
CONTINUOUS
 70
0
 71
3
 72
15
 73
11
 74
0
 42
0.0000001
 43
0.0000001
 44
0.0000000001
 40
0.0
 40
0.0
 40
0.0
 40
0.0
 40
0.1047699188
 40
0.2135116817
 40
0.3275495336
 40
0.4479307071
 40
0.5752829548
 40
0.709831506
 40
0.8515002979
 40
1.0
 40
1.0
 40
1.0
 40
1.0
 10
4.6771559648
 20
4.2811073749
 30
0.0
 10
4.6757556105
 20
4.2809323429
 30
0.0
 10
4.6729308392
 20
4.2802964217
 30
0.0
 10
4.6688466983
 20
4.2785752531
 30
0.0
 10
4.6649159769
 20
4.2761085302
 30
0.0
 10
4.6611895091
 20
4.272945694
 30
0.0
 10
4.6577109839
 20
4.2691322194
 30
0.0
 10
4.654516842
 20
4.2647206828
 30
0.0
 10
4.6516451659
 20
4.259762832
 30
0.0
 10
4.6500009092
 20
4.2562105198
 30
0.0
 10
4.6492359464
 20
4.2543622788
 30
0.0
  0
SPLINE
  5
4DD
100
AcDbEntity
  8
ALL_ASSEMBLY_MEMBERS
100
AcDbSpline
 62
7
  6
CONTINUOUS
 70
0
 71
3
 72
34
 73
30
 74
0
 42
0.0000001
 43
0.0000001
 44
0.0000000001
 40
0.0
 40
0.0
 40
0.0
 40
0.0
 40
0.0234111572
 40
0.0470278599
 40
0.0710595538
 40
0.0956928539
 40
0.1210760399
 40
0.1473282527
 40
0.1745362307
 40
0.2027488131
 40
0.2621986937
 40
0.3255731582
 40
0.3586014211
 40
0.3923908659
 40
0.4268398408
 40
0.4618321892
 40
0.4972442581
 40
0.5329498672
 40
0.6046826147
 40
0.6404824365
 40
0.6760597188
 40
0.74604338
 40
0.813848807
 40
0.8467607343
 40
0.8789301763
 40
0.91032882
 40
0.9409557315
 40
0.9708308223
 40
1.0
 40
1.0
 40
1.0
 40
1.0
 10
4.6877197796
 20
4.2831526277
 30
0.0
 10
4.6889347026
 20
4.2831528188
 30
0.0
 10
4.6913781926
 20
4.2829914613
 30
0.0
 10
4.6950045368
 20
4.2822704527
 30
0.0
 10
4.6985706754
 20
4.2810757016
 30
0.0
 10
4.7020466267
 20
4.2794163827
 30
0.0
 10
4.7054064079
 20
4.2773086176
 30
0.0
 10
4.7086221006
 20
4.274766571
 30
0.0
 10
4.7116681712
 20
4.2718095337
 30
0.0
 10
4.7155404439
 20
4.2672673633
 30
0.0
 10
4.7197995346
 20
4.2606403503
 30
0.0
 10
4.723084844
 20
4.2532174188
 30
0.0
 10
4.7251691388
 20
4.2467863387
 30
0.0
 10
4.7264530549
 20
4.2416861873
 30
0.0
 10
4.7274216283
 20
4.2364136615
 30
0.0
 10
4.7280680977
 20
4.2310073776
 30
0.0
 10
4.7283852373
 20
4.2255062588
 30
0.0
 10
4.7283604089
 20
4.2180897191
 30
0.0
 10
4.727664864
 20
4.2106671859
 30
0.0
 10
4.7262985601
 20
4.2033634381
 30
0.0
 10
4.7245074078
 20
4.1962452933
 30
0.0
 10
4.7214915408
 20
4.1877412342
 30
0.0
 10
4.7174280289
 20
4.1798340205
 30
0.0
 10
4.7136128439
 20
4.1740824794
 30
0.0
 10
4.7105304518
 20
4.1701301515
 30
0.0
 10
4.7072169687
 20
4.1665286474
 30
0.0
 10
4.7036956335
 20
4.1633030547
 30
0.0
 10
4.6999908487
 20
4.1604767363
 30
0.0
 10
4.6973837684
 20
4.158855792
 30
0.0
 10
4.6960596188
 20
4.158122291
 30
0.0
  0
SPLINE
  5
4DE
100
AcDbEntity
  8
ALL_ASSEMBLY_MEMBERS
100
AcDbSpline
 62
7
  6
CONTINUOUS
 70
0
 71
3
 72
11
 73
7
 74
0
 42
0.0000001
 43
0.0000001
 44
0.0000000001
 40
0.0
 40
0.0
 40
0.0
 40
0.0
 40
0.2563385046
 40
0.5074855596
 40
0.7549117809
 40
1.0
 40
1.0
 40
1.0
 40
1.0
 10
4.6960596188
 20
4.158122291
 30
0.0
 10
4.6945445624
 20
4.1572830388
 30
0.0
 10
4.6914458225
 20
4.1557926856
 30
0.0
 10
4.6865995556
 20
4.1541603128
 30
0.0
 10
4.681658847
 20
4.1531747015
 30
0.0
 10
4.6783271933
 20
4.1529525501
 30
0.0
 10
4.6766712311
 20
4.1529525501
 30
0.0
  0
SPLINE
  5
4DF
100
AcDbEntity
  8
ALL_ASSEMBLY_MEMBERS
100
AcDbSpline
 62
7
  6
CONTINUOUS
 70
0
 71
3
 72
31
 73
27
 74
0
 42
0.0000001
 43
0.0000001
 44
0.0000000001
 40
0.0
 40
0.0
 40
0.0
 40
0.0
 40
0.0236998147
 40
0.0478007285
 40
0.0724028718
 40
0.0975945243
 40
0.1234465879
 40
0.1500109757
 40
0.1773262968
 40
0.2054163996
 40
0.2638953766
 40
0.3253845388
 40
0.3895949892
 40
0.4226053897
 40
0.4561262402
 40
0.524397667
 40
0.5938295382
 40
0.6637782597
 40
0.733592798
 40
0.7682623837
 40
0.8026672436
 40
0.8367364929
 40
0.8704049973
 40
0.9036160238
 40
0.9363180434
 40
1.0
 40
1.0
 40
1.0
 40
1.0
 10
4.7030320307
 20
4.2990679447
 30
0.0
 10
4.7042660613
 20
4.2987771849
 30
0.0
 10
4.7067268785
 20
4.2980640318
 30
0.0
 10
4.7103296749
 20
4.296627126
 30
0.0
 10
4.7138532791
 20
4.2948228884
 30
0.0
 10
4.7172787
 20
4.2926585539
 30
0.0
 10
4.7205893111
 20
4.290145361
 30
0.0
 10
4.7237695552
 20
4.287296482
 30
0.0
 10
4.7268031601
 20
4.2841242975
 30
0.0
 10
4.730682415
 20
4.2794208902
 30
0.0
 10
4.7350683606
 20
4.272794965
 30
0.0
 10
4.7394450307
 20
4.2639430366
 30
0.0
 10
4.7423209037
 20
4.2559347705
 30
0.0
 10
4.7441534401
 20
4.2491824103
 30
0.0
 10
4.7456795222
 20
4.2421315133
 30
0.0
 10
4.7469277432
 20
4.233040637
 30
0.0
 10
4.7473591156
 20
4.2219236219
 30
0.0
 10
4.7467129237
 20
4.2107344309
 30
0.0
 10
4.7452786748
 20
4.2014976121
 30
0.0
 10
4.7435949657
 20
4.1942583803
 30
0.0
 10
4.7420764378
 20
4.1889512289
 30
0.0
 10
4.7403048751
 20
4.1837796471
 30
0.0
 10
4.738286068
 20
4.178768237
 30
0.0
 10
4.7360294683
 20
4.1739393699
 30
0.0
 10
4.732747003
 20
4.1678305335
 30
0.0
 10
4.7299135502
 20
4.1635029979
 30
0.0
 10
4.7278694004
 20
4.1607777758
 30
0.0
  0
SPLINE
  5
4E0
100
AcDbEntity
  8
ALL_ASSEMBLY_MEMBERS
100
AcDbSpline
 62
7
  6
CONTINUOUS
 70
0
 71
3
 72
10
 73
6
 74
0
 42
0.0000001
 43
0.0000001
 44
0.0000000001
 40
0.0
 40
0.0
 40
0.0
 40
0.0
 40
0.2461930219
 40
0.6220793093
 40
1.0
 40
1.0
 40
1.0
 40
1.0
 10
4.7232406423
 20
4.2434290818
 30
0.0
 10
4.7238606827
 20
4.2400771991
 30
0.0
 10
4.7250231629
 20
4.2315290301
 30
0.0
 10
4.7253130737
 20
4.2176446705
 30
0.0
 10
4.7241297214
 20
4.207237176
 30
0.0
 10
4.7231822237
 20
4.2020910464
 30
0.0
  0
SPLINE
  5
4E1
100
AcDbEntity
  8
ALL_ASSEMBLY_MEMBERS
100
AcDbSpline
 62
7
  6
CONTINUOUS
 70
0
 71
3
 72
12
 73
8
 74
0
 42
0.0000001
 43
0.0000001
 44
0.0000000001
 40
0.0
 40
0.0
 40
0.0
 40
0.0
 40
0.1184334818
 40
0.2399071723
 40
0.4266231849
 40
0.6170502598
 40
1.0
 40
1.0
 40
1.0
 40
1.0
 10
4.2044409352
 20
4.1751567441
 30
0.0
 10
4.2035344844
 20
4.1775197932
 30
0.0
 10
4.2018960363
 20
4.1823848449
 30
0.0
 10
4.1996681685
 20
4.1912330656
 30
0.0
 10
4.1980426785
 20
4.2017891492
 30
0.0
 10
4.1973074893
 20
4.2180350484
 30
0.0
 10
4.1986949983
 20
4.2303331643
 30
0.0
 10
4.2004877486
 20
4.2383180742
 30
0.0
  0
SPLINE
  5
4E2
100
AcDbEntity
  8
ALL_ASSEMBLY_MEMBERS
100
AcDbSpline
 62
7
  6
CONTINUOUS
 70
0
 71
3
 72
14
 73
10
 74
0
 42
0.0000001
 43
0.0000001
 44
0.0000000001
 40
0.0
 40
0.0
 40
0.0
 40
0.0
 40
0.1114603901
 40
0.2262261298
 40
0.3447184294
 40
0.4673064156
 40
0.7252095085
 40
0.8607318927
 40
1.0
 40
1.0
 40
1.0
 40
1.0
 10
4.233800013
 20
4.2811073749
 30
0.0
 10
4.2323217139
 20
4.2805706006
 30
0.0
 10
4.2293909854
 20
4.2792796097
 30
0.0
 10
4.2252072938
 20
4.2767768363
 30
0.0
 10
4.2212214801
 20
4.2737046401
 30
0.0
 10
4.2161391435
 20
4.2688159751
 30
0.0
 10
4.2117029113
 20
4.2629749744
 30
0.0
 10
4.2079789084
 20
4.2564400784
 30
0.0
 10
4.2063447818
 20
4.2529175601
 30
0.0
 10
4.2055889297
 20
4.2511036305
 30
0.0
  0
SPLINE
  5
4E3
100
AcDbEntity
  8
ALL_ASSEMBLY_MEMBERS
100
AcDbSpline
 62
7
  6
CONTINUOUS
 70
0
 71
3
 72
9
 73
5
 74
0
 42
0.0000001
 43
0.0000001
 44
0.0000000001
 40
0.0
 40
0.0
 40
0.0
 40
0.0
 40
0.5026822087
 40
1.0
 40
1.0
 40
1.0
 40
1.0
 10
4.233800013
 20
4.2811073749
 30
0.0
 10
4.2357916734
 20
4.2817776802
 30
0.0
 10
4.2398653364
 20
4.2828019677
 30
0.0
 10
4.2440525643
 20
4.2831523471
 30
0.0
 10
4.2461315715
 20
4.2831526277
 30
0.0
  0
SPLINE
  5
4E4
100
AcDbEntity
  8
ALL_ASSEMBLY_MEMBERS
100
AcDbSpline
 62
7
  6
CONTINUOUS
 70
0
 71
3
 72
19
 73
15
 74
0
 42
0.0000001
 43
0.0000001
 44
0.0000000001
 40
0.0
 40
0.0
 40
0.0
 40
0.0
 40
0.0555735574
 40
0.1116800221
 40
0.1685158046
 40
0.2263095731
 40
0.2852425602
 40
0.3454173057
 40
0.4694347993
 40
0.5981304314
 40
0.730446581
 40
0.8649671467
 40
0.9325691533
 40
1.0
 40
1.0
 40
1.0
 40
1.0
 10
4.233800013
 20
4.2811073749
 30
0.0
 10
4.2319507827
 20
4.2809462048
 30
0.0
 10
4.2282512498
 20
4.2803877716
 30
0.0
 10
4.2228151856
 20
4.2788802984
 30
0.0
 10
4.2175227858
 20
4.2767226407
 30
0.0
 10
4.2124184728
 20
4.2739510578
 30
0.0
 10
4.2075387367
 20
4.2706009311
 30
0.0
 10
4.2013146984
 20
4.2653680868
 30
0.0
 10
4.1942817692
 20
4.2575602329
 30
0.0
 10
4.1872897299
 20
4.246710363
 30
0.0
 10
4.1817729162
 20
4.2346611931
 30
0.0
 10
4.1784774429
 20
4.2239540018
 30
0.0
 10
4.1766271741
 20
4.2151385612
 30
0.0
 10
4.1759649341
 20
4.2106737894
 30
0.0
 10
4.1757006713
 20
4.2084370545
 30
0.0
  0
SPLINE
  5
4E5
100
AcDbEntity
  8
ALL_ASSEMBLY_MEMBERS
100
AcDbSpline
 62
7
  6
CONTINUOUS
 70
0
 71
3
 72
22
 73
18
 74
0
 42
0.0000001
 43
0.0000001
 44
0.0000000001
 40
0.0
 40
0.0
 40
0.0
 40
0.0
 40
0.0707568403
 40
0.1416791419
 40
0.2822183761
 40
0.35128523
 40
0.4191438503
 40
0.4855210957
 40
0.5501850453
 40
0.6129703488
 40
0.673762361
 40
0.732520942
 40
0.7892720259
 40
0.8441451106
 40
0.8973672801
 40
0.9492204327
 40
1.0
 40
1.0
 40
1.0
 40
1.0
 10
4.1757006713
 20
4.2084370545
 30
0.0
 10
4.1754780018
 20
4.2111043134
 30
0.0
 10
4.1752200746
 20
4.2164629455
 30
0.0
 10
4.1754418572
 20
4.2271418067
 30
0.0
 10
4.1767652687
 20
4.237713519
 30
0.0
 10
4.1791874841
 20
4.2479333726
 30
0.0
 10
4.1815133492
 20
4.2552716791
 30
0.0
 10
4.1843342152
 20
4.2622550525
 30
0.0
 10
4.1876274392
 20
4.2688152654
 30
0.0
 10
4.191358045
 20
4.2748912931
 30
0.0
 10
4.1954949342
 20
4.2804229823
 30
0.0
 10
4.1999961209
 20
4.2853591034
 30
0.0
 10
4.2048213953
 20
4.2896508379
 30
0.0
 10
4.209926243
 20
4.2932560261
 30
0.0
 10
4.2152637193
 20
4.2961385362
 30
0.0
 10
4.2207793004
 20
4.2982648823
 30
0.0
 10
4.2245679826
 20
4.2991743907
 30
0.0
 10
4.2264623851
 20
4.2994920558
 30
0.0
  0
SPLINE
  5
4E6
100
AcDbEntity
  8
ALL_ASSEMBLY_MEMBERS
100
AcDbSpline
 62
7
  6
CONTINUOUS
 70
0
 71
3
 72
39
 73
35
 74
0
 42
0.0000001
 43
0.0000001
 44
0.0000000001
 40
0.0
 40
0.0
 40
0.0
 40
0.0
 40
0.0259055329
 40
0.0515709678
 40
0.0773693361
 40
0.1037096837
 40
0.1309101066
 40
0.1592000813
 40
0.1886933093
 40
0.219433024
 40
0.2514018774
 40
0.2845271081
 40
0.3187068863
 40
0.3538048744
 40
0.389663872
 40
0.4261094801
 40
0.4629532051
 40
0.4999980781
 40
0.5370429389
 40
0.5738866119
 40
0.6103320887
 40
0.6461909332
 40
0.6812888464
 40
0.7154685589
 40
0.7485938441
 40
0.7805628307
 40
0.8113024882
 40
0.8407959675
 40
0.869085674
 40
0.896286251
 40
0.9226272305
 40
0.9484267656
 40
0.9740939323
 40
1.0
 40
1.0
 40
1.0
 40
1.0
 10
4.2240344963
 20
4.1229525501
 30
0.0
 10
4.2219740366
 20
4.1229525501
 30
0.0
 10
4.2178631415
 20
4.1232995685
 30
0.0
 10
4.2118832046
 20
4.124874023
 30
0.0
 10
4.2062340386
 20
4.1274722766
 30
0.0
 10
4.2009781557
 20
4.1310096418
 30
0.0
 10
4.196154954
 20
4.1354107461
 30
0.0
 10
4.1917786064
 20
4.1405833485
 30
0.0
 10
4.1878538327
 20
4.1464442508
 30
0.0
 10
4.1843788812
 20
4.1529134187
 30
0.0
 10
4.1813438133
 20
4.1599139179
 30
0.0
 10
4.1787394466
 20
4.1673746008
 30
0.0
 10
4.1765559983
 20
4.1752265672
 30
0.0
 10
4.1747830847
 20
4.1834030729
 30
0.0
 10
4.1734136459
 20
4.1918387886
 30
0.0
 10
4.1724402599
 20
4.2004686502
 30
0.0
 10
4.1718579207
 20
4.2092279886
 30
0.0
 10
4.171664649
 20
4.2180520808
 30
0.0
 10
4.1718578728
 20
4.2268761704
 30
0.0
 10
4.1724401906
 20
4.2356354942
 30
0.0
 10
4.1734134973
 20
4.2442653378
 30
0.0
 10
4.1747829073
 20
4.2527010294
 30
0.0
 10
4.1765557513
 20
4.2608775255
 30
0.0
 10
4.1787391287
 20
4.2687295048
 30
0.0
 10
4.1813434473
 20
4.2761902147
 30
0.0
 10
4.1843784302
 20
4.28319076
 30
0.0
 10
4.1878533133
 20
4.2896599992
 30
0.0
 10
4.1917780569
 20
4.2955209034
 30
0.0
 10
4.196154181
 20
4.3006937181
 30
0.0
 10
4.2009774653
 20
4.3050947914
 30
0.0
 10
4.2062333018
 20
4.3086324881
 30
0.0
 10
4.2118827192
 20
4.3112309211
 30
0.0
 10
4.2178629339
 20
4.3128053511
 30
0.0
 10
4.221973994
 20
4.3131525501
 30
0.0
 10
4.2240344963
 20
4.3131525501
 30
0.0
  0
SPLINE
  5
4E7
100
AcDbEntity
  8
ALL_ASSEMBLY_MEMBERS
100
AcDbSpline
 62
7
  6
CONTINUOUS
 70
0
 71
3
 72
20
 73
16
 74
0
 42
0.0000001
 43
0.0000001
 44
0.0000000001
 40
0.0
 40
0.0
 40
0.0
 40
0.0
 40
0.0681585591
 40
0.1366899359
 40
0.2733263545
 40
0.4076798761
 40
0.5379215052
 40
0.6010610822
 40
0.662675723
 40
0.7226863641
 40
0.7810752511
 40
0.8378735008
 40
0.8931775093
 40
0.947148031
 40
1.0
 40
1.0
 40
1.0
 40
1.0
 10
4.1757006713
 20
4.2084370545
 30
0.0
 10
4.1756006907
 20
4.2109178775
 30
0.0
 10
4.1755629316
 20
4.2159012947
 30
0.0
 10
4.1761235961
 20
4.2258471377
 30
0.0
 10
4.1780098088
 20
4.238109292
 30
0.0
 10
4.1821235877
 20
4.2521776992
 30
0.0
 10
4.1870536425
 20
4.2631027396
 30
0.0
 10
4.1918307849
 20
4.2710786286
 30
0.0
 10
4.1957447996
 20
4.2765637368
 30
0.0
 10
4.1999998821
 20
4.2815640813
 30
0.0
 10
4.2045616037
 20
4.2860403453
 30
0.0
 10
4.2093966175
 20
4.2899541584
 30
0.0
 10
4.2144692158
 20
4.2932707982
 30
0.0
 10
4.2197374476
 20
4.295964611
 30
0.0
 10
4.2233885388
 20
4.297339533
 30
0.0
 10
4.2252269678
 20
4.297911195
 30
0.0
  0
SPLINE
  5
4E8
100
AcDbEntity
  8
ALL_ASSEMBLY_MEMBERS
100
AcDbSpline
 62
7
  6
CONTINUOUS
 70
0
 71
3
 72
14
 73
10
 74
0
 42
0.0000001
 43
0.0000001
 44
0.0000000001
 40
0.0
 40
0.0
 40
0.0
 40
0.0
 40
0.1095712543
 40
0.2231502155
 40
0.3412747836
 40
0.4642319799
 40
0.5919652461
 40
0.7242040829
 40
1.0
 40
1.0
 40
1.0
 40
1.0
 10
4.2240344963
 20
4.3131525501
 30
0.0
 10
4.2260878243
 20
4.3131525501
 30
0.0
 10
4.2302756952
 20
4.3128009688
 30
0.0
 10
4.2365150732
 20
4.3113022359
 30
0.0
 10
4.2427147609
 20
4.3088520823
 30
0.0
 10
4.2487884407
 20
4.3055203728
 30
0.0
 10
4.2546602983
 20
4.301369982
 30
0.0
 10
4.26223232
 20
4.2947579035
 30
0.0
 10
4.2672537506
 20
4.2889213452
 30
0.0
 10
4.27030094
 20
4.2847468772
 30
0.0
  0
SPLINE
  5
4E9
100
AcDbEntity
  8
ALL_ASSEMBLY_MEMBERS
100
AcDbSpline
 62
7
  6
CONTINUOUS
 70
0
 71
3
 72
9
 73
5
 74
0
 42
0.0000001
 43
0.0000001
 44
0.0000000001
 40
0.0
 40
0.0
 40
0.0
 40
0.0
 40
0.2455643853
 40
1.0
 40
1.0
 40
1.0
 40
1.0
 10
4.2708262218
 20
4.2840202075
 30
0.0
 10
4.2719918432
 20
4.2823918618
 30
0.0
 10
4.276532832
 20
4.2756150657
 30
0.0
 10
4.2802561869
 20
4.2682975934
 30
0.0
 10
4.282590034
 20
4.2626051249
 30
0.0
  0
SPLINE
  5
4EA
100
AcDbEntity
  8
ALL_ASSEMBLY_MEMBERS
100
AcDbSpline
 62
7
  6
CONTINUOUS
 70
0
 71
3
 72
11
 73
7
 74
0
 42
0.0000001
 43
0.0000001
 44
0.0000000001
 40
0.0
 40
0.0
 40
0.0
 40
0.0
 40
0.2470952796
 40
0.496594669
 40
0.7477814492
 40
1.0
 40
1.0
 40
1.0
 40
1.0
 10
4.282590034
 20
4.2626051249
 30
0.0
 10
4.2838060596
 20
4.2596391261
 30
0.0
 10
4.2859951344
 20
4.2535704813
 30
0.0
 10
4.2885182024
 20
4.244192165
 30
0.0
 10
4.2902681701
 20
4.2345717269
 30
0.0
 10
4.2909046086
 20
4.2280633597
 30
0.0
 10
4.2910895009
 20
4.2247965234
 30
0.0
  0
SPLINE
  5
4EB
100
AcDbEntity
  8
ALL_ASSEMBLY_MEMBERS
100
AcDbSpline
 62
7
  6
CONTINUOUS
 70
0
 71
3
 72
21
 73
17
 74
0
 42
0.0000001
 43
0.0000001
 44
0.0000000001
 40
0.0
 40
0.0
 40
0.0
 40
0.0
 40
0.0699569033
 40
0.1396445277
 40
0.2089345857
 40
0.2776889986
 40
0.3457653425
 40
0.4129933554
 40
0.5441080303
 40
0.6076923517
 40
0.6696700215
 40
0.7878136512
 40
0.8438574137
 40
0.8977972232
 40
0.9497686627
 40
1.0
 40
1.0
 40
1.0
 40
1.0
 10
4.2908189995
 20
4.2075690463
 30
0.0
 10
4.2905800423
 20
4.2048567981
 30
0.0
 10
4.2899181795
 20
4.1994571373
 30
0.0
 10
4.2883745082
 20
4.19146692
 30
0.0
 10
4.2862954228
 20
4.1836470036
 30
0.0
 10
4.2836998554
 20
4.1760494653
 30
0.0
 10
4.2806057317
 20
4.1687269742
 30
0.0
 10
4.2758940968
 20
4.1594832771
 30
0.0
 10
4.2702760399
 20
4.1509199613
 30
0.0
 10
4.2638201696
 20
4.1432820124
 30
0.0
 10
4.2570961688
 20
4.1365820446
 30
0.0
 10
4.2497140423
 20
4.1309814443
 30
0.0
 10
4.241830483
 20
4.1268596468
 30
0.0
 10
4.235914708
 20
4.1246314341
 30
0.0
 10
4.2299726633
 20
4.1232710638
 30
0.0
 10
4.2259895226
 20
4.1229525501
 30
0.0
 10
4.2240344963
 20
4.1229525501
 30
0.0
  0
SPLINE
  5
4EC
100
AcDbEntity
  8
ALL_ASSEMBLY_MEMBERS
100
AcDbSpline
 62
7
  6
CONTINUOUS
 70
0
 71
3
 72
103
 73
99
 74
0
 42
0.0000001
 43
0.0000001
 44
0.0000000001
 40
0.0
 40
0.0
 40
0.0
 40
0.0
 40
0.0000027196
 40
0.0000108754
 40
0.0000244632
 40
0.0000434788
 40
0.0000679181
 40
0.0000977767
 40
0.0001737352
 40
0.0002713207
 40
0.0003904995
 40
0.0005312378
 40
0.0006935019
 40
0.001082473
 40
0.0015571433
 40
0.0021172434
 40
0.002762504
 40
0.0034926558
 40
0.0043074298
 40
0.0052065569
 40
0.0061897681
 40
0.0084073276
 40
0.0109564539
 40
0.0138316378
 40
0.0170272586
 40
0.0205377056
 40
0.0243573793
 40
0.0284806911
 40
0.0329020317
 40
0.0426129778
 40
0.0534354413
 40
0.0653143036
 40
0.0781950293
 40
0.0920246638
 40
0.1067516041
 40
0.1223251331
 40
0.1386962958
 40
0.1558205369
 40
0.1921591149
 40
0.2310206441
 40
0.2721096521
 40
0.3151400324
 40
0.3372885181
 40
0.3598094989
 40
0.3826566437
 40
0.405779064
 40
0.4291286561
 40
0.4526548631
 40
0.4762984025
 40
0.4999999095
 40
0.5237014101
 40
0.5473449363
 40
0.5708711357
 40
0.5942207493
 40
0.6173432369
 40
0.6401904699
 40
0.6627115347
 40
0.6848600779
 40
0.7278905232
 40
0.7689795527
 40
0.8078410548
 40
0.8441796392
 40
0.8613038864
 40
0.8776750461
 40
0.8932485665
 40
0.9079754992
 40
0.9218051248
 40
0.9346858386
 40
0.9465646898
 40
0.957387145
 40
0.9670980866
 40
0.9715194253
 40
0.9756427276
 40
0.9794623862
 40
0.9829728167
 40
0.9861684234
 40
0.9890435996
 40
0.9915927289
 40
0.9938103006
 40
0.9947935143
 40
0.9956926411
 40
0.9965074125
 40
0.9972375597
 40
0.9978828141
 40
0.9984429067
 40
0.9989175686
 40
0.9993065309
 40
0.9994687906
 40
0.9996095244
 40
0.9997286988
 40
0.9998262799
 40
0.9999022343
 40
0.999932091
 40
0.9999565283
 40
0.999975542
 40
0.999989128
 40
0.9999972821
 40
1.0
 40
1.0
 40
1.0
 40
1.0
 10
11.9094256757
 20
4.9620525501
 30
0.0
 10
11.9094260694
 20
4.9620525501
 30
0.0
 10
11.9094264031
 20
4.9620503714
 30
0.0
 10
11.909428663
 20
4.962048121
 30
0.0
 10
11.9094314135
 20
4.9620425906
 30
0.0
 10
11.9094357379
 20
4.962035686
 30
0.0
 10
11.9094411035
 20
4.9620264757
 30
0.0
 10
11.909450734
 20
4.9620102854
 30
0.0
 10
11.9094657202
 20
4.961984918
 30
0.0
 10
11.9094873031
 20
4.9619484506
 30
0.0
 10
11.9095136404
 20
4.9619038888
 30
0.0
 10
11.9095447313
 20
4.9618512622
 30
0.0
 10
11.9095956649
 20
4.9617649878
 30
0.0
 10
11.909671122
 20
4.961637047
 30
0.0
 10
11.9097757411
 20
4.961459433
 30
0.0
 10
11.9098990751
 20
4.9612497773
 30
0.0
 10
11.910041028
 20
4.961008159
 30
0.0
 10
11.9102015038
 20
4.9607346577
 30
0.0
 10
11.9103804066
 20
4.9604293525
 30
0.0
 10
11.9105776411
 20
4.9600923234
 30
0.0
 10
11.9108771609
 20
4.9595798292
 30
0.0
 10
11.9112966079
 20
4.9588607234
 30
0.0
 10
11.9118527599
 20
4.9579042355
 30
0.0
 10
11.9124780634
 20
4.956824152
 30
0.0
 10
11.9131704884
 20
4.9556221044
 30
0.0
 10
11.9139279666
 20
4.9542997218
 30
0.0
 10
11.9147484396
 20
4.9528586397
 30
0.0
 10
11.9156298296
 20
4.9513004873
 30
0.0
 10
11.9169245138
 20
4.9489961602
 30
0.0
 10
11.9186788613
 20
4.9458375717
 30
0.0
 10
11.9209264652
 20
4.9417179796
 30
0.0
 10
11.9233553687
 20
4.9371746981
 30
0.0
 10
11.9259436714
 20
4.9322231762
 30
0.0
 10
11.9286676209
 20
4.9268775952
 30
0.0
 10
11.9315028525
 20
4.9211515801
 30
0.0
 10
11.9344252746
 20
4.9150586831
 30
0.0
 10
11.9374109629
 20
4.9086118252
 30
0.0
 10
11.9415241926
 20
4.8993750876
 30
0.0
 10
11.9466633697
 20
4.8870323512
 30
0.0
 10
11.952563538
 20
4.871258559
 30
0.0
 10
11.9580979267
 20
4.8543287615
 30
0.0
 10
11.9621844455
 20
4.8394881163
 30
0.0
 10
11.9650757148
 20
4.8271227467
 30
0.0
 10
11.9670363535
 20
4.8175446507
 30
0.0
 10
11.9687453287
 20
4.8077752476
 30
0.0
 10
11.9701812161
 20
4.7978406135
 30
0.0
 10
11.9713207376
 20
4.7877685409
 30
0.0
 10
11.9721448012
 20
4.7775900069
 30
0.0
 10
11.9726463948
 20
4.7673394687
 30
0.0
 10
11.9728164388
 20
4.7570525905
 30
0.0
 10
11.9726463973
 20
4.7467657142
 30
0.0
 10
11.9721448155
 20
4.7365151794
 30
0.0
 10
11.971320753
 20
4.726336645
 30
0.0
 10
11.9701812152
 20
4.7162645624
 30
0.0
 10
11.9687453256
 20
4.7063299029
 30
0.0
 10
11.9670363504
 20
4.6965604646
 30
0.0
 10
11.9650757131
 20
4.6869823344
 30
0.0
 10
11.9621844378
 20
4.6746169354
 30
0.0
 10
11.9580979036
 20
4.6597762727
 30
0.0
 10
11.9525635136
 20
4.6428464667
 30
0.0
 10
11.9466633408
 20
4.6270726759
 30
0.0
 10
11.9415241615
 20
4.6147299428
 30
0.0
 10
11.9374109322
 20
4.6054932036
 30
0.0
 10
11.9344252418
 20
4.5990463475
 30
0.0
 10
11.9315028188
 20
4.592953454
 30
0.0
 10
11.9286675897
 20
4.5872274417
 30
0.0
 10
11.9259436428
 20
4.581881864
 30
0.0
 10
11.9233553385
 20
4.5769303482
 30
0.0
 10
11.9209264365
 20
4.572387071
 30
0.0
 10
11.9186788355
 20
4.5682674813
 30
0.0
 10
11.9169244895
 20
4.5651088944
 30
0.0
 10
11.9156298042
 20
4.5628045706
 30
0.0
 10
11.9147484168
 20
4.5612464211
 30
0.0
 10
11.9139279485
 20
4.5598053431
 30
0.0
 10
11.9131704757
 20
4.5584829652
 30
0.0
 10
11.9124780548
 20
4.5572809215
 30
0.0
 10
11.9118527526
 20
4.5562008404
 30
0.0
 10
11.9112965977
 20
4.5552443529
 30
0.0
 10
11.9108771443
 20
4.5545252479
 30
0.0
 10
11.9105776201
 20
4.5540127538
 30
0.0
 10
11.9103803836
 20
4.5536757259
 30
0.0
 10
11.9102014797
 20
4.5533704227
 30
0.0
 10
11.9100410036
 20
4.5530969238
 30
0.0
 10
11.9098990512
 20
4.5528553083
 30
0.0
 10
11.9097757186
 20
4.5526456555
 30
0.0
 10
11.9096711012
 20
4.5524680444
 30
0.0
 10
11.9095956472
 20
4.5523401059
 30
0.0
 10
11.9095447145
 20
4.5522538332
 30
0.0
 10
11.9095136285
 20
4.5522012078
 30
0.0
 10
11.9094872842
 20
4.5521566471
 30
0.0
 10
11.909465728
 20
4.5521201806
 30
0.0
 10
11.9094506874
 20
4.5520948138
 30
0.0
 10
11.9094411446
 20
4.5520786239
 30
0.0
 10
11.9094355998
 20
4.5520694138
 30
0.0
 10
11.9094317426
 20
4.5520625096
 30
0.0
 10
11.9094279388
 20
4.5520569789
 30
0.0
 10
11.90942753
 20
4.5520547295
 30
0.0
 10
11.9094252822
 20
4.5520525501
 30
0.0
 10
11.9094256757
 20
4.5520525501
 30
0.0
  0
SPLINE
  5
4ED
100
AcDbEntity
  8
ALL_ASSEMBLY_MEMBERS
100
AcDbSpline
 62
7
  6
CONTINUOUS
 70
0
 71
3
 72
103
 73
99
 74
0
 42
0.0000001
 43
0.0000001
 44
0.0000000001
 40
0.0
 40
0.0
 40
0.0
 40
0.0
 40
0.0000027196
 40
0.0000108753
 40
0.0000244629
 40
0.0000434781
 40
0.0000679167
 40
0.0000977746
 40
0.0001737312
 40
0.0002713143
 40
0.0003904902
 40
0.0005312253
 40
0.0006934859
 40
0.0010824493
 40
0.0015571114
 40
0.0021172033
 40
0.0027624563
 40
0.0034926017
 40
0.0043073707
 40
0.005206495
 40
0.0061897059
 40
0.0084072724
 40
0.0109563982
 40
0.0138315726
 40
0.0170271785
 40
0.0205376091
 40
0.024357268
 40
0.0284805706
 40
0.0329019088
 40
0.042612847
 40
0.0534352963
 40
0.0653141406
 40
0.0781948486
 40
0.0920244702
 40
0.1067514005
 40
0.1223249198
 40
0.1386960809
 40
0.1558203323
 40
0.1921589254
 40
0.2310204294
 40
0.2721094658
 40
0.3151399243
 40
0.3372884725
 40
0.3598095401
 40
0.3826567749
 40
0.4057792628
 40
0.4291288747
 40
0.4526550715
 40
0.4762985951
 40
0.500000093
 40
0.5237015973
 40
0.5473451339
 40
0.5708713383
 40
0.5942209286
 40
0.6173433488
 40
0.6401904949
 40
0.6627114786
 40
0.6848599694
 40
0.7278903626
 40
0.7689793769
 40
0.807840907
 40
0.8441794936
 40
0.8613037389
 40
0.877674903
 40
0.8932484309
 40
0.907975369
 40
0.9218049996
 40
0.9346857196
 40
0.9465645753
 40
0.9573870328
 40
0.9670979749
 40
0.9715193146
 40
0.9756426258
 40
0.9794622989
 40
0.9829727452
 40
0.9861683649
 40
0.9890435471
 40
0.9915926711
 40
0.9938102276
 40
0.9947934373
 40
0.9956925631
 40
0.996507336
 40
0.997237487
 40
0.9978827471
 40
0.998442847
 40
0.9989175176
 40
0.9993064894
 40
0.9994687541
 40
0.9996094931
 40
0.9997286727
 40
0.9998262592
 40
0.9999022189
 40
0.9999320781
 40
0.999956518
 40
0.9999755344
 40
0.999989123
 40
0.9999972796
 40
1.0
 40
1.0
 40
1.0
 40
1.0
 10
13.0244256757
 20
4.5520525501
 30
0.0
 10
13.0244252819
 20
4.5520525496
 30
0.0
 10
13.024424948
 20
4.5520547295
 30
0.0
 10
13.0244226883
 20
4.5520569787
 30
0.0
 10
13.0244199376
 20
4.5520625096
 30
0.0
 10
13.0244156133
 20
4.5520694138
 30
0.0
 10
13.0244102478
 20
4.5520786239
 30
0.0
 10
13.0244006176
 20
4.5520948137
 30
0.0
 10
13.0243856318
 20
4.5521201805
 30
0.0
 10
13.0243640496
 20
4.5521566471
 30
0.0
 10
13.024337713
 20
4.5522012079
 30
0.0
 10
13.0243066231
 20
4.5522538335
 30
0.0
 10
13.0242556908
 20
4.5523401062
 30
0.0
 10
13.0241802356
 20
4.5524680449
 30
0.0
 10
13.0240756188
 20
4.5526456562
 30
0.0
 10
13.023952287
 20
4.5528553092
 30
0.0
 10
13.0238103362
 20
4.5530969249
 30
0.0
 10
13.0236498619
 20
4.553370424
 30
0.0
 10
13.0234709602
 20
4.5536757273
 30
0.0
 10
13.0232737259
 20
4.5540127553
 30
0.0
 10
13.0229742049
 20
4.5545252494
 30
0.0
 10
13.0225547547
 20
4.5552443544
 30
0.0
 10
13.021998602
 20
4.5562008413
 30
0.0
 10
13.0213733007
 20
4.557280922
 30
0.0
 10
13.0206808798
 20
4.5584829652
 30
0.0
 10
13.0199234063
 20
4.5598053427
 30
0.0
 10
13.0191029369
 20
4.5612464201
 30
0.0
 10
13.0182215484
 20
4.5628045691
 30
0.0
 10
13.0169268624
 20
4.5651088918
 30
0.0
 10
13.0151725168
 20
4.5682674774
 30
0.0
 10
13.0129249174
 20
4.5723870653
 30
0.0
 10
13.0104960171
 20
4.5769303404
 30
0.0
 10
13.0079077138
 20
4.581881854
 30
0.0
 10
13.0051837678
 20
4.5872274302
 30
0.0
 10
13.0023485392
 20
4.5929534414
 30
0.0
 10
12.9994261157
 20
4.5990463344
 30
0.0
 10
12.9964404245
 20
4.6054931908
 30
0.0
 10
12.9923271945
 20
4.614729932
 30
0.0
 10
12.9871880141
 20
4.627072667
 30
0.0
 10
12.9812878396
 20
4.6428464599
 30
0.0
 10
12.9757534491
 20
4.6597762691
 30
0.0
 10
12.971666914
 20
4.6746169352
 30
0.0
 10
12.9687756377
 20
4.6869823371
 30
0.0
 10
12.9668149999
 20
4.6965604686
 30
0.0
 10
12.9651060251
 20
4.7063299077
 30
0.0
 10
12.963670136
 20
4.7162645674
 30
0.0
 10
12.9625305976
 20
4.7263366493
 30
0.0
 10
12.9617065352
 20
4.7365151828
 30
0.0
 10
12.961204954
 20
4.7467657165
 30
0.0
 10
12.9610349126
 20
4.7570525916
 30
0.0
 10
12.9612049563
 20
4.7673394686
 30
0.0
 10
12.9617065497
 20
4.7775900056
 30
0.0
 10
12.9625306134
 20
4.7877685386
 30
0.0
 10
12.9636701352
 20
4.7978406105
 30
0.0
 10
12.9651060222
 20
4.8077752446
 30
0.0
 10
12.9668149973
 20
4.8175446483
 30
0.0
 10
12.9687756363
 20
4.8271227456
 30
0.0
 10
12.9716669066
 20
4.839488118
 30
0.0
 10
12.9757534265
 20
4.8543287666
 30
0.0
 10
12.9812878156
 20
4.871258567
 30
0.0
 10
12.9871879856
 20
4.8870323611
 30
0.0
 10
12.9923271638
 20
4.8993750992
 30
0.0
 10
12.9964403941
 20
4.9086118387
 30
0.0
 10
12.9994260832
 20
4.9150586969
 30
0.0
 10
13.0023485058
 20
4.9211515935
 30
0.0
 10
13.0051837369
 20
4.9268776077
 30
0.0
 10
13.0079076854
 20
4.9322231872
 30
0.0
 10
13.0104959874
 20
4.9371747068
 30
0.0
 10
13.0129248896
 20
4.941717986
 30
0.0
 10
13.015172492
 20
4.9458375762
 30
0.0
 10
13.0169268388
 20
4.9489961633
 30
0.0
 10
13.0182215232
 20
4.9513004893
 30
0.0
 10
13.0191029136
 20
4.9528586412
 30
0.0
 10
13.0199233871
 20
4.9542997228
 30
0.0
 10
13.0206808654
 20
4.9556221048
 30
0.0
 10
13.0213732903
 20
4.9568241519
 30
0.0
 10
13.0219985931
 20
4.957904235
 30
0.0
 10
13.0225547439
 20
4.9588607224
 30
0.0
 10
13.0229741891
 20
4.9595798281
 30
0.0
 10
13.0232737073
 20
4.9600923223
 30
0.0
 10
13.0234709407
 20
4.9604293514
 30
0.0
 10
13.0236498424
 20
4.9607346566
 30
0.0
 10
13.0238103174
 20
4.9610081581
 30
0.0
 10
13.0239522696
 20
4.9612497765
 30
0.0
 10
13.0240756032
 20
4.9614594324
 30
0.0
 10
13.0241802223
 20
4.9616370466
 30
0.0
 10
13.0242556796
 20
4.9617649875
 30
0.0
 10
13.0243066137
 20
4.9618512619
 30
0.0
 10
13.024337705
 20
4.9619038886
 30
0.0
 10
13.0243640429
 20
4.9619484505
 30
0.0
 10
13.0243856265
 20
4.961984918
 30
0.0
 10
13.0244006135
 20
4.9620102854
 30
0.0
 10
13.0244102446
 20
4.9620264757
 30
0.0
 10
13.0244156108
 20
4.9620356859
 30
0.0
 10
13.0244199356
 20
4.9620425908
 30
0.0
 10
13.0244226872
 20
4.9620481207
 30
0.0
 10
13.0244249468
 20
4.9620503719
 30
0.0
 10
13.0244252818
 20
4.96205255
 30
0.0
 10
13.0244256757
 20
4.9620525501
 30
0.0
  0
SPLINE
  5
4EE
100
AcDbEntity
  8
ALL_ASSEMBLY_MEMBERS
100
AcDbSpline
 62
7
  6
CONTINUOUS
 70
0
 71
3
 72
36
 73
32
 74
0
 42
0.0000001
 43
0.0000001
 44
0.0000000001
 40
0.0
 40
0.0
 40
0.0
 40
0.0
 40
0.0247609371
 40
0.0498815102
 40
0.0755407321
 40
0.1019151768
 40
0.1291611781
 40
0.1573957025
 40
0.1866801422
 40
0.2170424603
 40
0.2484704913
 40
0.2809214005
 40
0.3143220827
 40
0.3485701352
 40
0.3835453804
 40
0.4191026207
 40
0.4550877703
 40
0.4913337893
 40
0.5276691312
 40
0.5639208644
 40
0.635444032
 40
0.7046715062
 40
0.7705894173
 40
0.8021454265
 40
0.8327086036
 40
0.8623050505
 40
0.8910033601
 40
0.9189300948
 40
0.9462674824
 40
0.9732251633
 40
1.0
 40
1.0
 40
1.0
 40
1.0
 10
12.7002925109
 20
4.2996830936
 30
0.0
 10
12.7020018278
 20
4.2995859677
 30
0.0
 10
12.7054361084
 20
4.2991531295
 30
0.0
 10
12.7104989773
 20
4.2978113802
 30
0.0
 10
12.7154478949
 20
4.2957802267
 30
0.0
 10
12.7202327238
 20
4.2930782329
 30
0.0
 10
12.7248112238
 20
4.2897301647
 30
0.0
 10
12.7291402871
 20
4.2857627632
 30
0.0
 10
12.7331828466
 20
4.2812127009
 30
0.0
 10
12.7368972708
 20
4.276116219
 30
0.0
 10
12.7402504977
 20
4.2705193407
 30
0.0
 10
12.7432085272
 20
4.2644698208
 30
0.0
 10
12.7457417909
 20
4.258021164
 30
0.0
 10
12.7478249836
 20
4.2512309734
 30
0.0
 10
12.7494328816
 20
4.2441601481
 30
0.0
 10
12.7505502149
 20
4.2368740914
 30
0.0
 10
12.7511588744
 20
4.2294399425
 30
0.0
 10
12.7512524742
 20
4.221927892
 30
0.0
 10
12.7508235039
 20
4.2144084854
 30
0.0
 10
12.7495627314
 20
4.2045178013
 30
0.0
 10
12.7467300419
 20
4.1925627308
 30
0.0
 10
12.7413687439
 20
4.1792570592
 30
0.0
 10
12.7353175382
 20
4.1693671579
 30
0.0
 10
12.7296556127
 20
4.16254484
 30
0.0
 10
12.7251217998
 20
4.158093629
 30
0.0
 10
12.7202845968
 20
4.1542844067
 30
0.0
 10
12.7151892934
 20
4.1511610864
 30
0.0
 10
12.7098844493
 20
4.1487633946
 30
0.0
 10
12.7044229444
 20
4.147121589
 30
0.0
 10
12.6988658656
 20
4.1462631852
 30
0.0
 10
12.69513606
 20
4.1462178087
 30
0.0
 10
12.6932880108
 20
4.1463278658
 30
0.0
  0
SPLINE
  5
4EF
100
AcDbEntity
  8
ALL_ASSEMBLY_MEMBERS
100
AcDbSpline
 62
7
  6
CONTINUOUS
 70
0
 71
3
 72
12
 73
8
 74
0
 42
0.0000001
 43
0.0000001
 44
0.0000000001
 40
0.0
 40
0.0
 40
0.0
 40
0.0
 40
0.2408380416
 40
0.362967697
 40
0.4865337857
 40
0.738914261
 40
1.0
 40
1.0
 40
1.0
 40
1.0
 10
12.6779547433
 20
4.1531723966
 30
0.0
 10
12.6800302951
 20
4.1533970716
 30
0.0
 10
12.6831376097
 20
4.153994806
 30
0.0
 10
12.6871578566
 20
4.1552791661
 30
0.0
 10
12.6911593761
 20
4.1569115376
 30
0.0
 10
12.6960197864
 20
4.1595762545
 30
0.0
 10
12.6995928935
 20
4.1622565056
 30
0.0
 10
12.7013125064
 20
4.1637278884
 30
0.0
  0
SPLINE
  5
4F0
100
AcDbEntity
  8
ALL_ASSEMBLY_MEMBERS
100
AcDbSpline
 62
7
  6
CONTINUOUS
 70
0
 71
3
 72
30
 73
26
 74
0
 42
0.0000001
 43
0.0000001
 44
0.0000000001
 40
0.0
 40
0.0
 40
0.0
 40
0.0
 40
0.0611105072
 40
0.0927087823
 40
0.1249680481
 40
0.1578537336
 40
0.1913210012
 40
0.2253098325
 40
0.2597477565
 40
0.3296195443
 40
0.4002428012
 40
0.4356015449
 40
0.4708462131
 40
0.5405516466
 40
0.6085858432
 40
0.6742148308
 40
0.736836386
 40
0.7668964324
 40
0.7960667052
 40
0.8516462189
 40
0.9037489192
 40
0.928664472
 40
0.9529287318
 40
0.9766604583
 40
1.0
 40
1.0
 40
1.0
 40
1.0
 10
12.7013125064
 20
4.1637278884
 30
0.0
 10
12.7034997477
 20
4.1655993963
 30
0.0
 10
12.7065918169
 20
4.1687148549
 30
0.0
 10
12.7102638087
 20
4.1733194755
 30
0.0
 10
12.7128536527
 20
4.1770739434
 30
0.0
 10
12.7152336561
 20
4.1810667756
 30
0.0
 10
12.7173904372
 20
4.1852761614
 30
0.0
 10
12.7193140691
 20
4.1896768479
 30
0.0
 10
12.7215669133
 20
4.1957929638
 30
0.0
 10
12.7237368511
 20
4.203761883
 30
0.0
 10
12.725026853
 20
4.2119619049
 30
0.0
 10
12.7255245405
 20
4.2185986649
 30
0.0
 10
12.7256642339
 20
4.2252092161
 30
0.0
 10
12.7251765541
 20
4.2333605955
 30
0.0
 10
12.7235510435
 20
4.2428219706
 30
0.0
 10
12.7209328882
 20
4.2517119934
 30
0.0
 10
12.7179447787
 20
4.2585701664
 30
0.0
 10
12.7151128548
 20
4.2635680222
 30
0.0
 10
12.7121115521
 20
4.2680716956
 30
0.0
 10
12.7079330264
 20
4.2730186724
 30
0.0
 10
12.7031101614
 20
4.2770493832
 30
0.0
 10
12.6990276723
 20
4.2795323678
 30
0.0
 10
12.6959188897
 20
4.2810078882
 30
0.0
 10
12.6927387952
 20
4.2821135884
 30
0.0
 10
12.6905698206
 20
4.2826011285
 30
0.0
 10
12.6894849697
 20
4.2827795201
 30
0.0
  0
SPLINE
  5
4F1
100
AcDbEntity
  8
ALL_ASSEMBLY_MEMBERS
100
AcDbSpline
 62
7
  6
CONTINUOUS
 70
0
 71
3
 72
14
 73
10
 74
0
 42
0.0000001
 43
0.0000001
 44
0.0000000001
 40
0.0
 40
0.0
 40
0.0
 40
0.0
 40
0.1129313228
 40
0.2287927042
 40
0.3479264544
 40
0.4706464559
 40
0.5971865943
 40
0.7276587141
 40
1.0
 40
1.0
 40
1.0
 40
1.0
 10
12.6771559648
 20
4.2811073749
 30
0.0
 10
12.6758461563
 20
4.28063178
 30
0.0
 10
12.673247398
 20
4.2795104471
 30
0.0
 10
12.66951102
 20
4.2773800821
 30
0.0
 10
12.6659222961
 20
4.2747967465
 30
0.0
 10
12.6625097775
 20
4.2717833061
 30
0.0
 10
12.659297826
 20
4.2683625593
 30
0.0
 10
12.6552578593
 20
4.2632222784
 30
0.0
 10
12.6526869906
 20
4.2589365625
 30
0.0
 10
12.6511695878
 20
4.2559381881
 30
0.0
  0
SPLINE
  5
4F2
100
AcDbEntity
  8
ALL_ASSEMBLY_MEMBERS
100
AcDbSpline
 62
7
  6
CONTINUOUS
 70
0
 71
3
 72
11
 73
7
 74
0
 42
0.0000001
 43
0.0000001
 44
0.0000000001
 40
0.0
 40
0.0
 40
0.0
 40
0.0
 40
0.2439506126
 40
0.4910308411
 40
0.7425837889
 40
1.0
 40
1.0
 40
1.0
 40
1.0
 10
12.6932880108
 20
4.1463278658
 30
0.0
 10
12.6916207256
 20
4.1464271577
 30
0.0
 10
12.6882740269
 20
4.1468446357
 30
0.0
 10
12.6833357749
 20
4.1481062874
 30
0.0
 10
12.6785048874
 20
4.1499999898
 30
0.0
 10
12.6754262367
 20
4.151651869
 30
0.0
 10
12.6739218463
 20
4.1525700085
 30
0.0
  0
SPLINE
  5
4F3
100
AcDbEntity
  8
ALL_ASSEMBLY_MEMBERS
100
AcDbSpline
 62
7
  6
CONTINUOUS
 70
0
 71
3
 72
13
 73
9
 74
0
 42
0.0000001
 43
0.0000001
 44
0.0000000001
 40
0.0
 40
0.0
 40
0.0
 40
0.0
 40
0.1152676306
 40
0.2332347451
 40
0.4775203876
 40
0.604082024
 40
0.7334610744
 40
1.0
 40
1.0
 40
1.0
 40
1.0
 10
12.6730625027
 20
4.1531070561
 30
0.0
 10
12.6718839037
 20
4.1538610269
 30
0.0
 10
12.6695643356
 20
4.1554913542
 30
0.0
 10
12.6651097008
 20
4.1592073032
 30
0.0
 10
12.6610181274
 20
4.1635412536
 30
0.0
 10
12.6573425025
 20
4.1683785371
 30
0.0
 10
12.6538578755
 20
4.1736820971
 30
0.0
 10
12.651624257
 20
4.1779564628
 30
0.0
 10
12.6503004921
 20
4.1809085252
 30
0.0
  0
SPLINE
  5
4F4
100
AcDbEntity
  8
ALL_ASSEMBLY_MEMBERS
100
AcDbSpline
 62
7
  6
CONTINUOUS
 70
0
 71
3
 72
11
 73
7
 74
0
 42
0.0000001
 43
0.0000001
 44
0.0000000001
 40
0.0
 40
0.0
 40
0.0
 40
0.0
 40
0.244054941
 40
0.4930732052
 40
0.7455998455
 40
1.0
 40
1.0
 40
1.0
 40
1.0
 10
12.6503004921
 20
4.1809085252
 30
0.0
 10
12.6492571154
 20
4.1832353078
 30
0.0
 10
12.647369718
 20
4.188038153
 30
0.0
 10
12.6451773657
 20
4.1955236767
 30
0.0
 10
12.6436158824
 20
4.2032757304
 30
0.0
 10
12.6430116583
 20
4.2085452085
 30
0.0
 10
12.6428197383
 20
4.2111963732
 30
0.0
  0
SPLINE
  5
4F5
100
AcDbEntity
  8
ALL_ASSEMBLY_MEMBERS
100
AcDbSpline
 62
7
  6
CONTINUOUS
 70
0
 71
3
 72
11
 73
7
 74
0
 42
0.0000001
 43
0.0000001
 44
0.0000000001
 40
0.0
 40
0.0
 40
0.0
 40
0.0
 40
0.2576979141
 40
0.5114193183
 40
0.7595194441
 40
1.0
 40
1.0
 40
1.0
 40
1.0
 10
12.6426535671
 20
4.2219945677
 30
0.0
 10
12.6427608551
 20
4.2245510776
 30
0.0
 10
12.6431826496
 20
4.2296184832
 30
0.0
 10
12.6444411778
 20
4.2370634831
 30
0.0
 10
12.6463080301
 20
4.2442034379
 30
0.0
 10
12.6479642492
 20
4.2487725924
 30
0.0
 10
12.6488907297
 20
4.2509733289
 30
0.0
  0
SPLINE
  5
4F6
100
AcDbEntity
  8
ALL_ASSEMBLY_MEMBERS
100
AcDbSpline
 62
7
  6
CONTINUOUS
 70
0
 71
3
 72
9
 73
5
 74
0
 42
0.0000001
 43
0.0000001
 44
0.0000000001
 40
0.0
 40
0.0
 40
0.0
 40
0.0
 40
0.515886405
 40
1.0
 40
1.0
 40
1.0
 40
1.0
 10
12.6475884901
 20
4.2514175885
 30
0.0
 10
12.6492674706
 20
4.2567473171
 30
0.0
 10
12.6533735298
 20
4.2668358646
 30
0.0
 10
12.6592985157
 20
4.2760052623
 30
0.0
 10
12.6626173577
 20
4.2800651262
 30
0.0
  0
SPLINE
  5
4F7
100
AcDbEntity
  8
ALL_ASSEMBLY_MEMBERS
100
AcDbSpline
 62
7
  6
CONTINUOUS
 70
0
 71
3
 72
13
 73
9
 74
0
 42
0.0000001
 43
0.0000001
 44
0.0000000001
 40
0.0
 40
0.0
 40
0.0
 40
0.0
 40
0.2679977141
 40
0.5223599012
 40
0.6451623083
 40
0.765446249
 40
0.8835893366
 40
1.0
 40
1.0
 40
1.0
 40
1.0
 10
12.6626173577
 20
4.2800651262
 30
0.0
 10
12.6647375657
 20
4.2826587284
 30
0.0
 10
12.6692394956
 20
4.2874284931
 30
0.0
 10
12.6756932643
 20
4.2923358791
 30
0.0
 10
12.6811187348
 20
4.2953901535
 30
0.0
 10
12.6852530985
 20
4.2972236182
 30
0.0
 10
12.6894712204
 20
4.2986171567
 30
0.0
 10
12.6923400174
 20
4.2992513591
 30
0.0
 10
12.693775382
 20
4.2994903009
 30
0.0
  0
SPLINE
  5
4F8
100
AcDbEntity
  8
ALL_ASSEMBLY_MEMBERS
100
AcDbSpline
 62
7
  6
CONTINUOUS
 70
0
 71
3
 72
11
 73
7
 74
0
 42
0.0000001
 43
0.0000001
 44
0.0000000001
 40
0.0
 40
0.0
 40
0.0
 40
0.0
 40
0.2383666397
 40
0.4829077336
 40
0.7361542464
 40
1.0
 40
1.0
 40
1.0
 40
1.0
 10
12.2379408401
 20
4.2992386006
 30
0.0
 10
12.2405329346
 20
4.2988406773
 30
0.0
 10
12.2457235782
 20
4.2975690149
 30
0.0
 10
12.2531822692
 20
4.2943233518
 30
0.0
 10
12.2602650523
 20
4.289785731
 30
0.0
 10
12.2645664476
 20
4.2860286621
 30
0.0
 10
12.2666214851
 20
4.2839785575
 30
0.0
  0
SPLINE
  5
4F9
100
AcDbEntity
  8
ALL_ASSEMBLY_MEMBERS
100
AcDbSpline
 62
7
  6
CONTINUOUS
 70
0
 71
3
 72
9
 73
5
 74
0
 42
0.0000001
 43
0.0000001
 44
0.0000000001
 40
0.0
 40
0.0
 40
0.0
 40
0.0
 40
0.2435854928
 40
1.0
 40
1.0
 40
1.0
 40
1.0
 10
12.2700598539
 20
4.2802791305
 30
0.0
 10
12.2709547872
 20
4.2792418897
 30
0.0
 10
12.2745030882
 20
4.2748760163
 30
0.0
 10
12.2775512784
 20
4.270110166
 30
0.0
 10
12.2795721892
 20
4.2663666587
 30
0.0
  0
SPLINE
  5
4FA
100
AcDbEntity
  8
ALL_ASSEMBLY_MEMBERS
100
AcDbSpline
 62
7
  6
CONTINUOUS
 70
0
 71
3
 72
9
 73
5
 74
0
 42
0.0000001
 43
0.0000001
 44
0.0000000001
 40
0.0
 40
0.0
 40
0.0
 40
0.0
 40
0.2542556498
 40
1.0
 40
1.0
 40
1.0
 40
1.0
 10
12.2645749819
 20
4.1539245673
 30
0.0
 10
12.2641237152
 20
4.1535895156
 30
0.0
 10
12.262324721
 20
4.1523047025
 30
0.0
 10
12.2604276112
 20
4.151156203
 30
0.0
 10
12.2589671056
 20
4.1503916424
 30
0.0
  0
SPLINE
  5
4FB
100
AcDbEntity
  8
ALL_ASSEMBLY_MEMBERS
100
AcDbSpline
 62
7
  6
CONTINUOUS
 70
0
 71
3
 72
11
 73
7
 74
0
 42
0.0000001
 43
0.0000001
 44
0.0000000001
 40
0.0
 40
0.0
 40
0.0
 40
0.0
 40
0.256900883
 40
0.5078029634
 40
0.7548111145
 40
1.0
 40
1.0
 40
1.0
 40
1.0
 10
12.2589671056
 20
4.1503916424
 30
0.0
 10
12.2575196323
 20
4.1496339042
 30
0.0
 10
12.2545623669
 20
4.1483103651
 30
0.0
 10
12.2499453896
 20
4.1469440569
 30
0.0
 10
12.2452569098
 20
4.1462413557
 30
0.0
 10
12.2421142068
 20
4.1462193667
 30
0.0
 10
12.2405581642
 20
4.1463205452
 30
0.0
  0
SPLINE
  5
4FC
100
AcDbEntity
  8
ALL_ASSEMBLY_MEMBERS
100
AcDbSpline
 62
7
  6
CONTINUOUS
 70
0
 71
3
 72
22
 73
18
 74
0
 42
0.0000001
 43
0.0000001
 44
0.0000000001
 40
0.0
 40
0.0
 40
0.0
 40
0.0
 40
0.0482383222
 40
0.0976520696
 40
0.1488815469
 40
0.2024978614
 40
0.2588706184
 40
0.3181367001
 40
0.3802547386
 40
0.4450259426
 40
0.5120972568
 40
0.5810119843
 40
0.7219596839
 40
0.7929103898
 40
0.8633011724
 40
0.9325590977
 40
1.0
 40
1.0
 40
1.0
 40
1.0
 10
12.2405581642
 20
4.1463205452
 30
0.0
 10
12.2385232567
 20
4.146452861
 30
0.0
 10
12.2344198741
 20
4.1471107988
 30
0.0
 10
12.2284578329
 20
4.1492232597
 30
0.0
 10
12.2227507873
 20
4.1524411101
 30
0.0
 10
12.2173999446
 20
4.1567041825
 30
0.0
 10
12.2124933963
 20
4.1619434891
 30
0.0
 10
12.208115876
 20
4.1680758387
 30
0.0
 10
12.2043437161
 20
4.1750026556
 30
0.0
 10
12.2012484566
 20
4.1826124666
 30
0.0
 10
12.198886124
 20
4.1907800023
 30
0.0
 10
12.1967705785
 20
4.2023089682
 30
0.0
 10
12.1963341959
 20
4.2142586805
 30
0.0
 10
12.1975876906
 20
4.226139364
 30
0.0
 10
12.1993782769
 20
4.2348763618
 30
0.0
 10
12.2019980189
 20
4.243244663
 30
0.0
 10
12.2043035414
 20
4.2485588746
 30
0.0
 10
12.2055889297
 20
4.2511036305
 30
0.0
  0
SPLINE
  5
4FD
100
AcDbEntity
  8
ALL_ASSEMBLY_MEMBERS
100
AcDbSpline
 62
7
  6
CONTINUOUS
 70
0
 71
3
 72
11
 73
7
 74
0
 42
0.0000001
 43
0.0000001
 44
0.0000000001
 40
0.0
 40
0.0
 40
0.0
 40
0.0
 40
0.245420261
 40
0.4931405151
 40
0.7443454978
 40
1.0
 40
1.0
 40
1.0
 40
1.0
 10
12.2496665823
 20
4.2829867555
 30
0.0
 10
12.2510016242
 20
4.282861247
 30
0.0
 10
12.2536728656
 20
4.2824663293
 30
0.0
 10
12.2576190553
 20
4.2814541926
 30
0.0
 10
12.2614937349
 20
4.2800257547
 30
0.0
 10
12.2639902402
 20
4.2788155317
 30
0.0
 10
12.2652173827
 20
4.278148223
 30
0.0
  0
SPLINE
  5
4FE
100
AcDbEntity
  8
ALL_ASSEMBLY_MEMBERS
100
AcDbSpline
 62
7
  6
CONTINUOUS
 70
0
 71
3
 72
10
 73
6
 74
0
 42
0.0000001
 43
0.0000001
 44
0.0000000001
 40
0.0
 40
0.0
 40
0.0
 40
0.0
 40
0.2411796807
 40
0.4880821636
 40
1.0
 40
1.0
 40
1.0
 40
1.0
 10
12.2652173827
 20
4.278148223
 30
0.0
 10
12.2665345283
 20
4.2774319714
 30
0.0
 10
12.2691292195
 20
4.2758475435
 30
0.0
 10
12.2741079678
 20
4.2721145886
 30
0.0
 10
12.2774854266
 20
4.2687774333
 30
0.0
 10
12.2795653503
 20
4.2663688605
 30
0.0
  0
SPLINE
  5
4FF
100
AcDbEntity
  8
ALL_ASSEMBLY_MEMBERS
100
AcDbSpline
 62
7
  6
CONTINUOUS
 70
0
 71
3
 72
9
 73
5
 74
0
 42
0.0000001
 43
0.0000001
 44
0.0000000001
 40
0.0
 40
0.0
 40
0.0
 40
0.0
 40
0.4956869553
 40
1.0
 40
1.0
 40
1.0
 40
1.0
 10
12.2381245099
 20
4.2815961434
 30
0.0
 10
12.2367922326
 20
4.2812072519
 30
0.0
 10
12.2341437297
 20
4.2802820083
 30
0.0
 10
12.2316024194
 20
4.2790947671
 30
0.0
 10
12.2303529876
 20
4.2784369346
 30
0.0
  0
SPLINE
  5
500
100
AcDbEntity
  8
ALL_ASSEMBLY_MEMBERS
100
AcDbSpline
 62
7
  6
CONTINUOUS
 70
0
 71
3
 72
14
 73
10
 74
0
 42
0.0000001
 43
0.0000001
 44
0.0000000001
 40
0.0
 40
0.0
 40
0.0
 40
0.0
 40
0.2328993246
 40
0.3535563109
 40
0.4771437375
 40
0.6037241424
 40
0.7332600701
 40
0.8654780964
 40
1.0
 40
1.0
 40
1.0
 40
1.0
 10
12.2303529876
 20
4.2784369346
 30
0.0
 10
12.2277775233
 20
4.2770809389
 30
0.0
 10
12.224060721
 20
4.2746316649
 30
0.0
 10
12.219548026
 20
4.2707275123
 30
0.0
 10
12.2163030151
 20
4.2674108836
 30
0.0
 10
12.2132602063
 20
4.2637636356
 30
0.0
 10
12.2104392934
 20
4.2598090232
 30
0.0
 10
12.2078562077
 20
4.2555791691
 30
0.0
 10
12.2063156816
 20
4.2526195979
 30
0.0
 10
12.2055889297
 20
4.2511036305
 30
0.0
  0
SPLINE
  5
501
100
AcDbEntity
  8
ALL_ASSEMBLY_MEMBERS
100
AcDbSpline
 62
7
  6
CONTINUOUS
 70
0
 71
3
 72
39
 73
35
 74
0
 42
0.0000001
 43
0.0000001
 44
0.0000000001
 40
0.0
 40
0.0
 40
0.0
 40
0.0
 40
0.0259055329
 40
0.0515709678
 40
0.0773693361
 40
0.1037096837
 40
0.1309101066
 40
0.1592000813
 40
0.1886933093
 40
0.219433024
 40
0.2514018774
 40
0.2845271081
 40
0.3187068863
 40
0.3538048744
 40
0.389663872
 40
0.4261094801
 40
0.4629532051
 40
0.4999980781
 40
0.5370429389
 40
0.5738866119
 40
0.6103320887
 40
0.6461909332
 40
0.6812888464
 40
0.7154685589
 40
0.7485938441
 40
0.7805628307
 40
0.8113024882
 40
0.8407959675
 40
0.869085674
 40
0.896286251
 40
0.9226272305
 40
0.9484267656
 40
0.9740939323
 40
1.0
 40
1.0
 40
1.0
 40
1.0
 10
12.709816855
 20
4.3131525501
 30
0.0
 10
12.7118773148
 20
4.3131525501
 30
0.0
 10
12.7159882099
 20
4.3128055317
 30
0.0
 10
12.7219681467
 20
4.3112310772
 30
0.0
 10
12.7276173127
 20
4.3086328237
 30
0.0
 10
12.7328731956
 20
4.3050954584
 30
0.0
 10
12.7376963973
 20
4.3006943542
 30
0.0
 10
12.742072745
 20
4.2955217518
 30
0.0
 10
12.7459975187
 20
4.2896608495
 30
0.0
 10
12.7494724701
 20
4.2831916815
 30
0.0
 10
12.752507538
 20
4.2761911823
 30
0.0
 10
12.7551119048
 20
4.2687304994
 30
0.0
 10
12.7572953531
 20
4.260878533
 30
0.0
 10
12.7590682667
 20
4.2527020273
 30
0.0
 10
12.7604377054
 20
4.2442663116
 30
0.0
 10
12.7614110915
 20
4.2356364501
 30
0.0
 10
12.7619934307
 20
4.2268771117
 30
0.0
 10
12.7621867024
 20
4.2180530195
 30
0.0
 10
12.7619934785
 20
4.2092289298
 30
0.0
 10
12.7614111607
 20
4.2004696061
 30
0.0
 10
12.760437854
 20
4.1918397625
 30
0.0
 10
12.759068444
 20
4.1834040708
 30
0.0
 10
12.7572956
 20
4.1752275748
 30
0.0
 10
12.7551122226
 20
4.1673755954
 30
0.0
 10
12.752507904
 20
4.1599148855
 30
0.0
 10
12.7494729211
 20
4.1529143403
 30
0.0
 10
12.7459980381
 20
4.146445101
 30
0.0
 10
12.7420732944
 20
4.1405841968
 30
0.0
 10
12.7376971704
 20
4.1354113822
 30
0.0
 10
12.732873886
 20
4.1310103088
 30
0.0
 10
12.7276180496
 20
4.1274726121
 30
0.0
 10
12.7219686322
 20
4.1248741791
 30
0.0
 10
12.7159884175
 20
4.1232997491
 30
0.0
 10
12.7118773573
 20
4.1229525501
 30
0.0
 10
12.709816855
 20
4.1229525501
 30
0.0
  0
SPLINE
  5
502
100
AcDbEntity
  8
ALL_ASSEMBLY_MEMBERS
100
AcDbSpline
 62
7
  6
CONTINUOUS
 70
0
 71
3
 72
22
 73
18
 74
0
 42
0.0000001
 43
0.0000001
 44
0.0000000001
 40
0.0
 40
0.0
 40
0.0
 40
0.0
 40
0.0501855587
 40
0.1021222961
 40
0.1560424788
 40
0.2120816246
 40
0.2702332902
 40
0.3303976605
 40
0.3923919146
 40
0.4559932214
 40
0.5871299539
 40
0.654361268
 40
0.7224319429
 40
0.7911717851
 40
0.8604378271
 40
0.9300899674
 40
1.0
 40
1.0
 40
1.0
 40
1.0
 10
12.709816855
 20
4.1229525501
 30
0.0
 10
12.7078476132
 20
4.1229525501
 30
0.0
 10
12.7038349618
 20
4.1232756485
 30
0.0
 10
12.6978498756
 20
4.1246556511
 30
0.0
 10
12.6918933662
 20
4.1269152645
 30
0.0
 10
12.6860434833
 20
4.1299952883
 30
0.0
 10
12.6803680845
 20
4.1338386332
 30
0.0
 10
12.6749293522
 20
4.1383807653
 30
0.0
 10
12.669780055
 20
4.1435538078
 30
0.0
 10
12.6633053399
 20
4.1512839027
 30
0.0
 10
12.6576822693
 20
4.1599473804
 30
0.0
 10
12.6529826106
 20
4.1692932132
 30
0.0
 10
12.6499067391
 20
4.1766933412
 30
0.0
 10
12.6473385381
 20
4.1843677772
 30
0.0
 10
12.6452957742
 20
4.1922628251
 30
0.0
 10
12.643798348
 20
4.2003254747
 30
0.0
 10
12.6431728316
 20
4.2057711219
 30
0.0
 10
12.6429535413
 20
4.2085055575
 30
0.0
  0
SPLINE
  5
503
100
AcDbEntity
  8
ALL_ASSEMBLY_MEMBERS
100
AcDbSpline
 62
7
  6
CONTINUOUS
 70
0
 71
3
 72
9
 73
5
 74
0
 42
0.0000001
 43
0.0000001
 44
0.0000000001
 40
0.0
 40
0.0
 40
0.0
 40
0.0
 40
0.5072108574
 40
1.0
 40
1.0
 40
1.0
 40
1.0
 10
12.6479948179
 20
4.2535631858
 30
0.0
 10
12.6497082158
 20
4.259011209
 30
0.0
 10
12.6538878003
 20
4.2695178352
 30
0.0
 10
12.6596399835
 20
4.2792619339
 30
0.0
 10
12.6628561984
 20
4.2837834619
 30
0.0
  0
SPLINE
  5
504
100
AcDbEntity
  8
ALL_ASSEMBLY_MEMBERS
100
AcDbSpline
 62
7
  6
CONTINUOUS
 70
0
 71
3
 72
14
 73
10
 74
0
 42
0.0000001
 43
0.0000001
 44
0.0000000001
 40
0.0
 40
0.0
 40
0.0
 40
0.0
 40
0.2757934499
 40
0.4080295969
 40
0.5357617218
 40
0.658719875
 40
0.7768469101
 40
0.8904293251
 40
1.0
 40
1.0
 40
1.0
 40
1.0
 10
12.663546713
 20
4.2847418092
 30
0.0
 10
12.6665939342
 20
4.2889169079
 30
0.0
 10
12.6716155617
 20
4.2947542893
 30
0.0
 10
12.6791878566
 20
4.3013675822
 30
0.0
 10
12.6850601798
 20
4.3055186037
 30
0.0
 10
12.6911343372
 20
4.3088511303
 30
0.0
 10
12.6973347864
 20
4.3113017643
 30
0.0
 10
12.7035749283
 20
4.3128007651
 30
0.0
 10
12.7077633097
 20
4.3131525501
 30
0.0
 10
12.709816855
 20
4.3131525501
 30
0.0
  0
SPLINE
  5
505
100
AcDbEntity
  8
ALL_ASSEMBLY_MEMBERS
100
AcDbSpline
 62
7
  6
CONTINUOUS
 70
0
 71
3
 72
15
 73
11
 74
0
 42
0.0000001
 43
0.0000001
 44
0.0000000001
 40
0.0
 40
0.0
 40
0.0
 40
0.0
 40
0.1047699188
 40
0.2135116817
 40
0.3275495336
 40
0.4479307071
 40
0.5752829548
 40
0.709831506
 40
0.8515002979
 40
1.0
 40
1.0
 40
1.0
 40
1.0
 10
12.6771559648
 20
4.2811073749
 30
0.0
 10
12.6757556105
 20
4.2809323429
 30
0.0
 10
12.6729308392
 20
4.2802964217
 30
0.0
 10
12.6688466983
 20
4.2785752531
 30
0.0
 10
12.6649159769
 20
4.2761085302
 30
0.0
 10
12.6611895091
 20
4.272945694
 30
0.0
 10
12.6577109839
 20
4.2691322194
 30
0.0
 10
12.654516842
 20
4.2647206828
 30
0.0
 10
12.6516451659
 20
4.259762832
 30
0.0
 10
12.6500009092
 20
4.2562105198
 30
0.0
 10
12.6492359464
 20
4.2543622788
 30
0.0
  0
SPLINE
  5
506
100
AcDbEntity
  8
ALL_ASSEMBLY_MEMBERS
100
AcDbSpline
 62
7
  6
CONTINUOUS
 70
0
 71
3
 72
34
 73
30
 74
0
 42
0.0000001
 43
0.0000001
 44
0.0000000001
 40
0.0
 40
0.0
 40
0.0
 40
0.0
 40
0.0234111572
 40
0.0470278599
 40
0.0710595538
 40
0.0956928539
 40
0.1210760399
 40
0.1473282527
 40
0.1745362307
 40
0.2027488131
 40
0.2621986937
 40
0.3255731582
 40
0.3586014211
 40
0.3923908659
 40
0.4268398408
 40
0.4618321892
 40
0.4972442581
 40
0.5329498672
 40
0.6046826147
 40
0.6404824365
 40
0.6760597188
 40
0.74604338
 40
0.813848807
 40
0.8467607343
 40
0.8789301763
 40
0.91032882
 40
0.9409557315
 40
0.9708308223
 40
1.0
 40
1.0
 40
1.0
 40
1.0
 10
12.6877197796
 20
4.2831526277
 30
0.0
 10
12.6889347026
 20
4.2831528188
 30
0.0
 10
12.6913781926
 20
4.2829914613
 30
0.0
 10
12.6950045368
 20
4.2822704527
 30
0.0
 10
12.6985706754
 20
4.2810757016
 30
0.0
 10
12.7020466267
 20
4.2794163827
 30
0.0
 10
12.7054064079
 20
4.2773086176
 30
0.0
 10
12.7086221006
 20
4.274766571
 30
0.0
 10
12.7116681712
 20
4.2718095337
 30
0.0
 10
12.7155404439
 20
4.2672673633
 30
0.0
 10
12.7197995346
 20
4.2606403503
 30
0.0
 10
12.723084844
 20
4.2532174188
 30
0.0
 10
12.7251691388
 20
4.2467863387
 30
0.0
 10
12.7264530549
 20
4.2416861873
 30
0.0
 10
12.7274216283
 20
4.2364136615
 30
0.0
 10
12.7280680977
 20
4.2310073776
 30
0.0
 10
12.7283852373
 20
4.2255062588
 30
0.0
 10
12.7283604089
 20
4.2180897191
 30
0.0
 10
12.727664864
 20
4.2106671859
 30
0.0
 10
12.7262985601
 20
4.2033634381
 30
0.0
 10
12.7245074078
 20
4.1962452933
 30
0.0
 10
12.7214915408
 20
4.1877412342
 30
0.0
 10
12.7174280289
 20
4.1798340205
 30
0.0
 10
12.7136128439
 20
4.1740824794
 30
0.0
 10
12.7105304518
 20
4.1701301515
 30
0.0
 10
12.7072169687
 20
4.1665286474
 30
0.0
 10
12.7036956335
 20
4.1633030547
 30
0.0
 10
12.6999908487
 20
4.1604767363
 30
0.0
 10
12.6973837684
 20
4.158855792
 30
0.0
 10
12.6960596188
 20
4.158122291
 30
0.0
  0
SPLINE
  5
507
100
AcDbEntity
  8
ALL_ASSEMBLY_MEMBERS
100
AcDbSpline
 62
7
  6
CONTINUOUS
 70
0
 71
3
 72
11
 73
7
 74
0
 42
0.0000001
 43
0.0000001
 44
0.0000000001
 40
0.0
 40
0.0
 40
0.0
 40
0.0
 40
0.2563385046
 40
0.5074855596
 40
0.7549117809
 40
1.0
 40
1.0
 40
1.0
 40
1.0
 10
12.6960596188
 20
4.158122291
 30
0.0
 10
12.6945445624
 20
4.1572830388
 30
0.0
 10
12.6914458225
 20
4.1557926856
 30
0.0
 10
12.6865995556
 20
4.1541603128
 30
0.0
 10
12.681658847
 20
4.1531747015
 30
0.0
 10
12.6783271933
 20
4.1529525501
 30
0.0
 10
12.6766712311
 20
4.1529525501
 30
0.0
  0
SPLINE
  5
508
100
AcDbEntity
  8
ALL_ASSEMBLY_MEMBERS
100
AcDbSpline
 62
7
  6
CONTINUOUS
 70
0
 71
3
 72
31
 73
27
 74
0
 42
0.0000001
 43
0.0000001
 44
0.0000000001
 40
0.0
 40
0.0
 40
0.0
 40
0.0
 40
0.0236998147
 40
0.0478007285
 40
0.0724028718
 40
0.0975945243
 40
0.1234465879
 40
0.1500109757
 40
0.1773262968
 40
0.2054163996
 40
0.2638953766
 40
0.3253845388
 40
0.3895949892
 40
0.4226053897
 40
0.4561262402
 40
0.524397667
 40
0.5938295382
 40
0.6637782597
 40
0.733592798
 40
0.7682623837
 40
0.8026672436
 40
0.8367364929
 40
0.8704049973
 40
0.9036160238
 40
0.9363180434
 40
1.0
 40
1.0
 40
1.0
 40
1.0
 10
12.7030320307
 20
4.2990679447
 30
0.0
 10
12.7042660613
 20
4.2987771849
 30
0.0
 10
12.7067268785
 20
4.2980640318
 30
0.0
 10
12.7103296749
 20
4.296627126
 30
0.0
 10
12.7138532791
 20
4.2948228884
 30
0.0
 10
12.7172787
 20
4.2926585539
 30
0.0
 10
12.7205893111
 20
4.290145361
 30
0.0
 10
12.7237695552
 20
4.287296482
 30
0.0
 10
12.7268031601
 20
4.2841242975
 30
0.0
 10
12.730682415
 20
4.2794208902
 30
0.0
 10
12.7350683606
 20
4.272794965
 30
0.0
 10
12.7394450307
 20
4.2639430366
 30
0.0
 10
12.7423209037
 20
4.2559347705
 30
0.0
 10
12.7441534401
 20
4.2491824103
 30
0.0
 10
12.7456795222
 20
4.2421315133
 30
0.0
 10
12.7469277432
 20
4.233040637
 30
0.0
 10
12.7473591156
 20
4.2219236219
 30
0.0
 10
12.7467129237
 20
4.2107344309
 30
0.0
 10
12.7452786748
 20
4.2014976121
 30
0.0
 10
12.7435949657
 20
4.1942583803
 30
0.0
 10
12.7420764378
 20
4.1889512289
 30
0.0
 10
12.7403048751
 20
4.1837796471
 30
0.0
 10
12.738286068
 20
4.178768237
 30
0.0
 10
12.7360294683
 20
4.1739393699
 30
0.0
 10
12.732747003
 20
4.1678305335
 30
0.0
 10
12.7299135502
 20
4.1635029979
 30
0.0
 10
12.7278694004
 20
4.1607777758
 30
0.0
  0
SPLINE
  5
509
100
AcDbEntity
  8
ALL_ASSEMBLY_MEMBERS
100
AcDbSpline
 62
7
  6
CONTINUOUS
 70
0
 71
3
 72
10
 73
6
 74
0
 42
0.0000001
 43
0.0000001
 44
0.0000000001
 40
0.0
 40
0.0
 40
0.0
 40
0.0
 40
0.2461930219
 40
0.6220793093
 40
1.0
 40
1.0
 40
1.0
 40
1.0
 10
12.7232406423
 20
4.2434290818
 30
0.0
 10
12.7238606827
 20
4.2400771991
 30
0.0
 10
12.7250231629
 20
4.2315290301
 30
0.0
 10
12.7253130737
 20
4.2176446705
 30
0.0
 10
12.7241297214
 20
4.207237176
 30
0.0
 10
12.7231822237
 20
4.2020910464
 30
0.0
  0
SPLINE
  5
50A
100
AcDbEntity
  8
ALL_ASSEMBLY_MEMBERS
100
AcDbSpline
 62
7
  6
CONTINUOUS
 70
0
 71
3
 72
12
 73
8
 74
0
 42
0.0000001
 43
0.0000001
 44
0.0000000001
 40
0.0
 40
0.0
 40
0.0
 40
0.0
 40
0.1184334818
 40
0.2399071723
 40
0.4266231849
 40
0.6170502598
 40
1.0
 40
1.0
 40
1.0
 40
1.0
 10
12.2044409352
 20
4.1751567441
 30
0.0
 10
12.2035344844
 20
4.1775197932
 30
0.0
 10
12.2018960363
 20
4.1823848449
 30
0.0
 10
12.1996681685
 20
4.1912330656
 30
0.0
 10
12.1980426785
 20
4.2017891492
 30
0.0
 10
12.1973074893
 20
4.2180350484
 30
0.0
 10
12.1986949983
 20
4.2303331643
 30
0.0
 10
12.2004877486
 20
4.2383180742
 30
0.0
  0
SPLINE
  5
50B
100
AcDbEntity
  8
ALL_ASSEMBLY_MEMBERS
100
AcDbSpline
 62
7
  6
CONTINUOUS
 70
0
 71
3
 72
14
 73
10
 74
0
 42
0.0000001
 43
0.0000001
 44
0.0000000001
 40
0.0
 40
0.0
 40
0.0
 40
0.0
 40
0.1114603901
 40
0.2262261298
 40
0.3447184294
 40
0.4673064156
 40
0.7252095085
 40
0.8607318927
 40
1.0
 40
1.0
 40
1.0
 40
1.0
 10
12.233800013
 20
4.2811073749
 30
0.0
 10
12.2323217139
 20
4.2805706006
 30
0.0
 10
12.2293909854
 20
4.2792796097
 30
0.0
 10
12.2252072938
 20
4.2767768363
 30
0.0
 10
12.2212214801
 20
4.2737046401
 30
0.0
 10
12.2161391435
 20
4.2688159751
 30
0.0
 10
12.2117029113
 20
4.2629749744
 30
0.0
 10
12.2079789084
 20
4.2564400784
 30
0.0
 10
12.2063447818
 20
4.2529175601
 30
0.0
 10
12.2055889297
 20
4.2511036305
 30
0.0
  0
SPLINE
  5
50C
100
AcDbEntity
  8
ALL_ASSEMBLY_MEMBERS
100
AcDbSpline
 62
7
  6
CONTINUOUS
 70
0
 71
3
 72
9
 73
5
 74
0
 42
0.0000001
 43
0.0000001
 44
0.0000000001
 40
0.0
 40
0.0
 40
0.0
 40
0.0
 40
0.5026822087
 40
1.0
 40
1.0
 40
1.0
 40
1.0
 10
12.233800013
 20
4.2811073749
 30
0.0
 10
12.2357916734
 20
4.2817776802
 30
0.0
 10
12.2398653364
 20
4.2828019677
 30
0.0
 10
12.2440525643
 20
4.2831523471
 30
0.0
 10
12.2461315715
 20
4.2831526277
 30
0.0
  0
SPLINE
  5
50D
100
AcDbEntity
  8
ALL_ASSEMBLY_MEMBERS
100
AcDbSpline
 62
7
  6
CONTINUOUS
 70
0
 71
3
 72
19
 73
15
 74
0
 42
0.0000001
 43
0.0000001
 44
0.0000000001
 40
0.0
 40
0.0
 40
0.0
 40
0.0
 40
0.0555735574
 40
0.1116800221
 40
0.1685158046
 40
0.2263095731
 40
0.2852425602
 40
0.3454173057
 40
0.4694347993
 40
0.5981304314
 40
0.730446581
 40
0.8649671467
 40
0.9325691533
 40
1.0
 40
1.0
 40
1.0
 40
1.0
 10
12.233800013
 20
4.2811073749
 30
0.0
 10
12.2319507827
 20
4.2809462048
 30
0.0
 10
12.2282512498
 20
4.2803877716
 30
0.0
 10
12.2228151856
 20
4.2788802984
 30
0.0
 10
12.2175227858
 20
4.2767226407
 30
0.0
 10
12.2124184728
 20
4.2739510578
 30
0.0
 10
12.2075387367
 20
4.2706009311
 30
0.0
 10
12.2013146984
 20
4.2653680868
 30
0.0
 10
12.1942817692
 20
4.2575602329
 30
0.0
 10
12.1872897299
 20
4.246710363
 30
0.0
 10
12.1817729162
 20
4.2346611931
 30
0.0
 10
12.1784774429
 20
4.2239540018
 30
0.0
 10
12.1766271741
 20
4.2151385612
 30
0.0
 10
12.1759649341
 20
4.2106737894
 30
0.0
 10
12.1757006713
 20
4.2084370545
 30
0.0
  0
SPLINE
  5
50E
100
AcDbEntity
  8
ALL_ASSEMBLY_MEMBERS
100
AcDbSpline
 62
7
  6
CONTINUOUS
 70
0
 71
3
 72
22
 73
18
 74
0
 42
0.0000001
 43
0.0000001
 44
0.0000000001
 40
0.0
 40
0.0
 40
0.0
 40
0.0
 40
0.0707568403
 40
0.1416791419
 40
0.2822183761
 40
0.35128523
 40
0.4191438503
 40
0.4855210957
 40
0.5501850453
 40
0.6129703488
 40
0.673762361
 40
0.732520942
 40
0.7892720259
 40
0.8441451106
 40
0.8973672801
 40
0.9492204327
 40
1.0
 40
1.0
 40
1.0
 40
1.0
 10
12.1757006713
 20
4.2084370545
 30
0.0
 10
12.1754780018
 20
4.2111043134
 30
0.0
 10
12.1752200746
 20
4.2164629455
 30
0.0
 10
12.1754418572
 20
4.2271418067
 30
0.0
 10
12.1767652687
 20
4.237713519
 30
0.0
 10
12.1791874841
 20
4.2479333726
 30
0.0
 10
12.1815133492
 20
4.2552716791
 30
0.0
 10
12.1843342152
 20
4.2622550525
 30
0.0
 10
12.1876274392
 20
4.2688152654
 30
0.0
 10
12.191358045
 20
4.2748912931
 30
0.0
 10
12.1954949342
 20
4.2804229823
 30
0.0
 10
12.1999961209
 20
4.2853591034
 30
0.0
 10
12.2048213953
 20
4.2896508379
 30
0.0
 10
12.209926243
 20
4.2932560261
 30
0.0
 10
12.2152637193
 20
4.2961385362
 30
0.0
 10
12.2207793004
 20
4.2982648823
 30
0.0
 10
12.2245679826
 20
4.2991743907
 30
0.0
 10
12.2264623851
 20
4.2994920558
 30
0.0
  0
SPLINE
  5
50F
100
AcDbEntity
  8
ALL_ASSEMBLY_MEMBERS
100
AcDbSpline
 62
7
  6
CONTINUOUS
 70
0
 71
3
 72
39
 73
35
 74
0
 42
0.0000001
 43
0.0000001
 44
0.0000000001
 40
0.0
 40
0.0
 40
0.0
 40
0.0
 40
0.0259055329
 40
0.0515709678
 40
0.0773693361
 40
0.1037096837
 40
0.1309101066
 40
0.1592000813
 40
0.1886933093
 40
0.219433024
 40
0.2514018774
 40
0.2845271081
 40
0.3187068863
 40
0.3538048744
 40
0.389663872
 40
0.4261094801
 40
0.4629532051
 40
0.4999980781
 40
0.5370429389
 40
0.5738866119
 40
0.6103320887
 40
0.6461909332
 40
0.6812888464
 40
0.7154685589
 40
0.7485938441
 40
0.7805628307
 40
0.8113024882
 40
0.8407959675
 40
0.869085674
 40
0.896286251
 40
0.9226272305
 40
0.9484267656
 40
0.9740939323
 40
1.0
 40
1.0
 40
1.0
 40
1.0
 10
12.2240344963
 20
4.1229525501
 30
0.0
 10
12.2219740366
 20
4.1229525501
 30
0.0
 10
12.2178631415
 20
4.1232995685
 30
0.0
 10
12.2118832046
 20
4.124874023
 30
0.0
 10
12.2062340386
 20
4.1274722766
 30
0.0
 10
12.2009781557
 20
4.1310096418
 30
0.0
 10
12.196154954
 20
4.1354107461
 30
0.0
 10
12.1917786064
 20
4.1405833485
 30
0.0
 10
12.1878538327
 20
4.1464442508
 30
0.0
 10
12.1843788812
 20
4.1529134187
 30
0.0
 10
12.1813438133
 20
4.1599139179
 30
0.0
 10
12.1787394466
 20
4.1673746008
 30
0.0
 10
12.1765559983
 20
4.1752265672
 30
0.0
 10
12.1747830847
 20
4.1834030729
 30
0.0
 10
12.1734136459
 20
4.1918387886
 30
0.0
 10
12.1724402599
 20
4.2004686502
 30
0.0
 10
12.1718579207
 20
4.2092279886
 30
0.0
 10
12.171664649
 20
4.2180520808
 30
0.0
 10
12.1718578728
 20
4.2268761704
 30
0.0
 10
12.1724401906
 20
4.2356354942
 30
0.0
 10
12.1734134973
 20
4.2442653378
 30
0.0
 10
12.1747829073
 20
4.2527010294
 30
0.0
 10
12.1765557513
 20
4.2608775255
 30
0.0
 10
12.1787391287
 20
4.2687295048
 30
0.0
 10
12.1813434473
 20
4.2761902147
 30
0.0
 10
12.1843784302
 20
4.28319076
 30
0.0
 10
12.1878533133
 20
4.2896599992
 30
0.0
 10
12.1917780569
 20
4.2955209034
 30
0.0
 10
12.196154181
 20
4.3006937181
 30
0.0
 10
12.2009774653
 20
4.3050947914
 30
0.0
 10
12.2062333018
 20
4.3086324881
 30
0.0
 10
12.2118827192
 20
4.3112309211
 30
0.0
 10
12.2178629339
 20
4.3128053511
 30
0.0
 10
12.221973994
 20
4.3131525501
 30
0.0
 10
12.2240344963
 20
4.3131525501
 30
0.0
  0
SPLINE
  5
510
100
AcDbEntity
  8
ALL_ASSEMBLY_MEMBERS
100
AcDbSpline
 62
7
  6
CONTINUOUS
 70
0
 71
3
 72
20
 73
16
 74
0
 42
0.0000001
 43
0.0000001
 44
0.0000000001
 40
0.0
 40
0.0
 40
0.0
 40
0.0
 40
0.0681585591
 40
0.1366899359
 40
0.2733263545
 40
0.4076798761
 40
0.5379215052
 40
0.6010610822
 40
0.662675723
 40
0.7226863641
 40
0.7810752511
 40
0.8378735008
 40
0.8931775093
 40
0.947148031
 40
1.0
 40
1.0
 40
1.0
 40
1.0
 10
12.1757006713
 20
4.2084370545
 30
0.0
 10
12.1756006907
 20
4.2109178775
 30
0.0
 10
12.1755629316
 20
4.2159012947
 30
0.0
 10
12.1761235961
 20
4.2258471377
 30
0.0
 10
12.1780098088
 20
4.238109292
 30
0.0
 10
12.1821235877
 20
4.2521776992
 30
0.0
 10
12.1870536425
 20
4.2631027396
 30
0.0
 10
12.1918307849
 20
4.2710786286
 30
0.0
 10
12.1957447996
 20
4.2765637368
 30
0.0
 10
12.1999998821
 20
4.2815640813
 30
0.0
 10
12.2045616037
 20
4.2860403453
 30
0.0
 10
12.2093966175
 20
4.2899541584
 30
0.0
 10
12.2144692158
 20
4.2932707982
 30
0.0
 10
12.2197374476
 20
4.295964611
 30
0.0
 10
12.2233885388
 20
4.297339533
 30
0.0
 10
12.2252269678
 20
4.297911195
 30
0.0
  0
SPLINE
  5
511
100
AcDbEntity
  8
ALL_ASSEMBLY_MEMBERS
100
AcDbSpline
 62
7
  6
CONTINUOUS
 70
0
 71
3
 72
14
 73
10
 74
0
 42
0.0000001
 43
0.0000001
 44
0.0000000001
 40
0.0
 40
0.0
 40
0.0
 40
0.0
 40
0.1095712543
 40
0.2231502155
 40
0.3412747836
 40
0.4642319799
 40
0.5919652461
 40
0.7242040829
 40
1.0
 40
1.0
 40
1.0
 40
1.0
 10
12.2240344963
 20
4.3131525501
 30
0.0
 10
12.2260878243
 20
4.3131525501
 30
0.0
 10
12.2302756952
 20
4.3128009688
 30
0.0
 10
12.2365150732
 20
4.3113022359
 30
0.0
 10
12.2427147609
 20
4.3088520823
 30
0.0
 10
12.2487884407
 20
4.3055203728
 30
0.0
 10
12.2546602983
 20
4.301369982
 30
0.0
 10
12.26223232
 20
4.2947579035
 30
0.0
 10
12.2672537506
 20
4.2889213452
 30
0.0
 10
12.27030094
 20
4.2847468772
 30
0.0
  0
SPLINE
  5
512
100
AcDbEntity
  8
ALL_ASSEMBLY_MEMBERS
100
AcDbSpline
 62
7
  6
CONTINUOUS
 70
0
 71
3
 72
9
 73
5
 74
0
 42
0.0000001
 43
0.0000001
 44
0.0000000001
 40
0.0
 40
0.0
 40
0.0
 40
0.0
 40
0.2455643853
 40
1.0
 40
1.0
 40
1.0
 40
1.0
 10
12.2708262218
 20
4.2840202075
 30
0.0
 10
12.2719918432
 20
4.2823918618
 30
0.0
 10
12.276532832
 20
4.2756150657
 30
0.0
 10
12.2802561869
 20
4.2682975934
 30
0.0
 10
12.282590034
 20
4.2626051249
 30
0.0
  0
SPLINE
  5
513
100
AcDbEntity
  8
ALL_ASSEMBLY_MEMBERS
100
AcDbSpline
 62
7
  6
CONTINUOUS
 70
0
 71
3
 72
11
 73
7
 74
0
 42
0.0000001
 43
0.0000001
 44
0.0000000001
 40
0.0
 40
0.0
 40
0.0
 40
0.0
 40
0.2470952796
 40
0.496594669
 40
0.7477814492
 40
1.0
 40
1.0
 40
1.0
 40
1.0
 10
12.282590034
 20
4.2626051249
 30
0.0
 10
12.2838060596
 20
4.2596391261
 30
0.0
 10
12.2859951344
 20
4.2535704813
 30
0.0
 10
12.2885182024
 20
4.244192165
 30
0.0
 10
12.2902681701
 20
4.2345717269
 30
0.0
 10
12.2909046086
 20
4.2280633597
 30
0.0
 10
12.2910895009
 20
4.2247965234
 30
0.0
  0
SPLINE
  5
514
100
AcDbEntity
  8
ALL_ASSEMBLY_MEMBERS
100
AcDbSpline
 62
7
  6
CONTINUOUS
 70
0
 71
3
 72
21
 73
17
 74
0
 42
0.0000001
 43
0.0000001
 44
0.0000000001
 40
0.0
 40
0.0
 40
0.0
 40
0.0
 40
0.0699569033
 40
0.1396445277
 40
0.2089345857
 40
0.2776889986
 40
0.3457653425
 40
0.4129933554
 40
0.5441080303
 40
0.6076923517
 40
0.6696700215
 40
0.7878136512
 40
0.8438574137
 40
0.8977972232
 40
0.9497686627
 40
1.0
 40
1.0
 40
1.0
 40
1.0
 10
12.2908189995
 20
4.2075690463
 30
0.0
 10
12.2905800423
 20
4.2048567981
 30
0.0
 10
12.2899181795
 20
4.1994571373
 30
0.0
 10
12.2883745082
 20
4.19146692
 30
0.0
 10
12.2862954228
 20
4.1836470036
 30
0.0
 10
12.2836998554
 20
4.1760494653
 30
0.0
 10
12.2806057317
 20
4.1687269742
 30
0.0
 10
12.2758940968
 20
4.1594832771
 30
0.0
 10
12.2702760399
 20
4.1509199613
 30
0.0
 10
12.2638201696
 20
4.1432820124
 30
0.0
 10
12.2570961688
 20
4.1365820446
 30
0.0
 10
12.2497140423
 20
4.1309814443
 30
0.0
 10
12.241830483
 20
4.1268596468
 30
0.0
 10
12.235914708
 20
4.1246314341
 30
0.0
 10
12.2299726633
 20
4.1232710638
 30
0.0
 10
12.2259895226
 20
4.1229525501
 30
0.0
 10
12.2240344963
 20
4.1229525501
 30
0.0
  0
LINE
  5
515
100
AcDbEntity
  8
ALL_FEATURES
100
AcDbLine
 62
7
  6
CONTINUOUS
 10
4.4669256757
 20
3.5302443999
 11
4.4669256757
 21
2.7178206769
  0
LINE
  5
516
100
AcDbEntity
  8
ALL_FEATURES
100
AcDbLine
 62
7
  6
CONTINUOUS
 10
12.4669256757
 20
3.5302443999
 11
12.4669256757
 21
2.7178206769
  0
LINE
  5
517
100
AcDbEntity
  8
ALL_ASSEMBLY_MEMBERS
100
AcDbLine
 62
7
  6
CONTINUOUS
 10
9.9619256757
 20
3.035996037
 11
9.6743620223
 21
4.2472398793
  0
SPLINE
  5
518
100
AcDbEntity
  8
ALL_ASSEMBLY_MEMBERS
100
AcDbSpline
 62
7
  6
CONTINUOUS
 70
0
 71
3
 72
10
 73
6
 74
0
 42
0.0000001
 43
0.0000001
 44
0.0000000001
 40
0.0
 40
0.0
 40
0.0
 40
0.0
 40
0.5707705661
 40
0.8030778516
 40
1.0
 40
1.0
 40
1.0
 40
1.0
 10
9.4711709419
 20
5.1062414537
 30
0.0
 10
9.441416487
 20
5.2323833988
 30
0.0
 10
9.3996135638
 20
5.4098805468
 30
0.0
 10
9.3478031895
 20
5.6309586817
 30
0.0
 10
9.3256547383
 20
5.7258730114
 30
0.0
 10
9.3155257046
 20
5.7694253664
 30
0.0
  0
LINE
  5
519
100
AcDbEntity
  8
ALL_ASSEMBLY_MEMBERS
100
AcDbLine
 62
7
  6
CONTINUOUS
 10
9.58830217
 20
4.6105826271
 11
9.4711709419
 21
5.1062414537
  0
LINE
  5
51A
100
AcDbEntity
  8
ALL_ASSEMBLY_MEMBERS
100
AcDbLine
 62
7
  6
CONTINUOUS
 10
9.6743620223
 20
4.2472398793
 11
9.58830217
 21
4.6105826271
  0
LINE
  5
51B
100
AcDbEntity
  8
ALL_ASSEMBLY_MEMBERS
100
AcDbLine
 62
7
  6
CONTINUOUS
 10
7.2594893291
 20
4.2472398793
 11
6.9719256757
 21
3.035996037
  0
LINE
  5
51C
100
AcDbEntity
  8
ALL_ASSEMBLY_MEMBERS
100
AcDbLine
 62
7
  6
CONTINUOUS
 10
7.3455491813
 20
4.6105826271
 11
7.2594893291
 21
4.2472398793
  0
LINE
  5
51D
100
AcDbEntity
  8
ALL_ASSEMBLY_MEMBERS
100
AcDbLine
 62
7
  6
CONTINUOUS
 10
7.4626804095
 20
5.1062414537
 11
7.3455491813
 21
4.6105826271
  0
SPLINE
  5
51E
100
AcDbEntity
  8
ALL_ASSEMBLY_MEMBERS
100
AcDbSpline
 62
7
  6
CONTINUOUS
 70
0
 71
3
 72
10
 73
6
 74
0
 42
0.0000001
 43
0.0000001
 44
0.0000000001
 40
0.0
 40
0.0
 40
0.0
 40
0.0
 40
0.1969221484
 40
0.4292294339
 40
1.0
 40
1.0
 40
1.0
 40
1.0
 10
7.6183256467
 20
5.7694253664
 30
0.0
 10
7.6081966131
 20
5.7258730114
 30
0.0
 10
7.5860481619
 20
5.6309586817
 30
0.0
 10
7.5342377876
 20
5.4098805468
 30
0.0
 10
7.4924348644
 20
5.2323833988
 30
0.0
 10
7.4626804095
 20
5.1062414537
 30
0.0
  0
SPLINE
  5
51F
100
AcDbEntity
  8
ALL_ASSEMBLY_MEMBERS
100
AcDbSpline
 62
7
  6
CONTINUOUS
 70
0
 71
3
 72
11
 73
7
 74
0
 42
0.0000001
 43
0.0000001
 44
0.0000000001
 40
0.0
 40
0.0
 40
0.0
 40
0.0
 40
0.2524397385
 40
0.5029705979
 40
0.7520053285
 40
1.0
 40
1.0
 40
1.0
 40
1.0
 10
7.6183251317
 20
5.7694262703
 30
0.0
 10
7.6442058955
 20
5.8807070592
 30
0.0
 10
7.6910669533
 20
6.1035534765
 30
0.0
 10
7.7466000497
 20
6.4394458305
 30
0.0
 10
7.7870707886
 20
6.7754589469
 30
0.0
 10
7.8040308977
 20
6.9998553183
 30
0.0
 10
7.8099865114
 20
7.1119361471
 30
0.0
  0
SPLINE
  5
520
100
AcDbEntity
  8
ALL_ASSEMBLY_MEMBERS
100
AcDbSpline
 62
7
  6
CONTINUOUS
 70
0
 71
3
 72
11
 73
7
 74
0
 42
0.0000001
 43
0.0000001
 44
0.0000000001
 40
0.0
 40
0.0
 40
0.0
 40
0.0
 40
0.2480031971
 40
0.4970390448
 40
0.7475656128
 40
1.0
 40
1.0
 40
1.0
 40
1.0
 10
9.1238651652
 20
7.1119367026
 30
0.0
 10
9.1298210715
 20
6.9998519952
 30
0.0
 10
9.1467816173
 20
6.7754512209
 30
0.0
 10
9.1872524494
 20
6.4394355859
 30
0.0
 10
9.2427848938
 20
6.1035469418
 30
0.0
 10
9.2896450174
 20
5.8807047286
 30
0.0
 10
9.3155251863
 20
5.7694262565
 30
0.0
  0
LINE
  5
521
100
AcDbEntity
  8
ALL_ASSEMBLY_MEMBERS
100
AcDbLine
 62
7
  6
CONTINUOUS
 10
9.1920473453
 20
7.4532315726
 11
9.1937929315
 21
7.386238119
  0
LINE
  5
522
100
AcDbEntity
  8
ALL_ASSEMBLY_MEMBERS
100
AcDbLine
 62
7
  6
CONTINUOUS
 10
9.1937929315
 20
7.386238119
 11
9.1990415831
 21
7.1828394188
  0
SPLINE
  5
523
100
AcDbEntity
  8
ALL_ASSEMBLY_MEMBERS
100
AcDbSpline
 62
7
  6
CONTINUOUS
 70
0
 71
3
 72
26
 73
22
 74
0
 42
0.0000001
 43
0.0000001
 44
0.0000000001
 40
0.0
 40
0.0
 40
0.0
 40
0.0
 40
0.0107746783
 40
0.0219035125
 40
0.0337052855
 40
0.0464402604
 40
0.0603089249
 40
0.0754601895
 40
0.0920023516
 40
0.1100131788
 40
0.1506322948
 40
0.1976039142
 40
0.2510427805
 40
0.3109779698
 40
0.3773555025
 40
0.4499588959
 40
0.5285136349
 40
0.6127278843
 40
0.7022982316
 40
0.7969133508
 40
1.0
 40
1.0
 40
1.0
 40
1.0
 10
9.1994256757
 20
7.16785255
 30
0.0
 10
9.1994256757
 20
7.1664849903
 30
0.0
 10
9.1991582678
 20
7.1636983744
 30
0.0
 10
9.1979735164
 20
7.1595662008
 30
0.0
 10
9.1960212751
 20
7.155462026
 30
0.0
 10
9.1933176799
 20
7.1513895418
 30
0.0
 10
9.1898743368
 20
7.1473471321
 30
0.0
 10
9.18569932
 20
7.1433343453
 30
0.0
 10
9.1807991381
 20
7.1393513788
 30
0.0
 10
9.1729878184
 20
7.1338617918
 30
0.0
 10
9.1613447728
 20
7.1271688768
 30
0.0
 10
9.1451119971
 20
7.1195917757
 30
0.0
 10
9.1261355095
 20
7.1122047105
 30
0.0
 10
9.104466176
 20
7.1050410615
 30
0.0
 10
9.0801744952
 20
7.0981385751
 30
0.0
 10
9.0533659917
 20
7.0915138544
 30
0.0
 10
9.0241646145
 20
7.0851919169
 30
0.0
 10
8.9926998097
 20
7.0791978902
 30
0.0
 10
8.9591013987
 20
7.0735563954
 30
0.0
 10
8.9104737476
 20
7.0663674265
 30
0.0
 10
8.8729493898
 20
7.0618559125
 30
0.0
 10
8.8473152397
 20
7.059151006
 30
0.0
  0
SPLINE
  5
524
100
AcDbEntity
  8
ALL_ASSEMBLY_MEMBERS
100
AcDbSpline
 62
7
  6
CONTINUOUS
 70
0
 71
3
 72
11
 73
7
 74
0
 42
0.0000001
 43
0.0000001
 44
0.0000000001
 40
0.0
 40
0.0
 40
0.0
 40
0.0
 40
0.2339270203
 40
0.4815596846
 40
0.7384171514
 40
1.0
 40
1.0
 40
1.0
 40
1.0
 10
8.8473152397
 20
7.059151006
 30
0.0
 10
8.8177708928
 20
7.0560334968
 30
0.0
 10
8.7568409711
 20
7.0506379926
 30
0.0
 10
8.663226794
 20
7.044937618
 30
0.0
 10
8.5659900373
 20
7.041447004
 30
0.0
 10
8.5001462953
 20
7.04065526
 30
0.0
 10
8.4669256769
 20
7.04065526
 30
0.0
  0
SPLINE
  5
525
100
AcDbEntity
  8
ALL_ASSEMBLY_MEMBERS
100
AcDbSpline
 62
7
  6
CONTINUOUS
 70
0
 71
3
 72
11
 73
7
 74
0
 42
0.0000001
 43
0.0000001
 44
0.0000000001
 40
0.0
 40
0.0
 40
0.0
 40
0.0
 40
0.2615828485
 40
0.5184403152
 40
0.7660729796
 40
1.0
 40
1.0
 40
1.0
 40
1.0
 10
8.4669256769
 20
7.04065526
 30
0.0
 10
8.4337050584
 20
7.04065526
 30
0.0
 10
8.3678613162
 20
7.041447004
 30
0.0
 10
8.2706245592
 20
7.0449376179
 30
0.0
 10
8.1770103818
 20
7.0506379925
 30
0.0
 10
8.1160804598
 20
7.0560334967
 30
0.0
 10
8.0865361128
 20
7.0591510058
 30
0.0
  0
LINE
  5
526
100
AcDbEntity
  8
ALL_ASSEMBLY_MEMBERS
100
AcDbLine
 62
7
  6
CONTINUOUS
 10
7.7418040061
 20
7.4532315726
 11
7.7400584198
 21
7.386238119
  0
SPLINE
  5
527
100
AcDbEntity
  8
ALL_ASSEMBLY_MEMBERS
100
AcDbSpline
 62
7
  6
CONTINUOUS
 70
0
 71
3
 72
26
 73
22
 74
0
 42
0.0000001
 43
0.0000001
 44
0.0000000001
 40
0.0
 40
0.0
 40
0.0
 40
0.0
 40
0.2030866492
 40
0.2977017684
 40
0.3872721157
 40
0.4714863652
 40
0.5500411041
 40
0.6226444976
 40
0.6890220302
 40
0.7489572196
 40
0.8023960859
 40
0.8493677053
 40
0.8899868213
 40
0.9079976485
 40
0.9245398106
 40
0.9396910752
 40
0.9535597397
 40
0.9662947146
 40
0.9780964875
 40
0.9892253217
 40
1.0
 40
1.0
 40
1.0
 40
1.0
 10
8.0865361128
 20
7.0591510058
 30
0.0
 10
8.0609019626
 20
7.0618559124
 30
0.0
 10
8.0233776047
 20
7.0663674264
 30
0.0
 10
7.9747499535
 20
7.0735563953
 30
0.0
 10
7.9411515423
 20
7.07919789
 30
0.0
 10
7.9096867375
 20
7.0851919168
 30
0.0
 10
7.8804853601
 20
7.0915138543
 30
0.0
 10
7.8536768566
 20
7.098138575
 30
0.0
 10
7.8293851757
 20
7.1050410614
 30
0.0
 10
7.8077158421
 20
7.1122047104
 30
0.0
 10
7.7887393545
 20
7.1195917756
 30
0.0
 10
7.7725065787
 20
7.1271688768
 30
0.0
 10
7.7608635331
 20
7.1338617918
 30
0.0
 10
7.7530522133
 20
7.1393513788
 30
0.0
 10
7.7481520314
 20
7.1433343453
 30
0.0
 10
7.7439770146
 20
7.1473471321
 30
0.0
 10
7.7405336715
 20
7.1513895418
 30
0.0
 10
7.7378300762
 20
7.155462026
 30
0.0
 10
7.7358778349
 20
7.1595662008
 30
0.0
 10
7.7346930835
 20
7.1636983744
 30
0.0
 10
7.7344256757
 20
7.1664849903
 30
0.0
 10
7.7344256757
 20
7.1678525501
 30
0.0
  0
LINE
  5
528
100
AcDbEntity
  8
ALL_ASSEMBLY_MEMBERS
100
AcDbLine
 62
7
  6
CONTINUOUS
 10
7.7400584198
 20
7.386238119
 11
7.7348100507
 21
7.1828504358
  0
SPLINE
  5
529
100
AcDbEntity
  8
ALL_ASSEMBLY_MEMBERS
100
AcDbSpline
 62
7
  6
CONTINUOUS
 70
0
 71
3
 72
9
 73
5
 74
0
 42
0.0000001
 43
0.0000001
 44
0.0000000001
 40
0.0
 40
0.0
 40
0.0
 40
0.0
 40
0.5161496329
 40
1.0
 40
1.0
 40
1.0
 40
1.0
 10
8.6527009384
 20
7.2618864915
 30
0.0
 10
8.6762851219
 20
7.2604814367
 30
0.0
 10
8.7219458958
 20
7.257186582
 30
0.0
 10
8.76749636
 20
7.2525875871
 30
0.0
 10
8.7894902768
 20
7.249983451
 30
0.0
  0
SPLINE
  5
52A
100
AcDbEntity
  8
ALL_ASSEMBLY_MEMBERS
100
AcDbSpline
 62
7
  6
CONTINUOUS
 70
0
 71
3
 72
23
 73
19
 74
0
 42
0.0000001
 43
0.0000001
 44
0.0000000001
 40
0.0
 40
0.0
 40
0.0
 40
0.0
 40
0.20374856
 40
0.3878705543
 40
0.4718170137
 40
0.5499808421
 40
0.6221534836
 40
0.6881528419
 40
0.7478225928
 40
0.8010800981
 40
0.8479474918
 40
0.8885432514
 40
0.9231523734
 40
0.9384028059
 40
0.9524258776
 40
0.9774004662
 40
0.9888624889
 40
1.0
 40
1.0
 40
1.0
 40
1.0
 10
8.7894902768
 20
7.249983451
 30
0.0
 10
8.8078485384
 20
7.2478097857
 30
0.0
 10
8.8427397815
 20
7.2431662003
 30
0.0
 10
8.8849579629
 20
7.2360012671
 30
0.0
 10
8.9157308175
 20
7.2296707917
 30
0.0
 10
8.9364352873
 20
7.2248436301
 30
0.0
 10
8.9554114741
 20
7.2198116513
 30
0.0
 10
8.9725919442
 20
7.2145948078
 30
0.0
 10
8.9879142487
 20
7.2092112637
 30
0.0
 10
9.0013249944
 20
7.2036797885
 30
0.0
 10
9.0127857358
 20
7.1980228842
 30
0.0
 10
9.0222630936
 20
7.1922591937
 30
0.0
 10
9.0287448477
 20
7.1871734123
 30
0.0
 10
9.0328058159
 20
7.1830238381
 30
0.0
 10
9.0358820573
 20
7.1791776317
 30
0.0
 10
9.0381247276
 20
7.1751055092
 30
0.0
 10
9.0392424397
 20
7.1709179783
 30
0.0
 10
9.0394256757
 20
7.1688630779
 30
0.0
 10
9.0394256757
 20
7.1678525501
 30
0.0
  0
SPLINE
  5
52B
100
AcDbEntity
  8
ALL_ASSEMBLY_MEMBERS
100
AcDbSpline
 62
7
  6
CONTINUOUS
 70
0
 71
3
 72
20
 73
16
 74
0
 42
0.0000001
 43
0.0000001
 44
0.0000000001
 40
0.0
 40
0.0
 40
0.0
 40
0.0
 40
0.0313059687
 40
0.0639778983
 40
0.0992082614
 40
0.1379397458
 40
0.1808724015
 40
0.2285101956
 40
0.2812049695
 40
0.3391739898
 40
0.4025503801
 40
0.4714134057
 40
0.6257132169
 40
0.8020858328
 40
1.0
 40
1.0
 40
1.0
 40
1.0
 10
7.8944256757
 20
7.1678525501
 30
0.0
 10
7.8944256757
 20
7.1690990992
 30
0.0
 10
7.8947081786
 20
7.1716543102
 30
0.0
 10
7.8959572919
 20
7.1754275071
 30
0.0
 10
7.8980133077
 20
7.1791655638
 30
0.0
 10
7.9008601221
 20
7.1828663817
 30
0.0
 10
7.9044893736
 20
7.1865333719
 30
0.0
 10
7.9088971025
 20
7.1901670396
 30
0.0
 10
7.9140795262
 20
7.1937652549
 30
0.0
 10
7.9200295569
 20
7.1973263594
 30
0.0
 10
7.9267391252
 20
7.2008469289
 30
0.0
 10
7.9370851866
 20
7.2056650148
 30
0.0
 10
7.9519097318
 20
7.2114788109
 30
0.0
 10
7.9719356166
 20
7.2179828805
 30
0.0
 10
7.9863149522
 20
7.221920621
 30
0.0
 10
7.9939518111
 20
7.2238654069
 30
0.0
  0
SPLINE
  5
52C
100
AcDbEntity
  8
ALL_ASSEMBLY_MEMBERS
100
AcDbSpline
 62
7
  6
CONTINUOUS
 70
0
 71
3
 72
11
 73
7
 74
0
 42
0.0000001
 43
0.0000001
 44
0.0000000001
 40
0.0
 40
0.0
 40
0.0
 40
0.0
 40
0.2161579593
 40
0.4561240713
 40
0.7180645158
 40
1.0
 40
1.0
 40
1.0
 40
1.0
 10
7.9939518111
 20
7.2238654069
 30
0.0
 10
8.0045430549
 20
7.2265625499
 30
0.0
 10
8.0270347452
 20
7.2316986792
 30
0.0
 10
8.0627138098
 20
7.2384519423
 30
0.0
 10
8.1018689779
 20
7.2446176104
 30
0.0
 10
8.1291406294
 20
7.2481728918
 30
0.0
 10
8.1432958811
 20
7.2498570243
 30
0.0
  0
SPLINE
  5
52D
100
AcDbEntity
  8
ALL_ASSEMBLY_MEMBERS
100
AcDbSpline
 62
7
  6
CONTINUOUS
 70
0
 71
3
 72
9
 73
5
 74
0
 42
0.0000001
 43
0.0000001
 44
0.0000000001
 40
0.0
 40
0.0
 40
0.0
 40
0.0
 40
0.4836695839
 40
1.0
 40
1.0
 40
1.0
 40
1.0
 10
8.1432958811
 20
7.2498570243
 30
0.0
 10
8.165451812
 20
7.2524930439
 30
0.0
 10
8.2113565342
 20
7.2571446968
 30
0.0
 10
8.2573737012
 20
7.2604699666
 30
0.0
 10
8.281150413
 20
7.2618864915
 30
0.0
  0
SPLINE
  5
52E
100
AcDbEntity
  8
ALL_ASSEMBLY_MEMBERS
100
AcDbSpline
 62
7
  6
CONTINUOUS
 70
0
 71
3
 72
26
 73
22
 74
0
 42
0.0000001
 43
0.0000001
 44
0.0000000001
 40
0.0
 40
0.0
 40
0.0
 40
0.0
 40
0.0022094441
 40
0.0049156819
 40
0.0118372539
 40
0.0207712233
 40
0.0317033751
 40
0.044613832
 40
0.0594801403
 40
0.0762785081
 40
0.0949843806
 40
0.138018087
 40
0.1883759253
 40
0.2457508875
 40
0.3097011004
 40
0.3797744366
 40
0.455518283
 40
0.5364795317
 40
0.6221609409
 40
0.805280617
 40
1.0
 40
1.0
 40
1.0
 40
1.0
 10
7.7768332433
 20
8.2708181126
 30
0.0
 10
7.7766224043
 20
8.2702532135
 30
0.0
 10
7.7762148138
 20
8.2689735816
 30
0.0
 10
7.7754098416
 20
8.2658442021
 30
0.0
 10
7.774449416
 20
8.2608667042
 30
0.0
 10
7.7733547539
 20
8.2536381866
 30
0.0
 10
7.77225569
 20
8.2447601505
 30
0.0
 10
7.7711524332
 20
8.2342538289
 30
0.0
 10
7.7700480578
 20
8.2221390802
 30
0.0
 10
7.7689431209
 20
8.2084371284
 30
0.0
 10
7.7673972324
 20
8.187059556
 30
0.0
 10
7.7655038263
 20
8.1565258173
 30
0.0
 10
7.7633238389
 20
8.1154387336
 30
0.0
 10
7.7611473805
 20
8.0686363285
 30
0.0
 10
7.7589727298
 20
8.0164483435
 30
0.0
 10
7.7568022222
 20
7.9592433578
 30
0.0
 10
7.7546366728
 20
7.8973927906
 30
0.0
 10
7.7524773208
 20
7.8312801163
 30
0.0
 10
7.7495429053
 20
7.7358741784
 30
0.0
 10
7.7459410233
 20
7.6094294402
 30
0.0
 10
7.7431929254
 20
7.5063528218
 30
0.0
 10
7.7418040061
 20
7.4532315726
 30
0.0
  0
SPLINE
  5
52F
100
AcDbEntity
  8
ALL_ASSEMBLY_MEMBERS
100
AcDbSpline
 62
7
  6
CONTINUOUS
 70
0
 71
3
 72
26
 73
22
 74
0
 42
0.0000001
 43
0.0000001
 44
0.0000000001
 40
0.0
 40
0.0
 40
0.0
 40
0.0
 40
0.002207111
 40
0.0049110416
 40
0.0118281955
 40
0.0207580694
 40
0.0316864653
 40
0.0445935098
 40
0.0594567478
 40
0.0762523842
 40
0.0949558596
 40
0.1379857547
 40
0.18834107
 40
0.2457148776
 40
0.3096652423
 40
0.3797399334
 40
0.4554862344
 40
0.5364509348
 40
0.622136722
 40
0.8052674462
 40
1.0
 40
1.0
 40
1.0
 40
1.0
 10
9.1570152383
 20
8.2708257959
 30
0.0
 10
9.1572261225
 20
8.2702615869
 30
0.0
 10
9.1576337738
 20
8.2689832837
 30
0.0
 10
9.1584388594
 20
8.2658564508
 30
0.0
 10
9.1593993528
 20
8.2608819114
 30
0.0
 10
9.1604940809
 20
8.2536567172
 30
0.0
 10
9.1615932168
 20
8.244781695
 30
0.0
 10
9.1626965553
 20
8.2342780851
 30
0.0
 10
9.1638010151
 20
8.2221657464
 30
0.0
 10
9.164906039
 20
8.2084659082
 30
0.0
 10
9.1664520727
 20
8.1870905771
 30
0.0
 10
9.16834564
 20
8.1565589283
 30
0.0
 10
9.1705257999
 20
8.1154734877
 30
0.0
 10
9.1727024289
 20
8.0686715841
 30
0.0
 10
9.1748772523
 20
8.0164829868
 30
0.0
 10
9.1770479332
 20
7.9592763523
 30
0.0
 10
9.1792136561
 20
7.8974231883
 30
0.0
 10
9.1813731816
 20
7.831307049
 30
0.0
 10
9.1843078413
 20
7.7358950083
 30
0.0
 10
9.1879100125
 20
7.609441204
 30
0.0
 10
9.1906583181
 20
7.5063569467
 30
0.0
 10
9.1920473453
 20
7.4532315726
 30
0.0
  0
SPLINE
  5
530
100
AcDbEntity
  8
ALL_ASSEMBLY_MEMBERS
100
AcDbSpline
 62
9
  6
CONTINUOUS
 70
0
 71
3
 72
11
 73
7
 74
0
 42
0.0000001
 43
0.0000001
 44
0.0000000001
 40
0.0
 40
0.0
 40
0.0
 40
0.0
 40
0.2373135037
 40
0.4848048372
 40
0.7398738404
 40
1.0
 40
1.0
 40
1.0
 40
1.0
 10
8.0837129395
 20
7.7057866113
 30
0.0
 10
8.1138875514
 20
7.7093833339
 30
0.0
 10
8.1756280952
 20
7.7159401139
 30
0.0
 10
8.2700854405
 20
7.7234261056
 30
0.0
 10
8.3676403191
 20
7.7283079709
 30
0.0
 10
8.4336162788
 20
7.7294872839
 30
0.0
 10
8.4669256757
 20
7.7294872839
 30
0.0
  0
SPLINE
  5
531
100
AcDbEntity
  8
ALL_ASSEMBLY_MEMBERS
100
AcDbSpline
 62
9
  6
CONTINUOUS
 70
0
 71
3
 72
11
 73
7
 74
0
 42
0.0000001
 43
0.0000001
 44
0.0000000001
 40
0.0
 40
0.0
 40
0.0
 40
0.0
 40
0.2364002975
 40
0.4838937098
 40
0.739426614
 40
1.0
 40
1.0
 40
1.0
 40
1.0
 10
8.0831831018
 20
7.604843262
 30
0.0
 10
8.1132903779
 20
7.6083025672
 30
0.0
 10
8.1750165278
 20
7.614547892
 30
0.0
 10
8.2695576908
 20
7.6215776762
 30
0.0
 10
8.3673550078
 20
7.6261154024
 30
0.0
 10
8.4335214438
 20
7.6272015544
 30
0.0
 10
8.4669256757
 20
7.6272015544
 30
0.0
  0
SPLINE
  5
532
100
AcDbEntity
  8
ALL_ASSEMBLY_MEMBERS
100
AcDbSpline
 62
7
  6
CONTINUOUS
 70
0
 71
3
 72
11
 73
7
 74
0
 42
0.0000001
 43
0.0000001
 44
0.0000000001
 40
0.0
 40
0.0
 40
0.0
 40
0.0
 40
0.2333484008
 40
0.4809135849
 40
0.7380268997
 40
1.0
 40
1.0
 40
1.0
 40
1.0
 10
8.081348288
 20
7.2760015397
 30
0.0
 10
8.1112168148
 20
7.2792125622
 30
0.0
 10
8.1728903108
 20
7.2847675619
 30
0.0
 10
8.2677306938
 20
7.2906354383
 30
0.0
 10
8.3663714804
 20
7.2942327412
 30
0.0
 10
8.4331999774
 20
7.2950498403
 30
0.0
 10
8.4669256744
 20
7.2950498403
 30
0.0
  0
SPLINE
  5
533
100
AcDbEntity
  8
ALL_ASSEMBLY_MEMBERS
100
AcDbSpline
 62
7
  6
CONTINUOUS
 70
0
 71
3
 72
29
 73
25
 74
0
 42
0.0000001
 43
0.0000001
 44
0.0000000001
 40
0.0
 40
0.0
 40
0.0
 40
0.0
 40
0.0941757092
 40
0.1876055402
 40
0.279261811
 40
0.368270034
 40
0.4538444427
 40
0.5352173387
 40
0.6116424042
 40
0.6824174446
 40
0.7469425707
 40
0.8046690528
 40
0.8308504295
 40
0.8551842366
 40
0.8776326447
 40
0.8981702229
 40
0.9167949975
 40
0.9335212339
 40
0.9483846963
 40
0.9614556954
 40
0.9728679679
 40
0.9828441088
 40
0.991725336
 40
1.0
 40
1.0
 40
1.0
 40
1.0
 10
8.4669256757
 20
7.0684389684
 30
0.0
 10
8.4482351271
 20
7.0684389684
 30
0.0
 10
8.4110012944
 20
7.068757229
 30
0.0
 10
8.3555932046
 20
7.0701750445
 30
0.0
 10
8.3012430489
 20
7.0725270352
 30
0.0
 10
8.248501518
 20
7.0757871628
 30
0.0
 10
8.1978684078
 20
7.0799226947
 30
0.0
 10
8.1498199045
 20
7.0848936531
 30
0.0
 10
8.1048174729
 20
7.0906461261
 30
0.0
 10
8.0632942009
 20
7.0971298649
 30
0.0
 10
8.025649014
 20
7.1042701155
 30
0.0
 10
7.9969364742
 20
7.1109100038
 30
0.0
 10
7.9762110252
 20
7.1165710267
 30
0.0
 10
7.9623584499
 20
7.1207980317
 30
0.0
 10
7.9497181882
 20
7.1251353134
 30
0.0
 10
7.9383205083
 20
7.1295742864
 30
0.0
 10
7.9281891084
 20
7.1341023479
 30
0.0
 10
7.9193436454
 20
7.1387088963
 30
0.0
 10
7.9118013498
 20
7.1433844224
 30
0.0
 10
7.9055769979
 20
7.1481254781
 30
0.0
 10
7.9006801685
 20
7.1529322748
 30
0.0
 10
7.8971202082
 20
7.1578157112
 30
0.0
 10
7.8949300546
 20
7.1627895033
 30
0.0
 10
7.8944256757
 20
7.1662103219
 30
0.0
 10
7.8944256757
 20
7.1678525501
 30
0.0
  0
SPLINE
  5
534
100
AcDbEntity
  8
ALL_ASSEMBLY_MEMBERS
100
AcDbSpline
 62
7
  6
CONTINUOUS
 70
0
 71
3
 72
33
 73
29
 74
0
 42
0.0000001
 43
0.0000001
 44
0.0000000001
 40
0.0
 40
0.0
 40
0.0
 40
0.0
 40
0.0808720076
 40
0.159924171
 40
0.2368637746
 40
0.3113588424
 40
0.3829702865
 40
0.4175735034
 40
0.4512960398
 40
0.484054345
 40
0.5157765174
 40
0.5464083422
 40
0.5759079142
 40
0.6042165966
 40
0.6313048942
 40
0.68192643
 40
0.7057628181
 40
0.728880161
 40
0.7516292275
 40
0.7744341452
 40
0.7977362272
 40
0.8219758772
 40
0.8475204384
 40
0.8746076403
 40
0.9033821958
 40
0.9339027844
 40
0.96613917
 40
1.0
 40
1.0
 40
1.0
 40
1.0
 10
6.9719256757
 20
3.035996037
 30
0.0
 10
6.9719256757
 20
3.0137194271
 30
0.0
 10
6.9723111191
 20
2.9696658944
 30
0.0
 10
6.9743097456
 20
2.9044450946
 30
0.0
 10
6.977939783
 20
2.8410509945
 30
0.0
 10
6.9834331567
 20
2.779845355
 30
0.0
 10
6.9899305831
 20
2.7304729785
 30
0.0
 10
6.9964701337
 20
2.6924807149
 30
0.0
 10
7.0020075851
 20
2.6651878888
 30
0.0
 10
7.0082975015
 20
2.6388724688
 30
0.0
 10
7.0153995929
 20
2.6136460837
 30
0.0
 10
7.0233746164
 20
2.5896230782
 30
0.0
 10
7.0322744225
 20
2.5669326451
 30
0.0
 10
7.0421706004
 20
2.5457196409
 30
0.0
 10
7.0564433817
 20
2.5202303499
 30
0.0
 10
7.0732592833
 20
2.4975777622
 30
0.0
 10
7.0929600637
 20
2.4791959123
 30
0.0
 10
7.1086965007
 20
2.4680777035
 30
0.0
 10
7.1256934709
 20
2.4596000606
 30
0.0
 10
7.1438718597
 20
2.4539136211
 30
0.0
 10
7.1631232798
 20
2.4510982178
 30
0.0
 10
7.1833271318
 20
2.4512554117
 30
0.0
 10
7.2043337369
 20
2.454347216
 30
0.0
 10
7.2260159286
 20
2.4602451569
 30
0.0
 10
7.2482347473
 20
2.4688635668
 30
0.0
 10
7.2708565545
 20
2.480060397
 30
0.0
 10
7.2937726739
 20
2.4936338636
 30
0.0
 10
7.308819557
 20
2.5039070809
 30
0.0
 10
7.3163765924
 20
2.5093739581
 30
0.0
  0
SPLINE
  5
535
100
AcDbEntity
  8
ALL_ASSEMBLY_MEMBERS
100
AcDbSpline
 62
7
  6
CONTINUOUS
 70
0
 71
3
 72
9
 73
5
 74
0
 42
0.0000001
 43
0.0000001
 44
0.0000000001
 40
0.0
 40
0.0
 40
0.0
 40
0.0
 40
0.4881462512
 40
1.0
 40
1.0
 40
1.0
 40
1.0
 10
7.3163765924
 20
2.5093739581
 30
0.0
 10
7.3264596862
 20
2.5166682255
 30
0.0
 10
7.3465767792
 20
2.5323629393
 30
0.0
 10
7.3657331964
 20
2.5492044524
 30
0.0
 10
7.3753224699
 20
2.5580548592
 30
0.0
  0
SPLINE
  5
536
100
AcDbEntity
  8
ALL_ASSEMBLY_MEMBERS
100
AcDbSpline
 62
7
  6
CONTINUOUS
 70
0
 71
3
 72
9
 73
5
 74
0
 42
0.0000001
 43
0.0000001
 44
0.0000000001
 40
0.0
 40
0.0
 40
0.0
 40
0.0
 40
0.4905568922
 40
1.0
 40
1.0
 40
1.0
 40
1.0
 10
7.3753224699
 20
2.5580548592
 30
0.0
 10
7.3873966158
 20
2.5691986754
 30
0.0
 10
7.4113224522
 20
2.5926658113
 30
0.0
 10
7.434060056
 20
2.6172759036
 30
0.0
 10
7.4453779612
 20
2.6300454858
 30
0.0
  0
SPLINE
  5
537
100
AcDbEntity
  8
ALL_ASSEMBLY_MEMBERS
100
AcDbSpline
 62
7
  6
CONTINUOUS
 70
0
 71
3
 72
14
 73
10
 74
0
 42
0.0000001
 43
0.0000001
 44
0.0000000001
 40
0.0
 40
0.0
 40
0.0
 40
0.0
 40
0.1171892128
 40
0.2375321601
 40
0.3604080396
 40
0.4854272393
 40
0.6121886803
 40
0.7403567296
 40
1.0
 40
1.0
 40
1.0
 40
1.0
 10
7.4453779612
 20
2.6300454858
 30
0.0
 10
7.4580931167
 20
2.6443915349
 30
0.0
 10
7.4831927663
 20
2.6740705745
 30
0.0
 10
7.5195104421
 20
2.7205263575
 30
0.0
 10
7.5550195501
 20
2.7691963355
 30
0.0
 10
7.5896682009
 20
2.8197577196
 30
0.0
 10
7.6234572769
 20
2.8719306412
 30
0.0
 10
7.667549989
 20
2.9436386951
 30
0.0
 10
7.6990239262
 20
2.9987443224
 30
0.0
 10
7.7194256757
 20
3.035996037
 30
0.0
  0
SPLINE
  5
538
100
AcDbEntity
  8
ALL_ASSEMBLY_MEMBERS
100
AcDbSpline
 62
9
  6
CONTINUOUS
 70
0
 71
3
 72
11
 73
7
 74
0
 42
0.0000001
 43
0.0000001
 44
0.0000000001
 40
0.0
 40
0.0
 40
0.0
 40
0.0
 40
0.260603497
 40
0.5164613053
 40
0.7640866602
 40
1.0
 40
1.0
 40
1.0
 40
1.0
 10
8.4669256757
 20
7.7294872839
 30
0.0
 10
8.5002994187
 20
7.7294872839
 30
0.0
 10
8.566443565
 20
7.7284514019
 30
0.0
 10
8.6642048518
 20
7.723914776
 30
0.0
 10
8.7586242017
 20
7.7165672202
 30
0.0
 10
8.8201822531
 20
7.7097088343
 30
0.0
 10
8.8501384118
 20
7.7057866113
 30
0.0
  0
LINE
  5
539
100
AcDbEntity
  8
ALL_ASSEMBLY_MEMBERS
100
AcDbLine
 62
7
  6
CONTINUOUS
 10
8.8501384118
 20
7.7057866113
 11
8.8506682496
 21
7.604843262
  0
SPLINE
  5
53A
100
AcDbEntity
  8
ALL_ASSEMBLY_MEMBERS
100
AcDbSpline
 62
9
  6
CONTINUOUS
 70
0
 71
3
 72
11
 73
7
 74
0
 42
0.0000001
 43
0.0000001
 44
0.0000000001
 40
0.0
 40
0.0
 40
0.0
 40
0.0
 40
0.2609507485
 40
0.5171079292
 40
0.7647083425
 40
1.0
 40
1.0
 40
1.0
 40
1.0
 10
8.4669256757
 20
7.6272015544
 30
0.0
 10
8.500380718
 20
7.6272015544
 30
0.0
 10
8.5666801362
 20
7.6262287304
 30
0.0
 10
8.6646396759
 20
7.6219626142
 30
0.0
 10
8.7591496727
 20
7.6150414853
 30
0.0
 10
8.8207325945
 20
7.6085594312
 30
0.0
 10
8.8506682496
 20
7.604843262
 30
0.0
  0
SPLINE
  5
53B
100
AcDbEntity
  8
ALL_ASSEMBLY_MEMBERS
100
AcDbSpline
 62
7
  6
CONTINUOUS
 70
0
 71
3
 72
11
 73
7
 74
0
 42
0.0000001
 43
0.0000001
 44
0.0000000001
 40
0.0
 40
0.0
 40
0.0
 40
0.0
 40
0.2619731002
 40
0.519086415
 40
0.7666515991
 40
1.0
 40
1.0
 40
1.0
 40
1.0
 10
8.4669256744
 20
7.2950498403
 30
0.0
 10
8.5006513715
 20
7.2950498403
 30
0.0
 10
8.5674798686
 20
7.2942327412
 30
0.0
 10
8.6661206556
 20
7.2906354384
 30
0.0
 10
8.7609610389
 20
7.284767562
 30
0.0
 10
8.8226345351
 20
7.2792125624
 30
0.0
 10
8.852503062
 20
7.2760015398
 30
0.0
  0
LINE
  5
53C
100
AcDbEntity
  8
ALL_ASSEMBLY_MEMBERS
100
AcDbLine
 62
9
  6
CONTINUOUS
 10
8.8506682496
 20
7.604843262
 11
8.852502994
 21
7.2760015471
  0
SPLINE
  5
53D
100
AcDbEntity
  8
ALL_ASSEMBLY_MEMBERS
100
AcDbSpline
 62
7
  6
CONTINUOUS
 70
0
 71
3
 72
26
 73
22
 74
0
 42
0.0000001
 43
0.0000001
 44
0.0000000001
 40
0.0
 40
0.0
 40
0.0
 40
0.0
 40
0.0157146223
 40
0.0332151371
 40
0.0524400493
 40
0.0733206313
 40
0.0957834664
 40
0.1197519785
 40
0.1451473919
 40
0.1718893578
 40
0.2290856838
 40
0.2906804649
 40
0.35600427
 40
0.4243827971
 40
0.4951388563
 40
0.5675936665
 40
0.7148818492
 40
0.7883575304
 40
0.8608179375
 40
0.9315888612
 40
1.0
 40
1.0
 40
1.0
 40
1.0
 10
8.0919256757
 20
4.9508557116
 30
0.0
 10
8.0919256757
 20
4.9406295713
 30
0.0
 10
8.0913620733
 20
4.9190142323
 30
0.0
 10
8.0892050671
 20
4.8849524278
 30
0.0
 10
8.085750381
 20
4.8476209948
 30
0.0
 10
8.0810620468
 20
4.8071732454
 30
0.0
 10
8.0752046345
 20
4.7637619346
 30
0.0
 10
8.068243619
 20
4.7175410967
 30
0.0
 10
8.0602453863
 20
4.6686648981
 30
0.0
 10
8.0480079469
 20
4.598576269
 30
0.0
 10
8.0304554773
 20
4.5055085992
 30
0.0
 10
8.0067895478
 20
4.3880562852
 30
0.0
 10
7.9805964758
 20
4.2636958848
 30
0.0
 10
7.952410437
 20
4.1336659313
 30
0.0
 10
7.9227656942
 20
3.9992051283
 30
0.0
 10
7.8817860588
 20
3.8146609741
 30
0.0
 10
7.8405128744
 20
3.6283681662
 30
0.0
 10
7.8003311932
 20
3.4418332309
 30
0.0
 10
7.7714430908
 20
3.3038026182
 30
0.0
 10
7.7443159151
 20
3.1687745689
 30
0.0
 10
7.7274206222
 20
3.0797901438
 30
0.0
 10
7.7194256757
 20
3.035996037
 30
0.0
  0
SPLINE
  5
53E
100
AcDbEntity
  8
ALL_ASSEMBLY_MEMBERS
100
AcDbSpline
 62
9
  6
CONTINUOUS
 70
0
 71
3
 72
21
 73
17
 74
0
 42
0.0000001
 43
0.0000001
 44
0.0000000001
 40
0.0
 40
0.0
 40
0.0
 40
0.0
 40
0.1665051594
 40
0.3231238577
 40
0.3972256929
 40
0.4682644022
 40
0.5360718904
 40
0.600503019
 40
0.6614651021
 40
0.7189853942
 40
0.7731454049
 40
0.8240678408
 40
0.8719284196
 40
0.9169701033
 40
0.9595190329
 40
1.0
 40
1.0
 40
1.0
 40
1.0
 10
8.8501384118
 20
7.7057866113
 30
0.0
 10
8.8731514251
 20
7.6976956047
 30
0.0
 10
8.9174037947
 20
7.6808005936
 30
0.0
 10
8.9704649657
 20
7.6567916615
 30
0.0
 10
9.0097244033
 20
7.6364454933
 30
0.0
 10
9.0368608645
 20
7.621035634
 30
0.0
 10
9.0621210935
 20
7.6052423696
 30
0.0
 10
9.0853942397
 20
7.5891112902
 30
0.0
 10
9.1065793061
 20
7.5726770878
 30
0.0
 10
9.1256175804
 20
7.5560000111
 30
0.0
 10
9.1424664469
 20
7.5391313517
 30
0.0
 10
9.1570851528
 20
7.5221187626
 30
0.0
 10
9.1694318709
 20
7.5050090239
 30
0.0
 10
9.1794629279
 20
7.4878457146
 30
0.0
 10
9.1871298825
 20
7.4706777496
 30
0.0
 10
9.1907057836
 20
7.459008528
 30
0.0
 10
9.1920473453
 20
7.4532315726
 30
0.0
  0
SPLINE
  5
53F
100
AcDbEntity
  8
ALL_ASSEMBLY_MEMBERS
100
AcDbSpline
 62
9
  6
CONTINUOUS
 70
0
 71
3
 72
16
 73
12
 74
0
 42
0.0000001
 43
0.0000001
 44
0.0000000001
 40
0.0
 40
0.0
 40
0.0
 40
0.0
 40
0.1601558405
 40
0.3119793597
 40
0.4544084223
 40
0.5864561073
 40
0.7072588511
 40
0.8162535548
 40
0.8663727012
 40
0.9136449316
 40
1.0
 40
1.0
 40
1.0
 40
1.0
 10
8.8506682496
 20
7.604843262
 30
0.0
 10
8.8694316103
 20
7.5994030246
 30
0.0
 10
8.9057820522
 20
7.5880955816
 30
0.0
 10
8.9579657192
 20
7.5693509714
 30
0.0
 10
9.0060157332
 20
7.5494079532
 30
0.0
 10
9.0494673133
 20
7.5284373933
 30
0.0
 10
9.0878738399
 20
7.5066071802
 30
0.0
 10
9.1160899277
 20
7.4872809506
 30
0.0
 10
9.1356747256
 20
7.4714391022
 30
0.0
 10
9.1522571439
 20
7.4563526581
 30
0.0
 10
9.1632828226
 20
7.4442429542
 30
0.0
 10
9.1696705531
 20
7.43586698
 30
0.0
  0
SPLINE
  5
540
100
AcDbEntity
  8
ALL_ASSEMBLY_MEMBERS
100
AcDbSpline
 62
9
  6
CONTINUOUS
 70
0
 71
3
 72
11
 73
7
 74
0
 42
0.0000001
 43
0.0000001
 44
0.0000000001
 40
0.0
 40
0.0
 40
0.0
 40
0.0
 40
0.271697116
 40
0.5273567288
 40
0.7691936896
 40
1.0
 40
1.0
 40
1.0
 40
1.0
 10
9.1696705531
 20
7.43586698
 30
0.0
 10
9.1727249608
 20
7.4318618579
 30
0.0
 10
9.1783304431
 20
7.4238322069
 30
0.0
 10
9.1853103273
 20
7.4113676159
 30
0.0
 10
9.1905608916
 20
7.3988961829
 30
0.0
 10
9.1929306475
 20
7.3904291769
 30
0.0
 10
9.1937929315
 20
7.386238119
 30
0.0
  0
SPLINE
  5
541
100
AcDbEntity
  8
ALL_ASSEMBLY_MEMBERS
100
AcDbSpline
 62
7
  6
CONTINUOUS
 70
0
 71
3
 72
11
 73
7
 74
0
 42
0.0000001
 43
0.0000001
 44
0.0000000001
 40
0.0
 40
0.0
 40
0.0
 40
0.0
 40
0.2716480585
 40
0.5296437895
 40
0.7728130651
 40
1.0
 40
1.0
 40
1.0
 40
1.0
 10
8.852503062
 20
7.2760015398
 30
0.0
 10
8.8675347745
 20
7.2743855523
 30
0.0
 10
8.8968159612
 20
7.2709777204
 30
0.0
 10
8.9394361107
 20
7.2651765795
 30
0.0
 10
8.9794783356
 20
7.2588497727
 30
0.0
 10
9.0052321482
 20
7.2541406297
 30
0.0
 10
9.0176355198
 20
7.2516862152
 30
0.0
  0
SPLINE
  5
542
100
AcDbEntity
  8
ALL_ASSEMBLY_MEMBERS
100
AcDbSpline
 62
7
  6
CONTINUOUS
 70
0
 71
3
 72
20
 73
16
 74
0
 42
0.0000001
 43
0.0000001
 44
0.0000000001
 40
0.0
 40
0.0
 40
0.0
 40
0.0
 40
0.1961428434
 40
0.372590353
 40
0.5281434131
 40
0.5978825907
 40
0.6622611808
 40
0.7213119681
 40
0.7750981554
 40
0.8237267499
 40
0.867369104
 40
0.9062925955
 40
0.940908604
 40
0.9718401721
 40
1.0
 40
1.0
 40
1.0
 40
1.0
 10
9.0176355198
 20
7.2516862152
 30
0.0
 10
9.0306643613
 20
7.2491080309
 30
0.0
 10
9.0553427884
 20
7.2438346307
 30
0.0
 10
9.0900094983
 20
7.2350115184
 30
0.0
 10
9.1160269424
 20
7.2270087599
 30
0.0
 10
9.1344615631
 20
7.2202969451
 30
0.0
 10
9.1465766058
 20
7.2153562287
 30
0.0
 10
9.1574797594
 20
7.2103333729
 30
0.0
 10
9.1671597079
 20
7.2052372765
 30
0.0
 10
9.1756059592
 20
7.2000764611
 30
0.0
 10
9.1828089107
 20
7.194857606
 30
0.0
 10
9.1887594253
 20
7.1895849901
 30
0.0
 10
9.1934470848
 20
7.1842556397
 30
0.0
 10
9.1968534854
 20
7.1788661134
 30
0.0
 10
9.1982942946
 20
7.1750929003
 30
0.0
 10
9.1987545261
 20
7.1732424802
 30
0.0
  0
SPLINE
  5
543
100
AcDbEntity
  8
ALL_ASSEMBLY_MEMBERS
100
AcDbSpline
 62
7
  6
CONTINUOUS
 70
0
 71
3
 72
9
 73
5
 74
0
 42
0.0000001
 43
0.0000001
 44
0.0000000001
 40
0.0
 40
0.0
 40
0.0
 40
0.0
 40
0.2533012863
 40
1.0
 40
1.0
 40
1.0
 40
1.0
 10
9.1987545261
 20
7.1732424802
 30
0.0
 10
9.1988537177
 20
7.1728436675
 30
0.0
 10
9.1992046212
 20
7.1712594338
 30
0.0
 10
9.1993858828
 20
7.1696370872
 30
0.0
 10
9.1994180562
 20
7.16842605
 30
0.0
  0
SPLINE
  5
544
100
AcDbEntity
  8
ALL_ASSEMBLY_MEMBERS
100
AcDbSpline
 62
7
  6
CONTINUOUS
 70
0
 71
3
 72
26
 73
22
 74
0
 42
0.0000001
 43
0.0000001
 44
0.0000000001
 40
0.0
 40
0.0
 40
0.0
 40
0.0
 40
0.0684111388
 40
0.1391820625
 40
0.2116424696
 40
0.2851181508
 40
0.4324063335
 40
0.5048611437
 40
0.5756172029
 40
0.64399573
 40
0.7093195351
 40
0.7709143162
 40
0.8281106422
 40
0.8548526081
 40
0.8802480215
 40
0.9042165336
 40
0.9266793687
 40
0.9475599507
 40
0.9667848629
 40
0.9842853777
 40
1.0
 40
1.0
 40
1.0
 40
1.0
 10
9.2144256757
 20
3.035996037
 30
0.0
 10
9.2064307291
 20
3.0797901438
 30
0.0
 10
9.1895354363
 20
3.1687745689
 30
0.0
 10
9.1624082606
 20
3.3038026182
 30
0.0
 10
9.1335201581
 20
3.4418332309
 30
0.0
 10
9.093338477
 20
3.6283681662
 30
0.0
 10
9.0520652926
 20
3.8146609741
 30
0.0
 10
9.0110856572
 20
3.9992051283
 30
0.0
 10
8.9814409144
 20
4.1336659313
 30
0.0
 10
8.9532548755
 20
4.2636958848
 30
0.0
 10
8.9270618035
 20
4.3880562852
 30
0.0
 10
8.9033958741
 20
4.5055085992
 30
0.0
 10
8.8858434044
 20
4.598576269
 30
0.0
 10
8.8736059651
 20
4.6686648981
 30
0.0
 10
8.8656077324
 20
4.7175410967
 30
0.0
 10
8.8586467168
 20
4.7637619346
 30
0.0
 10
8.8527893045
 20
4.8071732454
 30
0.0
 10
8.8481009704
 20
4.8476209948
 30
0.0
 10
8.8446462843
 20
4.8849524278
 30
0.0
 10
8.842489278
 20
4.9190142323
 30
0.0
 10
8.8419256757
 20
4.9406295713
 30
0.0
 10
8.8419256757
 20
4.9508557116
 30
0.0
  0
LINE
  5
545
100
AcDbEntity
  8
ALL_ASSEMBLY_MEMBERS
100
AcDbLine
 62
9
  6
CONTINUOUS
 10
9.3155257046
 20
5.7694253663
 11
8.8419256757
 21
4.9508557116
  0
SPLINE
  5
546
100
AcDbEntity
  8
ALL_ASSEMBLY_MEMBERS
100
AcDbSpline
 62
7
  6
CONTINUOUS
 70
0
 71
3
 72
14
 73
10
 74
0
 42
0.0000001
 43
0.0000001
 44
0.0000000001
 40
0.0
 40
0.0
 40
0.0
 40
0.0
 40
0.259643333
 40
0.3878114052
 40
0.5145728598
 40
0.6395920409
 40
0.7624679181
 40
0.8828108742
 40
1.0
 40
1.0
 40
1.0
 40
1.0
 10
9.2144256757
 20
3.035996037
 30
0.0
 10
9.2348274642
 20
2.9987442512
 30
0.0
 10
9.2663014645
 20
2.9436385217
 30
0.0
 10
9.3103942658
 20
2.8719303387
 30
0.0
 10
9.3441834051
 20
2.8197573307
 30
0.0
 10
9.3788321296
 20
2.7691958744
 30
0.0
 10
9.4143413135
 20
2.7205258298
 30
0.0
 10
9.4506590518
 20
2.6740699871
 30
0.0
 10
9.475758758
 20
2.6443909268
 30
0.0
 10
9.4884739369
 20
2.6300448747
 30
0.0
  0
SPLINE
  5
547
100
AcDbEntity
  8
ALL_ASSEMBLY_MEMBERS
100
AcDbSpline
 62
7
  6
CONTINUOUS
 70
0
 71
3
 72
9
 73
5
 74
0
 42
0.0000001
 43
0.0000001
 44
0.0000000001
 40
0.0
 40
0.0
 40
0.0
 40
0.0
 40
0.5094371694
 40
1.0
 40
1.0
 40
1.0
 40
1.0
 10
9.4884739369
 20
2.6300448747
 30
0.0
 10
9.4997861531
 20
2.6172817319
 30
0.0
 10
9.5225123299
 20
2.5926835392
 30
0.0
 10
9.5464254671
 20
2.569227036
 30
0.0
 10
9.5584931457
 20
2.5580878366
 30
0.0
  0
SPLINE
  5
548
100
AcDbEntity
  8
ALL_ASSEMBLY_MEMBERS
100
AcDbSpline
 62
7
  6
CONTINUOUS
 70
0
 71
3
 72
9
 73
5
 74
0
 42
0.0000001
 43
0.0000001
 44
0.0000000001
 40
0.0
 40
0.0
 40
0.0
 40
0.0
 40
0.2541529215
 40
1.0
 40
1.0
 40
1.0
 40
1.0
 10
9.5584931457
 20
2.5580878366
 30
0.0
 10
9.560985511
 20
2.5557872323
 30
0.0
 10
9.5708491613
 20
2.5467974076
 30
0.0
 10
9.5809487725
 20
2.5380650951
 30
0.0
 10
9.5886266094
 20
2.5317302533
 30
0.0
  0
SPLINE
  5
549
100
AcDbEntity
  8
ALL_ASSEMBLY_MEMBERS
100
AcDbSpline
 62
7
  6
CONTINUOUS
 70
0
 71
3
 72
34
 73
30
 74
0
 42
0.0000001
 43
0.0000001
 44
0.0000000001
 40
0.0
 40
0.0
 40
0.0
 40
0.0
 40
0.0342222646
 40
0.066838841
 40
0.097744992
 40
0.1268928609
 40
0.1543197967
 40
0.18015405
 40
0.2046140935
 40
0.228044957
 40
0.2508877545
 40
0.2735922339
 40
0.2965942401
 40
0.3202681967
 40
0.3448744819
 40
0.3705720093
 40
0.3974612164
 40
0.4255794136
 40
0.4549034869
 40
0.4853744029
 40
0.5169483212
 40
0.5495724203
 40
0.5831753195
 40
0.6176725208
 40
0.6891002644
 40
0.7634460475
 40
0.8402640939
 40
0.9192144122
 40
1.0
 40
1.0
 40
1.0
 40
1.0
 10
9.611451613
 20
2.5137975185
 30
0.0
 10
9.6190785667
 20
2.5081126428
 30
0.0
 10
9.6342732189
 20
2.4974008061
 30
0.0
 10
9.6574297658
 20
2.4831520173
 30
0.0
 10
9.6803162253
 20
2.4712723417
 30
0.0
 10
9.7028194682
 20
2.4619639144
 30
0.0
 10
9.7248121745
 20
2.4553974499
 30
0.0
 10
9.7461477367
 20
2.4516619002
 30
0.0
 10
9.7666974055
 20
2.4508783296
 30
0.0
 10
9.7863103794
 20
2.4531287745
 30
0.0
 10
9.8048535807
 20
2.4583167522
 30
0.0
 10
9.8222177892
 20
2.4663573928
 30
0.0
 10
9.8383051117
 20
2.4771215072
 30
0.0
 10
9.8531194722
 20
2.4903638191
 30
0.0
 10
9.8666890198
 20
2.5058734492
 30
0.0
 10
9.8790444058
 20
2.5234579603
 30
0.0
 10
9.8902430306
 20
2.5429254513
 30
0.0
 10
9.9003553952
 20
2.5640943024
 30
0.0
 10
9.9094494109
 20
2.5867911081
 30
0.0
 10
9.9175953427
 20
2.6108579235
 30
0.0
 10
9.9248480933
 20
2.6361619295
 30
0.0
 10
9.9312688172
 20
2.6625845057
 30
0.0
 10
9.9369189246
 20
2.6900112259
 30
0.0
 10
9.9435889433
 20
2.7282218068
 30
0.0
 10
9.9502128397
 20
2.7779123727
 30
0.0
 10
9.9558075659
 20
2.839544157
 30
0.0
 10
9.9595012511
 20
2.9034101581
 30
0.0
 10
9.9615341183
 20
2.9691382666
 30
0.0
 10
9.9619256757
 20
3.013540616
 30
0.0
 10
9.9619256757
 20
3.035996037
 30
0.0
  0
LINE
  5
54A
100
AcDbEntity
  8
ALL_ASSEMBLY_MEMBERS
100
AcDbLine
 62
9
  6
CONTINUOUS
 10
7.6183256467
 20
5.7694253663
 11
8.0919256757
 21
4.9508557116
  0
SPLINE
  5
54B
100
AcDbEntity
  8
ALL_ASSEMBLY_MEMBERS
100
AcDbSpline
 62
7
  6
CONTINUOUS
 70
0
 71
3
 72
29
 73
25
 74
0
 42
0.0000001
 43
0.0000001
 44
0.0000000001
 40
0.0
 40
0.0
 40
0.0
 40
0.0
 40
0.008274664
 40
0.0171558912
 40
0.0271320321
 40
0.0385443046
 40
0.0516153037
 40
0.0664787661
 40
0.0832050025
 40
0.1018297771
 40
0.1223673553
 40
0.1448157634
 40
0.1691495705
 40
0.1953309472
 40
0.2530574293
 40
0.3175825554
 40
0.3883575958
 40
0.4647826613
 40
0.5461555573
 40
0.631729966
 40
0.720738189
 40
0.8123944598
 40
0.9058242908
 40
1.0
 40
1.0
 40
1.0
 40
1.0
 10
9.0394256757
 20
7.1678525501
 30
0.0
 10
9.0394256757
 20
7.1662103219
 30
0.0
 10
9.0389212968
 20
7.1627895033
 30
0.0
 10
9.0367311432
 20
7.1578157112
 30
0.0
 10
9.0331711829
 20
7.1529322748
 30
0.0
 10
9.0282743534
 20
7.1481254781
 30
0.0
 10
9.0220500016
 20
7.1433844224
 30
0.0
 10
9.014507706
 20
7.1387088963
 30
0.0
 10
9.005662243
 20
7.1341023479
 30
0.0
 10
8.995530843
 20
7.1295742864
 30
0.0
 10
8.9841331631
 20
7.1251353134
 30
0.0
 10
8.9714929014
 20
7.1207980317
 30
0.0
 10
8.9576403261
 20
7.1165710267
 30
0.0
 10
8.9369148772
 20
7.1109100038
 30
0.0
 10
8.9082023373
 20
7.1042701155
 30
0.0
 10
8.8705571504
 20
7.0971298649
 30
0.0
 10
8.8290338785
 20
7.0906461261
 30
0.0
 10
8.7840314468
 20
7.0848936531
 30
0.0
 10
8.7359829435
 20
7.0799226947
 30
0.0
 10
8.6853498333
 20
7.0757871628
 30
0.0
 10
8.6326083025
 20
7.0725270352
 30
0.0
 10
8.5782581468
 20
7.0701750445
 30
0.0
 10
8.5228500569
 20
7.068757229
 30
0.0
 10
8.4856162242
 20
7.0684389684
 30
0.0
 10
8.4669256757
 20
7.0684389684
 30
0.0
  0
SPLINE
  5
54C
100
AcDbEntity
  8
ALL_ASSEMBLY_MEMBERS
100
AcDbSpline
 62
7
  6
CONTINUOUS
 70
0
 71
3
 72
12
 73
8
 74
0
 42
0.0000001
 43
0.0000001
 44
0.0000000001
 40
0.0
 40
0.0
 40
0.0
 40
0.0
 40
0.1038830339
 40
0.2104517927
 40
0.4391384363
 40
0.6995249465
 40
1.0
 40
1.0
 40
1.0
 40
1.0
 10
7.7344333056
 20
7.1684264414
 30
0.0
 10
7.7344625892
 20
7.1695279539
 30
0.0
 10
7.7346943048
 20
7.1717583703
 30
0.0
 10
7.7358563047
 20
7.1762839149
 30
0.0
 10
7.7387043952
 20
7.1820046301
 30
0.0
 10
7.7439814253
 20
7.1885628475
 30
0.0
 10
7.7484148797
 20
7.1925629491
 30
0.0
 10
7.750895887
 20
7.1945636291
 30
0.0
  0
SPLINE
  5
54D
100
AcDbEntity
  8
ALL_ASSEMBLY_MEMBERS
100
AcDbSpline
 62
7
  6
CONTINUOUS
 70
0
 71
3
 72
15
 73
11
 74
0
 42
0.0000001
 43
0.0000001
 44
0.0000000001
 40
0.0
 40
0.0
 40
0.0
 40
0.0
 40
0.0755011517
 40
0.1648429775
 40
0.2685243014
 40
0.3867487169
 40
0.5195247636
 40
0.6664465227
 40
0.8268453533
 40
1.0
 40
1.0
 40
1.0
 40
1.0
 10
7.750895887
 20
7.1945636291
 30
0.0
 10
7.7547658321
 20
7.197684346
 30
0.0
 10
7.7637989987
 20
7.2037740933
 30
0.0
 10
7.7794712799
 20
7.212003627
 30
0.0
 10
7.7983431098
 20
7.2200426239
 30
0.0
 10
7.8203664707
 20
7.2278479894
 30
0.0
 10
7.8454743965
 20
7.2353693213
 30
0.0
 10
7.8735479949
 20
7.2425794933
 30
0.0
 10
7.9044348033
 20
7.249450856
 30
0.0
 10
7.9259995731
 20
7.2536298375
 30
0.0
 10
7.9372170805
 20
7.2556701567
 30
0.0
  0
SPLINE
  5
54E
100
AcDbEntity
  8
ALL_ASSEMBLY_MEMBERS
100
AcDbSpline
 62
7
  6
CONTINUOUS
 70
0
 71
3
 72
9
 73
5
 74
0
 42
0.0000001
 43
0.0000001
 44
0.0000000001
 40
0.0
 40
0.0
 40
0.0
 40
0.0
 40
0.4755945809
 40
1.0
 40
1.0
 40
1.0
 40
1.0
 10
7.9372170805
 20
7.2556701567
 30
0.0
 10
7.9599238177
 20
7.2598002178
 30
0.0
 10
8.0078693302
 20
7.2673868172
 30
0.0
 10
8.0560461434
 20
7.273281427
 30
0.0
 10
8.081348288
 20
7.2760015397
 30
0.0
  0
SPLINE
  5
54F
100
AcDbEntity
  8
ALL_ASSEMBLY_MEMBERS
100
AcDbSpline
 62
7
  6
CONTINUOUS
 70
0
 71
3
 72
42
 73
38
 74
0
 42
0.0000001
 43
0.0000001
 44
0.0000000001
 40
0.0
 40
0.0
 40
0.0
 40
0.0
 40
0.0000418703
 40
0.0001184363
 40
0.0002302173
 40
0.0003773784
 40
0.0007781424
 40
0.0013211504
 40
0.0020066795
 40
0.0028349672
 40
0.0038062351
 40
0.0049206969
 40
0.0075799328
 40
0.010811728
 40
0.0146125429
 40
0.0189787107
 40
0.0239065601
 40
0.0293924166
 40
0.0354326042
 40
0.0420234457
 40
0.0568423774
 40
0.0738197827
 40
0.0929262269
 40
0.1141322724
 40
0.1374084802
 40
0.1627254096
 40
0.190050078
 40
0.219325671
 40
0.2834630232
 40
0.3546040944
 40
0.4322154788
 40
0.5157637684
 40
0.6046875406
 40
0.6982980107
 40
0.7958702187
 40
0.8966792023
 40
1.0
 40
1.0
 40
1.0
 40
1.0
 10
8.0909069166
 20
8.9383252207
 30
0.0
 10
8.0908988597
 20
8.9383100214
 30
0.0
 10
8.0908890686
 20
8.9382613969
 30
0.0
 10
8.0908745182
 20
8.9381685396
 30
0.0
 10
8.0908606909
 20
8.938031047
 30
0.0
 10
8.0908386626
 20
8.9377610668
 30
0.0
 10
8.0908129653
 20
8.937313415
 30
0.0
 10
8.0907829534
 20
8.9366447404
 30
0.0
 10
8.0907524436
 20
8.9358001981
 30
0.0
 10
8.0907212428
 20
8.9347796692
 30
0.0
 10
8.0906895394
 20
8.9335828414
 30
0.0
 10
8.0906438646
 20
8.9316338778
 30
0.0
 10
8.0905870012
 20
8.9287561811
 30
0.0
 10
8.090520073
 20
8.9247747871
 30
0.0
 10
8.0904512514
 20
8.9200920326
 30
0.0
 10
8.090380575
 20
8.9147124041
 30
0.0
 10
8.0903081114
 20
8.9086404343
 30
0.0
 10
8.0902338878
 20
8.9018806589
 30
0.0
 10
8.090157922
 20
8.8944376133
 30
0.0
 10
8.0900500653
 20
8.8831601452
 30
0.0
 10
8.0899122852
 20
8.8673891389
 30
0.0
 10
8.0897457092
 20
8.8464760839
 30
0.0
 10
8.0895722033
 20
8.8229388207
 30
0.0
 10
8.0893918048
 20
8.79681364
 30
0.0
 10
8.0892045641
 20
8.7681368322
 30
0.0
 10
8.0890105134
 20
8.7369461436
 30
0.0
 10
8.0888097563
 20
8.7032905663
 30
0.0
 10
8.088524276
 20
8.6536856051
 30
0.0
 10
8.0881528827
 20
8.5860786064
 30
0.0
 10
8.0876922867
 20
8.4986127474
 30
0.0
 10
8.0872044367
 20
8.4031718208
 30
0.0
 10
8.0866894709
 20
8.3004248074
 30
0.0
 10
8.0861478537
 20
8.1911045236
 30
0.0
 10
8.0855792569
 20
8.0760224907
 30
0.0
 10
8.0849836702
 20
7.9560574202
 30
0.0
 10
8.0843611447
 20
7.8321028873
 30
0.0
 10
8.0839324593
 20
7.7482360214
 30
0.0
 10
8.0837129395
 20
7.7057866113
 30
0.0
  0
SPLINE
  5
550
100
AcDbEntity
  8
ALL_ASSEMBLY_MEMBERS
100
AcDbSpline
 62
7
  6
CONTINUOUS
 70
0
 71
3
 72
42
 73
38
 74
0
 42
0.0000001
 43
0.0000001
 44
0.0000000001
 40
0.0
 40
0.0
 40
0.0
 40
0.0
 40
0.0000405836
 40
0.000115832
 40
0.0002262962
 40
0.0003721469
 40
0.0007703147
 40
0.0013107629
 40
0.0019937698
 40
0.0028195736
 40
0.0037883961
 40
0.0049004512
 40
0.0075549958
 40
0.0107822956
 40
0.0145788157
 40
0.0189408877
 40
0.0238648386
 40
0.0293469925
 40
0.0353836716
 40
0.0419711971
 40
0.056784068
 40
0.0737561629
 40
0.092858034
 40
0.1140602308
 40
0.1373333008
 40
0.1626477906
 40
0.1899707403
 40
0.2192453809
 40
0.2833830132
 40
0.3545270796
 40
0.4321439365
 40
0.515699938
 40
0.6046334759
 40
0.6982555351
 40
0.7958408324
 40
0.8966640823
 40
1.0
 40
1.0
 40
1.0
 40
1.0
 10
8.8429438768
 20
8.9383262417
 30
0.0
 10
8.8429520675
 20
8.938311718
 30
0.0
 10
8.8429617229
 20
8.9382640206
 30
0.0
 10
8.8429763402
 20
8.9381729089
 30
0.0
 10
8.8429901009
 20
8.9380369823
 30
0.0
 10
8.8430121666
 20
8.9377691898
 30
0.0
 10
8.8430378316
 20
8.9373241725
 30
0.0
 10
8.8430678443
 20
8.9366586665
 30
0.0
 10
8.8430983415
 20
8.935817229
 30
0.0
 10
8.8431295385
 20
8.9347997634
 30
0.0
 10
8.8431612367
 20
8.933605949
 30
0.0
 10
8.8432069129
 20
8.9316609058
 30
0.0
 10
8.8432637729
 20
8.9287879703
 30
0.0
 10
8.8433306937
 20
8.9248121123
 30
0.0
 10
8.8433995092
 20
8.9201346483
 30
0.0
 10
8.8434701808
 20
8.9147600641
 30
0.0
 10
8.8435426404
 20
8.9086928947
 30
0.0
 10
8.8436168607
 20
8.9019376776
 30
0.0
 10
8.8436928239
 20
8.8944989505
 30
0.0
 10
8.8438006816
 20
8.8832267662
 30
0.0
 10
8.8439384621
 20
8.8674617797
 30
0.0
 10
8.8441050371
 20
8.8465552563
 30
0.0
 10
8.8442785444
 20
8.8230236133
 30
0.0
 10
8.8444589466
 20
8.7969031577
 30
0.0
 10
8.8446461932
 20
8.7682301962
 30
0.0
 10
8.844840252
 20
8.7370424763
 30
0.0
 10
8.8450410193
 20
8.7033889676
 30
0.0
 10
8.8453265199
 20
8.6537849427
 30
0.0
 10
8.8456979419
 20
8.5861769268
 30
0.0
 10
8.8461585751
 20
8.4987073923
 30
0.0
 10
8.8466464707
 20
8.4032597296
 30
0.0
 10
8.8471614907
 20
8.3005031915
 30
0.0
 10
8.8477031699
 20
8.1911708639
 30
0.0
 10
8.8482718367
 20
8.0760745725
 30
0.0
 10
8.8488675014
 20
7.9560933898
 30
0.0
 10
8.849490113
 20
7.8321212904
 30
0.0
 10
8.8499188597
 20
7.748242273
 30
0.0
 10
8.8501384118
 20
7.7057866113
 30
0.0
  0
SPLINE
  5
551
100
AcDbEntity
  8
ALL_ASSEMBLY_MEMBERS
100
AcDbSpline
 62
7
  6
CONTINUOUS
 70
0
 71
3
 72
33
 73
29
 74
0
 42
0.0000001
 43
0.0000001
 44
0.0000000001
 40
0.0
 40
0.0
 40
0.0
 40
0.0
 40
0.0615957764
 40
0.0924238688
 40
0.1232806304
 40
0.1541729135
 40
0.1851077675
 40
0.2161100537
 40
0.2471974031
 40
0.3096350812
 40
0.3410629922
 40
0.3726220942
 40
0.4043371026
 40
0.4361686888
 40
0.500000008
 40
0.5638313408
 40
0.5956629288
 40
0.6273779378
 40
0.6589370393
 40
0.6903649348
 40
0.7528025994
 40
0.7838899467
 40
0.8148922313
 40
0.8458270846
 40
0.8767193675
 40
0.9075761289
 40
0.9384042219
 40
1.0
 40
1.0
 40
1.0
 40
1.0
 10
7.7194256757
 20
3.035996037
 30
0.0
 10
7.7390503306
 20
3.0001632255
 30
0.0
 10
7.7700248574
 20
2.947201036
 30
0.0
 10
7.8148465992
 20
2.8787954227
 30
0.0
 10
7.8503692586
 20
2.8286905361
 30
0.0
 10
7.8879258266
 20
2.7799981979
 30
0.0
 10
7.9276987727
 20
2.732968223
 30
0.0
 10
7.9698377733
 20
2.6878555535
 30
0.0
 10
8.029434394
 20
2.6306329454
 30
0.0
 10
8.0944855691
 20
2.5787825034
 30
0.0
 10
8.1650340737
 20
2.53455047
 30
0.0
 10
8.2209574688
 20
2.5057642659
 30
0.0
 10
8.2795894615
 20
2.4822107461
 30
0.0
 10
8.3608779012
 20
2.4587383404
 30
0.0
 10
8.4669257014
 20
2.4463231431
 30
0.0
 10
8.5729734986
 20
2.4587383561
 30
0.0
 10
8.6542619514
 20
2.4822107574
 30
0.0
 10
8.7128939358
 20
2.5057643011
 30
0.0
 10
8.7688173254
 20
2.5345504926
 30
0.0
 10
8.8393658102
 20
2.578782522
 30
0.0
 10
8.9044169622
 20
2.6306329586
 30
0.0
 10
8.9640135785
 20
2.6878555547
 30
0.0
 10
9.0061525785
 20
2.7329682208
 30
0.0
 10
9.0459255225
 20
2.7799981954
 30
0.0
 10
9.0834820891
 20
2.8286905336
 30
0.0
 10
9.1190047509
 20
2.8787954187
 30
0.0
 10
9.1638264935
 20
2.9472010333
 30
0.0
 10
9.1948010202
 20
3.0001632246
 30
0.0
 10
9.2144256757
 20
3.035996037
 30
0.0
  0
SPLINE
  5
552
100
AcDbEntity
  8
ALL_ASSEMBLY_MEMBERS
100
AcDbSpline
 62
9
  6
CONTINUOUS
 70
0
 71
3
 72
22
 73
18
 74
0
 42
0.0000001
 43
0.0000001
 44
0.0000000001
 40
0.0
 40
0.0
 40
0.0
 40
0.0
 40
0.0405014303
 40
0.0830829022
 40
0.1281514703
 40
0.1760269552
 40
0.2269553404
 40
0.2811226449
 40
0.3386674398
 40
0.3996913531
 40
0.4642391828
 40
0.5322072308
 40
0.6034196773
 40
0.6776664708
 40
0.7547117775
 40
0.8343001109
 40
1.0
 40
1.0
 40
1.0
 40
1.0
 10
7.7418040061
 20
7.4532315726
 30
0.0
 10
7.7431460953
 20
7.4590107998
 30
0.0
 10
7.7467117229
 20
7.4706887674
 30
0.0
 10
7.7543428582
 20
7.4878826391
 30
0.0
 10
7.7643317345
 20
7.5050805613
 30
0.0
 10
7.7766415854
 20
7.5222231446
 30
0.0
 10
7.7912399505
 20
7.5392563593
 30
0.0
 10
7.8080960426
 20
7.5561232673
 30
0.0
 10
7.8271800091
 20
7.5727662928
 30
0.0
 10
7.8484598326
 20
7.5891236747
 30
0.0
 10
7.8718812449
 20
7.605122747
 30
0.0
 10
7.8973113029
 20
7.6207610574
 30
0.0
 10
7.9246073604
 20
7.6360221604
 30
0.0
 10
7.9536218048
 20
7.6508871624
 30
0.0
 10
7.984206989
 20
7.6653371135
 30
0.0
 10
8.0274652917
 20
7.6842772192
 30
0.0
 10
8.0609346938
 20
7.6973996834
 30
0.0
 10
8.0837129395
 20
7.7057866113
 30
0.0
  0
LINE
  5
553
100
AcDbEntity
  8
ALL_ASSEMBLY_MEMBERS
100
AcDbLine
 62
7
  6
CONTINUOUS
 10
8.0837129395
 20
7.7057866113
 11
8.0831831018
 21
7.604843262
  0
SPLINE
  5
554
100
AcDbEntity
  8
ALL_ASSEMBLY_MEMBERS
100
AcDbSpline
 62
9
  6
CONTINUOUS
 70
0
 71
3
 72
11
 73
7
 74
0
 42
0.0000001
 43
0.0000001
 44
0.0000000001
 40
0.0
 40
0.0
 40
0.0
 40
0.0
 40
0.2311466979
 40
0.4731848201
 40
0.728758318
 40
1.0
 40
1.0
 40
1.0
 40
1.0
 10
7.7400584198
 20
7.386238119
 30
0.0
 10
7.7409072744
 20
7.3903639042
 30
0.0
 10
7.7432235062
 20
7.3986992064
 30
0.0
 10
7.7483299304
 20
7.4109890415
 30
0.0
 10
7.7551074514
 20
7.4232799638
 30
0.0
 10
7.7605525559
 20
7.4312056664
 30
0.0
 10
7.7635201346
 20
7.4351585534
 30
0.0
  0
SPLINE
  5
555
100
AcDbEntity
  8
ALL_ASSEMBLY_MEMBERS
100
AcDbSpline
 62
9
  6
CONTINUOUS
 70
0
 71
3
 72
17
 73
13
 74
0
 42
0.0000001
 43
0.0000001
 44
0.0000000001
 40
0.0
 40
0.0
 40
0.0
 40
0.0
 40
0.0861666164
 40
0.1333576284
 40
0.1834176984
 40
0.2924064439
 40
0.3514456842
 40
0.4134399191
 40
0.5458302544
 40
0.6885519568
 40
0.8403848121
 40
1.0
 40
1.0
 40
1.0
 40
1.0
 10
7.7635201346
 20
7.4351585534
 30
0.0
 10
7.7698464207
 20
7.4435853201
 30
0.0
 10
7.7808068465
 20
7.4557693641
 30
0.0
 10
7.797349051
 20
7.470924668
 30
0.0
 10
7.8169426119
 20
7.486828441
 30
0.0
 10
7.8390035189
 20
7.50190337
 30
0.0
 10
7.8631994238
 20
7.5162570894
 30
0.0
 10
7.890450789
 20
7.5310304671
 30
0.0
 10
7.9276856638
 20
7.5487876385
 30
0.0
 10
7.9759668466
 20
7.5687088789
 30
0.0
 10
8.0282107563
 20
7.58760119
 30
0.0
 10
8.0644976158
 20
7.5991998633
 30
0.0
 10
8.0831831018
 20
7.604843262
 30
0.0
  0
LINE
  5
556
100
AcDbEntity
  8
ALL_ASSEMBLY_MEMBERS
100
AcDbLine
 62
9
  6
CONTINUOUS
 10
8.0831831018
 20
7.604843262
 11
8.0813483574
 21
7.2760015471
  0
ELLIPSE
  5
557
100
AcDbEntity
  8
ALL_FEATURES
100
AcDbEllipse
 62
7
  6
CONTINUOUS
 10
4.4669256757
 20
3.7055513205
 30
0.0
 11
1.0411369379
 21
0.9898582626
 31
0.0
 40
0.5769821704
 41
-3.1197341656
 42
-2.0725366144
  0
ELLIPSE
  5
558
100
AcDbEntity
  8
ALL_FEATURES
100
AcDbEllipse
 62
7
  6
CONTINUOUS
 10
4.4669256757
 20
3.7055513205
 30
0.0
 11
-1.0411369379
 21
0.9898582626
 31
0.0
 40
0.5769821704
 41
-4.2106486927
 42
-3.1634511416
  0
ELLIPSE
  5
559
100
AcDbEntity
  8
ALL_FEATURES
100
AcDbEllipse
 62
7
  6
CONTINUOUS
 10
12.4669256757
 20
3.7055513205
 30
0.0
 11
1.0411369379
 21
0.9898582626
 31
0.0
 40
0.5769821704
 41
-3.1197341656
 42
-2.0725366144
  0
ELLIPSE
  5
55A
100
AcDbEntity
  8
ALL_FEATURES
100
AcDbEllipse
 62
7
  6
CONTINUOUS
 10
12.4669256757
 20
3.7055513205
 30
0.0
 11
-1.0411369379
 21
0.9898582626
 31
0.0
 40
0.5769821704
 41
-4.2106486927
 42
-3.1634511416
  0
ENDSEC
  0
SECTION
  2
OBJECTS
  0
DICTIONARY
  5
C
100
AcDbDictionary
280
0
281
1
  3
ACAD_GROUP
350
D
  3
ACAD_MLINESTYLE
350
17
  3
ACAD_LAYOUT
350
1A
  3
ACAD_PLOTSETTINGS
350
19
  3
ACAD_PLOTSTYLENAME
350
E
  0
DICTIONARY
  5
D
102
{ACAD_REACTORS
330
C
102
}
100
AcDbDictionary
280
0
281
1
  0
ACDBDICTIONARYWDFLT
  5
E
102
{ACAD_REACTORS
330
C
102
}
100
AcDbDictionary
281
1
  3
Normal
350
F
100
AcDbDictionaryWithDefault
340
F
  0
DICTIONARY
  5
17
102
{ACAD_REACTORS
330
C
102
}
100
AcDbDictionary
280
0
281
1
  3
Standard
350
18
  0
DICTIONARY
  5
19
102
{ACAD_REACTORS
330
C
102
}
100
AcDbDictionary
281
1
  0
DICTIONARY
  5
1A
102
{ACAD_REACTORS
330
C
102
}
100
AcDbDictionary
281
1
  3
Model
350
55B
  3
Layout1
350
55C
  0
ACDBPLACEHOLDER
  5
F
102
{ACAD_REACTORS
330
E
102
}
  0
MLINESTYLE
  5
18
102
{ACAD_REACTORS
330
17
102
}
100
AcDbMlineStyle
  2
STANDARD
 70
0
  3

 62
256
 51
90.0
 52
90.0
 71
2
 49
0.5
 62
256
  6
BYLAYER
 49
-0.5
 62
256
  6
BYLAYER
  0
LAYOUT
  5
55B
102
{ACAD_REACTORS
330
1A
102
}
100
AcDbPlotSettings
  1

  2
none_device
  4
ANSI_B_(17.00_x_11.00_Inches)
  6

 40
0.0
 41
0.0
 42
0.0
 43
0.0
 44
431.8
 45
279.4
 46
0.0
 47
0.0
 48
0.0
 49
0.0
140
0.0
141
0.0
142
1.0
143
1.0
 70
1024
 72
0
 73
0
 74
0
  7

 75
0
147
1.0
148
0.0
149
0.0
100
AcDbLayout
  1
Model
 70
0
 71
0
 10
0.0
 20
0.0
 11
17.0
 21
11.0
 12
0.0
 22
0.0
 32
0.0
 14
0.0
 24
0.0
 34
0.0
 15
0.0
 25
0.0
 35
0.0
146
0.0
 13
0.0
 23
0.0
 33
0.0
 16
1.0
 26
0.0
 36
0.0
 17
0.0
 27
1.0
 37
0.0
 76
0
330
221
345
0
346
0
  0
LAYOUT
  5
55C
102
{ACAD_REACTORS
330
1A
102
}
100
AcDbPlotSettings
  1

  2
none_device
  4
ANSI_B_(17.00_x_11.00_Inches)
  6

 40
0.0
 41
0.0
 42
0.0
 43
0.0
 44
431.8
 45
279.4
 46
0.0
 47
0.0
 48
0.0
 49
0.0
140
0.0
141
0.0
142
1.0
143
1.0
 70
0
 72
0
 73
0
 74
0
  7

 75
0
147
1.0
148
0.0
149
0.0
100
AcDbLayout
  1
Layout1
 70
0
 71
1
 10
0.0
 20
0.0
 11
17.0
 21
11.0
 12
0.0
 22
0.0
 32
0.0
 14
0.0
 24
0.0
 34
0.0
 15
0.0
 25
0.0
 35
0.0
146
0.0
 13
0.0
 23
0.0
 33
0.0
 16
1.0
 26
0.0
 36
0.0
 17
0.0
 27
1.0
 37
0.0
 76
0
330
222
345
0
346
0
  0
ENDSEC
  0
EOF
