999
DXF file: 3-1226_top.dxf
999
Pro/ENGINEER 2014000 by Parametric Technology Corporation
  0
SECTION
  2
HEADER
  9
$ACADVER
  1
AC1015
  9
$DWGCODEPAGE
  3
ANSI_1252
  9
$EXTMAX
 10
22.0
 20
17.0
 30
0.0
  9
$EXTMIN
 10
0.0
 20
0.0
 30
0.0
  9
$LIMMIN
 10
0.0
 20
0.0
  9
$LIMMAX
 10
22.0
 20
17.0
  9
$VIEWCTR
 10
11.0
 20
8.5
  9
$VIEWSIZE
 40
17.0
  9
$CLAYER
  8
0
  9
$LTSCALE
 40
1.21
  9
$CELTYPE
  6
BYLAYER
  9
$DIMSCALE
 40
1.0
  9
$DIMASZ
 40
0.1875
  9
$DIMEXO
 40
0.0625
  9
$DIMDLI
 40
0.836
  9
$DIMEXE
 40
0.125
  9
$DIMCEN
 40
0.198
  9
$DIMLFAC
 40
1.0
  9
$DIMBLK
  1
_CLOSED
  9
$DIMTXT
 40
0.15625
  9
$DIMTOL
 70
0
  9
$DIMLIM
 70
0
  9
$DIMTFAC
 40
1.0
  9
$DIMGAP
 40
0.09
  9
$DIMDSEP
 70
46
  9
$PDMODE
 70
3
  9
$PDSIZE
 40
0.3125
  9
$HANDSEED
  5
404
  9
$TILEMODE
 70
1
  9
$MEASUREMENT
 70
0
  9
$INSUNITS
 70
1
  0
ENDSEC
  0
SECTION
  2
CLASSES
  0
CLASS
  1
ACDBDICTIONARYWDFLT
  2
AcDbDictionaryWithDefault
  3
AutoCAD 2000
 90
0
280
0
281
0
  0
CLASS
  1
ACDBPLACEHOLDER
  2
AcDbPlaceHolder
  3
AutoCAD 2000
 90
0
280
0
281
0
  0
CLASS
  1
LAYOUT
  2
AcDbLayout
  3
AutoCAD 2000
 90
0
280
0
281
0
  0
ENDSEC
  0
SECTION
  2
TABLES
  0
TABLE
  2
VPORT
  5
8
100
AcDbSymbolTable
 70
2
  0
VPORT
  5
1F4
100
AcDbSymbolTableRecord
100
AcDbViewportTableRecord
  2
*ACTIVE
 70
0
 10
0.0
 20
0.0
 11
1.0
 21
1.0
 12
11.0
 22
8.5
 13
0.0
 23
0.0
 14
1.0
 24
1.0
 15
0.0
 25
0.0
 16
0.0
 26
0.0
 36
1.0
 17
0.0
 27
0.0
 37
0.0
 40
17.0
 41
1.2941176471
 42
50.0
 43
0.0
 44
0.0
 50
0.0
 51
0.0
 71
0
 72
100
 73
1
 74
1
 75
0
 76
0
 77
0
 78
0
  0
ENDTAB
  0
TABLE
  2
LTYPE
  5
5
100
AcDbSymbolTable
 70
6
  0
LTYPE
  5
14
100
AcDbSymbolTableRecord
100
AcDbLinetypeTableRecord
  2
BYBLOCK
 70
0
  3

 72
65
 73
0
 40
0.0
  0
LTYPE
  5
15
100
AcDbSymbolTableRecord
100
AcDbLinetypeTableRecord
  2
BYLAYER
 70
0
  3

 72
65
 73
0
 40
0.0
  0
LTYPE
  5
16
100
AcDbSymbolTableRecord
100
AcDbLinetypeTableRecord
  2
CONTINUOUS
 70
64
  3
Solid line
 72
65
 73
0
 40
0.0
  0
LTYPE
  5
1F5
100
AcDbSymbolTableRecord
100
AcDbLinetypeTableRecord
  2
CENTER
 70
64
  3
____ _ ____ _ ____ _ ____ _ ____ _ ____ _ ____
 72
65
 73
4
 40
0.6
 49
0.375
 74
0
 49
-0.075
 74
0
 49
0.075
 74
0
 49
-0.075
 74
0
  0
LTYPE
  5
1F6
100
AcDbSymbolTableRecord
100
AcDbLinetypeTableRecord
  2
HIDDEN
 70
64
  3
- - - - - - - - - - - - - - - - - - - -
 72
65
 73
2
 40
0.2
 49
0.1
 74
0
 49
-0.1
 74
0
  0
LTYPE
  5
1F7
100
AcDbSymbolTableRecord
100
AcDbLinetypeTableRecord
  2
PHANTOM
 70
64
  3
_____ _ _ _____ _ _ _____ _ _ _____
 72
65
 73
6
 40
0.8
 49
0.45
 74
0
 49
-0.05
 74
0
 49
0.1
 74
0
 49
-0.05
 74
0
 49
0.1
 74
0
 49
-0.05
 74
0
  0
LTYPE
  5
1F8
100
AcDbSymbolTableRecord
100
AcDbLinetypeTableRecord
  2
DOT
 70
64
  3
. . . . . . . . . . . . . . . . . . . .
 72
65
 73
2
 40
0.2
 49
0.1
 74
0
 49
-0.1
 74
0
  0
LTYPE
  5
1F9
100
AcDbSymbolTableRecord
100
AcDbLinetypeTableRecord
  2
DASHED
 70
64
  3
- - - - - - - - - - - - - - - - - - - -
 72
65
 73
2
 40
0.2
 49
0.1
 74
0
 49
-0.1
 74
0
  0
ENDTAB
  0
TABLE
  2
LAYER
  5
2
100
AcDbSymbolTable
 70
36
  0
LAYER
  5
10
100
AcDbSymbolTableRecord
100
AcDbLayerTableRecord
  2
0
 70
0
 62
7
  6
CONTINUOUS
370
-3
390
F
  0
LAYER
  5
1FA
100
AcDbSymbolTableRecord
100
AcDbLayerTableRecord
  2
DEFAULT_1
 70
0
 62
7
  6
CENTER
370
-3
390
F
  0
LAYER
  5
1FB
100
AcDbSymbolTableRecord
100
AcDbLayerTableRecord
  2
DEFAULT_2
 70
0
 62
8
  6
HIDDEN
370
-3
390
F
  0
LAYER
  5
1FC
100
AcDbSymbolTableRecord
100
AcDbLayerTableRecord
  2
DEFAULT_3
 70
0
 62
7
  6
PHANTOM
370
-3
390
F
  0
LAYER
  5
1FD
100
AcDbSymbolTableRecord
100
AcDbLayerTableRecord
  2
2-141_ASSY_DATUMS
 70
0
 62
7
  6
CONTINUOUS
370
-3
390
F
  0
LAYER
  5
1FE
100
AcDbSymbolTableRecord
100
AcDbLayerTableRecord
  2
2-142_ASSY_DATUMS
 70
0
 62
7
  6
CONTINUOUS
370
-3
390
F
  0
LAYER
  5
1FF
100
AcDbSymbolTableRecord
100
AcDbLayerTableRecord
  2
ALL_ASSEMBLY_MEMBERS
 70
0
 62
7
  6
CONTINUOUS
370
-3
390
F
  0
LAYER
  5
200
100
AcDbSymbolTableRecord
100
AcDbLayerTableRecord
  2
ALL_FEATURES
 70
0
 62
7
  6
CONTINUOUS
370
-3
390
F
  0
LAYER
  5
201
100
AcDbSymbolTableRecord
100
AcDbLayerTableRecord
  2
AXES_FEATURES
 70
0
 62
7
  6
CONTINUOUS
370
-3
390
F
  0
LAYER
  5
202
100
AcDbSymbolTableRecord
100
AcDbLayerTableRecord
  2
CHAMFER_FEATURES
 70
0
 62
7
  6
CONTINUOUS
370
-3
390
F
  0
LAYER
  5
203
100
AcDbSymbolTableRecord
100
AcDbLayerTableRecord
  2
CURVES_AUX
 70
0
 62
7
  6
CONTINUOUS
370
-3
390
F
  0
LAYER
  5
204
100
AcDbSymbolTableRecord
100
AcDbLayerTableRecord
  2
CURVES_REF
 70
0
 62
7
  6
CONTINUOUS
370
-3
390
F
  0
LAYER
  5
205
100
AcDbSymbolTableRecord
100
AcDbLayerTableRecord
  2
CUT_FEATURES
 70
0
 62
7
  6
CONTINUOUS
370
-3
390
F
  0
LAYER
  5
206
100
AcDbSymbolTableRecord
100
AcDbLayerTableRecord
  2
DATUM_CURVES
 70
0
 62
7
  6
CONTINUOUS
370
-3
390
F
  0
LAYER
  5
207
100
AcDbSymbolTableRecord
100
AcDbLayerTableRecord
  2
DATUM_PLANES
 70
0
 62
7
  6
CONTINUOUS
370
-3
390
F
  0
LAYER
  5
208
100
AcDbSymbolTableRecord
100
AcDbLayerTableRecord
  2
DATUM_SHAPER
 70
0
 62
7
  6
CONTINUOUS
370
-3
390
F
  0
LAYER
  5
209
100
AcDbSymbolTableRecord
100
AcDbLayerTableRecord
  2
DEFAULT_COORDINATE_SYSTEM
 70
0
 62
7
  6
CONTINUOUS
370
-3
390
F
  0
LAYER
  5
20A
100
AcDbSymbolTableRecord
100
AcDbLayerTableRecord
  2
DEFAULT_DATUM_AXES
 70
0
 62
7
  6
CONTINUOUS
370
-3
390
F
  0
LAYER
  5
20B
100
AcDbSymbolTableRecord
100
AcDbLayerTableRecord
  2
DEFAULT_DATUM_CURVES
 70
0
 62
7
  6
CONTINUOUS
370
-3
390
F
  0
LAYER
  5
20C
100
AcDbSymbolTableRecord
100
AcDbLayerTableRecord
  2
DEFAULT_DATUM_PLANES
 70
0
 62
7
  6
CONTINUOUS
370
-3
390
F
  0
LAYER
  5
20D
100
AcDbSymbolTableRecord
100
AcDbLayerTableRecord
  2
DEFAULT_SURFACES
 70
0
 62
7
  6
CONTINUOUS
370
-3
390
F
  0
LAYER
  5
20E
100
AcDbSymbolTableRecord
100
AcDbLayerTableRecord
  2
DIMENSIONS
 70
0
 62
7
  6
CONTINUOUS
370
-3
390
F
  0
LAYER
  5
20F
100
AcDbSymbolTableRecord
100
AcDbLayerTableRecord
  2
HOLE_FEATURES
 70
0
 62
7
  6
CONTINUOUS
370
-3
390
F
  0
LAYER
  5
210
100
AcDbSymbolTableRecord
100
AcDbLayerTableRecord
  2
LAY0001
 70
0
 62
7
  6
CONTINUOUS
370
-3
390
F
  0
LAYER
  5
211
100
AcDbSymbolTableRecord
100
AcDbLayerTableRecord
  2
NOTES
 70
0
 62
7
  6
CONTINUOUS
370
-3
390
F
  0
LAYER
  5
212
100
AcDbSymbolTableRecord
100
AcDbLayerTableRecord
  2
PART_REFERENCE_DIMENSIONS
 70
0
 62
7
  6
CONTINUOUS
370
-3
390
F
  0
LAYER
  5
213
100
AcDbSymbolTableRecord
100
AcDbLayerTableRecord
  2
PLATED_SURAFCE
 70
0
 62
7
  6
CONTINUOUS
370
-3
390
F
  0
LAYER
  5
214
100
AcDbSymbolTableRecord
100
AcDbLayerTableRecord
  2
PLATED_SURFACE_AREA
 70
0
 62
7
  6
CONTINUOUS
370
-3
390
F
  0
LAYER
  5
215
100
AcDbSymbolTableRecord
100
AcDbLayerTableRecord
  2
PROTRUSION_FEATURES
 70
0
 62
7
  6
CONTINUOUS
370
-3
390
F
  0
LAYER
  5
216
100
AcDbSymbolTableRecord
100
AcDbLayerTableRecord
  2
QUILT
 70
0
 62
7
  6
CONTINUOUS
370
-3
390
F
  0
LAYER
  5
217
100
AcDbSymbolTableRecord
100
AcDbLayerTableRecord
  2
QUILTS
 70
0
 62
7
  6
CONTINUOUS
370
-3
390
F
  0
LAYER
  5
218
100
AcDbSymbolTableRecord
100
AcDbLayerTableRecord
  2
REFERENCE_DIMENSIONS
 70
0
 62
7
  6
CONTINUOUS
370
-3
390
F
  0
LAYER
  5
219
100
AcDbSymbolTableRecord
100
AcDbLayerTableRecord
  2
REF_PROT
 70
0
 62
7
  6
CONTINUOUS
370
-3
390
F
  0
LAYER
  5
21A
100
AcDbSymbolTableRecord
100
AcDbLayerTableRecord
  2
ROUND_FEATURES
 70
0
 62
7
  6
CONTINUOUS
370
-3
390
F
  0
LAYER
  5
21B
100
AcDbSymbolTableRecord
100
AcDbLayerTableRecord
  2
SURFACE_FEATURES
 70
0
 62
7
  6
CONTINUOUS
370
-3
390
F
  0
LAYER
  5
21C
100
AcDbSymbolTableRecord
100
AcDbLayerTableRecord
  2
SURFS_REF
 70
0
 62
7
  6
CONTINUOUS
370
-3
390
F
  0
LAYER
  5
21D
100
AcDbSymbolTableRecord
100
AcDbLayerTableRecord
  2
SURF_MERGES_REF
 70
0
 62
7
  6
CONTINUOUS
370
-3
390
F
  0
LAYER
  5
21E
100
AcDbSymbolTableRecord
100
AcDbLayerTableRecord
  2
XSEC_DATUMS
 70
0
 62
7
  6
CONTINUOUS
370
-3
390
F
  0
ENDTAB
  0
TABLE
  2
STYLE
  5
3
100
AcDbSymbolTable
 70
1
  0
STYLE
  5
11
100
AcDbSymbolTableRecord
100
AcDbTextStyleTableRecord
  2
STANDARD
 70
0
 40
0.0
 41
0.8
 50
0.0
 71
0
 42
0.2
  3
txt
  4

  0
STYLE
  5
21F
100
AcDbSymbolTableRecord
100
AcDbTextStyleTableRecord
  2
TEXTSTYLE_1
 70
0
 40
0.0
 41
0.8
 50
0.0
 71
0
 42
0.2
  3
gdt
  4

  0
ENDTAB
  0
TABLE
  2
VIEW
  5
6
100
AcDbSymbolTable
 70
0
  0
ENDTAB
  0
TABLE
  2
UCS
  5
7
100
AcDbSymbolTable
 70
0
  0
ENDTAB
  0
TABLE
  2
APPID
  5
9
100
AcDbSymbolTable
 70
1
  0
APPID
  5
220
100
AcDbSymbolTableRecord
100
AcDbRegAppTableRecord
  2
ACAD
 70
0
  0
ENDTAB
  0
TABLE
  2
BLOCK_RECORD
  5
1
100
AcDbSymbolTable
 70
0
  0
BLOCK_RECORD
  5
221
100
AcDbSymbolTableRecord
100
AcDbBlockTableRecord
  2
*Model_Space
  0
BLOCK_RECORD
  5
222
100
AcDbSymbolTableRecord
100
AcDbBlockTableRecord
  2
*Paper_Space
  0
ENDTAB
  0
TABLE
  2
DIMSTYLE
  5
A
100
AcDbSymbolTable
 70
1
100
AcDbDimStyleTable
 71
0
  0
DIMSTYLE
105
223
100
AcDbSymbolTableRecord
100
AcDbDimStyleTableRecord
  2
STANDARD
 70
0
  3

  4

 40
1.0
 41
0.1875
 42
0.0625
 43
0.38
 44
0.125
 45
0.0
 46
0.0
 47
0.01
 48
0.01
140
0.15625
141
0.09
142
0.0
143
25.4
144
1.0
145
0.0
146
1.0
147
0.09
 71
0.0
 72
0.0
 73
1
 74
1
 75
0
 76
0
 77
0
 78
4
170
0
171
2
172
0
173
0
174
0
175
0
176
0
177
0
178
0
270
2
271
2
272
2
273
2
274
2
275
0
280
0
281
0
282
0
283
1
284
4
285
0
286
0
287
3
288
0
340
11
278
46
  0
ENDTAB
  0
ENDSEC
  0
SECTION
  2
BLOCKS
  0
BLOCK
  5
20
100
AcDbEntity
  8
0
100
AcDbBlockBegin
  2
*Model_Space
 70
0
 10
0.0
 20
0.0
 30
0.0
  3
*Model_Space
  1

  0
ENDBLK
  5
21
100
AcDbEntity
  8
0
100
AcDbBlockEnd
  0
BLOCK
  5
1C
100
AcDbEntity
  8
0
100
AcDbBlockBegin
  2
*Paper_Space
 70
0
 10
0.0
 20
0.0
 30
0.0
  3
*Paper_Space
  1

  0
ENDBLK
  5
1D
100
AcDbEntity
  8
0
100
AcDbBlockEnd
  0
ENDSEC
  0
SECTION
  2
ENTITIES
  0
LINE
  5
224
100
AcDbEntity
  8
ALL_FEATURES
100
AcDbLine
 62
9
  6
CONTINUOUS
 10
7.1140035814
 20
13.9743904948
 11
6.333402027
 21
13.5237099773
  0
LINE
  5
225
100
AcDbEntity
  8
ALL_FEATURES
100
AcDbLine
 62
9
  6
CONTINUOUS
 10
7.197559797
 20
13.5174617371
 11
6.7708920468
 21
13.2711249966
  0
LINE
  5
226
100
AcDbEntity
  8
ALL_ASSEMBLY_MEMBERS
100
AcDbLine
 62
7
  6
CONTINUOUS
 10
7.5141893226
 20
13.8815313776
 11
7.5716688392
 21
13.9636206346
  0
LINE
  5
227
100
AcDbEntity
  8
ALL_ASSEMBLY_MEMBERS
100
AcDbLine
 62
7
  6
CONTINUOUS
 10
6.321635547
 20
12.7135873424
 11
6.403724804
 21
12.771066859
  0
LINE
  5
228
100
AcDbEntity
  8
ALL_FEATURES
100
AcDbLine
 62
7
  6
CONTINUOUS
 10
6.8831426797
 20
13.2487415149
 11
6.846402027
 21
13.2275292892
  0
LINE
  5
229
100
AcDbEntity
  8
ALL_ASSEMBLY_MEMBERS
100
AcDbLine
 62
7
  6
CONTINUOUS
 10
7.436402027
 20
13.001339436
 11
7.445402027
 21
13.0228541546
  0
LINE
  5
22A
100
AcDbEntity
  8
ALL_ASSEMBLY_MEMBERS
100
AcDbLine
 62
7
  6
CONTINUOUS
 10
7.1786147314
 20
11.9961769316
 11
7.1211352148
 21
11.9140876746
  0
LINE
  5
22B
100
AcDbEntity
  8
ALL_ASSEMBLY_MEMBERS
100
AcDbLine
 62
7
  6
CONTINUOUS
 10
7.605402027
 20
13.001339436
 11
7.5969167457
 21
12.9928541546
  0
LINE
  5
22C
100
AcDbEntity
  8
ALL_ASSEMBLY_MEMBERS
100
AcDbLine
 62
7
  6
CONTINUOUS
 10
8.371168507
 20
13.1641209668
 11
8.28907925
 21
13.1066414502
  0
LINE
  5
22D
100
AcDbEntity
  8
ALL_FEATURES
100
AcDbLine
 62
7
  6
CONTINUOUS
 10
6.846402027
 20
12.65017902
 11
6.7708920468
 21
12.6065833126
  0
LINE
  5
22E
100
AcDbEntity
  8
ALL_FEATURES
100
AcDbLine
 62
7
  6
CONTINUOUS
 10
6.333402027
 20
12.3539983319
 11
6.31799686
 21
12.3451041546
  0
LINE
  5
22F
100
AcDbEntity
  8
ALL_FEATURES
100
AcDbLine
 62
7
  6
CONTINUOUS
 10
7.846402027
 20
13.2275292892
 11
7.9219120072
 21
13.2711249966
  0
LINE
  5
230
100
AcDbEntity
  8
ALL_FEATURES
100
AcDbLine
 62
7
  6
CONTINUOUS
 10
8.359402027
 20
13.5237099773
 11
8.374807194
 21
13.5326041546
  0
LINE
  5
231
100
AcDbEntity
  8
ALL_FEATURES
100
AcDbLine
 62
7
  6
CONTINUOUS
 10
7.8096947929
 20
12.6289860885
 11
7.846402027
 21
12.65017902
  0
LINE
  5
232
100
AcDbEntity
  8
ALL_ASSEMBLY_MEMBERS
100
AcDbLine
 62
9
  6
CONTINUOUS
 10
6.321635547
 20
12.7135873424
 11
6.321635547
 21
13.1641209668
  0
LINE
  5
233
100
AcDbEntity
  8
ALL_FEATURES
100
AcDbLine
 62
9
  6
CONTINUOUS
 10
6.333402027
 20
13.5237099773
 11
6.333402027
 21
13.1558819888
  0
LINE
  5
234
100
AcDbEntity
  8
ALL_FEATURES
100
AcDbLine
 62
9
  6
CONTINUOUS
 10
6.333402027
 20
12.7218263204
 11
6.333402027
 21
12.3539983319
  0
LINE
  5
235
100
AcDbEntity
  8
ALL_ASSEMBLY_MEMBERS
100
AcDbLine
 62
9
  6
CONTINUOUS
 10
6.403724804
 20
12.771066859
 11
6.403724804
 21
13.1066414502
  0
LINE
  5
236
100
AcDbEntity
  8
ALL_ASSEMBLY_MEMBERS
100
AcDbLine
 62
7
  6
CONTINUOUS
 10
6.428902027
 20
12.7497632649
 11
6.428902027
 21
13.1279450443
  0
LINE
  5
237
100
AcDbEntity
  8
ALL_ASSEMBLY_MEMBERS
100
AcDbLine
 62
9
  6
CONTINUOUS
 10
6.4537651856
 20
12.7479368614
 11
6.4537651856
 21
13.1297714478
  0
LINE
  5
238
100
AcDbEntity
  8
ALL_FEATURES
100
AcDbLine
 62
9
  6
CONTINUOUS
 10
7.495244257
 20
12.3602465722
 11
7.9219120072
 21
12.6065833126
  0
LINE
  5
239
100
AcDbEntity
  8
ALL_FEATURES
100
AcDbLine
 62
9
  6
CONTINUOUS
 10
7.5788004727
 20
11.9033178144
 11
8.359402027
 21
12.3539983319
  0
LINE
  5
23A
100
AcDbEntity
  8
ALL_FEATURES
100
AcDbLine
 62
9
  6
CONTINUOUS
 10
6.7708920468
 20
13.2711249966
 11
6.7708920468
 21
13.0896124517
  0
LINE
  5
23B
100
AcDbEntity
  8
ALL_FEATURES
100
AcDbLine
 62
9
  6
CONTINUOUS
 10
6.7708920468
 20
12.7880958575
 11
6.7708920468
 21
12.6065833126
  0
LINE
  5
23C
100
AcDbEntity
  8
ALL_ASSEMBLY_MEMBERS
100
AcDbLine
 62
9
  6
CONTINUOUS
 10
6.8152360172
 20
13.1255320905
 11
6.81523601
 21
13.1076551978
  0
LINE
  5
23D
100
AcDbEntity
  8
ALL_ASSEMBLY_MEMBERS
100
AcDbLine
 62
9
  6
CONTINUOUS
 10
6.8152360094
 20
12.7700531185
 11
6.8152360172
 21
12.7521762187
  0
LINE
  5
23E
100
AcDbEntity
  8
ALL_FEATURES
100
AcDbLine
 62
7
  6
CONTINUOUS
 10
6.846402027
 20
13.2275292892
 11
6.846402027
 21
13.1851048263
  0
LINE
  5
23F
100
AcDbEntity
  8
ALL_FEATURES
100
AcDbLine
 62
7
  6
CONTINUOUS
 10
6.846402027
 20
12.6925648842
 11
6.846402027
 21
12.65017902
  0
LINE
  5
240
100
AcDbEntity
  8
ALL_ASSEMBLY_MEMBERS
100
AcDbLine
 62
7
  6
CONTINUOUS
 10
7.081402027
 20
12.8538541546
 11
7.081402027
 21
12.8778541546
  0
LINE
  5
241
100
AcDbEntity
  8
ALL_ASSEMBLY_MEMBERS
100
AcDbLine
 62
7
  6
CONTINUOUS
 10
7.081402027
 20
13.0048541546
 11
7.081402027
 21
13.0228541546
  0
LINE
  5
242
100
AcDbEntity
  8
ALL_ASSEMBLY_MEMBERS
100
AcDbLine
 62
7
  6
CONTINUOUS
 10
7.097902027
 20
12.9006521808
 11
7.097902027
 21
12.9820561284
  0
LINE
  5
243
100
AcDbEntity
  8
ALL_ASSEMBLY_MEMBERS
100
AcDbLine
 62
7
  6
CONTINUOUS
 10
7.137902027
 20
12.9288541546
 11
7.137902027
 21
12.9006521808
  0
LINE
  5
244
100
AcDbEntity
  8
ALL_ASSEMBLY_MEMBERS
100
AcDbLine
 62
7
  6
CONTINUOUS
 10
7.138902027
 20
12.9824097789
 11
7.138902027
 21
12.9584097789
  0
LINE
  5
245
100
AcDbEntity
  8
ALL_ASSEMBLY_MEMBERS
100
AcDbLine
 62
7
  6
CONTINUOUS
 10
7.154402027
 20
13.0228541546
 11
7.154402027
 21
13.0048541546
  0
LINE
  5
246
100
AcDbEntity
  8
ALL_ASSEMBLY_MEMBERS
100
AcDbLine
 62
7
  6
CONTINUOUS
 10
7.154402027
 20
12.8778541546
 11
7.154402027
 21
12.8538541546
  0
LINE
  5
247
100
AcDbEntity
  8
ALL_ASSEMBLY_MEMBERS
100
AcDbLine
 62
7
  6
CONTINUOUS
 10
7.171402027
 20
12.8538541546
 11
7.171402027
 21
12.8778541546
  0
LINE
  5
248
100
AcDbEntity
  8
ALL_ASSEMBLY_MEMBERS
100
AcDbLine
 62
7
  6
CONTINUOUS
 10
7.171402027
 20
13.0048541546
 11
7.171402027
 21
13.0228541546
  0
LINE
  5
249
100
AcDbEntity
  8
ALL_ASSEMBLY_MEMBERS
100
AcDbLine
 62
7
  6
CONTINUOUS
 10
7.186902027
 20
12.9584097789
 11
7.186902027
 21
12.9824097789
  0
LINE
  5
24A
100
AcDbEntity
  8
ALL_ASSEMBLY_MEMBERS
100
AcDbLine
 62
7
  6
CONTINUOUS
 10
7.187902027
 20
12.9006521808
 11
7.187902027
 21
12.9288541546
  0
LINE
  5
24B
100
AcDbEntity
  8
ALL_ASSEMBLY_MEMBERS
100
AcDbLine
 62
7
  6
CONTINUOUS
 10
7.227902027
 20
12.9820561284
 11
7.227902027
 21
12.9006521808
  0
LINE
  5
24C
100
AcDbEntity
  8
ALL_ASSEMBLY_MEMBERS
100
AcDbLine
 62
7
  6
CONTINUOUS
 10
7.244402027
 20
13.0228541546
 11
7.244402027
 21
13.0048541546
  0
LINE
  5
24D
100
AcDbEntity
  8
ALL_ASSEMBLY_MEMBERS
100
AcDbLine
 62
7
  6
CONTINUOUS
 10
7.244402027
 20
12.8778541546
 11
7.244402027
 21
12.8538541546
  0
LINE
  5
24E
100
AcDbEntity
  8
ALL_ASSEMBLY_MEMBERS
100
AcDbLine
 62
7
  6
CONTINUOUS
 10
7.484402027
 20
12.8538541546
 11
7.484402027
 21
12.8778541546
  0
LINE
  5
24F
100
AcDbEntity
  8
ALL_ASSEMBLY_MEMBERS
100
AcDbLine
 62
7
  6
CONTINUOUS
 10
7.502902027
 20
12.909314447
 11
7.502902027
 21
13.0019541546
  0
LINE
  5
250
100
AcDbEntity
  8
ALL_ASSEMBLY_MEMBERS
100
AcDbLine
 62
7
  6
CONTINUOUS
 10
7.538902027
 20
13.0019541546
 11
7.538902027
 21
12.909314447
  0
LINE
  5
251
100
AcDbEntity
  8
ALL_ASSEMBLY_MEMBERS
100
AcDbLine
 62
7
  6
CONTINUOUS
 10
7.557402027
 20
12.8778541546
 11
7.557402027
 21
12.8538541546
  0
LINE
  5
252
100
AcDbEntity
  8
0
100
AcDbLine
 62
7
  6
CONTINUOUS
 10
7.846402027
 20
13.2275292892
 11
7.846402027
 21
13.1851048397
  0
LINE
  5
253
100
AcDbEntity
  8
0
100
AcDbLine
 62
7
  6
CONTINUOUS
 10
7.846402027
 20
12.6925648828
 11
7.846402027
 21
12.65017902
  0
LINE
  5
254
100
AcDbEntity
  8
ALL_ASSEMBLY_MEMBERS
100
AcDbLine
 62
9
  6
CONTINUOUS
 10
7.8775680369
 20
12.7521762187
 11
7.877568044
 21
12.7696458254
  0
LINE
  5
255
100
AcDbEntity
  8
ALL_ASSEMBLY_MEMBERS
100
AcDbLine
 62
9
  6
CONTINUOUS
 10
7.8775680446
 20
13.1076551906
 11
7.8775680369
 21
13.1255320905
  0
LINE
  5
256
100
AcDbEntity
  8
ALL_FEATURES
100
AcDbLine
 62
9
  6
CONTINUOUS
 10
7.9219120072
 20
12.6065833126
 11
7.9219120072
 21
12.7880958575
  0
LINE
  5
257
100
AcDbEntity
  8
ALL_FEATURES
100
AcDbLine
 62
9
  6
CONTINUOUS
 10
7.9219120072
 20
13.0896124517
 11
7.9219120072
 21
13.2711249966
  0
LINE
  5
258
100
AcDbEntity
  8
ALL_ASSEMBLY_MEMBERS
100
AcDbLine
 62
7
  6
CONTINUOUS
 10
15.165402027
 20
12.9667942489
 11
15.1480932007
 21
12.9618541546
  0
LINE
  5
259
100
AcDbEntity
  8
ALL_ASSEMBLY_MEMBERS
100
AcDbLine
 62
9
  6
CONTINUOUS
 10
8.2390388684
 20
13.1297714478
 11
8.2390388684
 21
12.7479368614
  0
LINE
  5
25A
100
AcDbEntity
  8
ALL_ASSEMBLY_MEMBERS
100
AcDbLine
 62
7
  6
CONTINUOUS
 10
8.263902027
 20
13.1279450443
 11
8.263902027
 21
12.7497632649
  0
LINE
  5
25B
100
AcDbEntity
  8
ALL_ASSEMBLY_MEMBERS
100
AcDbLine
 62
9
  6
CONTINUOUS
 10
8.28907925
 20
13.1066414502
 11
8.28907925
 21
12.771066859
  0
LINE
  5
25C
100
AcDbEntity
  8
ALL_FEATURES
100
AcDbLine
 62
9
  6
CONTINUOUS
 10
8.359402027
 20
12.3539983319
 11
8.359402027
 21
12.7218263204
  0
LINE
  5
25D
100
AcDbEntity
  8
ALL_FEATURES
100
AcDbLine
 62
9
  6
CONTINUOUS
 10
8.359402027
 20
13.1558819888
 11
8.359402027
 21
13.5237099773
  0
LINE
  5
25E
100
AcDbEntity
  8
ALL_ASSEMBLY_MEMBERS
100
AcDbLine
 62
9
  6
CONTINUOUS
 10
8.371168507
 20
13.1641209668
 11
8.371168507
 21
12.7135873424
  0
LINE
  5
25F
100
AcDbEntity
  8
ALL_ASSEMBLY_MEMBERS
100
AcDbLine
 62
7
  6
CONTINUOUS
 10
10.5381116502
 20
12.9388541546
 11
10.9422568386
 21
13.6388541546
  0
LINE
  5
260
100
AcDbEntity
  8
ALL_FEATURES
100
AcDbLine
 62
9
  6
CONTINUOUS
 10
15.1140035814
 20
13.9743904948
 11
14.333402027
 21
13.5237099773
  0
LINE
  5
261
100
AcDbEntity
  8
ALL_ASSEMBLY_MEMBERS
100
AcDbLine
 62
9
  6
CONTINUOUS
 10
10.971402027
 20
5.6291374964
 11
11.721402027
 21
5.6291374964
  0
LINE
  5
262
100
AcDbEntity
  8
ALL_FEATURES
100
AcDbLine
 62
9
  6
CONTINUOUS
 10
15.197559797
 20
13.5174617371
 11
14.7708920468
 21
13.2711249966
  0
LINE
  5
263
100
AcDbEntity
  8
ALL_FEATURES
100
AcDbLine
 62
7
  6
CONTINUOUS
 10
14.8831426797
 20
13.2487415149
 11
14.846402027
 21
13.2275292892
  0
LINE
  5
264
100
AcDbEntity
  8
ALL_ASSEMBLY_MEMBERS
100
AcDbLine
 62
7
  6
CONTINUOUS
 10
14.321635547
 20
12.7135873424
 11
14.403724804
 21
12.771066859
  0
LINE
  5
265
100
AcDbEntity
  8
ALL_FEATURES
100
AcDbLine
 62
7
  6
CONTINUOUS
 10
14.846402027
 20
12.65017902
 11
14.7708920468
 21
12.6065833126
  0
LINE
  5
266
100
AcDbEntity
  8
ALL_FEATURES
100
AcDbLine
 62
7
  6
CONTINUOUS
 10
14.333402027
 20
12.3539983319
 11
14.31799686
 21
12.3451041546
  0
LINE
  5
267
100
AcDbEntity
  8
ALL_FEATURES
100
AcDbLine
 62
7
  6
CONTINUOUS
 10
15.846402027
 20
13.2275292892
 11
15.9219120072
 21
13.2711249966
  0
LINE
  5
268
100
AcDbEntity
  8
ALL_FEATURES
100
AcDbLine
 62
7
  6
CONTINUOUS
 10
16.359402027
 20
13.5237099773
 11
16.374807194
 21
13.5326041546
  0
LINE
  5
269
100
AcDbEntity
  8
ALL_ASSEMBLY_MEMBERS
100
AcDbLine
 62
9
  6
CONTINUOUS
 10
11.721402027
 20
5.6291374964
 11
12.013902027
 21
5.3905943329
  0
LINE
  5
26A
100
AcDbEntity
  8
ALL_ASSEMBLY_MEMBERS
100
AcDbLine
 62
7
  6
CONTINUOUS
 10
7.596402027
 20
13.0228541546
 11
7.605402027
 21
13.001339436
  0
LINE
  5
26B
100
AcDbEntity
  8
ALL_ASSEMBLY_MEMBERS
100
AcDbLine
 62
7
  6
CONTINUOUS
 10
12.1546924039
 20
12.9388541546
 11
11.862075603
 21
12.4320272137
  0
LINE
  5
26C
100
AcDbEntity
  8
ALL_FEATURES
100
AcDbLine
 62
7
  6
CONTINUOUS
 10
15.8096947929
 20
12.6289860885
 11
15.846402027
 21
12.65017902
  0
LINE
  5
26D
100
AcDbEntity
  8
ALL_FEATURES
100
AcDbLine
 62
9
  6
CONTINUOUS
 10
15.495244257
 20
12.3602465722
 11
15.9219120072
 21
12.6065833126
  0
LINE
  5
26E
100
AcDbEntity
  8
ALL_ASSEMBLY_MEMBERS
100
AcDbLine
 62
7
  6
CONTINUOUS
 10
7.5141893226
 20
11.9961769316
 11
7.5716688392
 21
11.9140876746
  0
LINE
  5
26F
100
AcDbEntity
  8
ALL_ASSEMBLY_MEMBERS
100
AcDbLine
 62
7
  6
CONTINUOUS
 10
12.4235727363
 20
12.2151525942
 11
12.841402027
 21
12.9388541546
  0
LINE
  5
270
100
AcDbEntity
  8
ALL_ASSEMBLY_MEMBERS
100
AcDbLine
 62
7
  6
CONTINUOUS
 10
16.371168507
 20
13.1641209668
 11
16.28907925
 21
13.1066414502
  0
LINE
  5
271
100
AcDbEntity
  8
ALL_FEATURES
100
AcDbLine
 62
9
  6
CONTINUOUS
 10
15.5788004727
 20
11.9033178144
 11
16.359402027
 21
12.3539983319
  0
LINE
  5
272
100
AcDbEntity
  8
ALL_ASSEMBLY_MEMBERS
100
AcDbLine
 62
7
  6
CONTINUOUS
 10
10.9714018433
 20
11.9070272175
 11
10.971402027
 21
5.6291374964
  0
LINE
  5
273
100
AcDbEntity
  8
ALL_ASSEMBLY_MEMBERS
100
AcDbLine
 62
9
  6
CONTINUOUS
 10
11.346402027
 20
11.2765580812
 11
11.346402027
 21
2.9498824755
  0
LINE
  5
274
100
AcDbEntity
  8
ALL_ASSEMBLY_MEMBERS
100
AcDbLine
 62
7
  6
CONTINUOUS
 10
10.6224059647
 20
3.7321007202
 11
10.6212803574
 21
3.7229340082
  0
LINE
  5
275
100
AcDbEntity
  8
ALL_ASSEMBLY_MEMBERS
100
AcDbLine
 62
7
  6
CONTINUOUS
 10
7.1786147314
 20
13.8815313776
 11
7.1211352148
 21
13.9636206346
  0
LINE
  5
276
100
AcDbEntity
  8
ALL_ASSEMBLY_MEMBERS
100
AcDbLine
 62
7
  6
CONTINUOUS
 10
11.7214022107
 20
11.9070272178
 11
11.721402027
 21
5.6291374964
  0
LINE
  5
277
100
AcDbEntity
  8
ALL_ASSEMBLY_MEMBERS
100
AcDbLine
 62
7
  6
CONTINUOUS
 10
15.5141893226
 20
13.8815313776
 11
15.5716688392
 21
13.9636206346
  0
LINE
  5
278
100
AcDbEntity
  8
ALL_ASSEMBLY_MEMBERS
100
AcDbLine
 62
7
  6
CONTINUOUS
 10
7.4448873084
 20
12.9928541546
 11
7.436402027
 21
13.001339436
  0
LINE
  5
279
100
AcDbEntity
  8
ALL_ASSEMBLY_MEMBERS
100
AcDbLine
 62
7
  6
CONTINUOUS
 10
12.0703995026
 20
3.7320880885
 11
12.0715236966
 21
3.7229340082
  0
LINE
  5
27A
100
AcDbEntity
  8
ALL_FEATURES
100
AcDbLine
 62
9
  6
CONTINUOUS
 10
6.333402027
 20
12.3539983319
 11
7.1140035814
 21
11.9033178144
  0
LINE
  5
27B
100
AcDbEntity
  8
ALL_ASSEMBLY_MEMBERS
100
AcDbLine
 62
7
  6
CONTINUOUS
 10
6.321635547
 20
13.1641209668
 11
6.403724804
 21
13.1066414502
  0
LINE
  5
27C
100
AcDbEntity
  8
ALL_ASSEMBLY_MEMBERS
100
AcDbLine
 62
7
  6
CONTINUOUS
 10
10.2692313177
 20
12.2151525942
 11
9.851402027
 21
12.9388541546
  0
LINE
  5
27D
100
AcDbEntity
  8
ALL_ASSEMBLY_MEMBERS
100
AcDbLine
 62
7
  6
CONTINUOUS
 10
15.493567217
 20
12.8910910289
 11
15.5068469637
 21
12.9130320781
  0
LINE
  5
27E
100
AcDbEntity
  8
ALL_ASSEMBLY_MEMBERS
100
AcDbLine
 62
7
  6
CONTINUOUS
 10
15.1786147314
 20
11.9961769316
 11
15.1211352148
 21
11.9140876746
  0
LINE
  5
27F
100
AcDbEntity
  8
ALL_FEATURES
100
AcDbLine
 62
9
  6
CONTINUOUS
 10
6.7708920468
 20
12.6065833126
 11
7.197559797
 21
12.3602465722
  0
LINE
  5
280
100
AcDbEntity
  8
ALL_FEATURES
100
AcDbLine
 62
7
  6
CONTINUOUS
 10
6.846402027
 20
12.65017902
 11
6.88310926
 21
12.6289860892
  0
LINE
  5
281
100
AcDbEntity
  8
ALL_ASSEMBLY_MEMBERS
100
AcDbLine
 62
7
  6
CONTINUOUS
 10
10.5381116502
 20
12.9388541546
 11
10.8307284511
 21
12.4320272136
  0
LINE
  5
282
100
AcDbEntity
  8
ALL_ASSEMBLY_MEMBERS
100
AcDbLine
 62
9
  6
CONTINUOUS
 10
10.678902027
 20
5.3905943329
 11
10.971402027
 21
5.6291374964
  0
LINE
  5
283
100
AcDbEntity
  8
ALL_FEATURES
100
AcDbLine
 62
7
  6
CONTINUOUS
 10
7.846402027
 20
12.65017902
 11
7.9219120072
 21
12.6065833126
  0
LINE
  5
284
100
AcDbEntity
  8
ALL_FEATURES
100
AcDbLine
 62
7
  6
CONTINUOUS
 10
8.359402027
 20
12.3539983319
 11
8.374807194
 21
12.3451041546
  0
LINE
  5
285
100
AcDbEntity
  8
ALL_FEATURES
100
AcDbLine
 62
7
  6
CONTINUOUS
 10
6.846402027
 20
13.2275292892
 11
6.7708920468
 21
13.2711249966
  0
LINE
  5
286
100
AcDbEntity
  8
ALL_FEATURES
100
AcDbLine
 62
7
  6
CONTINUOUS
 10
6.333402027
 20
13.5237099773
 11
6.31799686
 21
13.5326041546
  0
LINE
  5
287
100
AcDbEntity
  8
ALL_ASSEMBLY_MEMBERS
100
AcDbLine
 62
7
  6
CONTINUOUS
 10
8.371168507
 20
12.7135873424
 11
8.28907925
 21
12.771066859
  0
LINE
  5
288
100
AcDbEntity
  8
ALL_ASSEMBLY_MEMBERS
100
AcDbLine
 62
9
  6
CONTINUOUS
 10
11.721402199
 20
11.2765580872
 11
10.971401855
 21
11.2765580872
  0
LINE
  5
289
100
AcDbEntity
  8
ALL_FEATURES
100
AcDbLine
 62
7
  6
CONTINUOUS
 10
7.846402027
 20
13.2275292892
 11
7.8096613629
 21
13.2487415215
  0
LINE
  5
28A
100
AcDbEntity
  8
ALL_FEATURES
100
AcDbLine
 62
9
  6
CONTINUOUS
 10
7.9219120072
 20
13.2711249966
 11
7.495244257
 21
13.5174617371
  0
LINE
  5
28B
100
AcDbEntity
  8
ALL_ASSEMBLY_MEMBERS
100
AcDbLine
 62
9
  6
CONTINUOUS
 10
14.321635547
 20
12.7135873424
 11
14.321635547
 21
13.1641209668
  0
LINE
  5
28C
100
AcDbEntity
  8
ALL_FEATURES
100
AcDbLine
 62
9
  6
CONTINUOUS
 10
14.333402027
 20
13.5237099773
 11
14.333402027
 21
13.1558819888
  0
LINE
  5
28D
100
AcDbEntity
  8
ALL_FEATURES
100
AcDbLine
 62
9
  6
CONTINUOUS
 10
14.333402027
 20
12.7218263204
 11
14.333402027
 21
12.3539983319
  0
LINE
  5
28E
100
AcDbEntity
  8
ALL_ASSEMBLY_MEMBERS
100
AcDbLine
 62
9
  6
CONTINUOUS
 10
14.403724804
 20
12.771066859
 11
14.403724804
 21
13.1066414502
  0
LINE
  5
28F
100
AcDbEntity
  8
ALL_ASSEMBLY_MEMBERS
100
AcDbLine
 62
7
  6
CONTINUOUS
 10
14.428902027
 20
12.7497632649
 11
14.428902027
 21
13.1279450443
  0
LINE
  5
290
100
AcDbEntity
  8
ALL_ASSEMBLY_MEMBERS
100
AcDbLine
 62
9
  6
CONTINUOUS
 10
14.4537651856
 20
12.7479368614
 11
14.4537651856
 21
13.1297714478
  0
LINE
  5
291
100
AcDbEntity
  8
ALL_FEATURES
100
AcDbLine
 62
9
  6
CONTINUOUS
 10
8.359402027
 20
13.5237099773
 11
7.5788004727
 21
13.9743904948
  0
LINE
  5
292
100
AcDbEntity
  8
ALL_ASSEMBLY_MEMBERS
100
AcDbLine
 62
7
  6
CONTINUOUS
 10
11.7505472155
 20
13.6388541546
 11
12.1546924039
 21
12.9388541546
  0
LINE
  5
293
100
AcDbEntity
  8
ALL_FEATURES
100
AcDbLine
 62
9
  6
CONTINUOUS
 10
14.7708920468
 20
13.2711249966
 11
14.7708920468
 21
13.0896124517
  0
LINE
  5
294
100
AcDbEntity
  8
ALL_FEATURES
100
AcDbLine
 62
9
  6
CONTINUOUS
 10
14.7708920468
 20
12.7880958575
 11
14.7708920468
 21
12.6065833126
  0
LINE
  5
295
100
AcDbEntity
  8
ALL_ASSEMBLY_MEMBERS
100
AcDbLine
 62
9
  6
CONTINUOUS
 10
14.8152360172
 20
13.1255320905
 11
14.81523601
 21
13.1076551978
  0
LINE
  5
296
100
AcDbEntity
  8
ALL_ASSEMBLY_MEMBERS
100
AcDbLine
 62
9
  6
CONTINUOUS
 10
14.8152360094
 20
12.7700531185
 11
14.8152360172
 21
12.7521762187
  0
LINE
  5
297
100
AcDbEntity
  8
ALL_FEATURES
100
AcDbLine
 62
7
  6
CONTINUOUS
 10
14.846402027
 20
13.2275292892
 11
14.846402027
 21
13.1851048263
  0
LINE
  5
298
100
AcDbEntity
  8
ALL_FEATURES
100
AcDbLine
 62
7
  6
CONTINUOUS
 10
14.846402027
 20
12.6925648842
 11
14.846402027
 21
12.65017902
  0
LINE
  5
299
100
AcDbEntity
  8
ALL_ASSEMBLY_MEMBERS
100
AcDbLine
 62
7
  6
CONTINUOUS
 10
15.515402027
 20
12.9078541546
 11
15.5058803701
 21
12.8538541546
  0
LINE
  5
29A
100
AcDbEntity
  8
ALL_ASSEMBLY_MEMBERS
100
AcDbLine
 62
9
  6
CONTINUOUS
 10
7.1211352148
 20
11.9140876746
 11
7.5716688392
 21
11.9140876746
  0
LINE
  5
29B
100
AcDbEntity
  8
ALL_ASSEMBLY_MEMBERS
100
AcDbLine
 62
9
  6
CONTINUOUS
 10
15.1211352148
 20
11.9140876746
 11
15.5716688392
 21
11.9140876746
  0
LINE
  5
29C
100
AcDbEntity
  8
ALL_ASSEMBLY_MEMBERS
100
AcDbLine
 62
9
  6
CONTINUOUS
 10
7.1786147314
 20
11.9961769316
 11
7.5141893226
 21
11.9961769316
  0
LINE
  5
29D
100
AcDbEntity
  8
ALL_ASSEMBLY_MEMBERS
100
AcDbLine
 62
9
  6
CONTINUOUS
 10
15.1786147314
 20
11.9961769316
 11
15.5141893226
 21
11.9961769316
  0
LINE
  5
29E
100
AcDbEntity
  8
ALL_ASSEMBLY_MEMBERS
100
AcDbLine
 62
7
  6
CONTINUOUS
 10
7.1573111373
 20
12.0213541546
 11
7.5354929167
 21
12.0213541546
  0
LINE
  5
29F
100
AcDbEntity
  8
ALL_ASSEMBLY_MEMBERS
100
AcDbLine
 62
7
  6
CONTINUOUS
 10
15.1573111373
 20
12.0213541546
 11
15.5354929167
 21
12.0213541546
  0
LINE
  5
2A0
100
AcDbEntity
  8
ALL_ASSEMBLY_MEMBERS
100
AcDbLine
 62
9
  6
CONTINUOUS
 10
7.1554847338
 20
12.0462173132
 11
7.5373193203
 21
12.0462173132
  0
LINE
  5
2A1
100
AcDbEntity
  8
ALL_ASSEMBLY_MEMBERS
100
AcDbLine
 62
9
  6
CONTINUOUS
 10
15.1554847338
 20
12.0462173132
 11
15.5373193203
 21
12.0462173132
  0
LINE
  5
2A2
100
AcDbEntity
  8
ALL_ASSEMBLY_MEMBERS
100
AcDbLine
 62
7
  6
CONTINUOUS
 10
10.9175899933
 20
12.2388541546
 11
11.7752140607
 21
12.2388541546
  0
LINE
  5
2A3
100
AcDbEntity
  8
ALL_ASSEMBLY_MEMBERS
100
AcDbLine
 62
7
  6
CONTINUOUS
 10
15.356402027
 20
12.8538541546
 11
15.356402027
 21
12.8778541546
  0
LINE
  5
2A4
100
AcDbEntity
  8
ALL_ASSEMBLY_MEMBERS
100
AcDbLine
 62
7
  6
CONTINUOUS
 10
15.356402027
 20
13.0048541546
 11
15.356402027
 21
13.0228541546
  0
LINE
  5
2A5
100
AcDbEntity
  8
ALL_ASSEMBLY_MEMBERS
100
AcDbLine
 62
7
  6
CONTINUOUS
 10
15.377902027
 20
12.9066247994
 11
15.377902027
 21
12.9760835098
  0
LINE
  5
2A6
100
AcDbEntity
  8
ALL_ASSEMBLY_MEMBERS
100
AcDbLine
 62
7
  6
CONTINUOUS
 10
15.413902027
 20
12.9760835098
 11
15.413902027
 21
12.9066247994
  0
LINE
  5
2A7
100
AcDbEntity
  8
ALL_ASSEMBLY_MEMBERS
100
AcDbLine
 62
7
  6
CONTINUOUS
 10
15.435402027
 20
13.0228541546
 11
15.435402027
 21
13.0048541546
  0
LINE
  5
2A8
100
AcDbEntity
  8
ALL_ASSEMBLY_MEMBERS
100
AcDbLine
 62
7
  6
CONTINUOUS
 10
15.536402027
 20
12.8538541546
 11
15.536402027
 21
12.8778541546
  0
LINE
  5
2A9
100
AcDbEntity
  8
ALL_ASSEMBLY_MEMBERS
100
AcDbLine
 62
7
  6
CONTINUOUS
 10
15.536402027
 20
13.0048541546
 11
15.536402027
 21
13.0228541546
  0
LINE
  5
2AA
100
AcDbEntity
  8
ALL_ASSEMBLY_MEMBERS
100
AcDbLine
 62
7
  6
CONTINUOUS
 10
15.546402027
 20
12.8939786701
 11
15.546402027
 21
12.9887296391
  0
LINE
  5
2AB
100
AcDbEntity
  8
ALL_ASSEMBLY_MEMBERS
100
AcDbLine
 62
7
  6
CONTINUOUS
 10
15.5826839074
 20
12.8838541546
 11
15.5826839074
 21
12.9988541546
  0
LINE
  5
2AC
100
AcDbEntity
  8
ALL_ASSEMBLY_MEMBERS
100
AcDbLine
 62
9
  6
CONTINUOUS
 10
7.1597240922
 20
12.4076881437
 11
7.1776009847
 21
12.4076881366
  0
LINE
  5
2AD
100
AcDbEntity
  8
ALL_ASSEMBLY_MEMBERS
100
AcDbLine
 62
9
  6
CONTINUOUS
 10
15.5156103364
 20
12.4076881436
 11
15.5330799619
 21
12.4076881437
  0
LINE
  5
2AE
100
AcDbEntity
  8
ALL_ASSEMBLY_MEMBERS
100
AcDbLine
 62
9
  6
CONTINUOUS
 10
7.5156103364
 20
12.4076881436
 11
7.5330799619
 21
12.4076881437
  0
LINE
  5
2AF
100
AcDbEntity
  8
ALL_ASSEMBLY_MEMBERS
100
AcDbLine
 62
9
  6
CONTINUOUS
 10
15.1597240922
 20
12.4076881437
 11
15.1776009847
 21
12.4076881366
  0
LINE
  5
2B0
100
AcDbEntity
  8
ALL_ASSEMBLY_MEMBERS
100
AcDbLine
 62
7
  6
CONTINUOUS
 10
15.620902027
 20
12.8538541546
 11
15.536402027
 21
12.8538541546
  0
LINE
  5
2B1
100
AcDbEntity
  8
ALL_ASSEMBLY_MEMBERS
100
AcDbLine
 62
7
  6
CONTINUOUS
 10
15.5058803701
 20
12.8538541546
 11
15.356402027
 21
12.8538541546
  0
LINE
  5
2B2
100
AcDbEntity
  8
ALL_ASSEMBLY_MEMBERS
100
AcDbLine
 62
7
  6
CONTINUOUS
 10
7.557402027
 20
12.8538541546
 11
7.484402027
 21
12.8538541546
  0
LINE
  5
2B3
100
AcDbEntity
  8
ALL_ASSEMBLY_MEMBERS
100
AcDbLine
 62
7
  6
CONTINUOUS
 10
7.244402027
 20
12.8538541546
 11
7.171402027
 21
12.8538541546
  0
LINE
  5
2B4
100
AcDbEntity
  8
ALL_ASSEMBLY_MEMBERS
100
AcDbLine
 62
7
  6
CONTINUOUS
 10
7.154402027
 20
12.8538541546
 11
7.081402027
 21
12.8538541546
  0
LINE
  5
2B5
100
AcDbEntity
  8
ALL_ASSEMBLY_MEMBERS
100
AcDbLine
 62
7
  6
CONTINUOUS
 10
15.443902027
 20
12.8766247994
 11
15.467902027
 21
12.8766247994
  0
LINE
  5
2B6
100
AcDbEntity
  8
ALL_ASSEMBLY_MEMBERS
100
AcDbLine
 62
7
  6
CONTINUOUS
 10
15.5886839074
 20
12.8778541546
 11
15.6165468152
 21
12.8778541546
  0
LINE
  5
2B7
100
AcDbEntity
  8
0
100
AcDbLine
 62
7
  6
CONTINUOUS
 10
15.846402027
 20
13.2275292892
 11
15.846402027
 21
13.1851048397
  0
LINE
  5
2B8
100
AcDbEntity
  8
0
100
AcDbLine
 62
7
  6
CONTINUOUS
 10
15.846402027
 20
12.6925648828
 11
15.846402027
 21
12.65017902
  0
LINE
  5
2B9
100
AcDbEntity
  8
ALL_ASSEMBLY_MEMBERS
100
AcDbLine
 62
9
  6
CONTINUOUS
 10
15.8775680369
 20
12.7521762187
 11
15.877568044
 21
12.7696458254
  0
LINE
  5
2BA
100
AcDbEntity
  8
ALL_ASSEMBLY_MEMBERS
100
AcDbLine
 62
9
  6
CONTINUOUS
 10
15.8775680446
 20
13.1076551906
 11
15.8775680369
 21
13.1255320905
  0
LINE
  5
2BB
100
AcDbEntity
  8
ALL_FEATURES
100
AcDbLine
 62
9
  6
CONTINUOUS
 10
15.9219120072
 20
12.6065833126
 11
15.9219120072
 21
12.7880958575
  0
LINE
  5
2BC
100
AcDbEntity
  8
ALL_FEATURES
100
AcDbLine
 62
9
  6
CONTINUOUS
 10
15.9219120072
 20
13.0896124517
 11
15.9219120072
 21
13.2711249966
  0
LINE
  5
2BD
100
AcDbEntity
  8
ALL_ASSEMBLY_MEMBERS
100
AcDbLine
 62
9
  6
CONTINUOUS
 10
16.2390388684
 20
13.1297714478
 11
16.2390388684
 21
12.7479368614
  0
LINE
  5
2BE
100
AcDbEntity
  8
ALL_ASSEMBLY_MEMBERS
100
AcDbLine
 62
7
  6
CONTINUOUS
 10
7.181902027
 20
12.9348541546
 11
7.143902027
 21
12.9348541546
  0
LINE
  5
2BF
100
AcDbEntity
  8
ALL_ASSEMBLY_MEMBERS
100
AcDbLine
 62
7
  6
CONTINUOUS
 10
10.5381116502
 20
12.9388541546
 11
9.8878047954
 21
12.9388056324
  0
LINE
  5
2C0
100
AcDbEntity
  8
ALL_ASSEMBLY_MEMBERS
100
AcDbLine
 62
7
  6
CONTINUOUS
 10
7.144902027
 20
12.9524097789
 11
7.180902027
 21
12.9524097789
  0
LINE
  5
2C1
100
AcDbEntity
  8
ALL_ASSEMBLY_MEMBERS
100
AcDbLine
 62
7
  6
CONTINUOUS
 10
15.6165468152
 20
13.0048541546
 11
15.5886839074
 21
13.0048541546
  0
LINE
  5
2C2
100
AcDbEntity
  8
ALL_ASSEMBLY_MEMBERS
100
AcDbLine
 62
7
  6
CONTINUOUS
 10
7.5677047615
 20
13.0049541546
 11
7.541902027
 21
13.0049541546
  0
LINE
  5
2C3
100
AcDbEntity
  8
ALL_ASSEMBLY_MEMBERS
100
AcDbLine
 62
7
  6
CONTINUOUS
 10
7.499902027
 20
13.0049541546
 11
7.4740992925
 21
13.0049541546
  0
LINE
  5
2C4
100
AcDbEntity
  8
ALL_ASSEMBLY_MEMBERS
100
AcDbLine
 62
7
  6
CONTINUOUS
 10
7.081402027
 20
13.0228541546
 11
7.154402027
 21
13.0228541546
  0
LINE
  5
2C5
100
AcDbEntity
  8
ALL_ASSEMBLY_MEMBERS
100
AcDbLine
 62
7
  6
CONTINUOUS
 10
7.171402027
 20
13.0228541546
 11
7.244402027
 21
13.0228541546
  0
LINE
  5
2C6
100
AcDbEntity
  8
ALL_ASSEMBLY_MEMBERS
100
AcDbLine
 62
7
  6
CONTINUOUS
 10
7.445402027
 20
13.0228541546
 11
7.596402027
 21
13.0228541546
  0
LINE
  5
2C7
100
AcDbEntity
  8
ALL_ASSEMBLY_MEMBERS
100
AcDbLine
 62
7
  6
CONTINUOUS
 10
15.131402027
 20
13.0228541546
 11
15.149402027
 21
13.0228541546
  0
LINE
  5
2C8
100
AcDbEntity
  8
ALL_ASSEMBLY_MEMBERS
100
AcDbLine
 62
7
  6
CONTINUOUS
 10
15.356402027
 20
13.0228541546
 11
15.435402027
 21
13.0228541546
  0
LINE
  5
2C9
100
AcDbEntity
  8
ALL_ASSEMBLY_MEMBERS
100
AcDbLine
 62
7
  6
CONTINUOUS
 10
15.536402027
 20
13.0228541546
 11
15.620902027
 21
13.0228541546
  0
LINE
  5
2CA
100
AcDbEntity
  8
ALL_ASSEMBLY_MEMBERS
100
AcDbLine
 62
7
  6
CONTINUOUS
 10
12.1546924039
 20
12.9388541546
 11
12.841402027
 21
12.9388541546
  0
LINE
  5
2CB
100
AcDbEntity
  8
ALL_ASSEMBLY_MEMBERS
100
AcDbLine
 62
7
  6
CONTINUOUS
 10
9.8878047954
 20
12.9388056324
 11
9.851402027
 21
12.9388541546
  0
LINE
  5
2CC
100
AcDbEntity
  8
ALL_FEATURES
100
AcDbLine
 62
9
  6
CONTINUOUS
 10
14.333402027
 20
12.3539983319
 11
15.1140035814
 21
11.9033178144
  0
LINE
  5
2CD
100
AcDbEntity
  8
ALL_ASSEMBLY_MEMBERS
100
AcDbLine
 62
7
  6
CONTINUOUS
 10
15.149402027
 20
13.0228541546
 11
15.165402027
 21
12.9667942489
  0
LINE
  5
2CE
100
AcDbEntity
  8
ALL_ASSEMBLY_MEMBERS
100
AcDbLine
 62
7
  6
CONTINUOUS
 10
16.263902027
 20
13.1279450443
 11
16.263902027
 21
12.7497632649
  0
LINE
  5
2CF
100
AcDbEntity
  8
ALL_ASSEMBLY_MEMBERS
100
AcDbLine
 62
9
  6
CONTINUOUS
 10
16.28907925
 20
13.1066414502
 11
16.28907925
 21
12.771066859
  0
LINE
  5
2D0
100
AcDbEntity
  8
ALL_FEATURES
100
AcDbLine
 62
9
  6
CONTINUOUS
 10
16.359402027
 20
12.3539983319
 11
16.359402027
 21
12.7218263204
  0
LINE
  5
2D1
100
AcDbEntity
  8
ALL_FEATURES
100
AcDbLine
 62
9
  6
CONTINUOUS
 10
16.359402027
 20
13.1558819888
 11
16.359402027
 21
13.5237099773
  0
LINE
  5
2D2
100
AcDbEntity
  8
ALL_ASSEMBLY_MEMBERS
100
AcDbLine
 62
9
  6
CONTINUOUS
 10
16.371168507
 20
13.1641209668
 11
16.371168507
 21
12.7135873424
  0
LINE
  5
2D3
100
AcDbEntity
  8
ALL_ASSEMBLY_MEMBERS
100
AcDbLine
 62
9
  6
CONTINUOUS
 10
7.5330799619
 20
13.4700201655
 11
7.5152030696
 21
13.4700201726
  0
LINE
  5
2D4
100
AcDbEntity
  8
ALL_ASSEMBLY_MEMBERS
100
AcDbLine
 62
9
  6
CONTINUOUS
 10
15.1776009707
 20
13.4700201657
 11
15.1597240922
 21
13.4700201655
  0
LINE
  5
2D5
100
AcDbEntity
  8
ALL_ASSEMBLY_MEMBERS
100
AcDbLine
 62
9
  6
CONTINUOUS
 10
7.1776009707
 20
13.4700201657
 11
7.1597240922
 21
13.4700201655
  0
LINE
  5
2D6
100
AcDbEntity
  8
ALL_ASSEMBLY_MEMBERS
100
AcDbLine
 62
9
  6
CONTINUOUS
 10
15.5330799619
 20
13.4700201655
 11
15.5152030696
 21
13.4700201726
  0
LINE
  5
2D7
100
AcDbEntity
  8
ALL_ASSEMBLY_MEMBERS
100
AcDbLine
 62
7
  6
CONTINUOUS
 10
10.9422568386
 20
13.6388541546
 11
11.7505472155
 21
13.6388541546
  0
LINE
  5
2D8
100
AcDbEntity
  8
ALL_ASSEMBLY_MEMBERS
100
AcDbLine
 62
9
  6
CONTINUOUS
 10
7.1554847338
 20
13.831490996
 11
7.5373193203
 21
13.831490996
  0
LINE
  5
2D9
100
AcDbEntity
  8
ALL_ASSEMBLY_MEMBERS
100
AcDbLine
 62
9
  6
CONTINUOUS
 10
15.1554847338
 20
13.831490996
 11
15.5373193203
 21
13.831490996
  0
LINE
  5
2DA
100
AcDbEntity
  8
ALL_ASSEMBLY_MEMBERS
100
AcDbLine
 62
7
  6
CONTINUOUS
 10
7.1573111373
 20
13.8563541546
 11
7.5354929167
 21
13.8563541546
  0
LINE
  5
2DB
100
AcDbEntity
  8
ALL_ASSEMBLY_MEMBERS
100
AcDbLine
 62
7
  6
CONTINUOUS
 10
15.1573111373
 20
13.8563541546
 11
15.5354929167
 21
13.8563541546
  0
LINE
  5
2DC
100
AcDbEntity
  8
ALL_ASSEMBLY_MEMBERS
100
AcDbLine
 62
9
  6
CONTINUOUS
 10
7.1786147314
 20
13.8815313776
 11
7.5141893226
 21
13.8815313776
  0
LINE
  5
2DD
100
AcDbEntity
  8
ALL_ASSEMBLY_MEMBERS
100
AcDbLine
 62
9
  6
CONTINUOUS
 10
15.1786147314
 20
13.8815313776
 11
15.5141893226
 21
13.8815313776
  0
LINE
  5
2DE
100
AcDbEntity
  8
ALL_ASSEMBLY_MEMBERS
100
AcDbLine
 62
9
  6
CONTINUOUS
 10
7.1211352148
 20
13.9636206346
 11
7.5716688392
 21
13.9636206346
  0
LINE
  5
2DF
100
AcDbEntity
  8
ALL_ASSEMBLY_MEMBERS
100
AcDbLine
 62
9
  6
CONTINUOUS
 10
15.1211352148
 20
13.9636206346
 11
15.5716688392
 21
13.9636206346
  0
LINE
  5
2E0
100
AcDbEntity
  8
ALL_FEATURES
100
AcDbLine
 62
9
  6
CONTINUOUS
 10
14.7708920468
 20
12.6065833126
 11
15.197559797
 21
12.3602465722
  0
LINE
  5
2E1
100
AcDbEntity
  8
ALL_FEATURES
100
AcDbLine
 62
7
  6
CONTINUOUS
 10
14.846402027
 20
12.65017902
 11
14.88310926
 21
12.6289860892
  0
LINE
  5
2E2
100
AcDbEntity
  8
ALL_ASSEMBLY_MEMBERS
100
AcDbLine
 62
7
  6
CONTINUOUS
 10
15.5141893226
 20
11.9961769316
 11
15.5716688392
 21
11.9140876746
  0
LINE
  5
2E3
100
AcDbEntity
  8
ALL_ASSEMBLY_MEMBERS
100
AcDbLine
 62
7
  6
CONTINUOUS
 10
15.1488519154
 20
12.9148541546
 11
15.165402027
 21
12.9077764568
  0
LINE
  5
2E4
100
AcDbEntity
  8
ALL_FEATURES
100
AcDbLine
 62
7
  6
CONTINUOUS
 10
14.846402027
 20
13.2275292892
 11
14.7708920468
 21
13.2711249966
  0
LINE
  5
2E5
100
AcDbEntity
  8
ALL_FEATURES
100
AcDbLine
 62
7
  6
CONTINUOUS
 10
14.333402027
 20
13.5237099773
 11
14.31799686
 21
13.5326041546
  0
LINE
  5
2E6
100
AcDbEntity
  8
ALL_FEATURES
100
AcDbLine
 62
7
  6
CONTINUOUS
 10
15.846402027
 20
12.65017902
 11
15.9219120072
 21
12.6065833126
  0
LINE
  5
2E7
100
AcDbEntity
  8
ALL_FEATURES
100
AcDbLine
 62
7
  6
CONTINUOUS
 10
16.359402027
 20
12.3539983319
 11
16.374807194
 21
12.3451041546
  0
LINE
  5
2E8
100
AcDbEntity
  8
ALL_ASSEMBLY_MEMBERS
100
AcDbLine
 62
7
  6
CONTINUOUS
 10
15.5068469637
 20
12.9130320781
 11
15.515402027
 21
12.9078541546
  0
LINE
  5
2E9
100
AcDbEntity
  8
ALL_ASSEMBLY_MEMBERS
100
AcDbLine
 62
7
  6
CONTINUOUS
 10
14.321635547
 20
13.1641209668
 11
14.403724804
 21
13.1066414502
  0
LINE
  5
2EA
100
AcDbEntity
  8
ALL_FEATURES
100
AcDbLine
 62
7
  6
CONTINUOUS
 10
15.846402027
 20
13.2275292892
 11
15.8096613629
 21
13.2487415215
  0
LINE
  5
2EB
100
AcDbEntity
  8
ALL_FEATURES
100
AcDbLine
 62
9
  6
CONTINUOUS
 10
15.9219120072
 20
13.2711249966
 11
15.495244257
 21
13.5174617371
  0
LINE
  5
2EC
100
AcDbEntity
  8
ALL_ASSEMBLY_MEMBERS
100
AcDbLine
 62
7
  6
CONTINUOUS
 10
16.371168507
 20
12.7135873424
 11
16.28907925
 21
12.771066859
  0
LINE
  5
2ED
100
AcDbEntity
  8
ALL_ASSEMBLY_MEMBERS
100
AcDbLine
 62
7
  6
CONTINUOUS
 10
15.1786147314
 20
13.8815313776
 11
15.1211352148
 21
13.9636206346
  0
LINE
  5
2EE
100
AcDbEntity
  8
ALL_FEATURES
100
AcDbLine
 62
9
  6
CONTINUOUS
 10
16.359402027
 20
13.5237099773
 11
15.5788004727
 21
13.9743904948
  0
ARC
  5
2EF
100
AcDbEntity
  8
ALL_ASSEMBLY_MEMBERS
100
AcDbCircle
 62
7
  6
CONTINUOUS
 10
6.6365260681
 20
12.5773541546
 40
0.25
100
AcDbArc
 50
44.3699285546
 51
136.9739483152
  0
ARC
  5
2F0
100
AcDbEntity
  8
ALL_ASSEMBLY_MEMBERS
100
AcDbCircle
 62
7
  6
CONTINUOUS
 10
6.984902027
 20
12.2289781956
 40
0.25
100
AcDbArc
 50
313.0260516848
 51
45.6300714454
  0
ARC
  5
2F1
100
AcDbEntity
  8
ALL_ASSEMBLY_MEMBERS
100
AcDbCircle
 62
7
  6
CONTINUOUS
 10
6.8373960509
 20
12.7738541546
 40
0.031
100
AcDbArc
 50
224.3699285546
 51
243.1436647045
  0
ARC
  5
2F2
100
AcDbEntity
  8
ALL_ASSEMBLY_MEMBERS
100
AcDbCircle
 62
7
  6
CONTINUOUS
 10
7.181402027
 20
12.4298481785
 40
0.031
100
AcDbArc
 50
206.8563505138
 51
225.6300714454
  0
ARC
  5
2F3
100
AcDbEntity
  8
ALL_ASSEMBLY_MEMBERS
100
AcDbCircle
 62
7
  6
CONTINUOUS
 10
7.251902027
 20
12.9006521808
 40
0.024
100
AcDbArc
 50
180.0
 51
251.7900431357
  0
ARC
  5
2F4
100
AcDbEntity
  8
ALL_ASSEMBLY_MEMBERS
100
AcDbCircle
 62
7
  6
CONTINUOUS
 10
7.163902027
 20
12.9006521808
 40
0.024
100
AcDbArc
 50
288.2099568643
 51
360.0
  0
ARC
  5
2F5
100
AcDbEntity
  8
ALL_ASSEMBLY_MEMBERS
100
AcDbCircle
 62
7
  6
CONTINUOUS
 10
7.161902027
 20
12.9006521808
 40
0.024
100
AcDbArc
 50
180.0
 51
251.7900431357
  0
ARC
  5
2F6
100
AcDbEntity
  8
ALL_ASSEMBLY_MEMBERS
100
AcDbCircle
 62
7
  6
CONTINUOUS
 10
7.073902027
 20
12.9006521808
 40
0.024
100
AcDbArc
 50
288.2099568643
 51
360.0
  0
ARC
  5
2F7
100
AcDbEntity
  8
ALL_ASSEMBLY_MEMBERS
100
AcDbCircle
 62
7
  6
CONTINUOUS
 10
6.412902027
 20
12.7579604263
 40
0.016
100
AcDbArc
 50
0.0
 51
125.0
  0
ARC
  5
2F8
100
AcDbEntity
  8
ALL_ASSEMBLY_MEMBERS
100
AcDbCircle
 62
7
  6
CONTINUOUS
 10
6.4420684891
 20
12.7588541546
 40
0.016
100
AcDbArc
 50
214.6234510997
 51
316.9739483152
  0
ARC
  5
2F9
100
AcDbEntity
  8
ALL_ASSEMBLY_MEMBERS
100
AcDbCircle
 62
7
  6
CONTINUOUS
 10
7.1655082987
 20
12.0053541546
 40
0.016
100
AcDbArc
 50
325.0
 51
90.0
  0
ARC
  5
2FA
100
AcDbEntity
  8
ALL_ASSEMBLY_MEMBERS
100
AcDbCircle
 62
7
  6
CONTINUOUS
 10
7.166402027
 20
12.0345206167
 40
0.016
100
AcDbArc
 50
133.0260516848
 51
235.3765489003
  0
ARC
  5
2FB
100
AcDbEntity
  8
ALL_ASSEMBLY_MEMBERS
100
AcDbCircle
 62
7
  6
CONTINUOUS
 10
7.181902027
 20
12.9288541546
 40
0.006
100
AcDbArc
 50
0.0
 51
90.0
  0
ARC
  5
2FC
100
AcDbEntity
  8
ALL_ASSEMBLY_MEMBERS
100
AcDbCircle
 62
7
  6
CONTINUOUS
 10
7.143902027
 20
12.9288541546
 40
0.006
100
AcDbArc
 50
90.0
 51
180.0
  0
ARC
  5
2FD
100
AcDbEntity
  8
ALL_ASSEMBLY_MEMBERS
100
AcDbCircle
 62
7
  6
CONTINUOUS
 10
6.163902027
 20
12.9388541546
 40
0.275
100
AcDbArc
 50
55.0
 51
305.0
  0
ARC
  5
2FE
100
AcDbEntity
  8
ALL_ASSEMBLY_MEMBERS
100
AcDbCircle
 62
7
  6
CONTINUOUS
 10
6.6365260681
 20
13.3003541546
 40
0.25
100
AcDbArc
 50
223.0260516848
 51
315.6300714454
  0
ARC
  5
2FF
100
AcDbEntity
  8
ALL_ASSEMBLY_MEMBERS
100
AcDbCircle
 62
7
  6
CONTINUOUS
 10
6.984902027
 20
13.6487301136
 40
0.25
100
AcDbArc
 50
314.3699285546
 51
46.9739483152
  0
ARC
  5
300
100
AcDbEntity
  8
ALL_ASSEMBLY_MEMBERS
100
AcDbCircle
 62
7
  6
CONTINUOUS
 10
6.8373960509
 20
13.1038541546
 40
0.031
100
AcDbArc
 50
116.8563471109
 51
135.6300714454
  0
ARC
  5
301
100
AcDbEntity
  8
ALL_ASSEMBLY_MEMBERS
100
AcDbCircle
 62
7
  6
CONTINUOUS
 10
7.181402027
 20
13.4478601308
 40
0.031
100
AcDbArc
 50
134.3699285546
 51
153.1436644189
  0
ARC
  5
302
100
AcDbEntity
  8
ALL_ASSEMBLY_MEMBERS
100
AcDbCircle
 62
7
  6
CONTINUOUS
 10
7.073902027
 20
12.9820561284
 40
0.024
100
AcDbArc
 50
0.0
 51
71.7900431357
  0
ARC
  5
303
100
AcDbEntity
  8
ALL_ASSEMBLY_MEMBERS
100
AcDbCircle
 62
7
  6
CONTINUOUS
 10
7.162902027
 20
12.9824097789
 40
0.024
100
AcDbArc
 50
110.7423799545
 51
180.0
  0
ARC
  5
304
100
AcDbEntity
  8
ALL_ASSEMBLY_MEMBERS
100
AcDbCircle
 62
7
  6
CONTINUOUS
 10
7.162902027
 20
12.9824097789
 40
0.024
100
AcDbArc
 50
0.0
 51
69.2576200455
  0
ARC
  5
305
100
AcDbEntity
  8
ALL_ASSEMBLY_MEMBERS
100
AcDbCircle
 62
7
  6
CONTINUOUS
 10
7.251902027
 20
12.9820561284
 40
0.024
100
AcDbArc
 50
108.2099568643
 51
180.0
  0
ARC
  5
306
100
AcDbEntity
  8
ALL_ASSEMBLY_MEMBERS
100
AcDbCircle
 62
7
  6
CONTINUOUS
 10
6.412902027
 20
13.1197478829
 40
0.016
100
AcDbArc
 50
235.0
 51
360.0
  0
ARC
  5
307
100
AcDbEntity
  8
ALL_ASSEMBLY_MEMBERS
100
AcDbCircle
 62
7
  6
CONTINUOUS
 10
6.4420684891
 20
13.1188541546
 40
0.016
100
AcDbArc
 50
43.0260516848
 51
145.3765489003
  0
ARC
  5
308
100
AcDbEntity
  8
ALL_ASSEMBLY_MEMBERS
100
AcDbCircle
 62
7
  6
CONTINUOUS
 10
7.1655082987
 20
13.8723541546
 40
0.016
100
AcDbArc
 50
270.0
 51
35.0
  0
ARC
  5
309
100
AcDbEntity
  8
ALL_ASSEMBLY_MEMBERS
100
AcDbCircle
 62
7
  6
CONTINUOUS
 10
7.166402027
 20
13.8431876925
 40
0.016
100
AcDbArc
 50
124.6234510997
 51
226.9739483152
  0
ARC
  5
30A
100
AcDbEntity
  8
ALL_ASSEMBLY_MEMBERS
100
AcDbCircle
 62
7
  6
CONTINUOUS
 10
7.144902027
 20
12.9584097789
 40
0.006
100
AcDbArc
 50
180.0
 51
270.0
  0
ARC
  5
30B
100
AcDbEntity
  8
ALL_ASSEMBLY_MEMBERS
100
AcDbCircle
 62
7
  6
CONTINUOUS
 10
7.180902027
 20
12.9584097789
 40
0.006
100
AcDbArc
 50
270.0
 51
360.0
  0
ARC
  5
30C
100
AcDbEntity
  8
ALL_ASSEMBLY_MEMBERS
100
AcDbCircle
 62
7
  6
CONTINUOUS
 10
7.346402027
 20
11.7563541546
 40
0.275
100
AcDbArc
 50
145.0
 51
35.0
  0
ARC
  5
30D
100
AcDbEntity
  8
ALL_ASSEMBLY_MEMBERS
100
AcDbCircle
 62
7
  6
CONTINUOUS
 10
8.056277986
 20
12.5773541546
 40
0.25
100
AcDbArc
 50
43.0260516848
 51
135.6300714454
  0
ARC
  5
30E
100
AcDbEntity
  8
ALL_ASSEMBLY_MEMBERS
100
AcDbCircle
 62
7
  6
CONTINUOUS
 10
7.707902027
 20
12.2289781956
 40
0.25
100
AcDbArc
 50
134.3699285546
 51
226.9739483152
  0
ARC
  5
30F
100
AcDbEntity
  8
ALL_ASSEMBLY_MEMBERS
100
AcDbCircle
 62
7
  6
CONTINUOUS
 10
7.574902027
 20
12.909314447
 40
0.036
100
AcDbArc
 50
180.0
 51
240.9147049393
  0
ARC
  5
310
100
AcDbEntity
  8
ALL_ASSEMBLY_MEMBERS
100
AcDbCircle
 62
7
  6
CONTINUOUS
 10
7.466902027
 20
12.909314447
 40
0.036
100
AcDbArc
 50
299.0852950607
 51
360.0
  0
ARC
  5
311
100
AcDbEntity
  8
ALL_ASSEMBLY_MEMBERS
100
AcDbCircle
 62
7
  6
CONTINUOUS
 10
7.8554080032
 20
12.7738541546
 40
0.031
100
AcDbArc
 50
297.1688835585
 51
315.6300714454
  0
ARC
  5
312
100
AcDbEntity
  8
ALL_ASSEMBLY_MEMBERS
100
AcDbCircle
 62
7
  6
CONTINUOUS
 10
7.511402027
 20
12.4298481785
 40
0.031
100
AcDbArc
 50
314.3699285546
 51
332.8311494163
  0
ARC
  5
313
100
AcDbEntity
  8
ALL_ASSEMBLY_MEMBERS
100
AcDbCircle
 62
7
  6
CONTINUOUS
 10
8.279902027
 20
12.7579604263
 40
0.016
100
AcDbArc
 50
55.0
 51
180.0
  0
ARC
  5
314
100
AcDbEntity
  8
ALL_ASSEMBLY_MEMBERS
100
AcDbCircle
 62
7
  6
CONTINUOUS
 10
8.2507355649
 20
12.7588541546
 40
0.016
100
AcDbArc
 50
223.0260516848
 51
325.3765489003
  0
ARC
  5
315
100
AcDbEntity
  8
ALL_ASSEMBLY_MEMBERS
100
AcDbCircle
 62
7
  6
CONTINUOUS
 10
7.5272957553
 20
12.0053541546
 40
0.016
100
AcDbArc
 50
90.0
 51
215.0
  0
ARC
  5
316
100
AcDbEntity
  8
ALL_ASSEMBLY_MEMBERS
100
AcDbCircle
 62
7
  6
CONTINUOUS
 10
7.526402027
 20
12.0345206167
 40
0.016
100
AcDbArc
 50
304.6234510997
 51
46.9739483152
  0
ARC
  5
317
100
AcDbEntity
  8
ALL_FEATURES
100
AcDbCircle
 62
7
  6
CONTINUOUS
 10
7.346402027
 20
12.9388541546
 40
1.1875
100
AcDbArc
 50
13.3205379776
 51
76.6743405685
  0
ARC
  5
318
100
AcDbEntity
  8
ALL_FEATURES
100
AcDbCircle
 62
7
  6
CONTINUOUS
 10
7.346402027
 20
12.9388541546
 40
1.1875
100
AcDbArc
 50
103.3256547763
 51
166.6794623302
  0
ARC
  5
319
100
AcDbEntity
  8
ALL_FEATURES
100
AcDbCircle
 62
7
  6
CONTINUOUS
 10
7.346402027
 20
12.9388541546
 40
1.1875
100
AcDbArc
 50
193.3205379776
 51
256.6743405685
  0
ARC
  5
31A
100
AcDbEntity
  8
ALL_FEATURES
100
AcDbCircle
 62
7
  6
CONTINUOUS
 10
7.346402027
 20
12.9388541546
 40
1.1875
100
AcDbArc
 50
283.3256547763
 51
346.6794623302
  0
CIRCLE
  5
31B
100
AcDbEntity
  8
ALL_ASSEMBLY_MEMBERS
100
AcDbCircle
 62
7
  6
CONTINUOUS
 10
7.346402027
 20
12.9388541546
 40
0.5575
  0
CIRCLE
  5
31C
100
AcDbEntity
  8
ALL_ASSEMBLY_MEMBERS
100
AcDbCircle
 62
7
  6
CONTINUOUS
 10
7.346402027
 20
12.9388541546
 40
0.5275
  0
CIRCLE
  5
31D
100
AcDbEntity
  8
ALL_ASSEMBLY_MEMBERS
100
AcDbCircle
 62
7
  6
CONTINUOUS
 10
7.346402027
 20
12.9388541546
 40
0.5132341523
  0
CIRCLE
  5
31E
100
AcDbEntity
  8
ALL_ASSEMBLY_MEMBERS
100
AcDbCircle
 62
7
  6
CONTINUOUS
 10
7.346402027
 20
12.9388541546
 40
0.4545099561
  0
CIRCLE
  5
31F
100
AcDbEntity
  8
ALL_ASSEMBLY_MEMBERS
100
AcDbCircle
 62
7
  6
CONTINUOUS
 10
7.346402027
 20
12.9388541546
 40
0.4275
  0
CIRCLE
  5
320
100
AcDbEntity
  8
ALL_ASSEMBLY_MEMBERS
100
AcDbCircle
 62
7
  6
CONTINUOUS
 10
7.346402027
 20
12.9388541546
 40
0.4175
  0
CIRCLE
  5
321
100
AcDbEntity
  8
ALL_ASSEMBLY_MEMBERS
100
AcDbCircle
 62
9
  6
CONTINUOUS
 10
7.346402027
 20
12.9388541546
 40
0.3951446566
  0
ARC
  5
322
100
AcDbEntity
  8
ALL_ASSEMBLY_MEMBERS
100
AcDbCircle
 62
7
  6
CONTINUOUS
 10
7.4740992925
 20
12.9636421705
 40
0.0413119841
100
AcDbArc
 50
90.0
 51
135.0
  0
ARC
  5
323
100
AcDbEntity
  8
ALL_ASSEMBLY_MEMBERS
100
AcDbCircle
 62
7
  6
CONTINUOUS
 10
7.5677047615
 20
12.9636421705
 40
0.0413119841
100
AcDbArc
 50
45.0
 51
90.0
  0
ARC
  5
324
100
AcDbEntity
  8
ALL_ASSEMBLY_MEMBERS
100
AcDbCircle
 62
7
  6
CONTINUOUS
 10
7.8554080032
 20
13.1038541546
 40
0.031
100
AcDbArc
 50
44.3699285546
 51
63.1436650029
  0
ARC
  5
325
100
AcDbEntity
  8
ALL_ASSEMBLY_MEMBERS
100
AcDbCircle
 62
7
  6
CONTINUOUS
 10
7.511402027
 20
13.4478601308
 40
0.031
100
AcDbArc
 50
26.8563510653
 51
45.6300714454
  0
ARC
  5
326
100
AcDbEntity
  8
ALL_ASSEMBLY_MEMBERS
100
AcDbCircle
 62
7
  6
CONTINUOUS
 10
7.499902027
 20
13.0019541546
 40
0.003
100
AcDbArc
 50
0.0
 51
90.0
  0
ARC
  5
327
100
AcDbEntity
  8
ALL_ASSEMBLY_MEMBERS
100
AcDbCircle
 62
7
  6
CONTINUOUS
 10
7.541902027
 20
13.0019541546
 40
0.003
100
AcDbArc
 50
90.0
 51
180.0
  0
ARC
  5
328
100
AcDbEntity
  8
ALL_ASSEMBLY_MEMBERS
100
AcDbCircle
 62
7
  6
CONTINUOUS
 10
7.346402027
 20
14.1213541546
 40
0.275
100
AcDbArc
 50
325.0
 51
215.0
  0
ARC
  5
329
100
AcDbEntity
  8
ALL_ASSEMBLY_MEMBERS
100
AcDbCircle
 62
7
  6
CONTINUOUS
 10
7.707902027
 20
13.6487301136
 40
0.25
100
AcDbArc
 50
133.0260516848
 51
225.6300714454
  0
ARC
  5
32A
100
AcDbEntity
  8
ALL_ASSEMBLY_MEMBERS
100
AcDbCircle
 62
7
  6
CONTINUOUS
 10
7.5272957553
 20
13.8723541546
 40
0.016
100
AcDbArc
 50
145.0
 51
270.0
  0
ARC
  5
32B
100
AcDbEntity
  8
ALL_ASSEMBLY_MEMBERS
100
AcDbCircle
 62
7
  6
CONTINUOUS
 10
7.526402027
 20
13.8431876925
 40
0.016
100
AcDbArc
 50
313.0260516848
 51
55.3765489003
  0
ARC
  5
32C
100
AcDbEntity
  8
ALL_ASSEMBLY_MEMBERS
100
AcDbCircle
 62
7
  6
CONTINUOUS
 10
8.528902027
 20
12.9388541546
 40
0.275
100
AcDbArc
 50
235.0
 51
125.0
  0
ARC
  5
32D
100
AcDbEntity
  8
ALL_ASSEMBLY_MEMBERS
100
AcDbCircle
 62
7
  6
CONTINUOUS
 10
8.056277986
 20
13.3003541546
 40
0.25
100
AcDbArc
 50
224.3699285546
 51
316.9739483152
  0
ARC
  5
32E
100
AcDbEntity
  8
ALL_ASSEMBLY_MEMBERS
100
AcDbCircle
 62
7
  6
CONTINUOUS
 10
8.279902027
 20
13.1197478829
 40
0.016
100
AcDbArc
 50
180.0
 51
305.0
  0
ARC
  5
32F
100
AcDbEntity
  8
ALL_ASSEMBLY_MEMBERS
100
AcDbCircle
 62
7
  6
CONTINUOUS
 10
8.2507355649
 20
13.1188541546
 40
0.016
100
AcDbArc
 50
34.6234510997
 51
136.9739483152
  0
ARC
  5
330
100
AcDbEntity
  8
ALL_ASSEMBLY_MEMBERS
100
AcDbCircle
 62
7
  6
CONTINUOUS
 10
9.0461267816
 20
3.9374534941
 40
1.5896941207
100
AcDbArc
 50
352.090612599
 51
352.2446254947
  0
ARC
  5
331
100
AcDbEntity
  8
ALL_ASSEMBLY_MEMBERS
100
AcDbCircle
 62
7
  6
CONTINUOUS
 10
9.1895051606
 20
3.9175198367
 40
1.4449367028
100
AcDbArc
 50
351.7627210718
 51
352.0911749882
  0
ARC
  5
332
100
AcDbEntity
  8
ALL_ASSEMBLY_MEMBERS
100
AcDbCircle
 62
9
  6
CONTINUOUS
 10
11.3156239889
 20
3.6537322731
 40
0.7597689901
100
AcDbArc
 50
4.28493509
 51
7.8608230766
  0
ARC
  5
333
100
AcDbEntity
  8
ALL_ASSEMBLY_MEMBERS
100
AcDbCircle
 62
7
  6
CONTINUOUS
 10
11.3296415125
 20
3.66978362
 40
0.7158148469
100
AcDbArc
 50
168.3959330741
 51
172.4855999265
  0
ARC
  5
334
100
AcDbEntity
  8
ALL_ASSEMBLY_MEMBERS
100
AcDbCircle
 62
7
  6
CONTINUOUS
 10
11.3175308584
 20
3.6711554078
 40
0.7036288383
100
AcDbArc
 50
172.4673787007
 51
179.9919591118
  0
ARC
  5
335
100
AcDbEntity
  8
ALL_ASSEMBLY_MEMBERS
100
AcDbCircle
 62
9
  6
CONTINUOUS
 10
11.3441831074
 20
15.0515604359
 40
9.5564094501
100
AcDbArc
 50
267.7643170708
 51
270.0133036087
  0
ARC
  5
336
100
AcDbEntity
  8
ALL_ASSEMBLY_MEMBERS
100
AcDbCircle
 62
7
  6
CONTINUOUS
 10
9.9184555996
 20
11.9065555892
 40
1.052935519
100
AcDbArc
 50
0.0255041628
 51
18.3964541794
  0
ARC
  5
337
100
AcDbEntity
  8
ALL_ASSEMBLY_MEMBERS
100
AcDbCircle
 62
7
  6
CONTINUOUS
 10
9.9205866613
 20
11.9066605149
 40
1.0508892655
100
AcDbArc
 50
18.427665946
 51
29.9950937676
  0
ARC
  5
338
100
AcDbEntity
  8
ALL_ASSEMBLY_MEMBERS
100
AcDbCircle
 62
7
  6
CONTINUOUS
 10
11.3114946044
 20
14.1002391866
 40
0.2814037714
100
AcDbArc
 50
106.37693646
 51
108.0702465248
  0
ARC
  5
339
100
AcDbEntity
  8
ALL_ASSEMBLY_MEMBERS
100
AcDbCircle
 62
7
  6
CONTINUOUS
 10
11.3123059107
 20
14.5463031473
 40
0.2111362863
100
AcDbArc
 50
249.6417469941
 51
252.9998019563
  0
ARC
  5
33A
100
AcDbEntity
  8
ALL_ASSEMBLY_MEMBERS
100
AcDbCircle
 62
7
  6
CONTINUOUS
 10
11.3045911703
 20
14.524999415
 40
0.1884794872
100
AcDbArc
 50
247.8295931491
 51
249.5874878938
  0
ARC
  5
33B
100
AcDbEntity
  8
ALL_ASSEMBLY_MEMBERS
100
AcDbCircle
 62
7
  6
CONTINUOUS
 10
11.2805559779
 20
14.4739038261
 40
0.1377510216
100
AcDbArc
 50
259.5515554566
 51
260.7805845544
  0
ARC
  5
33C
100
AcDbEntity
  8
ALL_ASSEMBLY_MEMBERS
100
AcDbCircle
 62
7
  6
CONTINUOUS
 10
11.2706801007
 20
14.3627631379
 40
0.0272339796
100
AcDbArc
 50
222.418448212
 51
224.8768428017
  0
ARC
  5
33D
100
AcDbEntity
  8
ALL_ASSEMBLY_MEMBERS
100
AcDbCircle
 62
9
  6
CONTINUOUS
 10
-99.076931677
 20
174.4297305256
 40
196.7983573044
100
AcDbArc
 50
303.8338756451
 51
304.0000311538
  0
ARC
  5
33E
100
AcDbEntity
  8
ALL_ASSEMBLY_MEMBERS
100
AcDbCircle
 62
7
  6
CONTINUOUS
 10
13.6466772735
 20
3.9374534942
 40
1.5896941217
100
AcDbArc
 50
187.7553745053
 51
187.9093874009
  0
ARC
  5
33F
100
AcDbEntity
  8
ALL_ASSEMBLY_MEMBERS
100
AcDbCircle
 62
7
  6
CONTINUOUS
 10
13.5032988932
 20
3.9175198366
 40
1.4449367025
100
AcDbArc
 50
187.9088250118
 51
188.2372789283
  0
ARC
  5
340
100
AcDbEntity
  8
ALL_ASSEMBLY_MEMBERS
100
AcDbCircle
 62
9
  6
CONTINUOUS
 10
11.377403556
 20
3.6537105824
 40
0.7599934769
100
AcDbArc
 50
172.0408062018
 51
175.7146931183
  0
ARC
  5
341
100
AcDbEntity
  8
ALL_ASSEMBLY_MEMBERS
100
AcDbCircle
 62
7
  6
CONTINUOUS
 10
11.3631615267
 20
3.6697834253
 40
0.71581588
100
AcDbArc
 50
7.5165123248
 51
11.6036747643
  0
ARC
  5
342
100
AcDbEntity
  8
ALL_ASSEMBLY_MEMBERS
100
AcDbCircle
 62
7
  6
CONTINUOUS
 10
11.3752712498
 20
3.6711553549
 40
0.7036307842
100
AcDbArc
 50
0.0080451751
 51
7.5347487132
  0
ARC
  5
343
100
AcDbEntity
  8
ALL_ASSEMBLY_MEMBERS
100
AcDbCircle
 62
7
  6
CONTINUOUS
 10
11.346402027
 20
12.9388541546
 40
1.495
100
AcDbArc
 50
310.5294210058
 51
229.4705854487
  0
ARC
  5
344
100
AcDbEntity
  8
ALL_ASSEMBLY_MEMBERS
100
AcDbCircle
 62
7
  6
CONTINUOUS
 10
11.3628205962
 20
15.5615575991
 40
1.2149150485
100
AcDbArc
 50
264.9794741898
 51
265.3920305417
  0
ARC
  5
345
100
AcDbEntity
  8
ALL_ASSEMBLY_MEMBERS
100
AcDbCircle
 62
7
  6
CONTINUOUS
 10
12.7743484566
 20
11.9065555892
 40
1.0529355205
100
AcDbArc
 50
161.6035458549
 51
179.9744958275
  0
ARC
  5
346
100
AcDbEntity
  8
ALL_ASSEMBLY_MEMBERS
100
AcDbCircle
 62
7
  6
CONTINUOUS
 10
12.7722173927
 20
11.9066605149
 40
1.0508892655
100
AcDbArc
 50
150.0049062263
 51
161.5723340541
  0
CIRCLE
  5
347
100
AcDbEntity
  8
ALL_ASSEMBLY_MEMBERS
100
AcDbCircle
 62
7
  6
CONTINUOUS
 10
11.346402027
 20
12.9388541546
 40
0.58
  0
ARC
  5
348
100
AcDbEntity
  8
ALL_ASSEMBLY_MEMBERS
100
AcDbCircle
 62
7
  6
CONTINUOUS
 10
11.3602408716
 20
13.8095048303
 40
0.5168791273
100
AcDbArc
 50
82.911749769
 51
83.6830463307
  0
ARC
  5
349
100
AcDbEntity
  8
ALL_ASSEMBLY_MEMBERS
100
AcDbCircle
 62
7
  6
CONTINUOUS
 10
11.3946635549
 20
14.265239746
 40
0.1092500321
100
AcDbArc
 50
59.8399933806
 51
62.8006535743
  0
ARC
  5
34A
100
AcDbEntity
  8
ALL_ASSEMBLY_MEMBERS
100
AcDbCircle
 62
7
  6
CONTINUOUS
 10
14.6365260681
 20
12.5773541546
 40
0.25
100
AcDbArc
 50
44.3699285546
 51
136.9739483152
  0
ARC
  5
34B
100
AcDbEntity
  8
ALL_ASSEMBLY_MEMBERS
100
AcDbCircle
 62
7
  6
CONTINUOUS
 10
14.984902027
 20
12.2289781956
 40
0.25
100
AcDbArc
 50
313.0260516848
 51
45.6300714454
  0
ARC
  5
34C
100
AcDbEntity
  8
ALL_ASSEMBLY_MEMBERS
100
AcDbCircle
 62
7
  6
CONTINUOUS
 10
15.086827424
 20
12.9018541546
 40
0.121
100
AcDbArc
 50
72.3178031512
 51
100.863388708
  0
ARC
  5
34D
100
AcDbEntity
  8
ALL_ASSEMBLY_MEMBERS
100
AcDbCircle
 62
7
  6
CONTINUOUS
 10
15.3003490957
 20
12.9387578222
 40
0.1139471094
100
AcDbArc
 50
179.9515613656
 51
187.0787597455
  0
ARC
  5
34E
100
AcDbEntity
  8
ALL_ASSEMBLY_MEMBERS
100
AcDbCircle
 62
7
  6
CONTINUOUS
 10
15.0890003052
 20
12.9258541546
 40
0.048
100
AcDbArc
 50
201.6000344342
 51
256.3709027892
  0
ARC
  5
34F
100
AcDbEntity
  8
ALL_ASSEMBLY_MEMBERS
100
AcDbCircle
 62
7
  6
CONTINUOUS
 10
14.8373960509
 20
12.7738541546
 40
0.031
100
AcDbArc
 50
224.3699285546
 51
243.1436647045
  0
ARC
  5
350
100
AcDbEntity
  8
ALL_ASSEMBLY_MEMBERS
100
AcDbCircle
 62
7
  6
CONTINUOUS
 10
15.181402027
 20
12.4298481785
 40
0.031
100
AcDbArc
 50
206.8563505138
 51
225.6300714454
  0
ARC
  5
351
100
AcDbEntity
  8
ALL_ASSEMBLY_MEMBERS
100
AcDbCircle
 62
7
  6
CONTINUOUS
 10
14.412902027
 20
12.7579604263
 40
0.016
100
AcDbArc
 50
0.0
 51
125.0
  0
ARC
  5
352
100
AcDbEntity
  8
ALL_ASSEMBLY_MEMBERS
100
AcDbCircle
 62
7
  6
CONTINUOUS
 10
14.4420684891
 20
12.7588541546
 40
0.016
100
AcDbArc
 50
214.6234510997
 51
316.9739483152
  0
ARC
  5
353
100
AcDbEntity
  8
ALL_ASSEMBLY_MEMBERS
100
AcDbCircle
 62
7
  6
CONTINUOUS
 10
15.1655082987
 20
12.0053541546
 40
0.016
100
AcDbArc
 50
325.0
 51
90.0
  0
ARC
  5
354
100
AcDbEntity
  8
ALL_ASSEMBLY_MEMBERS
100
AcDbCircle
 62
7
  6
CONTINUOUS
 10
15.166402027
 20
12.0345206167
 40
0.016
100
AcDbArc
 50
133.0260516848
 51
235.3765489003
  0
ARC
  5
355
100
AcDbEntity
  8
ALL_ASSEMBLY_MEMBERS
100
AcDbCircle
 62
7
  6
CONTINUOUS
 10
14.163902027
 20
12.9388541546
 40
0.275
100
AcDbArc
 50
55.0
 51
305.0
  0
ARC
  5
356
100
AcDbEntity
  8
ALL_ASSEMBLY_MEMBERS
100
AcDbCircle
 62
7
  6
CONTINUOUS
 10
14.6365260681
 20
13.3003541546
 40
0.25
100
AcDbArc
 50
223.0260516848
 51
315.6300714454
  0
ARC
  5
357
100
AcDbEntity
  8
ALL_ASSEMBLY_MEMBERS
100
AcDbCircle
 62
7
  6
CONTINUOUS
 10
14.984902027
 20
13.6487301136
 40
0.25
100
AcDbArc
 50
314.3699285546
 51
46.9739483152
  0
ARC
  5
358
100
AcDbEntity
  8
ALL_ASSEMBLY_MEMBERS
100
AcDbCircle
 62
7
  6
CONTINUOUS
 10
15.2303769636
 20
12.9388582122
 40
0.1130250635
100
AcDbArc
 50
359.9979430712
 51
2.4505484091
  0
ARC
  5
359
100
AcDbEntity
  8
ALL_ASSEMBLY_MEMBERS
100
AcDbCircle
 62
7
  6
CONTINUOUS
 10
15.0836957984
 20
12.9427183358
 40
0.0888641812
100
AcDbArc
 50
224.2338173193
 51
336.8459014309
  0
ARC
  5
35A
100
AcDbEntity
  8
ALL_ASSEMBLY_MEMBERS
100
AcDbCircle
 62
7
  6
CONTINUOUS
 10
15.123402027
 20
12.9394747837
 40
0.085
100
AcDbArc
 50
158.3999655658
 51
201.6000344342
  0
ARC
  5
35B
100
AcDbEntity
  8
ALL_ASSEMBLY_MEMBERS
100
AcDbCircle
 62
7
  6
CONTINUOUS
 10
15.0797268633
 20
12.9388541546
 40
0.0833248363
100
AcDbArc
 50
100.863388708
 51
224.2338173193
  0
ARC
  5
35C
100
AcDbEntity
  8
ALL_ASSEMBLY_MEMBERS
100
AcDbCircle
 62
7
  6
CONTINUOUS
 10
15.0810461885
 20
12.9427183358
 40
0.0697243244
100
AcDbArc
 50
15.9292215989
 51
31.2636680057
  0
ARC
  5
35D
100
AcDbEntity
  8
ALL_ASSEMBLY_MEMBERS
100
AcDbCircle
 62
7
  6
CONTINUOUS
 10
15.0922067468
 20
12.9390786068
 40
0.061607623
100
AcDbArc
 50
256.3709027892
 51
336.8459014309
  0
ARC
  5
35E
100
AcDbEntity
  8
ALL_ASSEMBLY_MEMBERS
100
AcDbCircle
 62
7
  6
CONTINUOUS
 10
15.0945311293
 20
12.9509056008
 40
0.0539485538
100
AcDbArc
 50
31.2636680057
 51
158.3999655658
  0
ARC
  5
35F
100
AcDbEntity
  8
ALL_ASSEMBLY_MEMBERS
100
AcDbCircle
 62
7
  6
CONTINUOUS
 10
14.8373960509
 20
13.1038541546
 40
0.031
100
AcDbArc
 50
116.8563471109
 51
135.6300714454
  0
ARC
  5
360
100
AcDbEntity
  8
ALL_ASSEMBLY_MEMBERS
100
AcDbCircle
 62
7
  6
CONTINUOUS
 10
15.181402027
 20
13.4478601308
 40
0.031
100
AcDbArc
 50
134.3699285546
 51
153.1436644189
  0
ARC
  5
361
100
AcDbEntity
  8
ALL_ASSEMBLY_MEMBERS
100
AcDbCircle
 62
7
  6
CONTINUOUS
 10
14.412902027
 20
13.1197478829
 40
0.016
100
AcDbArc
 50
235.0
 51
360.0
  0
ARC
  5
362
100
AcDbEntity
  8
ALL_ASSEMBLY_MEMBERS
100
AcDbCircle
 62
7
  6
CONTINUOUS
 10
14.4420684891
 20
13.1188541546
 40
0.016
100
AcDbArc
 50
43.0260516848
 51
145.3765489003
  0
ARC
  5
363
100
AcDbEntity
  8
ALL_ASSEMBLY_MEMBERS
100
AcDbCircle
 62
7
  6
CONTINUOUS
 10
15.1655082987
 20
13.8723541546
 40
0.016
100
AcDbArc
 50
270.0
 51
35.0
  0
ARC
  5
364
100
AcDbEntity
  8
ALL_ASSEMBLY_MEMBERS
100
AcDbCircle
 62
7
  6
CONTINUOUS
 10
15.166402027
 20
13.8431876925
 40
0.016
100
AcDbArc
 50
124.6234510997
 51
226.9739483152
  0
ARC
  5
365
100
AcDbEntity
  8
ALL_ASSEMBLY_MEMBERS
100
AcDbCircle
 62
7
  6
CONTINUOUS
 10
15.125402027
 20
13.0228541546
 40
0.006
100
AcDbArc
 50
252.3178031513
 51
360.0
  0
ARC
  5
366
100
AcDbEntity
  8
ALL_ASSEMBLY_MEMBERS
100
AcDbCircle
 62
7
  6
CONTINUOUS
 10
15.346402027
 20
11.7563541546
 40
0.275
100
AcDbArc
 50
145.0
 51
35.0
  0
ARC
  5
367
100
AcDbEntity
  8
ALL_ASSEMBLY_MEMBERS
100
AcDbCircle
 62
7
  6
CONTINUOUS
 10
16.056277986
 20
12.5773541546
 40
0.25
100
AcDbArc
 50
43.0260516848
 51
135.6300714454
  0
ARC
  5
368
100
AcDbEntity
  8
ALL_ASSEMBLY_MEMBERS
100
AcDbCircle
 62
7
  6
CONTINUOUS
 10
15.707902027
 20
12.2289781956
 40
0.25
100
AcDbArc
 50
134.3699285546
 51
226.9739483152
  0
ARC
  5
369
100
AcDbEntity
  8
ALL_ASSEMBLY_MEMBERS
100
AcDbCircle
 62
7
  6
CONTINUOUS
 10
15.620902027
 20
12.9383541546
 40
0.0845
100
AcDbArc
 50
270.0
 51
90.0
  0
ARC
  5
36A
100
AcDbEntity
  8
ALL_ASSEMBLY_MEMBERS
100
AcDbCircle
 62
7
  6
CONTINUOUS
 10
15.6165468152
 20
12.9258541546
 40
0.048
100
AcDbArc
 50
270.0
 51
341.5590861804
  0
ARC
  5
36B
100
AcDbEntity
  8
ALL_ASSEMBLY_MEMBERS
100
AcDbCircle
 62
7
  6
CONTINUOUS
 10
15.8554080032
 20
12.7738541546
 40
0.031
100
AcDbArc
 50
297.1688835585
 51
315.6300714454
  0
ARC
  5
36C
100
AcDbEntity
  8
ALL_ASSEMBLY_MEMBERS
100
AcDbCircle
 62
7
  6
CONTINUOUS
 10
15.511402027
 20
12.4298481785
 40
0.031
100
AcDbArc
 50
314.3699285546
 51
332.8311494163
  0
ARC
  5
36D
100
AcDbEntity
  8
ALL_ASSEMBLY_MEMBERS
100
AcDbCircle
 62
7
  6
CONTINUOUS
 10
15.347902027
 20
12.9066247994
 40
0.03
100
AcDbArc
 50
286.4592496283
 51
360.0
  0
ARC
  5
36E
100
AcDbEntity
  8
ALL_ASSEMBLY_MEMBERS
100
AcDbCircle
 62
7
  6
CONTINUOUS
 10
15.467902027
 20
12.9066247994
 40
0.03
100
AcDbArc
 50
270.0
 51
328.815717175
  0
ARC
  5
36F
100
AcDbEntity
  8
ALL_ASSEMBLY_MEMBERS
100
AcDbCircle
 62
7
  6
CONTINUOUS
 10
15.443902027
 20
12.9066247994
 40
0.03
100
AcDbArc
 50
180.0
 51
270.0
  0
ARC
  5
370
100
AcDbEntity
  8
ALL_ASSEMBLY_MEMBERS
100
AcDbCircle
 62
7
  6
CONTINUOUS
 10
15.528402027
 20
12.8939786701
 40
0.018
100
AcDbArc
 50
296.3877999613
 51
360.0
  0
ARC
  5
371
100
AcDbEntity
  8
ALL_ASSEMBLY_MEMBERS
100
AcDbCircle
 62
7
  6
CONTINUOUS
 10
16.279902027
 20
12.7579604263
 40
0.016
100
AcDbArc
 50
55.0
 51
180.0
  0
ARC
  5
372
100
AcDbEntity
  8
ALL_ASSEMBLY_MEMBERS
100
AcDbCircle
 62
7
  6
CONTINUOUS
 10
16.2507355649
 20
12.7588541546
 40
0.016
100
AcDbArc
 50
223.0260516848
 51
325.3765489003
  0
ARC
  5
373
100
AcDbEntity
  8
ALL_ASSEMBLY_MEMBERS
100
AcDbCircle
 62
7
  6
CONTINUOUS
 10
15.5272957553
 20
12.0053541546
 40
0.016
100
AcDbArc
 50
90.0
 51
215.0
  0
ARC
  5
374
100
AcDbEntity
  8
ALL_ASSEMBLY_MEMBERS
100
AcDbCircle
 62
7
  6
CONTINUOUS
 10
15.526402027
 20
12.0345206167
 40
0.016
100
AcDbArc
 50
304.6234510997
 51
46.9739483152
  0
ARC
  5
375
100
AcDbEntity
  8
ALL_ASSEMBLY_MEMBERS
100
AcDbCircle
 62
7
  6
CONTINUOUS
 10
15.5886839074
 20
12.8838541546
 40
0.006
100
AcDbArc
 50
180.0
 51
270.0
  0
ARC
  5
376
100
AcDbEntity
  8
ALL_FEATURES
100
AcDbCircle
 62
7
  6
CONTINUOUS
 10
15.346402027
 20
12.9388541546
 40
1.1875
100
AcDbArc
 50
13.3205379776
 51
76.6743405685
  0
ARC
  5
377
100
AcDbEntity
  8
ALL_FEATURES
100
AcDbCircle
 62
7
  6
CONTINUOUS
 10
15.346402027
 20
12.9388541546
 40
1.1875
100
AcDbArc
 50
103.3256547763
 51
166.6794623302
  0
ARC
  5
378
100
AcDbEntity
  8
ALL_FEATURES
100
AcDbCircle
 62
7
  6
CONTINUOUS
 10
15.346402027
 20
12.9388541546
 40
1.1875
100
AcDbArc
 50
193.3205379776
 51
256.6743405685
  0
ARC
  5
379
100
AcDbEntity
  8
ALL_FEATURES
100
AcDbCircle
 62
7
  6
CONTINUOUS
 10
15.346402027
 20
12.9388541546
 40
1.1875
100
AcDbArc
 50
283.3256547763
 51
346.6794623302
  0
CIRCLE
  5
37A
100
AcDbEntity
  8
ALL_ASSEMBLY_MEMBERS
100
AcDbCircle
 62
7
  6
CONTINUOUS
 10
15.346402027
 20
12.9388541546
 40
0.5575
  0
CIRCLE
  5
37B
100
AcDbEntity
  8
ALL_ASSEMBLY_MEMBERS
100
AcDbCircle
 62
7
  6
CONTINUOUS
 10
15.346402027
 20
12.9388541546
 40
0.5275
  0
CIRCLE
  5
37C
100
AcDbEntity
  8
ALL_ASSEMBLY_MEMBERS
100
AcDbCircle
 62
7
  6
CONTINUOUS
 10
15.346402027
 20
12.9388541546
 40
0.5132341523
  0
CIRCLE
  5
37D
100
AcDbEntity
  8
ALL_ASSEMBLY_MEMBERS
100
AcDbCircle
 62
7
  6
CONTINUOUS
 10
15.346402027
 20
12.9388541546
 40
0.4545099561
  0
CIRCLE
  5
37E
100
AcDbEntity
  8
ALL_ASSEMBLY_MEMBERS
100
AcDbCircle
 62
7
  6
CONTINUOUS
 10
15.346402027
 20
12.9388541546
 40
0.4275
  0
CIRCLE
  5
37F
100
AcDbEntity
  8
ALL_ASSEMBLY_MEMBERS
100
AcDbCircle
 62
7
  6
CONTINUOUS
 10
15.346402027
 20
12.9388541546
 40
0.4175
  0
CIRCLE
  5
380
100
AcDbEntity
  8
ALL_ASSEMBLY_MEMBERS
100
AcDbCircle
 62
9
  6
CONTINUOUS
 10
15.346402027
 20
12.9388541546
 40
0.3951446566
  0
ARC
  5
381
100
AcDbEntity
  8
ALL_ASSEMBLY_MEMBERS
100
AcDbCircle
 62
7
  6
CONTINUOUS
 10
15.570062947
 20
12.9413541546
 40
0.097
100
AcDbArc
 50
341.5590861804
 51
18.4409138196
  0
ARC
  5
382
100
AcDbEntity
  8
ALL_ASSEMBLY_MEMBERS
100
AcDbCircle
 62
7
  6
CONTINUOUS
 10
15.6165468152
 20
12.9568541546
 40
0.048
100
AcDbArc
 50
18.4409138196
 51
90.0
  0
ARC
  5
383
100
AcDbEntity
  8
ALL_ASSEMBLY_MEMBERS
100
AcDbCircle
 62
7
  6
CONTINUOUS
 10
15.8554080032
 20
13.1038541546
 40
0.031
100
AcDbArc
 50
44.3699285546
 51
63.1436650029
  0
ARC
  5
384
100
AcDbEntity
  8
ALL_ASSEMBLY_MEMBERS
100
AcDbCircle
 62
7
  6
CONTINUOUS
 10
15.511402027
 20
13.4478601308
 40
0.031
100
AcDbArc
 50
26.8563510653
 51
45.6300714454
  0
ARC
  5
385
100
AcDbEntity
  8
ALL_ASSEMBLY_MEMBERS
100
AcDbCircle
 62
7
  6
CONTINUOUS
 10
15.347902027
 20
12.9760835098
 40
0.03
100
AcDbArc
 50
0.0
 51
73.5407503717
  0
ARC
  5
386
100
AcDbEntity
  8
ALL_ASSEMBLY_MEMBERS
100
AcDbCircle
 62
7
  6
CONTINUOUS
 10
15.443902027
 20
12.9760835098
 40
0.03
100
AcDbArc
 50
106.4592496283
 51
180.0
  0
ARC
  5
387
100
AcDbEntity
  8
ALL_ASSEMBLY_MEMBERS
100
AcDbCircle
 62
7
  6
CONTINUOUS
 10
15.528402027
 20
12.9887296391
 40
0.018
100
AcDbArc
 50
0.0
 51
63.6122000388
  0
ARC
  5
388
100
AcDbEntity
  8
ALL_ASSEMBLY_MEMBERS
100
AcDbCircle
 62
7
  6
CONTINUOUS
 10
15.5886839074
 20
12.9988541546
 40
0.006
100
AcDbArc
 50
90.0
 51
180.0
  0
ARC
  5
389
100
AcDbEntity
  8
ALL_ASSEMBLY_MEMBERS
100
AcDbCircle
 62
7
  6
CONTINUOUS
 10
15.346402027
 20
14.1213541546
 40
0.275
100
AcDbArc
 50
325.0
 51
215.0
  0
ARC
  5
38A
100
AcDbEntity
  8
ALL_ASSEMBLY_MEMBERS
100
AcDbCircle
 62
7
  6
CONTINUOUS
 10
15.707902027
 20
13.6487301136
 40
0.25
100
AcDbArc
 50
133.0260516848
 51
225.6300714454
  0
ARC
  5
38B
100
AcDbEntity
  8
ALL_ASSEMBLY_MEMBERS
100
AcDbCircle
 62
7
  6
CONTINUOUS
 10
15.5272957553
 20
13.8723541546
 40
0.016
100
AcDbArc
 50
145.0
 51
270.0
  0
ARC
  5
38C
100
AcDbEntity
  8
ALL_ASSEMBLY_MEMBERS
100
AcDbCircle
 62
7
  6
CONTINUOUS
 10
15.526402027
 20
13.8431876925
 40
0.016
100
AcDbArc
 50
313.0260516848
 51
55.3765489003
  0
ARC
  5
38D
100
AcDbEntity
  8
ALL_ASSEMBLY_MEMBERS
100
AcDbCircle
 62
7
  6
CONTINUOUS
 10
16.528902027
 20
12.9388541546
 40
0.275
100
AcDbArc
 50
235.0
 51
125.0
  0
ARC
  5
38E
100
AcDbEntity
  8
ALL_ASSEMBLY_MEMBERS
100
AcDbCircle
 62
7
  6
CONTINUOUS
 10
16.056277986
 20
13.3003541546
 40
0.25
100
AcDbArc
 50
224.3699285546
 51
316.9739483152
  0
ARC
  5
38F
100
AcDbEntity
  8
ALL_ASSEMBLY_MEMBERS
100
AcDbCircle
 62
7
  6
CONTINUOUS
 10
16.279902027
 20
13.1197478829
 40
0.016
100
AcDbArc
 50
180.0
 51
305.0
  0
ARC
  5
390
100
AcDbEntity
  8
ALL_ASSEMBLY_MEMBERS
100
AcDbCircle
 62
7
  6
CONTINUOUS
 10
16.2507355649
 20
13.1188541546
 40
0.016
100
AcDbArc
 50
34.6234510997
 51
136.9739483152
  0
ARC
  5
391
100
AcDbEntity
  8
ALL_ASSEMBLY_MEMBERS
100
AcDbCircle
 62
9
  6
CONTINUOUS
 10
121.7697357307
 20
174.4297305251
 40
196.7983573037
100
AcDbArc
 50
235.9999688462
 51
236.1661243549
  0
SPLINE
  5
392
100
AcDbEntity
  8
ALL_ASSEMBLY_MEMBERS
100
AcDbSpline
 62
7
  6
CONTINUOUS
 70
0
 71
3
 72
11
 73
7
 74
0
 42
0.0000001
 43
0.0000001
 44
0.0000000001
 40
0.0
 40
0.0
 40
0.0
 40
0.0
 40
0.2730385444
 40
0.4996896654
 40
0.7263920674
 40
1.0
 40
1.0
 40
1.0
 40
1.0
 10
7.266402027
 20
12.9388541546
 30
0.0
 10
7.2664012896
 20
12.9626449025
 30
0.0
 10
7.2794936262
 20
13.0061844884
 30
0.0
 10
7.3447455008
 20
13.0311489812
 30
0.0
 10
7.4097991701
 20
13.0061363943
 30
0.0
 10
7.4234012249
 20
12.9626408125
 30
0.0
 10
7.423402027
 20
12.9388541546
 30
0.0
  0
SPLINE
  5
393
100
AcDbEntity
  8
ALL_ASSEMBLY_MEMBERS
100
AcDbSpline
 62
7
  6
CONTINUOUS
 70
0
 71
3
 72
11
 73
7
 74
0
 42
0.0000001
 43
0.0000001
 44
0.0000000001
 40
0.0
 40
0.0
 40
0.0
 40
0.0
 40
0.2911005069
 40
0.5007865867
 40
0.7104726666
 40
1.0
 40
1.0
 40
1.0
 40
1.0
 10
7.387702027
 20
12.9388541546
 30
0.0
 10
7.387702027
 20
12.9555659878
 30
0.0
 10
7.3838207865
 20
12.9843157211
 30
0.0
 10
7.3447762055
 20
13.0056403133
 30
0.0
 10
7.3053165194
 20
12.9844136284
 30
0.0
 10
7.302702027
 20
12.9555779172
 30
0.0
 10
7.302702027
 20
12.9388541546
 30
0.0
  0
SPLINE
  5
394
100
AcDbEntity
  8
ALL_ASSEMBLY_MEMBERS
100
AcDbSpline
 62
7
  6
CONTINUOUS
 70
0
 71
3
 72
11
 73
7
 74
0
 42
0.0000001
 43
0.0000001
 44
0.0000000001
 40
0.0
 40
0.0
 40
0.0
 40
0.0
 40
0.2736088651
 40
0.5002793729
 40
0.726960525
 40
1.0
 40
1.0
 40
1.0
 40
1.0
 10
7.423402027
 20
12.9388541546
 30
0.0
 10
7.4234028292
 20
12.9150674967
 30
0.0
 10
7.4098045959
 20
12.8715749407
 30
0.0
 10
7.3447350696
 20
12.8465592604
 30
0.0
 10
7.2794986201
 20
12.8715212294
 30
0.0
 10
7.2664027644
 20
12.9150634067
 30
0.0
 10
7.266402027
 20
12.9388541546
 30
0.0
  0
SPLINE
  5
395
100
AcDbEntity
  8
ALL_ASSEMBLY_MEMBERS
100
AcDbSpline
 62
7
  6
CONTINUOUS
 70
0
 71
3
 72
11
 73
7
 74
0
 42
0.0000001
 43
0.0000001
 44
0.0000000001
 40
0.0
 40
0.0
 40
0.0
 40
0.0
 40
0.2895273334
 40
0.4992134133
 40
0.7088994931
 40
1.0
 40
1.0
 40
1.0
 40
1.0
 10
7.302702027
 20
12.9388541546
 30
0.0
 10
7.302702027
 20
12.9221303921
 30
0.0
 10
7.3053165194
 20
12.8932946808
 30
0.0
 10
7.3447762055
 20
12.8720679959
 30
0.0
 10
7.3838207865
 20
12.8933925881
 30
0.0
 10
7.387702027
 20
12.9221423214
 30
0.0
 10
7.387702027
 20
12.9388541546
 30
0.0
  0
SPLINE
  5
396
100
AcDbEntity
  8
ALL_ASSEMBLY_MEMBERS
100
AcDbSpline
 62
7
  6
CONTINUOUS
 70
0
 71
3
 72
11
 73
7
 74
0
 42
0.0000001
 43
0.0000001
 44
0.0000000001
 40
0.0
 40
0.0
 40
0.0
 40
0.0
 40
0.2893264667
 40
0.529018178
 40
0.7687211451
 40
1.0
 40
1.0
 40
1.0
 40
1.0
 10
15.343402027
 20
12.9388541546
 30
0.0
 10
15.3434028292
 20
12.9150674967
 30
0.0
 10
15.3298045959
 20
12.8715749407
 30
0.0
 10
15.2647350696
 20
12.8465592604
 30
0.0
 10
15.2043774749
 20
12.8696543924
 30
0.0
 10
15.1896256901
 20
12.9059080715
 30
0.0
 10
15.1872705265
 20
12.9247157098
 30
0.0
  0
SPLINE
  5
397
100
AcDbEntity
  8
ALL_ASSEMBLY_MEMBERS
100
AcDbSpline
 62
7
  6
CONTINUOUS
 70
0
 71
3
 72
11
 73
7
 74
0
 42
0.0000001
 43
0.0000001
 44
0.0000000001
 40
0.0
 40
0.0
 40
0.0
 40
0.0
 40
0.2782003197
 40
0.5091362648
 40
0.7401244605
 40
1.0
 40
1.0
 40
1.0
 40
1.0
 10
15.186402027
 20
12.9388541546
 30
0.0
 10
15.1864012896
 20
12.9626449025
 30
0.0
 10
15.1994936262
 20
13.0061844884
 30
0.0
 10
15.2647455008
 20
13.0311489812
 30
0.0
 10
15.3281388115
 20
13.0067747881
 30
0.0
 10
15.3423494841
 20
12.965830762
 30
0.0
 10
15.3432986653
 20
12.9436908361
 30
0.0
  0
SPLINE
  5
398
100
AcDbEntity
  8
ALL_ASSEMBLY_MEMBERS
100
AcDbSpline
 62
7
  6
CONTINUOUS
 70
0
 71
3
 72
11
 73
7
 74
0
 42
0.0000001
 43
0.0000001
 44
0.0000000001
 40
0.0
 40
0.0
 40
0.0
 40
0.0
 40
0.2911005069
 40
0.5007865867
 40
0.7104726666
 40
1.0
 40
1.0
 40
1.0
 40
1.0
 10
15.307702027
 20
12.9388541546
 30
0.0
 10
15.307702027
 20
12.9555659878
 30
0.0
 10
15.3038207865
 20
12.9843157211
 30
0.0
 10
15.2647762055
 20
13.0056403133
 30
0.0
 10
15.2253165194
 20
12.9844136284
 30
0.0
 10
15.222702027
 20
12.9555779172
 30
0.0
 10
15.222702027
 20
12.9388541546
 30
0.0
  0
SPLINE
  5
399
100
AcDbEntity
  8
ALL_ASSEMBLY_MEMBERS
100
AcDbSpline
 62
7
  6
CONTINUOUS
 70
0
 71
3
 72
11
 73
7
 74
0
 42
0.0000001
 43
0.0000001
 44
0.0000000001
 40
0.0
 40
0.0
 40
0.0
 40
0.0
 40
0.2895273334
 40
0.4992134133
 40
0.7088994931
 40
1.0
 40
1.0
 40
1.0
 40
1.0
 10
15.222702027
 20
12.9388541546
 30
0.0
 10
15.222702027
 20
12.9221303921
 30
0.0
 10
15.2253165194
 20
12.8932946808
 30
0.0
 10
15.2647762055
 20
12.8720679959
 30
0.0
 10
15.3038207865
 20
12.8933925881
 30
0.0
 10
15.307702027
 20
12.9221423214
 30
0.0
 10
15.307702027
 20
12.9388541546
 30
0.0
  0
LINE
  5
39A
100
AcDbEntity
  8
ALL_FEATURES
100
AcDbLine
 62
7
  6
CONTINUOUS
 10
7.9219120072
 20
13.2711249966
 11
8.359402027
 21
13.5237099773
  0
LINE
  5
39B
100
AcDbEntity
  8
ALL_FEATURES
100
AcDbLine
 62
7
  6
CONTINUOUS
 10
6.7708920468
 20
13.2711249966
 11
6.333402027
 21
13.5237099773
  0
LINE
  5
39C
100
AcDbEntity
  8
ALL_FEATURES
100
AcDbLine
 62
7
  6
CONTINUOUS
 10
6.7708920468
 20
12.6065833126
 11
6.333402027
 21
12.3539983319
  0
LINE
  5
39D
100
AcDbEntity
  8
ALL_FEATURES
100
AcDbLine
 62
7
  6
CONTINUOUS
 10
7.9219120072
 20
12.6065833126
 11
8.359402027
 21
12.3539983319
  0
LINE
  5
39E
100
AcDbEntity
  8
ALL_FEATURES
100
AcDbLine
 62
7
  6
CONTINUOUS
 10
15.9219120072
 20
13.2711249966
 11
16.359402027
 21
13.5237099773
  0
LINE
  5
39F
100
AcDbEntity
  8
ALL_FEATURES
100
AcDbLine
 62
7
  6
CONTINUOUS
 10
14.7708920468
 20
13.2711249966
 11
14.333402027
 21
13.5237099773
  0
LINE
  5
3A0
100
AcDbEntity
  8
ALL_FEATURES
100
AcDbLine
 62
7
  6
CONTINUOUS
 10
14.7708920468
 20
12.6065833126
 11
14.333402027
 21
12.3539983319
  0
LINE
  5
3A1
100
AcDbEntity
  8
ALL_FEATURES
100
AcDbLine
 62
7
  6
CONTINUOUS
 10
15.9219120072
 20
12.6065833126
 11
16.359402027
 21
12.3539983319
  0
SPLINE
  5
3A2
100
AcDbEntity
  8
ALL_ASSEMBLY_MEMBERS
100
AcDbSpline
 62
7
  6
CONTINUOUS
 70
0
 71
3
 72
9
 73
5
 74
0
 42
0.0000001
 43
0.0000001
 44
0.0000000001
 40
0.0
 40
0.0
 40
0.0
 40
0.0
 40
0.2618675532
 40
1.0
 40
1.0
 40
1.0
 40
1.0
 10
11.2334660748
 20
14.3504550427
 30
0.0
 10
11.2321768605
 20
14.3509808208
 30
0.0
 10
11.227277267
 20
14.3530455375
 30
0.0
 10
11.2224733908
 20
14.3553402363
 30
0.0
 10
11.2190052358
 20
14.3571770307
 30
0.0
  0
SPLINE
  5
3A3
100
AcDbEntity
  8
ALL_ASSEMBLY_MEMBERS
100
AcDbSpline
 62
7
  6
CONTINUOUS
 70
0
 71
3
 72
9
 73
5
 74
0
 42
0.0000001
 43
0.0000001
 44
0.0000000001
 40
0.0
 40
0.0
 40
0.0
 40
0.0
 40
0.2658673588
 40
1.0
 40
1.0
 40
1.0
 40
1.0
 10
11.256437153
 20
14.3393790211
 30
0.0
 10
11.2559594766
 20
14.3397099724
 30
0.0
 10
11.2541869655
 20
14.340988521
 30
0.0
 10
11.2525134322
 20
14.3424099607
 30
0.0
 10
11.2513814199
 20
14.3435472443
 30
0.0
  0
SPLINE
  5
3A4
100
AcDbEntity
  8
ALL_ASSEMBLY_MEMBERS
100
AcDbSpline
 62
7
  6
CONTINUOUS
 70
0
 71
3
 72
10
 73
6
 74
0
 42
0.0000001
 43
0.0000001
 44
0.0000000001
 40
0.0
 40
0.0
 40
0.0
 40
0.0
 40
0.2301703146
 40
0.4696821541
 40
1.0
 40
1.0
 40
1.0
 40
1.0
 10
11.2506612226
 20
14.3258242786
 30
0.0
 10
11.2507085779
 20
14.3269714864
 30
0.0
 10
11.251031147
 20
14.3293089269
 30
0.0
 10
11.2526063279
 20
14.3340642789
 30
0.0
 10
11.2547448687
 20
14.3373456612
 30
0.0
 10
11.256437153
 20
14.3393790211
 30
0.0
  0
SPLINE
  5
3A5
100
AcDbEntity
  8
ALL_ASSEMBLY_MEMBERS
100
AcDbSpline
 62
7
  6
CONTINUOUS
 70
0
 71
3
 72
9
 73
5
 74
0
 42
0.0000001
 43
0.0000001
 44
0.0000000001
 40
0.0
 40
0.0
 40
0.0
 40
0.0
 40
0.5317495458
 40
1.0
 40
1.0
 40
1.0
 40
1.0
 10
11.2865022798
 20
14.3161897485
 30
0.0
 10
11.2800210408
 20
14.3173576972
 30
0.0
 10
11.2679057326
 20
14.3199938266
 30
0.0
 10
11.2560681941
 20
14.3237277432
 30
0.0
 10
11.2506612226
 20
14.3258242786
 30
0.0
  0
SPLINE
  5
3A6
100
AcDbEntity
  8
ALL_ASSEMBLY_MEMBERS
100
AcDbSpline
 62
7
  6
CONTINUOUS
 70
0
 71
3
 72
11
 73
7
 74
0
 42
0.0000001
 43
0.0000001
 44
0.0000000001
 40
0.0
 40
0.0
 40
0.0
 40
0.0
 40
0.2274742797
 40
0.477524285
 40
0.739393543
 40
1.0
 40
1.0
 40
1.0
 40
1.0
 10
11.4454316937
 20
14.3271527473
 30
0.0
 10
11.4336751491
 20
14.3241723699
 30
0.0
 10
11.408653279
 20
14.3192288507
 30
0.0
 10
11.3694191152
 20
14.3149710821
 30
0.0
 10
11.3282077554
 20
14.3137667847
 30
0.0
 10
11.3003492022
 20
14.3150351806
 30
0.0
 10
11.2865022798
 20
14.3161897485
 30
0.0
  0
SPLINE
  5
3A7
100
AcDbEntity
  8
ALL_ASSEMBLY_MEMBERS
100
AcDbSpline
 62
7
  6
CONTINUOUS
 70
0
 71
3
 72
11
 73
7
 74
0
 42
0.0000001
 43
0.0000001
 44
0.0000000001
 40
0.0
 40
0.0
 40
0.0
 40
0.0
 40
0.2051033969
 40
0.4390342602
 40
0.7039039687
 40
1.0
 40
1.0
 40
1.0
 40
1.0
 10
11.4691728973
 20
14.3428921418
 30
0.0
 10
11.4679315797
 20
14.3413696947
 30
0.0
 10
11.4649439302
 20
14.3383769398
 30
0.0
 10
11.4595237527
 20
14.3343407294
 30
0.0
 10
11.4529258474
 20
14.3305156973
 30
0.0
 10
11.4480454406
 20
14.3282528799
 30
0.0
 10
11.4454316937
 20
14.3271527473
 30
0.0
  0
SPLINE
  5
3A8
100
AcDbEntity
  8
ALL_ASSEMBLY_MEMBERS
100
AcDbSpline
 62
7
  6
CONTINUOUS
 70
0
 71
3
 72
11
 73
7
 74
0
 42
0.0000001
 43
0.0000001
 44
0.0000000001
 40
0.0
 40
0.0
 40
0.0
 40
0.0
 40
0.2227841404
 40
0.4635046914
 40
0.7224890553
 40
1.0
 40
1.0
 40
1.0
 40
1.0
 10
12.3506472932
 20
11.9504272974
 30
0.0
 10
12.333236133
 20
11.8778393701
 30
0.0
 10
12.3006438883
 20
11.7259355887
 30
0.0
 10
12.2592198395
 20
11.4873762382
 30
0.0
 10
12.223393481
 20
11.2293921007
 30
0.0
 10
12.2039206868
 20
11.0506635707
 30
0.0
 10
12.195002056
 20
10.9581084408
 30
0.0
  0
SPLINE
  5
3A9
100
AcDbEntity
  8
ALL_ASSEMBLY_MEMBERS
100
AcDbSpline
 62
7
  6
CONTINUOUS
 70
0
 71
3
 72
11
 73
7
 74
0
 42
0.0000001
 43
0.0000001
 44
0.0000000001
 40
0.0
 40
0.0
 40
0.0
 40
0.0
 40
0.2331563393
 40
0.4773961783
 40
0.7329450922
 40
1.0
 40
1.0
 40
1.0
 40
1.0
 10
12.4677785214
 20
12.3450023686
 30
0.0
 10
12.4567355174
 20
12.314962398
 30
0.0
 10
12.4352206255
 20
12.2530472209
 30
0.0
 10
12.4052229893
 20
12.1569965169
 30
0.0
 10
12.3767599582
 20
12.0556391234
 30
0.0
 10
12.3591978253
 20
11.9860748586
 30
0.0
 10
12.3506472932
 20
11.9504272974
 30
0.0
  0
SPLINE
  5
3AA
100
AcDbEntity
  8
ALL_ASSEMBLY_MEMBERS
100
AcDbSpline
 62
7
  6
CONTINUOUS
 70
0
 71
3
 72
9
 73
5
 74
0
 42
0.0000001
 43
0.0000001
 44
0.0000000001
 40
0.0
 40
0.0
 40
0.0
 40
0.0
 40
0.4847213729
 40
1.0
 40
1.0
 40
1.0
 40
1.0
 10
12.5538383736
 20
12.5491978141
 30
0.0
 10
12.5382116034
 20
12.5169727851
 30
0.0
 10
12.5078813954
 20
12.4495557283
 30
0.0
 10
12.4809146471
 20
12.3807361988
 30
0.0
 10
12.4677785214
 20
12.3450023686
 30
0.0
  0
SPLINE
  5
3AB
100
AcDbEntity
  8
ALL_ASSEMBLY_MEMBERS
100
AcDbSpline
 62
7
  6
CONTINUOUS
 70
0
 71
3
 72
9
 73
5
 74
0
 42
0.0000001
 43
0.0000001
 44
0.0000000001
 40
0.0
 40
0.0
 40
0.0
 40
0.0
 40
0.5145369008
 40
1.0
 40
1.0
 40
1.0
 40
1.0
 10
10.1389656804
 20
12.5491978141
 30
0.0
 10
10.1252682988
 20
12.5774441192
 30
0.0
 10
10.0972570444
 20
12.6316817291
 30
0.0
 10
10.0661233878
 20
12.6842034843
 30
0.0
 10
10.0501700094
 20
12.7091582504
 30
0.0
  0
SPLINE
  5
3AC
100
AcDbEntity
  8
ALL_ASSEMBLY_MEMBERS
100
AcDbSpline
 62
7
  6
CONTINUOUS
 70
0
 71
3
 72
9
 73
5
 74
0
 42
0.0000001
 43
0.0000001
 44
0.0000000001
 40
0.0
 40
0.0
 40
0.0
 40
0.0
 40
0.5152786271
 40
1.0
 40
1.0
 40
1.0
 40
1.0
 10
10.2250255327
 20
12.3450023686
 30
0.0
 10
10.211889407
 20
12.3807361988
 30
0.0
 10
10.1849226587
 20
12.4495557283
 30
0.0
 10
10.1545924507
 20
12.5169727851
 30
0.0
 10
10.1389656804
 20
12.5491978141
 30
0.0
  0
SPLINE
  5
3AD
100
AcDbEntity
  8
ALL_ASSEMBLY_MEMBERS
100
AcDbSpline
 62
7
  6
CONTINUOUS
 70
0
 71
3
 72
11
 73
7
 74
0
 42
0.0000001
 43
0.0000001
 44
0.0000000001
 40
0.0
 40
0.0
 40
0.0
 40
0.0
 40
0.2670549078
 40
0.5226038217
 40
0.7668436607
 40
1.0
 40
1.0
 40
1.0
 40
1.0
 10
10.3421567608
 20
11.9504272974
 30
0.0
 10
10.3336062288
 20
11.9860748586
 30
0.0
 10
10.3160440959
 20
12.0556391234
 30
0.0
 10
10.2875810648
 20
12.1569965169
 30
0.0
 10
10.2575834285
 20
12.2530472209
 30
0.0
 10
10.2360685367
 20
12.314962398
 30
0.0
 10
10.2250255327
 20
12.3450023686
 30
0.0
  0
SPLINE
  5
3AE
100
AcDbEntity
  8
ALL_ASSEMBLY_MEMBERS
100
AcDbSpline
 62
7
  6
CONTINUOUS
 70
0
 71
3
 72
11
 73
7
 74
0
 42
0.0000001
 43
0.0000001
 44
0.0000000001
 40
0.0
 40
0.0
 40
0.0
 40
0.0
 40
0.2775109447
 40
0.5364953086
 40
0.7772158596
 40
1.0
 40
1.0
 40
1.0
 40
1.0
 10
10.4978019981
 20
10.9581084408
 30
0.0
 10
10.4888833672
 20
11.0506635707
 30
0.0
 10
10.4694105731
 20
11.2293921007
 30
0.0
 10
10.4335842146
 20
11.4873762382
 30
0.0
 10
10.3921601658
 20
11.7259355887
 30
0.0
 10
10.3595679211
 20
11.8778393701
 30
0.0
 10
10.3421567608
 20
11.9504272974
 30
0.0
  0
SPLINE
  5
3AF
100
AcDbEntity
  8
ALL_ASSEMBLY_MEMBERS
100
AcDbSpline
 62
7
  6
CONTINUOUS
 70
0
 71
3
 72
11
 73
7
 74
0
 42
0.0000001
 43
0.0000001
 44
0.0000000001
 40
0.0
 40
0.0
 40
0.0
 40
0.0
 40
0.250290158
 40
0.5002244649
 40
0.7500012473
 40
1.0
 40
1.0
 40
1.0
 40
1.0
 10
10.497801483
 20
10.9581087657
 30
0.0
 10
10.5424060435
 20
10.4952152414
 30
0.0
 10
10.6168993973
 20
9.5686067247
 30
0.0
 10
10.6843577934
 20
8.1765152245
 30
0.0
 10
10.7074349672
 20
6.7835231725
 30
0.0
 10
10.6933123988
 20
5.8548671985
 30
0.0
 10
10.6789017067
 20
5.3905946096
 30
0.0
  0
SPLINE
  5
3B0
100
AcDbEntity
  8
ALL_ASSEMBLY_MEMBERS
100
AcDbSpline
 62
7
  6
CONTINUOUS
 70
0
 71
3
 72
11
 73
7
 74
0
 42
0.0000001
 43
0.0000001
 44
0.0000000001
 40
0.0
 40
0.0
 40
0.0
 40
0.0
 40
0.2500073921
 40
0.4997906858
 40
0.7497209045
 40
1.0
 40
1.0
 40
1.0
 40
1.0
 10
12.0139017047
 20
5.3905945875
 30
0.0
 10
11.9994905459
 20
5.8548832243
 30
0.0
 10
11.9853682383
 20
6.7835673913
 30
0.0
 10
12.0084491677
 20
8.176579947
 30
0.0
 10
12.0759075913
 20
9.568655359
 30
0.0
 10
12.1503990452
 20
10.4952357824
 30
0.0
 10
12.1950015377
 20
10.9581088595
 30
0.0
  0
SPLINE
  5
3B1
100
AcDbEntity
  8
ALL_ASSEMBLY_MEMBERS
100
AcDbSpline
 62
7
  6
CONTINUOUS
 70
0
 71
3
 72
11
 73
7
 74
0
 42
0.0000001
 43
0.0000001
 44
0.0000000001
 40
0.0
 40
0.0
 40
0.0
 40
0.0
 40
0.2503407102
 40
0.5005717614
 40
0.7505136692
 40
1.0
 40
1.0
 40
1.0
 40
1.0
 10
11.3464020257
 20
2.9498824755
 30
0.0
 10
11.380206183
 20
2.9498824755
 30
0.0
 10
11.4478870892
 20
2.9546153738
 30
0.0
 10
11.5473815505
 20
2.9753879845
 30
0.0
 10
11.6430786954
 20
3.0092906354
 30
0.0
 10
11.7032152405
 20
3.040373458
 30
0.0
 10
11.7319794134
 20
3.0579107556
 30
0.0
  0
LINE
  5
3B2
100
AcDbEntity
  8
ALL_ASSEMBLY_MEMBERS
100
AcDbLine
 62
7
  6
CONTINUOUS
 10
12.013902027
 20
5.3905943329
 11
12.0165259747
 21
5.3058687134
  0
LINE
  5
3B3
100
AcDbEntity
  8
ALL_ASSEMBLY_MEMBERS
100
AcDbLine
 62
7
  6
CONTINUOUS
 10
12.0165259747
 20
5.3058687134
 11
12.0256687197
 21
5.0043819651
  0
SPLINE
  5
3B4
100
AcDbEntity
  8
ALL_ASSEMBLY_MEMBERS
100
AcDbSpline
 62
7
  6
CONTINUOUS
 70
0
 71
3
 72
20
 73
16
 74
0
 42
0.0000001
 43
0.0000001
 44
0.0000000001
 40
0.0
 40
0.0
 40
0.0
 40
0.0
 40
0.1565134535
 40
0.3167894936
 40
0.4740049569
 40
0.621514338
 40
0.6895844935
 40
0.7529045782
 40
0.8108379279
 40
0.8627485321
 40
0.9080173285
 40
0.9462024032
 40
0.9769715136
 40
0.9894732647
 40
1.0
 40
1.0
 40
1.0
 40
1.0
 10
12.0256687197
 20
5.0043819651
 30
0.0
 10
12.0276507482
 20
4.9379880027
 30
0.0
 10
12.0315063005
 20
4.8035993237
 30
0.0
 10
12.0370999413
 20
4.6025117452
 30
0.0
 10
12.0426444133
 20
4.4052455628
 30
0.0
 10
12.0473231223
 20
4.2471022142
 30
0.0
 10
12.0511184318
 20
4.1287993757
 30
0.0
 10
12.0538737895
 20
4.048498551
 30
0.0
 10
12.0566112576
 20
3.9750594326
 30
0.0
 10
12.0593283553
 20
3.9092862412
 30
0.0
 10
12.062025051
 20
3.8519009981
 30
0.0
 10
12.0646989943
 20
3.8034987091
 30
0.0
 10
12.0670195413
 20
3.7690051677
 30
0.0
 10
12.0689355652
 20
3.746253804
 30
0.0
 10
12.0699027249
 20
3.7365278769
 30
0.0
 10
12.0703995026
 20
3.7320880885
 30
0.0
  0
SPLINE
  5
3B5
100
AcDbEntity
  8
ALL_ASSEMBLY_MEMBERS
100
AcDbSpline
 62
7
  6
CONTINUOUS
 70
0
 71
3
 72
17
 73
13
 74
0
 42
0.0000001
 43
0.0000001
 44
0.0000000001
 40
0.0
 40
0.0
 40
0.0
 40
0.0
 40
0.125805603
 40
0.251439496
 40
0.3768261247
 40
0.4394352625
 40
0.5019656418
 40
0.6267713913
 40
0.7513803108
 40
0.8136386383
 40
0.8758390636
 40
1.0
 40
1.0
 40
1.0
 40
1.0
 10
11.7319794134
 20
3.0579107556
 30
0.0
 10
11.7583296316
 20
3.0739762833
 30
0.0
 10
11.808979698
 20
3.1095260046
 30
0.0
 10
11.8775196452
 20
3.1718872173
 30
0.0
 10
11.9276429658
 20
3.2305532464
 30
0.0
 10
11.9629491073
 20
3.2809005925
 30
0.0
 10
11.9948676234
 20
3.3332970588
 30
0.0
 10
12.028179609
 20
3.4024433243
 30
0.0
 10
12.052366142
 20
3.475203316
 30
0.0
 10
12.0660445892
 20
3.5347905991
 30
0.0
 10
12.0758849133
 20
3.5950097698
 30
0.0
 10
12.078902027
 20
3.640796062
 30
0.0
 10
12.078902027
 20
3.6712541551
 30
0.0
  0
LINE
  5
3B6
100
AcDbEntity
  8
ALL_ASSEMBLY_MEMBERS
100
AcDbLine
 62
7
  6
CONTINUOUS
 10
10.678902027
 20
5.3905943329
 11
10.6762780794
 21
5.3058687134
  0
LINE
  5
3B7
100
AcDbEntity
  8
ALL_ASSEMBLY_MEMBERS
100
AcDbLine
 62
7
  6
CONTINUOUS
 10
10.6762780794
 20
5.3058687134
 11
10.6671353344
 21
5.0043819651
  0
SPLINE
  5
3B8
100
AcDbEntity
  8
ALL_ASSEMBLY_MEMBERS
100
AcDbSpline
 62
7
  6
CONTINUOUS
 70
0
 71
3
 72
20
 73
16
 74
0
 42
0.0000001
 43
0.0000001
 44
0.0000000001
 40
0.0
 40
0.0
 40
0.0
 40
0.0
 40
0.1565097919
 40
0.3167821863
 40
0.4739946137
 40
0.6215021453
 40
0.6895719855
 40
0.7528922074
 40
0.8108262015
 40
0.8627380133
 40
0.9080086063
 40
0.946196018
 40
0.9769680277
 40
0.9894714473
 40
1.0
 40
1.0
 40
1.0
 40
1.0
 10
10.6671353344
 20
5.0043819651
 30
0.0
 10
10.6651533721
 20
4.9379902188
 30
0.0
 10
10.6612979422
 20
4.8036059814
 30
0.0
 10
10.6557044746
 20
4.6025247983
 30
0.0
 10
10.6501601717
 20
4.4052642038
 30
0.0
 10
10.6454816117
 20
4.247124639
 30
0.0
 10
10.6416864303
 20
4.1288238396
 30
0.0
 10
10.6389311562
 20
4.0485236166
 30
0.0
 10
10.6361937694
 20
3.9750843846
 30
0.0
 10
10.6334767505
 20
3.9093102979
 30
0.0
 10
10.6307801319
 20
3.8519233563
 30
0.0
 10
10.6281062591
 20
3.8035185589
 30
0.0
 10
10.6257857798
 20
3.7690224229
 30
0.0
 10
10.6238698325
 20
3.7462685623
 30
0.0
 10
10.6229027144
 20
3.736541243
 30
0.0
 10
10.6224059647
 20
3.7321007202
 30
0.0
  0
SPLINE
  5
3B9
100
AcDbEntity
  8
ALL_ASSEMBLY_MEMBERS
100
AcDbSpline
 62
7
  6
CONTINUOUS
 70
0
 71
3
 72
17
 73
13
 74
0
 42
0.0000001
 43
0.0000001
 44
0.0000000001
 40
0.0
 40
0.0
 40
0.0
 40
0.0
 40
0.1241609364
 40
0.1863613617
 40
0.2486196892
 40
0.3732286087
 40
0.4980343582
 40
0.5605647375
 40
0.6231738753
 40
0.748560504
 40
0.874194397
 40
1.0
 40
1.0
 40
1.0
 40
1.0
 10
10.613902027
 20
3.671254155
 30
0.0
 10
10.613902027
 20
3.6407960619
 30
0.0
 10
10.6169191408
 20
3.5950097698
 30
0.0
 10
10.6267594649
 20
3.5347905993
 30
0.0
 10
10.6404379119
 20
3.4752033163
 30
0.0
 10
10.6646244449
 20
3.4024433247
 30
0.0
 10
10.6979364303
 20
3.3332970594
 30
0.0
 10
10.7298549463
 20
3.2809005932
 30
0.0
 10
10.7651610876
 20
3.2305532472
 30
0.0
 10
10.815284408
 20
3.1718872181
 30
0.0
 10
10.883824355
 20
3.1095260055
 30
0.0
 10
10.9344744212
 20
3.0739762841
 30
0.0
 10
10.9608246393
 20
3.0579107564
 30
0.0
  0
SPLINE
  5
3BA
100
AcDbEntity
  8
ALL_ASSEMBLY_MEMBERS
100
AcDbSpline
 62
7
  6
CONTINUOUS
 70
0
 71
3
 72
11
 73
7
 74
0
 42
0.0000001
 43
0.0000001
 44
0.0000000001
 40
0.0
 40
0.0
 40
0.0
 40
0.0
 40
0.2494863308
 40
0.4994282386
 40
0.7496592898
 40
1.0
 40
1.0
 40
1.0
 40
1.0
 10
10.9608246393
 20
3.0579107564
 30
0.0
 10
10.9895888121
 20
3.0403734588
 30
0.0
 10
11.049725357
 20
3.0092906361
 30
0.0
 10
11.1454225016
 20
2.9753879851
 30
0.0
 10
11.2449169626
 20
2.9546153741
 30
0.0
 10
11.3125978686
 20
2.9498824756
 30
0.0
 10
11.3464020257
 20
2.9498824755
 30
0.0
  0
SPLINE
  5
3BB
100
AcDbEntity
  8
ALL_ASSEMBLY_MEMBERS
100
AcDbSpline
 62
7
  6
CONTINUOUS
 70
0
 71
3
 72
9
 73
5
 74
0
 42
0.0000001
 43
0.0000001
 44
0.0000000001
 40
0.0
 40
0.0
 40
0.0
 40
0.0
 40
0.2626714203
 40
1.0
 40
1.0
 40
1.0
 40
1.0
 10
11.4495525787
 20
14.3597001323
 30
0.0
 10
11.4503273723
 20
14.359248856
 30
0.0
 10
11.4532535123
 20
14.357491163
 30
0.0
 10
11.4560837051
 20
14.3555706224
 30
0.0
 10
11.4580889079
 20
14.3540494723
 30
0.0
  0
SPLINE
  5
3BC
100
AcDbEntity
  8
ALL_ASSEMBLY_MEMBERS
100
AcDbSpline
 62
7
  6
CONTINUOUS
 70
0
 71
3
 72
9
 73
5
 74
0
 42
0.0000001
 43
0.0000001
 44
0.0000000001
 40
0.0
 40
0.0
 40
0.0
 40
0.0
 40
0.5320181633
 40
1.0
 40
1.0
 40
1.0
 40
1.0
 10
11.4580889079
 20
14.3540494723
 30
0.0
 10
11.4603177447
 20
14.3523586732
 30
0.0
 10
11.4643284314
 20
14.3489312501
 30
0.0
 10
11.4677711943
 20
14.3449147777
 30
0.0
 10
11.4691728973
 20
14.3428921418
 30
0.0
  0
SPLINE
  5
3BD
100
AcDbEntity
  8
ALL_ASSEMBLY_MEMBERS
100
AcDbSpline
 62
7
  6
CONTINUOUS
 70
0
 71
3
 72
9
 73
5
 74
0
 42
0.0000001
 43
0.0000001
 44
0.0000000001
 40
0.0
 40
0.0
 40
0.0
 40
0.0
 40
0.4854630992
 40
1.0
 40
1.0
 40
1.0
 40
1.0
 10
12.6426340446
 20
12.7091582504
 30
0.0
 10
12.6266806662
 20
12.6842034843
 30
0.0
 10
12.5955470097
 20
12.6316817291
 30
0.0
 10
12.5675357553
 20
12.5774441192
 30
0.0
 10
12.5538383736
 20
12.5491978141
 30
0.0
  0
SPLINE
  5
3BE
100
AcDbEntity
  8
ALL_ASSEMBLY_MEMBERS
100
AcDbSpline
 62
7
  6
CONTINUOUS
 70
0
 71
3
 72
10
 73
6
 74
0
 42
0.0000001
 43
0.0000001
 44
0.0000000001
 40
0.0
 40
0.0
 40
0.0
 40
0.0
 40
0.2315024099
 40
0.6002788876
 40
1.0
 40
1.0
 40
1.0
 40
1.0
 10
12.841402027
 20
12.9388541546
 30
0.0
 10
12.8231040732
 20
12.9240613714
 30
0.0
 10
12.7775432498
 20
12.8833319544
 30
0.0
 10
12.7096680712
 20
12.8073233784
 30
0.0
 10
12.664517038
 20
12.743388303
 30
0.0
 10
12.6426340446
 20
12.7091582504
 30
0.0
  0
LINE
  5
3BF
100
AcDbEntity
  8
ALL_ASSEMBLY_MEMBERS
100
AcDbLine
 62
7
  6
CONTINUOUS
 10
10.598902027
 20
14.2335621333
 11
10.9422568386
 21
13.6388541546
  0
LINE
  5
3C0
100
AcDbEntity
  8
ALL_ASSEMBLY_MEMBERS
100
AcDbLine
 62
7
  6
CONTINUOUS
 10
11.7505472155
 20
13.6388541546
 11
12.093902027
 21
14.2335621333
  0
SPLINE
  5
3C1
100
AcDbEntity
  8
ALL_ASSEMBLY_MEMBERS
100
AcDbSpline
 62
9
  6
CONTINUOUS
 70
0
 71
3
 72
12
 73
8
 74
0
 42
0.0000001
 43
0.0000001
 44
0.0000000001
 40
0.0
 40
0.0
 40
0.0
 40
0.0
 40
0.2186398473
 40
0.4588908995
 40
0.5868011767
 40
0.7197196658
 40
1.0
 40
1.0
 40
1.0
 40
1.0
 10
11.7214022107
 20
11.907027281
 30
0.0
 10
11.7670948889
 20
11.9121298572
 30
0.0
 10
11.8631401028
 20
11.9215736976
 30
0.0
 10
11.9861858726
 20
11.9309723858
 30
0.0
 10
12.0913551691
 20
11.9374834298
 30
0.0
 10
12.2049742157
 20
11.9436810354
 30
0.0
 10
12.2917696301
 20
11.9477439548
 30
0.0
 10
12.3506472932
 20
11.9504272974
 30
0.0
  0
SPLINE
  5
3C2
100
AcDbEntity
  8
ALL_ASSEMBLY_MEMBERS
100
AcDbSpline
 62
9
  6
CONTINUOUS
 70
0
 71
3
 72
15
 73
11
 74
0
 42
0.0000001
 43
0.0000001
 44
0.0000000001
 40
0.0
 40
0.0
 40
0.0
 40
0.0
 40
0.0944716943
 40
0.1979173219
 40
0.3102299461
 40
0.4312897343
 40
0.5609639512
 40
0.6990933544
 40
0.8455010496
 40
1.0
 40
1.0
 40
1.0
 40
1.0
 10
11.7752140921
 20
12.2388542418
 30
0.0
 10
11.7966393593
 20
12.2441895428
 30
0.0
 10
11.8417157264
 20
12.2546076976
 30
0.0
 10
11.9127772096
 20
12.2690405133
 30
0.0
 10
11.9902638982
 20
12.2829535166
 30
0.0
 10
12.0740611831
 20
12.2963075189
 30
0.0
 10
12.1640482253
 20
12.3090678942
 30
0.0
 10
12.2600711588
 20
12.321387685
 30
0.0
 10
12.3619750425
 20
12.3334145589
 30
0.0
 10
12.4318775628
 20
12.3411325901
 30
0.0
 10
12.4677785214
 20
12.3450023686
 30
0.0
  0
SPLINE
  5
3C3
100
AcDbEntity
  8
ALL_ASSEMBLY_MEMBERS
100
AcDbSpline
 62
7
  6
CONTINUOUS
 70
0
 71
3
 72
11
 73
7
 74
0
 42
0.0000001
 43
0.0000001
 44
0.0000000001
 40
0.0
 40
0.0
 40
0.0
 40
0.0
 40
0.2701936915
 40
0.4632805736
 40
0.648836003
 40
1.0
 40
1.0
 40
1.0
 40
1.0
 10
10.0501700094
 20
12.7091582504
 30
0.0
 10
10.0353762406
 20
12.7322991195
 30
0.0
 10
10.0087577058
 20
12.7712013671
 30
0.0
 10
9.9681095095
 20
12.8231885582
 30
0.0
 10
9.9190531848
 20
12.8788704482
 30
0.0
 10
9.8791614846
 20
12.9164123208
 30
0.0
 10
9.851402027
 20
12.9388541546
 30
0.0
  0
SPLINE
  5
3C4
100
AcDbEntity
  8
ALL_ASSEMBLY_MEMBERS
100
AcDbSpline
 62
9
  6
CONTINUOUS
 70
0
 71
3
 72
15
 73
11
 74
0
 42
0.0000001
 43
0.0000001
 44
0.0000000001
 40
0.0
 40
0.0
 40
0.0
 40
0.0
 40
0.0837086028
 40
0.1794198945
 40
0.2870816171
 40
0.4066015862
 40
0.5378531877
 40
0.6806501973
 40
0.8347761114
 40
1.0
 40
1.0
 40
1.0
 40
1.0
 10
11.8620756034
 20
12.4320272144
 30
0.0
 10
11.8807708674
 20
12.4379182759
 30
0.0
 10
11.9212183744
 20
12.4493561929
 30
0.0
 10
11.9866184715
 20
12.4649626391
 30
0.0
 10
12.0607040214
 20
12.48012289
 30
0.0
 10
12.1433509305
 20
12.4947969219
 30
0.0
 10
12.2344225203
 20
12.5089502414
 30
0.0
 10
12.3337386133
 20
12.5227192516
 30
0.0
 10
12.4411113829
 20
12.5362330078
 30
0.0
 10
12.5153925065
 20
12.5448641891
 30
0.0
 10
12.5538383736
 20
12.5491978141
 30
0.0
  0
SPLINE
  5
3C5
100
AcDbEntity
  8
ALL_ASSEMBLY_MEMBERS
100
AcDbSpline
 62
7
  6
CONTINUOUS
 70
0
 71
3
 72
11
 73
7
 74
0
 42
0.0000001
 43
0.0000001
 44
0.0000000001
 40
0.0
 40
0.0
 40
0.0
 40
0.0
 40
0.2772851389
 40
0.5473074803
 40
0.7930498252
 40
1.0
 40
1.0
 40
1.0
 40
1.0
 10
11.3290658609
 20
14.358664486
 30
0.0
 10
11.3395670512
 20
14.3580032409
 30
0.0
 10
11.360295705
 20
14.3567196854
 30
0.0
 10
11.3903286659
 20
14.3548106855
 30
0.0
 10
11.4176872454
 20
14.3529107008
 30
0.0
 10
11.4348103195
 20
14.3515213576
 30
0.0
 10
11.4426281134
 20
14.3507783139
 30
0.0
  0
SPLINE
  5
3C6
100
AcDbEntity
  8
ALL_ASSEMBLY_MEMBERS
100
AcDbSpline
 62
7
  6
CONTINUOUS
 70
0
 71
3
 72
9
 73
5
 74
0
 42
0.0000001
 43
0.0000001
 44
0.0000000001
 40
0.0
 40
0.0
 40
0.0
 40
0.0
 40
0.5678752756
 40
1.0
 40
1.0
 40
1.0
 40
1.0
 10
11.4426281134
 20
14.3507783139
 30
0.0
 10
11.4468501521
 20
14.3503770294
 30
0.0
 10
11.454278963
 20
14.3496110271
 30
0.0
 10
11.4616870555
 20
14.3486376635
 30
0.0
 10
11.464869595
 20
14.3481023909
 30
0.0
  0
LINE
  5
3C7
100
AcDbEntity
  8
ALL_ASSEMBLY_MEMBERS
100
AcDbLine
 62
7
  6
CONTINUOUS
 10
10.6195347712
 20
3.7104995772
 11
10.613902027
 21
3.6712541546
  0
LINE
  5
3C8
100
AcDbEntity
  8
ALL_ASSEMBLY_MEMBERS
100
AcDbLine
 62
7
  6
CONTINUOUS
 10
10.971402027
 20
5.6291374964
 11
10.9713863595
 21
5.5024251786
  0
SPLINE
  5
3C9
100
AcDbEntity
  8
ALL_ASSEMBLY_MEMBERS
100
AcDbSpline
 62
9
  6
CONTINUOUS
 70
0
 71
3
 72
9
 73
5
 74
0
 42
0.0000001
 43
0.0000001
 44
0.0000000001
 40
0.0
 40
0.0
 40
0.0
 40
0.0
 40
0.4940778651
 40
1.0
 40
1.0
 40
1.0
 40
1.0
 10
10.6762780794
 20
5.3058687134
 30
0.0
 10
10.7253176161
 20
5.3375797195
 30
0.0
 10
10.824526561
 20
5.4018121777
 30
0.0
 10
10.9228329973
 20
5.4675180224
 30
0.0
 10
10.9713863595
 20
5.5024251786
 30
0.0
  0
SPLINE
  5
3CA
100
AcDbEntity
  8
ALL_ASSEMBLY_MEMBERS
100
AcDbSpline
 62
7
  6
CONTINUOUS
 70
0
 71
3
 72
9
 73
5
 74
0
 42
0.0000001
 43
0.0000001
 44
0.0000000001
 40
0.0
 40
0.0
 40
0.0
 40
0.0
 40
0.5178368932
 40
1.0
 40
1.0
 40
1.0
 40
1.0
 10
11.3290658609
 20
14.346164486
 30
0.0
 10
11.3434987927
 20
14.3452556647
 30
0.0
 10
11.3713726378
 20
14.3435390698
 30
0.0
 10
11.3992401912
 20
14.3417131761
 30
0.0
 10
11.4126696998
 20
14.3407325607
 30
0.0
  0
LINE
  5
3CB
100
AcDbEntity
  8
ALL_ASSEMBLY_MEMBERS
100
AcDbLine
 62
7
  6
CONTINUOUS
 10
11.4126696998
 20
14.3407325607
 11
11.4453295807
 21
14.338016598
  0
LINE
  5
3CC
100
AcDbEntity
  8
ALL_ASSEMBLY_MEMBERS
100
AcDbLine
 62
7
  6
CONTINUOUS
 10
11.4453295807
 20
14.338016598
 11
11.4617998521
 21
14.3360825815
  0
LINE
  5
3CD
100
AcDbEntity
  8
ALL_ASSEMBLY_MEMBERS
100
AcDbLine
 62
7
  6
CONTINUOUS
 10
10.9713863595
 20
5.5024251786
 11
10.9710827916
 21
5.055853982
  0
SPLINE
  5
3CE
100
AcDbEntity
  8
ALL_ASSEMBLY_MEMBERS
100
AcDbSpline
 62
9
  6
CONTINUOUS
 70
0
 71
3
 72
9
 73
5
 74
0
 42
0.0000001
 43
0.0000001
 44
0.0000000001
 40
0.0
 40
0.0
 40
0.0
 40
0.0
 40
0.4862264574
 40
1.0
 40
1.0
 40
1.0
 40
1.0
 10
10.6671353344
 20
5.0043819651
 30
0.0
 10
10.6919623032
 20
5.0058105955
 30
0.0
 10
10.7429958935
 20
5.0093028883
 30
0.0
 10
10.7938386472
 20
5.0151592424
 30
0.0
 10
10.8198315944
 20
5.0190120278
 30
0.0
  0
SPLINE
  5
3CF
100
AcDbEntity
  8
ALL_ASSEMBLY_MEMBERS
100
AcDbSpline
 62
9
  6
CONTINUOUS
 70
0
 71
3
 72
9
 73
5
 74
0
 42
0.0000001
 43
0.0000001
 44
0.0000000001
 40
0.0
 40
0.0
 40
0.0
 40
0.0
 40
0.4954541125
 40
1.0
 40
1.0
 40
1.0
 40
1.0
 10
10.8198315944
 20
5.0190120278
 30
0.0
 10
10.845298795
 20
5.0227868847
 30
0.0
 10
10.8964789839
 20
5.0320610429
 30
0.0
 10
10.9465417065
 20
5.0466283392
 30
0.0
 10
10.9710827916
 20
5.055853982
 30
0.0
  0
SPLINE
  5
3D0
100
AcDbEntity
  8
ALL_ASSEMBLY_MEMBERS
100
AcDbSpline
 62
7
  6
CONTINUOUS
 70
0
 71
3
 72
10
 73
6
 74
0
 42
0.0000001
 43
0.0000001
 44
0.0000000001
 40
0.0
 40
0.0
 40
0.0
 40
0.0
 40
0.1815399307
 40
0.4101405605
 40
1.0
 40
1.0
 40
1.0
 40
1.0
 10
11.2242079978
 20
14.3677632618
 30
0.0
 10
11.225544303
 20
14.3674727824
 30
0.0
 10
11.2285860203
 20
14.3669225016
 30
0.0
 10
11.2360410571
 20
14.3658394259
 30
0.0
 10
11.2421722603
 20
14.3651731397
 30
0.0
 10
11.2465934557
 20
14.3647302804
 30
0.0
  0
SPLINE
  5
3D1
100
AcDbEntity
  8
ALL_ASSEMBLY_MEMBERS
100
AcDbSpline
 62
7
  6
CONTINUOUS
 70
0
 71
3
 72
10
 73
6
 74
0
 42
0.0000001
 43
0.0000001
 44
0.0000000001
 40
0.0
 40
0.0
 40
0.0
 40
0.0
 40
0.2045636101
 40
0.4453160034
 40
1.0
 40
1.0
 40
1.0
 40
1.0
 10
11.2465934557
 20
14.3647302804
 30
0.0
 10
11.2522044258
 20
14.3641682446
 30
0.0
 10
11.2644338861
 20
14.3630947557
 30
0.0
 10
11.2919226121
 20
14.3610262031
 30
0.0
 10
11.3138055353
 20
14.3596254071
 30
0.0
 10
11.3290658609
 20
14.358664486
 30
0.0
  0
SPLINE
  5
3D2
100
AcDbEntity
  8
ALL_ASSEMBLY_MEMBERS
100
AcDbSpline
 62
7
  6
CONTINUOUS
 70
0
 71
3
 72
11
 73
7
 74
0
 42
0.0000001
 43
0.0000001
 44
0.0000000001
 40
0.0
 40
0.0
 40
0.0
 40
0.0
 40
0.2595616137
 40
0.5241070781
 40
0.7763957311
 40
1.0
 40
1.0
 40
1.0
 40
1.0
 10
11.305019014
 20
14.3977088509
 30
0.0
 10
11.3156725621
 20
14.3970062339
 30
0.0
 10
11.3371882299
 20
14.3956489685
 30
0.0
 10
11.3690630043
 20
14.39367352
 30
0.0
 10
11.3994560588
 20
14.3917032108
 30
0.0
 10
11.4189807026
 20
14.3902892192
 30
0.0
 10
11.4281481208
 20
14.3895442341
 30
0.0
  0
SPLINE
  5
3D3
100
AcDbEntity
  8
ALL_ASSEMBLY_MEMBERS
100
AcDbSpline
 62
7
  6
CONTINUOUS
 70
0
 71
3
 72
10
 73
6
 74
0
 42
0.0000001
 43
0.0000001
 44
0.0000000001
 40
0.0
 40
0.0
 40
0.0
 40
0.0
 40
0.513900012
 40
0.7674608236
 40
1.0
 40
1.0
 40
1.0
 40
1.0
 10
10.9710827916
 20
5.055853982
 30
0.0
 10
10.9708358505
 20
4.833488349
 30
0.0
 10
10.9703019348
 20
4.5014065447
 30
0.0
 10
10.9692159071
 20
4.0687054848
 30
0.0
 10
10.9685135663
 20
3.8583699749
 30
0.0
 10
10.9681095808
 20
3.7577505255
 30
0.0
  0
SPLINE
  5
3D4
100
AcDbEntity
  8
ALL_ASSEMBLY_MEMBERS
100
AcDbSpline
 62
7
  6
CONTINUOUS
 70
0
 71
3
 72
14
 73
10
 74
0
 42
0.0000001
 43
0.0000001
 44
0.0000000001
 40
0.0
 40
0.0
 40
0.0
 40
0.0
 40
0.3566695049
 40
0.5118433691
 40
0.6493355721
 40
0.7677913521
 40
0.8663033472
 40
0.9439972864
 40
1.0
 40
1.0
 40
1.0
 40
1.0
 10
10.9681095808
 20
3.7577505255
 30
0.0
 10
10.96781442
 20
3.6842357082
 30
0.0
 10
10.9673404571
 20
3.5787374467
 30
0.0
 10
10.9665637581
 20
3.4449010198
 30
0.0
 10
10.9659765117
 20
3.3601640942
 30
0.0
 10
10.9653569979
 20
3.2871067192
 30
0.0
 10
10.9647111711
 20
3.2263754179
 30
0.0
 10
10.9640379733
 20
3.1785182069
 30
0.0
 10
10.9635026636
 20
3.1509657979
 30
0.0
 10
10.9631892909
 20
3.1394269785
 30
0.0
  0
SPLINE
  5
3D5
100
AcDbEntity
  8
ALL_ASSEMBLY_MEMBERS
100
AcDbSpline
 62
9
  6
CONTINUOUS
 70
0
 71
3
 72
14
 73
10
 74
0
 42
0.0000001
 43
0.0000001
 44
0.0000000001
 40
0.0
 40
0.0
 40
0.0
 40
0.0
 40
0.1268085366
 40
0.2540663019
 40
0.5076166791
 40
0.6335570816
 40
0.7580823189
 40
0.8804514733
 40
1.0
 40
1.0
 40
1.0
 40
1.0
 10
10.6212803574
 20
3.7229340082
 30
0.0
 10
10.6239150446
 20
3.6934815378
 30
0.0
 10
10.6324312736
 20
3.6347022954
 30
0.0
 10
10.6618597471
 20
3.5199015377
 30
0.0
 10
10.7096795482
 20
3.4105352206
 30
0.0
 10
10.7749369435
 20
3.3125315713
 30
0.0
 10
10.8312427776
 20
3.2460175804
 30
0.0
 10
10.8938201748
 20
3.1875556055
 30
0.0
 10
10.9395930254
 20
3.1542712108
 30
0.0
 10
10.9631892909
 20
3.1394269785
 30
0.0
  0
LINE
  5
3D6
100
AcDbEntity
  8
ALL_ASSEMBLY_MEMBERS
100
AcDbLine
 62
7
  6
CONTINUOUS
 10
10.9631892909
 20
3.1394269785
 11
10.9626594531
 21
3.120265457
  0
SPLINE
  5
3D7
100
AcDbEntity
  8
ALL_ASSEMBLY_MEMBERS
100
AcDbSpline
 62
9
  6
CONTINUOUS
 70
0
 71
3
 72
15
 73
11
 74
0
 42
0.0000001
 43
0.0000001
 44
0.0000000001
 40
0.0
 40
0.0
 40
0.0
 40
0.0
 40
0.126156076
 40
0.2527402455
 40
0.3793553706
 40
0.5056734097
 40
0.6314504166
 40
0.6940243637
 40
0.7562724369
 40
1.0
 40
1.0
 40
1.0
 40
1.0
 10
10.6195347712
 20
3.7104995772
 30
0.0
 10
10.6215769682
 20
3.6808133193
 30
0.0
 10
10.6290835864
 20
3.6215223726
 30
0.0
 10
10.6502207379
 20
3.5343940396
 30
0.0
 10
10.6810114849
 20
3.4501321481
 30
0.0
 10
10.7212046136
 20
3.3701302084
 30
0.0
 10
10.7623431295
 20
3.3081264051
 30
0.0
 10
10.7992807538
 20
3.2619322747
 30
0.0
 10
10.8574784433
 20
3.1973671736
 30
0.0
 10
10.9138935969
 20
3.1507081987
 30
0.0
 10
10.9626594531
 20
3.120265457
 30
0.0
  0
LINE
  5
3D8
100
AcDbEntity
  8
ALL_ASSEMBLY_MEMBERS
100
AcDbLine
 62
9
  6
CONTINUOUS
 10
10.9626594531
 20
3.120265457
 11
10.9608247087
 21
3.0579107141
  0
SPLINE
  5
3D9
100
AcDbEntity
  8
ALL_ASSEMBLY_MEMBERS
100
AcDbSpline
 62
9
  6
CONTINUOUS
 70
0
 71
3
 72
11
 73
7
 74
0
 42
0.0000001
 43
0.0000001
 44
0.0000000001
 40
0.0
 40
0.0
 40
0.0
 40
0.0
 40
0.2510607368
 40
0.5002110406
 40
0.7492552515
 40
1.0
 40
1.0
 40
1.0
 40
1.0
 10
10.9710827916
 20
5.055853982
 30
0.0
 10
11.0021971376
 20
5.0505994455
 30
0.0
 10
11.0644086045
 20
5.0413809779
 30
0.0
 10
11.1580873134
 20
5.0314992032
 30
0.0
 10
11.2520618943
 20
5.0256116395
 30
0.0
 10
11.3148868272
 20
5.0243314715
 30
0.0
 10
11.346402027
 20
5.0243314715
 30
0.0
  0
SPLINE
  5
3DA
100
AcDbEntity
  8
ALL_ASSEMBLY_MEMBERS
100
AcDbSpline
 62
9
  6
CONTINUOUS
 70
0
 71
3
 72
11
 73
7
 74
0
 42
0.0000001
 43
0.0000001
 44
0.0000000001
 40
0.0
 40
0.0
 40
0.0
 40
0.0
 40
0.2544287774
 40
0.5045482482
 40
0.7523174558
 40
1.0
 40
1.0
 40
1.0
 40
1.0
 10
10.9631892909
 20
3.1394269785
 30
0.0
 10
10.9922707187
 20
3.1212351932
 30
0.0
 10
11.0523626518
 20
3.0888544571
 30
0.0
 10
11.1476461879
 20
3.053180139
 30
0.0
 10
11.2461108073
 20
3.0313896369
 30
0.0
 10
11.3130089375
 20
3.0264855183
 30
0.0
 10
11.346402027
 20
3.0264855183
 30
0.0
  0
SPLINE
  5
3DB
100
AcDbEntity
  8
ALL_ASSEMBLY_MEMBERS
100
AcDbSpline
 62
9
  6
CONTINUOUS
 70
0
 71
3
 72
11
 73
7
 74
0
 42
0.0000001
 43
0.0000001
 44
0.0000000001
 40
0.0
 40
0.0
 40
0.0
 40
0.0
 40
0.2533177001
 40
0.5033838677
 40
0.7517015597
 40
1.0
 40
1.0
 40
1.0
 40
1.0
 10
10.9626594531
 20
3.120265457
 30
0.0
 10
10.9916691141
 20
3.1022210857
 30
0.0
 10
11.0517690906
 20
3.070132354
 30
0.0
 10
11.1471459313
 20
3.0348642489
 30
0.0
 10
11.2458417705
 20
3.0133120155
 30
0.0
 10
11.31291523
 20
3.0084497844
 30
0.0
 10
11.346402027
 20
3.0084497844
 30
0.0
  0
SPLINE
  5
3DC
100
AcDbEntity
  8
ALL_ASSEMBLY_MEMBERS
100
AcDbSpline
 62
7
  6
CONTINUOUS
 70
0
 71
3
 72
9
 73
5
 74
0
 42
0.0000001
 43
0.0000001
 44
0.0000000001
 40
0.0
 40
0.0
 40
0.0
 40
0.0
 40
0.5394274813
 40
1.0
 40
1.0
 40
1.0
 40
1.0
 10
11.4364016331
 20
14.3706266496
 30
0.0
 10
11.438111219
 20
14.3694117314
 30
0.0
 10
11.4411407924
 20
14.366947753
 30
0.0
 10
11.4436563513
 20
14.3639307371
 30
0.0
 10
11.4446004097
 20
14.362409083
 30
0.0
  0
SPLINE
  5
3DD
100
AcDbEntity
  8
ALL_ASSEMBLY_MEMBERS
100
AcDbSpline
 62
7
  6
CONTINUOUS
 70
0
 71
3
 72
10
 73
6
 74
0
 42
0.0000001
 43
0.0000001
 44
0.0000000001
 40
0.0
 40
0.0
 40
0.0
 40
0.0
 40
0.2337097869
 40
0.487209361
 40
1.0
 40
1.0
 40
1.0
 40
1.0
 10
11.4006628328
 20
14.3186639568
 30
0.0
 10
11.3937453825
 20
14.3193149656
 30
0.0
 10
11.379315223
 20
14.3205705063
 30
0.0
 10
11.3496822406
 20
14.3229604169
 30
0.0
 10
11.3269688462
 20
14.3247203874
 30
0.0
 10
11.3117779179
 20
14.3260018219
 30
0.0
  0
LINE
  5
3DE
100
AcDbEntity
  8
ALL_ASSEMBLY_MEMBERS
100
AcDbLine
 62
7
  6
CONTINUOUS
 10
11.3117779179
 20
14.3260018219
 11
11.2807292729
 21
14.3288700313
  0
SPLINE
  5
3DF
100
AcDbEntity
  8
ALL_ASSEMBLY_MEMBERS
100
AcDbSpline
 62
7
  6
CONTINUOUS
 70
0
 71
3
 72
9
 73
5
 74
0
 42
0.0000001
 43
0.0000001
 44
0.0000000001
 40
0.0
 40
0.0
 40
0.0
 40
0.0
 40
0.5552763286
 40
1.0
 40
1.0
 40
1.0
 40
1.0
 10
11.2807292729
 20
14.3288700313
 30
0.0
 10
11.2765334123
 20
14.3293090337
 30
0.0
 10
11.2689826659
 20
14.3301524631
 30
0.0
 10
11.2614533243
 20
14.3311858722
 30
0.0
 10
11.2581200266
 20
14.3317386989
 30
0.0
  0
SPLINE
  5
3E0
100
AcDbEntity
  8
ALL_ASSEMBLY_MEMBERS
100
AcDbSpline
 62
7
  6
CONTINUOUS
 70
0
 71
3
 72
11
 73
7
 74
0
 42
0.0000001
 43
0.0000001
 44
0.0000000001
 40
0.0
 40
0.0
 40
0.0
 40
0.0
 40
0.2906658442
 40
0.5454235707
 40
0.7768910675
 40
1.0
 40
1.0
 40
1.0
 40
1.0
 10
11.4281481208
 20
14.3895442341
 30
0.0
 10
11.4296770912
 20
14.3881352239
 30
0.0
 10
11.4323483475
 20
14.3852552632
 30
0.0
 10
11.4352208186
 20
14.3804407853
 30
0.0
 10
11.4366559743
 20
14.3755101359
 30
0.0
 10
11.4366364666
 20
14.3722052254
 30
0.0
 10
11.4364016331
 20
14.3706266496
 30
0.0
  0
SPLINE
  5
3E1
100
AcDbEntity
  8
ALL_ASSEMBLY_MEMBERS
100
AcDbSpline
 62
7
  6
CONTINUOUS
 70
0
 71
3
 72
12
 73
8
 74
0
 42
0.0000001
 43
0.0000001
 44
0.0000000001
 40
0.0
 40
0.0
 40
0.0
 40
0.0
 40
0.2592523418
 40
0.5233775786
 40
0.7752290947
 40
0.8918367302
 40
1.0
 40
1.0
 40
1.0
 40
1.0
 10
11.305019014
 20
14.3977088509
 30
0.0
 10
11.3156670619
 20
14.3990240886
 30
0.0
 10
11.3373112743
 20
14.4005739952
 30
0.0
 10
11.3694261151
 20
14.3999370143
 30
0.0
 10
11.395488925
 20
14.396987957
 30
0.0
 10
11.4148491971
 20
14.3931693932
 30
0.0
 10
11.4238593407
 20
14.3908261272
 30
0.0
 10
11.4281481208
 20
14.3895442341
 30
0.0
  0
SPLINE
  5
3E2
100
AcDbEntity
  8
ALL_ASSEMBLY_MEMBERS
100
AcDbSpline
 62
7
  6
CONTINUOUS
 70
0
 71
3
 72
10
 73
6
 74
0
 42
0.0000001
 43
0.0000001
 44
0.0000000001
 40
0.0
 40
0.0
 40
0.0
 40
0.0
 40
0.4381209408
 40
0.7017672187
 40
1.0
 40
1.0
 40
1.0
 40
1.0
 10
11.2897714799
 20
14.3842200477
 30
0.0
 10
11.2912058147
 20
14.3868617917
 30
0.0
 10
11.2944579608
 20
14.3905767767
 30
0.0
 10
11.2998949851
 20
14.3947587787
 30
0.0
 10
11.3032149494
 20
14.3967432571
 30
0.0
 10
11.305019014
 20
14.3977088509
 30
0.0
  0
SPLINE
  5
3E3
100
AcDbEntity
  8
ALL_ASSEMBLY_MEMBERS
100
AcDbSpline
 62
7
  6
CONTINUOUS
 70
0
 71
3
 72
9
 73
5
 74
0
 42
0.0000001
 43
0.0000001
 44
0.0000000001
 40
0.0
 40
0.0
 40
0.0
 40
0.0
 40
0.2359312879
 40
1.0
 40
1.0
 40
1.0
 40
1.0
 10
11.2742664149
 20
14.3795736174
 30
0.0
 10
11.2754620076
 20
14.3800117338
 30
0.0
 10
11.280560021
 20
14.3817853095
 30
0.0
 10
11.2857646206
 20
14.3832452463
 30
0.0
 10
11.2897714799
 20
14.3842200477
 30
0.0
  0
SPLINE
  5
3E4
100
AcDbEntity
  8
ALL_ASSEMBLY_MEMBERS
100
AcDbSpline
 62
9
  6
CONTINUOUS
 70
0
 71
3
 72
12
 73
8
 74
0
 42
0.0000001
 43
0.0000001
 44
0.0000000001
 40
0.0
 40
0.0
 40
0.0
 40
0.0
 40
0.2186398461
 40
0.4588908972
 40
0.5868011748
 40
0.7197196647
 40
1.0
 40
1.0
 40
1.0
 40
1.0
 10
10.9714018433
 20
11.907027281
 30
0.0
 10
10.9257091654
 20
11.9121298571
 30
0.0
 10
10.829663952
 20
11.9215736975
 30
0.0
 10
10.7066181826
 20
11.9309723856
 30
0.0
 10
10.6014488861
 20
11.9374834297
 30
0.0
 10
10.487829839
 20
11.9436810353
 30
0.0
 10
10.4010344242
 20
11.9477439548
 30
0.0
 10
10.3421567608
 20
11.9504272974
 30
0.0
  0
SPLINE
  5
3E5
100
AcDbEntity
  8
ALL_ASSEMBLY_MEMBERS
100
AcDbSpline
 62
9
  6
CONTINUOUS
 70
0
 71
3
 72
15
 73
11
 74
0
 42
0.0000001
 43
0.0000001
 44
0.0000000001
 40
0.0
 40
0.0
 40
0.0
 40
0.0
 40
0.0944716938
 40
0.1979173205
 40
0.3102299438
 40
0.4312897316
 40
0.5609639489
 40
0.6990933531
 40
0.8455010492
 40
1.0
 40
1.0
 40
1.0
 40
1.0
 10
10.917589962
 20
12.2388542418
 30
0.0
 10
10.8961646949
 20
12.2441895427
 30
0.0
 10
10.8510883281
 20
12.2546076976
 30
0.0
 10
10.7800268454
 20
12.2690405133
 30
0.0
 10
10.7025401574
 20
12.2829535165
 30
0.0
 10
10.6187428727
 20
12.2963075188
 30
0.0
 10
10.5287558303
 20
12.3090678941
 30
0.0
 10
10.4327328963
 20
12.3213876849
 30
0.0
 10
10.330829012
 20
12.3334145589
 30
0.0
 10
10.2609264914
 20
12.3411325901
 30
0.0
 10
10.2250255327
 20
12.3450023686
 30
0.0
  0
SPLINE
  5
3E6
100
AcDbEntity
  8
ALL_ASSEMBLY_MEMBERS
100
AcDbSpline
 62
9
  6
CONTINUOUS
 70
0
 71
3
 72
15
 73
11
 74
0
 42
0.0000001
 43
0.0000001
 44
0.0000000001
 40
0.0
 40
0.0
 40
0.0
 40
0.0
 40
0.0837086024
 40
0.179419893
 40
0.2870816146
 40
0.4066015832
 40
0.5378531852
 40
0.6806501958
 40
0.8347761109
 40
1.0
 40
1.0
 40
1.0
 40
1.0
 10
10.8307284506
 20
12.4320272144
 30
0.0
 10
10.8120331868
 20
12.4379182759
 30
0.0
 10
10.7715856801
 20
12.4493561928
 30
0.0
 10
10.7061855836
 20
12.4649626391
 30
0.0
 10
10.6321000343
 20
12.4801228899
 30
0.0
 10
10.5494531254
 20
12.4947969218
 30
0.0
 10
10.4583815355
 20
12.5089502414
 30
0.0
 10
10.3590654418
 20
12.5227192515
 30
0.0
 10
10.2516926716
 20
12.5362330077
 30
0.0
 10
10.1774115477
 20
12.5448641891
 30
0.0
 10
10.1389656804
 20
12.5491978141
 30
0.0
  0
SPLINE
  5
3E7
100
AcDbEntity
  8
ALL_ASSEMBLY_MEMBERS
100
AcDbSpline
 62
7
  6
CONTINUOUS
 70
0
 71
3
 72
9
 73
5
 74
0
 42
0.0000001
 43
0.0000001
 44
0.0000000001
 40
0.0
 40
0.0
 40
0.0
 40
0.0
 40
0.4800084117
 40
1.0
 40
1.0
 40
1.0
 40
1.0
 10
11.2321513261
 20
14.3702257172
 30
0.0
 10
11.2387768274
 20
14.3721745388
 30
0.0
 10
11.2527259126
 20
14.3757477475
 30
0.0
 10
11.2668753309
 20
14.3784144414
 30
0.0
 10
11.2742664149
 20
14.3795736174
 30
0.0
  0
SPLINE
  5
3E8
100
AcDbEntity
  8
ALL_ASSEMBLY_MEMBERS
100
AcDbSpline
 62
7
  6
CONTINUOUS
 70
0
 71
3
 72
9
 73
5
 74
0
 42
0.0000001
 43
0.0000001
 44
0.0000000001
 40
0.0
 40
0.0
 40
0.0
 40
0.0
 40
0.469609249
 40
1.0
 40
1.0
 40
1.0
 40
1.0
 10
11.2190052358
 20
14.3571770307
 30
0.0
 10
11.2192725132
 20
14.3590226752
 30
0.0
 10
11.2205502453
 20
14.3628640149
 30
0.0
 10
11.2228437608
 20
14.3661585085
 30
0.0
 10
11.2242079978
 20
14.3677632618
 30
0.0
  0
LINE
  5
3E9
100
AcDbEntity
  8
ALL_ASSEMBLY_MEMBERS
100
AcDbLine
 62
7
  6
CONTINUOUS
 10
11.2584861039
 20
14.337932268
 11
11.264719258
 21
14.337008134
  0
LINE
  5
3EA
100
AcDbEntity
  8
ALL_ASSEMBLY_MEMBERS
100
AcDbLine
 62
7
  6
CONTINUOUS
 10
11.264719258
 20
14.337008134
 11
11.2803822101
 21
14.3351599876
  0
SPLINE
  5
3EB
100
AcDbEntity
  8
ALL_ASSEMBLY_MEMBERS
100
AcDbSpline
 62
7
  6
CONTINUOUS
 70
0
 71
3
 72
9
 73
5
 74
0
 42
0.0000001
 43
0.0000001
 44
0.0000000001
 40
0.0
 40
0.0
 40
0.0
 40
0.0
 40
0.4672788294
 40
1.0
 40
1.0
 40
1.0
 40
1.0
 10
11.2803822101
 20
14.3351599876
 30
0.0
 10
11.2885250165
 20
14.3343049491
 30
0.0
 10
11.3059749567
 20
14.3327064968
 30
0.0
 10
11.3234389027
 20
14.3312850382
 30
0.0
 10
11.3327434766
 20
14.3305413877
 30
0.0
  0
SPLINE
  5
3EC
100
AcDbEntity
  8
ALL_ASSEMBLY_MEMBERS
100
AcDbSpline
 62
7
  6
CONTINUOUS
 70
0
 71
3
 72
13
 73
9
 74
0
 42
0.0000001
 43
0.0000001
 44
0.0000000001
 40
0.0
 40
0.0
 40
0.0
 40
0.0
 40
0.0604900664
 40
0.1402942829
 40
0.23926487
 40
0.3568824741
 40
0.6455077089
 40
1.0
 40
1.0
 40
1.0
 40
1.0
 10
11.2208740831
 20
14.3561588343
 30
0.0
 10
11.2215590328
 20
14.3559184001
 30
0.0
 10
11.223185388
 20
14.3554713211
 30
0.0
 10
11.2259955644
 20
14.3548802814
 30
0.0
 10
11.2295033198
 20
14.3542857475
 30
0.0
 10
11.2355056948
 20
14.3534287667
 30
0.0
 10
11.244578175
 20
14.3523976451
 30
0.0
 10
11.2522624056
 20
14.3516764239
 30
0.0
 10
11.256500201
 20
14.35130368
 30
0.0
  0
SPLINE
  5
3ED
100
AcDbEntity
  8
ALL_ASSEMBLY_MEMBERS
100
AcDbSpline
 62
7
  6
CONTINUOUS
 70
0
 71
3
 72
9
 73
5
 74
0
 42
0.0000001
 43
0.0000001
 44
0.0000000001
 40
0.0
 40
0.0
 40
0.0
 40
0.0
 40
0.469620582
 40
1.0
 40
1.0
 40
1.0
 40
1.0
 10
11.2652172749
 20
14.3505695039
 30
0.0
 10
11.2752033733
 20
14.3497617093
 30
0.0
 10
11.2964833794
 20
14.3482397037
 30
0.0
 10
11.3177733021
 20
14.3468755625
 30
0.0
 10
11.3290658609
 20
14.346164486
 30
0.0
  0
SPLINE
  5
3EE
100
AcDbEntity
  8
ALL_ASSEMBLY_MEMBERS
100
AcDbSpline
 62
7
  6
CONTINUOUS
 70
0
 71
3
 72
10
 73
6
 74
0
 42
0.0000001
 43
0.0000001
 44
0.0000000001
 40
0.0
 40
0.0
 40
0.0
 40
0.0
 40
0.2144476393
 40
0.4612472358
 40
1.0
 40
1.0
 40
1.0
 40
1.0
 10
11.4171122636
 20
14.323245696
 30
0.0
 10
11.4110958784
 20
14.3239159009
 30
0.0
 10
11.398137308
 20
14.325192912
 30
0.0
 10
11.3700130404
 20
14.3276214652
 30
0.0
 10
11.3479034786
 20
14.3293297532
 30
0.0
 10
11.3327434766
 20
14.3305413877
 30
0.0
  0
SPLINE
  5
3EF
100
AcDbEntity
  8
ALL_ASSEMBLY_MEMBERS
100
AcDbSpline
 62
7
  6
CONTINUOUS
 70
0
 71
3
 72
10
 73
6
 74
0
 42
0.0000001
 43
0.0000001
 44
0.0000000001
 40
0.0
 40
0.0
 40
0.0
 40
0.0
 40
0.2150402551
 40
0.4579255104
 40
1.0
 40
1.0
 40
1.0
 40
1.0
 10
11.2742664149
 20
14.3795736174
 30
0.0
 10
11.2784483493
 20
14.3790980463
 30
0.0
 10
11.2873637687
 20
14.378173817
 30
0.0
 10
11.306853885
 20
14.3763773048
 30
0.0
 10
11.3221674148
 20
14.3751328561
 30
0.0
 10
11.3327434766
 20
14.3742875843
 30
0.0
  0
SPLINE
  5
3F0
100
AcDbEntity
  8
ALL_ASSEMBLY_MEMBERS
100
AcDbSpline
 62
7
  6
CONTINUOUS
 70
0
 71
3
 72
18
 73
14
 74
0
 42
0.0000001
 43
0.0000001
 44
0.0000000001
 40
0.0
 40
0.0
 40
0.0
 40
0.0
 40
0.1665552971
 40
0.3318543603
 40
0.4897191686
 40
0.6348697462
 40
0.7623913825
 40
0.8181239016
 40
0.8678943111
 40
0.9112821899
 40
0.9479177827
 40
0.9775515699
 40
1.0
 40
1.0
 40
1.0
 40
1.0
 10
11.3327434766
 20
14.3742875843
 30
0.0
 10
11.3389746677
 20
14.3737895681
 30
0.0
 10
11.3513910517
 20
14.3728098526
 30
0.0
 10
11.3697128954
 20
14.3713505503
 30
0.0
 10
11.3872290458
 20
14.3698938734
 30
0.0
 10
11.4033224181
 20
14.3684411647
 30
0.0
 10
11.4155849105
 20
14.3671900005
 30
0.0
 10
11.4242703143
 20
14.3661627908
 30
0.0
 10
11.4298103123
 20
14.3654290881
 30
0.0
 10
11.4346267035
 20
14.3646976409
 30
0.0
 10
11.4386784977
 20
14.3639694681
 30
0.0
 10
11.4419293095
 20
14.3632476252
 30
0.0
 10
11.4438107851
 20
14.3627029136
 30
0.0
 10
11.4446004097
 20
14.362409083
 30
0.0
  0
SPLINE
  5
3F1
100
AcDbEntity
  8
ALL_ASSEMBLY_MEMBERS
100
AcDbSpline
 62
7
  6
CONTINUOUS
 70
0
 71
3
 72
16
 73
12
 74
0
 42
0.0000001
 43
0.0000001
 44
0.0000000001
 40
0.0
 40
0.0
 40
0.0
 40
0.0
 40
0.036230433
 40
0.079033025
 40
0.182176384
 40
0.3046720541
 40
0.441139909
 40
0.5853948597
 40
0.7309545109
 40
0.8714051192
 40
1.0
 40
1.0
 40
1.0
 40
1.0
 10
11.4364016331
 20
14.3706266496
 30
0.0
 10
11.4346504055
 20
14.3709382392
 30
0.0
 10
11.4308169625
 20
14.371542831
 30
0.0
 10
11.4219522725
 20
14.3727337284
 30
0.0
 10
11.4088495558
 20
14.3741656926
 30
0.0
 10
11.3911483406
 20
14.3758136095
 30
0.0
 10
11.3714214709
 20
14.3774690537
 30
0.0
 10
11.3505591732
 20
14.3791298793
 30
0.0
 10
11.3295007024
 20
14.3807908268
 30
0.0
 10
11.3092134385
 20
14.3824505122
 30
0.0
 10
11.2960560392
 20
14.3836176913
 30
0.0
 10
11.2897714799
 20
14.3842200477
 30
0.0
  0
LINE
  5
3F2
100
AcDbEntity
  8
ALL_ASSEMBLY_MEMBERS
100
AcDbLine
 62
7
  6
CONTINUOUS
 10
11.721402027
 20
5.6291374964
 11
11.7214176945
 21
5.5024251786
  0
SPLINE
  5
3F3
100
AcDbEntity
  8
ALL_ASSEMBLY_MEMBERS
100
AcDbSpline
 62
9
  6
CONTINUOUS
 70
0
 71
3
 72
9
 73
5
 74
0
 42
0.0000001
 43
0.0000001
 44
0.0000000001
 40
0.0
 40
0.0
 40
0.0
 40
0.0
 40
0.2505303928
 40
1.0
 40
1.0
 40
1.0
 40
1.0
 10
11.346402027
 20
5.4951512434
 30
0.0
 10
11.3777265788
 20
5.4951512434
 30
0.0
 10
11.5027593567
 20
5.4958164989
 30
0.0
 10
11.627773139
 20
5.4989669407
 30
0.0
 10
11.7214176945
 20
5.5024251786
 30
0.0
  0
LINE
  5
3F4
100
AcDbEntity
  8
ALL_ASSEMBLY_MEMBERS
100
AcDbLine
 62
7
  6
CONTINUOUS
 10
11.7214176945
 20
5.5024251786
 11
11.7217212624
 21
5.055853982
  0
SPLINE
  5
3F5
100
AcDbEntity
  8
ALL_ASSEMBLY_MEMBERS
100
AcDbSpline
 62
9
  6
CONTINUOUS
 70
0
 71
3
 72
9
 73
5
 74
0
 42
0.0000001
 43
0.0000001
 44
0.0000000001
 40
0.0
 40
0.0
 40
0.0
 40
0.0
 40
0.5017765566
 40
1.0
 40
1.0
 40
1.0
 40
1.0
 10
11.346402027
 20
5.0243314715
 30
0.0
 10
11.4094494726
 20
5.0243314715
 30
0.0
 10
11.5351493619
 20
5.0300356046
 30
0.0
 10
11.6599261797
 20
5.0458413274
 30
0.0
 10
11.7217212624
 20
5.055853982
 30
0.0
  0
SPLINE
  5
3F6
100
AcDbEntity
  8
ALL_ASSEMBLY_MEMBERS
100
AcDbSpline
 62
7
  6
CONTINUOUS
 70
0
 71
3
 72
10
 73
6
 74
0
 42
0.0000001
 43
0.0000001
 44
0.0000000001
 40
0.0
 40
0.0
 40
0.0
 40
0.0
 40
0.513900012
 40
0.7674608236
 40
1.0
 40
1.0
 40
1.0
 40
1.0
 10
11.7217212624
 20
5.055853982
 30
0.0
 10
11.7219682035
 20
4.833488349
 30
0.0
 10
11.7225021193
 20
4.5014065447
 30
0.0
 10
11.7235881469
 20
4.0687054848
 30
0.0
 10
11.7242904877
 20
3.8583699749
 30
0.0
 10
11.7246944732
 20
3.7577505255
 30
0.0
  0
SPLINE
  5
3F7
100
AcDbEntity
  8
ALL_ASSEMBLY_MEMBERS
100
AcDbSpline
 62
7
  6
CONTINUOUS
 70
0
 71
3
 72
14
 73
10
 74
0
 42
0.0000001
 43
0.0000001
 44
0.0000000001
 40
0.0
 40
0.0
 40
0.0
 40
0.0
 40
0.3566695049
 40
0.5118433691
 40
0.6493355721
 40
0.7677913521
 40
0.8663033472
 40
0.9439972864
 40
1.0
 40
1.0
 40
1.0
 40
1.0
 10
11.7246944732
 20
3.7577505255
 30
0.0
 10
11.724989634
 20
3.6842357082
 30
0.0
 10
11.725463597
 20
3.5787374467
 30
0.0
 10
11.726240296
 20
3.4449010198
 30
0.0
 10
11.7268275423
 20
3.3601640942
 30
0.0
 10
11.7274470562
 20
3.2871067192
 30
0.0
 10
11.728092883
 20
3.2263754179
 30
0.0
 10
11.7287660808
 20
3.1785182069
 30
0.0
 10
11.7293013905
 20
3.1509657979
 30
0.0
 10
11.7296147632
 20
3.1394269785
 30
0.0
  0
SPLINE
  5
3F8
100
AcDbEntity
  8
ALL_ASSEMBLY_MEMBERS
100
AcDbSpline
 62
9
  6
CONTINUOUS
 70
0
 71
3
 72
13
 73
9
 74
0
 42
0.0000001
 43
0.0000001
 44
0.0000000001
 40
0.0
 40
0.0
 40
0.0
 40
0.0
 40
0.1241864033
 40
0.2483030988
 40
0.372544686
 40
0.4970705934
 40
0.7473236556
 40
1.0
 40
1.0
 40
1.0
 40
1.0
 10
11.346402027
 20
3.0264855183
 30
0.0
 10
11.36314859
 20
3.0264855183
 30
0.0
 10
11.3966453976
 20
3.0277397124
 30
0.0
 10
11.4466156866
 20
3.0333066386
 30
0.0
 10
11.4961032722
 20
3.0424672427
 30
0.0
 10
11.5612873118
 20
3.059372613
 30
0.0
 10
11.6407913386
 20
3.0891287808
 30
0.0
 10
11.7007298441
 20
3.1213531837
 30
0.0
 10
11.7296147632
 20
3.1394269785
 30
0.0
  0
LINE
  5
3F9
100
AcDbEntity
  8
ALL_ASSEMBLY_MEMBERS
100
AcDbLine
 62
7
  6
CONTINUOUS
 10
11.7296147632
 20
3.1394269785
 11
11.7301446009
 21
3.120265457
  0
SPLINE
  5
3FA
100
AcDbEntity
  8
ALL_ASSEMBLY_MEMBERS
100
AcDbSpline
 62
9
  6
CONTINUOUS
 70
0
 71
3
 72
11
 73
7
 74
0
 42
0.0000001
 43
0.0000001
 44
0.0000000001
 40
0.0
 40
0.0
 40
0.0
 40
0.0
 40
0.2487189032
 40
0.4977640413
 40
0.7479994329
 40
1.0
 40
1.0
 40
1.0
 40
1.0
 10
11.346402027
 20
3.0084497844
 30
0.0
 10
11.3799424622
 20
3.0084497844
 30
0.0
 10
11.4471630213
 20
3.0134103258
 30
0.0
 10
11.545994474
 20
3.0351111923
 30
0.0
 10
11.6413060625
 20
3.0703489442
 30
0.0
 10
11.701289731
 20
3.1023144352
 30
0.0
 10
11.7301446009
 20
3.120265457
 30
0.0
  0
LINE
  5
3FB
100
AcDbEntity
  8
ALL_ASSEMBLY_MEMBERS
100
AcDbLine
 62
9
  6
CONTINUOUS
 10
11.7301446009
 20
3.120265457
 11
11.7319793453
 21
3.0579107141
  0
SPLINE
  5
3FC
100
AcDbEntity
  8
ALL_ASSEMBLY_MEMBERS
100
AcDbSpline
 62
9
  6
CONTINUOUS
 70
0
 71
3
 72
9
 73
5
 74
0
 42
0.0000001
 43
0.0000001
 44
0.0000000001
 40
0.0
 40
0.0
 40
0.0
 40
0.0
 40
0.5059221349
 40
1.0
 40
1.0
 40
1.0
 40
1.0
 10
11.7214176945
 20
5.5024251786
 30
0.0
 10
11.7702507875
 20
5.4679104344
 30
0.0
 10
11.8681409021
 20
5.4016205651
 30
0.0
 10
11.9674864379
 20
5.3375797195
 30
0.0
 10
12.0165259747
 20
5.3058687134
 30
0.0
  0
SPLINE
  5
3FD
100
AcDbEntity
  8
ALL_ASSEMBLY_MEMBERS
100
AcDbSpline
 62
9
  6
CONTINUOUS
 70
0
 71
3
 72
9
 73
5
 74
0
 42
0.0000001
 43
0.0000001
 44
0.0000000001
 40
0.0
 40
0.0
 40
0.0
 40
0.0
 40
0.508839049
 40
1.0
 40
1.0
 40
1.0
 40
1.0
 10
11.7217212624
 20
5.055853982
 30
0.0
 10
11.7467016197
 20
5.0472826061
 30
0.0
 10
11.7966696642
 20
5.0329071054
 30
0.0
 10
11.8476762789
 20
5.0229884687
 30
0.0
 10
11.8728651866
 20
5.0190663086
 30
0.0
  0
SPLINE
  5
3FE
100
AcDbEntity
  8
ALL_ASSEMBLY_MEMBERS
100
AcDbSpline
 62
9
  6
CONTINUOUS
 70
0
 71
3
 72
9
 73
5
 74
0
 42
0.0000001
 43
0.0000001
 44
0.0000000001
 40
0.0
 40
0.0
 40
0.0
 40
0.0
 40
0.5126038965
 40
1.0
 40
1.0
 40
1.0
 40
1.0
 10
11.8728651866
 20
5.0190663086
 30
0.0
 10
11.8987901624
 20
5.0150295356
 30
0.0
 10
11.9496815303
 20
5.0091462826
 30
0.0
 10
12.0007627927
 20
5.005815139
 30
0.0
 10
12.0256687197
 20
5.0043819651
 30
0.0
  0
SPLINE
  5
3FF
100
AcDbEntity
  8
ALL_ASSEMBLY_MEMBERS
100
AcDbSpline
 62
9
  6
CONTINUOUS
 70
0
 71
3
 72
15
 73
11
 74
0
 42
0.0000001
 43
0.0000001
 44
0.0000000001
 40
0.0
 40
0.0
 40
0.0
 40
0.0
 40
0.1204717396
 40
0.242812597
 40
0.3668318083
 40
0.4922405018
 40
0.61873408
 40
0.7459054989
 40
0.8731982288
 40
1.0
 40
1.0
 40
1.0
 40
1.0
 10
11.7296147632
 20
3.1394269785
 30
0.0
 10
11.7534061092
 20
3.1543882051
 30
0.0
 10
11.7994080499
 20
3.1877529234
 30
0.0
 10
11.8620988429
 20
3.2462926545
 30
0.0
 10
11.9181808896
 20
3.3127112989
 30
0.0
 10
11.9667360481
 20
3.3859777281
 30
0.0
 10
12.0068272618
 20
3.4650138334
 30
0.0
 10
12.0381293426
 20
3.5483792665
 30
0.0
 10
12.0603334607
 20
3.6346740805
 30
0.0
 10
12.0688880115
 20
3.6934703811
 30
0.0
 10
12.0715236966
 20
3.7229340082
 30
0.0
  0
SPLINE
  5
400
100
AcDbEntity
  8
ALL_ASSEMBLY_MEMBERS
100
AcDbSpline
 62
9
  6
CONTINUOUS
 70
0
 71
3
 72
14
 73
10
 74
0
 42
0.0000001
 43
0.0000001
 44
0.0000000001
 40
0.0
 40
0.0
 40
0.0
 40
0.0
 40
0.1217877189
 40
0.2449682583
 40
0.3693773938
 40
0.4947770671
 40
0.6209403395
 40
0.7475655245
 40
1.0
 40
1.0
 40
1.0
 40
1.0
 10
11.7301446009
 20
3.120265457
 30
0.0
 10
11.7545147985
 20
3.1354755933
 30
0.0
 10
11.8015700734
 20
3.1693314496
 30
0.0
 10
11.8655898724
 20
3.2287313903
 30
0.0
 10
11.9225873125
 20
3.2960300065
 30
0.0
 10
11.9716097679
 20
3.3701802005
 30
0.0
 10
12.0116917823
 20
3.4501238734
 30
0.0
 10
12.0526786829
 20
3.5622000991
 30
0.0
 10
12.0691827391
 20
3.6510958106
 30
0.0
 10
12.0732692829
 20
3.7104995772
 30
0.0
  0
LINE
  5
401
100
AcDbEntity
  8
ALL_ASSEMBLY_MEMBERS
100
AcDbLine
 62
7
  6
CONTINUOUS
 10
12.0732692829
 20
3.7104995772
 11
12.078902027
 21
3.6712541546
  0
ENDSEC
  0
SECTION
  2
OBJECTS
  0
DICTIONARY
  5
C
100
AcDbDictionary
280
0
281
1
  3
ACAD_GROUP
350
D
  3
ACAD_MLINESTYLE
350
17
  3
ACAD_LAYOUT
350
1A
  3
ACAD_PLOTSETTINGS
350
19
  3
ACAD_PLOTSTYLENAME
350
E
  0
DICTIONARY
  5
D
102
{ACAD_REACTORS
330
C
102
}
100
AcDbDictionary
280
0
281
1
  0
ACDBDICTIONARYWDFLT
  5
E
102
{ACAD_REACTORS
330
C
102
}
100
AcDbDictionary
281
1
  3
Normal
350
F
100
AcDbDictionaryWithDefault
340
F
  0
DICTIONARY
  5
17
102
{ACAD_REACTORS
330
C
102
}
100
AcDbDictionary
280
0
281
1
  3
Standard
350
18
  0
DICTIONARY
  5
19
102
{ACAD_REACTORS
330
C
102
}
100
AcDbDictionary
281
1
  0
DICTIONARY
  5
1A
102
{ACAD_REACTORS
330
C
102
}
100
AcDbDictionary
281
1
  3
Model
350
402
  3
Layout1
350
403
  0
ACDBPLACEHOLDER
  5
F
102
{ACAD_REACTORS
330
E
102
}
  0
MLINESTYLE
  5
18
102
{ACAD_REACTORS
330
17
102
}
100
AcDbMlineStyle
  2
STANDARD
 70
0
  3

 62
256
 51
90.0
 52
90.0
 71
2
 49
0.5
 62
256
  6
BYLAYER
 49
-0.5
 62
256
  6
BYLAYER
  0
LAYOUT
  5
402
102
{ACAD_REACTORS
330
1A
102
}
100
AcDbPlotSettings
  1

  2
none_device
  4
ANSI_C_(22.00_x_17.00_Inches)
  6

 40
0.0
 41
0.0
 42
0.0
 43
0.0
 44
558.8
 45
431.8
 46
0.0
 47
0.0
 48
0.0
 49
0.0
140
0.0
141
0.0
142
1.0
143
1.0
 70
1024
 72
0
 73
0
 74
0
  7

 75
0
147
1.0
148
0.0
149
0.0
100
AcDbLayout
  1
Model
 70
0
 71
0
 10
0.0
 20
0.0
 11
22.0
 21
17.0
 12
0.0
 22
0.0
 32
0.0
 14
0.0
 24
0.0
 34
0.0
 15
0.0
 25
0.0
 35
0.0
146
0.0
 13
0.0
 23
0.0
 33
0.0
 16
1.0
 26
0.0
 36
0.0
 17
0.0
 27
1.0
 37
0.0
 76
0
330
221
345
0
346
0
  0
LAYOUT
  5
403
102
{ACAD_REACTORS
330
1A
102
}
100
AcDbPlotSettings
  1

  2
none_device
  4
ANSI_C_(22.00_x_17.00_Inches)
  6

 40
0.0
 41
0.0
 42
0.0
 43
0.0
 44
558.8
 45
431.8
 46
0.0
 47
0.0
 48
0.0
 49
0.0
140
0.0
141
0.0
142
1.0
143
1.0
 70
0
 72
0
 73
0
 74
0
  7

 75
0
147
1.0
148
0.0
149
0.0
100
AcDbLayout
  1
Layout1
 70
0
 71
1
 10
0.0
 20
0.0
 11
22.0
 21
17.0
 12
0.0
 22
0.0
 32
0.0
 14
0.0
 24
0.0
 34
0.0
 15
0.0
 25
0.0
 35
0.0
146
0.0
 13
0.0
 23
0.0
 33
0.0
 16
1.0
 26
0.0
 36
0.0
 17
0.0
 27
1.0
 37
0.0
 76
0
330
222
345
0
346
0
  0
ENDSEC
  0
EOF
