999
DXF file: 3-1231_FRONT.dxf
999
Pro/ENGINEER 2018400 by Parametric Technology Corporation
  0
SECTION
  2
HEADER
  9
$ACADVER
  1
AC1027
  9
$DWGCODEPAGE
  3
ANSI_1252
  9
$EXTMAX
 10
11.0
 20
8.5
 30
0.0
  9
$EXTMIN
 10
0.0
 20
0.0
 30
0.0
  9
$LIMMIN
 10
0.0
 20
0.0
  9
$LIMMAX
 10
11.0
 20
8.5
  9
$VIEWCTR
 10
5.5
 20
4.25
  9
$VIEWSIZE
 40
8.5
  9
$CLAYER
  8
0
  9
$LTSCALE
 40
0.605
  9
$CELTYPE
  6
BYLAYER
  9
$DIMSCALE
 40
1.0
  9
$DIMASZ
 40
0.1
  9
$DIMEXO
 40
0.0625
  9
$DIMDLI
 40
0.418
  9
$DIMEXE
 40
0.125
  9
$DIMCEN
 40
0.099
  9
$DIMLFAC
 40
1.0
  9
$DIMBLK
  1
_FILLED
  9
$DIMALT
 70
1
  9
$DIMALTD
 70
2
  9
$DIMALTTD
 70
2
  9
$DIMALTF
 40
25.4
  9
$DIMTXT
 40
0.08
  9
$DIMTOL
 70
1
  9
$DIMLIM
 70
0
  9
$DIMTFAC
 40
1.0
  9
$DIMTP
 40
0.001
  9
$DIMTM
 40
0.001
  9
$DIMGAP
 40
0.09
  9
$DIMDSEP
 70
46
  9
$AUNITS
 70
0
  9
$PDMODE
 70
3
  9
$PDSIZE
 40
0.3125
  9
$HANDSEED
  5
34C
  9
$TILEMODE
 70
1
  9
$MEASUREMENT
 70
0
  9
$INSUNITS
 70
1
  0
ENDSEC
  0
SECTION
  2
CLASSES
  0
CLASS
  1
ACDBDICTIONARYWDFLT
  2
AcDbDictionaryWithDefault
  3
AutoCAD 2000
 90
0
 91
1
280
0
281
0
  0
CLASS
  1
ACDBPLACEHOLDER
  2
AcDbPlaceHolder
  3
AutoCAD 2000
 90
0
 91
1
280
0
281
0
  0
CLASS
  1
LAYOUT
  2
AcDbLayout
  3
AutoCAD 2000
 90
0
 91
0
280
0
281
0
  0
ENDSEC
  0
SECTION
  2
TABLES
  0
TABLE
  2
VPORT
  5
8
100
AcDbSymbolTable
 70
2
  0
VPORT
  5
1F4
100
AcDbSymbolTableRecord
100
AcDbViewportTableRecord
  2
*ACTIVE
 70
0
 10
0.0
 20
0.0
 11
1.0
 21
1.0
 12
5.5
 22
4.25
 13
0.0
 23
0.0
 14
1.0
 24
1.0
 15
0.0
 25
0.0
 16
0.0
 26
0.0
 36
1.0
 17
0.0
 27
0.0
 37
0.0
 40
8.5
 41
1.2941176471
 42
50.0
 43
0.0
 44
0.0
 50
0.0
 51
0.0
 71
0
 72
100
 73
1
 74
1
 75
0
 76
0
 77
0
 78
0
  0
ENDTAB
  0
TABLE
  2
LTYPE
  5
5
100
AcDbSymbolTable
 70
6
  0
LTYPE
  5
14
100
AcDbSymbolTableRecord
100
AcDbLinetypeTableRecord
  2
BYBLOCK
 70
0
  3

 72
65
 73
0
 40
0.0
  0
LTYPE
  5
15
100
AcDbSymbolTableRecord
100
AcDbLinetypeTableRecord
  2
BYLAYER
 70
0
  3

 72
65
 73
0
 40
0.0
  0
LTYPE
  5
16
100
AcDbSymbolTableRecord
100
AcDbLinetypeTableRecord
  2
CONTINUOUS
 70
64
  3
Solid line
 72
65
 73
0
 40
0.0
  0
LTYPE
  5
1F5
100
AcDbSymbolTableRecord
100
AcDbLinetypeTableRecord
  2
CENTER
 70
64
  3
____ _ ____ _ ____ _ ____ _ ____ _ ____ _ ____
 72
65
 73
4
 40
0.6
 49
0.375
 74
0
 49
-0.075
 74
0
 49
0.075
 74
0
 49
-0.075
 74
0
  0
LTYPE
  5
1F6
100
AcDbSymbolTableRecord
100
AcDbLinetypeTableRecord
  2
HIDDEN
 70
64
  3
- - - - - - - - - - - - - - - - - - - -
 72
65
 73
2
 40
0.2
 49
0.1
 74
0
 49
-0.1
 74
0
  0
LTYPE
  5
1F7
100
AcDbSymbolTableRecord
100
AcDbLinetypeTableRecord
  2
PHANTOM
 70
64
  3
_____ _ _ _____ _ _ _____ _ _ _____
 72
65
 73
6
 40
0.8
 49
0.45
 74
0
 49
-0.05
 74
0
 49
0.1
 74
0
 49
-0.05
 74
0
 49
0.1
 74
0
 49
-0.05
 74
0
  0
LTYPE
  5
1F8
100
AcDbSymbolTableRecord
100
AcDbLinetypeTableRecord
  2
DOT
 70
64
  3
. . . . . . . . . . . . . . . . . . . .
 72
65
 73
2
 40
0.2
 49
0.1
 74
0
 49
-0.1
 74
0
  0
LTYPE
  5
1F9
100
AcDbSymbolTableRecord
100
AcDbLinetypeTableRecord
  2
DASHED
 70
64
  3
- - - - - - - - - - - - - - - - - - - -
 72
65
 73
2
 40
0.2
 49
0.1
 74
0
 49
-0.1
 74
0
  0
ENDTAB
  0
TABLE
  2
LAYER
  5
2
100
AcDbSymbolTable
 70
36
  0
LAYER
  5
10
100
AcDbSymbolTableRecord
100
AcDbLayerTableRecord
  2
0
 70
0
 62
7
  6
CONTINUOUS
370
-3
390
F
  0
LAYER
  5
1FA
100
AcDbSymbolTableRecord
100
AcDbLayerTableRecord
  2
DEFAULT_1
 70
0
 62
7
  6
CENTER
370
-3
390
F
  0
LAYER
  5
1FB
100
AcDbSymbolTableRecord
100
AcDbLayerTableRecord
  2
DEFAULT_2
 70
0
 62
8
  6
HIDDEN
370
-3
390
F
  0
LAYER
  5
1FC
100
AcDbSymbolTableRecord
100
AcDbLayerTableRecord
  2
DEFAULT_3
 70
0
 62
7
  6
PHANTOM
370
-3
390
F
  0
LAYER
  5
1FD
100
AcDbSymbolTableRecord
100
AcDbLayerTableRecord
  2
ALL_ASSEMBLY_MEMBERS
 70
0
 62
7
  6
CONTINUOUS
370
-3
390
F
  0
LAYER
  5
1FE
100
AcDbSymbolTableRecord
100
AcDbLayerTableRecord
  2
ALL_FEATURES
 70
0
 62
7
  6
CONTINUOUS
370
-3
390
F
  0
LAYER
  5
1FF
100
AcDbSymbolTableRecord
100
AcDbLayerTableRecord
  2
AXES_FEATURES
 70
0
 62
7
  6
CONTINUOUS
370
-3
390
F
  0
LAYER
  5
200
100
AcDbSymbolTableRecord
100
AcDbLayerTableRecord
  2
CHAMFER_FEATURES
 70
0
 62
7
  6
CONTINUOUS
370
-3
390
F
  0
LAYER
  5
201
100
AcDbSymbolTableRecord
100
AcDbLayerTableRecord
  2
COSMETIC
 70
0
 62
7
  6
CONTINUOUS
370
-3
390
F
  0
LAYER
  5
202
100
AcDbSymbolTableRecord
100
AcDbLayerTableRecord
  2
CURVE
 70
0
 62
7
  6
CONTINUOUS
370
-3
390
F
  0
LAYER
  5
203
100
AcDbSymbolTableRecord
100
AcDbLayerTableRecord
  2
CUT_FEATURES
 70
0
 62
7
  6
CONTINUOUS
370
-3
390
F
  0
LAYER
  5
204
100
AcDbSymbolTableRecord
100
AcDbLayerTableRecord
  2
DATUM_CURVES
 70
0
 62
7
  6
CONTINUOUS
370
-3
390
F
  0
LAYER
  5
205
100
AcDbSymbolTableRecord
100
AcDbLayerTableRecord
  2
DATUM_PLANES
 70
0
 62
7
  6
CONTINUOUS
370
-3
390
F
  0
LAYER
  5
206
100
AcDbSymbolTableRecord
100
AcDbLayerTableRecord
  2
DATUM_POINTS
 70
0
 62
7
  6
CONTINUOUS
370
-3
390
F
  0
LAYER
  5
207
100
AcDbSymbolTableRecord
100
AcDbLayerTableRecord
  2
DEFAULT_COORDINATE_SYSTEM
 70
0
 62
7
  6
CONTINUOUS
370
-3
390
F
  0
LAYER
  5
208
100
AcDbSymbolTableRecord
100
AcDbLayerTableRecord
  2
DEFAULT_DATUM_AXES
 70
0
 62
7
  6
CONTINUOUS
370
-3
390
F
  0
LAYER
  5
209
100
AcDbSymbolTableRecord
100
AcDbLayerTableRecord
  2
DEFAULT_DATUM_CURVES
 70
0
 62
7
  6
CONTINUOUS
370
-3
390
F
  0
LAYER
  5
20A
100
AcDbSymbolTableRecord
100
AcDbLayerTableRecord
  2
DEFAULT_DATUM_PLANES
 70
0
 62
7
  6
CONTINUOUS
370
-3
390
F
  0
LAYER
  5
20B
100
AcDbSymbolTableRecord
100
AcDbLayerTableRecord
  2
DEFAULT_SURFACES
 70
0
 62
7
  6
CONTINUOUS
370
-3
390
F
  0
LAYER
  5
20C
100
AcDbSymbolTableRecord
100
AcDbLayerTableRecord
  2
DIMENSIONS
 70
0
 62
7
  6
CONTINUOUS
370
-3
390
F
  0
LAYER
  5
20D
100
AcDbSymbolTableRecord
100
AcDbLayerTableRecord
  2
HOLE_FEATURES
 70
0
 62
7
  6
CONTINUOUS
370
-3
390
F
  0
LAYER
  5
20E
100
AcDbSymbolTableRecord
100
AcDbLayerTableRecord
  2
MAGENTA
 70
0
 62
7
  6
CONTINUOUS
370
-3
390
F
  0
LAYER
  5
20F
100
AcDbSymbolTableRecord
100
AcDbLayerTableRecord
  2
NOTES
 70
0
 62
7
  6
CONTINUOUS
370
-3
390
F
  0
LAYER
  5
210
100
AcDbSymbolTableRecord
100
AcDbLayerTableRecord
  2
POINTS
 70
0
 62
7
  6
CONTINUOUS
370
-3
390
F
  0
LAYER
  5
211
100
AcDbSymbolTableRecord
100
AcDbLayerTableRecord
  2
PROTRUSION_FEATURES
 70
0
 62
7
  6
CONTINUOUS
370
-3
390
F
  0
LAYER
  5
212
100
AcDbSymbolTableRecord
100
AcDbLayerTableRecord
  2
QUILT
 70
0
 62
7
  6
CONTINUOUS
370
-3
390
F
  0
LAYER
  5
213
100
AcDbSymbolTableRecord
100
AcDbLayerTableRecord
  2
WHITE
 70
0
 62
7
  6
CONTINUOUS
370
-3
390
F
  0
LAYER
  5
214
100
AcDbSymbolTableRecord
100
AcDbLayerTableRecord
  2
XSEC_DATUMS
 70
0
 62
7
  6
CONTINUOUS
370
-3
390
F
  0
ENDTAB
  0
TABLE
  2
STYLE
  5
3
100
AcDbSymbolTable
 70
1
  0
STYLE
  5
11
100
AcDbSymbolTableRecord
100
AcDbTextStyleTableRecord
  2
STANDARD
 70
0
 40
0.0
 41
0.8
 50
0.0
 71
0
 42
0.2
  3
txt
  4

  0
STYLE
  5
215
100
AcDbSymbolTableRecord
100
AcDbTextStyleTableRecord
  2
TEXTSTYLE_1
 70
0
 40
0.0
 41
0.8
 50
0.0
 71
0
 42
0.2
  3
gdt
  4

  0
ENDTAB
  0
TABLE
  2
VIEW
  5
6
100
AcDbSymbolTable
 70
0
  0
ENDTAB
  0
TABLE
  2
UCS
  5
7
100
AcDbSymbolTable
 70
0
  0
ENDTAB
  0
TABLE
  2
APPID
  5
9
100
AcDbSymbolTable
 70
1
  0
APPID
  5
216
100
AcDbSymbolTableRecord
100
AcDbRegAppTableRecord
  2
ACAD
 70
0
  0
ENDTAB
  0
TABLE
  2
BLOCK_RECORD
  5
1
100
AcDbSymbolTable
 70
0
  0
BLOCK_RECORD
  5
217
100
AcDbSymbolTableRecord
100
AcDbBlockTableRecord
  2
*Model_Space
  0
BLOCK_RECORD
  5
218
100
AcDbSymbolTableRecord
100
AcDbBlockTableRecord
  2
*Paper_Space
  0
BLOCK_RECORD
  5
219
100
AcDbSymbolTableRecord
100
AcDbBlockTableRecord
  2
_FILLED
  0
ENDTAB
  0
TABLE
  2
DIMSTYLE
  5
A
100
AcDbSymbolTable
 70
1
100
AcDbDimStyleTable
 71
0
  0
DIMSTYLE
105
21A
100
AcDbSymbolTableRecord
100
AcDbDimStyleTableRecord
  2
STANDARD
 70
0
  3

  4

 40
1.0
 41
0.1
 42
0.0625
 43
0.38
 44
0.125
 45
0.0
 46
0.0
 47
0.001
 48
0.001
140
0.08
141
0.09
142
0.0
143
25.4
144
1.0
145
0.0
146
1.0
147
0.09
 71
1.0
 72
0.0
 73
1
 74
1
 75
0
 76
0
 77
0
 78
4
 79
1
170
1
171
2
172
0
173
0
174
0
175
0
176
0
177
0
178
0
270
2
179
3
271
3
272
3
273
2
274
2
275
0
280
0
281
0
282
0
283
1
284
4
285
0
286
0
287
3
288
0
340
11
278
46
341
219
342
219
343
219
344
219
  0
ENDTAB
  0
ENDSEC
  0
SECTION
  2
BLOCKS
  0
BLOCK
  5
20
100
AcDbEntity
  8
0
100
AcDbBlockBegin
  2
*Model_Space
 70
0
 10
0.0
 20
0.0
 30
0.0
  3
*Model_Space
  1

  0
ENDBLK
  5
21
100
AcDbEntity
  8
0
100
AcDbBlockEnd
  0
BLOCK
  5
1C
100
AcDbEntity
  8
0
100
AcDbBlockBegin
  2
*Paper_Space
 70
0
 10
0.0
 20
0.0
 30
0.0
  3
*Paper_Space
  1

  0
ENDBLK
  5
1D
100
AcDbEntity
  8
0
100
AcDbBlockEnd
  0
BLOCK
  5
21B
100
AcDbEntity
  8
0
100
AcDbBlockBegin
  2
_FILLED
 70
64
 10
0.0
 20
0.0
  3
_FILLED
  1

  0
SOLID
  5
21C
100
AcDbEntity
  8
0
  6
BYBLOCK
 62
0
100
AcDbTrace
 10
0.0
 20
0.0
 11
-1.0
 21
0.2
 12
-1.0
 22
-0.2
 13
-1.0
 23
-0.2
  0
ENDBLK
  5
21D
100
AcDbEntity
  8
0
  6
BYBLOCK
 62
0
100
AcDbBlockEnd
  0
ENDSEC
  0
SECTION
  2
ENTITIES
  0
MTEXT
  5
21E
100
AcDbEntity
  8
0
100
AcDbMText
 62
2
  6
CONTINUOUS
  7
STANDARD
 71
3
 72
1
 10
4.133753882
 20
2.6635396059
 30
0.0
 11
1.0
 21
0.0
 31
0.0
 73
2
 44
0.9
  1
SCALE  .500
 40
0.08
 41
0.704
  0
LINE
  5
21F
100
AcDbEntity
  8
0
100
AcDbLine
 62
7
  6
CONTINUOUS
 10
0.0
 20
0.0
 11
0.0
 21
8.5
  0
LINE
  5
220
100
AcDbEntity
  8
0
100
AcDbLine
 62
7
  6
CONTINUOUS
 10
0.0
 20
0.0
 11
11.0
 21
0.0
  0
LINE
  5
221
100
AcDbEntity
  8
0
100
AcDbLine
 62
7
  6
CONTINUOUS
 10
0.0
 20
8.5
 11
11.0
 21
8.5
  0
LINE
  5
222
100
AcDbEntity
  8
0
100
AcDbLine
 62
7
  6
CONTINUOUS
 10
11.0
 20
0.0
 11
11.0
 21
8.5
  0
LINE
  5
223
100
AcDbEntity
  8
0
100
AcDbLine
 62
7
  6
CONTINUOUS
 10
1.3981551781
 20
4.2326274719
 11
1.3981551781
 21
4.3409979629
  0
LINE
  5
224
100
AcDbEntity
  8
0
100
AcDbLine
 62
7
  6
CONTINUOUS
 10
1.3981551781
 20
4.3447221894
 11
1.3981551781
 21
4.4979812075
  0
LINE
  5
225
100
AcDbEntity
  8
0
100
AcDbLine
 62
7
  6
CONTINUOUS
 10
1.3981551781
 20
4.501705434
 11
1.3981551781
 21
4.6100759249
  0
LINE
  5
226
100
AcDbEntity
  8
0
100
AcDbLine
 62
7
  6
CONTINUOUS
 10
1.4122001157
 20
4.2213516984
 11
1.4122001157
 21
4.6213516984
  0
LINE
  5
227
100
AcDbEntity
  8
0
100
AcDbLine
 62
7
  6
CONTINUOUS
 10
1.4418051087
 20
4.6513516984
 11
1.4418051087
 21
4.1913516984
  0
LINE
  5
228
100
AcDbEntity
  8
0
100
AcDbLine
 62
7
  6
CONTINUOUS
 10
1.4568051087
 20
4.6663516984
 11
1.4568051087
 21
4.1763516984
  0
LINE
  5
229
100
AcDbEntity
  8
0
100
AcDbLine
 62
7
  6
CONTINUOUS
 10
1.4918051087
 20
4.1738516984
 11
1.4918051087
 21
4.6688516984
  0
LINE
  5
22A
100
AcDbEntity
  8
0
100
AcDbLine
 62
7
  6
CONTINUOUS
 10
1.501768924
 20
4.1747197553
 11
1.501768924
 21
4.3050256342
  0
LINE
  5
22B
100
AcDbEntity
  8
0
100
AcDbLine
 62
7
  6
CONTINUOUS
 10
1.501768924
 20
4.3292115278
 11
1.501768924
 21
4.5134918691
  0
LINE
  5
22C
100
AcDbEntity
  8
0
100
AcDbLine
 62
7
  6
CONTINUOUS
 10
1.501768924
 20
4.5376777626
 11
1.501768924
 21
4.6679836415
  0
LINE
  5
22D
100
AcDbEntity
  8
0
100
AcDbLine
 62
7
  6
CONTINUOUS
 10
1.3287801781
 20
4.42661855
 11
1.3981551781
 21
4.61161855
  0
LINE
  5
22E
100
AcDbEntity
  8
0
100
AcDbLine
 62
7
  6
CONTINUOUS
 10
1.3287801781
 20
4.4250759249
 11
1.3981551781
 21
4.6100759249
  0
LINE
  5
22F
100
AcDbEntity
  8
0
100
AcDbLine
 62
7
  6
CONTINUOUS
 10
1.3287801781
 20
4.4160848468
 11
1.3981551781
 21
4.2310848468
  0
LINE
  5
230
100
AcDbEntity
  8
0
100
AcDbLine
 62
7
  6
CONTINUOUS
 10
1.3287801781
 20
4.4176274719
 11
1.3981551781
 21
4.2326274719
  0
LINE
  5
231
100
AcDbEntity
  8
0
100
AcDbLine
 62
7
  6
CONTINUOUS
 10
1.4918051087
 20
4.5238695551
 11
1.501768924
 21
4.5376777626
  0
LINE
  5
232
100
AcDbEntity
  8
0
100
AcDbLine
 62
7
  6
CONTINUOUS
 10
1.511768924
 20
4.5273063057
 11
1.501768924
 21
4.5134918691
  0
LINE
  5
233
100
AcDbEntity
  8
0
100
AcDbLine
 62
7
  6
CONTINUOUS
 10
1.3287801781
 20
4.4250759249
 11
1.3981551781
 21
4.501705434
  0
LINE
  5
234
100
AcDbEntity
  8
0
100
AcDbLine
 62
7
  6
CONTINUOUS
 10
1.3287801781
 20
4.4213516984
 11
1.3981551781
 21
4.4979812075
  0
LINE
  5
235
100
AcDbEntity
  8
0
100
AcDbLine
 62
7
  6
CONTINUOUS
 10
1.3287801781
 20
4.4176274719
 11
1.3981551781
 21
4.3409979629
  0
LINE
  5
236
100
AcDbEntity
  8
0
100
AcDbLine
 62
7
  6
CONTINUOUS
 10
1.3287801781
 20
4.4213516984
 11
1.3981551781
 21
4.3447221894
  0
LINE
  5
237
100
AcDbEntity
  8
0
100
AcDbLine
 62
7
  6
CONTINUOUS
 10
1.511768924
 20
4.3153970911
 11
1.501768924
 21
4.3292115278
  0
LINE
  5
238
100
AcDbEntity
  8
0
100
AcDbLine
 62
7
  6
CONTINUOUS
 10
1.4918051087
 20
4.3188338417
 11
1.501768924
 21
4.3050256342
  0
LINE
  5
239
100
AcDbEntity
  8
ALL_FEATURES
100
AcDbLine
 62
7
  6
CONTINUOUS
 10
2.5004051087
 20
4.7137796098
 11
2.5004051087
 21
4.5928162654
  0
LINE
  5
23A
100
AcDbEntity
  8
ALL_FEATURES
100
AcDbLine
 62
7
  6
CONTINUOUS
 10
2.5004051087
 20
4.2498871315
 11
2.5004051087
 21
4.1289237871
  0
LINE
  5
23B
100
AcDbEntity
  8
0
100
AcDbLine
 62
7
  6
CONTINUOUS
 10
1.4918051087
 20
4.3188338417
 11
1.501768924
 21
4.3292115278
  0
LINE
  5
23C
100
AcDbEntity
  8
0
100
AcDbLine
 62
7
  6
CONTINUOUS
 10
1.4918051087
 20
4.6688516984
 11
1.501768924
 21
4.6780017667
  0
LINE
  5
23D
100
AcDbEntity
  8
0
100
AcDbLine
 62
7
  6
CONTINUOUS
 10
1.501768924
 20
4.6679836415
 11
1.511768924
 21
4.6771487483
  0
LINE
  5
23E
100
AcDbEntity
  8
0
100
AcDbLine
 62
7
  6
CONTINUOUS
 10
1.501768924
 20
4.1747197553
 11
1.511768924
 21
4.1655546485
  0
LINE
  5
23F
100
AcDbEntity
  8
0
100
AcDbLine
 62
7
  6
CONTINUOUS
 10
1.4918051087
 20
4.1738516984
 11
1.501768924
 21
4.1647016302
  0
LINE
  5
240
100
AcDbEntity
  8
0
100
AcDbLine
 62
7
  6
CONTINUOUS
 10
2.6637550404
 20
4.5788822161
 11
2.6637550404
 21
4.2638211808
  0
LINE
  5
241
100
AcDbEntity
  8
0
100
AcDbLine
 62
7
  6
CONTINUOUS
 10
2.6729051087
 20
4.5689184007
 11
2.6729051087
 21
4.2737849961
  0
LINE
  5
242
100
AcDbEntity
  8
ALL_FEATURES
100
AcDbLine
 62
7
  6
CONTINUOUS
 10
2.7191501186
 20
4.5874871194
 11
2.7191501186
 21
4.5744972472
  0
LINE
  5
243
100
AcDbEntity
  8
ALL_FEATURES
100
AcDbLine
 62
7
  6
CONTINUOUS
 10
2.7191501186
 20
4.2682061496
 11
2.7191501186
 21
4.2552162774
  0
LINE
  5
244
100
AcDbEntity
  8
0
100
AcDbLine
 62
7
  6
CONTINUOUS
 10
2.7229051087
 20
4.2813525156
 11
2.7229051087
 21
4.5613508813
  0
LINE
  5
245
100
AcDbEntity
  8
0
100
AcDbLine
 62
7
  6
CONTINUOUS
 10
2.7479051087
 20
4.3301016984
 11
2.7479051087
 21
4.5126016984
  0
LINE
  5
246
100
AcDbEntity
  8
0
100
AcDbLine
 62
7
  6
CONTINUOUS
 10
2.7569051087
 20
4.2770141311
 11
2.7569051087
 21
4.3301016984
  0
LINE
  5
247
100
AcDbEntity
  8
0
100
AcDbLine
 62
7
  6
CONTINUOUS
 10
2.7569051087
 20
4.5126016984
 11
2.7569051087
 21
4.5656892657
  0
LINE
  5
248
100
AcDbEntity
  8
0
100
AcDbLine
 62
7
  6
CONTINUOUS
 10
1.501768924
 20
4.3050256342
 11
1.511768924
 21
4.3153970911
  0
LINE
  5
249
100
AcDbEntity
  8
0
100
AcDbLine
 62
7
  6
CONTINUOUS
 10
1.501768924
 20
4.5376777626
 11
1.511768924
 21
4.5273063057
  0
LINE
  5
24A
100
AcDbEntity
  8
0
100
AcDbLine
 62
7
  6
CONTINUOUS
 10
1.4918051087
 20
4.5238695551
 11
1.501768924
 21
4.5134918691
  0
LWPOLYLINE
  5
24B
100
AcDbEntity
  8
ALL_FEATURES
100
AcDbPolyline
 62
7
  6
CONTINUOUS
 90
5
 70
0
 10
3.0069032093
 20
3.9069618279
 10
3.0069051087
 20
3.8902628446
 10
3.0069114392
 20
3.8729477306
 10
3.0069131455
 20
3.8550224522
 10
3.0069051087
 20
3.8364958757
  0
LINE
  5
24C
100
AcDbEntity
  8
ALL_FEATURES
100
AcDbLine
 62
7
  6
CONTINUOUS
 10
3.0069031065
 20
3.9936656964
 11
3.0069065196
 21
3.9673704871
  0
LINE
  5
24D
100
AcDbEntity
  8
ALL_FEATURES
100
AcDbLine
 62
7
  6
CONTINUOUS
 10
3.0069039878
 20
3.9532451956
 11
3.0069060313
 21
3.9230344598
  0
LINE
  5
24E
100
AcDbEntity
  8
ALL_FEATURES
100
AcDbLine
 62
7
  6
CONTINUOUS
 10
3.0069051087
 20
4.1326765638
 11
3.0069051087
 21
3.8276016984
  0
LINE
  5
24F
100
AcDbEntity
  8
ALL_FEATURES
100
AcDbLine
 62
7
  6
CONTINUOUS
 10
3.0069051087
 20
4.710026833
 11
3.0069051087
 21
5.0151016984
  0
LINE
  5
250
100
AcDbEntity
  8
ALL_FEATURES
100
AcDbLine
 62
7
  6
CONTINUOUS
 10
3.0069062684
 20
4.7587631184
 11
3.0069061267
 21
4.7646192753
  0
LINE
  5
251
100
AcDbEntity
  8
ALL_FEATURES
100
AcDbLine
 62
7
  6
CONTINUOUS
 10
3.0069055581
 20
4.8146417916
 11
3.0069051087
 21
4.8254122687
  0
LINE
  5
252
100
AcDbEntity
  8
ALL_FEATURES
100
AcDbLine
 62
7
  6
CONTINUOUS
 10
3.0069062295
 20
4.8894582013
 11
3.0069041861
 21
4.919668937
  0
LINE
  5
253
100
AcDbEntity
  8
ALL_FEATURES
100
AcDbLine
 62
7
  6
CONTINUOUS
 10
3.0069051087
 20
4.7951779319
 11
3.0069039818
 21
4.804565165
  0
LINE
  5
254
100
AcDbEntity
  8
ALL_FEATURES
100
AcDbLine
 62
7
  6
CONTINUOUS
 10
3.0069051087
 20
4.8618596835
 11
3.0069036978
 21
4.8753329097
  0
LWPOLYLINE
  5
255
100
AcDbEntity
  8
ALL_FEATURES
100
AcDbPolyline
 62
7
  6
CONTINUOUS
 90
5
 70
0
 10
3.0069070081
 20
4.935741569
 10
3.0069051087
 20
4.9524405522
 10
3.0068987782
 20
4.9697556663
 10
3.0068970719
 20
4.9876809446
 10
3.0069051087
 20
5.0062075211
  0
LINE
  5
256
100
AcDbEntity
  8
ALL_FEATURES
100
AcDbLine
 62
7
  6
CONTINUOUS
 10
3.2569051087
 20
4.2770141311
 11
3.2569051087
 21
4.5656892657
  0
LINE
  5
257
100
AcDbEntity
  8
ALL_FEATURES
100
AcDbLine
 62
7
  6
CONTINUOUS
 10
3.2946600988
 20
4.2552162774
 11
3.2946600988
 21
4.5874871194
  0
LINE
  5
258
100
AcDbEntity
  8
ALL_FEATURES
100
AcDbLine
 62
7
  6
CONTINUOUS
 10
3.5134051087
 20
4.1289237871
 11
3.5134051087
 21
4.7137796098
  0
LINE
  5
259
100
AcDbEntity
  8
0
100
AcDbLine
 62
7
  6
CONTINUOUS
 10
2.6637550404
 20
4.2638211808
 11
2.6729051087
 21
4.2737849961
  0
LINE
  5
25A
100
AcDbEntity
  8
ALL_FEATURES
100
AcDbLine
 62
7
  6
CONTINUOUS
 10
3.0069051087
 20
5.0062075211
 11
2.5004051087
 21
4.7137796098
  0
LINE
  5
25B
100
AcDbEntity
  8
ALL_FEATURES
100
AcDbLine
 62
7
  6
CONTINUOUS
 10
2.5004051087
 20
4.1289237871
 11
3.0069051087
 21
3.8364958757
  0
LINE
  5
25C
100
AcDbEntity
  8
0
100
AcDbLine
 62
7
  6
CONTINUOUS
 10
2.6637550404
 20
4.5788822161
 11
2.6729051087
 21
4.5689184007
  0
LINE
  5
25D
100
AcDbEntity
  8
ALL_FEATURES
100
AcDbLine
 62
7
  6
CONTINUOUS
 10
3.0069051087
 20
4.7536225404
 11
2.7191501186
 21
4.5874871194
  0
LINE
  5
25E
100
AcDbEntity
  8
ALL_FEATURES
100
AcDbLine
 62
7
  6
CONTINUOUS
 10
3.0069051087
 20
4.710026833
 11
2.7569051087
 21
4.5656892657
  0
LINE
  5
25F
100
AcDbEntity
  8
ALL_FEATURES
100
AcDbLine
 62
7
  6
CONTINUOUS
 10
2.7191501186
 20
4.2552162774
 11
3.0069051087
 21
4.0890808564
  0
LINE
  5
260
100
AcDbEntity
  8
ALL_FEATURES
100
AcDbLine
 62
7
  6
CONTINUOUS
 10
2.7569051087
 20
4.2770141311
 11
3.0069051087
 21
4.1326765638
  0
LWPOLYLINE
  5
261
100
AcDbEntity
  8
ALL_FEATURES
100
AcDbPolyline
 62
7
  6
CONTINUOUS
 90
5
 70
0
 10
2.5614294637
 20
4.164158408
 10
2.5469686697
 20
4.1558072715
 10
2.5319765063
 20
4.1471442321
 10
2.516453613
 20
4.1381801153
 10
2.5004051087
 20
4.1289237871
  0
LINE
  5
262
100
AcDbEntity
  8
ALL_FEATURES
100
AcDbLine
 62
7
  6
CONTINUOUS
 10
2.636517165
 20
4.2075104314
 11
2.6137465523
 21
4.1943598709
  0
LWPOLYLINE
  5
263
100
AcDbEntity
  8
ALL_FEATURES
100
AcDbPolyline
 62
7
  6
CONTINUOUS
 90
3
 70
0
 10
2.6015124251
 20
4.1872994177
 10
2.5887140437
 20
4.1799089745
 10
2.5753501822
 20
4.1721922802
  0
LWPOLYLINE
  5
264
100
AcDbEntity
  8
ALL_FEATURES
100
AcDbPolyline
 62
7
  6
CONTINUOUS
 90
5
 70
0
 10
3.4523807537
 20
4.6785449888
 10
3.4668415477
 20
4.6868961253
 10
3.4818337111
 20
4.6955591647
 10
3.4973566044
 20
4.7045232816
 10
3.5134051087
 20
4.7137796098
  0
LINE
  5
265
100
AcDbEntity
  8
ALL_FEATURES
100
AcDbLine
 62
7
  6
CONTINUOUS
 10
3.3772930524
 20
4.6351929655
 11
3.4000636651
 21
4.6483435259
  0
LWPOLYLINE
  5
266
100
AcDbEntity
  8
ALL_FEATURES
100
AcDbPolyline
 62
7
  6
CONTINUOUS
 90
3
 70
0
 10
3.4122977923
 20
4.6554039792
 10
3.4250961737
 20
4.6627944224
 10
3.4384600352
 20
4.6705111167
  0
LINE
  5
267
100
AcDbEntity
  8
ALL_FEATURES
100
AcDbLine
 62
7
  6
CONTINUOUS
 10
2.7569051087
 20
4.2770141311
 11
2.4927025252
 21
4.1244766984
  0
LINE
  5
268
100
AcDbEntity
  8
ALL_FEATURES
100
AcDbLine
 62
7
  6
CONTINUOUS
 10
3.2569051087
 20
4.5656892657
 11
3.5211076922
 21
4.7182266984
  0
LINE
  5
269
100
AcDbEntity
  8
ALL_FEATURES
100
AcDbLine
 62
7
  6
CONTINUOUS
 10
2.7569051087
 20
4.5656892657
 11
2.4927025252
 21
4.7182266984
  0
LINE
  5
26A
100
AcDbEntity
  8
ALL_FEATURES
100
AcDbLine
 62
7
  6
CONTINUOUS
 10
3.2569051087
 20
4.2770141311
 11
3.5211076922
 21
4.1244766984
  0
LINE
  5
26B
100
AcDbEntity
  8
ALL_FEATURES
100
AcDbLine
 62
7
  6
CONTINUOUS
 10
3.29911139
 20
4.2526449841
 11
3.3041830416
 21
4.2497170284
  0
LINE
  5
26C
100
AcDbEntity
  8
ALL_FEATURES
100
AcDbLine
 62
7
  6
CONTINUOUS
 10
2.7146988274
 20
4.5900584128
 11
2.7096271758
 21
4.5929863685
  0
LINE
  5
26D
100
AcDbEntity
  8
ALL_FEATURES
100
AcDbLine
 62
7
  6
CONTINUOUS
 10
3.3475040958
 20
4.2247062627
 11
3.3568318272
 21
4.2193214133
  0
LINE
  5
26E
100
AcDbEntity
  8
ALL_FEATURES
100
AcDbLine
 62
7
  6
CONTINUOUS
 10
2.6663061216
 20
4.6179971342
 11
2.6569783902
 21
4.6233819835
  0
LWPOLYLINE
  5
26F
100
AcDbEntity
  8
ALL_FEATURES
100
AcDbPolyline
 62
7
  6
CONTINUOUS
 90
3
 70
0
 10
3.4122966714
 20
4.1872974763
 10
3.4250961737
 20
4.1799089745
 10
3.4384609577
 20
4.1721938781
  0
LINE
  5
270
100
AcDbEntity
  8
ALL_FEATURES
100
AcDbLine
 62
7
  6
CONTINUOUS
 10
3.3883962144
 20
4.2010977059
 11
3.4000650759
 21
4.1943623146
  0
LWPOLYLINE
  5
271
100
AcDbEntity
  8
ALL_FEATURES
100
AcDbPolyline
 62
7
  6
CONTINUOUS
 90
5
 70
0
 10
3.4523788544
 20
4.1641551182
 10
3.4668415477
 20
4.1558072715
 10
3.4818400416
 20
4.1471551969
 10
3.4973646412
 20
4.1381940354
 10
3.5134051087
 20
4.1289237871
  0
LINE
  5
272
100
AcDbEntity
  8
ALL_FEATURES
100
AcDbLine
 62
7
  6
CONTINUOUS
 10
3.3306481235
 20
4.2344385817
 11
3.3387782693
 21
4.2297459411
  0
LWPOLYLINE
  5
273
100
AcDbEntity
  8
ALL_FEATURES
100
AcDbPolyline
 62
7
  6
CONTINUOUS
 90
3
 70
0
 10
2.601513546
 20
4.6554059205
 10
2.5887140437
 20
4.6627944224
 10
2.5753492597
 20
4.6705095187
  0
LINE
  5
274
100
AcDbEntity
  8
ALL_FEATURES
100
AcDbLine
 62
7
  6
CONTINUOUS
 10
2.625414003
 20
4.641605691
 11
2.6137451414
 21
4.6483410822
  0
LINE
  5
275
100
AcDbEntity
  8
ALL_FEATURES
100
AcDbLine
 62
7
  6
CONTINUOUS
 10
2.6831620939
 20
4.6082648152
 11
2.6750319481
 21
4.6129574558
  0
LWPOLYLINE
  5
276
100
AcDbEntity
  8
ALL_FEATURES
100
AcDbPolyline
 62
7
  6
CONTINUOUS
 90
5
 70
0
 10
2.561431363
 20
4.6785482786
 10
2.5469686697
 20
4.6868961253
 10
2.5319701758
 20
4.6955482
 10
2.5164455762
 20
4.7045093614
 10
2.5004051087
 20
4.7137796098
  0
LINE
  5
277
100
AcDbEntity
  8
ALL_FEATURES
100
AcDbLine
 62
7
  6
CONTINUOUS
 10
3.0069051087
 20
4.1326765638
 11
3.2569051087
 21
4.2770141311
  0
LINE
  5
278
100
AcDbEntity
  8
ALL_FEATURES
100
AcDbLine
 62
7
  6
CONTINUOUS
 10
3.0069051087
 20
4.0890808564
 11
3.2946600988
 21
4.2552162774
  0
LINE
  5
279
100
AcDbEntity
  8
0
100
AcDbLine
 62
7
  6
CONTINUOUS
 10
2.6637550404
 20
4.3561004215
 11
2.6729051087
 21
4.360227569
  0
LINE
  5
27A
100
AcDbEntity
  8
0
100
AcDbLine
 62
7
  6
CONTINUOUS
 10
2.6637550404
 20
4.4866029753
 11
2.6729051087
 21
4.4824758279
  0
LINE
  5
27B
100
AcDbEntity
  8
ALL_FEATURES
100
AcDbLine
 62
7
  6
CONTINUOUS
 10
3.2569051087
 20
4.5656892657
 11
3.0069051087
 21
4.710026833
  0
LINE
  5
27C
100
AcDbEntity
  8
ALL_FEATURES
100
AcDbLine
 62
7
  6
CONTINUOUS
 10
3.0069051087
 20
3.8364958757
 11
3.5134051087
 21
4.1289237871
  0
LINE
  5
27D
100
AcDbEntity
  8
0
100
AcDbLine
 62
7
  6
CONTINUOUS
 10
5.2175055634
 20
3.7961948854
 11
4.7325056649
 21
3.7965087732
  0
LINE
  5
27E
100
AcDbEntity
  8
ALL_FEATURES
100
AcDbLine
 62
7
  6
CONTINUOUS
 10
3.2946600988
 20
4.5874871194
 11
3.0069051087
 21
4.7536225404
  0
LINE
  5
27F
100
AcDbEntity
  8
ALL_FEATURES
100
AcDbLine
 62
7
  6
CONTINUOUS
 10
3.5134051087
 20
4.7137796098
 11
3.0069051087
 21
5.0062075211
  0
LINE
  5
280
100
AcDbEntity
  8
0
100
AcDbLine
 62
7
  6
CONTINUOUS
 10
4.7326435925
 20
4.0106797146
 11
4.7325056649
 21
3.7965087732
  0
LINE
  5
281
100
AcDbEntity
  8
0
100
AcDbLine
 62
7
  6
CONTINUOUS
 10
4.7735640737
 20
4.7714824047
 11
4.5712650049
 21
4.4216132577
  0
LINE
  5
282
100
AcDbEntity
  8
0
100
AcDbLine
 62
7
  6
CONTINUOUS
 10
4.8312343694
 20
4.6714450601
 11
4.6867350346
 21
4.4215385265
  0
LINE
  5
283
100
AcDbEntity
  8
0
100
AcDbLine
 62
7
  6
CONTINUOUS
 10
8.4940101087
 20
4.1763516984
 11
8.4590101087
 21
4.1763516984
  0
LINE
  5
284
100
AcDbEntity
  8
0
100
AcDbLine
 62
7
  6
CONTINUOUS
 10
1.4568051087
 20
4.1763516984
 11
1.4918051087
 21
4.1763516984
  0
LINE
  5
285
100
AcDbEntity
  8
0
100
AcDbLine
 62
7
  6
CONTINUOUS
 10
5.2176430915
 20
4.0086948409
 11
4.7326431931
 21
4.0090087287
  0
LINE
  5
286
100
AcDbEntity
  8
0
100
AcDbLine
 62
7
  6
CONTINUOUS
 10
4.5712650049
 20
4.4216132577
 11
4.7283362046
 21
4.1491508825
  0
LINE
  5
287
100
AcDbEntity
  8
0
100
AcDbLine
 62
7
  6
CONTINUOUS
 10
4.6867350346
 20
4.4215385265
 11
4.6934666289
 21
4.409861617
  0
LINE
  5
288
100
AcDbEntity
  8
0
100
AcDbLine
 62
7
  6
CONTINUOUS
 10
4.8538931677
 20
4.0089302568
 11
4.8537556395
 21
3.7964303013
  0
LINE
  5
289
100
AcDbEntity
  8
0
100
AcDbLine
 62
7
  6
CONTINUOUS
 10
5.2726178339
 20
4.9353620393
 11
5.1199094436
 21
4.671258232
  0
LINE
  5
28A
100
AcDbEntity
  8
0
100
AcDbLine
 62
7
  6
CONTINUOUS
 10
4.6782023834
 20
3.9073413575
 11
4.7326383247
 21
4.0014864094
  0
LINE
  5
28B
100
AcDbEntity
  8
0
100
AcDbLine
 62
7
  6
CONTINUOUS
 10
8.4590101087
 20
4.6688516984
 11
8.4490462934
 21
4.6679836415
  0
LINE
  5
28C
100
AcDbEntity
  8
0
100
AcDbLine
 62
7
  6
CONTINUOUS
 10
7.2870601769
 20
4.5788822161
 11
8.4490462934
 21
4.6780017667
  0
LINE
  5
28D
100
AcDbEntity
  8
0
100
AcDbLine
 62
7
  6
CONTINUOUS
 10
7.2870601769
 20
4.4866029753
 11
8.4390462934
 21
4.5273063057
  0
LINE
  5
28E
100
AcDbEntity
  8
0
100
AcDbLine
 62
7
  6
CONTINUOUS
 10
2.6637550404
 20
4.3561004215
 11
1.511768924
 21
4.3153970911
  0
LINE
  5
28F
100
AcDbEntity
  8
0
100
AcDbLine
 62
7
  6
CONTINUOUS
 10
8.5386151017
 20
4.2213516984
 11
8.5090101087
 21
4.2213516984
  0
LINE
  5
290
100
AcDbEntity
  8
0
100
AcDbLine
 62
7
  6
CONTINUOUS
 10
1.4122001157
 20
4.2213516984
 11
1.4418051087
 21
4.2213516984
  0
LINE
  5
291
100
AcDbEntity
  8
0
100
AcDbLine
 62
7
  6
CONTINUOUS
 10
8.5386151017
 20
4.2257450967
 11
8.5090101087
 21
4.2257450967
  0
LINE
  5
292
100
AcDbEntity
  8
0
100
AcDbLine
 62
7
  6
CONTINUOUS
 10
1.4122001157
 20
4.2257450967
 11
1.4418051087
 21
4.2257450967
  0
LINE
  5
293
100
AcDbEntity
  8
0
100
AcDbLine
 62
7
  6
CONTINUOUS
 10
7.2029101087
 20
4.3301016984
 11
7.17128222
 21
4.3301016984
  0
LINE
  5
294
100
AcDbEntity
  8
0
100
AcDbLine
 62
7
  6
CONTINUOUS
 10
2.7479051087
 20
4.3301016984
 11
2.7795329973
 21
4.3301016984
  0
LINE
  5
295
100
AcDbEntity
  8
0
100
AcDbLine
 62
7
  6
CONTINUOUS
 10
8.5386151017
 20
4.3341155877
 11
8.5090101087
 21
4.3341155877
  0
LINE
  5
296
100
AcDbEntity
  8
0
100
AcDbLine
 62
7
  6
CONTINUOUS
 10
1.4122001157
 20
4.3341155877
 11
1.4418051087
 21
4.3341155877
  0
LINE
  5
297
100
AcDbEntity
  8
0
100
AcDbLine
 62
7
  6
CONTINUOUS
 10
8.5526600393
 20
4.3447221894
 11
8.5090101087
 21
4.3447221894
  0
LINE
  5
298
100
AcDbEntity
  8
0
100
AcDbLine
 62
7
  6
CONTINUOUS
 10
1.3981551781
 20
4.3447221894
 11
1.4418051087
 21
4.3447221894
  0
LINE
  5
299
100
AcDbEntity
  8
0
100
AcDbLine
 62
7
  6
CONTINUOUS
 10
5.5691599843
 20
4.4209674286
 11
5.2640851828
 21
4.4211648704
  0
LINE
  5
29A
100
AcDbEntity
  8
0
100
AcDbLine
 62
7
  6
CONTINUOUS
 10
4.381660233
 20
4.4217359682
 11
4.6867350346
 21
4.4215385265
  0
LINE
  5
29B
100
AcDbEntity
  8
0
100
AcDbLine
 62
7
  6
CONTINUOUS
 10
2.6637550404
 20
4.4866029753
 11
1.511768924
 21
4.5273063057
  0
LINE
  5
29C
100
AcDbEntity
  8
0
100
AcDbLine
 62
7
  6
CONTINUOUS
 10
7.2870601769
 20
4.3561004215
 11
8.4390462934
 21
4.3153970911
  0
LINE
  5
29D
100
AcDbEntity
  8
0
100
AcDbLine
 62
7
  6
CONTINUOUS
 10
1.501768924
 20
4.6780017667
 11
2.6637550404
 21
4.5788822161
  0
LINE
  5
29E
100
AcDbEntity
  8
0
100
AcDbLine
 62
7
  6
CONTINUOUS
 10
1.4918051087
 20
4.6688516984
 11
1.501768924
 21
4.6679836415
  0
LINE
  5
29F
100
AcDbEntity
  8
0
100
AcDbLine
 62
7
  6
CONTINUOUS
 10
4.6788679583
 20
4.9357463091
 11
4.8312343694
 21
4.6714450601
  0
LINE
  5
2A0
100
AcDbEntity
  8
0
100
AcDbLine
 62
7
  6
CONTINUOUS
 10
5.2719522591
 20
3.9069570877
 11
5.2176382231
 21
4.0011725217
  0
LINE
  5
2A1
100
AcDbEntity
  8
0
100
AcDbLine
 62
7
  6
CONTINUOUS
 10
5.0963931169
 20
4.0087733129
 11
5.0962555888
 21
3.7962733574
  0
LINE
  5
2A2
100
AcDbEntity
  8
0
100
AcDbLine
 62
7
  6
CONTINUOUS
 10
5.2176430915
 20
4.0086948409
 11
5.2175055634
 21
3.7961948854
  0
LINE
  5
2A3
100
AcDbEntity
  8
0
100
AcDbLine
 62
7
  6
CONTINUOUS
 10
5.2573384798
 20
4.409496684
 11
5.2640851828
 21
4.4211648704
  0
LINE
  5
2A4
100
AcDbEntity
  8
0
100
AcDbLine
 62
7
  6
CONTINUOUS
 10
1.4918051087
 20
4.1738516984
 11
1.501768924
 21
4.1747197553
  0
LINE
  5
2A5
100
AcDbEntity
  8
0
100
AcDbLine
 62
7
  6
CONTINUOUS
 10
1.501768924
 20
4.1647016302
 11
2.6637550404
 21
4.2638211808
  0
LINE
  5
2A6
100
AcDbEntity
  8
0
100
AcDbLine
 62
7
  6
CONTINUOUS
 10
8.5526600393
 20
4.4979812075
 11
8.5090101087
 21
4.4979812075
  0
LINE
  5
2A7
100
AcDbEntity
  8
0
100
AcDbLine
 62
7
  6
CONTINUOUS
 10
1.3981551781
 20
4.4979812075
 11
1.4418051087
 21
4.4979812075
  0
LINE
  5
2A8
100
AcDbEntity
  8
0
100
AcDbLine
 62
7
  6
CONTINUOUS
 10
8.5386151017
 20
4.5085878092
 11
8.5090101087
 21
4.5085878092
  0
LINE
  5
2A9
100
AcDbEntity
  8
0
100
AcDbLine
 62
7
  6
CONTINUOUS
 10
1.4122001157
 20
4.5085878092
 11
1.4418051087
 21
4.5085878092
  0
LINE
  5
2AA
100
AcDbEntity
  8
0
100
AcDbLine
 62
7
  6
CONTINUOUS
 10
7.2029101087
 20
4.5126016984
 11
7.17128222
 21
4.5126016984
  0
LINE
  5
2AB
100
AcDbEntity
  8
0
100
AcDbLine
 62
7
  6
CONTINUOUS
 10
2.7479051087
 20
4.5126016984
 11
2.7795329973
 21
4.5126016984
  0
LINE
  5
2AC
100
AcDbEntity
  8
0
100
AcDbLine
 62
7
  6
CONTINUOUS
 10
8.5386151017
 20
4.6169583001
 11
8.5090101087
 21
4.6169583001
  0
LINE
  5
2AD
100
AcDbEntity
  8
0
100
AcDbLine
 62
7
  6
CONTINUOUS
 10
1.4122001157
 20
4.6169583001
 11
1.4418051087
 21
4.6169583001
  0
LINE
  5
2AE
100
AcDbEntity
  8
0
100
AcDbLine
 62
7
  6
CONTINUOUS
 10
8.5386151017
 20
4.6213516984
 11
8.5090101087
 21
4.6213516984
  0
LINE
  5
2AF
100
AcDbEntity
  8
0
100
AcDbLine
 62
7
  6
CONTINUOUS
 10
1.4122001157
 20
4.6213516984
 11
1.4418051087
 21
4.6213516984
  0
LINE
  5
2B0
100
AcDbEntity
  8
0
100
AcDbLine
 62
7
  6
CONTINUOUS
 10
8.4940101087
 20
4.6663516984
 11
8.4590101087
 21
4.6663516984
  0
LINE
  5
2B1
100
AcDbEntity
  8
0
100
AcDbLine
 62
7
  6
CONTINUOUS
 10
1.4568051087
 20
4.6663516984
 11
1.4918051087
 21
4.6663516984
  0
LINE
  5
2B2
100
AcDbEntity
  8
0
100
AcDbLine
 62
7
  6
CONTINUOUS
 10
5.1199094436
 20
4.671258232
 11
4.8312343694
 21
4.6714450601
  0
LINE
  5
2B3
100
AcDbEntity
  8
0
100
AcDbLine
 62
7
  6
CONTINUOUS
 10
7.2870601769
 20
4.2638211808
 11
8.4490462934
 21
4.1647016302
  0
LINE
  5
2B4
100
AcDbEntity
  8
0
100
AcDbLine
 62
7
  6
CONTINUOUS
 10
8.4590101087
 20
4.1738516984
 11
8.4490462934
 21
4.1747197553
  0
LINE
  5
2B5
100
AcDbEntity
  8
0
100
AcDbLine
 62
7
  6
CONTINUOUS
 10
5.2640851828
 20
4.4211648704
 11
5.1199094436
 21
4.671258232
  0
LINE
  5
2B6
100
AcDbEntity
  8
0
100
AcDbLine
 62
7
  6
CONTINUOUS
 10
5.2221314739
 20
4.1488313024
 11
5.3795552125
 21
4.4210901392
  0
LINE
  5
2B7
100
AcDbEntity
  8
ALL_FEATURES
100
AcDbLine
 62
7
  6
CONTINUOUS
 10
6.9439101087
 20
5.0062075211
 11
6.4374101087
 21
4.7137796098
  0
LINE
  5
2B8
100
AcDbEntity
  8
0
100
AcDbLine
 62
7
  6
CONTINUOUS
 10
5.1777091775
 20
4.7712208455
 11
4.7735640737
 21
4.7714824047
  0
LINE
  5
2B9
100
AcDbEntity
  8
ALL_FEATURES
100
AcDbLine
 62
7
  6
CONTINUOUS
 10
6.4374101087
 20
4.1289237871
 11
6.9439101087
 21
3.8364958757
  0
LINE
  5
2BA
100
AcDbEntity
  8
0
100
AcDbLine
 62
7
  6
CONTINUOUS
 10
5.3795552125
 20
4.4210901392
 11
5.1777091775
 21
4.7712208455
  0
LINE
  5
2BB
100
AcDbEntity
  8
ALL_FEATURES
100
AcDbLine
 62
7
  6
CONTINUOUS
 10
6.9439101087
 20
4.7536225404
 11
6.6561551186
 21
4.5874871194
  0
LINE
  5
2BC
100
AcDbEntity
  8
ALL_FEATURES
100
AcDbLine
 62
7
  6
CONTINUOUS
 10
6.9439101087
 20
4.710026833
 11
6.6939101087
 21
4.5656892657
  0
LINE
  5
2BD
100
AcDbEntity
  8
ALL_FEATURES
100
AcDbLine
 62
7
  6
CONTINUOUS
 10
6.6561551186
 20
4.2552162774
 11
6.9439101087
 21
4.0890808564
  0
LINE
  5
2BE
100
AcDbEntity
  8
ALL_FEATURES
100
AcDbLine
 62
7
  6
CONTINUOUS
 10
6.6939101087
 20
4.2770141311
 11
6.9439101087
 21
4.1326765638
  0
LINE
  5
2BF
100
AcDbEntity
  8
ALL_FEATURES
100
AcDbLine
 62
7
  6
CONTINUOUS
 10
6.6939101087
 20
4.2770141311
 11
6.4297075252
 21
4.1244766984
  0
LINE
  5
2C0
100
AcDbEntity
  8
ALL_FEATURES
100
AcDbLine
 62
7
  6
CONTINUOUS
 10
7.1939101087
 20
4.5656892657
 11
7.4581126922
 21
4.7182266984
  0
LINE
  5
2C1
100
AcDbEntity
  8
ALL_FEATURES
100
AcDbLine
 62
7
  6
CONTINUOUS
 10
6.6517026676
 20
4.2526469928
 11
6.6466311578
 21
4.2497187916
  0
LINE
  5
2C2
100
AcDbEntity
  8
ALL_FEATURES
100
AcDbLine
 62
7
  6
CONTINUOUS
 10
7.2361175498
 20
4.590056404
 11
7.2411890596
 21
4.5929846052
  0
LINE
  5
2C3
100
AcDbEntity
  8
ALL_FEATURES
100
AcDbLine
 62
7
  6
CONTINUOUS
 10
6.6033106723
 20
4.224707041
 11
6.5939833902
 21
4.2193214133
  0
LINE
  5
2C4
100
AcDbEntity
  8
ALL_FEATURES
100
AcDbLine
 62
7
  6
CONTINUOUS
 10
7.2845095451
 20
4.6179963559
 11
7.2938368272
 21
4.6233819835
  0
LWPOLYLINE
  5
2C5
100
AcDbEntity
  8
ALL_FEATURES
100
AcDbPolyline
 62
7
  6
CONTINUOUS
 90
3
 70
0
 10
6.5385174251
 20
4.1872994177
 10
6.5257190437
 20
4.1799089745
 10
6.5123551822
 20
4.1721922802
  0
LINE
  5
2C6
100
AcDbEntity
  8
ALL_FEATURES
100
AcDbLine
 62
7
  6
CONTINUOUS
 10
6.562419003
 20
4.2010977059
 11
6.5507515523
 21
4.1943598709
  0
LWPOLYLINE
  5
2C7
100
AcDbEntity
  8
ALL_FEATURES
100
AcDbPolyline
 62
7
  6
CONTINUOUS
 90
5
 70
0
 10
6.4984344637
 20
4.164158408
 10
6.4839736697
 20
4.1558072715
 10
6.4689815063
 20
4.1471442321
 10
6.453458613
 20
4.1381801153
 10
6.4374101087
 20
4.1289237871
  0
LINE
  5
2C8
100
AcDbEntity
  8
ALL_FEATURES
100
AcDbLine
 62
7
  6
CONTINUOUS
 10
6.6201670939
 20
4.2344385817
 11
6.612038075
 21
4.2297439892
  0
LWPOLYLINE
  5
2C9
100
AcDbEntity
  8
ALL_FEATURES
100
AcDbPolyline
 62
7
  6
CONTINUOUS
 90
3
 70
0
 10
7.3493027923
 20
4.6554039792
 10
7.3621011737
 20
4.6627944224
 10
7.3754650352
 20
4.6705111167
  0
LINE
  5
2CA
100
AcDbEntity
  8
ALL_FEATURES
100
AcDbLine
 62
7
  6
CONTINUOUS
 10
7.3254012144
 20
4.641605691
 11
7.3370686651
 21
4.6483435259
  0
LINE
  5
2CB
100
AcDbEntity
  8
ALL_FEATURES
100
AcDbLine
 62
7
  6
CONTINUOUS
 10
7.2676531235
 20
4.6082648152
 11
7.2757821424
 21
4.6129594076
  0
LWPOLYLINE
  5
2CC
100
AcDbEntity
  8
ALL_FEATURES
100
AcDbPolyline
 62
7
  6
CONTINUOUS
 90
5
 70
0
 10
7.3893857537
 20
4.6785449888
 10
7.4038465477
 20
4.6868961253
 10
7.4188387111
 20
4.6955591647
 10
7.4343616044
 20
4.7045232816
 10
7.4504101087
 20
4.7137796098
  0
LINE
  5
2CD
100
AcDbEntity
  8
0
100
AcDbLine
 62
7
  6
CONTINUOUS
 10
7.2870601769
 20
4.4866029753
 11
7.2779101087
 21
4.4824758279
  0
LINE
  5
2CE
100
AcDbEntity
  8
0
100
AcDbLine
 62
7
  6
CONTINUOUS
 10
7.2870601769
 20
4.3561004215
 11
7.2779101087
 21
4.360227569
  0
LWPOLYLINE
  5
2CF
100
AcDbEntity
  8
ALL_FEATURES
100
AcDbPolyline
 62
7
  6
CONTINUOUS
 90
5
 70
0
 10
7.3893838544
 20
4.1641551182
 10
7.4038465477
 20
4.1558072715
 10
7.4188450416
 20
4.1471551969
 10
7.4343696412
 20
4.1381940354
 10
7.4504101087
 20
4.1289237871
  0
LINE
  5
2D0
100
AcDbEntity
  8
ALL_FEATURES
100
AcDbLine
 62
7
  6
CONTINUOUS
 10
7.3142960502
 20
4.2075069634
 11
7.3370700759
 21
4.1943623146
  0
LWPOLYLINE
  5
2D1
100
AcDbEntity
  8
ALL_FEATURES
100
AcDbPolyline
 62
7
  6
CONTINUOUS
 90
3
 70
0
 10
7.3493016714
 20
4.1872974763
 10
7.3621011737
 20
4.1799089745
 10
7.3754659577
 20
4.1721938781
  0
LWPOLYLINE
  5
2D2
100
AcDbEntity
  8
ALL_FEATURES
100
AcDbPolyline
 62
7
  6
CONTINUOUS
 90
5
 70
0
 10
6.498436363
 20
4.6785482786
 10
6.4839736697
 20
4.6868961253
 10
6.4689751758
 20
4.6955482
 10
6.4534505762
 20
4.7045093614
 10
6.4374101087
 20
4.7137796098
  0
LINE
  5
2D3
100
AcDbEntity
  8
ALL_FEATURES
100
AcDbLine
 62
7
  6
CONTINUOUS
 10
6.5735241672
 20
4.6351964334
 11
6.5507501414
 21
4.6483410822
  0
LWPOLYLINE
  5
2D4
100
AcDbEntity
  8
ALL_FEATURES
100
AcDbPolyline
 62
7
  6
CONTINUOUS
 90
3
 70
0
 10
6.538518546
 20
4.6554059205
 10
6.5257190437
 20
4.6627944224
 10
6.5123542597
 20
4.6705095187
  0
LINE
  5
2D5
100
AcDbEntity
  8
ALL_FEATURES
100
AcDbLine
 62
7
  6
CONTINUOUS
 10
6.6939101087
 20
4.5656892657
 11
6.4297075252
 21
4.7182266984
  0
LINE
  5
2D6
100
AcDbEntity
  8
ALL_FEATURES
100
AcDbLine
 62
7
  6
CONTINUOUS
 10
7.1939101087
 20
4.2770141311
 11
7.4581126922
 21
4.1244766984
  0
LINE
  5
2D7
100
AcDbEntity
  8
ALL_FEATURES
100
AcDbLine
 62
7
  6
CONTINUOUS
 10
6.9439101087
 20
4.1326765638
 11
7.1939101087
 21
4.2770141311
  0
LINE
  5
2D8
100
AcDbEntity
  8
ALL_FEATURES
100
AcDbLine
 62
7
  6
CONTINUOUS
 10
6.9439101087
 20
4.0890808564
 11
7.2316650988
 21
4.2552162774
  0
LINE
  5
2D9
100
AcDbEntity
  8
ALL_FEATURES
100
AcDbLine
 62
7
  6
CONTINUOUS
 10
7.1939101087
 20
4.5656892657
 11
6.9439101087
 21
4.710026833
  0
LINE
  5
2DA
100
AcDbEntity
  8
ALL_FEATURES
100
AcDbLine
 62
7
  6
CONTINUOUS
 10
6.4374101087
 20
4.7137796098
 11
6.4374101087
 21
4.1289237871
  0
LINE
  5
2DB
100
AcDbEntity
  8
ALL_FEATURES
100
AcDbLine
 62
7
  6
CONTINUOUS
 10
6.9439101087
 20
3.8364958757
 11
7.4504101087
 21
4.1289237871
  0
LINE
  5
2DC
100
AcDbEntity
  8
ALL_FEATURES
100
AcDbLine
 62
7
  6
CONTINUOUS
 10
7.2316650988
 20
4.5874871194
 11
6.9439101087
 21
4.7536225404
  0
LINE
  5
2DD
100
AcDbEntity
  8
ALL_FEATURES
100
AcDbLine
 62
7
  6
CONTINUOUS
 10
7.4504101087
 20
4.7137796098
 11
6.9439101087
 21
5.0062075211
  0
LINE
  5
2DE
100
AcDbEntity
  8
ALL_FEATURES
100
AcDbLine
 62
7
  6
CONTINUOUS
 10
6.6561551186
 20
4.5874871194
 11
6.6561551186
 21
4.2552162774
  0
LINE
  5
2DF
100
AcDbEntity
  8
ALL_FEATURES
100
AcDbLine
 62
7
  6
CONTINUOUS
 10
6.6939101087
 20
4.5656892657
 11
6.6939101087
 21
4.2770141311
  0
LINE
  5
2E0
100
AcDbEntity
  8
0
100
AcDbLine
 62
7
  6
CONTINUOUS
 10
7.2870601769
 20
4.5788822161
 11
7.2779101087
 21
4.5689184007
  0
LINE
  5
2E1
100
AcDbEntity
  8
0
100
AcDbLine
 62
7
  6
CONTINUOUS
 10
7.2870601769
 20
4.2638211808
 11
7.2779101087
 21
4.2737849961
  0
LWPOLYLINE
  5
2E2
100
AcDbEntity
  8
ALL_FEATURES
100
AcDbPolyline
 62
7
  6
CONTINUOUS
 90
5
 70
0
 10
6.9439082093
 20
3.9069618279
 10
6.9439101087
 20
3.8902628446
 10
6.9439164392
 20
3.8729477306
 10
6.9439181455
 20
3.8550224522
 10
6.9439101087
 20
3.8364958757
  0
LINE
  5
2E3
100
AcDbEntity
  8
ALL_FEATURES
100
AcDbLine
 62
7
  6
CONTINUOUS
 10
6.9439081065
 20
3.9936656964
 11
6.9439115196
 21
3.9673704871
  0
LINE
  5
2E4
100
AcDbEntity
  8
ALL_FEATURES
100
AcDbLine
 62
7
  6
CONTINUOUS
 10
6.9439089878
 20
3.9532451956
 11
6.9439110313
 21
3.9230344598
  0
LINE
  5
2E5
100
AcDbEntity
  8
ALL_FEATURES
100
AcDbLine
 62
7
  6
CONTINUOUS
 10
6.9439101087
 20
4.1326765638
 11
6.9439101087
 21
3.8276016984
  0
LINE
  5
2E6
100
AcDbEntity
  8
ALL_FEATURES
100
AcDbLine
 62
7
  6
CONTINUOUS
 10
6.9439101087
 20
4.710026833
 11
6.9439101087
 21
5.0151016984
  0
LINE
  5
2E7
100
AcDbEntity
  8
ALL_FEATURES
100
AcDbLine
 62
7
  6
CONTINUOUS
 10
6.9439112684
 20
4.7587631184
 11
6.9439111267
 21
4.7646192753
  0
LINE
  5
2E8
100
AcDbEntity
  8
ALL_FEATURES
100
AcDbLine
 62
7
  6
CONTINUOUS
 10
6.9439105581
 20
4.8146417916
 11
6.9439101087
 21
4.8254122687
  0
LINE
  5
2E9
100
AcDbEntity
  8
ALL_FEATURES
100
AcDbLine
 62
7
  6
CONTINUOUS
 10
6.9439112295
 20
4.8894582013
 11
6.9439091861
 21
4.919668937
  0
LINE
  5
2EA
100
AcDbEntity
  8
ALL_FEATURES
100
AcDbLine
 62
7
  6
CONTINUOUS
 10
6.9439101087
 20
4.7951779319
 11
6.9439089818
 21
4.804565165
  0
LINE
  5
2EB
100
AcDbEntity
  8
ALL_FEATURES
100
AcDbLine
 62
7
  6
CONTINUOUS
 10
6.9439101087
 20
4.8618596835
 11
6.9439086978
 21
4.8753329097
  0
LWPOLYLINE
  5
2EC
100
AcDbEntity
  8
ALL_FEATURES
100
AcDbPolyline
 62
7
  6
CONTINUOUS
 90
5
 70
0
 10
6.9439120081
 20
4.935741569
 10
6.9439101087
 20
4.9524405522
 10
6.9439037782
 20
4.9697556663
 10
6.9439020719
 20
4.9876809446
 10
6.9439101087
 20
5.0062075211
  0
LINE
  5
2ED
100
AcDbEntity
  8
0
100
AcDbLine
 62
7
  6
CONTINUOUS
 10
7.1939101087
 20
4.5656892657
 11
7.1939101087
 21
4.5126016984
  0
LINE
  5
2EE
100
AcDbEntity
  8
0
100
AcDbLine
 62
7
  6
CONTINUOUS
 10
7.1939101087
 20
4.3301016984
 11
7.1939101087
 21
4.2770141311
  0
LINE
  5
2EF
100
AcDbEntity
  8
0
100
AcDbLine
 62
7
  6
CONTINUOUS
 10
7.2029101087
 20
4.3301016984
 11
7.2029101087
 21
4.5126016984
  0
LINE
  5
2F0
100
AcDbEntity
  8
0
100
AcDbLine
 62
7
  6
CONTINUOUS
 10
7.2279101087
 20
4.2813525156
 11
7.2279101087
 21
4.5613508813
  0
LINE
  5
2F1
100
AcDbEntity
  8
ALL_FEATURES
100
AcDbLine
 62
7
  6
CONTINUOUS
 10
7.2316650988
 20
4.2552162774
 11
7.2316650988
 21
4.2682061496
  0
LINE
  5
2F2
100
AcDbEntity
  8
ALL_FEATURES
100
AcDbLine
 62
7
  6
CONTINUOUS
 10
7.2316650988
 20
4.5744972472
 11
7.2316650988
 21
4.5874871194
  0
LINE
  5
2F3
100
AcDbEntity
  8
0
100
AcDbLine
 62
7
  6
CONTINUOUS
 10
7.2779101087
 20
4.2737849961
 11
7.2779101087
 21
4.5689184007
  0
LINE
  5
2F4
100
AcDbEntity
  8
0
100
AcDbLine
 62
7
  6
CONTINUOUS
 10
7.2870601769
 20
4.2638211808
 11
7.2870601769
 21
4.5788822161
  0
LINE
  5
2F5
100
AcDbEntity
  8
ALL_FEATURES
100
AcDbLine
 62
7
  6
CONTINUOUS
 10
7.4504101087
 20
4.1289237871
 11
7.4504101087
 21
4.2498871315
  0
LINE
  5
2F6
100
AcDbEntity
  8
ALL_FEATURES
100
AcDbLine
 62
7
  6
CONTINUOUS
 10
7.4504101087
 20
4.5928162654
 11
7.4504101087
 21
4.7137796098
  0
LINE
  5
2F7
100
AcDbEntity
  8
0
100
AcDbLine
 62
7
  6
CONTINUOUS
 10
8.4590101087
 20
4.5238695551
 11
8.4490462934
 21
4.5134918691
  0
LINE
  5
2F8
100
AcDbEntity
  8
0
100
AcDbLine
 62
7
  6
CONTINUOUS
 10
8.4490462934
 20
4.5376777626
 11
8.4390462934
 21
4.5273063057
  0
LINE
  5
2F9
100
AcDbEntity
  8
0
100
AcDbLine
 62
7
  6
CONTINUOUS
 10
8.4490462934
 20
4.3050256342
 11
8.4390462934
 21
4.3153970911
  0
LINE
  5
2FA
100
AcDbEntity
  8
0
100
AcDbLine
 62
7
  6
CONTINUOUS
 10
8.4590101087
 20
4.3188338417
 11
8.4490462934
 21
4.3292115278
  0
LINE
  5
2FB
100
AcDbEntity
  8
0
100
AcDbLine
 62
7
  6
CONTINUOUS
 10
8.6220350393
 20
4.4213516984
 11
8.5526600393
 21
4.3447221894
  0
LINE
  5
2FC
100
AcDbEntity
  8
0
100
AcDbLine
 62
7
  6
CONTINUOUS
 10
8.6220350393
 20
4.4176274719
 11
8.5526600393
 21
4.3409979629
  0
LINE
  5
2FD
100
AcDbEntity
  8
0
100
AcDbLine
 62
7
  6
CONTINUOUS
 10
8.4590101087
 20
4.1738516984
 11
8.4490462934
 21
4.1647016302
  0
LINE
  5
2FE
100
AcDbEntity
  8
0
100
AcDbLine
 62
7
  6
CONTINUOUS
 10
8.4490462934
 20
4.1747197553
 11
8.4390462934
 21
4.1655546485
  0
LINE
  5
2FF
100
AcDbEntity
  8
0
100
AcDbLine
 62
7
  6
CONTINUOUS
 10
8.4490462934
 20
4.6679836415
 11
8.4390462934
 21
4.6771487483
  0
LINE
  5
300
100
AcDbEntity
  8
0
100
AcDbLine
 62
7
  6
CONTINUOUS
 10
8.4590101087
 20
4.6688516984
 11
8.4490462934
 21
4.6780017667
  0
LINE
  5
301
100
AcDbEntity
  8
0
100
AcDbLine
 62
7
  6
CONTINUOUS
 10
8.6220350393
 20
4.4213516984
 11
8.5526600393
 21
4.4979812075
  0
LINE
  5
302
100
AcDbEntity
  8
0
100
AcDbLine
 62
7
  6
CONTINUOUS
 10
8.6220350393
 20
4.4250759249
 11
8.5526600393
 21
4.501705434
  0
LINE
  5
303
100
AcDbEntity
  8
0
100
AcDbLine
 62
7
  6
CONTINUOUS
 10
8.4590101087
 20
4.3188338417
 11
8.4490462934
 21
4.3050256342
  0
LINE
  5
304
100
AcDbEntity
  8
0
100
AcDbLine
 62
7
  6
CONTINUOUS
 10
8.4390462934
 20
4.3153970911
 11
8.4490462934
 21
4.3292115278
  0
LINE
  5
305
100
AcDbEntity
  8
0
100
AcDbLine
 62
7
  6
CONTINUOUS
 10
8.4390462934
 20
4.5273063057
 11
8.4490462934
 21
4.5134918691
  0
LINE
  5
306
100
AcDbEntity
  8
0
100
AcDbLine
 62
7
  6
CONTINUOUS
 10
8.4590101087
 20
4.5238695551
 11
8.4490462934
 21
4.5376777626
  0
LINE
  5
307
100
AcDbEntity
  8
0
100
AcDbLine
 62
7
  6
CONTINUOUS
 10
8.4490462934
 20
4.6679836415
 11
8.4490462934
 21
4.5376777626
  0
LINE
  5
308
100
AcDbEntity
  8
0
100
AcDbLine
 62
7
  6
CONTINUOUS
 10
8.4490462934
 20
4.5134918691
 11
8.4490462934
 21
4.3292115278
  0
LINE
  5
309
100
AcDbEntity
  8
0
100
AcDbLine
 62
7
  6
CONTINUOUS
 10
8.4490462934
 20
4.3050256342
 11
8.4490462934
 21
4.1747197553
  0
LINE
  5
30A
100
AcDbEntity
  8
0
100
AcDbLine
 62
7
  6
CONTINUOUS
 10
8.4590101087
 20
4.6688516984
 11
8.4590101087
 21
4.1738516984
  0
LINE
  5
30B
100
AcDbEntity
  8
0
100
AcDbLine
 62
7
  6
CONTINUOUS
 10
8.4940101087
 20
4.1763516984
 11
8.4940101087
 21
4.6663516984
  0
LINE
  5
30C
100
AcDbEntity
  8
0
100
AcDbLine
 62
7
  6
CONTINUOUS
 10
8.5090101087
 20
4.1913516984
 11
8.5090101087
 21
4.6513516984
  0
LINE
  5
30D
100
AcDbEntity
  8
0
100
AcDbLine
 62
7
  6
CONTINUOUS
 10
8.5386151017
 20
4.6213516984
 11
8.5386151017
 21
4.2213516984
  0
LINE
  5
30E
100
AcDbEntity
  8
0
100
AcDbLine
 62
7
  6
CONTINUOUS
 10
8.5526600393
 20
4.6100759249
 11
8.5526600393
 21
4.501705434
  0
LINE
  5
30F
100
AcDbEntity
  8
0
100
AcDbLine
 62
7
  6
CONTINUOUS
 10
8.5526600393
 20
4.4979812075
 11
8.5526600393
 21
4.3447221894
  0
LINE
  5
310
100
AcDbEntity
  8
0
100
AcDbLine
 62
7
  6
CONTINUOUS
 10
8.5526600393
 20
4.3409979629
 11
8.5526600393
 21
4.2326274719
  0
LINE
  5
311
100
AcDbEntity
  8
0
100
AcDbLine
 62
7
  6
CONTINUOUS
 10
8.6220350393
 20
4.4176274719
 11
8.5526600393
 21
4.2326274719
  0
LINE
  5
312
100
AcDbEntity
  8
0
100
AcDbLine
 62
7
  6
CONTINUOUS
 10
8.6220350393
 20
4.4160848468
 11
8.5526600393
 21
4.2310848468
  0
LINE
  5
313
100
AcDbEntity
  8
0
100
AcDbLine
 62
7
  6
CONTINUOUS
 10
8.6220350393
 20
4.4250759249
 11
8.5526600393
 21
4.6100759249
  0
LINE
  5
314
100
AcDbEntity
  8
0
100
AcDbLine
 62
7
  6
CONTINUOUS
 10
8.6220350393
 20
4.42661855
 11
8.5526600393
 21
4.61161855
  0
ARC
  5
315
100
AcDbEntity
  8
0
100
AcDbCircle
 62
7
  6
CONTINUOUS
 10
2.6979051087
 20
4.2813516984
 40
0.025
100
AcDbArc
 50
192.8571428571
 51
360.0
  0
ARC
  5
316
100
AcDbEntity
  8
0
100
AcDbCircle
 62
7
  6
CONTINUOUS
 10
2.7479051087
 20
4.3051016984
 40
0.025
100
AcDbArc
 50
90.0
 51
180.0
  0
ARC
  5
317
100
AcDbEntity
  8
0
100
AcDbCircle
 62
7
  6
CONTINUOUS
 10
1.4122001157
 20
4.2363516984
 40
0.015
100
AcDbArc
 50
200.5560452196
 51
269.9999999717
  0
ARC
  5
318
100
AcDbEntity
  8
0
100
AcDbCircle
 62
7
  6
CONTINUOUS
 10
1.4568051087
 20
4.1913516984
 40
0.015
100
AcDbArc
 50
180.0
 51
270.0
  0
ARC
  5
319
100
AcDbEntity
  8
ALL_FEATURES
100
AcDbCircle
 62
7
  6
CONTINUOUS
 10
3.0069051087
 20
4.4213516984
 40
0.59375
100
AcDbArc
 50
197.3039194107
 51
162.6960834893
  0
CIRCLE
  5
31A
100
AcDbEntity
  8
ALL_ASSEMBLY_MEMBERS
100
AcDbCircle
 62
7
  6
CONTINUOUS
 10
3.0069051087
 20
4.4213516984
 40
0.245
  0
ARC
  5
31B
100
AcDbEntity
  8
0
100
AcDbCircle
 62
7
  6
CONTINUOUS
 10
2.6979051087
 20
4.5613516984
 40
0.025
100
AcDbArc
 50
0.0
 51
167.1428571429
  0
ARC
  5
31C
100
AcDbEntity
  8
0
100
AcDbCircle
 62
7
  6
CONTINUOUS
 10
2.7479051087
 20
4.5376016984
 40
0.025
100
AcDbArc
 50
180.0
 51
270.0
  0
ARC
  5
31D
100
AcDbEntity
  8
0
100
AcDbCircle
 62
7
  6
CONTINUOUS
 10
1.3428251157
 20
4.4213516984
 40
0.015
100
AcDbArc
 50
159.4439547804
 51
200.5560452196
  0
ARC
  5
31E
100
AcDbEntity
  8
0
100
AcDbCircle
 62
7
  6
CONTINUOUS
 10
1.4568051087
 20
4.6513516984
 40
0.015
100
AcDbArc
 50
90.0
 51
180.0
  0
ARC
  5
31F
100
AcDbEntity
  8
0
100
AcDbCircle
 62
7
  6
CONTINUOUS
 10
1.4122001157
 20
4.6063516984
 40
0.015
100
AcDbArc
 50
90.0000000283
 51
159.4439547804
  0
ARC
  5
320
100
AcDbEntity
  8
0
100
AcDbCircle
 62
7
  6
CONTINUOUS
 10
7.2529101087
 20
4.2813516984
 40
0.025
100
AcDbArc
 50
180.0
 51
347.1428571429
  0
ARC
  5
321
100
AcDbEntity
  8
0
100
AcDbCircle
 62
7
  6
CONTINUOUS
 10
7.2029101087
 20
4.3051016984
 40
0.025
100
AcDbArc
 50
0.0
 51
90.0
  0
ARC
  5
322
100
AcDbEntity
  8
0
100
AcDbCircle
 62
7
  6
CONTINUOUS
 10
8.4940101087
 20
4.1913516984
 40
0.015
100
AcDbArc
 50
270.0
 51
360.0
  0
ARC
  5
323
100
AcDbEntity
  8
0
100
AcDbCircle
 62
7
  6
CONTINUOUS
 10
8.5386151017
 20
4.2363516984
 40
0.015
100
AcDbArc
 50
270.0000000283
 51
339.4439547804
  0
ARC
  5
324
100
AcDbEntity
  8
ALL_FEATURES
100
AcDbCircle
 62
7
  6
CONTINUOUS
 10
6.9439101087
 20
4.4213516984
 40
0.59375
100
AcDbArc
 50
17.3039194107
 51
342.6960834893
  0
ARC
  5
325
100
AcDbEntity
  8
0
100
AcDbCircle
 62
7
  6
CONTINUOUS
 10
4.9754101087
 20
4.4213516984
 40
0.59375
100
AcDbArc
 50
294.0769172297
 51
245.8489625609
  0
CIRCLE
  5
326
100
AcDbEntity
  8
ALL_ASSEMBLY_MEMBERS
100
AcDbCircle
 62
7
  6
CONTINUOUS
 10
6.9439101087
 20
4.4213516984
 40
0.245
  0
ARC
  5
327
100
AcDbEntity
  8
0
100
AcDbCircle
 62
7
  6
CONTINUOUS
 10
7.2529101087
 20
4.5613516984
 40
0.025
100
AcDbArc
 50
12.8571428571
 51
180.0
  0
ARC
  5
328
100
AcDbEntity
  8
0
100
AcDbCircle
 62
7
  6
CONTINUOUS
 10
7.2029101087
 20
4.5376016984
 40
0.025
100
AcDbArc
 50
270.0
 51
360.0
  0
ARC
  5
329
100
AcDbEntity
  8
0
100
AcDbCircle
 62
7
  6
CONTINUOUS
 10
8.6079901017
 20
4.4213516984
 40
0.015
100
AcDbArc
 50
339.4439547804
 51
20.5560452196
  0
ARC
  5
32A
100
AcDbEntity
  8
0
100
AcDbCircle
 62
7
  6
CONTINUOUS
 10
8.5386151017
 20
4.6063516984
 40
0.015
100
AcDbArc
 50
20.5560452196
 51
89.9999999717
  0
ARC
  5
32B
100
AcDbEntity
  8
0
100
AcDbCircle
 62
7
  6
CONTINUOUS
 10
8.4940101087
 20
4.6513516984
 40
0.015
100
AcDbArc
 50
0.0
 51
90.0
  0
SPLINE
  5
32C
100
AcDbEntity
  8
0
100
AcDbSpline
 62
7
  6
CONTINUOUS
 70
0
 71
3
 72
9
 73
5
 74
0
 42
0.0000001
 43
0.0000001
 44
0.0000000001
 40
0.0
 40
0.0
 40
0.0
 40
0.0
 40
0.5045542061
 40
1.0
 40
1.0
 40
1.0
 40
1.0
 10
8.6220350393
 20
4.4213516984
 30
0.0
 10
8.6221197577
 20
4.4219738051
 30
0.0
 10
8.6222066239
 20
4.4232193727
 30
0.0
 10
8.6221212849
 20
4.4244654728
 30
0.0
 10
8.6220350393
 20
4.4250759249
 30
0.0
  0
SPLINE
  5
32D
100
AcDbEntity
  8
0
100
AcDbSpline
 62
7
  6
CONTINUOUS
 70
0
 71
3
 72
11
 73
7
 74
0
 42
0.0000001
 43
0.0000001
 44
0.0000000001
 40
0.0
 40
0.0
 40
0.0
 40
0.0
 40
0.2718775796
 40
0.525603703
 40
0.7662474692
 40
1.0
 40
1.0
 40
1.0
 40
1.0
 10
8.6220350393
 20
4.4250759249
 30
0.0
 10
8.6220762035
 20
4.4252120477
 30
0.0
 10
8.6221399063
 20
4.4254805045
 30
0.0
 10
8.6221744242
 20
4.4258814501
 30
0.0
 10
8.622143272
 20
4.4262629175
 30
0.0
 10
8.6220779708
 20
4.4265040663
 30
0.0
 10
8.6220350393
 20
4.42661855
 30
0.0
  0
SPLINE
  5
32E
100
AcDbEntity
  8
0
100
AcDbSpline
 62
7
  6
CONTINUOUS
 70
0
 71
3
 72
11
 73
7
 74
0
 42
0.0000001
 43
0.0000001
 44
0.0000000001
 40
0.0
 40
0.0
 40
0.0
 40
0.0
 40
0.2337525309
 40
0.474396298
 40
0.728122421
 40
1.0
 40
1.0
 40
1.0
 40
1.0
 10
8.6220350393
 20
4.4160848468
 30
0.0
 10
8.6220779708
 20
4.4161993306
 30
0.0
 10
8.622143272
 20
4.4164404794
 30
0.0
 10
8.6221744242
 20
4.4168219467
 30
0.0
 10
8.6221399063
 20
4.4172228924
 30
0.0
 10
8.6220762035
 20
4.4174913491
 30
0.0
 10
8.6220350393
 20
4.4176274719
 30
0.0
  0
SPLINE
  5
32F
100
AcDbEntity
  8
0
100
AcDbSpline
 62
7
  6
CONTINUOUS
 70
0
 71
3
 72
9
 73
5
 74
0
 42
0.0000001
 43
0.0000001
 44
0.0000000001
 40
0.0
 40
0.0
 40
0.0
 40
0.0
 40
0.4954457948
 40
1.0
 40
1.0
 40
1.0
 40
1.0
 10
8.6220350393
 20
4.4176274719
 30
0.0
 10
8.6221212849
 20
4.418237924
 30
0.0
 10
8.6222066239
 20
4.4194840242
 30
0.0
 10
8.6221197577
 20
4.4207295918
 30
0.0
 10
8.6220350393
 20
4.4213516984
 30
0.0
  0
SPLINE
  5
330
100
AcDbEntity
  8
0
100
AcDbSpline
 62
7
  6
CONTINUOUS
 70
0
 71
3
 72
11
 73
7
 74
0
 42
0.0000001
 43
0.0000001
 44
0.0000000001
 40
0.0
 40
0.0
 40
0.0
 40
0.0
 40
0.2718775795
 40
0.525603703
 40
0.7662474693
 40
1.0
 40
1.0
 40
1.0
 40
1.0
 10
8.5526600393
 20
4.6100759249
 30
0.0
 10
8.5527012035
 20
4.6102120477
 30
0.0
 10
8.5527649063
 20
4.6104805045
 30
0.0
 10
8.5527994242
 20
4.6108814501
 30
0.0
 10
8.552768272
 20
4.6112629175
 30
0.0
 10
8.5527029708
 20
4.6115040663
 30
0.0
 10
8.5526600393
 20
4.61161855
 30
0.0
  0
SPLINE
  5
331
100
AcDbEntity
  8
0
100
AcDbSpline
 62
7
  6
CONTINUOUS
 70
0
 71
3
 72
14
 73
10
 74
0
 42
0.0000001
 43
0.0000001
 44
0.0000000001
 40
0.0
 40
0.0
 40
0.0
 40
0.0
 40
0.1064470759
 40
0.2186739866
 40
0.3369443883
 40
0.4612114757
 40
0.724333886
 40
0.861457983
 40
1.0
 40
1.0
 40
1.0
 40
1.0
 10
8.5526600393
 20
4.6100759249
 30
0.0
 10
8.5523881332
 20
4.6105886361
 30
0.0
 10
8.5517248498
 20
4.6115887653
 30
0.0
 10
8.5504567771
 20
4.612928396
 30
0.0
 10
8.5489199381
 20
4.6141148722
 30
0.0
 10
8.5465183634
 20
4.6154825477
 30
0.0
 10
8.5437777365
 20
4.6164066105
 30
0.0
 10
8.5408749918
 20
4.6168776236
 30
0.0
 10
8.539370433
 20
4.6169583001
 30
0.0
 10
8.5386151017
 20
4.6169583001
 30
0.0
  0
SPLINE
  5
332
100
AcDbEntity
  8
0
100
AcDbSpline
 62
7
  6
CONTINUOUS
 70
0
 71
3
 72
9
 73
5
 74
0
 42
0.0000001
 43
0.0000001
 44
0.0000000001
 40
0.0
 40
0.0
 40
0.0
 40
0.0
 40
0.5045542052
 40
1.0
 40
1.0
 40
1.0
 40
1.0
 10
8.5526600393
 20
4.4979812075
 30
0.0
 10
8.5527447577
 20
4.4986033141
 30
0.0
 10
8.5528316239
 20
4.4998488817
 30
0.0
 10
8.5527462849
 20
4.5010949819
 30
0.0
 10
8.5526600393
 20
4.501705434
 30
0.0
  0
SPLINE
  5
333
100
AcDbEntity
  8
0
100
AcDbSpline
 62
7
  6
CONTINUOUS
 70
0
 71
3
 72
14
 73
10
 74
0
 42
0.0000001
 43
0.0000001
 44
0.0000000001
 40
0.0
 40
0.0
 40
0.0
 40
0.0
 40
0.1064471009
 40
0.218674106
 40
0.336944638
 40
0.4612118846
 40
0.7243345428
 40
0.8614582317
 40
1.0
 40
1.0
 40
1.0
 40
1.0
 10
8.5526600393
 20
4.501705434
 30
0.0
 10
8.5523881331
 20
4.5022181453
 30
0.0
 10
8.5517248492
 20
4.5032182749
 30
0.0
 10
8.5504567756
 20
4.5045579066
 30
0.0
 10
8.5489199346
 20
4.5057443837
 30
0.0
 10
8.5465183567
 20
4.5071120597
 30
0.0
 10
8.5437777292
 20
4.5080361202
 30
0.0
 10
8.540874987
 20
4.5085071343
 30
0.0
 10
8.5393704317
 20
4.5085878092
 30
0.0
 10
8.5386151017
 20
4.5085878092
 30
0.0
  0
SPLINE
  5
334
100
AcDbEntity
  8
0
100
AcDbSpline
 62
7
  6
CONTINUOUS
 70
0
 71
3
 72
9
 73
5
 74
0
 42
0.0000001
 43
0.0000001
 44
0.0000000001
 40
0.0
 40
0.0
 40
0.0
 40
0.0
 40
0.4954457948
 40
1.0
 40
1.0
 40
1.0
 40
1.0
 10
8.5526600393
 20
4.3409979629
 30
0.0
 10
8.5527462849
 20
4.341608415
 30
0.0
 10
8.5528316239
 20
4.3428545151
 30
0.0
 10
8.5527447577
 20
4.3441000827
 30
0.0
 10
8.5526600393
 20
4.3447221894
 30
0.0
  0
SPLINE
  5
335
100
AcDbEntity
  8
0
100
AcDbSpline
 62
7
  6
CONTINUOUS
 70
0
 71
3
 72
14
 73
10
 74
0
 42
0.0000001
 43
0.0000001
 44
0.0000000001
 40
0.0
 40
0.0
 40
0.0
 40
0.0
 40
0.1064470759
 40
0.2186739866
 40
0.3369443883
 40
0.4612114757
 40
0.724333886
 40
0.861457983
 40
1.0
 40
1.0
 40
1.0
 40
1.0
 10
8.5526600393
 20
4.3409979629
 30
0.0
 10
8.5523881332
 20
4.3404852517
 30
0.0
 10
8.5517248498
 20
4.3394851225
 30
0.0
 10
8.5504567771
 20
4.3381454918
 30
0.0
 10
8.5489199381
 20
4.3369590156
 30
0.0
 10
8.5465183634
 20
4.3355913401
 30
0.0
 10
8.5437777365
 20
4.3346672773
 30
0.0
 10
8.5408749918
 20
4.3341962642
 30
0.0
 10
8.539370433
 20
4.3341155877
 30
0.0
 10
8.5386151017
 20
4.3341155877
 30
0.0
  0
SPLINE
  5
336
100
AcDbEntity
  8
0
100
AcDbSpline
 62
7
  6
CONTINUOUS
 70
0
 71
3
 72
11
 73
7
 74
0
 42
0.0000001
 43
0.0000001
 44
0.0000000001
 40
0.0
 40
0.0
 40
0.0
 40
0.0
 40
0.2337525308
 40
0.474396297
 40
0.7281224204
 40
1.0
 40
1.0
 40
1.0
 40
1.0
 10
8.5526600393
 20
4.2310848468
 30
0.0
 10
8.5527029708
 20
4.2311993306
 30
0.0
 10
8.552768272
 20
4.2314404794
 30
0.0
 10
8.5527994242
 20
4.2318219467
 30
0.0
 10
8.5527649063
 20
4.2322228924
 30
0.0
 10
8.5527012035
 20
4.2324913491
 30
0.0
 10
8.5526600393
 20
4.2326274719
 30
0.0
  0
SPLINE
  5
337
100
AcDbEntity
  8
0
100
AcDbSpline
 62
7
  6
CONTINUOUS
 70
0
 71
3
 72
14
 73
10
 74
0
 42
0.0000001
 43
0.0000001
 44
0.0000000001
 40
0.0
 40
0.0
 40
0.0
 40
0.0
 40
0.1064471009
 40
0.218674106
 40
0.336944638
 40
0.4612118846
 40
0.7243345428
 40
0.8614582317
 40
1.0
 40
1.0
 40
1.0
 40
1.0
 10
8.5526600393
 20
4.2326274719
 30
0.0
 10
8.5523881331
 20
4.2321147606
 30
0.0
 10
8.5517248492
 20
4.231114631
 30
0.0
 10
8.5504567756
 20
4.2297749993
 30
0.0
 10
8.5489199346
 20
4.2285885222
 30
0.0
 10
8.5465183567
 20
4.2272208462
 30
0.0
 10
8.5437777292
 20
4.2262967857
 30
0.0
 10
8.540874987
 20
4.2258257715
 30
0.0
 10
8.5393704317
 20
4.2257450967
 30
0.0
 10
8.5386151017
 20
4.2257450967
 30
0.0
  0
SPLINE
  5
338
100
AcDbEntity
  8
0
100
AcDbSpline
 62
7
  6
CONTINUOUS
 70
0
 71
3
 72
9
 73
5
 74
0
 42
0.0000001
 43
0.0000001
 44
0.0000000001
 40
0.0
 40
0.0
 40
0.0
 40
0.0
 40
0.5045542061
 40
1.0
 40
1.0
 40
1.0
 40
1.0
 10
1.3287801781
 20
4.4213516984
 30
0.0
 10
1.3286954597
 20
4.4207295918
 30
0.0
 10
1.3286085935
 20
4.4194840242
 30
0.0
 10
1.3286939325
 20
4.418237924
 30
0.0
 10
1.3287801781
 20
4.4176274719
 30
0.0
  0
SPLINE
  5
339
100
AcDbEntity
  8
0
100
AcDbSpline
 62
7
  6
CONTINUOUS
 70
0
 71
3
 72
11
 73
7
 74
0
 42
0.0000001
 43
0.0000001
 44
0.0000000001
 40
0.0
 40
0.0
 40
0.0
 40
0.0
 40
0.2718775796
 40
0.525603703
 40
0.7662474692
 40
1.0
 40
1.0
 40
1.0
 40
1.0
 10
1.3287801781
 20
4.4176274719
 30
0.0
 10
1.3287390139
 20
4.4174913491
 30
0.0
 10
1.3286753111
 20
4.4172228924
 30
0.0
 10
1.3286407932
 20
4.4168219467
 30
0.0
 10
1.3286719454
 20
4.4164404794
 30
0.0
 10
1.3287372466
 20
4.4161993306
 30
0.0
 10
1.3287801781
 20
4.4160848468
 30
0.0
  0
SPLINE
  5
33A
100
AcDbEntity
  8
0
100
AcDbSpline
 62
7
  6
CONTINUOUS
 70
0
 71
3
 72
11
 73
7
 74
0
 42
0.0000001
 43
0.0000001
 44
0.0000000001
 40
0.0
 40
0.0
 40
0.0
 40
0.0
 40
0.2337525309
 40
0.474396298
 40
0.728122421
 40
1.0
 40
1.0
 40
1.0
 40
1.0
 10
1.3287801781
 20
4.42661855
 30
0.0
 10
1.3287372466
 20
4.4265040663
 30
0.0
 10
1.3286719454
 20
4.4262629175
 30
0.0
 10
1.3286407932
 20
4.4258814501
 30
0.0
 10
1.3286753111
 20
4.4254805045
 30
0.0
 10
1.3287390139
 20
4.4252120477
 30
0.0
 10
1.3287801781
 20
4.4250759249
 30
0.0
  0
SPLINE
  5
33B
100
AcDbEntity
  8
0
100
AcDbSpline
 62
7
  6
CONTINUOUS
 70
0
 71
3
 72
9
 73
5
 74
0
 42
0.0000001
 43
0.0000001
 44
0.0000000001
 40
0.0
 40
0.0
 40
0.0
 40
0.0
 40
0.4954457948
 40
1.0
 40
1.0
 40
1.0
 40
1.0
 10
1.3287801781
 20
4.4250759249
 30
0.0
 10
1.3286939325
 20
4.4244654728
 30
0.0
 10
1.3286085935
 20
4.4232193727
 30
0.0
 10
1.3286954597
 20
4.4219738051
 30
0.0
 10
1.3287801781
 20
4.4213516984
 30
0.0
  0
SPLINE
  5
33C
100
AcDbEntity
  8
0
100
AcDbSpline
 62
7
  6
CONTINUOUS
 70
0
 71
3
 72
11
 73
7
 74
0
 42
0.0000001
 43
0.0000001
 44
0.0000000001
 40
0.0
 40
0.0
 40
0.0
 40
0.0
 40
0.2718775795
 40
0.525603703
 40
0.7662474693
 40
1.0
 40
1.0
 40
1.0
 40
1.0
 10
1.3981551781
 20
4.2326274719
 30
0.0
 10
1.3981140139
 20
4.2324913491
 30
0.0
 10
1.3980503111
 20
4.2322228924
 30
0.0
 10
1.3980157932
 20
4.2318219467
 30
0.0
 10
1.3980469454
 20
4.2314404794
 30
0.0
 10
1.3981122466
 20
4.2311993306
 30
0.0
 10
1.3981551781
 20
4.2310848468
 30
0.0
  0
SPLINE
  5
33D
100
AcDbEntity
  8
0
100
AcDbSpline
 62
7
  6
CONTINUOUS
 70
0
 71
3
 72
14
 73
10
 74
0
 42
0.0000001
 43
0.0000001
 44
0.0000000001
 40
0.0
 40
0.0
 40
0.0
 40
0.0
 40
0.1064470759
 40
0.2186739866
 40
0.3369443883
 40
0.4612114757
 40
0.724333886
 40
0.861457983
 40
1.0
 40
1.0
 40
1.0
 40
1.0
 10
1.3981551781
 20
4.2326274719
 30
0.0
 10
1.3984270842
 20
4.2321147607
 30
0.0
 10
1.3990903676
 20
4.2311146316
 30
0.0
 10
1.4003584403
 20
4.2297750009
 30
0.0
 10
1.4018952793
 20
4.2285885246
 30
0.0
 10
1.404296854
 20
4.2272208492
 30
0.0
 10
1.4070374809
 20
4.2262967863
 30
0.0
 10
1.4099402256
 20
4.2258257732
 30
0.0
 10
1.4114447844
 20
4.2257450967
 30
0.0
 10
1.4122001157
 20
4.2257450967
 30
0.0
  0
SPLINE
  5
33E
100
AcDbEntity
  8
0
100
AcDbSpline
 62
7
  6
CONTINUOUS
 70
0
 71
3
 72
9
 73
5
 74
0
 42
0.0000001
 43
0.0000001
 44
0.0000000001
 40
0.0
 40
0.0
 40
0.0
 40
0.0
 40
0.5045542052
 40
1.0
 40
1.0
 40
1.0
 40
1.0
 10
1.3981551781
 20
4.3447221894
 30
0.0
 10
1.3980704597
 20
4.3441000827
 30
0.0
 10
1.3979835935
 20
4.3428545151
 30
0.0
 10
1.3980689325
 20
4.341608415
 30
0.0
 10
1.3981551781
 20
4.3409979629
 30
0.0
  0
SPLINE
  5
33F
100
AcDbEntity
  8
0
100
AcDbSpline
 62
7
  6
CONTINUOUS
 70
0
 71
3
 72
14
 73
10
 74
0
 42
0.0000001
 43
0.0000001
 44
0.0000000001
 40
0.0
 40
0.0
 40
0.0
 40
0.0
 40
0.1064471009
 40
0.218674106
 40
0.336944638
 40
0.4612118846
 40
0.7243345428
 40
0.8614582317
 40
1.0
 40
1.0
 40
1.0
 40
1.0
 10
1.3981551781
 20
4.3409979629
 30
0.0
 10
1.3984270843
 20
4.3404852516
 30
0.0
 10
1.3990903682
 20
4.339485122
 30
0.0
 10
1.4003584418
 20
4.3381454903
 30
0.0
 10
1.4018952828
 20
4.3369590131
 30
0.0
 10
1.4042968607
 20
4.3355913372
 30
0.0
 10
1.4070374882
 20
4.3346672767
 30
0.0
 10
1.4099402304
 20
4.3341962625
 30
0.0
 10
1.4114447857
 20
4.3341155877
 30
0.0
 10
1.4122001157
 20
4.3341155877
 30
0.0
  0
SPLINE
  5
340
100
AcDbEntity
  8
0
100
AcDbSpline
 62
7
  6
CONTINUOUS
 70
0
 71
3
 72
9
 73
5
 74
0
 42
0.0000001
 43
0.0000001
 44
0.0000000001
 40
0.0
 40
0.0
 40
0.0
 40
0.0
 40
0.4954457948
 40
1.0
 40
1.0
 40
1.0
 40
1.0
 10
1.3981551781
 20
4.501705434
 30
0.0
 10
1.3980689325
 20
4.5010949819
 30
0.0
 10
1.3979835935
 20
4.4998488817
 30
0.0
 10
1.3980704597
 20
4.4986033141
 30
0.0
 10
1.3981551781
 20
4.4979812075
 30
0.0
  0
SPLINE
  5
341
100
AcDbEntity
  8
0
100
AcDbSpline
 62
7
  6
CONTINUOUS
 70
0
 71
3
 72
14
 73
10
 74
0
 42
0.0000001
 43
0.0000001
 44
0.0000000001
 40
0.0
 40
0.0
 40
0.0
 40
0.0
 40
0.1064470759
 40
0.2186739866
 40
0.3369443883
 40
0.4612114757
 40
0.724333886
 40
0.861457983
 40
1.0
 40
1.0
 40
1.0
 40
1.0
 10
1.3981551781
 20
4.501705434
 30
0.0
 10
1.3984270842
 20
4.5022181451
 30
0.0
 10
1.3990903676
 20
4.5032182743
 30
0.0
 10
1.4003584403
 20
4.504557905
 30
0.0
 10
1.4018952793
 20
4.5057443812
 30
0.0
 10
1.404296854
 20
4.5071120567
 30
0.0
 10
1.4070374809
 20
4.5080361196
 30
0.0
 10
1.4099402256
 20
4.5085071326
 30
0.0
 10
1.4114447844
 20
4.5085878092
 30
0.0
 10
1.4122001157
 20
4.5085878092
 30
0.0
  0
SPLINE
  5
342
100
AcDbEntity
  8
0
100
AcDbSpline
 62
7
  6
CONTINUOUS
 70
0
 71
3
 72
11
 73
7
 74
0
 42
0.0000001
 43
0.0000001
 44
0.0000000001
 40
0.0
 40
0.0
 40
0.0
 40
0.0
 40
0.2337525308
 40
0.474396297
 40
0.7281224204
 40
1.0
 40
1.0
 40
1.0
 40
1.0
 10
1.3981551781
 20
4.61161855
 30
0.0
 10
1.3981122466
 20
4.6115040663
 30
0.0
 10
1.3980469454
 20
4.6112629175
 30
0.0
 10
1.3980157932
 20
4.6108814501
 30
0.0
 10
1.3980503111
 20
4.6104805045
 30
0.0
 10
1.3981140139
 20
4.6102120477
 30
0.0
 10
1.3981551781
 20
4.6100759249
 30
0.0
  0
SPLINE
  5
343
100
AcDbEntity
  8
0
100
AcDbSpline
 62
7
  6
CONTINUOUS
 70
0
 71
3
 72
14
 73
10
 74
0
 42
0.0000001
 43
0.0000001
 44
0.0000000001
 40
0.0
 40
0.0
 40
0.0
 40
0.0
 40
0.1064471009
 40
0.218674106
 40
0.336944638
 40
0.4612118846
 40
0.7243345428
 40
0.8614582317
 40
1.0
 40
1.0
 40
1.0
 40
1.0
 10
1.3981551781
 20
4.6100759249
 30
0.0
 10
1.3984270843
 20
4.6105886362
 30
0.0
 10
1.3990903682
 20
4.6115887658
 30
0.0
 10
1.4003584418
 20
4.6129283975
 30
0.0
 10
1.4018952828
 20
4.6141148747
 30
0.0
 10
1.4042968607
 20
4.6154825506
 30
0.0
 10
1.4070374882
 20
4.6164066111
 30
0.0
 10
1.4099402304
 20
4.6168776253
 30
0.0
 10
1.4114447857
 20
4.6169583001
 30
0.0
 10
1.4122001157
 20
4.6169583001
 30
0.0
  0
SPLINE
  5
344
100
AcDbEntity
  8
0
100
AcDbSpline
 62
7
  6
CONTINUOUS
 70
0
 71
3
 72
24
 73
20
 74
0
 42
0.0000001
 43
0.0000001
 44
0.0000000001
 40
0.0
 40
0.0
 40
0.0
 40
0.0
 40
0.0074814426
 40
0.0168765854
 40
0.0281925162
 40
0.0414198141
 40
0.0565422812
 40
0.0735372717
 40
0.1130059841
 40
0.1595294196
 40
0.2127449079
 40
0.2722401381
 40
0.3375478253
 40
0.4081605804
 40
0.4835239857
 40
0.6460998641
 40
0.8201185148
 40
0.9097261775
 40
1.0
 40
1.0
 40
1.0
 40
1.0
 10
5.2607881059
 20
4.417827156
 30
0.0
 10
5.2602902247
 20
4.4169263288
 30
0.0
 10
5.2592977454
 20
4.4148227721
 30
0.0
 10
5.2578881468
 20
4.4112080129
 30
0.0
 10
5.2564017118
 20
4.4067802621
 30
0.0
 10
5.2548476652
 20
4.4015484242
 30
0.0
 10
5.253235087
 20
4.3955214707
 30
0.0
 10
5.2509007311
 20
4.3859530184
 30
0.0
 10
5.2479326206
 20
4.3720961784
 30
0.0
 10
5.2444199948
 20
4.3532679877
 30
0.0
 10
5.240868679
 20
4.33164959
 30
0.0
 10
5.2373438936
 20
4.3074124763
 30
0.0
 10
5.2339106009
 20
4.2807471832
 30
0.0
 10
5.2306336666
 20
4.2518640319
 30
0.0
 10
5.2264531301
 20
4.2096200975
 30
0.0
 10
5.2220738548
 20
4.1531067153
 30
0.0
 10
5.2191782899
 20
4.0945343587
 30
0.0
 10
5.2178925577
 20
4.04586183
 30
0.0
 10
5.2176511292
 20
4.0211142617
 30
0.0
 10
5.2176430915
 20
4.0086948409
 30
0.0
  0
SPLINE
  5
345
100
AcDbEntity
  8
0
100
AcDbSpline
 62
7
  6
CONTINUOUS
 70
0
 71
3
 72
23
 73
19
 74
0
 42
0.0000001
 43
0.0000001
 44
0.0000000001
 40
0.0
 40
0.0
 40
0.0
 40
0.0
 40
0.0074891165
 40
0.0168888743
 40
0.028206414
 40
0.0414324139
 40
0.0565507909
 40
0.0735391323
 40
0.1129877963
 40
0.1594836002
 40
0.2126664259
 40
0.2721262503
 40
0.3373990385
 40
0.407980173
 40
0.4833189453
 40
0.6458809192
 40
0.8199567868
 40
1.0
 40
1.0
 40
1.0
 40
1.0
 10
4.6900284992
 20
4.4181952573
 30
0.0
 10
4.6905236466
 20
4.4172964912
 30
0.0
 10
4.6915103786
 20
4.4151988192
 30
0.0
 10
4.692911144
 20
4.4115954719
 30
0.0
 10
4.6943872934
 20
4.4071835561
 30
0.0
 10
4.6959296923
 20
4.4019719064
 30
0.0
 10
4.697529358
 20
4.3959694186
 30
0.0
 10
4.699843812
 20
4.3864415999
 30
0.0
 10
4.7027846474
 20
4.3726453529
 30
0.0
 10
4.7062624391
 20
4.3539009401
 30
0.0
 10
4.709775951
 20
4.3323797324
 30
0.0
 10
4.7132607954
 20
4.3082515196
 30
0.0
 10
4.7166527317
 20
4.2817050072
 30
0.0
 10
4.7198877798
 20
4.2529484023
 30
0.0
 10
4.72401166
 20
4.2108817142
 30
0.0
 10
4.7283247214
 20
4.1545909317
 30
0.0
 10
4.7317647525
 20
4.0838718376
 30
0.0
 10
4.7326393769
 20
4.0353486445
 30
0.0
 10
4.7326435906
 20
4.0106797146
 30
0.0
  0
SPLINE
  5
346
100
AcDbEntity
  8
0
100
AcDbSpline
 62
7
  6
CONTINUOUS
 70
0
 71
3
 72
13
 73
9
 74
0
 42
0.0000001
 43
0.0000001
 44
0.0000000001
 40
0.0
 40
0.0
 40
0.0
 40
0.0
 40
0.0762542598
 40
0.160943432
 40
0.2581867902
 40
0.3707064546
 40
0.6476694641
 40
1.0
 40
1.0
 40
1.0
 40
1.0
 10
5.2640851828
 20
4.4211648704
 30
0.0
 10
5.2639616257
 20
4.4211649504
 30
0.0
 10
5.263699933
 20
4.4211249106
 30
0.0
 10
5.2633126498
 20
4.4209584976
 30
0.0
 10
5.2629164238
 20
4.4206887665
 30
0.0
 10
5.2623335827
 20
4.4201545707
 30
0.0
 10
5.2615902507
 20
4.4192016188
 30
0.0
 10
5.2610642621
 20
4.4183268115
 30
0.0
 10
5.2607881059
 20
4.417827156
 30
0.0
  0
SPLINE
  5
347
100
AcDbEntity
  8
0
100
AcDbSpline
 62
7
  6
CONTINUOUS
 70
0
 71
3
 72
30
 73
26
 74
0
 42
0.0000001
 43
0.0000001
 44
0.0000000001
 40
0.0
 40
0.0
 40
0.0
 40
0.0
 40
0.0015520342
 40
0.0036414851
 40
0.0062813919
 40
0.0094768671
 40
0.0132297381
 40
0.0175402428
 40
0.0278305509
 40
0.0403296886
 40
0.0550075541
 40
0.0718320015
 40
0.0907669879
 40
0.1117646755
 40
0.1347742423
 40
0.1866152431
 40
0.245793266
 40
0.3117545516
 40
0.3838722438
 40
0.4614782692
 40
0.5438544437
 40
0.6302439623
 40
0.7198515088
 40
0.8118925562
 40
1.0
 40
1.0
 40
1.0
 40
1.0
 10
5.1199094436
 20
4.671258232
 30
0.0
 10
5.1197376517
 20
4.6709611241
 30
0.0
 10
5.1194153466
 20
4.6702189705
 30
0.0
 10
5.1189878773
 20
4.6688971244
 30
0.0
 10
5.118551421
 20
4.6671988306
 30
0.0
 10
5.1181071757
 20
4.6651253979
 30
0.0
 10
5.1176564608
 20
4.6626765718
 30
0.0
 10
5.1170092389
 20
4.6586697655
 30
0.0
 10
5.1162090676
 20
4.6527299529
 30
0.0
 10
5.1152771382
 20
4.6444971178
 30
0.0
 10
5.114331257
 20
4.6348129082
 30
0.0
 10
5.1133749023
 20
4.623700683
 30
0.0
 10
5.112412139
 20
4.6111869037
 30
0.0
 10
5.1114460676
 20
4.5973020435
 30
0.0
 10
5.1101043113
 20
4.5761496645
 30
0.0
 10
5.1084648599
 20
4.5465570309
 30
0.0
 10
5.1066040767
 20
4.5074656113
 30
0.0
 10
5.1048093719
 20
4.4638831311
 30
0.0
 10
5.1031086867
 20
4.4162191421
 30
0.0
 10
5.1015314731
 20
4.3649192776
 30
0.0
 10
5.1001072699
 20
4.310457892
 30
0.0
 10
5.0988661544
 20
4.2533374978
 30
0.0
 10
5.0978381383
 20
4.1940753181
 30
0.0
 10
5.0967855575
 20
4.1123183239
 30
0.0
 10
5.0964200374
 20
4.05036923
 30
0.0
 10
5.0963931169
 20
4.0087733129
 30
0.0
  0
SPLINE
  5
348
100
AcDbEntity
  8
0
100
AcDbSpline
 62
7
  6
CONTINUOUS
 70
0
 71
3
 72
30
 73
26
 74
0
 42
0.0000001
 43
0.0000001
 44
0.0000000001
 40
0.0
 40
0.0
 40
0.0
 40
0.0
 40
0.0015520342
 40
0.0036414851
 40
0.0062813919
 40
0.0094768671
 40
0.0132297381
 40
0.0175402428
 40
0.0278305509
 40
0.0403296886
 40
0.0550075541
 40
0.0718320015
 40
0.0907669879
 40
0.1117646755
 40
0.1347742423
 40
0.1866152431
 40
0.245793266
 40
0.3117545516
 40
0.3838722438
 40
0.4614782692
 40
0.5438544437
 40
0.6302439623
 40
0.7198515088
 40
0.8118925562
 40
1.0
 40
1.0
 40
1.0
 40
1.0
 10
4.8312343694
 20
4.6714450601
 30
0.0
 10
4.8314057766
 20
4.67114773
 30
0.0
 10
4.8317271208
 20
4.6704051599
 30
0.0
 10
4.8321528788
 20
4.6690827615
 30
0.0
 10
4.8325871364
 20
4.6673839042
 30
0.0
 10
4.8330286976
 20
4.6653098983
 30
0.0
 10
4.8334762424
 20
4.6628604908
 30
0.0
 10
4.8341182774
 20
4.6588528501
 30
0.0
 10
4.8349107597
 20
4.6529120067
 30
0.0
 10
4.8358320318
 20
4.6446779723
 30
0.0
 10
4.8367653772
 20
4.6349925465
 30
0.0
 10
4.8377073476
 20
4.6238790926
 30
0.0
 10
4.8386539125
 20
4.6113640777
 30
0.0
 10
4.8396020107
 20
4.5974779786
 30
0.0
 10
4.8409163867
 20
4.5763238806
 30
0.0
 10
4.8425175325
 20
4.5467291498
 30
0.0
 10
4.8443277149
 20
4.5076353543
 30
0.0
 10
4.8460660059
 20
4.4640505876
 30
0.0
 10
4.8477049941
 20
4.4163844372
 30
0.0
 10
4.8492158049
 20
4.3650825741
 30
0.0
 10
4.850569513
 20
4.3106193906
 30
0.0
 10
4.8517366918
 20
4.2534974379
 30
0.0
 10
4.8526879991
 20
4.1942339772
 30
0.0
 10
4.8536347543
 20
4.112475689
 30
0.0
 10
4.8539200882
 20
4.0505261739
 30
0.0
 10
4.8538931677
 20
4.0089302568
 30
0.0
  0
SPLINE
  5
349
100
AcDbEntity
  8
0
100
AcDbSpline
 62
7
  6
CONTINUOUS
 70
0
 71
3
 72
13
 73
9
 74
0
 42
0.0000001
 43
0.0000001
 44
0.0000000001
 40
0.0
 40
0.0
 40
0.0
 40
0.0
 40
0.0762465054
 40
0.1609295582
 40
0.2581691331
 40
0.3706875409
 40
0.6476554392
 40
1.0
 40
1.0
 40
1.0
 40
1.0
 10
4.6867350346
 20
4.4215385265
 30
0.0
 10
4.6868586165
 20
4.4215384465
 30
0.0
 10
4.6871203139
 20
4.4214980509
 30
0.0
 10
4.6875074609
 20
4.42133107
 30
0.0
 10
4.6879034195
 20
4.4210607211
 30
0.0
 10
4.688485698
 20
4.420525559
 30
0.0
 10
4.6892279594
 20
4.419571274
 30
0.0
 10
4.6897529284
 20
4.418695459
 30
0.0
 10
4.6900284992
 20
4.4181952573
 30
0.0
  0
ENDSEC
  0
SECTION
  2
OBJECTS
  0
DICTIONARY
  5
C
100
AcDbDictionary
280
0
281
1
  3
ACAD_GROUP
350
D
  3
ACAD_MLINESTYLE
350
17
  3
ACAD_LAYOUT
350
1A
  3
ACAD_PLOTSETTINGS
350
19
  3
ACAD_PLOTSTYLENAME
350
E
  0
DICTIONARY
  5
D
102
{ACAD_REACTORS
330
C
102
}
100
AcDbDictionary
280
0
281
1
  0
ACDBDICTIONARYWDFLT
  5
E
102
{ACAD_REACTORS
330
C
102
}
100
AcDbDictionary
281
1
  3
Normal
350
F
100
AcDbDictionaryWithDefault
340
F
  0
DICTIONARY
  5
17
102
{ACAD_REACTORS
330
C
102
}
100
AcDbDictionary
280
0
281
1
  3
Standard
350
18
  0
DICTIONARY
  5
19
102
{ACAD_REACTORS
330
C
102
}
100
AcDbDictionary
281
1
  0
DICTIONARY
  5
1A
102
{ACAD_REACTORS
330
C
102
}
100
AcDbDictionary
281
1
  3
Model
350
34A
  3
Layout1
350
34B
  0
ACDBPLACEHOLDER
  5
F
102
{ACAD_REACTORS
330
E
102
}
  0
MLINESTYLE
  5
18
102
{ACAD_REACTORS
330
17
102
}
100
AcDbMlineStyle
  2
STANDARD
 70
0
  3

 62
256
 51
90.0
 52
90.0
 71
2
 49
0.5
 62
256
  6
BYLAYER
 49
-0.5
 62
256
  6
BYLAYER
  0
LAYOUT
  5
34A
102
{ACAD_REACTORS
330
1A
102
}
100
AcDbPlotSettings
  1

  2
none_device
  4
ANSI_A_(11.00_x_8.50_Inches)
  6

 40
0.0
 41
0.0
 42
0.0
 43
0.0
 44
279.4
 45
215.9
 46
0.0
 47
0.0
 48
0.0
 49
0.0
140
0.0
141
0.0
142
1.0
143
1.0
 70
1024
 72
0
 73
0
 74
0
  7

 75
0
147
1.0
148
0.0
149
0.0
100
AcDbLayout
  1
Model
 70
0
 71
0
 10
0.0
 20
0.0
 11
11.0
 21
8.5
 12
0.0
 22
0.0
 32
0.0
 14
0.0
 24
0.0
 34
0.0
 15
0.0
 25
0.0
 35
0.0
146
0.0
 13
0.0
 23
0.0
 33
0.0
 16
1.0
 26
0.0
 36
0.0
 17
0.0
 27
1.0
 37
0.0
 76
0
330
217
345
0
346
0
  0
LAYOUT
  5
34B
102
{ACAD_REACTORS
330
1A
102
}
100
AcDbPlotSettings
  1

  2
none_device
  4
ANSI_A_(11.00_x_8.50_Inches)
  6

 40
0.0
 41
0.0
 42
0.0
 43
0.0
 44
279.4
 45
215.9
 46
0.0
 47
0.0
 48
0.0
 49
0.0
140
0.0
141
0.0
142
1.0
143
1.0
 70
0
 72
0
 73
0
 74
0
  7

 75
0
147
1.0
148
0.0
149
0.0
100
AcDbLayout
  1
Layout1
 70
0
 71
1
 10
0.0
 20
0.0
 11
11.0
 21
8.5
 12
0.0
 22
0.0
 32
0.0
 14
0.0
 24
0.0
 34
0.0
 15
0.0
 25
0.0
 35
0.0
146
0.0
 13
0.0
 23
0.0
 33
0.0
 16
1.0
 26
0.0
 36
0.0
 17
0.0
 27
1.0
 37
0.0
 76
0
330
218
345
0
346
0
  0
ENDSEC
  0
EOF
