999
DXF file: 3-1231_RIGHT.dxf
999
Pro/ENGINEER 2018400 by Parametric Technology Corporation
  0
SECTION
  2
HEADER
  9
$ACADVER
  1
AC1027
  9
$DWGCODEPAGE
  3
ANSI_1252
  9
$EXTMAX
 10
11.0
 20
8.5
 30
0.0
  9
$EXTMIN
 10
0.0
 20
0.0
 30
0.0
  9
$LIMMIN
 10
0.0
 20
0.0
  9
$LIMMAX
 10
11.0
 20
8.5
  9
$VIEWCTR
 10
5.5
 20
4.25
  9
$VIEWSIZE
 40
8.5
  9
$CLAYER
  8
0
  9
$LTSCALE
 40
0.605
  9
$CELTYPE
  6
BYLAYER
  9
$DIMSCALE
 40
1.0
  9
$DIMASZ
 40
0.1
  9
$DIMEXO
 40
0.0625
  9
$DIMDLI
 40
0.418
  9
$DIMEXE
 40
0.125
  9
$DIMCEN
 40
0.099
  9
$DIMLFAC
 40
1.0
  9
$DIMBLK
  1
_FILLED
  9
$DIMALT
 70
1
  9
$DIMALTD
 70
2
  9
$DIMALTTD
 70
2
  9
$DIMALTF
 40
25.4
  9
$DIMTXT
 40
0.08
  9
$DIMTOL
 70
1
  9
$DIMLIM
 70
0
  9
$DIMTFAC
 40
1.0
  9
$DIMTP
 40
0.001
  9
$DIMTM
 40
0.001
  9
$DIMGAP
 40
0.09
  9
$DIMDSEP
 70
46
  9
$AUNITS
 70
0
  9
$PDMODE
 70
3
  9
$PDSIZE
 40
0.3125
  9
$HANDSEED
  5
2F6
  9
$TILEMODE
 70
1
  9
$MEASUREMENT
 70
0
  9
$INSUNITS
 70
1
  0
ENDSEC
  0
SECTION
  2
CLASSES
  0
CLASS
  1
ACDBDICTIONARYWDFLT
  2
AcDbDictionaryWithDefault
  3
AutoCAD 2000
 90
0
 91
1
280
0
281
0
  0
CLASS
  1
ACDBPLACEHOLDER
  2
AcDbPlaceHolder
  3
AutoCAD 2000
 90
0
 91
1
280
0
281
0
  0
CLASS
  1
LAYOUT
  2
AcDbLayout
  3
AutoCAD 2000
 90
0
 91
0
280
0
281
0
  0
ENDSEC
  0
SECTION
  2
TABLES
  0
TABLE
  2
VPORT
  5
8
100
AcDbSymbolTable
 70
2
  0
VPORT
  5
1F4
100
AcDbSymbolTableRecord
100
AcDbViewportTableRecord
  2
*ACTIVE
 70
0
 10
0.0
 20
0.0
 11
1.0
 21
1.0
 12
5.5
 22
4.25
 13
0.0
 23
0.0
 14
1.0
 24
1.0
 15
0.0
 25
0.0
 16
0.0
 26
0.0
 36
1.0
 17
0.0
 27
0.0
 37
0.0
 40
8.5
 41
1.2941176471
 42
50.0
 43
0.0
 44
0.0
 50
0.0
 51
0.0
 71
0
 72
100
 73
1
 74
1
 75
0
 76
0
 77
0
 78
0
  0
ENDTAB
  0
TABLE
  2
LTYPE
  5
5
100
AcDbSymbolTable
 70
6
  0
LTYPE
  5
14
100
AcDbSymbolTableRecord
100
AcDbLinetypeTableRecord
  2
BYBLOCK
 70
0
  3

 72
65
 73
0
 40
0.0
  0
LTYPE
  5
15
100
AcDbSymbolTableRecord
100
AcDbLinetypeTableRecord
  2
BYLAYER
 70
0
  3

 72
65
 73
0
 40
0.0
  0
LTYPE
  5
16
100
AcDbSymbolTableRecord
100
AcDbLinetypeTableRecord
  2
CONTINUOUS
 70
64
  3
Solid line
 72
65
 73
0
 40
0.0
  0
LTYPE
  5
1F5
100
AcDbSymbolTableRecord
100
AcDbLinetypeTableRecord
  2
CENTER
 70
64
  3
____ _ ____ _ ____ _ ____ _ ____ _ ____ _ ____
 72
65
 73
4
 40
0.6
 49
0.375
 74
0
 49
-0.075
 74
0
 49
0.075
 74
0
 49
-0.075
 74
0
  0
LTYPE
  5
1F6
100
AcDbSymbolTableRecord
100
AcDbLinetypeTableRecord
  2
HIDDEN
 70
64
  3
- - - - - - - - - - - - - - - - - - - -
 72
65
 73
2
 40
0.2
 49
0.1
 74
0
 49
-0.1
 74
0
  0
LTYPE
  5
1F7
100
AcDbSymbolTableRecord
100
AcDbLinetypeTableRecord
  2
PHANTOM
 70
64
  3
_____ _ _ _____ _ _ _____ _ _ _____
 72
65
 73
6
 40
0.8
 49
0.45
 74
0
 49
-0.05
 74
0
 49
0.1
 74
0
 49
-0.05
 74
0
 49
0.1
 74
0
 49
-0.05
 74
0
  0
LTYPE
  5
1F8
100
AcDbSymbolTableRecord
100
AcDbLinetypeTableRecord
  2
DOT
 70
64
  3
. . . . . . . . . . . . . . . . . . . .
 72
65
 73
2
 40
0.2
 49
0.1
 74
0
 49
-0.1
 74
0
  0
LTYPE
  5
1F9
100
AcDbSymbolTableRecord
100
AcDbLinetypeTableRecord
  2
DASHED
 70
64
  3
- - - - - - - - - - - - - - - - - - - -
 72
65
 73
2
 40
0.2
 49
0.1
 74
0
 49
-0.1
 74
0
  0
ENDTAB
  0
TABLE
  2
LAYER
  5
2
100
AcDbSymbolTable
 70
36
  0
LAYER
  5
10
100
AcDbSymbolTableRecord
100
AcDbLayerTableRecord
  2
0
 70
0
 62
7
  6
CONTINUOUS
370
-3
390
F
  0
LAYER
  5
1FA
100
AcDbSymbolTableRecord
100
AcDbLayerTableRecord
  2
DEFAULT_1
 70
0
 62
7
  6
CENTER
370
-3
390
F
  0
LAYER
  5
1FB
100
AcDbSymbolTableRecord
100
AcDbLayerTableRecord
  2
DEFAULT_2
 70
0
 62
8
  6
HIDDEN
370
-3
390
F
  0
LAYER
  5
1FC
100
AcDbSymbolTableRecord
100
AcDbLayerTableRecord
  2
DEFAULT_3
 70
0
 62
7
  6
PHANTOM
370
-3
390
F
  0
LAYER
  5
1FD
100
AcDbSymbolTableRecord
100
AcDbLayerTableRecord
  2
ALL_ASSEMBLY_MEMBERS
 70
0
 62
7
  6
CONTINUOUS
370
-3
390
F
  0
LAYER
  5
1FE
100
AcDbSymbolTableRecord
100
AcDbLayerTableRecord
  2
ALL_FEATURES
 70
0
 62
7
  6
CONTINUOUS
370
-3
390
F
  0
LAYER
  5
1FF
100
AcDbSymbolTableRecord
100
AcDbLayerTableRecord
  2
AXES_FEATURES
 70
0
 62
7
  6
CONTINUOUS
370
-3
390
F
  0
LAYER
  5
200
100
AcDbSymbolTableRecord
100
AcDbLayerTableRecord
  2
CHAMFER_FEATURES
 70
0
 62
7
  6
CONTINUOUS
370
-3
390
F
  0
LAYER
  5
201
100
AcDbSymbolTableRecord
100
AcDbLayerTableRecord
  2
COSMETIC
 70
0
 62
7
  6
CONTINUOUS
370
-3
390
F
  0
LAYER
  5
202
100
AcDbSymbolTableRecord
100
AcDbLayerTableRecord
  2
CURVE
 70
0
 62
7
  6
CONTINUOUS
370
-3
390
F
  0
LAYER
  5
203
100
AcDbSymbolTableRecord
100
AcDbLayerTableRecord
  2
CUT_FEATURES
 70
0
 62
7
  6
CONTINUOUS
370
-3
390
F
  0
LAYER
  5
204
100
AcDbSymbolTableRecord
100
AcDbLayerTableRecord
  2
DATUM_CURVES
 70
0
 62
7
  6
CONTINUOUS
370
-3
390
F
  0
LAYER
  5
205
100
AcDbSymbolTableRecord
100
AcDbLayerTableRecord
  2
DATUM_PLANES
 70
0
 62
7
  6
CONTINUOUS
370
-3
390
F
  0
LAYER
  5
206
100
AcDbSymbolTableRecord
100
AcDbLayerTableRecord
  2
DATUM_POINTS
 70
0
 62
7
  6
CONTINUOUS
370
-3
390
F
  0
LAYER
  5
207
100
AcDbSymbolTableRecord
100
AcDbLayerTableRecord
  2
DEFAULT_COORDINATE_SYSTEM
 70
0
 62
7
  6
CONTINUOUS
370
-3
390
F
  0
LAYER
  5
208
100
AcDbSymbolTableRecord
100
AcDbLayerTableRecord
  2
DEFAULT_DATUM_AXES
 70
0
 62
7
  6
CONTINUOUS
370
-3
390
F
  0
LAYER
  5
209
100
AcDbSymbolTableRecord
100
AcDbLayerTableRecord
  2
DEFAULT_DATUM_CURVES
 70
0
 62
7
  6
CONTINUOUS
370
-3
390
F
  0
LAYER
  5
20A
100
AcDbSymbolTableRecord
100
AcDbLayerTableRecord
  2
DEFAULT_DATUM_PLANES
 70
0
 62
7
  6
CONTINUOUS
370
-3
390
F
  0
LAYER
  5
20B
100
AcDbSymbolTableRecord
100
AcDbLayerTableRecord
  2
DEFAULT_SURFACES
 70
0
 62
7
  6
CONTINUOUS
370
-3
390
F
  0
LAYER
  5
20C
100
AcDbSymbolTableRecord
100
AcDbLayerTableRecord
  2
DIMENSIONS
 70
0
 62
7
  6
CONTINUOUS
370
-3
390
F
  0
LAYER
  5
20D
100
AcDbSymbolTableRecord
100
AcDbLayerTableRecord
  2
HOLE_FEATURES
 70
0
 62
7
  6
CONTINUOUS
370
-3
390
F
  0
LAYER
  5
20E
100
AcDbSymbolTableRecord
100
AcDbLayerTableRecord
  2
MAGENTA
 70
0
 62
7
  6
CONTINUOUS
370
-3
390
F
  0
LAYER
  5
20F
100
AcDbSymbolTableRecord
100
AcDbLayerTableRecord
  2
NOTES
 70
0
 62
7
  6
CONTINUOUS
370
-3
390
F
  0
LAYER
  5
210
100
AcDbSymbolTableRecord
100
AcDbLayerTableRecord
  2
POINTS
 70
0
 62
7
  6
CONTINUOUS
370
-3
390
F
  0
LAYER
  5
211
100
AcDbSymbolTableRecord
100
AcDbLayerTableRecord
  2
PROTRUSION_FEATURES
 70
0
 62
7
  6
CONTINUOUS
370
-3
390
F
  0
LAYER
  5
212
100
AcDbSymbolTableRecord
100
AcDbLayerTableRecord
  2
QUILT
 70
0
 62
7
  6
CONTINUOUS
370
-3
390
F
  0
LAYER
  5
213
100
AcDbSymbolTableRecord
100
AcDbLayerTableRecord
  2
WHITE
 70
0
 62
7
  6
CONTINUOUS
370
-3
390
F
  0
LAYER
  5
214
100
AcDbSymbolTableRecord
100
AcDbLayerTableRecord
  2
XSEC_DATUMS
 70
0
 62
7
  6
CONTINUOUS
370
-3
390
F
  0
ENDTAB
  0
TABLE
  2
STYLE
  5
3
100
AcDbSymbolTable
 70
1
  0
STYLE
  5
11
100
AcDbSymbolTableRecord
100
AcDbTextStyleTableRecord
  2
STANDARD
 70
0
 40
0.0
 41
0.8
 50
0.0
 71
0
 42
0.2
  3
txt
  4

  0
STYLE
  5
215
100
AcDbSymbolTableRecord
100
AcDbTextStyleTableRecord
  2
TEXTSTYLE_1
 70
0
 40
0.0
 41
0.8
 50
0.0
 71
0
 42
0.2
  3
gdt
  4

  0
ENDTAB
  0
TABLE
  2
VIEW
  5
6
100
AcDbSymbolTable
 70
0
  0
ENDTAB
  0
TABLE
  2
UCS
  5
7
100
AcDbSymbolTable
 70
0
  0
ENDTAB
  0
TABLE
  2
APPID
  5
9
100
AcDbSymbolTable
 70
1
  0
APPID
  5
216
100
AcDbSymbolTableRecord
100
AcDbRegAppTableRecord
  2
ACAD
 70
0
  0
ENDTAB
  0
TABLE
  2
BLOCK_RECORD
  5
1
100
AcDbSymbolTable
 70
0
  0
BLOCK_RECORD
  5
217
100
AcDbSymbolTableRecord
100
AcDbBlockTableRecord
  2
*Model_Space
  0
BLOCK_RECORD
  5
218
100
AcDbSymbolTableRecord
100
AcDbBlockTableRecord
  2
*Paper_Space
  0
BLOCK_RECORD
  5
219
100
AcDbSymbolTableRecord
100
AcDbBlockTableRecord
  2
_FILLED
  0
ENDTAB
  0
TABLE
  2
DIMSTYLE
  5
A
100
AcDbSymbolTable
 70
1
100
AcDbDimStyleTable
 71
0
  0
DIMSTYLE
105
21A
100
AcDbSymbolTableRecord
100
AcDbDimStyleTableRecord
  2
STANDARD
 70
0
  3

  4

 40
1.0
 41
0.1
 42
0.0625
 43
0.38
 44
0.125
 45
0.0
 46
0.0
 47
0.001
 48
0.001
140
0.08
141
0.09
142
0.0
143
25.4
144
1.0
145
0.0
146
1.0
147
0.09
 71
1.0
 72
0.0
 73
1
 74
1
 75
0
 76
0
 77
0
 78
4
 79
1
170
1
171
2
172
0
173
0
174
0
175
0
176
0
177
0
178
0
270
2
179
3
271
3
272
3
273
2
274
2
275
0
280
0
281
0
282
0
283
1
284
4
285
0
286
0
287
3
288
0
340
11
278
46
341
219
342
219
343
219
344
219
  0
ENDTAB
  0
ENDSEC
  0
SECTION
  2
BLOCKS
  0
BLOCK
  5
20
100
AcDbEntity
  8
0
100
AcDbBlockBegin
  2
*Model_Space
 70
0
 10
0.0
 20
0.0
 30
0.0
  3
*Model_Space
  1

  0
ENDBLK
  5
21
100
AcDbEntity
  8
0
100
AcDbBlockEnd
  0
BLOCK
  5
1C
100
AcDbEntity
  8
0
100
AcDbBlockBegin
  2
*Paper_Space
 70
0
 10
0.0
 20
0.0
 30
0.0
  3
*Paper_Space
  1

  0
ENDBLK
  5
1D
100
AcDbEntity
  8
0
100
AcDbBlockEnd
  0
BLOCK
  5
21B
100
AcDbEntity
  8
0
100
AcDbBlockBegin
  2
_FILLED
 70
64
 10
0.0
 20
0.0
  3
_FILLED
  1

  0
SOLID
  5
21C
100
AcDbEntity
  8
0
  6
BYBLOCK
 62
0
100
AcDbTrace
 10
0.0
 20
0.0
 11
-1.0
 21
0.2
 12
-1.0
 22
-0.2
 13
-1.0
 23
-0.2
  0
ENDBLK
  5
21D
100
AcDbEntity
  8
0
  6
BYBLOCK
 62
0
100
AcDbBlockEnd
  0
ENDSEC
  0
SECTION
  2
ENTITIES
  0
MTEXT
  5
21E
100
AcDbEntity
  8
0
100
AcDbMText
 62
2
  6
CONTINUOUS
  7
STANDARD
 71
3
 72
1
 10
4.5149159224
 20
2.6635396059
 30
0.0
 11
1.0
 21
0.0
 31
0.0
 73
2
 44
0.9
  1
SCALE  .500
 40
0.08
 41
0.704
  0
LINE
  5
21F
100
AcDbEntity
  8
0
100
AcDbLine
 62
7
  6
CONTINUOUS
 10
0.0
 20
0.0
 11
0.0
 21
8.5
  0
LINE
  5
220
100
AcDbEntity
  8
0
100
AcDbLine
 62
7
  6
CONTINUOUS
 10
0.0
 20
0.0
 11
11.0
 21
0.0
  0
LINE
  5
221
100
AcDbEntity
  8
0
100
AcDbLine
 62
7
  6
CONTINUOUS
 10
0.0
 20
8.5
 11
11.0
 21
8.5
  0
LINE
  5
222
100
AcDbEntity
  8
0
100
AcDbLine
 62
7
  6
CONTINUOUS
 10
11.0
 20
0.0
 11
11.0
 21
8.5
  0
LINE
  5
223
100
AcDbEntity
  8
0
100
AcDbLine
 62
7
  6
CONTINUOUS
 10
2.9791577679
 20
4.0088517848
 11
2.9791577679
 21
3.7963518293
  0
LINE
  5
224
100
AcDbEntity
  8
0
100
AcDbLine
 62
7
  6
CONTINUOUS
 10
3.0116462891
 20
4.0087733129
 11
3.0116462891
 21
3.7962733574
  0
LINE
  5
225
100
AcDbEntity
  8
0
100
AcDbLine
 62
7
  6
CONTINUOUS
 10
3.2216574495
 20
4.0086948409
 11
3.2216574495
 21
3.7961948854
  0
LINE
  5
226
100
AcDbEntity
  8
0
100
AcDbLine
 62
7
  6
CONTINUOUS
 10
3.4316686099
 20
4.0087733129
 11
3.4316686099
 21
3.7962733574
  0
LINE
  5
227
100
AcDbEntity
  8
0
100
AcDbLine
 62
7
  6
CONTINUOUS
 10
3.4641571311
 20
3.7963518293
 11
3.4641571311
 21
4.0088517848
  0
LWPOLYLINE
  5
228
100
AcDbEntity
  8
0
100
AcDbPolyline
 62
7
  6
CONTINUOUS
 90
22
 70
0
 10
3.4641571311
 20
4.0088517851
 10
3.4642392431
 20
4.013924975
 10
3.4651297596
 20
4.0263052095
 10
3.4670006099
 20
4.0386347255
 10
3.4698465172
 20
4.0508289827
 10
3.4736559668
 20
4.0628092089
 10
3.4784132059
 20
4.0745024508
 10
3.4840947481
 20
4.0858314309
 10
3.4906694701
 20
4.0967192537
 10
3.498102671
 20
4.1070963175
 10
3.5063530676
 20
4.1168942623
 10
3.5153719677
 20
4.1260465015
 10
3.5251059005
 20
4.134491877
 10
3.5354991449
 20
4.1421760361
 10
3.5464885134
 20
4.1490471331
 10
3.5580024952
 20
4.1550572951
 10
3.5699710136
 20
4.1601684128
 10
3.582325801
 20
4.1643499384
 10
3.5949942814
 20
4.1675757759
 10
3.6079038996
 20
4.1698263742
 10
3.6209829719
 20
4.1710879661
 10
3.6305709026
 20
4.1712799378
  0
LINE
  5
229
100
AcDbEntity
  8
0
100
AcDbLine
 62
7
  6
CONTINUOUS
 10
3.6341574495
 20
4.1712583368
 11
3.6341574495
 21
4.671258232
  0
LINE
  5
22A
100
AcDbEntity
  8
0
100
AcDbLine
 62
7
  6
CONTINUOUS
 10
3.4641571311
 20
3.7963518293
 11
3.4316686099
 21
3.7962733574
  0
LINE
  5
22B
100
AcDbEntity
  8
0
100
AcDbLine
 62
7
  6
CONTINUOUS
 10
3.4316686099
 20
3.7962733574
 11
3.3178585761
 21
3.7962079218
  0
LINE
  5
22C
100
AcDbEntity
  8
0
100
AcDbLine
 62
7
  6
CONTINUOUS
 10
3.2591574553
 20
3.7961968923
 11
3.2216574495
 21
3.7961948854
  0
LINE
  5
22D
100
AcDbEntity
  8
0
100
AcDbLine
 62
7
  6
CONTINUOUS
 10
3.3178585761
 20
3.7962079218
 11
3.2591574553
 21
3.7961968923
  0
LINE
  5
22E
100
AcDbEntity
  8
0
100
AcDbLine
 62
7
  6
CONTINUOUS
 10
6.8182838281
 20
3.8276016984
 11
6.7354551796
 21
3.8276016984
  0
LINE
  5
22F
100
AcDbEntity
  8
ALL_FEATURES
100
AcDbLine
 62
7
  6
CONTINUOUS
 10
6.8182838281
 20
3.8276016984
 11
6.9716574495
 21
3.8276016984
  0
LINE
  5
230
100
AcDbEntity
  8
0
100
AcDbLine
 62
7
  6
CONTINUOUS
 10
3.1758803343
 20
3.7961977986
 11
3.1254563229
 21
3.7962079218
  0
LINE
  5
231
100
AcDbEntity
  8
0
100
AcDbLine
 62
7
  6
CONTINUOUS
 10
3.1793398123
 20
3.7961973028
 11
3.1758803343
 21
3.7961977986
  0
LINE
  5
232
100
AcDbEntity
  8
0
100
AcDbLine
 62
7
  6
CONTINUOUS
 10
3.1841574437
 20
3.7961968923
 11
3.1793398123
 21
3.7961973028
  0
LINE
  5
233
100
AcDbEntity
  8
0
100
AcDbLine
 62
7
  6
CONTINUOUS
 10
3.2216574495
 20
3.7961948854
 11
3.1841574437
 21
3.7961968923
  0
LINE
  5
234
100
AcDbEntity
  8
0
100
AcDbLine
 62
7
  6
CONTINUOUS
 10
3.1254563229
 20
3.7962079218
 11
3.0116462891
 21
3.7962733574
  0
LINE
  5
235
100
AcDbEntity
  8
0
100
AcDbLine
 62
7
  6
CONTINUOUS
 10
3.0116462891
 20
3.7962733574
 11
2.9791577679
 21
3.7963518293
  0
LINE
  5
236
100
AcDbEntity
  8
0
100
AcDbLine
 62
7
  6
CONTINUOUS
 10
3.0116462891
 20
4.0087733129
 11
2.9791577679
 21
4.0088517848
  0
LINE
  5
237
100
AcDbEntity
  8
0
100
AcDbLine
 62
7
  6
CONTINUOUS
 10
5.9291753062
 20
4.1738516984
 11
5.9429835137
 21
4.1747197553
  0
LINE
  5
238
100
AcDbEntity
  8
0
100
AcDbLine
 62
7
  6
CONTINUOUS
 10
5.9187976201
 20
4.1647016302
 11
5.9326120568
 21
4.1655546485
  0
LINE
  5
239
100
AcDbEntity
  8
0
100
AcDbLine
 62
7
  6
CONTINUOUS
 10
3.4641571311
 20
4.0088517848
 11
3.4316686099
 21
4.0087733129
  0
LINE
  5
23A
100
AcDbEntity
  8
0
100
AcDbLine
 62
7
  6
CONTINUOUS
 10
3.4316686099
 20
4.0087733129
 11
3.2216574495
 21
4.0086948409
  0
LINE
  5
23B
100
AcDbEntity
  8
0
100
AcDbLine
 62
7
  6
CONTINUOUS
 10
3.2216574495
 20
4.0086948409
 11
3.0116462891
 21
4.0087733129
  0
LINE
  5
23C
100
AcDbEntity
  8
0
100
AcDbLine
 62
7
  6
CONTINUOUS
 10
3.6341574495
 20
4.1712583368
 11
3.6315835437
 21
4.171369881
  0
LINE
  5
23D
100
AcDbEntity
  8
0
100
AcDbLine
 62
7
  6
CONTINUOUS
 10
5.7345172789
 20
4.1647016302
 11
5.9187976201
 21
4.1647016302
  0
LINE
  5
23E
100
AcDbEntity
  8
0
100
AcDbLine
 62
7
  6
CONTINUOUS
 10
5.7241395928
 20
4.1738516984
 11
5.9291753062
 21
4.1738516984
  0
LINE
  5
23F
100
AcDbEntity
  8
ALL_ASSEMBLY_MEMBERS
100
AcDbLine
 62
7
  6
CONTINUOUS
 10
5.9831574495
 20
4.1763516984
 11
5.9446154568
 21
4.1763516984
  0
LINE
  5
240
100
AcDbEntity
  8
ALL_ASSEMBLY_MEMBERS
100
AcDbLine
 62
7
  6
CONTINUOUS
 10
5.7086994422
 20
4.1763516984
 11
5.6706574495
 21
4.1763516984
  0
LINE
  5
241
100
AcDbEntity
  8
ALL_FEATURES
100
AcDbLine
 62
7
  6
CONTINUOUS
 10
6.2081574495
 20
4.2063516984
 11
6.1481574495
 21
4.2063516984
  0
LINE
  5
242
100
AcDbEntity
  8
0
100
AcDbLine
 62
7
  6
CONTINUOUS
 10
5.7500279405
 20
4.2213516984
 11
5.9032869585
 21
4.2213516984
  0
LINE
  5
243
100
AcDbEntity
  8
0
100
AcDbLine
 62
7
  6
CONTINUOUS
 10
5.7500279405
 20
4.2310848468
 11
5.9032869585
 21
4.2310848468
  0
LINE
  5
244
100
AcDbEntity
  8
ALL_ASSEMBLY_MEMBERS
100
AcDbLine
 62
7
  6
CONTINUOUS
 10
6.1381574495
 20
4.2651016984
 11
6.0333654568
 21
4.2651016984
  0
LINE
  5
245
100
AcDbEntity
  8
0
100
AcDbLine
 62
7
  6
CONTINUOUS
 10
5.7345172789
 20
4.1647016302
 11
5.7207028422
 21
4.1655546485
  0
LINE
  5
246
100
AcDbEntity
  8
0
100
AcDbLine
 62
7
  6
CONTINUOUS
 10
5.7241395928
 20
4.1738516984
 11
5.7103313853
 21
4.1747197553
  0
LWPOLYLINE
  5
247
100
AcDbEntity
  8
0
100
AcDbPolyline
 62
7
  6
CONTINUOUS
 90
63
 70
0
 10
6.2681699935
 20
4.0663792408
 10
6.26993638
 20
4.0661376702
 10
6.2712736921
 20
4.065951416
 10
6.2727206161
 20
4.0657466917
 10
6.2742993701
 20
4.0655195694
 10
6.276077045
 20
4.0652592094
 10
6.2780323231
 20
4.0649672467
 10
6.2801851914
 20
4.0646390688
 10
6.2826636398
 20
4.0642526204
 10
6.285447461
 20
4.0638076057
 10
6.2885547289
 20
4.0632972767
 10
6.2921691393
 20
4.0626856718
 10
6.2963156506
 20
4.0619602815
 10
6.3009653198
 20
4.0611167454
 10
6.3062191123
 20
4.0601253137
 10
6.3121642808
 20
4.0589543831
 10
6.3187074123
 20
4.0576054063
 10
6.3256783303
 20
4.0560985602
 10
6.3330769215
 20
4.0544203638
 10
6.3408981636
 20
4.0525575824
 10
6.3489663769
 20
4.0505399824
 10
6.3572669387
 20
4.0483620102
 10
6.3658111975
 20
4.0460111614
 10
6.3744644822
 20
4.0435170279
 10
6.3831948191
 20
4.0408844574
 10
6.3920326246
 20
4.0380998388
 10
6.4009380341
 20
4.0351713936
 10
6.4098931605
 20
4.0321017789
 10
6.4189147959
 20
4.0288819759
 10
6.4280153196
 20
4.0255036175
 10
6.4372033046
 20
4.0219590374
 10
6.4464687763
 20
4.0182475385
 10
6.4557963241
 20
4.014371226
 10
6.4651851304
 20
4.0103266622
 10
6.4746348297
 20
4.0061101838
 10
6.4841308959
 20
4.0017247302
 10
6.4936732908
 20
3.9971670578
 10
6.503261044
 20
3.992434337
 10
6.5128784441
 20
3.9875313792
 10
6.5225255363
 20
3.9824555522
 10
6.5322014767
 20
3.9772046698
 10
6.5418894556
 20
3.9717856251
 10
6.5515886707
 20
3.966197049
 10
6.5612993707
 20
3.9604369682
 10
6.5710065607
 20
3.9545128014
 10
6.5807082564
 20
3.9484247023
 10
6.5904061189
 20
3.9421705663
 10
6.600090806
 20
3.9357555445
 10
6.6097624085
 20
3.9291789364
 10
6.6194206446
 20
3.9224402904
 10
6.6290557632
 20
3.9155460282
 10
6.6386676414
 20
3.9084961165
 10
6.6482563653
 20
3.9012903703
 10
6.6578126481
 20
3.8939358961
 10
6.6673364334
 20
3.8864331207
 10
6.6768278891
 20
3.878782296
 10
6.6862782095
 20
3.8709911461
 10
6.6956874077
 20
3.8630605352
 10
6.7050557239
 20
3.8549911363
 10
6.7143748324
 20
3.8467912296
 10
6.7236421172
 20
3.8384645404
 10
6.7328605962
 20
3.8300097806
 10
6.7353856399
 20
3.8276638291
  0
LINE
  5
248
100
AcDbEntity
  8
0
100
AcDbLine
 62
7
  6
CONTINUOUS
 10
5.6363905979
 20
4.3447221894
 11
5.6266574495
 21
4.3447221894
  0
LINE
  5
249
100
AcDbEntity
  8
0
100
AcDbLine
 62
7
  6
CONTINUOUS
 10
6.0169243011
 20
4.3447221894
 11
6.0266574495
 21
4.3447221894
  0
LINE
  5
24A
100
AcDbEntity
  8
0
100
AcDbLine
 62
7
  6
CONTINUOUS
 10
5.5700073813
 20
4.4211185103
 11
3.6341574495
 21
4.4211648704
  0
LINE
  5
24B
100
AcDbEntity
  8
0
100
AcDbLine
 62
7
  6
CONTINUOUS
 10
6.1481574495
 20
4.4210939122
 11
6.1381574363
 21
4.4210944256
  0
LINE
  5
24C
100
AcDbEntity
  8
ALL_FEATURES
100
AcDbLine
 62
7
  6
CONTINUOUS
 10
6.2081574495
 20
4.2770141311
 11
6.4045615246
 21
4.2552162774
  0
LINE
  5
24D
100
AcDbEntity
  8
ALL_FEATURES
100
AcDbLine
 62
7
  6
CONTINUOUS
 10
6.2081574495
 20
4.1326765638
 11
6.4045615246
 21
4.0890808564
  0
LINE
  5
24E
100
AcDbEntity
  8
ALL_FEATURES
100
AcDbLine
 62
7
  6
CONTINUOUS
 10
6.2081574495
 20
4.710026833
 11
6.4045615246
 21
4.7536225404
  0
LINE
  5
24F
100
AcDbEntity
  8
ALL_FEATURES
100
AcDbLine
 62
7
  6
CONTINUOUS
 10
6.2081574495
 20
4.5656892657
 11
6.4045615246
 21
4.5874871194
  0
LINE
  5
250
100
AcDbEntity
  8
0
100
AcDbLine
 62
7
  6
CONTINUOUS
 10
5.6363905979
 20
4.4979812075
 11
5.6266574495
 21
4.4979812075
  0
LINE
  5
251
100
AcDbEntity
  8
0
100
AcDbLine
 62
7
  6
CONTINUOUS
 10
6.0169243011
 20
4.4979812075
 11
6.0266574495
 21
4.4979812075
  0
LINE
  5
252
100
AcDbEntity
  8
0
100
AcDbLine
 62
7
  6
CONTINUOUS
 10
5.7103313853
 20
4.6679836415
 11
5.7207028422
 21
4.6771487483
  0
LWPOLYLINE
  5
253
100
AcDbEntity
  8
0
100
AcDbPolyline
 62
7
  6
CONTINUOUS
 90
3
 70
0
 10
6.2713740445
 20
4.7767660727
 10
6.268750735
 20
4.7764030132
 10
6.2681668214
 20
4.7763237268
  0
LINE
  5
254
100
AcDbEntity
  8
0
100
AcDbLine
 62
7
  6
CONTINUOUS
 10
6.2216574495
 20
4.7712208455
 11
6.0830112651
 21
4.7615200804
  0
LINE
  5
255
100
AcDbEntity
  8
0
100
AcDbLine
 62
7
  6
CONTINUOUS
 10
5.7241395928
 20
4.6688516984
 11
5.7103313853
 21
4.6679836415
  0
LINE
  5
256
100
AcDbEntity
  8
0
100
AcDbLine
 62
7
  6
CONTINUOUS
 10
5.7345172789
 20
4.6780017667
 11
5.7207028422
 21
4.6771487483
  0
LINE
  5
257
100
AcDbEntity
  8
ALL_ASSEMBLY_MEMBERS
100
AcDbLine
 62
7
  6
CONTINUOUS
 10
6.1381574495
 20
4.5776016984
 11
6.0333654568
 21
4.5776016984
  0
LINE
  5
258
100
AcDbEntity
  8
0
100
AcDbLine
 62
7
  6
CONTINUOUS
 10
5.9032869585
 20
4.61161855
 11
5.7500279405
 21
4.61161855
  0
LINE
  5
259
100
AcDbEntity
  8
0
100
AcDbLine
 62
7
  6
CONTINUOUS
 10
5.9032869585
 20
4.6213516984
 11
5.7500279405
 21
4.6213516984
  0
LINE
  5
25A
100
AcDbEntity
  8
ALL_FEATURES
100
AcDbLine
 62
7
  6
CONTINUOUS
 10
6.2081574495
 20
4.6363516984
 11
6.1481574495
 21
4.6363516984
  0
LINE
  5
25B
100
AcDbEntity
  8
ALL_ASSEMBLY_MEMBERS
100
AcDbLine
 62
7
  6
CONTINUOUS
 10
5.9831574495
 20
4.6663516984
 11
5.9446154568
 21
4.6663516984
  0
LINE
  5
25C
100
AcDbEntity
  8
ALL_ASSEMBLY_MEMBERS
100
AcDbLine
 62
7
  6
CONTINUOUS
 10
5.7086994422
 20
4.6663516984
 11
5.6706574495
 21
4.6663516984
  0
LINE
  5
25D
100
AcDbEntity
  8
0
100
AcDbLine
 62
7
  6
CONTINUOUS
 10
5.9291753062
 20
4.6688516984
 11
5.7241395928
 21
4.6688516984
  0
LINE
  5
25E
100
AcDbEntity
  8
0
100
AcDbLine
 62
7
  6
CONTINUOUS
 10
5.9187976201
 20
4.6780017667
 11
5.7345172789
 21
4.6780017667
  0
LINE
  5
25F
100
AcDbEntity
  8
0
100
AcDbLine
 62
7
  6
CONTINUOUS
 10
5.5791574495
 20
4.5238695551
 11
5.5700073813
 21
4.5134918691
  0
LINE
  5
260
100
AcDbEntity
  8
0
100
AcDbLine
 62
7
  6
CONTINUOUS
 10
5.5800255064
 20
4.5376777626
 11
5.5708603996
 21
4.5273063057
  0
LINE
  5
261
100
AcDbEntity
  8
0
100
AcDbLine
 62
7
  6
CONTINUOUS
 10
5.7103313853
 20
4.6679836415
 11
5.5800255064
 21
4.5376777626
  0
LINE
  5
262
100
AcDbEntity
  8
0
100
AcDbLine
 62
7
  6
CONTINUOUS
 10
5.7241395928
 20
4.6688516984
 11
5.5791574495
 21
4.5238695551
  0
LINE
  5
263
100
AcDbEntity
  8
0
100
AcDbLine
 62
7
  6
CONTINUOUS
 10
5.7394213387
 20
4.6169583001
 11
5.6310508478
 21
4.5085878092
  0
LINE
  5
264
100
AcDbEntity
  8
0
100
AcDbLine
 62
7
  6
CONTINUOUS
 10
5.746303714
 20
4.6100759249
 11
5.637933223
 21
4.501705434
  0
LINE
  5
265
100
AcDbEntity
  8
0
100
AcDbLine
 62
7
  6
CONTINUOUS
 10
5.7241395928
 20
4.6688516984
 11
5.7345172789
 21
4.6780017667
  0
LINE
  5
266
100
AcDbEntity
  8
0
100
AcDbLine
 62
7
  6
CONTINUOUS
 10
5.8213905979
 20
4.4213516984
 11
5.6363905979
 21
4.3447221894
  0
LINE
  5
267
100
AcDbEntity
  8
0
100
AcDbLine
 62
7
  6
CONTINUOUS
 10
5.830381676
 20
4.4250759249
 11
6.015381676
 21
4.501705434
  0
LINE
  5
268
100
AcDbEntity
  8
0
100
AcDbLine
 62
7
  6
CONTINUOUS
 10
5.822933223
 20
4.4176274719
 11
5.637933223
 21
4.3409979629
  0
LINE
  5
269
100
AcDbEntity
  8
0
100
AcDbLine
 62
7
  6
CONTINUOUS
 10
5.8319243011
 20
4.4213516984
 11
6.0169243011
 21
4.4979812075
  0
LINE
  5
26A
100
AcDbEntity
  8
0
100
AcDbLine
 62
7
  6
CONTINUOUS
 10
3.6373475119
 20
4.6714095814
 11
3.6341574495
 21
4.671258232
  0
LWPOLYLINE
  5
26B
100
AcDbEntity
  8
0
100
AcDbPolyline
 62
7
  6
CONTINUOUS
 90
31
 70
0
 10
3.6309231348
 20
4.6712095128
 10
3.5992084308
 20
4.6698159609
 10
3.5644153993
 20
4.6664718087
 10
3.5298720132
 20
4.6613304384
 10
3.4956686349
 20
4.6544075624
 10
3.4618963048
 20
4.6457236498
 10
3.4286464747
 20
4.6353042105
 10
3.3960066571
 20
4.6231787164
 10
3.3640634344
 20
4.6093812508
 10
3.3329042467
 20
4.5939516725
 10
3.3026115623
 20
4.5769330975
 10
3.2732651661
 20
4.5583725183
 10
3.2449446853
 20
4.5383225748
 10
3.2177248973
 20
4.5168386525
 10
3.1916774836
 20
4.4939796963
 10
3.1668726829
 20
4.4698098556
 10
3.1433760034
 20
4.4443956949
 10
3.121248966
 20
4.417806461
 10
3.1005503402
 20
4.3901155351
 10
3.0813345057
 20
4.3613985709
 10
3.0636518123
 20
4.3317337493
 10
3.0475489185
 20
4.3012024241
 10
3.0330679855
 20
4.2698878494
 10
3.0202467193
 20
4.2378750321
 10
3.0091185478
 20
4.2052511162
 10
2.9997123772
 20
4.1721049033
 10
2.9920524339
 20
4.1385262888
 10
2.9861582926
 20
4.1046061435
 10
2.9820449018
 20
4.0704364805
 10
2.9797224768
 20
4.0361102265
 10
2.9791577679
 20
4.0088517848
  0
LINE
  5
26C
100
AcDbEntity
  8
0
100
AcDbLine
 62
7
  6
CONTINUOUS
 10
5.9187976201
 20
4.6780017667
 11
5.9326120568
 21
4.6771487483
  0
LINE
  5
26D
100
AcDbEntity
  8
0
100
AcDbLine
 62
7
  6
CONTINUOUS
 10
5.9291753062
 20
4.6688516984
 11
5.9429835137
 21
4.6679836415
  0
LINE
  5
26E
100
AcDbEntity
  8
0
100
AcDbLine
 62
7
  6
CONTINUOUS
 10
5.8213905979
 20
4.4213516984
 11
5.6363905979
 21
4.4979812075
  0
LINE
  5
26F
100
AcDbEntity
  8
0
100
AcDbLine
 62
7
  6
CONTINUOUS
 10
5.830381676
 20
4.4176274719
 11
6.015381676
 21
4.3409979629
  0
LINE
  5
270
100
AcDbEntity
  8
0
100
AcDbLine
 62
7
  6
CONTINUOUS
 10
5.822933223
 20
4.4250759249
 11
5.637933223
 21
4.501705434
  0
LINE
  5
271
100
AcDbEntity
  8
0
100
AcDbLine
 62
7
  6
CONTINUOUS
 10
5.8319243011
 20
4.4213516984
 11
6.0169243011
 21
4.3447221894
  0
LINE
  5
272
100
AcDbEntity
  8
0
100
AcDbLine
 62
7
  6
CONTINUOUS
 10
5.7241395928
 20
4.1738516984
 11
5.7345172789
 21
4.1647016302
  0
LINE
  5
273
100
AcDbEntity
  8
0
100
AcDbLine
 62
7
  6
CONTINUOUS
 10
5.7103313853
 20
4.1747197553
 11
5.7207028422
 21
4.1655546485
  0
LINE
  5
274
100
AcDbEntity
  8
0
100
AcDbLine
 62
7
  6
CONTINUOUS
 10
5.5800255064
 20
4.3050256342
 11
5.7103313853
 21
4.1747197553
  0
LINE
  5
275
100
AcDbEntity
  8
0
100
AcDbLine
 62
7
  6
CONTINUOUS
 10
5.5791574495
 20
4.3188338417
 11
5.7241395928
 21
4.1738516984
  0
LINE
  5
276
100
AcDbEntity
  8
0
100
AcDbLine
 62
7
  6
CONTINUOUS
 10
5.6310508478
 20
4.3341155877
 11
5.7394213387
 21
4.2257450967
  0
LINE
  5
277
100
AcDbEntity
  8
0
100
AcDbLine
 62
7
  6
CONTINUOUS
 10
5.637933223
 20
4.3409979629
 11
5.746303714
 21
4.2326274719
  0
LINE
  5
278
100
AcDbEntity
  8
0
100
AcDbLine
 62
7
  6
CONTINUOUS
 10
5.5800255064
 20
4.3050256342
 11
5.5708603996
 21
4.3153970911
  0
LINE
  5
279
100
AcDbEntity
  8
0
100
AcDbLine
 62
7
  6
CONTINUOUS
 10
5.5791574495
 20
4.3188338417
 11
5.5700073813
 21
4.3292115278
  0
LINE
  5
27A
100
AcDbEntity
  8
0
100
AcDbLine
 62
7
  6
CONTINUOUS
 10
5.637933223
 20
4.3409979629
 11
5.6310508478
 21
4.3341155877
  0
LINE
  5
27B
100
AcDbEntity
  8
0
100
AcDbLine
 62
7
  6
CONTINUOUS
 10
5.907011185
 20
4.6100759249
 11
5.9138935603
 21
4.6169583001
  0
LINE
  5
27C
100
AcDbEntity
  8
0
100
AcDbLine
 62
7
  6
CONTINUOUS
 10
5.637933223
 20
4.501705434
 11
5.6310508478
 21
4.5085878092
  0
LINE
  5
27D
100
AcDbEntity
  8
0
100
AcDbLine
 62
7
  6
CONTINUOUS
 10
5.907011185
 20
4.2326274719
 11
5.9138935603
 21
4.2257450967
  0
LINE
  5
27E
100
AcDbEntity
  8
0
100
AcDbLine
 62
7
  6
CONTINUOUS
 10
5.5791574495
 20
4.3188338417
 11
5.5800255064
 21
4.3050256342
  0
LINE
  5
27F
100
AcDbEntity
  8
0
100
AcDbLine
 62
7
  6
CONTINUOUS
 10
5.5708603996
 20
4.3153970911
 11
5.5700073813
 21
4.3292115278
  0
LINE
  5
280
100
AcDbEntity
  8
0
100
AcDbLine
 62
7
  6
CONTINUOUS
 10
5.5700073813
 20
4.5134918691
 11
5.5700073813
 21
4.3292115278
  0
LINE
  5
281
100
AcDbEntity
  8
0
100
AcDbLine
 62
7
  6
CONTINUOUS
 10
5.5791574495
 20
4.5238695551
 11
5.5791574495
 21
4.3188338417
  0
LINE
  5
282
100
AcDbEntity
  8
0
100
AcDbLine
 62
7
  6
CONTINUOUS
 10
5.6266574495
 20
4.4979812075
 11
5.6266574495
 21
4.3447221894
  0
LINE
  5
283
100
AcDbEntity
  8
0
100
AcDbLine
 62
7
  6
CONTINUOUS
 10
5.6363905979
 20
4.4979812075
 11
5.6363905979
 21
4.3447221894
  0
LINE
  5
284
100
AcDbEntity
  8
ALL_ASSEMBLY_MEMBERS
100
AcDbLine
 62
7
  6
CONTINUOUS
 10
5.6706574495
 20
4.6663516984
 11
5.6706574495
 21
4.6283097057
  0
LINE
  5
285
100
AcDbEntity
  8
ALL_ASSEMBLY_MEMBERS
100
AcDbLine
 62
7
  6
CONTINUOUS
 10
5.6706574495
 20
4.1763516984
 11
5.6706574495
 21
4.2143936911
  0
LINE
  5
286
100
AcDbEntity
  8
0
100
AcDbLine
 62
7
  6
CONTINUOUS
 10
5.5708603996
 20
4.5273063057
 11
5.5700073813
 21
4.5134918691
  0
LINE
  5
287
100
AcDbEntity
  8
0
100
AcDbLine
 62
7
  6
CONTINUOUS
 10
5.5791574495
 20
4.5238695551
 11
5.5800255064
 21
4.5376777626
  0
LINE
  5
288
100
AcDbEntity
  8
0
100
AcDbLine
 62
7
  6
CONTINUOUS
 10
5.746303714
 20
4.2326274719
 11
5.7394213387
 21
4.2257450967
  0
LINE
  5
289
100
AcDbEntity
  8
0
100
AcDbLine
 62
7
  6
CONTINUOUS
 10
6.015381676
 20
4.501705434
 11
6.0222640512
 21
4.5085878092
  0
LINE
  5
28A
100
AcDbEntity
  8
ALL_FEATURES
100
AcDbLine
 62
7
  6
CONTINUOUS
 10
6.8107733861
 20
4.7137796098
 11
6.8182838281
 21
4.7182266984
  0
LINE
  5
28B
100
AcDbEntity
  8
0
100
AcDbLine
 62
7
  6
CONTINUOUS
 10
6.8182838281
 20
5.0151016984
 11
6.7354551796
 21
5.0151016984
  0
LINE
  5
28C
100
AcDbEntity
  8
ALL_FEATURES
100
AcDbLine
 62
7
  6
CONTINUOUS
 10
6.8182838281
 20
5.0151016984
 11
6.9716574495
 21
5.0151016984
  0
LINE
  5
28D
100
AcDbEntity
  8
ALL_FEATURES
100
AcDbLine
 62
7
  6
CONTINUOUS
 10
6.8107733861
 20
4.1289237871
 11
6.8182838281
 21
4.1244766984
  0
LINE
  5
28E
100
AcDbEntity
  8
0
100
AcDbLine
 62
7
  6
CONTINUOUS
 10
5.746303714
 20
4.6100759249
 11
5.7394213387
 21
4.6169583001
  0
LINE
  5
28F
100
AcDbEntity
  8
0
100
AcDbLine
 62
7
  6
CONTINUOUS
 10
6.015381676
 20
4.3409979629
 11
6.0222640512
 21
4.3341155877
  0
LINE
  5
290
100
AcDbEntity
  8
0
100
AcDbLine
 62
7
  6
CONTINUOUS
 10
5.7500279405
 20
4.2310848468
 11
5.7500279405
 21
4.2213516984
  0
LINE
  5
291
100
AcDbEntity
  8
0
100
AcDbLine
 62
7
  6
CONTINUOUS
 10
5.7500279405
 20
4.61161855
 11
5.7500279405
 21
4.6213516984
  0
LINE
  5
292
100
AcDbEntity
  8
0
100
AcDbLine
 62
7
  6
CONTINUOUS
 10
5.822933223
 20
4.4176274719
 11
5.746303714
 21
4.2326274719
  0
LINE
  5
293
100
AcDbEntity
  8
0
100
AcDbLine
 62
7
  6
CONTINUOUS
 10
5.8266574495
 20
4.42661855
 11
5.9032869585
 21
4.61161855
  0
LINE
  5
294
100
AcDbEntity
  8
0
100
AcDbLine
 62
7
  6
CONTINUOUS
 10
5.8266574495
 20
4.4160848468
 11
5.7500279405
 21
4.2310848468
  0
LINE
  5
295
100
AcDbEntity
  8
0
100
AcDbLine
 62
7
  6
CONTINUOUS
 10
5.830381676
 20
4.4250759249
 11
5.907011185
 21
4.6100759249
  0
LINE
  5
296
100
AcDbEntity
  8
0
100
AcDbLine
 62
7
  6
CONTINUOUS
 10
5.907011185
 20
4.2326274719
 11
6.015381676
 21
4.3409979629
  0
LINE
  5
297
100
AcDbEntity
  8
0
100
AcDbLine
 62
7
  6
CONTINUOUS
 10
5.9138935603
 20
4.2257450967
 11
6.0222640512
 21
4.3341155877
  0
LINE
  5
298
100
AcDbEntity
  8
0
100
AcDbLine
 62
7
  6
CONTINUOUS
 10
5.9291753062
 20
4.1738516984
 11
6.0741574495
 21
4.3188338417
  0
LINE
  5
299
100
AcDbEntity
  8
0
100
AcDbLine
 62
7
  6
CONTINUOUS
 10
5.9429835137
 20
4.1747197553
 11
6.0732893926
 21
4.3050256342
  0
LWPOLYLINE
  5
29A
100
AcDbEntity
  8
0
100
AcDbPolyline
 62
7
  6
CONTINUOUS
 90
61
 70
0
 10
6.7353856414
 20
5.0150395692
 10
6.7330049651
 20
5.0128273957
 10
6.7239238668
 20
5.0044947167
 10
6.7147869159
 20
4.9962787636
 10
6.7055906985
 20
4.9881783075
 10
6.696338107
 20
4.980197739
 10
6.6870384242
 20
4.972346561
 10
6.6776913119
 20
4.9646257282
 10
6.6682967492
 20
4.957036463
 10
6.6588646491
 20
4.9495877348
 10
6.6493947551
 20
4.9422800324
 10
6.6398871224
 20
4.9351140886
 10
6.6303522942
 20
4.9280982501
 10
6.6207901013
 20
4.9212325108
 10
6.6112006789
 20
4.9145170863
 10
6.6015951991
 20
4.9079596191
 10
6.591973893
 20
4.901559788
 10
6.5823366719
 20
4.8953170564
 10
6.5726943989
 20
4.8892377105
 10
6.5630454984
 20
4.883319775
 10
6.5533918448
 20
4.8775634225
 10
6.5437496831
 20
4.8719769155
 10
6.5341185903
 20
4.8665582049
 10
6.5244995354
 20
4.8613060431
 10
6.5149111111
 20
4.8562283317
 10
6.5053541363
 20
4.8513228123
 10
6.4958286089
 20
4.8465868139
 10
6.4863521512
 20
4.8420260496
 10
6.476925747
 20
4.8376375544
 10
6.4675494641
 20
4.8334179562
 10
6.4582397893
 20
4.8293709497
 10
6.4489972751
 20
4.8254927304
 10
6.4398226184
 20
4.8217795941
 10
6.4307327481
 20
4.8182340837
 10
6.4217366958
 20
4.8148549363
 10
6.4128269046
 20
4.8116345956
 10
6.4039954855
 20
4.8085659157
 10
6.3952396146
 20
4.8056439296
 10
6.3865633973
 20
4.8028660749
 10
6.3779693386
 20
4.8002291673
 10
6.3694225531
 20
4.7977192353
 10
6.3609591081
 20
4.7953436464
 10
6.3526887435
 20
4.7931272603
 10
6.3445925804
 20
4.7910575398
 10
6.3366921042
 20
4.7891327021
 10
6.3291594914
 20
4.7873843158
 10
6.321996169
 20
4.785799924
 10
6.3152052783
 20
4.7843681023
 10
6.3089636182
 20
4.7831121547
 10
6.3033365607
 20
4.782029092
 10
6.2982647147
 20
4.7810928368
 10
6.2937381906
 20
4.7802892336
 10
6.2898182583
 20
4.7796177302
 10
6.2864483508
 20
4.7790586103
 10
6.2834402446
 20
4.7785737601
 10
6.2807794433
 20
4.7781561455
 10
6.2784829685
 20
4.7778042653
 10
6.2764079222
 20
4.777493184
 10
6.2745325727
 20
4.7772177048
 10
6.2728801789
 20
4.7769794834
 10
6.2713740445
 20
4.7767660727
  0
LINE
  5
29B
100
AcDbEntity
  8
0
100
AcDbLine
 62
7
  6
CONTINUOUS
 10
6.7354551693
 20
5.0151016984
 11
6.7353865075
 21
5.0150395691
  0
LINE
  5
29C
100
AcDbEntity
  8
0
100
AcDbLine
 62
7
  6
CONTINUOUS
 10
5.9429835137
 20
4.1747197553
 11
5.9326120568
 21
4.1655546485
  0
LINE
  5
29D
100
AcDbEntity
  8
0
100
AcDbLine
 62
7
  6
CONTINUOUS
 10
5.9291753062
 20
4.1738516984
 11
5.9187976201
 21
4.1647016302
  0
LINE
  5
29E
100
AcDbEntity
  8
0
100
AcDbLine
 62
7
  6
CONTINUOUS
 10
5.9291753062
 20
4.6688516984
 11
5.9187976201
 21
4.6780017667
  0
LINE
  5
29F
100
AcDbEntity
  8
0
100
AcDbLine
 62
7
  6
CONTINUOUS
 10
5.9429835137
 20
4.6679836415
 11
5.9326120568
 21
4.6771487483
  0
LINE
  5
2A0
100
AcDbEntity
  8
0
100
AcDbLine
 62
7
  6
CONTINUOUS
 10
6.7354551693
 20
3.8276016984
 11
6.7353865059
 21
3.8276638293
  0
LINE
  5
2A1
100
AcDbEntity
  8
0
100
AcDbLine
 62
7
  6
CONTINUOUS
 10
6.015381676
 20
4.501705434
 11
5.907011185
 21
4.6100759249
  0
LINE
  5
2A2
100
AcDbEntity
  8
0
100
AcDbLine
 62
7
  6
CONTINUOUS
 10
6.0222640512
 20
4.5085878092
 11
5.9138935603
 21
4.6169583001
  0
LINE
  5
2A3
100
AcDbEntity
  8
0
100
AcDbLine
 62
7
  6
CONTINUOUS
 10
5.8266574495
 20
4.4160848468
 11
5.9032869585
 21
4.2310848468
  0
LINE
  5
2A4
100
AcDbEntity
  8
0
100
AcDbLine
 62
7
  6
CONTINUOUS
 10
5.822933223
 20
4.4250759249
 11
5.746303714
 21
4.6100759249
  0
LINE
  5
2A5
100
AcDbEntity
  8
0
100
AcDbLine
 62
7
  6
CONTINUOUS
 10
5.830381676
 20
4.4176274719
 11
5.907011185
 21
4.2326274719
  0
LINE
  5
2A6
100
AcDbEntity
  8
0
100
AcDbLine
 62
7
  6
CONTINUOUS
 10
5.8266574495
 20
4.42661855
 11
5.7500279405
 21
4.61161855
  0
LINE
  5
2A7
100
AcDbEntity
  8
0
100
AcDbLine
 62
7
  6
CONTINUOUS
 10
5.9032869585
 20
4.2310848468
 11
5.9032869585
 21
4.2213516984
  0
LINE
  5
2A8
100
AcDbEntity
  8
0
100
AcDbLine
 62
7
  6
CONTINUOUS
 10
5.9032869585
 20
4.61161855
 11
5.9032869585
 21
4.6213516984
  0
LINE
  5
2A9
100
AcDbEntity
  8
0
100
AcDbLine
 62
7
  6
CONTINUOUS
 10
6.0741574495
 20
4.3188338417
 11
6.0833075177
 21
4.3292115278
  0
LINE
  5
2AA
100
AcDbEntity
  8
0
100
AcDbLine
 62
7
  6
CONTINUOUS
 10
6.0732893926
 20
4.3050256342
 11
6.0824544994
 21
4.3153970911
  0
LINE
  5
2AB
100
AcDbEntity
  8
0
100
AcDbLine
 62
7
  6
CONTINUOUS
 10
6.0741574495
 20
4.5238695551
 11
5.9291753062
 21
4.6688516984
  0
LINE
  5
2AC
100
AcDbEntity
  8
0
100
AcDbLine
 62
7
  6
CONTINUOUS
 10
6.0732893926
 20
4.5376777626
 11
5.9429835137
 21
4.6679836415
  0
LINE
  5
2AD
100
AcDbEntity
  8
0
100
AcDbLine
 62
7
  6
CONTINUOUS
 10
6.0732893926
 20
4.5376777626
 11
6.0824544994
 21
4.5273063057
  0
LINE
  5
2AE
100
AcDbEntity
  8
0
100
AcDbLine
 62
7
  6
CONTINUOUS
 10
6.0741574495
 20
4.5238695551
 11
6.0833075177
 21
4.5134918691
  0
LINE
  5
2AF
100
AcDbEntity
  8
0
100
AcDbLine
 62
7
  6
CONTINUOUS
 10
6.0741574495
 20
4.5238695551
 11
6.0732893926
 21
4.5376777626
  0
LINE
  5
2B0
100
AcDbEntity
  8
0
100
AcDbLine
 62
7
  6
CONTINUOUS
 10
6.0824544994
 20
4.5273063057
 11
6.0833075177
 21
4.5134918691
  0
LINE
  5
2B1
100
AcDbEntity
  8
ALL_ASSEMBLY_MEMBERS
100
AcDbLine
 62
7
  6
CONTINUOUS
 10
5.9831574495
 20
4.6663516984
 11
5.9831574495
 21
4.6278097057
  0
LINE
  5
2B2
100
AcDbEntity
  8
ALL_ASSEMBLY_MEMBERS
100
AcDbLine
 62
7
  6
CONTINUOUS
 10
5.9831574495
 20
4.1763516984
 11
5.9831574495
 21
4.2148936911
  0
LINE
  5
2B3
100
AcDbEntity
  8
0
100
AcDbLine
 62
7
  6
CONTINUOUS
 10
6.0169243011
 20
4.3447221894
 11
6.0169243011
 21
4.4979812075
  0
LINE
  5
2B4
100
AcDbEntity
  8
0
100
AcDbLine
 62
7
  6
CONTINUOUS
 10
6.0266574495
 20
4.3447221894
 11
6.0266574495
 21
4.4979812075
  0
LINE
  5
2B5
100
AcDbEntity
  8
0
100
AcDbLine
 62
7
  6
CONTINUOUS
 10
6.0741574495
 20
4.3188338417
 11
6.0741574495
 21
4.5238695551
  0
LINE
  5
2B6
100
AcDbEntity
  8
0
100
AcDbLine
 62
7
  6
CONTINUOUS
 10
6.0833075177
 20
4.3292115278
 11
6.0833075177
 21
4.5134918691
  0
LINE
  5
2B7
100
AcDbEntity
  8
0
100
AcDbLine
 62
7
  6
CONTINUOUS
 10
6.0824544994
 20
4.3153970911
 11
6.0833075177
 21
4.3292115278
  0
LINE
  5
2B8
100
AcDbEntity
  8
0
100
AcDbLine
 62
7
  6
CONTINUOUS
 10
6.0741574495
 20
4.3188338417
 11
6.0732893926
 21
4.3050256342
  0
LINE
  5
2B9
100
AcDbEntity
  8
ALL_FEATURES
100
AcDbLine
 62
7
  6
CONTINUOUS
 10
6.8107733861
 20
5.0062075211
 11
6.8182838281
 21
5.0151016984
  0
LINE
  5
2BA
100
AcDbEntity
  8
ALL_FEATURES
100
AcDbLine
 62
7
  6
CONTINUOUS
 10
6.8107733861
 20
3.8364958757
 11
6.8182838281
 21
3.8276016984
  0
LINE
  5
2BB
100
AcDbEntity
  8
ALL_ASSEMBLY_MEMBERS
100
AcDbLine
 62
7
  6
CONTINUOUS
 10
6.1381574495
 20
4.2651016984
 11
6.1381574495
 21
4.5776016984
  0
LINE
  5
2BC
100
AcDbEntity
  8
ALL_FEATURES
100
AcDbLine
 62
7
  6
CONTINUOUS
 10
6.1481574495
 20
4.6363516984
 11
6.1481574495
 21
4.2063516984
  0
LINE
  5
2BD
100
AcDbEntity
  8
0
100
AcDbLine
 62
7
  6
CONTINUOUS
 10
6.2081574495
 20
4.5656892657
 11
6.2081574495
 21
4.2770141311
  0
LINE
  5
2BE
100
AcDbEntity
  8
ALL_FEATURES
100
AcDbLine
 62
7
  6
CONTINUOUS
 10
6.2081574495
 20
4.1326765638
 11
6.2081574495
 21
4.2770141311
  0
LINE
  5
2BF
100
AcDbEntity
  8
ALL_FEATURES
100
AcDbLine
 62
7
  6
CONTINUOUS
 10
6.2081574495
 20
4.5656892657
 11
6.2081574495
 21
4.710026833
  0
LINE
  5
2C0
100
AcDbEntity
  8
0
100
AcDbLine
 62
7
  6
CONTINUOUS
 10
6.2216574495
 20
4.0712209921
 11
6.2216574495
 21
4.1296799761
  0
LINE
  5
2C1
100
AcDbEntity
  8
0
100
AcDbLine
 62
7
  6
CONTINUOUS
 10
6.2216574495
 20
4.7130234208
 11
6.2216574495
 21
4.7712208455
  0
LINE
  5
2C2
100
AcDbEntity
  8
ALL_FEATURES
100
AcDbLine
 62
7
  6
CONTINUOUS
 10
6.4045615246
 20
4.0890808564
 11
6.4045615246
 21
4.7536225404
  0
LINE
  5
2C3
100
AcDbEntity
  8
ALL_FEATURES
100
AcDbLine
 62
7
  6
CONTINUOUS
 10
6.8107733861
 20
3.8364958757
 11
6.8107733861
 21
5.0062075211
  0
LINE
  5
2C4
100
AcDbEntity
  8
ALL_FEATURES
100
AcDbLine
 62
7
  6
CONTINUOUS
 10
6.9716574495
 20
5.0151012174
 11
6.9716574495
 21
3.827602939
  0
ARC
  5
2C5
100
AcDbEntity
  8
0
100
AcDbCircle
 62
7
  6
CONTINUOUS
 10
6.1661549745
 20
3.3121999806
 40
0.761047581
100
AcDbArc
 50
82.2965694133
 51
85.8177604805
  0
ARC
  5
2C6
100
AcDbEntity
  8
ALL_ASSEMBLY_MEMBERS
100
AcDbCircle
 62
7
  6
CONTINUOUS
 10
6.3795121596
 20
4.4213516984
 40
0.75
100
AcDbArc
 50
160.9334198993
 51
165.2941125357
  0
ARC
  5
2C7
100
AcDbEntity
  8
ALL_ASSEMBLY_MEMBERS
100
AcDbCircle
 62
7
  6
CONTINUOUS
 10
6.3795121596
 20
4.4213516984
 40
0.75
100
AcDbArc
 50
194.7058874643
 51
199.0665801007
  0
CIRCLE
  5
2C8
100
AcDbEntity
  8
0
100
AcDbCircle
 62
7
  6
CONTINUOUS
 10
5.8266574495
 20
4.4213516984
 40
0.245
  0
CIRCLE
  5
2C9
100
AcDbEntity
  8
0
100
AcDbCircle
 62
7
  6
CONTINUOUS
 10
5.8266574495
 20
4.4213516984
 40
0.23
  0
ARC
  5
2CA
100
AcDbEntity
  8
0
100
AcDbCircle
 62
7
  6
CONTINUOUS
 10
5.8877026843
 20
4.5687279323
 40
0.0456341396
100
AcDbArc
 50
64.9685764768
 51
70.0314235232
  0
ARC
  5
2CB
100
AcDbEntity
  8
0
100
AcDbCircle
 62
7
  6
CONTINUOUS
 10
5.8110731757
 20
4.3837279331
 40
0.0456341387
100
AcDbArc
 50
64.9685764258
 51
70.0314235742
  0
ARC
  5
2CC
100
AcDbEntity
  8
0
100
AcDbCircle
 62
7
  6
CONTINUOUS
 10
5.8642812148
 20
4.4057674246
 40
0.0456341387
100
AcDbArc
 50
154.9685764258
 51
160.0314235742
  0
ARC
  5
2CD
100
AcDbEntity
  8
0
100
AcDbCircle
 62
7
  6
CONTINUOUS
 10
5.8422417234
 20
4.4589754637
 40
0.0456341387
100
AcDbArc
 50
244.9685764258
 51
250.0314235742
  0
ARC
  5
2CE
100
AcDbEntity
  8
0
100
AcDbCircle
 62
7
  6
CONTINUOUS
 10
5.7890336842
 20
4.4369359723
 40
0.0456341387
100
AcDbArc
 50
334.9685764258
 51
340.0314235742
  0
ARC
  5
2CF
100
AcDbEntity
  8
0
100
AcDbCircle
 62
7
  6
CONTINUOUS
 10
5.6792812148
 20
4.4823969336
 40
0.0456341386
100
AcDbArc
 50
154.9685764234
 51
160.0314235766
  0
ARC
  5
2D0
100
AcDbEntity
  8
0
100
AcDbCircle
 62
7
  6
CONTINUOUS
 10
5.6792812148
 20
4.3603064632
 40
0.0456341386
100
AcDbArc
 50
199.9685764233
 51
205.0314235767
  0
ARC
  5
2D1
100
AcDbEntity
  8
0
100
AcDbCircle
 62
7
  6
CONTINUOUS
 10
5.7890336842
 20
4.4057674246
 40
0.0456341386
100
AcDbArc
 50
19.9685764238
 51
25.0314235762
  0
ARC
  5
2D2
100
AcDbEntity
  8
0
100
AcDbCircle
 62
7
  6
CONTINUOUS
 10
5.7656122143
 20
4.2739754637
 40
0.0456341386
100
AcDbArc
 50
244.9685764233
 51
250.0314235767
  0
ARC
  5
2D3
100
AcDbEntity
  8
0
100
AcDbCircle
 62
7
  6
CONTINUOUS
 10
5.8642812148
 20
4.4369359723
 40
0.0456341386
100
AcDbArc
 50
199.9685764238
 51
205.0314235762
  0
ARC
  5
2D4
100
AcDbEntity
  8
0
100
AcDbCircle
 62
7
  6
CONTINUOUS
 10
5.8422417233
 20
4.3837279332
 40
0.0456341386
100
AcDbArc
 50
109.9685764238
 51
115.0314235762
  0
ARC
  5
2D5
100
AcDbEntity
  8
0
100
AcDbCircle
 62
7
  6
CONTINUOUS
 10
5.8877026847
 20
4.2739754637
 40
0.0456341386
100
AcDbArc
 50
289.9685764233
 51
295.0314235767
  0
ARC
  5
2D6
100
AcDbEntity
  8
0
100
AcDbCircle
 62
7
  6
CONTINUOUS
 10
5.9740336843
 20
4.3603064632
 40
0.0456341386
100
AcDbArc
 50
334.9685764234
 51
340.0314235766
  0
ARC
  5
2D7
100
AcDbEntity
  8
0
100
AcDbCircle
 62
7
  6
CONTINUOUS
 10
5.9740336843
 20
4.4823969336
 40
0.0456341386
100
AcDbArc
 50
19.9685764233
 51
25.0314235767
  0
ARC
  5
2D8
100
AcDbEntity
  8
0
100
AcDbCircle
 62
7
  6
CONTINUOUS
 10
5.7656122143
 20
4.5687279332
 40
0.0456341386
100
AcDbArc
 50
109.9685764234
 51
115.0314235766
  0
ARC
  5
2D9
100
AcDbEntity
  8
0
100
AcDbCircle
 62
7
  6
CONTINUOUS
 10
5.8110731757
 20
4.4589754637
 40
0.0456341386
100
AcDbArc
 50
289.9685764238
 51
295.0314235762
  0
ARC
  5
2DA
100
AcDbEntity
  8
0
100
AcDbCircle
 62
7
  6
CONTINUOUS
 10
5.7500279405
 20
4.2363516984
 40
0.015
100
AcDbArc
 50
225.0
 51
270.0
  0
ARC
  5
2DB
100
AcDbEntity
  8
0
100
AcDbCircle
 62
7
  6
CONTINUOUS
 10
5.9032869585
 20
4.2363516984
 40
0.015
100
AcDbArc
 50
270.0
 51
315.0
  0
ARC
  5
2DC
100
AcDbEntity
  8
0
100
AcDbCircle
 62
7
  6
CONTINUOUS
 10
6.0116574495
 20
4.3447221894
 40
0.015
100
AcDbArc
 50
315.0
 51
360.0
  0
ARC
  5
2DD
100
AcDbEntity
  8
0
100
AcDbCircle
 62
7
  6
CONTINUOUS
 10
6.0116574495
 20
4.4979812075
 40
0.015
100
AcDbArc
 50
0.0
 51
45.0
  0
ARC
  5
2DE
100
AcDbEntity
  8
0
100
AcDbCircle
 62
7
  6
CONTINUOUS
 10
5.9032869585
 20
4.6063516984
 40
0.015
100
AcDbArc
 50
45.0
 51
90.0
  0
ARC
  5
2DF
100
AcDbEntity
  8
0
100
AcDbCircle
 62
7
  6
CONTINUOUS
 10
5.7500279405
 20
4.6063516984
 40
0.015
100
AcDbArc
 50
90.0
 51
135.0
  0
ARC
  5
2E0
100
AcDbEntity
  8
0
100
AcDbCircle
 62
7
  6
CONTINUOUS
 10
5.6416574495
 20
4.4979812075
 40
0.015
100
AcDbArc
 50
135.0
 51
180.0
  0
ARC
  5
2E1
100
AcDbEntity
  8
0
100
AcDbCircle
 62
7
  6
CONTINUOUS
 10
5.6416574495
 20
4.3447221894
 40
0.015
100
AcDbArc
 50
180.0
 51
225.0
  0
SPLINE
  5
2E2
100
AcDbEntity
  8
ALL_FEATURES
100
AcDbSpline
 62
7
  6
CONTINUOUS
 70
0
 71
3
 72
18
 73
14
 74
0
 42
0.0000001
 43
0.0000001
 44
0.0000000001
 40
0.0
 40
0.0
 40
0.0
 40
0.0
 40
0.1249864211
 40
0.1874992904
 40
0.250006938
 40
0.3749947586
 40
0.4999848898
 40
0.5624932629
 40
0.625001107
 40
0.6875087646
 40
0.750014252
 40
0.8750101518
 40
1.0
 40
1.0
 40
1.0
 40
1.0
 10
6.4045615246
 20
4.7536225404
 30
0.0
 10
6.424361911
 20
4.7580176216
 30
0.0
 10
6.453791215
 20
4.765949359
 30
0.0
 10
6.492189108
 20
4.779074452
 30
0.0
 10
6.5299816195
 20
4.7938610317
 30
0.0
 10
6.5759710288
 20
4.8153784107
 30
0.0
 10
6.619988025
 20
4.8406796769
 30
0.0
 10
6.6538658676
 20
4.863017144
 30
0.0
 10
6.6785835966
 20
4.8807814201
 30
0.0
 10
6.7025783623
 20
4.8995092983
 30
0.0
 10
6.7335701213
 20
4.9257044632
 30
0.0
 10
6.7703890968
 20
4.9606471491
 30
0.0
 10
6.7976874709
 20
4.9907106369
 30
0.0
 10
6.8107733861
 20
5.0062075211
 30
0.0
  0
SPLINE
  5
2E3
100
AcDbEntity
  8
ALL_FEATURES
100
AcDbSpline
 62
7
  6
CONTINUOUS
 70
0
 71
3
 72
18
 73
14
 74
0
 42
0.0000001
 43
0.0000001
 44
0.0000000001
 40
0.0
 40
0.0
 40
0.0
 40
0.0
 40
0.1249864211
 40
0.1874992904
 40
0.250006938
 40
0.3749947586
 40
0.4999848898
 40
0.5624932629
 40
0.625001107
 40
0.6875087646
 40
0.750014252
 40
0.8750101518
 40
1.0
 40
1.0
 40
1.0
 40
1.0
 10
6.4045615246
 20
4.0890808564
 30
0.0
 10
6.424361911
 20
4.0846857752
 30
0.0
 10
6.453791215
 20
4.0767540379
 30
0.0
 10
6.492189108
 20
4.0636289448
 30
0.0
 10
6.5299816195
 20
4.0488423651
 30
0.0
 10
6.5759710288
 20
4.0273249862
 30
0.0
 10
6.619988025
 20
4.0020237199
 30
0.0
 10
6.6538658676
 20
3.9796862529
 30
0.0
 10
6.6785835966
 20
3.9619219767
 30
0.0
 10
6.7025783623
 20
3.9431940985
 30
0.0
 10
6.7335701213
 20
3.9169989337
 30
0.0
 10
6.7703890968
 20
3.8820562477
 30
0.0
 10
6.7976874709
 20
3.85199276
 30
0.0
 10
6.8107733861
 20
3.8364958757
 30
0.0
  0
SPLINE
  5
2E4
100
AcDbEntity
  8
ALL_FEATURES
100
AcDbSpline
 62
7
  6
CONTINUOUS
 70
0
 71
3
 72
15
 73
11
 74
0
 42
0.0000001
 43
0.0000001
 44
0.0000000001
 40
0.0
 40
0.0
 40
0.0
 40
0.0
 40
0.1383734478
 40
0.2739530449
 40
0.4060795075
 40
0.5342169768
 40
0.6579363348
 40
0.7769230932
 40
0.890981171
 40
1.0
 40
1.0
 40
1.0
 40
1.0
 10
6.4045615246
 20
4.5874871194
 30
0.0
 10
6.4242024666
 20
4.5896669641
 30
0.0
 10
6.4629949336
 20
4.594878177
 30
0.0
 10
6.520064473
 20
4.6053064973
 30
0.0
 10
6.575141135
 20
4.6181511081
 30
0.0
 10
6.6278809609
 20
4.6332601618
 30
0.0
 10
6.6779939074
 20
4.6504705433
 30
0.0
 10
6.7252411927
 20
4.6696111577
 30
0.0
 10
6.7694258499
 20
4.6905086251
 30
0.0
 10
6.7973764662
 20
4.7058470153
 30
0.0
 10
6.8107733861
 20
4.7137796098
 30
0.0
  0
SPLINE
  5
2E5
100
AcDbEntity
  8
ALL_FEATURES
100
AcDbSpline
 62
7
  6
CONTINUOUS
 70
0
 71
3
 72
15
 73
11
 74
0
 42
0.0000001
 43
0.0000001
 44
0.0000000001
 40
0.0
 40
0.0
 40
0.0
 40
0.0
 40
0.1383734478
 40
0.2739530449
 40
0.4060795075
 40
0.5342169768
 40
0.6579363348
 40
0.7769230932
 40
0.890981171
 40
1.0
 40
1.0
 40
1.0
 40
1.0
 10
6.4045615246
 20
4.2552162774
 30
0.0
 10
6.4242024666
 20
4.2530364327
 30
0.0
 10
6.4629949336
 20
4.2478252199
 30
0.0
 10
6.520064473
 20
4.2373968996
 30
0.0
 10
6.575141135
 20
4.2245522888
 30
0.0
 10
6.6278809609
 20
4.209443235
 30
0.0
 10
6.6779939074
 20
4.1922328535
 30
0.0
 10
6.7252411927
 20
4.1730922392
 30
0.0
 10
6.7694258499
 20
4.1521947717
 30
0.0
 10
6.7973764662
 20
4.1368563815
 30
0.0
 10
6.8107733861
 20
4.1289237871
 30
0.0
  0
SPLINE
  5
2E6
100
AcDbEntity
  8
0
100
AcDbSpline
 62
7
  6
CONTINUOUS
 70
0
 71
3
 72
21
 73
17
 74
0
 42
0.0000001
 43
0.0000001
 44
0.0000000001
 40
0.0
 40
0.0
 40
0.0
 40
0.0
 40
0.0697733453
 40
0.1376588387
 40
0.2038563974
 40
0.2685647171
 40
0.3319812992
 40
0.3943025196
 40
0.4557237397
 40
0.5164394619
 40
0.6365293097
 40
0.7561189988
 40
0.8162098399
 40
0.8767567602
 40
0.937954797
 40
1.0
 40
1.0
 40
1.0
 40
1.0
 10
6.2216574495
 20
4.0712209921
 30
0.0
 10
6.1615886371
 20
4.0756227053
 30
0.0
 10
6.0430388714
 20
4.0838045531
 30
0.0
 10
5.8673884171
 20
4.0944872723
 30
0.0
 10
5.6960280202
 20
4.1036010694
 30
0.0
 10
5.5284624039
 20
4.1113474254
 30
0.0
 10
5.3641960236
 20
4.1179279295
 30
0.0
 10
5.2027333188
 20
4.1235443448
 30
0.0
 10
5.0435786595
 20
4.1283983177
 30
0.0
 10
4.8345607674
 20
4.1341027069
 30
0.0
 10
4.5753287582
 20
4.1403718125
 30
0.0
 10
4.3166399571
 20
4.1468057203
 30
0.0
 10
4.1093573843
 20
4.1528261885
 30
0.0
 10
3.9524775446
 20
4.1580005693
 30
0.0
 10
3.7939396991
 20
4.1640289806
 30
0.0
 10
3.6876557783
 20
4.1687145917
 30
0.0
 10
3.6341574495
 20
4.1712583368
 30
0.0
  0
SPLINE
  5
2E7
100
AcDbEntity
  8
0
100
AcDbSpline
 62
7
  6
CONTINUOUS
 70
0
 71
3
 72
14
 73
10
 74
0
 42
0.0000001
 43
0.0000001
 44
0.0000000001
 40
0.0
 40
0.0
 40
0.0
 40
0.0
 40
0.1358675719
 40
0.2657842854
 40
0.3911864354
 40
0.5134957775
 40
0.7544763201
 40
0.8759627343
 40
1.0
 40
1.0
 40
1.0
 40
1.0
 10
6.0830112651
 20
4.7615200804
 30
0.0
 10
5.9724129993
 20
4.7541395787
 30
0.0
 10
5.7559462593
 20
4.7413673753
 30
0.0
 10
5.4371250298
 20
4.7269422246
 30
0.0
 10
5.1292237815
 20
4.7163556625
 30
0.0
 10
4.7306815719
 20
4.7055469647
 30
0.0
 10
4.3352857432
 20
4.6966708824
 30
0.0
 10
3.9385702106
 20
4.6843681072
 30
0.0
 10
3.7384269269
 20
4.676198266
 30
0.0
 10
3.6373475119
 20
4.6714095814
 30
0.0
  0
SPLINE
  5
2E8
100
AcDbEntity
  8
0
100
AcDbSpline
 62
7
  6
CONTINUOUS
 70
0
 71
3
 72
36
 73
32
 74
0
 42
0.0000001
 43
0.0000001
 44
0.0000000001
 40
0.0
 40
0.0
 40
0.0
 40
0.0
 40
0.2213871922
 40
0.3235039753
 40
0.4194607928
 40
0.5089297319
 40
0.5916457611
 40
0.6673682648
 40
0.7358536524
 40
0.7968618808
 40
0.850194655
 40
0.8739262583
 40
0.895671065
 40
0.9154063015
 40
0.9331091348
 40
0.9487578567
 40
0.9623401233
 40
0.9738480778
 40
0.9788217405
 40
0.9832738867
 40
0.9872035366
 40
0.9906097104
 40
0.9934914287
 40
0.9958477135
 40
0.9976775905
 40
0.9983948246
 40
0.9989800972
 40
0.9994332941
 40
0.9997543123
 40
0.9999430904
 40
1.0
 40
1.0
 40
1.0
 40
1.0
 10
6.6452239866
 20
4.9353620393
 30
0.0
 10
6.6522032937
 20
4.9408691357
 30
0.0
 10
6.6622938709
 20
4.9490545939
 30
0.0
 10
6.6751755618
 20
4.95990852
 30
0.0
 10
6.6839236029
 20
4.967445819
 30
0.0
 10
6.6920123132
 20
4.9745538651
 30
0.0
 10
6.6994312163
 20
4.981192522
 30
0.0
 10
6.7061718349
 20
4.9873250126
 30
0.0
 10
6.7122266708
 20
4.9929155276
 30
0.0
 10
6.7175903929
 20
4.9979289207
 30
0.0
 10
6.7216200931
 20
5.0017374826
 30
0.0
 10
6.7244930258
 20
5.004474421
 30
0.0
 10
6.7263847996
 20
5.0062852279
 30
0.0
 10
6.7280981184
 20
5.0079323392
 30
0.0
 10
6.7296321234
 20
5.0094127337
 30
0.0
 10
6.7309863721
 20
5.010723571
 30
0.0
 10
6.7321602111
 20
5.0118631014
 30
0.0
 10
6.7330251111
 20
5.0127054232
 30
0.0
 10
6.7336265087
 20
5.0132928026
 30
0.0
 10
6.7340098123
 20
5.0136679279
 30
0.0
 10
6.7343477636
 20
5.0139994095
 30
0.0
 10
6.7346403
 20
5.0142870965
 30
0.0
 10
6.7348874698
 20
5.0145309041
 30
0.0
 10
6.7350890104
 20
5.0147305515
 30
0.0
 10
6.7352288246
 20
5.0148696712
 30
0.0
 10
6.7353172148
 20
5.0149584687
 30
0.0
 10
6.735367725
 20
5.0150091371
 30
0.0
 10
6.7354036849
 20
5.0150466109
 30
0.0
 10
6.7354356465
 20
5.0150777567
 30
0.0
 10
6.7354425195
 20
5.0150886898
 30
0.0
 10
6.7354574646
 20
5.0151017165
 30
0.0
 10
6.7354551793
 20
5.0151016972
 30
0.0
  0
SPLINE
  5
2E9
100
AcDbEntity
  8
0
100
AcDbSpline
 62
7
  6
CONTINUOUS
 70
0
 71
3
 72
15
 73
11
 74
0
 42
0.0000001
 43
0.0000001
 44
0.0000000001
 40
0.0
 40
0.0
 40
0.0
 40
0.0
 40
0.1322010312
 40
0.2611230439
 40
0.3873372276
 40
0.5114521622
 40
0.6341076794
 40
0.7559666015
 40
0.8777047628
 40
1.0
 40
1.0
 40
1.0
 40
1.0
 10
6.6452239866
 20
4.9353620393
 30
0.0
 10
6.6289570091
 20
4.9232294191
 30
0.0
 10
6.5960877804
 20
4.9002339103
 30
0.0
 10
6.5452206368
 20
4.8693676194
 30
0.0
 10
6.4934670396
 20
4.8426056661
 30
0.0
 10
6.4408305487
 20
4.8199540882
 30
0.0
 10
6.3873134568
 20
4.8014165311
 30
0.0
 10
6.3329187168
 20
4.7869963218
 30
0.0
 10
6.27765497
 20
4.7766958193
 30
0.0
 10
6.2403799842
 20
4.7725917676
 30
0.0
 10
6.2216574495
 20
4.7712208455
 30
0.0
  0
SPLINE
  5
2EA
100
AcDbEntity
  8
0
100
AcDbSpline
 62
7
  6
CONTINUOUS
 70
0
 71
3
 72
26
 73
22
 74
0
 42
0.0000001
 43
0.0000001
 44
0.0000000001
 40
0.0
 40
0.0
 40
0.0
 40
0.0
 40
0.062538972
 40
0.1250768337
 40
0.1875482695
 40
0.2499778925
 40
0.2811939847
 40
0.312405441
 40
0.3436125716
 40
0.3748165748
 40
0.4372034512
 40
0.4995984024
 40
0.5620127723
 40
0.6244570412
 40
0.6869407147
 40
0.7182090189
 40
0.7494878781
 40
0.8120556632
 40
0.8746718098
 40
0.9373474701
 40
1.0
 40
1.0
 40
1.0
 40
1.0
 10
3.6341574495
 20
4.4211648704
 30
0.0
 10
3.6206550512
 20
4.42116535
 30
0.0
 10
3.5936320625
 20
4.4198340735
 30
0.0
 10
3.5535158303
 20
4.4138867664
 30
0.0
 10
3.5141981628
 20
4.4040346251
 30
0.0
 10
3.4824070185
 20
4.3926592552
 30
0.0
 10
3.4577538537
 20
4.3817328056
 30
0.0
 10
3.4396867129
 20
4.3726440248
 30
0.0
 10
3.4220890584
 20
4.3626817199
 30
0.0
 10
3.399313505
 20
4.3482682395
 30
0.0
 10
3.3722050721
 20
4.3281857647
 30
0.0
 10
3.342197106
 20
4.3010175844
 30
0.0
 10
3.3149780645
 20
4.2710356402
 30
0.0
 10
3.2908193904
 20
4.2385160948
 30
0.0
 10
3.2734248909
 20
4.2095562075
 30
0.0
 10
3.2612644036
 20
4.1854452559
 30
0.0
 10
3.2502912646
 20
4.1607513792
 30
0.0
 10
3.2388651864
 20
4.128898935
 30
0.0
 10
3.2289682937
 20
4.0894983064
 30
0.0
 10
3.2229950508
 20
4.0492990643
 30
0.0
 10
3.2216574495
 20
4.0222217569
 30
0.0
 10
3.2216574495
 20
4.0086948409
 30
0.0
  0
SPLINE
  5
2EB
100
AcDbEntity
  8
0
100
AcDbSpline
 62
7
  6
CONTINUOUS
 70
0
 71
3
 72
27
 73
23
 74
0
 42
0.0000001
 43
0.0000001
 44
0.0000000001
 40
0.0
 40
0.0
 40
0.0
 40
0.0
 40
0.0624708127
 40
0.1249798834
 40
0.1874647819
 40
0.2499438167
 40
0.2811948225
 40
0.3124467677
 40
0.3436989487
 40
0.3749514727
 40
0.4374398649
 40
0.4999300042
 40
0.562422108
 40
0.6249167568
 40
0.6561748721
 40
0.6874344398
 40
0.7186953584
 40
0.749956679
 40
0.8124590332
 40
0.8749707328
 40
0.9375047909
 40
1.0
 40
1.0
 40
1.0
 40
1.0
 10
3.6341574495
 20
4.671258232
 30
0.0
 10
3.6132874153
 20
4.6702666424
 30
0.0
 10
3.5716036082
 20
4.666244139
 30
0.0
 10
3.5099773527
 20
4.6541993382
 30
0.0
 10
3.4498022093
 20
4.6362392871
 30
0.0
 10
3.401332891
 20
4.6164991896
 30
0.0
 10
3.3638496777
 20
4.5979677016
 30
0.0
 10
3.3364304576
 20
4.5827290063
 30
0.0
 10
3.3097775831
 20
4.5661853954
 30
0.0
 10
3.275351012
 20
4.542446795
 30
0.0
 10
3.2345099974
 20
4.5097138427
 30
0.0
 10
3.1895043374
 20
4.4659231273
 30
0.0
 10
3.1488768528
 20
4.4180405446
 30
0.0
 10
3.1189716395
 20
4.3750822167
 30
0.0
 10
3.0975749259
 20
4.3391462
 30
0.0
 10
3.0828207576
 20
4.3114547448
 30
0.0
 10
3.0693914255
 20
4.2830961558
 30
0.0
 10
3.0532871215
 20
4.2444929681
 30
0.0
 10
3.0365907384
 20
4.1948765731
 30
0.0
 10
3.0222046411
 20
4.1337298556
 30
0.0
 10
3.0135680385
 20
4.0715167091
 30
0.0
 10
3.0116462891
 20
4.0296750497
 30
0.0
 10
3.0116462891
 20
4.0087733129
 30
0.0
  0
SPLINE
  5
2EC
100
AcDbEntity
  8
0
100
AcDbSpline
 62
7
  6
CONTINUOUS
 70
0
 71
3
 72
23
 73
19
 74
0
 42
0.0000001
 43
0.0000001
 44
0.0000000001
 40
0.0
 40
0.0
 40
0.0
 40
0.0
 40
0.0626344507
 40
0.1252188948
 40
0.1877264804
 40
0.2501452127
 40
0.3124992425
 40
0.3748308425
 40
0.4371539773
 40
0.4994983314
 40
0.5618728825
 40
0.6242970862
 40
0.6867727592
 40
0.7493063559
 40
0.811892666
 40
0.874548783
 40
0.9373002805
 40
1.0
 40
1.0
 40
1.0
 40
1.0
 10
3.6315835409
 20
4.171369795
 30
0.0
 10
3.6255597564
 20
4.1716049322
 30
0.0
 10
3.6134988343
 20
4.1717127735
 30
0.0
 10
3.5954468453
 20
4.1706486682
 30
0.0
 10
3.5775456939
 20
4.168208815
 30
0.0
 10
3.5599259556
 20
4.1643046565
 30
0.0
 10
3.5427335956
 20
4.1588621117
 30
0.0
 10
3.5261313974
 20
4.151839534
 30
0.0
 10
3.5102879342
 20
4.1432384335
 30
0.0
 10
3.4953871507
 20
4.1330806437
 30
0.0
 10
3.4816087006
 20
4.1214280316
 30
0.0
 10
3.4691401052
 20
4.1083633657
 30
0.0
 10
3.4581590323
 20
4.094004356
 30
0.0
 10
3.4488417512
 20
4.0784934746
 30
0.0
 10
3.4413499463
 20
4.0620022966
 30
0.0
 10
3.4358355541
 20
4.0447233796
 30
0.0
 10
3.4324468545
 20
4.0268950836
 30
0.0
 10
3.4316686099
 20
4.0148079668
 30
0.0
 10
3.4316686099
 20
4.0087733129
 30
0.0
  0
SPLINE
  5
2ED
100
AcDbEntity
  8
0
100
AcDbSpline
 62
7
  6
CONTINUOUS
 70
0
 71
3
 72
11
 73
7
 74
0
 42
0.0000001
 43
0.0000001
 44
0.0000000001
 40
0.0
 40
0.0
 40
0.0
 40
0.0
 40
0.2494891265
 40
0.4985151748
 40
0.7482749676
 40
1.0
 40
1.0
 40
1.0
 40
1.0
 10
6.6452239866
 20
3.9069570877
 30
0.0
 10
6.6494230243
 20
3.910262963
 30
0.0
 10
6.6575746398
 20
3.9171787526
 30
0.0
 10
6.6689974437
 20
3.9284439158
 30
0.0
 10
6.679568323
 20
3.940575952
 30
0.0
 10
6.6859992442
 20
3.9491953538
 30
0.0
 10
6.6890607019
 20
3.9536340945
 30
0.0
  0
SPLINE
  5
2EE
100
AcDbEntity
  8
0
100
AcDbSpline
 62
7
  6
CONTINUOUS
 70
0
 71
3
 72
15
 73
11
 74
0
 42
0.0000001
 43
0.0000001
 44
0.0000000001
 40
0.0
 40
0.0
 40
0.0
 40
0.0
 40
0.1320745719
 40
0.2611608077
 40
0.3877118094
 40
0.5122083625
 40
0.635155357
 40
0.7570769349
 40
0.8785105169
 40
1.0
 40
1.0
 40
1.0
 40
1.0
 10
6.6452239866
 20
3.9069570877
 30
0.0
 10
6.6306242321
 20
3.9178543611
 30
0.0
 10
6.601159839
 20
3.9386202998
 30
0.0
 10
6.5557072232
 20
3.9668592565
 30
0.0
 10
6.5095454564
 20
3.9918006027
 30
0.0
 10
6.4626767276
 20
4.0134405949
 30
0.0
 10
6.4151020422
 20
4.0317770766
 30
0.0
 10
6.366822645
 20
4.0468079131
 30
0.0
 10
6.3178438877
 20
4.058531088
 30
0.0
 10
6.2847767764
 20
4.0641321576
 30
0.0
 10
6.2681699935
 20
4.0663792408
 30
0.0
  0
SPLINE
  5
2EF
100
AcDbEntity
  8
0
100
AcDbSpline
 62
7
  6
CONTINUOUS
 70
0
 71
3
 72
19
 73
15
 74
0
 42
0.0000001
 43
0.0000001
 44
0.0000000001
 40
0.0
 40
0.0
 40
0.0
 40
0.0
 40
0.0075272265
 40
0.0230026849
 40
0.0463692478
 40
0.0775678629
 40
0.1164885275
 40
0.1629665616
 40
0.2168353414
 40
0.277928388
 40
0.4209857288
 40
0.5903847571
 40
0.7841818689
 40
1.0
 40
1.0
 40
1.0
 40
1.0
 10
6.7353855358
 20
3.8276642432
 30
0.0
 10
6.7351654537
 20
3.8278701527
 30
0.0
 10
6.7345029963
 20
3.8285100893
 30
0.0
 10
6.7331634235
 20
3.829795559
 30
0.0
 10
6.7311416389
 20
3.831739059
 30
0.0
 10
6.7284385933
 20
3.834328398
 30
0.0
 10
6.7250598105
 20
3.8375500529
 30
0.0
 10
6.721008892
 20
3.8413821066
 30
0.0
 10
6.7162925054
 20
3.8458024557
 30
0.0
 10
6.7087187313
 20
3.8528287427
 30
0.0
 10
6.6976570349
 20
3.8628965623
 30
0.0
 10
6.6824494182
 20
3.8763000665
 30
0.0
 10
6.6647684028
 20
3.8912978613
 30
0.0
 10
6.6520135889
 20
3.9016116775
 30
0.0
 10
6.6452239866
 20
3.9069570877
 30
0.0
  0
SPLINE
  5
2F0
100
AcDbEntity
  8
0
100
AcDbSpline
 62
7
  6
CONTINUOUS
 70
0
 71
3
 72
11
 73
7
 74
0
 42
0.0000001
 43
0.0000001
 44
0.0000000001
 40
0.0
 40
0.0
 40
0.0
 40
0.0
 40
0.2517134188
 40
0.5014817329
 40
0.7505176389
 40
1.0
 40
1.0
 40
1.0
 40
1.0
 10
6.6888462846
 20
4.8889062972
 30
0.0
 10
6.6857956211
 20
4.8933203468
 30
0.0
 10
6.6793899762
 20
4.901893113
 30
0.0
 10
6.6688683703
 20
4.9139642779
 30
0.0
 10
6.657504955
 20
4.9251786937
 30
0.0
 10
6.6493989168
 20
4.9320677663
 30
0.0
 10
6.6452239866
 20
4.9353620393
 30
0.0
  0
ELLIPSE
  5
2F1
100
AcDbEntity
  8
ALL_FEATURES
100
AcDbEllipse
 62
7
  6
CONTINUOUS
 10
6.3169080643
 20
4.4213516984
 30
0.0
 11
0.0
 21
0.59375
 31
0.0
 40
0.9750549296
 41
-2.0943951024
 42
-1.0471975512
  0
ELLIPSE
  5
2F2
100
AcDbEntity
  8
ALL_FEATURES
100
AcDbEllipse
 62
7
  6
CONTINUOUS
 10
6.3169080643
 20
4.4213516984
 30
0.0
 11
0.5581047699
 21
0.5746235355
 31
0.0
 40
0.2678505055
 41
-0.7926884546
 42
0.2545090966
  0
ELLIPSE
  5
2F3
100
AcDbEntity
  8
ALL_FEATURES
100
AcDbEllipse
 62
7
  6
CONTINUOUS
 10
6.3169080643
 20
4.4213516984
 30
0.0
 11
0.5581047699
 21
-0.5746235355
 31
0.0
 40
0.2678505055
 41
-0.2545090966
 42
0.7926884546
  0
ENDSEC
  0
SECTION
  2
OBJECTS
  0
DICTIONARY
  5
C
100
AcDbDictionary
280
0
281
1
  3
ACAD_GROUP
350
D
  3
ACAD_MLINESTYLE
350
17
  3
ACAD_LAYOUT
350
1A
  3
ACAD_PLOTSETTINGS
350
19
  3
ACAD_PLOTSTYLENAME
350
E
  0
DICTIONARY
  5
D
102
{ACAD_REACTORS
330
C
102
}
100
AcDbDictionary
280
0
281
1
  0
ACDBDICTIONARYWDFLT
  5
E
102
{ACAD_REACTORS
330
C
102
}
100
AcDbDictionary
281
1
  3
Normal
350
F
100
AcDbDictionaryWithDefault
340
F
  0
DICTIONARY
  5
17
102
{ACAD_REACTORS
330
C
102
}
100
AcDbDictionary
280
0
281
1
  3
Standard
350
18
  0
DICTIONARY
  5
19
102
{ACAD_REACTORS
330
C
102
}
100
AcDbDictionary
281
1
  0
DICTIONARY
  5
1A
102
{ACAD_REACTORS
330
C
102
}
100
AcDbDictionary
281
1
  3
Model
350
2F4
  3
Layout1
350
2F5
  0
ACDBPLACEHOLDER
  5
F
102
{ACAD_REACTORS
330
E
102
}
  0
MLINESTYLE
  5
18
102
{ACAD_REACTORS
330
17
102
}
100
AcDbMlineStyle
  2
STANDARD
 70
0
  3

 62
256
 51
90.0
 52
90.0
 71
2
 49
0.5
 62
256
  6
BYLAYER
 49
-0.5
 62
256
  6
BYLAYER
  0
LAYOUT
  5
2F4
102
{ACAD_REACTORS
330
1A
102
}
100
AcDbPlotSettings
  1

  2
none_device
  4
ANSI_A_(11.00_x_8.50_Inches)
  6

 40
0.0
 41
0.0
 42
0.0
 43
0.0
 44
279.4
 45
215.9
 46
0.0
 47
0.0
 48
0.0
 49
0.0
140
0.0
141
0.0
142
1.0
143
1.0
 70
1024
 72
0
 73
0
 74
0
  7

 75
0
147
1.0
148
0.0
149
0.0
100
AcDbLayout
  1
Model
 70
0
 71
0
 10
0.0
 20
0.0
 11
11.0
 21
8.5
 12
0.0
 22
0.0
 32
0.0
 14
0.0
 24
0.0
 34
0.0
 15
0.0
 25
0.0
 35
0.0
146
0.0
 13
0.0
 23
0.0
 33
0.0
 16
1.0
 26
0.0
 36
0.0
 17
0.0
 27
1.0
 37
0.0
 76
0
330
217
345
0
346
0
  0
LAYOUT
  5
2F5
102
{ACAD_REACTORS
330
1A
102
}
100
AcDbPlotSettings
  1

  2
none_device
  4
ANSI_A_(11.00_x_8.50_Inches)
  6

 40
0.0
 41
0.0
 42
0.0
 43
0.0
 44
279.4
 45
215.9
 46
0.0
 47
0.0
 48
0.0
 49
0.0
140
0.0
141
0.0
142
1.0
143
1.0
 70
0
 72
0
 73
0
 74
0
  7

 75
0
147
1.0
148
0.0
149
0.0
100
AcDbLayout
  1
Layout1
 70
0
 71
1
 10
0.0
 20
0.0
 11
11.0
 21
8.5
 12
0.0
 22
0.0
 32
0.0
 14
0.0
 24
0.0
 34
0.0
 15
0.0
 25
0.0
 35
0.0
146
0.0
 13
0.0
 23
0.0
 33
0.0
 16
1.0
 26
0.0
 36
0.0
 17
0.0
 27
1.0
 37
0.0
 76
0
330
218
345
0
346
0
  0
ENDSEC
  0
EOF
