999
DXF file: 3-1231_TOP.dxf
999
Pro/ENGINEER 2018400 by Parametric Technology Corporation
  0
SECTION
  2
HEADER
  9
$ACADVER
  1
AC1027
  9
$DWGCODEPAGE
  3
ANSI_1252
  9
$EXTMAX
 10
11.0
 20
8.5
 30
0.0
  9
$EXTMIN
 10
0.0
 20
0.0
 30
0.0
  9
$LIMMIN
 10
0.0
 20
0.0
  9
$LIMMAX
 10
11.0
 20
8.5
  9
$VIEWCTR
 10
5.5
 20
4.25
  9
$VIEWSIZE
 40
8.5
  9
$CLAYER
  8
0
  9
$LTSCALE
 40
0.605
  9
$CELTYPE
  6
BYLAYER
  9
$DIMSCALE
 40
1.0
  9
$DIMASZ
 40
0.1
  9
$DIMEXO
 40
0.0625
  9
$DIMDLI
 40
0.418
  9
$DIMEXE
 40
0.125
  9
$DIMCEN
 40
0.099
  9
$DIMLFAC
 40
1.0
  9
$DIMBLK
  1
_FILLED
  9
$DIMALT
 70
1
  9
$DIMALTD
 70
2
  9
$DIMALTTD
 70
2
  9
$DIMALTF
 40
25.4
  9
$DIMTXT
 40
0.08
  9
$DIMTOL
 70
1
  9
$DIMLIM
 70
0
  9
$DIMTFAC
 40
1.0
  9
$DIMTP
 40
0.001
  9
$DIMTM
 40
0.001
  9
$DIMGAP
 40
0.09
  9
$DIMDSEP
 70
46
  9
$AUNITS
 70
0
  9
$PDMODE
 70
3
  9
$PDSIZE
 40
0.3125
  9
$HANDSEED
  5
37B
  9
$TILEMODE
 70
1
  9
$MEASUREMENT
 70
0
  9
$INSUNITS
 70
1
  0
ENDSEC
  0
SECTION
  2
CLASSES
  0
CLASS
  1
ACDBDICTIONARYWDFLT
  2
AcDbDictionaryWithDefault
  3
AutoCAD 2000
 90
0
 91
1
280
0
281
0
  0
CLASS
  1
ACDBPLACEHOLDER
  2
AcDbPlaceHolder
  3
AutoCAD 2000
 90
0
 91
1
280
0
281
0
  0
CLASS
  1
LAYOUT
  2
AcDbLayout
  3
AutoCAD 2000
 90
0
 91
0
280
0
281
0
  0
ENDSEC
  0
SECTION
  2
TABLES
  0
TABLE
  2
VPORT
  5
8
100
AcDbSymbolTable
 70
2
  0
VPORT
  5
1F4
100
AcDbSymbolTableRecord
100
AcDbViewportTableRecord
  2
*ACTIVE
 70
0
 10
0.0
 20
0.0
 11
1.0
 21
1.0
 12
5.5
 22
4.25
 13
0.0
 23
0.0
 14
1.0
 24
1.0
 15
0.0
 25
0.0
 16
0.0
 26
0.0
 36
1.0
 17
0.0
 27
0.0
 37
0.0
 40
8.5
 41
1.2941176471
 42
50.0
 43
0.0
 44
0.0
 50
0.0
 51
0.0
 71
0
 72
100
 73
1
 74
1
 75
0
 76
0
 77
0
 78
0
  0
ENDTAB
  0
TABLE
  2
LTYPE
  5
5
100
AcDbSymbolTable
 70
6
  0
LTYPE
  5
14
100
AcDbSymbolTableRecord
100
AcDbLinetypeTableRecord
  2
BYBLOCK
 70
0
  3

 72
65
 73
0
 40
0.0
  0
LTYPE
  5
15
100
AcDbSymbolTableRecord
100
AcDbLinetypeTableRecord
  2
BYLAYER
 70
0
  3

 72
65
 73
0
 40
0.0
  0
LTYPE
  5
16
100
AcDbSymbolTableRecord
100
AcDbLinetypeTableRecord
  2
CONTINUOUS
 70
64
  3
Solid line
 72
65
 73
0
 40
0.0
  0
LTYPE
  5
1F5
100
AcDbSymbolTableRecord
100
AcDbLinetypeTableRecord
  2
CENTER
 70
64
  3
____ _ ____ _ ____ _ ____ _ ____ _ ____ _ ____
 72
65
 73
4
 40
0.6
 49
0.375
 74
0
 49
-0.075
 74
0
 49
0.075
 74
0
 49
-0.075
 74
0
  0
LTYPE
  5
1F6
100
AcDbSymbolTableRecord
100
AcDbLinetypeTableRecord
  2
HIDDEN
 70
64
  3
- - - - - - - - - - - - - - - - - - - -
 72
65
 73
2
 40
0.2
 49
0.1
 74
0
 49
-0.1
 74
0
  0
LTYPE
  5
1F7
100
AcDbSymbolTableRecord
100
AcDbLinetypeTableRecord
  2
PHANTOM
 70
64
  3
_____ _ _ _____ _ _ _____ _ _ _____
 72
65
 73
6
 40
0.8
 49
0.45
 74
0
 49
-0.05
 74
0
 49
0.1
 74
0
 49
-0.05
 74
0
 49
0.1
 74
0
 49
-0.05
 74
0
  0
LTYPE
  5
1F8
100
AcDbSymbolTableRecord
100
AcDbLinetypeTableRecord
  2
DOT
 70
64
  3
. . . . . . . . . . . . . . . . . . . .
 72
65
 73
2
 40
0.2
 49
0.1
 74
0
 49
-0.1
 74
0
  0
LTYPE
  5
1F9
100
AcDbSymbolTableRecord
100
AcDbLinetypeTableRecord
  2
DASHED
 70
64
  3
- - - - - - - - - - - - - - - - - - - -
 72
65
 73
2
 40
0.2
 49
0.1
 74
0
 49
-0.1
 74
0
  0
ENDTAB
  0
TABLE
  2
LAYER
  5
2
100
AcDbSymbolTable
 70
36
  0
LAYER
  5
10
100
AcDbSymbolTableRecord
100
AcDbLayerTableRecord
  2
0
 70
0
 62
7
  6
CONTINUOUS
370
-3
390
F
  0
LAYER
  5
1FA
100
AcDbSymbolTableRecord
100
AcDbLayerTableRecord
  2
DEFAULT_1
 70
0
 62
7
  6
CENTER
370
-3
390
F
  0
LAYER
  5
1FB
100
AcDbSymbolTableRecord
100
AcDbLayerTableRecord
  2
DEFAULT_2
 70
0
 62
8
  6
HIDDEN
370
-3
390
F
  0
LAYER
  5
1FC
100
AcDbSymbolTableRecord
100
AcDbLayerTableRecord
  2
DEFAULT_3
 70
0
 62
7
  6
PHANTOM
370
-3
390
F
  0
LAYER
  5
1FD
100
AcDbSymbolTableRecord
100
AcDbLayerTableRecord
  2
ALL_ASSEMBLY_MEMBERS
 70
0
 62
7
  6
CONTINUOUS
370
-3
390
F
  0
LAYER
  5
1FE
100
AcDbSymbolTableRecord
100
AcDbLayerTableRecord
  2
ALL_FEATURES
 70
0
 62
7
  6
CONTINUOUS
370
-3
390
F
  0
LAYER
  5
1FF
100
AcDbSymbolTableRecord
100
AcDbLayerTableRecord
  2
AXES_FEATURES
 70
0
 62
7
  6
CONTINUOUS
370
-3
390
F
  0
LAYER
  5
200
100
AcDbSymbolTableRecord
100
AcDbLayerTableRecord
  2
CHAMFER_FEATURES
 70
0
 62
7
  6
CONTINUOUS
370
-3
390
F
  0
LAYER
  5
201
100
AcDbSymbolTableRecord
100
AcDbLayerTableRecord
  2
COSMETIC
 70
0
 62
7
  6
CONTINUOUS
370
-3
390
F
  0
LAYER
  5
202
100
AcDbSymbolTableRecord
100
AcDbLayerTableRecord
  2
CURVE
 70
0
 62
7
  6
CONTINUOUS
370
-3
390
F
  0
LAYER
  5
203
100
AcDbSymbolTableRecord
100
AcDbLayerTableRecord
  2
CUT_FEATURES
 70
0
 62
7
  6
CONTINUOUS
370
-3
390
F
  0
LAYER
  5
204
100
AcDbSymbolTableRecord
100
AcDbLayerTableRecord
  2
DATUM_CURVES
 70
0
 62
7
  6
CONTINUOUS
370
-3
390
F
  0
LAYER
  5
205
100
AcDbSymbolTableRecord
100
AcDbLayerTableRecord
  2
DATUM_PLANES
 70
0
 62
7
  6
CONTINUOUS
370
-3
390
F
  0
LAYER
  5
206
100
AcDbSymbolTableRecord
100
AcDbLayerTableRecord
  2
DATUM_POINTS
 70
0
 62
7
  6
CONTINUOUS
370
-3
390
F
  0
LAYER
  5
207
100
AcDbSymbolTableRecord
100
AcDbLayerTableRecord
  2
DEFAULT_COORDINATE_SYSTEM
 70
0
 62
7
  6
CONTINUOUS
370
-3
390
F
  0
LAYER
  5
208
100
AcDbSymbolTableRecord
100
AcDbLayerTableRecord
  2
DEFAULT_DATUM_AXES
 70
0
 62
7
  6
CONTINUOUS
370
-3
390
F
  0
LAYER
  5
209
100
AcDbSymbolTableRecord
100
AcDbLayerTableRecord
  2
DEFAULT_DATUM_CURVES
 70
0
 62
7
  6
CONTINUOUS
370
-3
390
F
  0
LAYER
  5
20A
100
AcDbSymbolTableRecord
100
AcDbLayerTableRecord
  2
DEFAULT_DATUM_PLANES
 70
0
 62
7
  6
CONTINUOUS
370
-3
390
F
  0
LAYER
  5
20B
100
AcDbSymbolTableRecord
100
AcDbLayerTableRecord
  2
DEFAULT_SURFACES
 70
0
 62
7
  6
CONTINUOUS
370
-3
390
F
  0
LAYER
  5
20C
100
AcDbSymbolTableRecord
100
AcDbLayerTableRecord
  2
DIMENSIONS
 70
0
 62
7
  6
CONTINUOUS
370
-3
390
F
  0
LAYER
  5
20D
100
AcDbSymbolTableRecord
100
AcDbLayerTableRecord
  2
HOLE_FEATURES
 70
0
 62
7
  6
CONTINUOUS
370
-3
390
F
  0
LAYER
  5
20E
100
AcDbSymbolTableRecord
100
AcDbLayerTableRecord
  2
MAGENTA
 70
0
 62
7
  6
CONTINUOUS
370
-3
390
F
  0
LAYER
  5
20F
100
AcDbSymbolTableRecord
100
AcDbLayerTableRecord
  2
NOTES
 70
0
 62
7
  6
CONTINUOUS
370
-3
390
F
  0
LAYER
  5
210
100
AcDbSymbolTableRecord
100
AcDbLayerTableRecord
  2
POINTS
 70
0
 62
7
  6
CONTINUOUS
370
-3
390
F
  0
LAYER
  5
211
100
AcDbSymbolTableRecord
100
AcDbLayerTableRecord
  2
PROTRUSION_FEATURES
 70
0
 62
7
  6
CONTINUOUS
370
-3
390
F
  0
LAYER
  5
212
100
AcDbSymbolTableRecord
100
AcDbLayerTableRecord
  2
QUILT
 70
0
 62
7
  6
CONTINUOUS
370
-3
390
F
  0
LAYER
  5
213
100
AcDbSymbolTableRecord
100
AcDbLayerTableRecord
  2
WHITE
 70
0
 62
7
  6
CONTINUOUS
370
-3
390
F
  0
LAYER
  5
214
100
AcDbSymbolTableRecord
100
AcDbLayerTableRecord
  2
XSEC_DATUMS
 70
0
 62
7
  6
CONTINUOUS
370
-3
390
F
  0
ENDTAB
  0
TABLE
  2
STYLE
  5
3
100
AcDbSymbolTable
 70
1
  0
STYLE
  5
11
100
AcDbSymbolTableRecord
100
AcDbTextStyleTableRecord
  2
STANDARD
 70
0
 40
0.0
 41
0.8
 50
0.0
 71
0
 42
0.2
  3
txt
  4

  0
STYLE
  5
215
100
AcDbSymbolTableRecord
100
AcDbTextStyleTableRecord
  2
TEXTSTYLE_1
 70
0
 40
0.0
 41
0.8
 50
0.0
 71
0
 42
0.2
  3
gdt
  4

  0
ENDTAB
  0
TABLE
  2
VIEW
  5
6
100
AcDbSymbolTable
 70
0
  0
ENDTAB
  0
TABLE
  2
UCS
  5
7
100
AcDbSymbolTable
 70
0
  0
ENDTAB
  0
TABLE
  2
APPID
  5
9
100
AcDbSymbolTable
 70
1
  0
APPID
  5
216
100
AcDbSymbolTableRecord
100
AcDbRegAppTableRecord
  2
ACAD
 70
0
  0
ENDTAB
  0
TABLE
  2
BLOCK_RECORD
  5
1
100
AcDbSymbolTable
 70
0
  0
BLOCK_RECORD
  5
217
100
AcDbSymbolTableRecord
100
AcDbBlockTableRecord
  2
*Model_Space
  0
BLOCK_RECORD
  5
218
100
AcDbSymbolTableRecord
100
AcDbBlockTableRecord
  2
*Paper_Space
  0
BLOCK_RECORD
  5
219
100
AcDbSymbolTableRecord
100
AcDbBlockTableRecord
  2
_FILLED
  0
ENDTAB
  0
TABLE
  2
DIMSTYLE
  5
A
100
AcDbSymbolTable
 70
1
100
AcDbDimStyleTable
 71
0
  0
DIMSTYLE
105
21A
100
AcDbSymbolTableRecord
100
AcDbDimStyleTableRecord
  2
STANDARD
 70
0
  3

  4

 40
1.0
 41
0.1
 42
0.0625
 43
0.38
 44
0.125
 45
0.0
 46
0.0
 47
0.001
 48
0.001
140
0.08
141
0.09
142
0.0
143
25.4
144
1.0
145
0.0
146
1.0
147
0.09
 71
1.0
 72
0.0
 73
1
 74
1
 75
0
 76
0
 77
0
 78
4
 79
1
170
1
171
2
172
0
173
0
174
0
175
0
176
0
177
0
178
0
270
2
179
3
271
3
272
3
273
2
274
2
275
0
280
0
281
0
282
0
283
1
284
4
285
0
286
0
287
3
288
0
340
11
278
46
341
219
342
219
343
219
344
219
  0
ENDTAB
  0
ENDSEC
  0
SECTION
  2
BLOCKS
  0
BLOCK
  5
20
100
AcDbEntity
  8
0
100
AcDbBlockBegin
  2
*Model_Space
 70
0
 10
0.0
 20
0.0
 30
0.0
  3
*Model_Space
  1

  0
ENDBLK
  5
21
100
AcDbEntity
  8
0
100
AcDbBlockEnd
  0
BLOCK
  5
1C
100
AcDbEntity
  8
0
100
AcDbBlockBegin
  2
*Paper_Space
 70
0
 10
0.0
 20
0.0
 30
0.0
  3
*Paper_Space
  1

  0
ENDBLK
  5
1D
100
AcDbEntity
  8
0
100
AcDbBlockEnd
  0
BLOCK
  5
21B
100
AcDbEntity
  8
0
100
AcDbBlockBegin
  2
_FILLED
 70
64
 10
0.0
 20
0.0
  3
_FILLED
  1

  0
SOLID
  5
21C
100
AcDbEntity
  8
0
  6
BYBLOCK
 62
0
100
AcDbTrace
 10
0.0
 20
0.0
 11
-1.0
 21
0.2
 12
-1.0
 22
-0.2
 13
-1.0
 23
-0.2
  0
ENDBLK
  5
21D
100
AcDbEntity
  8
0
  6
BYBLOCK
 62
0
100
AcDbBlockEnd
  0
ENDSEC
  0
SECTION
  2
ENTITIES
  0
MTEXT
  5
21E
100
AcDbEntity
  8
0
100
AcDbMText
 62
2
  6
CONTINUOUS
  7
STANDARD
 71
3
 72
1
 10
4.133753882
 20
1.2767431716
 30
0.0
 11
1.0
 21
0.0
 31
0.0
 73
2
 44
0.9
  1
SCALE  .500
 40
0.08
 41
0.704
  0
LINE
  5
21F
100
AcDbEntity
  8
0
100
AcDbLine
 62
7
  6
CONTINUOUS
 10
0.0
 20
0.0
 11
0.0
 21
8.5
  0
LINE
  5
220
100
AcDbEntity
  8
0
100
AcDbLine
 62
7
  6
CONTINUOUS
 10
0.0
 20
0.0
 11
11.0
 21
0.0
  0
LINE
  5
221
100
AcDbEntity
  8
0
100
AcDbLine
 62
7
  6
CONTINUOUS
 10
0.0
 20
8.5
 11
11.0
 21
8.5
  0
LINE
  5
222
100
AcDbEntity
  8
0
100
AcDbLine
 62
7
  6
CONTINUOUS
 10
11.0
 20
0.0
 11
11.0
 21
8.5
  0
LINE
  5
223
100
AcDbEntity
  8
0
100
AcDbLine
 62
7
  6
CONTINUOUS
 10
1.3981551781
 20
5.0681739062
 11
1.3981551781
 21
5.1765443972
  0
LINE
  5
224
100
AcDbEntity
  8
0
100
AcDbLine
 62
7
  6
CONTINUOUS
 10
1.3981551781
 20
5.1802686237
 11
1.3981551781
 21
5.3335276418
  0
LINE
  5
225
100
AcDbEntity
  8
0
100
AcDbLine
 62
7
  6
CONTINUOUS
 10
1.3981551781
 20
5.3372518683
 11
1.3981551781
 21
5.4456223592
  0
LINE
  5
226
100
AcDbEntity
  8
0
100
AcDbLine
 62
7
  6
CONTINUOUS
 10
1.3287801781
 20
5.2621649844
 11
1.3981551781
 21
5.4471649844
  0
LINE
  5
227
100
AcDbEntity
  8
0
100
AcDbLine
 62
7
  6
CONTINUOUS
 10
1.3287801781
 20
5.2606223592
 11
1.3981551781
 21
5.4456223592
  0
LINE
  5
228
100
AcDbEntity
  8
0
100
AcDbLine
 62
7
  6
CONTINUOUS
 10
1.4122001157
 20
5.0568981327
 11
1.4122001157
 21
5.4568981327
  0
LINE
  5
229
100
AcDbEntity
  8
0
100
AcDbLine
 62
7
  6
CONTINUOUS
 10
1.4418051087
 20
5.4868962585
 11
1.4418051087
 21
5.0269000069
  0
LINE
  5
22A
100
AcDbEntity
  8
0
100
AcDbLine
 62
7
  6
CONTINUOUS
 10
1.4568051087
 20
5.5018981327
 11
1.4568051087
 21
5.0118981327
  0
LINE
  5
22B
100
AcDbEntity
  8
0
100
AcDbLine
 62
7
  6
CONTINUOUS
 10
1.4918051087
 20
5.0093981327
 11
1.4918051087
 21
5.5043981327
  0
LINE
  5
22C
100
AcDbEntity
  8
0
100
AcDbLine
 62
7
  6
CONTINUOUS
 10
1.501768924
 20
5.0102661896
 11
1.501768924
 21
5.1405720686
  0
LINE
  5
22D
100
AcDbEntity
  8
0
100
AcDbLine
 62
7
  6
CONTINUOUS
 10
1.501768924
 20
5.1647579621
 11
1.501768924
 21
5.3490383034
  0
LINE
  5
22E
100
AcDbEntity
  8
0
100
AcDbLine
 62
7
  6
CONTINUOUS
 10
1.501768924
 20
5.3732241969
 11
1.501768924
 21
5.5035300759
  0
LINE
  5
22F
100
AcDbEntity
  8
0
100
AcDbLine
 62
7
  6
CONTINUOUS
 10
1.4918051087
 20
5.3594159894
 11
1.501768924
 21
5.3732241969
  0
LINE
  5
230
100
AcDbEntity
  8
0
100
AcDbLine
 62
7
  6
CONTINUOUS
 10
1.501768924
 20
5.3490383034
 11
1.511768924
 21
5.36285274
  0
LINE
  5
231
100
AcDbEntity
  8
0
100
AcDbLine
 62
7
  6
CONTINUOUS
 10
1.3287801781
 20
5.2606223592
 11
1.3981551781
 21
5.3372518683
  0
LINE
  5
232
100
AcDbEntity
  8
0
100
AcDbLine
 62
7
  6
CONTINUOUS
 10
1.3287801781
 20
5.2568981327
 11
1.3981551781
 21
5.3335276418
  0
LINE
  5
233
100
AcDbEntity
  8
0
100
AcDbLine
 62
7
  6
CONTINUOUS
 10
1.4918051087
 20
5.154380276
 11
1.501768924
 21
5.1647579621
  0
LINE
  5
234
100
AcDbEntity
  8
0
100
AcDbLine
 62
7
  6
CONTINUOUS
 10
1.4918051087
 20
5.5043981327
 11
1.501768924
 21
5.513548201
  0
LINE
  5
235
100
AcDbEntity
  8
0
100
AcDbLine
 62
7
  6
CONTINUOUS
 10
1.501768924
 20
5.5035300759
 11
1.511768924
 21
5.5126951826
  0
LINE
  5
236
100
AcDbEntity
  8
0
100
AcDbLine
 62
7
  6
CONTINUOUS
 10
1.3287801781
 20
5.2516312811
 11
1.3981551781
 21
5.0666312811
  0
LINE
  5
237
100
AcDbEntity
  8
0
100
AcDbLine
 62
7
  6
CONTINUOUS
 10
1.3287801781
 20
5.2531739062
 11
1.3981551781
 21
5.0681739062
  0
LINE
  5
238
100
AcDbEntity
  8
0
100
AcDbLine
 62
7
  6
CONTINUOUS
 10
1.501768924
 20
5.1405720686
 11
1.511768924
 21
5.1509435255
  0
LINE
  5
239
100
AcDbEntity
  8
ALL_FEATURES
100
AcDbLine
 62
7
  6
CONTINUOUS
 10
2.4131551087
 20
6.4018981327
 11
2.4131551087
 21
6.326087612
  0
LINE
  5
23A
100
AcDbEntity
  8
0
100
AcDbLine
 62
7
  6
CONTINUOUS
 10
2.6637550404
 20
5.4144286504
 11
2.6637550404
 21
5.0993676151
  0
LINE
  5
23B
100
AcDbEntity
  8
0
100
AcDbLine
 62
7
  6
CONTINUOUS
 10
2.6729051087
 20
5.404464835
 11
2.6729051087
 21
5.1093314304
  0
LINE
  5
23C
100
AcDbEntity
  8
0
100
AcDbLine
 62
7
  6
CONTINUOUS
 10
2.7229051087
 20
5.1168981327
 11
2.7229051087
 21
5.3968981327
  0
LINE
  5
23D
100
AcDbEntity
  8
0
100
AcDbLine
 62
7
  6
CONTINUOUS
 10
2.7479051087
 20
5.1656481327
 11
2.7479051087
 21
5.3481481327
  0
LINE
  5
23E
100
AcDbEntity
  8
ALL_ASSEMBLY_MEMBERS
100
AcDbLine
 62
7
  6
CONTINUOUS
 10
2.7619051087
 20
5.1008981327
 11
2.7619051087
 21
5.1606481327
  0
LINE
  5
23F
100
AcDbEntity
  8
ALL_ASSEMBLY_MEMBERS
100
AcDbLine
 62
7
  6
CONTINUOUS
 10
2.7619051087
 20
5.3531481327
 11
2.7619051087
 21
5.4133981327
  0
LINE
  5
240
100
AcDbEntity
  8
ALL_FEATURES
100
AcDbLine
 62
7
  6
CONTINUOUS
 10
2.7919051087
 20
5.5783981327
 11
2.7919051087
 21
5.6383981327
  0
LINE
  5
241
100
AcDbEntity
  8
ALL_ASSEMBLY_MEMBERS
100
AcDbLine
 62
7
  6
CONTINUOUS
 10
2.7619113573
 20
5.1606640349
 11
2.7619051087
 21
5.1606481327
  0
LINE
  5
242
100
AcDbEntity
  8
ALL_FEATURES
100
AcDbLine
 62
7
  6
CONTINUOUS
 10
3.5134051087
 20
6.2410140694
 11
3.6006627561
 21
6.3260950686
  0
LINE
  5
243
100
AcDbEntity
  8
0
100
AcDbLine
 62
7
  6
CONTINUOUS
 10
1.501768924
 20
5.1647579621
 11
1.511768924
 21
5.1509435255
  0
LINE
  5
244
100
AcDbEntity
  8
0
100
AcDbLine
 62
7
  6
CONTINUOUS
 10
1.4918051087
 20
5.154380276
 11
1.501768924
 21
5.1405720686
  0
LINE
  5
245
100
AcDbEntity
  8
ALL_ASSEMBLY_MEMBERS
100
AcDbLine
 62
7
  6
CONTINUOUS
 10
2.8506551087
 20
5.4133981327
 11
2.8506551087
 21
5.5683981327
  0
LINE
  5
246
100
AcDbEntity
  8
ALL_FEATURES
100
AcDbLine
 62
7
  6
CONTINUOUS
 10
3.0069051087
 20
5.6383981327
 11
3.0069051087
 21
6.2485245114
  0
LWPOLYLINE
  5
247
100
AcDbEntity
  8
ALL_FEATURES
100
AcDbPolyline
 62
7
  6
CONTINUOUS
 90
3
 70
0
 10
3.0069062684
 20
5.8563011546
 10
3.0069061267
 20
5.8777027538
 10
3.0069051087
 20
5.8989887883
  0
LINE
  5
248
100
AcDbEntity
  8
ALL_FEATURES
100
AcDbLine
 62
7
  6
CONTINUOUS
 10
3.0069055581
 20
6.0029304542
 11
3.0069051087
 21
6.0230796878
  0
LWPOLYLINE
  5
249
100
AcDbEntity
  8
ALL_FEATURES
100
AcDbPolyline
 62
7
  6
CONTINUOUS
 90
3
 70
0
 10
3.0069062295
 20
6.1198581443
 10
3.0069051087
 20
6.138272598
 10
3.0069041861
 20
6.1563524209
  0
LWPOLYLINE
  5
24A
100
AcDbEntity
  8
ALL_FEATURES
100
AcDbPolyline
 62
7
  6
CONTINUOUS
 90
3
 70
0
 10
3.0069067372
 20
5.9411543862
 10
3.0069051087
 20
5.9619704852
 10
3.0069039818
 20
5.9825632254
  0
LWPOLYLINE
  5
24B
100
AcDbEntity
  8
ALL_FEATURES
100
AcDbPolyline
 62
7
  6
CONTINUOUS
 90
3
 70
0
 10
3.0069071109
 20
6.0626780717
 10
3.0069051087
 20
6.0820594072
 10
3.0069036978
 20
6.1011210311
  0
LWPOLYLINE
  5
24C
100
AcDbEntity
  8
ALL_FEATURES
100
AcDbPolyline
 62
7
  6
CONTINUOUS
 90
5
 70
0
 10
3.0069070081
 20
6.174073264
 10
3.0069051087
 20
6.1914174596
 10
3.0068987782
 20
6.208367354
 10
3.0068970719
 20
6.2249053416
 10
3.0069051087
 20
6.2410140694
  0
LINE
  5
24D
100
AcDbEntity
  8
ALL_FEATURES
100
AcDbLine
 62
7
  6
CONTINUOUS
 10
3.2569051087
 20
5.6383981327
 11
3.2946600988
 21
5.8348022078
  0
LINE
  5
24E
100
AcDbEntity
  8
ALL_ASSEMBLY_MEMBERS
100
AcDbLine
 62
7
  6
CONTINUOUS
 10
3.1310354166
 20
5.5108981327
 11
3.1252619139
 21
5.4908981327
  0
LINE
  5
24F
100
AcDbEntity
  8
ALL_ASSEMBLY_MEMBERS
100
AcDbLine
 62
7
  6
CONTINUOUS
 10
3.142582422
 20
5.4708981327
 11
3.1483559246
 21
5.4908981327
  0
LINE
  5
250
100
AcDbEntity
  8
ALL_ASSEMBLY_MEMBERS
100
AcDbLine
 62
7
  6
CONTINUOUS
 10
3.1457578484
 20
5.4655867387
 11
3.1446473533
 21
5.4640162615
  0
LINE
  5
251
100
AcDbEntity
  8
ALL_ASSEMBLY_MEMBERS
100
AcDbLine
 62
7
  6
CONTINUOUS
 10
3.1445768555
 20
5.4640737824
 11
3.1445581885
 21
5.4640509041
  0
LINE
  5
252
100
AcDbEntity
  8
ALL_ASSEMBLY_MEMBERS
100
AcDbLine
 62
7
  6
CONTINUOUS
 10
3.1445772128
 20
5.4640725486
 11
3.1445582658
 21
5.464050636
  0
LINE
  5
253
100
AcDbEntity
  8
0
100
AcDbLine
 62
7
  6
CONTINUOUS
 10
2.6637550404
 20
5.0993676151
 11
2.6729051087
 21
5.1093314304
  0
LINE
  5
254
100
AcDbEntity
  8
0
100
AcDbLine
 62
7
  6
CONTINUOUS
 10
4.8538931677
 20
2.4418869723
 11
4.8537556395
 21
2.4418869723
  0
LINE
  5
255
100
AcDbEntity
  8
0
100
AcDbLine
 62
7
  6
CONTINUOUS
 10
1.4918051087
 20
5.0093981327
 11
1.501768924
 21
5.0002480645
  0
LINE
  5
256
100
AcDbEntity
  8
0
100
AcDbLine
 62
7
  6
CONTINUOUS
 10
1.3287801781
 20
5.2531739062
 11
1.3981551781
 21
5.1765443972
  0
LINE
  5
257
100
AcDbEntity
  8
0
100
AcDbLine
 62
7
  6
CONTINUOUS
 10
1.3287801781
 20
5.2568981327
 11
1.3981551781
 21
5.1802686237
  0
LINE
  5
258
100
AcDbEntity
  8
ALL_FEATURES
100
AcDbLine
 62
7
  6
CONTINUOUS
 10
2.7569051087
 20
5.6383981327
 11
2.7191501186
 21
5.8348022078
  0
LINE
  5
259
100
AcDbEntity
  8
ALL_ASSEMBLY_MEMBERS
100
AcDbLine
 62
7
  6
CONTINUOUS
 10
3.1631551087
 20
5.4133981327
 11
3.1631551087
 21
5.5683981327
  0
LINE
  5
25A
100
AcDbEntity
  8
ALL_FEATURES
100
AcDbLine
 62
7
  6
CONTINUOUS
 10
3.2219051087
 20
5.5783981327
 11
3.2219051087
 21
5.6383981327
  0
LINE
  5
25B
100
AcDbEntity
  8
ALL_ASSEMBLY_MEMBERS
100
AcDbLine
 62
7
  6
CONTINUOUS
 10
3.2519051087
 20
5.1008981327
 11
3.2519051087
 21
5.4133981327
  0
LINE
  5
25C
100
AcDbEntity
  8
0
100
AcDbLine
 62
7
  6
CONTINUOUS
 10
2.6637550404
 20
5.1916468558
 11
2.6729051087
 21
5.1957740033
  0
LINE
  5
25D
100
AcDbEntity
  8
0
100
AcDbLine
 62
7
  6
CONTINUOUS
 10
1.501768924
 20
5.0102661896
 11
1.511768924
 21
5.0011010829
  0
LINE
  5
25E
100
AcDbEntity
  8
0
100
AcDbLine
 62
7
  6
CONTINUOUS
 10
1.501768924
 20
5.3732241969
 11
1.511768924
 21
5.36285274
  0
LINE
  5
25F
100
AcDbEntity
  8
0
100
AcDbLine
 62
7
  6
CONTINUOUS
 10
1.4918051087
 20
5.3594159894
 11
1.501768924
 21
5.3490383034
  0
LINE
  5
260
100
AcDbEntity
  8
ALL_ASSEMBLY_MEMBERS
100
AcDbLine
 62
7
  6
CONTINUOUS
 10
2.7619051087
 20
5.3531481327
 11
2.7619113535
 21
5.3531323015
  0
LINE
  5
261
100
AcDbEntity
  8
ALL_FEATURES
100
AcDbLine
 62
7
  6
CONTINUOUS
 10
3.6006551087
 20
6.4018981327
 11
3.6006551087
 21
6.326087612
  0
LINE
  5
262
100
AcDbEntity
  8
ALL_ASSEMBLY_MEMBERS
100
AcDbLine
 62
7
  6
CONTINUOUS
 10
3.1252619139
 20
5.4908981327
 11
3.1310354166
 21
5.4708981327
  0
LINE
  5
263
100
AcDbEntity
  8
ALL_ASSEMBLY_MEMBERS
100
AcDbLine
 62
7
  6
CONTINUOUS
 10
3.1483559246
 20
5.4908981327
 11
3.142582422
 21
5.5108981327
  0
LINE
  5
264
100
AcDbEntity
  8
0
100
AcDbLine
 62
7
  6
CONTINUOUS
 10
5.2640851828
 20
3.0643981327
 11
4.6867350346
 21
3.0643981327
  0
LINE
  5
265
100
AcDbEntity
  8
0
100
AcDbLine
 62
7
  6
CONTINUOUS
 10
2.6637550404
 20
5.4144286504
 11
2.6729051087
 21
5.404464835
  0
LINE
  5
266
100
AcDbEntity
  8
ALL_ASSEMBLY_MEMBERS
100
AcDbLine
 62
7
  6
CONTINUOUS
 10
3.1457578484
 20
5.5162095267
 11
3.140667321
 21
5.5234086196
  0
LINE
  5
267
100
AcDbEntity
  8
0
100
AcDbLine
 62
7
  6
CONTINUOUS
 10
4.381660233
 20
6.4018981327
 11
4.381660233
 21
6.0754646698
  0
LINE
  5
268
100
AcDbEntity
  8
0
100
AcDbLine
 62
7
  6
CONTINUOUS
 10
4.7341489157
 20
2.6250064355
 11
4.7342855682
 21
2.6237240005
  0
LINE
  5
269
100
AcDbEntity
  8
ALL_FEATURES
100
AcDbLine
 62
7
  6
CONTINUOUS
 10
2.5004051087
 20
6.2410140694
 11
2.4131474612
 21
6.3260950686
  0
LWPOLYLINE
  5
26A
100
AcDbEntity
  8
0
100
AcDbPolyline
 62
7
  6
CONTINUOUS
 90
7
 70
0
 10
4.7238461349
 20
2.70456105
 10
4.7244177976
 20
2.7007980168
 10
4.7258771732
 20
2.690880498
 10
4.7272018874
 20
2.6814726094
 10
4.728398641
 20
2.6726236101
 10
4.7294752695
 20
2.664366123
 10
4.7304368457
 20
2.6567448719
  0
LINE
  5
26B
100
AcDbEntity
  8
0
100
AcDbLine
 62
7
  6
CONTINUOUS
 10
4.7304368457
 20
2.6567448719
 11
4.7312854493
 21
2.6498209503
  0
LINE
  5
26C
100
AcDbEntity
  8
0
100
AcDbLine
 62
7
  6
CONTINUOUS
 10
4.7312854493
 20
2.6498209503
 11
4.7320231011
 21
2.64364884
  0
LWPOLYLINE
  5
26D
100
AcDbEntity
  8
0
100
AcDbPolyline
 62
7
  6
CONTINUOUS
 90
6
 70
0
 10
4.7320231011
 20
2.64364884
 10
4.7326451713
 20
2.6383317989
 10
4.733158306
 20
2.6338676157
 10
4.7335793628
 20
2.630147453
 10
4.733912329
 20
2.6271623672
 10
4.7341489157
 20
2.6250064355
  0
LINE
  5
26E
100
AcDbEntity
  8
0
100
AcDbLine
 62
7
  6
CONTINUOUS
 10
4.7342855682
 20
2.6237240005
 11
4.7342761589
 21
2.6238045752
  0
LINE
  5
26F
100
AcDbEntity
  8
0
100
AcDbLine
 62
7
  6
CONTINUOUS
 10
2.6637550404
 20
5.3221494096
 11
2.6729051087
 21
5.3180222622
  0
LINE
  5
270
100
AcDbEntity
  8
0
100
AcDbLine
 62
7
  6
CONTINUOUS
 10
7.2870601769
 20
5.3221494096
 11
7.2779101087
 21
5.3180222622
  0
LWPOLYLINE
  5
271
100
AcDbEntity
  8
0
100
AcDbPolyline
 62
7
  6
CONTINUOUS
 90
3
 70
0
 10
5.2176803934
 20
2.6376901686
 10
5.2183781927
 20
2.6434747017
 10
5.2191740383
 20
2.6499610525
  0
LINE
  5
272
100
AcDbEntity
  8
0
100
AcDbLine
 62
7
  6
CONTINUOUS
 10
5.2191740383
 20
2.6499610525
 11
5.2200769948
 21
2.6571603278
  0
LWPOLYLINE
  5
273
100
AcDbEntity
  8
0
100
AcDbPolyline
 62
7
  6
CONTINUOUS
 90
7
 70
0
 10
5.2200769948
 20
2.6571603278
 10
5.2210942172
 20
2.6650567341
 10
5.222229593
 20
2.6735990965
 10
5.223486768
 20
2.6827273965
 10
5.2248738972
 20
2.6924071757
 10
5.2263977221
 20
2.702585723
 10
5.2268376525
 20
2.7054389258
  0
LWPOLYLINE
  5
274
100
AcDbEntity
  8
0
100
AcDbPolyline
 62
7
  6
CONTINUOUS
 90
4
 70
0
 10
5.2160007927
 20
2.6237242361
 10
5.2160744495
 20
2.6242547597
 10
5.2162821673
 20
2.6259528492
 10
5.2176803934
 20
2.6376901686
  0
LWPOLYLINE
  5
275
100
AcDbEntity
  8
0
100
AcDbPolyline
 62
7
  6
CONTINUOUS
 90
3
 70
0
 10
5.2114190426
 20
2.5973088023
 10
5.2141237079
 20
2.6107319319
 10
5.2160008173
 20
2.6237244471
  0
LINE
  5
276
100
AcDbEntity
  8
ALL_FEATURES
100
AcDbLine
 62
7
  6
CONTINUOUS
 10
7.4504101087
 20
6.2410140694
 11
7.5376677561
 21
6.3260950686
  0
LINE
  5
277
100
AcDbEntity
  8
0
100
AcDbLine
 62
7
  6
CONTINUOUS
 10
5.5691599843
 20
6.4018981327
 11
5.5691599843
 21
6.0754646698
  0
LINE
  5
278
100
AcDbEntity
  8
ALL_ASSEMBLY_MEMBERS
100
AcDbLine
 62
7
  6
CONTINUOUS
 10
6.805057369
 20
5.5162095267
 11
6.8090274389
 21
5.5218240535
  0
LINE
  5
279
100
AcDbEntity
  8
0
100
AcDbLine
 62
7
  6
CONTINUOUS
 10
8.4590101087
 20
5.5043981327
 11
8.4490462934
 21
5.5035300759
  0
LINE
  5
27A
100
AcDbEntity
  8
0
100
AcDbLine
 62
7
  6
CONTINUOUS
 10
7.2870601769
 20
5.4144286504
 11
8.4490462934
 21
5.513548201
  0
LINE
  5
27B
100
AcDbEntity
  8
0
100
AcDbLine
 62
7
  6
CONTINUOUS
 10
7.2870601769
 20
5.3221494096
 11
8.4390462934
 21
5.36285274
  0
LINE
  5
27C
100
AcDbEntity
  8
0
100
AcDbLine
 62
7
  6
CONTINUOUS
 10
2.6637550404
 20
5.1916468558
 11
1.511768924
 21
5.1509435255
  0
LINE
  5
27D
100
AcDbEntity
  8
0
100
AcDbLine
 62
7
  6
CONTINUOUS
 10
8.4940101087
 20
5.0118981327
 11
8.4590101087
 21
5.0118981327
  0
LINE
  5
27E
100
AcDbEntity
  8
0
100
AcDbLine
 62
7
  6
CONTINUOUS
 10
1.4568051087
 20
5.0118981327
 11
1.4918051087
 21
5.0118981327
  0
LINE
  5
27F
100
AcDbEntity
  8
0
100
AcDbLine
 62
7
  6
CONTINUOUS
 10
8.5386151017
 20
5.0568981327
 11
8.5090101087
 21
5.0568981327
  0
LINE
  5
280
100
AcDbEntity
  8
0
100
AcDbLine
 62
7
  6
CONTINUOUS
 10
1.4122001157
 20
5.0568981327
 11
1.4418051087
 21
5.0568981327
  0
LINE
  5
281
100
AcDbEntity
  8
0
100
AcDbLine
 62
7
  6
CONTINUOUS
 10
8.5386151017
 20
5.061291531
 11
8.5090101087
 21
5.061291531
  0
LINE
  5
282
100
AcDbEntity
  8
0
100
AcDbLine
 62
7
  6
CONTINUOUS
 10
1.4122001157
 20
5.061291531
 11
1.4418051087
 21
5.061291531
  0
LINE
  5
283
100
AcDbEntity
  8
ALL_ASSEMBLY_MEMBERS
100
AcDbLine
 62
7
  6
CONTINUOUS
 10
3.2519051087
 20
5.1008981327
 11
2.7619051087
 21
5.1008981327
  0
LINE
  5
284
100
AcDbEntity
  8
ALL_ASSEMBLY_MEMBERS
100
AcDbLine
 62
7
  6
CONTINUOUS
 10
6.6989101087
 20
5.1008981327
 11
7.1889101087
 21
5.1008981327
  0
LINE
  5
285
100
AcDbEntity
  8
0
100
AcDbLine
 62
7
  6
CONTINUOUS
 10
7.2029101087
 20
5.1656481327
 11
7.1869894298
 21
5.1656481327
  0
LINE
  5
286
100
AcDbEntity
  8
0
100
AcDbLine
 62
7
  6
CONTINUOUS
 10
2.7479051087
 20
5.1656481327
 11
2.7638257877
 21
5.1656481327
  0
LINE
  5
287
100
AcDbEntity
  8
0
100
AcDbLine
 62
7
  6
CONTINUOUS
 10
8.5386151017
 20
5.169662022
 11
8.5090101087
 21
5.169662022
  0
LINE
  5
288
100
AcDbEntity
  8
0
100
AcDbLine
 62
7
  6
CONTINUOUS
 10
1.4122001157
 20
5.169662022
 11
1.4418051087
 21
5.169662022
  0
LINE
  5
289
100
AcDbEntity
  8
0
100
AcDbLine
 62
7
  6
CONTINUOUS
 10
8.5526600393
 20
5.1802686237
 11
8.5090101087
 21
5.1802686237
  0
LINE
  5
28A
100
AcDbEntity
  8
0
100
AcDbLine
 62
7
  6
CONTINUOUS
 10
1.3981551781
 20
5.1802686237
 11
1.4418051087
 21
5.1802686237
  0
LINE
  5
28B
100
AcDbEntity
  8
0
100
AcDbLine
 62
7
  6
CONTINUOUS
 10
2.6637550404
 20
5.3221494096
 11
1.511768924
 21
5.36285274
  0
LINE
  5
28C
100
AcDbEntity
  8
0
100
AcDbLine
 62
7
  6
CONTINUOUS
 10
7.2870601769
 20
5.1916468558
 11
8.4390462934
 21
5.1509435255
  0
LINE
  5
28D
100
AcDbEntity
  8
0
100
AcDbLine
 62
7
  6
CONTINUOUS
 10
2.6637550404
 20
5.4144286504
 11
1.501768924
 21
5.513548201
  0
LINE
  5
28E
100
AcDbEntity
  8
0
100
AcDbLine
 62
7
  6
CONTINUOUS
 10
1.4918051087
 20
5.5043981327
 11
1.501768924
 21
5.5035300759
  0
LINE
  5
28F
100
AcDbEntity
  8
0
100
AcDbLine
 62
7
  6
CONTINUOUS
 10
7.2870601769
 20
5.4144286504
 11
7.2779101087
 21
5.404464835
  0
LINE
  5
290
100
AcDbEntity
  8
0
100
AcDbLine
 62
7
  6
CONTINUOUS
 10
1.4918051087
 20
5.0093981327
 11
1.501768924
 21
5.0102661896
  0
LINE
  5
291
100
AcDbEntity
  8
0
100
AcDbLine
 62
7
  6
CONTINUOUS
 10
2.6637550404
 20
5.0993676151
 11
1.501768924
 21
5.0002480645
  0
LINE
  5
292
100
AcDbEntity
  8
0
100
AcDbLine
 62
7
  6
CONTINUOUS
 10
8.5526600393
 20
5.3335276418
 11
8.5090101087
 21
5.3335276418
  0
LINE
  5
293
100
AcDbEntity
  8
0
100
AcDbLine
 62
7
  6
CONTINUOUS
 10
1.3981551781
 20
5.3335276418
 11
1.4418051087
 21
5.3335276418
  0
LINE
  5
294
100
AcDbEntity
  8
0
100
AcDbLine
 62
7
  6
CONTINUOUS
 10
8.5386151017
 20
5.3441342435
 11
8.5090101087
 21
5.3441342435
  0
LINE
  5
295
100
AcDbEntity
  8
0
100
AcDbLine
 62
7
  6
CONTINUOUS
 10
1.4122001157
 20
5.3441342435
 11
1.4418051087
 21
5.3441342435
  0
LINE
  5
296
100
AcDbEntity
  8
0
100
AcDbLine
 62
7
  6
CONTINUOUS
 10
7.2029101087
 20
5.3481481327
 11
7.1869894297
 21
5.3481481327
  0
LINE
  5
297
100
AcDbEntity
  8
0
100
AcDbLine
 62
7
  6
CONTINUOUS
 10
2.7479051087
 20
5.3481481327
 11
2.7638257876
 21
5.3481481327
  0
LINE
  5
298
100
AcDbEntity
  8
ALL_ASSEMBLY_MEMBERS
100
AcDbLine
 62
7
  6
CONTINUOUS
 10
3.2519051087
 20
5.4133981327
 11
2.7619051087
 21
5.4133981327
  0
LINE
  5
299
100
AcDbEntity
  8
ALL_ASSEMBLY_MEMBERS
100
AcDbLine
 62
7
  6
CONTINUOUS
 10
6.6989101087
 20
5.4133981327
 11
7.1889101087
 21
5.4133981327
  0
LINE
  5
29A
100
AcDbEntity
  8
0
100
AcDbLine
 62
7
  6
CONTINUOUS
 10
8.5386151017
 20
5.4525047345
 11
8.5090101087
 21
5.4525047345
  0
LINE
  5
29B
100
AcDbEntity
  8
0
100
AcDbLine
 62
7
  6
CONTINUOUS
 10
1.4122001157
 20
5.4525047345
 11
1.4418051087
 21
5.4525047345
  0
LINE
  5
29C
100
AcDbEntity
  8
0
100
AcDbLine
 62
7
  6
CONTINUOUS
 10
8.5386151017
 20
5.4568981327
 11
8.5090101087
 21
5.4568981327
  0
LINE
  5
29D
100
AcDbEntity
  8
0
100
AcDbLine
 62
7
  6
CONTINUOUS
 10
1.4122001157
 20
5.4568981327
 11
1.4418051087
 21
5.4568981327
  0
LINE
  5
29E
100
AcDbEntity
  8
ALL_ASSEMBLY_MEMBERS
100
AcDbLine
 62
7
  6
CONTINUOUS
 10
6.8201737775
 20
5.4583531328
 11
6.8205686021
 21
5.4583531328
  0
LINE
  5
29F
100
AcDbEntity
  8
ALL_ASSEMBLY_MEMBERS
100
AcDbLine
 62
7
  6
CONTINUOUS
 10
3.1310354166
 20
5.4708981327
 11
3.142582422
 21
5.4708981327
  0
LINE
  5
2A0
100
AcDbEntity
  8
ALL_ASSEMBLY_MEMBERS
100
AcDbLine
 62
7
  6
CONTINUOUS
 10
6.8082327954
 20
5.4708981327
 11
6.8197798008
 21
5.4708981327
  0
LINE
  5
2A1
100
AcDbEntity
  8
ALL_ASSEMBLY_MEMBERS
100
AcDbLine
 62
7
  6
CONTINUOUS
 10
3.1483559246
 20
5.4908981327
 11
3.1252619139
 21
5.4908981327
  0
LINE
  5
2A2
100
AcDbEntity
  8
ALL_ASSEMBLY_MEMBERS
100
AcDbLine
 62
7
  6
CONTINUOUS
 10
6.8024592927
 20
5.4908981327
 11
6.8255533035
 21
5.4908981327
  0
LINE
  5
2A3
100
AcDbEntity
  8
0
100
AcDbLine
 62
7
  6
CONTINUOUS
 10
8.4940101087
 20
5.5018981327
 11
8.4590101087
 21
5.5018981327
  0
LINE
  5
2A4
100
AcDbEntity
  8
0
100
AcDbLine
 62
7
  6
CONTINUOUS
 10
1.4568051087
 20
5.5018981327
 11
1.4918051087
 21
5.5018981327
  0
LINE
  5
2A5
100
AcDbEntity
  8
ALL_ASSEMBLY_MEMBERS
100
AcDbLine
 62
7
  6
CONTINUOUS
 10
6.8197798008
 20
5.5108981327
 11
6.8082327954
 21
5.5108981327
  0
LINE
  5
2A6
100
AcDbEntity
  8
ALL_ASSEMBLY_MEMBERS
100
AcDbLine
 62
7
  6
CONTINUOUS
 10
3.142582422
 20
5.5108981327
 11
3.1310354166
 21
5.5108981327
  0
LINE
  5
2A7
100
AcDbEntity
  8
0
100
AcDbLine
 62
7
  6
CONTINUOUS
 10
7.2870601769
 20
5.0993676151
 11
8.4490462934
 21
5.0002480645
  0
LINE
  5
2A8
100
AcDbEntity
  8
0
100
AcDbLine
 62
7
  6
CONTINUOUS
 10
8.4590101087
 20
5.0093981327
 11
8.4490462934
 21
5.0102661896
  0
LINE
  5
2A9
100
AcDbEntity
  8
ALL_FEATURES
100
AcDbLine
 62
7
  6
CONTINUOUS
 10
6.3501601087
 20
6.4018981327
 11
6.3501601087
 21
6.326087612
  0
LINE
  5
2AA
100
AcDbEntity
  8
ALL_ASSEMBLY_MEMBERS
100
AcDbLine
 62
7
  6
CONTINUOUS
 10
3.1631551087
 20
5.5683981327
 11
2.8506551087
 21
5.5683981327
  0
LINE
  5
2AB
100
AcDbEntity
  8
ALL_ASSEMBLY_MEMBERS
100
AcDbLine
 62
7
  6
CONTINUOUS
 10
6.7876601087
 20
5.5683981327
 11
7.1001601087
 21
5.5683981327
  0
LINE
  5
2AC
100
AcDbEntity
  8
ALL_FEATURES
100
AcDbLine
 62
7
  6
CONTINUOUS
 10
2.791910969
 20
5.5783981327
 11
3.2218992484
 21
5.5783981327
  0
LINE
  5
2AD
100
AcDbEntity
  8
ALL_FEATURES
100
AcDbLine
 62
7
  6
CONTINUOUS
 10
6.728915969
 20
5.5783981327
 11
7.1589042484
 21
5.5783981327
  0
LINE
  5
2AE
100
AcDbEntity
  8
ALL_FEATURES
100
AcDbLine
 62
7
  6
CONTINUOUS
 10
7.1939101087
 20
5.6383981327
 11
6.6939101087
 21
5.6383981327
  0
LINE
  5
2AF
100
AcDbEntity
  8
ALL_FEATURES
100
AcDbLine
 62
7
  6
CONTINUOUS
 10
3.2569051087
 20
5.6383981327
 11
2.7569051087
 21
5.6383981327
  0
LINE
  5
2B0
100
AcDbEntity
  8
0
100
AcDbLine
 62
7
  6
CONTINUOUS
 10
5.3795552125
 20
5.6518981327
 11
4.5712650049
 21
5.6518981327
  0
LINE
  5
2B1
100
AcDbEntity
  8
ALL_ASSEMBLY_MEMBERS
100
AcDbLine
 62
7
  6
CONTINUOUS
 10
6.8082327954
 20
5.5108981327
 11
6.8024592927
 21
5.4908981327
  0
LINE
  5
2B2
100
AcDbEntity
  8
ALL_ASSEMBLY_MEMBERS
100
AcDbLine
 62
7
  6
CONTINUOUS
 10
6.8197798008
 20
5.4708981327
 11
6.8255533035
 21
5.4908981327
  0
LWPOLYLINE
  5
2B3
100
AcDbEntity
  8
0
100
AcDbPolyline
 62
7
  6
CONTINUOUS
 90
13
 70
0
 10
5.1038129336
 20
2.4463494278
 10
5.116853975
 20
2.4551135026
 10
5.1294781289
 20
2.4648501126
 10
5.141667147
 20
2.4756145977
 10
5.1532642475
 20
2.4873406763
 10
5.1640148999
 20
2.4998008007
 10
5.1738762046
 20
2.5129324626
 10
5.1828074417
 20
2.5266714788
 10
5.190652284
 20
2.5407132462
 10
5.1974276344
 20
2.5549659
 10
5.2031589023
 20
2.5693447671
 10
5.2078023826
 20
2.5835162943
 10
5.2114190426
 20
2.5973088023
  0
LINE
  5
2B4
100
AcDbEntity
  8
ALL_FEATURES
100
AcDbLine
 62
7
  6
CONTINUOUS
 10
7.2316650988
 20
5.8348022078
 11
6.6561551186
 21
5.8348022078
  0
LINE
  5
2B5
100
AcDbEntity
  8
ALL_FEATURES
100
AcDbLine
 62
7
  6
CONTINUOUS
 10
3.2946600988
 20
5.8348022078
 11
2.7191501186
 21
5.8348022078
  0
LINE
  5
2B6
100
AcDbEntity
  8
0
100
AcDbLine
 62
7
  6
CONTINUOUS
 10
7.2870601769
 20
5.1916468558
 11
7.2779101087
 21
5.1957740033
  0
LINE
  5
2B7
100
AcDbEntity
  8
ALL_ASSEMBLY_MEMBERS
100
AcDbLine
 62
7
  6
CONTINUOUS
 10
6.6989101087
 20
5.1008981327
 11
6.6989101087
 21
5.4133981327
  0
LINE
  5
2B8
100
AcDbEntity
  8
ALL_FEATURES
100
AcDbLine
 62
7
  6
CONTINUOUS
 10
6.7289101087
 20
5.5783981327
 11
6.7289101087
 21
5.6383981327
  0
LINE
  5
2B9
100
AcDbEntity
  8
ALL_ASSEMBLY_MEMBERS
100
AcDbLine
 62
7
  6
CONTINUOUS
 10
6.7876601087
 20
5.4133981327
 11
6.7876601087
 21
5.5683981327
  0
LINE
  5
2BA
100
AcDbEntity
  8
ALL_FEATURES
100
AcDbLine
 62
7
  6
CONTINUOUS
 10
6.9439101087
 20
5.6383981327
 11
6.9439101087
 21
6.2485245114
  0
LWPOLYLINE
  5
2BB
100
AcDbEntity
  8
ALL_FEATURES
100
AcDbPolyline
 62
7
  6
CONTINUOUS
 90
3
 70
0
 10
6.9439112684
 20
5.8563011546
 10
6.9439111267
 20
5.8777027538
 10
6.9439101087
 20
5.8989887883
  0
LINE
  5
2BC
100
AcDbEntity
  8
ALL_FEATURES
100
AcDbLine
 62
7
  6
CONTINUOUS
 10
6.9439105581
 20
6.0029304542
 11
6.9439101087
 21
6.0230796878
  0
LWPOLYLINE
  5
2BD
100
AcDbEntity
  8
ALL_FEATURES
100
AcDbPolyline
 62
7
  6
CONTINUOUS
 90
3
 70
0
 10
6.9439112295
 20
6.1198581443
 10
6.9439101087
 20
6.138272598
 10
6.9439091861
 20
6.1563524209
  0
LWPOLYLINE
  5
2BE
100
AcDbEntity
  8
ALL_FEATURES
100
AcDbPolyline
 62
7
  6
CONTINUOUS
 90
3
 70
0
 10
6.9439117372
 20
5.9411543862
 10
6.9439101087
 20
5.9619704852
 10
6.9439089818
 20
5.9825632254
  0
LWPOLYLINE
  5
2BF
100
AcDbEntity
  8
ALL_FEATURES
100
AcDbPolyline
 62
7
  6
CONTINUOUS
 90
3
 70
0
 10
6.9439121109
 20
6.0626780717
 10
6.9439101087
 20
6.0820594072
 10
6.9439086978
 20
6.1011210311
  0
LWPOLYLINE
  5
2C0
100
AcDbEntity
  8
ALL_FEATURES
100
AcDbPolyline
 62
7
  6
CONTINUOUS
 90
5
 70
0
 10
6.9439120081
 20
6.174073264
 10
6.9439101087
 20
6.1914174596
 10
6.9439037782
 20
6.208367354
 10
6.9439020719
 20
6.2249053416
 10
6.9439101087
 20
6.2410140694
  0
LINE
  5
2C1
100
AcDbEntity
  8
ALL_FEATURES
100
AcDbLine
 62
7
  6
CONTINUOUS
 10
7.1939101087
 20
5.6383981327
 11
7.2316650988
 21
5.8348022078
  0
LINE
  5
2C2
100
AcDbEntity
  8
ALL_ASSEMBLY_MEMBERS
100
AcDbLine
 62
7
  6
CONTINUOUS
 10
7.1889038601
 20
5.3531322305
 11
7.1889101087
 21
5.3531481327
  0
LINE
  5
2C3
100
AcDbEntity
  8
0
100
AcDbLine
 62
7
  6
CONTINUOUS
 10
8.4590101087
 20
5.3594159894
 11
8.4490462934
 21
5.3490383034
  0
LINE
  5
2C4
100
AcDbEntity
  8
0
100
AcDbLine
 62
7
  6
CONTINUOUS
 10
8.4490462934
 20
5.3732241969
 11
8.4390462934
 21
5.36285274
  0
LINE
  5
2C5
100
AcDbEntity
  8
0
100
AcDbLine
 62
7
  6
CONTINUOUS
 10
8.4590101087
 20
5.0093981327
 11
8.4490462934
 21
5.0002480645
  0
LINE
  5
2C6
100
AcDbEntity
  8
0
100
AcDbLine
 62
7
  6
CONTINUOUS
 10
8.4490462934
 20
5.0102661896
 11
8.4390462934
 21
5.0011010829
  0
LINE
  5
2C7
100
AcDbEntity
  8
0
100
AcDbLine
 62
7
  6
CONTINUOUS
 10
5.0963932903
 20
2.4418870229
 11
5.1038129336
 21
2.4463494278
  0
LINE
  5
2C8
100
AcDbEntity
  8
ALL_FEATURES
100
AcDbLine
 62
7
  6
CONTINUOUS
 10
7.4504101087
 20
6.2410140694
 11
6.4374101087
 21
6.2410140694
  0
LINE
  5
2C9
100
AcDbEntity
  8
ALL_FEATURES
100
AcDbLine
 62
7
  6
CONTINUOUS
 10
3.5134051087
 20
6.2410140694
 11
2.5004051087
 21
6.2410140694
  0
LINE
  5
2CA
100
AcDbEntity
  8
ALL_FEATURES
100
AcDbLine
 62
7
  6
CONTINUOUS
 10
6.6939101087
 20
5.6383981327
 11
6.6561551186
 21
5.8348022078
  0
LINE
  5
2CB
100
AcDbEntity
  8
ALL_ASSEMBLY_MEMBERS
100
AcDbLine
 62
7
  6
CONTINUOUS
 10
7.1001601087
 20
5.4133981327
 11
7.1001601087
 21
5.5683981327
  0
LINE
  5
2CC
100
AcDbEntity
  8
ALL_FEATURES
100
AcDbLine
 62
7
  6
CONTINUOUS
 10
7.1589101087
 20
5.5783981327
 11
7.1589101087
 21
5.6383981327
  0
LINE
  5
2CD
100
AcDbEntity
  8
ALL_ASSEMBLY_MEMBERS
100
AcDbLine
 62
7
  6
CONTINUOUS
 10
7.1889101087
 20
5.1008981327
 11
7.1889101087
 21
5.1606481327
  0
LINE
  5
2CE
100
AcDbEntity
  8
ALL_ASSEMBLY_MEMBERS
100
AcDbLine
 62
7
  6
CONTINUOUS
 10
7.1889101087
 20
5.3531481327
 11
7.1889101087
 21
5.4133981327
  0
LINE
  5
2CF
100
AcDbEntity
  8
0
100
AcDbLine
 62
7
  6
CONTINUOUS
 10
7.2029101087
 20
5.1656481327
 11
7.2029101087
 21
5.3481481327
  0
LINE
  5
2D0
100
AcDbEntity
  8
0
100
AcDbLine
 62
7
  6
CONTINUOUS
 10
7.2279101087
 20
5.1168981327
 11
7.2279101087
 21
5.3968981327
  0
LINE
  5
2D1
100
AcDbEntity
  8
0
100
AcDbLine
 62
7
  6
CONTINUOUS
 10
8.6220350393
 20
5.2568981327
 11
8.5526600393
 21
5.1802686237
  0
LINE
  5
2D2
100
AcDbEntity
  8
0
100
AcDbLine
 62
7
  6
CONTINUOUS
 10
8.6220350393
 20
5.2531739062
 11
8.5526600393
 21
5.1765443972
  0
LINE
  5
2D3
100
AcDbEntity
  8
0
100
AcDbLine
 62
7
  6
CONTINUOUS
 10
5.5691599843
 20
6.4018981327
 11
4.381660233
 21
6.4018981327
  0
LINE
  5
2D4
100
AcDbEntity
  8
ALL_FEATURES
100
AcDbLine
 62
7
  6
CONTINUOUS
 10
2.4131603099
 20
6.4018981327
 11
3.6006551087
 21
6.4018981327
  0
LINE
  5
2D5
100
AcDbEntity
  8
ALL_FEATURES
100
AcDbLine
 62
7
  6
CONTINUOUS
 10
6.3501601087
 20
6.4018981327
 11
7.5376549074
 21
6.4018981327
  0
LINE
  5
2D6
100
AcDbEntity
  8
0
100
AcDbLine
 62
7
  6
CONTINUOUS
 10
7.2870601769
 20
5.0993676151
 11
7.2779101087
 21
5.1093314304
  0
LINE
  5
2D7
100
AcDbEntity
  8
ALL_ASSEMBLY_MEMBERS
100
AcDbLine
 62
7
  6
CONTINUOUS
 10
6.805057369
 20
5.4655867387
 11
6.8072883213
 21
5.4624316956
  0
LINE
  5
2D8
100
AcDbEntity
  8
ALL_ASSEMBLY_MEMBERS
100
AcDbLine
 62
7
  6
CONTINUOUS
 10
6.8024592927
 20
5.4908981327
 11
6.8082327954
 21
5.4708981327
  0
LINE
  5
2D9
100
AcDbEntity
  8
ALL_ASSEMBLY_MEMBERS
100
AcDbLine
 62
7
  6
CONTINUOUS
 10
6.8255533035
 20
5.4908981327
 11
6.8197798008
 21
5.5108981327
  0
LINE
  5
2DA
100
AcDbEntity
  8
0
100
AcDbLine
 62
7
  6
CONTINUOUS
 10
7.2779101087
 20
5.1093314304
 11
7.2779101087
 21
5.404464835
  0
LINE
  5
2DB
100
AcDbEntity
  8
0
100
AcDbLine
 62
7
  6
CONTINUOUS
 10
7.2870601769
 20
5.0993676151
 11
7.2870601769
 21
5.4144286504
  0
LINE
  5
2DC
100
AcDbEntity
  8
0
100
AcDbLine
 62
7
  6
CONTINUOUS
 10
8.4590101087
 20
5.154380276
 11
8.4490462934
 21
5.1405720686
  0
LINE
  5
2DD
100
AcDbEntity
  8
0
100
AcDbLine
 62
7
  6
CONTINUOUS
 10
8.4490462934
 20
5.1647579621
 11
8.4390462934
 21
5.1509435255
  0
LINE
  5
2DE
100
AcDbEntity
  8
ALL_FEATURES
100
AcDbLine
 62
7
  6
CONTINUOUS
 10
6.4374101087
 20
6.2410140694
 11
6.3501524612
 21
6.3260950686
  0
LINE
  5
2DF
100
AcDbEntity
  8
ALL_ASSEMBLY_MEMBERS
100
AcDbLine
 62
7
  6
CONTINUOUS
 10
7.1889101087
 20
5.1606481327
 11
7.1889038639
 21
5.160663964
  0
LINE
  5
2E0
100
AcDbEntity
  8
ALL_FEATURES
100
AcDbLine
 62
7
  6
CONTINUOUS
 10
7.5376601087
 20
6.4018981327
 11
7.5376601087
 21
6.326087612
  0
LINE
  5
2E1
100
AcDbEntity
  8
0
100
AcDbLine
 62
7
  6
CONTINUOUS
 10
8.4490462934
 20
5.1405720686
 11
8.4390462934
 21
5.1509435255
  0
LINE
  5
2E2
100
AcDbEntity
  8
0
100
AcDbLine
 62
7
  6
CONTINUOUS
 10
8.4590101087
 20
5.154380276
 11
8.4490462934
 21
5.1647579621
  0
LINE
  5
2E3
100
AcDbEntity
  8
0
100
AcDbLine
 62
7
  6
CONTINUOUS
 10
8.6220350393
 20
5.2531739062
 11
8.5526600393
 21
5.0681739062
  0
LINE
  5
2E4
100
AcDbEntity
  8
0
100
AcDbLine
 62
7
  6
CONTINUOUS
 10
8.6220350393
 20
5.2516312811
 11
8.5526600393
 21
5.0666312811
  0
LINE
  5
2E5
100
AcDbEntity
  8
0
100
AcDbLine
 62
7
  6
CONTINUOUS
 10
8.4490462934
 20
5.5035300759
 11
8.4390462934
 21
5.5126951826
  0
LINE
  5
2E6
100
AcDbEntity
  8
0
100
AcDbLine
 62
7
  6
CONTINUOUS
 10
8.4590101087
 20
5.5043981327
 11
8.4490462934
 21
5.513548201
  0
LINE
  5
2E7
100
AcDbEntity
  8
0
100
AcDbLine
 62
7
  6
CONTINUOUS
 10
8.6220350393
 20
5.2568981327
 11
8.5526600393
 21
5.3335276418
  0
LINE
  5
2E8
100
AcDbEntity
  8
0
100
AcDbLine
 62
7
  6
CONTINUOUS
 10
8.6220350393
 20
5.2606223592
 11
8.5526600393
 21
5.3372518683
  0
LINE
  5
2E9
100
AcDbEntity
  8
0
100
AcDbLine
 62
7
  6
CONTINUOUS
 10
8.4490462934
 20
5.5035300759
 11
8.4490462934
 21
5.3732241969
  0
LINE
  5
2EA
100
AcDbEntity
  8
0
100
AcDbLine
 62
7
  6
CONTINUOUS
 10
8.4490462934
 20
5.3490383034
 11
8.4490462934
 21
5.1647579621
  0
LINE
  5
2EB
100
AcDbEntity
  8
0
100
AcDbLine
 62
7
  6
CONTINUOUS
 10
8.4490462934
 20
5.1405720686
 11
8.4490462934
 21
5.0102661896
  0
LINE
  5
2EC
100
AcDbEntity
  8
0
100
AcDbLine
 62
7
  6
CONTINUOUS
 10
8.4590101087
 20
5.5043981327
 11
8.4590101087
 21
5.0093981327
  0
LINE
  5
2ED
100
AcDbEntity
  8
0
100
AcDbLine
 62
7
  6
CONTINUOUS
 10
8.4940101087
 20
5.0118981327
 11
8.4940101087
 21
5.5018981327
  0
LINE
  5
2EE
100
AcDbEntity
  8
0
100
AcDbLine
 62
7
  6
CONTINUOUS
 10
8.5090101087
 20
5.0269000069
 11
8.5090101087
 21
5.4868962585
  0
LINE
  5
2EF
100
AcDbEntity
  8
0
100
AcDbLine
 62
7
  6
CONTINUOUS
 10
8.5386151017
 20
5.4568981327
 11
8.5386151017
 21
5.0568981327
  0
LINE
  5
2F0
100
AcDbEntity
  8
0
100
AcDbLine
 62
7
  6
CONTINUOUS
 10
8.5526600393
 20
5.4456223592
 11
8.5526600393
 21
5.3372518683
  0
LINE
  5
2F1
100
AcDbEntity
  8
0
100
AcDbLine
 62
7
  6
CONTINUOUS
 10
8.5526600393
 20
5.3335276418
 11
8.5526600393
 21
5.1802686237
  0
LINE
  5
2F2
100
AcDbEntity
  8
0
100
AcDbLine
 62
7
  6
CONTINUOUS
 10
8.5526600393
 20
5.1765443972
 11
8.5526600393
 21
5.0681739062
  0
LINE
  5
2F3
100
AcDbEntity
  8
0
100
AcDbLine
 62
7
  6
CONTINUOUS
 10
8.4490462934
 20
5.3490383034
 11
8.4390462934
 21
5.36285274
  0
LINE
  5
2F4
100
AcDbEntity
  8
0
100
AcDbLine
 62
7
  6
CONTINUOUS
 10
8.4590101087
 20
5.3594159894
 11
8.4490462934
 21
5.3732241969
  0
LINE
  5
2F5
100
AcDbEntity
  8
0
100
AcDbLine
 62
7
  6
CONTINUOUS
 10
8.6220350393
 20
5.2606223592
 11
8.5526600393
 21
5.4456223592
  0
LINE
  5
2F6
100
AcDbEntity
  8
0
100
AcDbLine
 62
7
  6
CONTINUOUS
 10
8.6220350393
 20
5.2621649844
 11
8.5526600393
 21
5.4471649844
  0
ARC
  5
2F7
100
AcDbEntity
  8
0
100
AcDbCircle
 62
7
  6
CONTINUOUS
 10
4.9750055666
 20
2.6521068604
 40
0.2427084093
100
AcDbArc
 50
268.4156957554
 51
270.0160796606
  0
ARC
  5
2F8
100
AcDbEntity
  8
0
100
AcDbCircle
 62
7
  6
CONTINUOUS
 10
4.975098493
 20
2.651961092
 40
0.2425768364
100
AcDbArc
 50
300.0016925321
 51
304.2022962904
  0
ARC
  5
2F9
100
AcDbEntity
  8
0
100
AcDbCircle
 62
7
  6
CONTINUOUS
 10
4.9750057864
 20
2.6518981846
 40
0.242499976
100
AcDbArc
 50
188.1730983824
 51
239.9999760771
  0
ARC
  5
2FA
100
AcDbEntity
  8
0
100
AcDbCircle
 62
7
  6
CONTINUOUS
 10
4.9751431451
 20
2.6518979644
 40
0.2424997108
100
AcDbArc
 50
186.6717709931
 51
299.9997252558
  0
ARC
  5
2FB
100
AcDbEntity
  8
0
100
AcDbCircle
 62
7
  6
CONTINUOUS
 10
4.9751443276
 20
2.6518976677
 40
0.2424986165
100
AcDbArc
 50
304.2017632625
 51
350.1097840625
  0
ARC
  5
2FC
100
AcDbEntity
  8
0
100
AcDbCircle
 62
7
  6
CONTINUOUS
 10
4.975318389
 20
2.6518714653
 40
0.2423226413
100
AcDbArc
 50
350.1088184344
 51
353.3297595566
  0
ARC
  5
2FD
100
AcDbEntity
  8
ALL_FEATURES
100
AcDbCircle
 62
7
  6
CONTINUOUS
 10
4.0513067982
 20
5.6893511084
 40
0.7705
100
AcDbArc
 50
134.2763891045
 51
169.1186996529
  0
ARC
  5
2FE
100
AcDbEntity
  8
ALL_FEATURES
100
AcDbCircle
 62
7
  6
CONTINUOUS
 10
1.9625034192
 20
5.6893511084
 40
0.7705
100
AcDbArc
 50
10.8813003471
 51
45.7236108955
  0
ARC
  5
2FF
100
AcDbEntity
  8
ALL_ASSEMBLY_MEMBERS
100
AcDbCircle
 62
7
  6
CONTINUOUS
 10
3.0069051087
 20
5.8097528428
 40
0.75
100
AcDbArc
 50
250.9334198993
 51
289.0665801007
  0
ARC
  5
300
100
AcDbEntity
  8
ALL_ASSEMBLY_MEMBERS
100
AcDbCircle
 62
7
  6
CONTINUOUS
 10
3.1668544723
 20
5.4818515601
 40
0.0484772442
100
AcDbArc
 50
209.9920381746
 51
215.1906928129
  0
ARC
  5
301
100
AcDbEntity
  8
ALL_ASSEMBLY_MEMBERS
100
AcDbCircle
 62
7
  6
CONTINUOUS
 10
3.1650791382
 20
5.5011354833
 40
0.0463401548
100
AcDbArc
 50
144.747517653
 51
147.6873118913
  0
ARC
  5
302
100
AcDbEntity
  8
0
100
AcDbCircle
 62
7
  6
CONTINUOUS
 10
2.6979051087
 20
5.1168981327
 40
0.025
100
AcDbArc
 50
180.0
 51
360.0
  0
ARC
  5
303
100
AcDbEntity
  8
0
100
AcDbCircle
 62
7
  6
CONTINUOUS
 10
2.6979051087
 20
5.3968981327
 40
0.025
100
AcDbArc
 50
0.0
 51
180.0
  0
ARC
  5
304
100
AcDbEntity
  8
0
100
AcDbCircle
 62
7
  6
CONTINUOUS
 10
2.7479051087
 20
5.1406481327
 40
0.025
100
AcDbArc
 50
90.0
 51
180.0
  0
ARC
  5
305
100
AcDbEntity
  8
0
100
AcDbCircle
 62
7
  6
CONTINUOUS
 10
2.7479051087
 20
5.3731481327
 40
0.025
100
AcDbArc
 50
180.0
 51
270.0
  0
ARC
  5
306
100
AcDbEntity
  8
ALL_ASSEMBLY_MEMBERS
100
AcDbCircle
 62
7
  6
CONTINUOUS
 10
3.1272837095
 20
5.5031491598
 40
0.0226244745
100
AcDbArc
 50
33.1317531744
 51
35.2585488326
  0
ARC
  5
307
100
AcDbEntity
  8
0
100
AcDbCircle
 62
7
  6
CONTINUOUS
 10
1.3428251157
 20
5.2568981327
 40
0.015
100
AcDbArc
 50
159.4439547804
 51
200.5462405231
  0
ARC
  5
308
100
AcDbEntity
  8
0
100
AcDbCircle
 62
7
  6
CONTINUOUS
 10
1.4568051087
 20
5.4868981327
 40
0.015
100
AcDbArc
 50
90.0
 51
180.0
  0
ARC
  5
309
100
AcDbEntity
  8
0
100
AcDbCircle
 62
7
  6
CONTINUOUS
 10
1.4568051087
 20
5.0268981327
 40
0.015
100
AcDbArc
 50
180.0
 51
270.0
  0
ARC
  5
30A
100
AcDbEntity
  8
0
100
AcDbCircle
 62
7
  6
CONTINUOUS
 10
1.4122001157
 20
5.4418981327
 40
0.015
100
AcDbArc
 50
90.0
 51
159.4439547804
  0
ARC
  5
30B
100
AcDbEntity
  8
0
100
AcDbCircle
 62
7
  6
CONTINUOUS
 10
1.4122001157
 20
5.0718981327
 40
0.015
100
AcDbArc
 50
200.5560452196
 51
270.0
  0
ARC
  5
30C
100
AcDbEntity
  8
ALL_FEATURES
100
AcDbCircle
 62
7
  6
CONTINUOUS
 10
7.9883117982
 20
5.6893511084
 40
0.7705
100
AcDbArc
 50
134.2763891045
 51
169.1186996529
  0
ARC
  5
30D
100
AcDbEntity
  8
ALL_FEATURES
100
AcDbCircle
 62
7
  6
CONTINUOUS
 10
5.8995084192
 20
5.6893511084
 40
0.7705
100
AcDbArc
 50
10.8813003471
 51
45.7236108955
  0
ARC
  5
30E
100
AcDbEntity
  8
ALL_ASSEMBLY_MEMBERS
100
AcDbCircle
 62
7
  6
CONTINUOUS
 10
6.9439101087
 20
5.8097528428
 40
0.75
100
AcDbArc
 50
250.9334198993
 51
289.0665801007
  0
ARC
  5
30F
100
AcDbEntity
  8
ALL_ASSEMBLY_MEMBERS
100
AcDbCircle
 62
7
  6
CONTINUOUS
 10
6.7839607451
 20
5.4818515601
 40
0.0484772442
100
AcDbArc
 50
324.8093071871
 51
330.007961826
  0
ARC
  5
310
100
AcDbEntity
  8
ALL_ASSEMBLY_MEMBERS
100
AcDbCircle
 62
7
  6
CONTINUOUS
 10
6.7851243399
 20
5.5007262288
 40
0.0470759288
100
AcDbArc
 50
32.3356668158
 51
35.2295036404
  0
ARC
  5
311
100
AcDbEntity
  8
0
100
AcDbCircle
 62
7
  6
CONTINUOUS
 10
7.2529101087
 20
5.1168981327
 40
0.025
100
AcDbArc
 50
180.0
 51
360.0
  0
ARC
  5
312
100
AcDbEntity
  8
0
100
AcDbCircle
 62
7
  6
CONTINUOUS
 10
7.2529101087
 20
5.3968981327
 40
0.025
100
AcDbArc
 50
0.0
 51
180.0
  0
ARC
  5
313
100
AcDbEntity
  8
0
100
AcDbCircle
 62
7
  6
CONTINUOUS
 10
7.2029101087
 20
5.1406481327
 40
0.025
100
AcDbArc
 50
0.0
 51
90.0
  0
ARC
  5
314
100
AcDbEntity
  8
0
100
AcDbCircle
 62
7
  6
CONTINUOUS
 10
7.2029101087
 20
5.3731481327
 40
0.025
100
AcDbArc
 50
270.0
 51
360.0
  0
ARC
  5
315
100
AcDbEntity
  8
0
100
AcDbCircle
 62
7
  6
CONTINUOUS
 10
8.6079901017
 20
5.2568981327
 40
0.015
100
AcDbArc
 50
339.4537594769
 51
20.5560452196
  0
ARC
  5
316
100
AcDbEntity
  8
0
100
AcDbCircle
 62
7
  6
CONTINUOUS
 10
8.4940101087
 20
5.4868981327
 40
0.015
100
AcDbArc
 50
0.0
 51
90.0
  0
ARC
  5
317
100
AcDbEntity
  8
0
100
AcDbCircle
 62
7
  6
CONTINUOUS
 10
8.4940101087
 20
5.0268981327
 40
0.015
100
AcDbArc
 50
270.0
 51
360.0
  0
ARC
  5
318
100
AcDbEntity
  8
0
100
AcDbCircle
 62
7
  6
CONTINUOUS
 10
8.5386151017
 20
5.0718981327
 40
0.015
100
AcDbArc
 50
270.0
 51
339.4439547804
  0
ARC
  5
319
100
AcDbEntity
  8
0
100
AcDbCircle
 62
7
  6
CONTINUOUS
 10
8.5386151017
 20
5.4418981327
 40
0.015
100
AcDbArc
 50
20.5560452196
 51
89.9999999717
  0
ARC
  5
31A
100
AcDbEntity
  8
ALL_ASSEMBLY_MEMBERS
100
AcDbCircle
 62
7
  6
CONTINUOUS
 10
6.8174713801
 20
5.4735431253
 40
0.0146857788
100
AcDbArc
 50
226.6032721665
 51
227.5389471163
  0
ARC
  5
31B
100
AcDbEntity
  8
ALL_ASSEMBLY_MEMBERS
100
AcDbCircle
 62
7
  6
CONTINUOUS
 10
6.8144643899
 20
5.4671851286
 40
0.0105218023
100
AcDbArc
 50
302.8678611458
 51
304.6359984166
  0
SPLINE
  5
31C
100
AcDbEntity
  8
ALL_ASSEMBLY_MEMBERS
100
AcDbSpline
 62
7
  6
CONTINUOUS
 70
0
 71
3
 72
10
 73
6
 74
0
 42
0.0000001
 43
0.0000001
 44
0.0000000001
 40
0.0
 40
0.0
 40
0.0
 40
0.0
 40
0.2602978022
 40
0.5137677782
 40
1.0
 40
1.0
 40
1.0
 40
1.0
 10
3.1410674817
 20
5.4600439138
 30
0.0
 10
3.1408090407
 20
5.4596470126
 30
0.0
 10
3.1402837446
 20
5.4588733159
 30
0.0
 10
3.1392004392
 20
5.4574110671
 30
0.0
 10
3.1383296572
 20
5.456381461
 30
0.0
 10
3.1377250761
 20
5.4557355321
 30
0.0
  0
SPLINE
  5
31D
100
AcDbEntity
  8
ALL_ASSEMBLY_MEMBERS
100
AcDbSpline
 62
7
  6
CONTINUOUS
 70
0
 71
3
 72
30
 73
26
 74
0
 42
0.0000001
 43
0.0000001
 44
0.0000000001
 40
0.0
 40
0.0
 40
0.0
 40
0.0
 40
0.0773016358
 40
0.1509552671
 40
0.2209675017
 40
0.2546463522
 40
0.2874649714
 40
0.3506315926
 40
0.4108418923
 40
0.440001513
 40
0.468619142
 40
0.4967784154
 40
0.5245700372
 40
0.5520915599
 40
0.5794460856
 40
0.6067398824
 40
0.6340811624
 40
0.6615780639
 40
0.6893358417
 40
0.7174560645
 40
0.7460355223
 40
0.8048882336
 40
0.8665412165
 40
0.9314673904
 40
1.0
 40
1.0
 40
1.0
 40
1.0
 10
3.1209852119
 20
5.4657687549
 30
0.0
 10
3.1213478803
 20
5.4651827936
 30
0.0
 10
3.122093593
 20
5.464061036
 30
0.0
 10
3.123302754
 20
5.462503683
 30
0.0
 10
3.1243724672
 20
5.4613365843
 30
0.0
 10
3.1252552411
 20
5.4604983342
 30
0.0
 10
3.1261311292
 20
5.4597434791
 30
0.0
 10
3.1272536777
 20
5.4589149907
 30
0.0
 10
3.1284351265
 20
5.4582346472
 30
0.0
 10
3.129392736
 20
5.4577980337
 30
0.0
 10
3.1301095443
 20
5.4575260636
 30
0.0
 10
3.1308314196
 20
5.4573066477
 30
0.0
 10
3.1315573474
 20
5.4571402786
 30
0.0
 10
3.132286262
 20
5.4570274559
 30
0.0
 10
3.1330170461
 20
5.456968373
 30
0.0
 10
3.1337485979
 20
5.4569632044
 30
0.0
 10
3.1344798016
 20
5.4570121478
 30
0.0
 10
3.1352095227
 20
5.4571152368
 30
0.0
 10
3.1359366442
 20
5.4572722752
 30
0.0
 10
3.136660087
 20
5.4574831172
 30
0.0
 10
3.1376274584
 20
5.4578391126
 30
0.0
 10
3.1388257448
 20
5.4584232162
 30
0.0
 10
3.1402147894
 20
5.4593261265
 30
0.0
 10
3.1415615561
 20
5.4604317807
 30
0.0
 10
3.1424025827
 20
5.4612762114
 30
0.0
 10
3.1428144641
 20
5.4617274363
 30
0.0
  0
LINE
  5
31E
100
AcDbEntity
  8
ALL_ASSEMBLY_MEMBERS
100
AcDbLine
 62
7
  6
CONTINUOUS
 10
3.1428144641
 20
5.4617274363
 11
3.1446473529
 21
5.4640162616
  0
SPLINE
  5
31F
100
AcDbEntity
  8
ALL_ASSEMBLY_MEMBERS
100
AcDbSpline
 62
7
  6
CONTINUOUS
 70
0
 71
3
 72
21
 73
17
 74
0
 42
0.0000001
 43
0.0000001
 44
0.0000000001
 40
0.0
 40
0.0
 40
0.0
 40
0.0
 40
0.0697308383
 40
0.1393243434
 40
0.2771865865
 40
0.4120853488
 40
0.4780180745
 40
0.5427142836
 40
0.6060179606
 40
0.6677893778
 40
0.7278972869
 40
0.7862254717
 40
0.8426740382
 40
0.8971565679
 40
0.9496121506
 40
1.0
 40
1.0
 40
1.0
 40
1.0
 10
3.1523089193
 20
5.4908981327
 30
0.0
 10
3.1523089193
 20
5.4902817392
 30
0.0
 10
3.1522904942
 20
5.4890500766
 30
0.0
 10
3.1521807766
 20
5.4866020292
 30
0.0
 10
3.1519092435
 20
5.4835859646
 30
0.0
 10
3.1514561227
 20
5.4806243143
 30
0.0
 10
3.1509866484
 20
5.4783241975
 30
0.0
 10
3.1505868679
 20
5.47665681
 30
0.0
 10
3.1501380139
 20
5.475040093
 30
0.0
 10
3.1496418769
 20
5.4734797305
 30
0.0
 10
3.1491001
 20
5.4719812711
 30
0.0
 10
3.1485145802
 20
5.470550027
 30
0.0
 10
3.1478875377
 20
5.4691910098
 30
0.0
 10
3.147220955
 20
5.4679090995
 30
0.0
 10
3.146517358
 20
5.4667088213
 30
0.0
 10
3.1460150116
 20
5.4659504121
 30
0.0
 10
3.1457578471
 20
5.4655867424
 30
0.0
  0
SPLINE
  5
320
100
AcDbEntity
  8
ALL_ASSEMBLY_MEMBERS
100
AcDbSpline
 62
7
  6
CONTINUOUS
 70
0
 71
3
 72
21
 73
17
 74
0
 42
0.0000001
 43
0.0000001
 44
0.0000000001
 40
0.0
 40
0.0
 40
0.0
 40
0.0
 40
0.0512381848
 40
0.1044250032
 40
0.1595137161
 40
0.2164352173
 40
0.2751033436
 40
0.3354211718
 40
0.3972751437
 40
0.460542547
 40
0.5250911937
 40
0.5907747068
 40
0.7249257436
 40
0.8617983556
 40
0.9308381316
 40
1.0
 40
1.0
 40
1.0
 40
1.0
 10
3.1462298051
 20
5.5155149315
 30
0.0
 10
3.1464696588
 20
5.5151477398
 30
0.0
 10
3.1469378435
 20
5.5143857357
 30
0.0
 10
3.1475935838
 20
5.5131875298
 30
0.0
 10
3.1482138489
 20
5.51191623
 30
0.0
 10
3.1487966858
 20
5.5105760816
 30
0.0
 10
3.1493402719
 20
5.5091714673
 30
0.0
 10
3.1498426584
 20
5.5077069206
 30
0.0
 10
3.1503023675
 20
5.5061872721
 30
0.0
 10
3.1507178465
 20
5.5046174726
 30
0.0
 10
3.1510876351
 20
5.5030026472
 30
0.0
 10
3.151521385
 20
5.5007812033
 30
0.0
 10
3.1519398611
 20
5.4979276577
 30
0.0
 10
3.1521906535
 20
5.49502585
 30
0.0
 10
3.1522919197
 20
5.4926731998
 30
0.0
 10
3.1523089193
 20
5.4914901437
 30
0.0
 10
3.1523089193
 20
5.4908981327
 30
0.0
  0
SPLINE
  5
321
100
AcDbEntity
  8
ALL_ASSEMBLY_MEMBERS
100
AcDbSpline
 62
7
  6
CONTINUOUS
 70
0
 71
3
 72
41
 73
37
 74
0
 42
0.0000001
 43
0.0000001
 44
0.0000000001
 40
0.0
 40
0.0
 40
0.0
 40
0.0
 40
0.0435772512
 40
0.087032409
 40
0.1301794658
 40
0.1728637099
 40
0.2149494797
 40
0.2563016289
 40
0.2967851582
 40
0.3362721018
 40
0.3746484794
 40
0.4118091565
 40
0.4476645394
 40
0.4821379769
 40
0.5151720746
 40
0.5467305404
 40
0.5767995781
 40
0.6053961315
 40
0.6325657955
 40
0.6456445495
 40
0.658401932
 40
0.6830127929
 40
0.7065750712
 40
0.7293011481
 40
0.7514436909
 40
0.773287342
 40
0.7951336257
 40
0.8172838908
 40
0.8400223739
 40
0.8636010599
 40
0.888231643
 40
0.9009998568
 40
0.9140899692
 40
0.9412836486
 40
0.9699053259
 40
1.0
 40
1.0
 40
1.0
 40
1.0
 10
3.1213089193
 20
5.4908981327
 30
0.0
 10
3.1213089193
 20
5.4916033918
 30
0.0
 10
3.1213330238
 20
5.4930120514
 30
0.0
 10
3.1214409519
 20
5.4951165185
 30
0.0
 10
3.1216204355
 20
5.4972016249
 30
0.0
 10
3.1218705439
 20
5.4992571245
 30
0.0
 10
3.1221900864
 20
5.5012735955
 30
0.0
 10
3.1225776228
 20
5.5032418444
 30
0.0
 10
3.123031209
 20
5.5051527611
 30
0.0
 10
3.123548993
 20
5.5069973575
 30
0.0
 10
3.1241282858
 20
5.5087671221
 30
0.0
 10
3.1247666602
 20
5.5104538078
 30
0.0
 10
3.1254609666
 20
5.5120496714
 30
0.0
 10
3.126208127
 20
5.5135473061
 30
0.0
 10
3.1270047334
 20
5.5149397814
 30
0.0
 10
3.1278470427
 20
5.5162207499
 30
0.0
 10
3.1287315126
 20
5.5173841806
 30
0.0
 10
3.1296538608
 20
5.518424825
 30
0.0
 10
3.1304610697
 20
5.5191951472
 30
0.0
 10
3.1311219271
 20
5.5197425976
 30
0.0
 10
3.1317754362
 20
5.5202324197
 30
0.0
 10
3.1326087673
 20
5.520763415
 30
0.0
 10
3.133641779
 20
5.5212688221
 30
0.0
 10
3.1346911651
 20
5.521631981
 30
0.0
 10
3.1357518
 20
5.5218502638
 30
0.0
 10
3.136818129
 20
5.5219225239
 30
0.0
 10
3.1378844071
 20
5.521847731
 30
0.0
 10
3.1389448952
 20
5.5216269384
 30
0.0
 10
3.1399940394
 20
5.5212612962
 30
0.0
 10
3.141026729
 20
5.5207534615
 30
0.0
 10
3.14185971
 20
5.5202205148
 30
0.0
 10
3.1425129173
 20
5.519729162
 30
0.0
 10
3.1431734524
 20
5.5191801555
 30
0.0
 10
3.1439802031
 20
5.5184079257
 30
0.0
 10
3.1449018999
 20
5.5173651651
 30
0.0
 10
3.1454766373
 20
5.5166071964
 30
0.0
 10
3.1457578471
 20
5.516209523
 30
0.0
  0
LINE
  5
322
100
AcDbEntity
  8
ALL_ASSEMBLY_MEMBERS
100
AcDbLine
 62
7
  6
CONTINUOUS
 10
3.1457578471
 20
5.4655867424
 11
3.1445772128
 21
5.4640725486
  0
LINE
  5
323
100
AcDbEntity
  8
ALL_ASSEMBLY_MEMBERS
100
AcDbLine
 62
7
  6
CONTINUOUS
 10
3.1445582658
 20
5.464050636
 11
3.1434336431
 21
5.4628722341
  0
SPLINE
  5
324
100
AcDbEntity
  8
ALL_ASSEMBLY_MEMBERS
100
AcDbSpline
 62
7
  6
CONTINUOUS
 70
0
 71
3
 72
38
 73
34
 74
0
 42
0.0000001
 43
0.0000001
 44
0.0000000001
 40
0.0
 40
0.0
 40
0.0
 40
0.0
 40
0.0263364599
 40
0.051492173
 40
0.0755855099
 40
0.0987719392
 40
0.1212385506
 40
0.1432037492
 40
0.1649090741
 40
0.1866086709
 40
0.2085570228
 40
0.2309964113
 40
0.2541465486
 40
0.2781958993
 40
0.2906118884
 40
0.30330837
 40
0.3295901324
 40
0.3571372303
 40
0.3860081732
 40
0.4162327227
 40
0.447819797
 40
0.4807537335
 40
0.5150029734
 40
0.5505193181
 40
0.5872389872
 40
0.6250889212
 40
0.6639829838
 40
0.7038278363
 40
0.7445206631
 40
0.8279878238
 40
0.9134867428
 40
0.9566944207
 40
1.0
 40
1.0
 40
1.0
 40
1.0
 10
3.1434336431
 20
5.4628722341
 30
0.0
 10
3.1431467463
 20
5.4626009907
 30
0.0
 10
3.142564445
 20
5.4620925723
 30
0.0
 10
3.1416467453
 20
5.4614251873
 30
0.0
 10
3.1407087751
 20
5.4608742663
 30
0.0
 10
3.1397543708
 20
5.4604420879
 30
0.0
 10
3.1387871712
 20
5.4601309113
 30
0.0
 10
3.1378112216
 20
5.459942453
 30
0.0
 10
3.1368307862
 20
5.4598775228
 30
0.0
 10
3.1358502496
 20
5.4599369213
 30
0.0
 10
3.1348740122
 20
5.4601198926
 30
0.0
 10
3.1339063249
 20
5.4604256265
 30
0.0
 10
3.1329512991
 20
5.4608524502
 30
0.0
 10
3.1321771879
 20
5.4613024025
 30
0.0
 10
3.1315684447
 20
5.4617182533
 30
0.0
 10
3.1309530969
 20
5.4621823253
 30
0.0
 10
3.1301983387
 20
5.4628362647
 30
0.0
 10
3.1293297051
 20
5.4637225628
 30
0.0
 10
3.1284910347
 20
5.4647158335
 30
0.0
 10
3.1276853942
 20
5.4658120162
 30
0.0
 10
3.1269160743
 20
5.4670069792
 30
0.0
 10
3.1261857876
 20
5.4682958966
 30
0.0
 10
3.1254975019
 20
5.4696738125
 30
0.0
 10
3.1248538884
 20
5.4711353111
 30
0.0
 10
3.1242573182
 20
5.4726746164
 30
0.0
 10
3.1237103514
 20
5.4742857609
 30
0.0
 10
3.1232149156
 20
5.4759623575
 30
0.0
 10
3.1227730972
 20
5.4776978746
 30
0.0
 10
3.1222534634
 20
5.4801014574
 30
0.0
 10
3.1217516467
 20
5.4832068403
 30
0.0
 10
3.1214509709
 20
5.4863757037
 30
0.0
 10
3.1213293524
 20
5.4889518647
 30
0.0
 10
3.1213089193
 20
5.4902489224
 30
0.0
 10
3.1213089193
 20
5.4908981327
 30
0.0
  0
SPLINE
  5
325
100
AcDbEntity
  8
ALL_ASSEMBLY_MEMBERS
100
AcDbSpline
 62
7
  6
CONTINUOUS
 70
0
 71
3
 72
11
 73
7
 74
0
 42
0.0000001
 43
0.0000001
 44
0.0000000001
 40
0.0
 40
0.0
 40
0.0
 40
0.0
 40
0.2390829693
 40
0.4844255123
 40
0.7376273762
 40
1.0
 40
1.0
 40
1.0
 40
1.0
 10
3.1277154695
 20
5.4586614403
 30
0.0
 10
3.1273197158
 20
5.4587582526
 30
0.0
 10
3.1265280822
 20
5.4589987881
 30
0.0
 10
3.1253680029
 20
5.4594880835
 30
0.0
 10
3.1242267244
 20
5.4601076013
 30
0.0
 10
3.1234948877
 20
5.4605961274
 30
0.0
 10
3.1231336381
 20
5.4608595798
 30
0.0
  0
SPLINE
  5
326
100
AcDbEntity
  8
ALL_ASSEMBLY_MEMBERS
100
AcDbSpline
 62
7
  6
CONTINUOUS
 70
0
 71
3
 72
21
 73
17
 74
0
 42
0.0000001
 43
0.0000001
 44
0.0000000001
 40
0.0
 40
0.0
 40
0.0
 40
0.0
 40
0.0697308383
 40
0.1393243434
 40
0.2771865865
 40
0.4120853488
 40
0.4780180745
 40
0.5427142836
 40
0.6060179606
 40
0.6677893778
 40
0.7278972869
 40
0.7862254717
 40
0.8426740382
 40
0.8971565679
 40
0.9496121506
 40
1.0
 40
1.0
 40
1.0
 40
1.0
 10
6.7985062981
 20
5.4908981327
 30
0.0
 10
6.7985062981
 20
5.4915145263
 30
0.0
 10
6.7985247232
 20
5.4927461888
 30
0.0
 10
6.7986344408
 20
5.4951942363
 30
0.0
 10
6.7989059739
 20
5.4982103008
 30
0.0
 10
6.7993590947
 20
5.5011719512
 30
0.0
 10
6.799828569
 20
5.503472068
 30
0.0
 10
6.8002283495
 20
5.5051394555
 30
0.0
 10
6.8006772035
 20
5.5067561724
 30
0.0
 10
6.8011733405
 20
5.508316535
 30
0.0
 10
6.8017151174
 20
5.5098149943
 30
0.0
 10
6.8023006372
 20
5.5112462385
 30
0.0
 10
6.8029276797
 20
5.5126052557
 30
0.0
 10
6.8035942624
 20
5.5138871659
 30
0.0
 10
6.8042978594
 20
5.5150874442
 30
0.0
 10
6.8048002058
 20
5.5158458534
 30
0.0
 10
6.8050573703
 20
5.516209523
 30
0.0
  0
SPLINE
  5
327
100
AcDbEntity
  8
ALL_ASSEMBLY_MEMBERS
100
AcDbSpline
 62
7
  6
CONTINUOUS
 70
0
 71
3
 72
21
 73
17
 74
0
 42
0.0000001
 43
0.0000001
 44
0.0000000001
 40
0.0
 40
0.0
 40
0.0
 40
0.0
 40
0.0503878494
 40
0.1028434321
 40
0.1573259618
 40
0.2137745283
 40
0.2721027131
 40
0.3322106222
 40
0.3939820394
 40
0.4572857164
 40
0.5219819255
 40
0.5879146512
 40
0.7228134135
 40
0.8606756566
 40
0.9302691617
 40
1.0
 40
1.0
 40
1.0
 40
1.0
 10
6.8050573703
 20
5.4655867424
 30
0.0
 10
6.8048002058
 20
5.4659504121
 30
0.0
 10
6.8042978594
 20
5.4667088213
 30
0.0
 10
6.8035942624
 20
5.4679090995
 30
0.0
 10
6.8029276797
 20
5.4691910098
 30
0.0
 10
6.8023006372
 20
5.470550027
 30
0.0
 10
6.8017151174
 20
5.4719812711
 30
0.0
 10
6.8011733405
 20
5.4734797305
 30
0.0
 10
6.8006772035
 20
5.475040093
 30
0.0
 10
6.8002283495
 20
5.47665681
 30
0.0
 10
6.799828569
 20
5.4783241975
 30
0.0
 10
6.7993590947
 20
5.4806243143
 30
0.0
 10
6.7989059739
 20
5.4835859646
 30
0.0
 10
6.7986344408
 20
5.4866020292
 30
0.0
 10
6.7985247232
 20
5.4890500766
 30
0.0
 10
6.7985062981
 20
5.4902817392
 30
0.0
 10
6.7985062981
 20
5.4908981327
 30
0.0
  0
LINE
  5
328
100
AcDbEntity
  8
ALL_ASSEMBLY_MEMBERS
100
AcDbLine
 62
7
  6
CONTINUOUS
 10
6.8072883271
 20
5.4624317132
 11
6.8085240885
 21
5.4608570409
  0
SPLINE
  5
329
100
AcDbEntity
  8
ALL_ASSEMBLY_MEMBERS
100
AcDbSpline
 62
7
  6
CONTINUOUS
 70
0
 71
3
 72
23
 73
19
 74
0
 42
0.0000001
 43
0.0000001
 44
0.0000000001
 40
0.0
 40
0.0
 40
0.0
 40
0.0
 40
0.074727561
 40
0.1465271027
 40
0.2155311032
 40
0.2819211613
 40
0.345923314
 40
0.4078142146
 40
0.4679254708
 40
0.5266350981
 40
0.5843650919
 40
0.6415723157
 40
0.698732868
 40
0.7563291612
 40
0.8148299629
 40
0.8746788638
 40
0.9362835231
 40
1.0
 40
1.0
 40
1.0
 40
1.0
 10
6.8085240885
 20
5.4608570409
 30
0.0
 10
6.8087399852
 20
5.4606104757
 30
0.0
 10
6.8091771889
 20
5.460138889
 30
0.0
 10
6.8098625639
 20
5.4594869903
 30
0.0
 10
6.8105627398
 20
5.4589066078
 30
0.0
 10
6.8112759755
 20
5.4583991603
 30
0.0
 10
6.8120006499
 20
5.4579660315
 30
0.0
 10
6.8127351145
 20
5.4576086108
 30
0.0
 10
6.8134775063
 20
5.4573278624
 30
0.0
 10
6.8142259958
 20
5.4571247702
 30
0.0
 10
6.8149786599
 20
5.4570002873
 30
0.0
 10
6.8157334243
 20
5.4569548047
 30
0.0
 10
6.8164882274
 20
5.4569886887
 30
0.0
 10
6.817240932
 20
5.457102165
 30
0.0
 10
6.8179894643
 20
5.4572948504
 30
0.0
 10
6.8187318105
 20
5.4575663969
 30
0.0
 10
6.8194658738
 20
5.4579162536
 30
0.0
 10
6.8199398934
 20
5.4581959705
 30
0.0
 10
6.8201746078
 20
5.4583476099
 30
0.0
  0
SPLINE
  5
32A
100
AcDbEntity
  8
ALL_ASSEMBLY_MEMBERS
100
AcDbSpline
 62
7
  6
CONTINUOUS
 70
0
 71
3
 72
15
 73
11
 74
0
 42
0.0000001
 43
0.0000001
 44
0.0000000001
 40
0.0
 40
0.0
 40
0.0
 40
0.0
 40
0.1006428617
 40
0.2076929173
 40
0.3216744901
 40
0.442878316
 40
0.5714189859
 40
0.7072720442
 40
0.850274985
 40
1.0
 40
1.0
 40
1.0
 40
1.0
 10
6.8204445699
 20
5.458528006
 30
0.0
 10
6.8208135919
 20
5.4587828341
 30
0.0
 10
6.8215427751
 20
5.4593566595
 30
0.0
 10
6.8225689261
 20
5.4603606911
 30
0.0
 10
6.8235534029
 20
5.4615280802
 30
0.0
 10
6.8244905017
 20
5.4628525444
 30
0.0
 10
6.825374522
 20
5.4643275975
 30
0.0
 10
6.8262001746
 20
5.465945737
 30
0.0
 10
6.8269617499
 20
5.4676982017
 30
0.0
 10
6.8274136674
 20
5.4689225881
 30
0.0
 10
6.8276285776
 20
5.4695541913
 30
0.0
  0
SPLINE
  5
32B
100
AcDbEntity
  8
ALL_ASSEMBLY_MEMBERS
100
AcDbSpline
 62
7
  6
CONTINUOUS
 70
0
 71
3
 72
38
 73
34
 74
0
 42
0.0000001
 43
0.0000001
 44
0.0000000001
 40
0.0
 40
0.0
 40
0.0
 40
0.0
 40
0.0432674032
 40
0.0864385822
 40
0.1718770178
 40
0.2553094381
 40
0.2959981939
 40
0.3358496956
 40
0.3747619144
 40
0.4126424478
 40
0.4494056532
 40
0.4849786932
 40
0.519297932
 40
0.5523143106
 40
0.5839955934
 40
0.6143244353
 40
0.6433074194
 40
0.6709716922
 40
0.6973714329
 40
0.7101257797
 40
0.7225981343
 40
0.7467525685
 40
0.7699919655
 40
0.7924982398
 40
0.8144840944
 40
0.8361861417
 40
0.857854267
 40
0.879740329
 40
0.9020852877
 40
0.9251094947
 40
0.9490029735
 40
0.9739252797
 40
1.0
 40
1.0
 40
1.0
 40
1.0
 10
6.8295062981
 20
5.4908981327
 30
0.0
 10
6.8295062981
 20
5.4902529508
 30
0.0
 10
6.829486117
 20
5.4889639189
 30
0.0
 10
6.8293659918
 20
5.4864034664
 30
0.0
 10
6.8290689689
 20
5.4832532974
 30
0.0
 10
6.8285732562
 20
5.4801654462
 30
0.0
 10
6.828059908
 20
5.4777744105
 30
0.0
 10
6.8276233506
 20
5.4760470914
 30
0.0
 10
6.8271337337
 20
5.4743776386
 30
0.0
 10
6.8265931173
 20
5.4727724733
 30
0.0
 10
6.8260033752
 20
5.4712378807
 30
0.0
 10
6.8253669944
 20
5.4697797433
 30
0.0
 10
6.8246863269
 20
5.4684037384
 30
0.0
 10
6.823963936
 20
5.4671152284
 30
0.0
 10
6.823202762
 20
5.4659190928
 30
0.0
 10
6.8224054468
 20
5.4648201014
 30
0.0
 10
6.8215751881
 20
5.4638223678
 30
0.0
 10
6.8207150408
 20
5.4629298707
 30
0.0
 10
6.8199674141
 20
5.4622692837
 30
0.0
 10
6.8193576645
 20
5.4617989466
 30
0.0
 10
6.8187543685
 20
5.4613763894
 30
0.0
 10
6.8179870618
 20
5.4609170259
 30
0.0
 10
6.8170399531
 20
5.4604770184
 30
0.0
 10
6.8160798561
 20
5.460156271
 30
0.0
 10
6.8151107218
 20
5.4599566209
 30
0.0
 10
6.8141367257
 20
5.4598788507
 30
0.0
 10
6.8131621394
 20
5.4599238317
 30
0.0
 10
6.8121912995
 20
5.4600909626
 30
0.0
 10
6.8112283771
 20
5.4603794169
 30
0.0
 10
6.8102774323
 20
5.4607877676
 30
0.0
 10
6.8093420367
 20
5.4613137511
 30
0.0
 10
6.80842599
 20
5.4619552417
 30
0.0
 10
6.8078440207
 20
5.4624464135
 30
0.0
 10
6.8075571741
 20
5.4627088916
 30
0.0
  0
LINE
  5
32C
100
AcDbEntity
  8
ALL_ASSEMBLY_MEMBERS
100
AcDbLine
 62
7
  6
CONTINUOUS
 10
6.8073815743
 20
5.4628722341
 11
6.8050573703
 21
5.4655867424
  0
SPLINE
  5
32D
100
AcDbEntity
  8
ALL_ASSEMBLY_MEMBERS
100
AcDbSpline
 62
7
  6
CONTINUOUS
 70
0
 71
3
 72
15
 73
11
 74
0
 42
0.0000001
 43
0.0000001
 44
0.0000000001
 40
0.0
 40
0.0
 40
0.0
 40
0.0
 40
0.1121665338
 40
0.2292643196
 40
0.3507151327
 40
0.4759214496
 40
0.6041974547
 40
0.7348077954
 40
0.8670170328
 40
1.0
 40
1.0
 40
1.0
 40
1.0
 10
6.8276285776
 20
5.4695541913
 30
0.0
 10
6.8279541513
 20
5.4703037126
 30
0.0
 10
6.8285681431
 20
5.4718584659
 30
0.0
 10
6.8293630525
 20
5.4742881527
 30
0.0
 10
6.8300466581
 20
5.4768499014
 30
0.0
 10
6.8306135734
 20
5.4795231356
 30
0.0
 10
6.8310592216
 20
5.4822867775
 30
0.0
 10
6.831380161
 20
5.4851189699
 30
0.0
 10
6.8315736956
 20
5.4879969862
 30
0.0
 10
6.8316168073
 20
5.4899292983
 30
0.0
 10
6.8316168073
 20
5.4908981327
 30
0.0
  0
SPLINE
  5
32E
100
AcDbEntity
  8
ALL_ASSEMBLY_MEMBERS
100
AcDbSpline
 62
7
  6
CONTINUOUS
 70
0
 71
3
 72
12
 73
8
 74
0
 42
0.0000001
 43
0.0000001
 44
0.0000000001
 40
0.0
 40
0.0
 40
0.0
 40
0.0
 40
0.2651583944
 40
0.3941333112
 40
0.5205828766
 40
0.7656434023
 40
1.0
 40
1.0
 40
1.0
 40
1.0
 10
6.832576084
 20
5.5071079626
 30
0.0
 10
6.8321124151
 20
5.5079281818
 30
0.0
 10
6.8313827544
 20
5.5091253982
 30
0.0
 10
6.8303325769
 20
5.5106486563
 30
0.0
 10
6.8292662232
 20
5.5120724095
 30
0.0
 10
6.827870188
 20
5.5137148618
 30
0.0
 10
6.826648769
 20
5.5149071117
 30
0.0
 10
6.8260224542
 20
5.5154559369
 30
0.0
  0
SPLINE
  5
32F
100
AcDbEntity
  8
ALL_ASSEMBLY_MEMBERS
100
AcDbSpline
 62
7
  6
CONTINUOUS
 70
0
 71
3
 72
18
 73
14
 74
0
 42
0.0000001
 43
0.0000001
 44
0.0000000001
 40
0.0
 40
0.0
 40
0.0
 40
0.0
 40
0.136454386
 40
0.2717543332
 40
0.4047383481
 40
0.5343241107
 40
0.6594861088
 40
0.7201250916
 40
0.7793211774
 40
0.8369835643
 40
0.8930359242
 40
0.9474020501
 40
1.0
 40
1.0
 40
1.0
 40
1.0
 10
6.8316168073
 20
5.4908981327
 30
0.0
 10
6.8316168073
 20
5.4920557413
 30
0.0
 10
6.8315553925
 20
5.4943616464
 30
0.0
 10
6.8312797711
 20
5.4977857639
 30
0.0
 10
6.8308238056
 20
5.5011319785
 30
0.0
 10
6.830192832
 20
5.5043620832
 30
0.0
 10
6.829520085
 20
5.5069537707
 30
0.0
 10
6.8288976847
 20
5.5089371812
 30
0.0
 10
6.8283971731
 20
5.5103577089
 30
0.0
 10
6.8278594559
 20
5.511722849
 30
0.0
 10
6.8272860223
 20
5.5130287915
 30
0.0
 10
6.8266785552
 20
5.5142716055
 30
0.0
 10
6.8262448657
 20
5.5150691037
 30
0.0
 10
6.8260224542
 20
5.5154559369
 30
0.0
  0
SPLINE
  5
330
100
AcDbEntity
  8
ALL_ASSEMBLY_MEMBERS
100
AcDbSpline
 62
7
  6
CONTINUOUS
 70
0
 71
3
 72
41
 73
37
 74
0
 42
0.0000001
 43
0.0000001
 44
0.0000000001
 40
0.0
 40
0.0
 40
0.0
 40
0.0
 40
0.0300946741
 40
0.0587163514
 40
0.0859100308
 40
0.0990001432
 40
0.111768357
 40
0.1363989401
 40
0.1599776261
 40
0.1827161092
 40
0.2048663743
 40
0.226712658
 40
0.2485563091
 40
0.2706988519
 40
0.2934249288
 40
0.3169872071
 40
0.341598068
 40
0.3543554505
 40
0.3674342045
 40
0.3946038685
 40
0.4232004219
 40
0.4532694596
 40
0.4848279254
 40
0.5178620231
 40
0.5523354606
 40
0.5881908435
 40
0.6253515206
 40
0.6637278982
 40
0.7032148418
 40
0.7436983711
 40
0.7850505203
 40
0.8271362901
 40
0.8698205342
 40
0.912967591
 40
0.9564227488
 40
1.0
 40
1.0
 40
1.0
 40
1.0
 10
6.8050573703
 20
5.516209523
 30
0.0
 10
6.8053385801
 20
5.5166071964
 30
0.0
 10
6.8059133175
 20
5.5173651651
 30
0.0
 10
6.8068350143
 20
5.5184079257
 30
0.0
 10
6.807641765
 20
5.5191801555
 30
0.0
 10
6.8083023001
 20
5.519729162
 30
0.0
 10
6.8089555074
 20
5.5202205148
 30
0.0
 10
6.8097884884
 20
5.5207534615
 30
0.0
 10
6.810821178
 20
5.5212612962
 30
0.0
 10
6.8118703222
 20
5.5216269384
 30
0.0
 10
6.8129308103
 20
5.521847731
 30
0.0
 10
6.8139970884
 20
5.5219225239
 30
0.0
 10
6.8150634174
 20
5.5218502638
 30
0.0
 10
6.8161240523
 20
5.521631981
 30
0.0
 10
6.8171734384
 20
5.5212688221
 30
0.0
 10
6.8182064501
 20
5.520763415
 30
0.0
 10
6.8190397812
 20
5.5202324197
 30
0.0
 10
6.8196932903
 20
5.5197425976
 30
0.0
 10
6.8203541477
 20
5.5191951472
 30
0.0
 10
6.8211613565
 20
5.518424825
 30
0.0
 10
6.8220837048
 20
5.5173841806
 30
0.0
 10
6.8229681747
 20
5.5162207499
 30
0.0
 10
6.823810484
 20
5.5149397814
 30
0.0
 10
6.8246070904
 20
5.5135473061
 30
0.0
 10
6.8253542508
 20
5.5120496714
 30
0.0
 10
6.8260485571
 20
5.5104538078
 30
0.0
 10
6.8266869316
 20
5.5087671221
 30
0.0
 10
6.8272662244
 20
5.5069973575
 30
0.0
 10
6.8277840084
 20
5.5051527611
 30
0.0
 10
6.8282375946
 20
5.5032418444
 30
0.0
 10
6.8286251309
 20
5.5012735955
 30
0.0
 10
6.8289446735
 20
5.4992571245
 30
0.0
 10
6.8291947819
 20
5.4972016249
 30
0.0
 10
6.8293742655
 20
5.4951165185
 30
0.0
 10
6.8294821935
 20
5.4930120514
 30
0.0
 10
6.8295062981
 20
5.4916033918
 30
0.0
 10
6.8295062981
 20
5.4908981327
 30
0.0
  0
SPLINE
  5
331
100
AcDbEntity
  8
ALL_ASSEMBLY_MEMBERS
100
AcDbSpline
 62
7
  6
CONTINUOUS
 70
0
 71
3
 72
44
 73
40
 74
0
 42
0.0000001
 43
0.0000001
 44
0.0000000001
 40
0.0
 40
0.0
 40
0.0
 40
0.0
 40
0.0312532697
 40
0.0637710178
 40
0.0974612966
 40
0.1322367854
 40
0.1679986199
 40
0.2046243525
 40
0.2419800386
 40
0.2799219822
 40
0.318299551
 40
0.3569543762
 40
0.3957241632
 40
0.434443459
 40
0.472945862
 40
0.5110654511
 40
0.5486382945
 40
0.5855047071
 40
0.6215101222
 40
0.6565080439
 40
0.6903606752
 40
0.7229425251
 40
0.7541412575
 40
0.7838620266
 40
0.8120292361
 40
0.8385919421
 40
0.8512654836
 40
0.8635326084
 40
0.8868538494
 40
0.8979277641
 40
0.9086231698
 40
0.9289316911
 40
0.947953048
 40
0.9570575937
 40
0.9659334632
 40
0.9746207306
 40
0.9831629226
 40
0.991606431
 40
1.0
 40
1.0
 40
1.0
 40
1.0
 10
6.8260224542
 20
5.5154559369
 30
0.0
 10
6.8263946129
 20
5.5149052413
 30
0.0
 10
6.8271160285
 20
5.5137555443
 30
0.0
 10
6.8281099367
 20
5.5119354604
 30
0.0
 10
6.8290324566
 20
5.509994926
 30
0.0
 10
6.8298793762
 20
5.5079455204
 30
0.0
 10
6.8306467484
 20
5.5057986911
 30
0.0
 10
6.8313314123
 20
5.5035666864
 30
0.0
 10
6.8319300823
 20
5.5012622173
 30
0.0
 10
6.8324405315
 20
5.4988985334
 30
0.0
 10
6.8328605501
 20
5.4964891013
 30
0.0
 10
6.8331888986
 20
5.4940477354
 30
0.0
 10
6.8334244074
 20
5.4915883879
 30
0.0
 10
6.8335668798
 20
5.489125158
 30
0.0
 10
6.8336162367
 20
5.4866721372
 30
0.0
 10
6.8335733307
 20
5.4842433747
 30
0.0
 10
6.8334391638
 20
5.4818527739
 30
0.0
 10
6.8332156261
 20
5.4795140089
 30
0.0
 10
6.8329047737
 20
5.4772404659
 30
0.0
 10
6.8325094918
 20
5.475045122
 30
0.0
 10
6.8320328334
 20
5.4729405291
 30
0.0
 10
6.8314786062
 20
5.4709386557
 30
0.0
 10
6.8308507743
 20
5.4690509231
 30
0.0
 10
6.8301539517
 20
5.4672879811
 30
0.0
 10
6.8293929004
 20
5.4656599115
 30
0.0
 10
6.8286990384
 20
5.46440403
 30
0.0
 10
6.8281146503
 20
5.463477308
 30
0.0
 10
6.8275324609
 20
5.4626318046
 30
0.0
 10
6.8269180288
 20
5.4618504168
 30
0.0
 10
6.8262703556
 20
5.4611427437
 30
0.0
 10
6.8256321602
 20
5.460514979
 30
0.0
 10
6.8248127092
 20
5.4598324493
 30
0.0
 10
6.8239404283
 20
5.4592779994
 30
0.0
 10
6.8232333673
 20
5.4589311262
 30
0.0
 10
6.8227060443
 20
5.4587207747
 30
0.0
 10
6.8221750054
 20
5.4585567751
 30
0.0
 10
6.8216411236
 20
5.4584393702
 30
0.0
 10
6.8211053741
 20
5.4583688157
 30
0.0
 10
6.8207471064
 20
5.4583531488
 30
0.0
 10
6.8205686023
 20
5.4583531591
 30
0.0
  0
SPLINE
  5
332
100
AcDbEntity
  8
0
100
AcDbSpline
 62
7
  6
CONTINUOUS
 70
0
 71
3
 72
11
 73
7
 74
0
 42
0.0000001
 43
0.0000001
 44
0.0000000001
 40
0.0
 40
0.0
 40
0.0
 40
0.0
 40
0.2337525309
 40
0.474396298
 40
0.728122421
 40
1.0
 40
1.0
 40
1.0
 40
1.0
 10
1.3287801781
 20
5.2621649844
 30
0.0
 10
1.3287372466
 20
5.2620505006
 30
0.0
 10
1.3286719454
 20
5.2618093518
 30
0.0
 10
1.3286407932
 20
5.2614278844
 30
0.0
 10
1.3286753111
 20
5.2610269388
 30
0.0
 10
1.3287390139
 20
5.2607584821
 30
0.0
 10
1.3287801781
 20
5.2606223592
 30
0.0
  0
SPLINE
  5
333
100
AcDbEntity
  8
0
100
AcDbSpline
 62
7
  6
CONTINUOUS
 70
0
 71
3
 72
9
 73
5
 74
0
 42
0.0000001
 43
0.0000001
 44
0.0000000001
 40
0.0
 40
0.0
 40
0.0
 40
0.0
 40
0.4954457948
 40
1.0
 40
1.0
 40
1.0
 40
1.0
 10
1.3287801781
 20
5.2606223592
 30
0.0
 10
1.3286939325
 20
5.2600119071
 30
0.0
 10
1.3286085935
 20
5.258765807
 30
0.0
 10
1.3286954597
 20
5.2575202394
 30
0.0
 10
1.3287801781
 20
5.2568981327
 30
0.0
  0
SPLINE
  5
334
100
AcDbEntity
  8
0
100
AcDbSpline
 62
7
  6
CONTINUOUS
 70
0
 71
3
 72
9
 73
5
 74
0
 42
0.0000001
 43
0.0000001
 44
0.0000000001
 40
0.0
 40
0.0
 40
0.0
 40
0.0
 40
0.5045542061
 40
1.0
 40
1.0
 40
1.0
 40
1.0
 10
1.3287801781
 20
5.2568981327
 30
0.0
 10
1.3286954597
 20
5.2562760261
 30
0.0
 10
1.3286085935
 20
5.2550304585
 30
0.0
 10
1.3286939325
 20
5.2537843583
 30
0.0
 10
1.3287801781
 20
5.2531739062
 30
0.0
  0
SPLINE
  5
335
100
AcDbEntity
  8
0
100
AcDbSpline
 62
7
  6
CONTINUOUS
 70
0
 71
3
 72
11
 73
7
 74
0
 42
0.0000001
 43
0.0000001
 44
0.0000000001
 40
0.0
 40
0.0
 40
0.0
 40
0.0
 40
0.2718775796
 40
0.525603703
 40
0.7662474692
 40
1.0
 40
1.0
 40
1.0
 40
1.0
 10
1.3287801781
 20
5.2531739062
 30
0.0
 10
1.3287390139
 20
5.2530377834
 30
0.0
 10
1.3286753111
 20
5.2527693267
 30
0.0
 10
1.3286407932
 20
5.252368381
 30
0.0
 10
1.3286719454
 20
5.2519869137
 30
0.0
 10
1.3287372466
 20
5.2517457649
 30
0.0
 10
1.3287801781
 20
5.2516312811
 30
0.0
  0
SPLINE
  5
336
100
AcDbEntity
  8
0
100
AcDbSpline
 62
7
  6
CONTINUOUS
 70
0
 71
3
 72
14
 73
10
 74
0
 42
0.0000001
 43
0.0000001
 44
0.0000000001
 40
0.0
 40
0.0
 40
0.0
 40
0.0
 40
0.1064471009
 40
0.218674106
 40
0.336944638
 40
0.4612118846
 40
0.7243345428
 40
0.8614582317
 40
1.0
 40
1.0
 40
1.0
 40
1.0
 10
1.3981551781
 20
5.4456223592
 30
0.0
 10
1.3984270843
 20
5.4461350705
 30
0.0
 10
1.3990903682
 20
5.4471352001
 30
0.0
 10
1.4003584418
 20
5.4484748318
 30
0.0
 10
1.4018952828
 20
5.449661309
 30
0.0
 10
1.4042968607
 20
5.451028985
 30
0.0
 10
1.4070374882
 20
5.4519530454
 30
0.0
 10
1.4099402304
 20
5.4524240596
 30
0.0
 10
1.4114447857
 20
5.4525047345
 30
0.0
 10
1.4122001157
 20
5.4525047345
 30
0.0
  0
SPLINE
  5
337
100
AcDbEntity
  8
0
100
AcDbSpline
 62
7
  6
CONTINUOUS
 70
0
 71
3
 72
11
 73
7
 74
0
 42
0.0000001
 43
0.0000001
 44
0.0000000001
 40
0.0
 40
0.0
 40
0.0
 40
0.0
 40
0.2337525308
 40
0.474396297
 40
0.7281224204
 40
1.0
 40
1.0
 40
1.0
 40
1.0
 10
1.3981551781
 20
5.4471649844
 30
0.0
 10
1.3981122466
 20
5.4470505006
 30
0.0
 10
1.3980469454
 20
5.4468093518
 30
0.0
 10
1.3980157932
 20
5.4464278844
 30
0.0
 10
1.3980503111
 20
5.4460269388
 30
0.0
 10
1.3981140139
 20
5.4457584821
 30
0.0
 10
1.3981551781
 20
5.4456223592
 30
0.0
  0
SPLINE
  5
338
100
AcDbEntity
  8
0
100
AcDbSpline
 62
7
  6
CONTINUOUS
 70
0
 71
3
 72
14
 73
10
 74
0
 42
0.0000001
 43
0.0000001
 44
0.0000000001
 40
0.0
 40
0.0
 40
0.0
 40
0.0
 40
0.1064470759
 40
0.2186739866
 40
0.3369443883
 40
0.4612114757
 40
0.724333886
 40
0.861457983
 40
1.0
 40
1.0
 40
1.0
 40
1.0
 10
1.3981551781
 20
5.3372518683
 30
0.0
 10
1.3984270842
 20
5.3377645795
 30
0.0
 10
1.3990903676
 20
5.3387647086
 30
0.0
 10
1.4003584403
 20
5.3401043393
 30
0.0
 10
1.4018952793
 20
5.3412908156
 30
0.0
 10
1.404296854
 20
5.342658491
 30
0.0
 10
1.4070374809
 20
5.3435825539
 30
0.0
 10
1.4099402256
 20
5.3440535669
 30
0.0
 10
1.4114447844
 20
5.3441342435
 30
0.0
 10
1.4122001157
 20
5.3441342435
 30
0.0
  0
SPLINE
  5
339
100
AcDbEntity
  8
0
100
AcDbSpline
 62
7
  6
CONTINUOUS
 70
0
 71
3
 72
9
 73
5
 74
0
 42
0.0000001
 43
0.0000001
 44
0.0000000001
 40
0.0
 40
0.0
 40
0.0
 40
0.0
 40
0.4954457948
 40
1.0
 40
1.0
 40
1.0
 40
1.0
 10
1.3981551781
 20
5.3372518683
 30
0.0
 10
1.3980689325
 20
5.3366414162
 30
0.0
 10
1.3979835935
 20
5.335395316
 30
0.0
 10
1.3980704597
 20
5.3341497484
 30
0.0
 10
1.3981551781
 20
5.3335276418
 30
0.0
  0
SPLINE
  5
33A
100
AcDbEntity
  8
0
100
AcDbSpline
 62
7
  6
CONTINUOUS
 70
0
 71
3
 72
14
 73
10
 74
0
 42
0.0000001
 43
0.0000001
 44
0.0000000001
 40
0.0
 40
0.0
 40
0.0
 40
0.0
 40
0.1064471009
 40
0.218674106
 40
0.336944638
 40
0.4612118846
 40
0.7243345428
 40
0.8614582317
 40
1.0
 40
1.0
 40
1.0
 40
1.0
 10
1.3981551781
 20
5.1765443972
 30
0.0
 10
1.3984270843
 20
5.1760316859
 30
0.0
 10
1.3990903682
 20
5.1750315563
 30
0.0
 10
1.4003584418
 20
5.1736919246
 30
0.0
 10
1.4018952828
 20
5.1725054474
 30
0.0
 10
1.4042968607
 20
5.1711377715
 30
0.0
 10
1.4070374882
 20
5.170213711
 30
0.0
 10
1.4099402304
 20
5.1697426968
 30
0.0
 10
1.4114447857
 20
5.169662022
 30
0.0
 10
1.4122001157
 20
5.169662022
 30
0.0
  0
SPLINE
  5
33B
100
AcDbEntity
  8
0
100
AcDbSpline
 62
7
  6
CONTINUOUS
 70
0
 71
3
 72
9
 73
5
 74
0
 42
0.0000001
 43
0.0000001
 44
0.0000000001
 40
0.0
 40
0.0
 40
0.0
 40
0.0
 40
0.5045542052
 40
1.0
 40
1.0
 40
1.0
 40
1.0
 10
1.3981551781
 20
5.1802686237
 30
0.0
 10
1.3980704597
 20
5.179646517
 30
0.0
 10
1.3979835935
 20
5.1784009494
 30
0.0
 10
1.3980689325
 20
5.1771548493
 30
0.0
 10
1.3981551781
 20
5.1765443972
 30
0.0
  0
SPLINE
  5
33C
100
AcDbEntity
  8
0
100
AcDbSpline
 62
7
  6
CONTINUOUS
 70
0
 71
3
 72
14
 73
10
 74
0
 42
0.0000001
 43
0.0000001
 44
0.0000000001
 40
0.0
 40
0.0
 40
0.0
 40
0.0
 40
0.1064470759
 40
0.2186739866
 40
0.3369443883
 40
0.4612114757
 40
0.724333886
 40
0.861457983
 40
1.0
 40
1.0
 40
1.0
 40
1.0
 10
1.3981551781
 20
5.0681739062
 30
0.0
 10
1.3984270842
 20
5.0676611951
 30
0.0
 10
1.3990903676
 20
5.0666610659
 30
0.0
 10
1.4003584403
 20
5.0653214352
 30
0.0
 10
1.4018952793
 20
5.0641349589
 30
0.0
 10
1.404296854
 20
5.0627672835
 30
0.0
 10
1.4070374809
 20
5.0618432206
 30
0.0
 10
1.4099402256
 20
5.0613722076
 30
0.0
 10
1.4114447844
 20
5.061291531
 30
0.0
 10
1.4122001157
 20
5.061291531
 30
0.0
  0
SPLINE
  5
33D
100
AcDbEntity
  8
0
100
AcDbSpline
 62
7
  6
CONTINUOUS
 70
0
 71
3
 72
11
 73
7
 74
0
 42
0.0000001
 43
0.0000001
 44
0.0000000001
 40
0.0
 40
0.0
 40
0.0
 40
0.0
 40
0.2718775795
 40
0.525603703
 40
0.7662474693
 40
1.0
 40
1.0
 40
1.0
 40
1.0
 10
1.3981551781
 20
5.0681739062
 30
0.0
 10
1.3981140139
 20
5.0680377834
 30
0.0
 10
1.3980503111
 20
5.0677693267
 30
0.0
 10
1.3980157932
 20
5.067368381
 30
0.0
 10
1.3980469454
 20
5.0669869137
 30
0.0
 10
1.3981122466
 20
5.0667457649
 30
0.0
 10
1.3981551781
 20
5.0666312811
 30
0.0
  0
SPLINE
  5
33E
100
AcDbEntity
  8
0
100
AcDbSpline
 62
7
  6
CONTINUOUS
 70
0
 71
3
 72
11
 73
7
 74
0
 42
0.0000001
 43
0.0000001
 44
0.0000000001
 40
0.0
 40
0.0
 40
0.0
 40
0.0
 40
0.2337525309
 40
0.474396298
 40
0.728122421
 40
1.0
 40
1.0
 40
1.0
 40
1.0
 10
8.6220350393
 20
5.2516312811
 30
0.0
 10
8.6220779708
 20
5.2517457649
 30
0.0
 10
8.622143272
 20
5.2519869137
 30
0.0
 10
8.6221744242
 20
5.252368381
 30
0.0
 10
8.6221399063
 20
5.2527693267
 30
0.0
 10
8.6220762035
 20
5.2530377834
 30
0.0
 10
8.6220350393
 20
5.2531739062
 30
0.0
  0
SPLINE
  5
33F
100
AcDbEntity
  8
0
100
AcDbSpline
 62
7
  6
CONTINUOUS
 70
0
 71
3
 72
9
 73
5
 74
0
 42
0.0000001
 43
0.0000001
 44
0.0000000001
 40
0.0
 40
0.0
 40
0.0
 40
0.0
 40
0.4954457948
 40
1.0
 40
1.0
 40
1.0
 40
1.0
 10
8.6220350393
 20
5.2531739062
 30
0.0
 10
8.6221212849
 20
5.2537843583
 30
0.0
 10
8.6222066239
 20
5.2550304585
 30
0.0
 10
8.6221197577
 20
5.2562760261
 30
0.0
 10
8.6220350393
 20
5.2568981327
 30
0.0
  0
SPLINE
  5
340
100
AcDbEntity
  8
0
100
AcDbSpline
 62
7
  6
CONTINUOUS
 70
0
 71
3
 72
11
 73
7
 74
0
 42
0.0000001
 43
0.0000001
 44
0.0000000001
 40
0.0
 40
0.0
 40
0.0
 40
0.0
 40
0.2718775796
 40
0.525603703
 40
0.7662474692
 40
1.0
 40
1.0
 40
1.0
 40
1.0
 10
8.6220350393
 20
5.2606223592
 30
0.0
 10
8.6220762035
 20
5.2607584821
 30
0.0
 10
8.6221399063
 20
5.2610269388
 30
0.0
 10
8.6221744242
 20
5.2614278844
 30
0.0
 10
8.622143272
 20
5.2618093518
 30
0.0
 10
8.6220779708
 20
5.2620505006
 30
0.0
 10
8.6220350393
 20
5.2621649844
 30
0.0
  0
SPLINE
  5
341
100
AcDbEntity
  8
0
100
AcDbSpline
 62
7
  6
CONTINUOUS
 70
0
 71
3
 72
9
 73
5
 74
0
 42
0.0000001
 43
0.0000001
 44
0.0000000001
 40
0.0
 40
0.0
 40
0.0
 40
0.0
 40
0.5045542061
 40
1.0
 40
1.0
 40
1.0
 40
1.0
 10
8.6220350393
 20
5.2568981327
 30
0.0
 10
8.6221197577
 20
5.2575202394
 30
0.0
 10
8.6222066239
 20
5.258765807
 30
0.0
 10
8.6221212849
 20
5.2600119071
 30
0.0
 10
8.6220350393
 20
5.2606223592
 30
0.0
  0
SPLINE
  5
342
100
AcDbEntity
  8
0
100
AcDbSpline
 62
7
  6
CONTINUOUS
 70
0
 71
3
 72
14
 73
10
 74
0
 42
0.0000001
 43
0.0000001
 44
0.0000000001
 40
0.0
 40
0.0
 40
0.0
 40
0.0
 40
0.1064471009
 40
0.218674106
 40
0.336944638
 40
0.4612118846
 40
0.7243345428
 40
0.8614582317
 40
1.0
 40
1.0
 40
1.0
 40
1.0
 10
8.5526600393
 20
5.0681739062
 30
0.0
 10
8.5523881331
 20
5.0676611949
 30
0.0
 10
8.5517248492
 20
5.0666610653
 30
0.0
 10
8.5504567756
 20
5.0653214336
 30
0.0
 10
8.5489199346
 20
5.0641349565
 30
0.0
 10
8.5465183567
 20
5.0627672805
 30
0.0
 10
8.5437777292
 20
5.06184322
 30
0.0
 10
8.540874987
 20
5.0613722058
 30
0.0
 10
8.5393704317
 20
5.061291531
 30
0.0
 10
8.5386151017
 20
5.061291531
 30
0.0
  0
SPLINE
  5
343
100
AcDbEntity
  8
0
100
AcDbSpline
 62
7
  6
CONTINUOUS
 70
0
 71
3
 72
11
 73
7
 74
0
 42
0.0000001
 43
0.0000001
 44
0.0000000001
 40
0.0
 40
0.0
 40
0.0
 40
0.0
 40
0.2337525308
 40
0.474396297
 40
0.7281224204
 40
1.0
 40
1.0
 40
1.0
 40
1.0
 10
8.5526600393
 20
5.0666312811
 30
0.0
 10
8.5527029708
 20
5.0667457649
 30
0.0
 10
8.552768272
 20
5.0669869137
 30
0.0
 10
8.5527994242
 20
5.067368381
 30
0.0
 10
8.5527649063
 20
5.0677693267
 30
0.0
 10
8.5527012035
 20
5.0680377834
 30
0.0
 10
8.5526600393
 20
5.0681739062
 30
0.0
  0
SPLINE
  5
344
100
AcDbEntity
  8
0
100
AcDbSpline
 62
7
  6
CONTINUOUS
 70
0
 71
3
 72
14
 73
10
 74
0
 42
0.0000001
 43
0.0000001
 44
0.0000000001
 40
0.0
 40
0.0
 40
0.0
 40
0.0
 40
0.1064470759
 40
0.2186739866
 40
0.3369443883
 40
0.4612114757
 40
0.724333886
 40
0.861457983
 40
1.0
 40
1.0
 40
1.0
 40
1.0
 10
8.5526600393
 20
5.1765443972
 30
0.0
 10
8.5523881332
 20
5.176031686
 30
0.0
 10
8.5517248498
 20
5.1750315568
 30
0.0
 10
8.5504567771
 20
5.1736919261
 30
0.0
 10
8.5489199381
 20
5.1725054499
 30
0.0
 10
8.5465183634
 20
5.1711377744
 30
0.0
 10
8.5437777365
 20
5.1702137116
 30
0.0
 10
8.5408749918
 20
5.1697426985
 30
0.0
 10
8.539370433
 20
5.169662022
 30
0.0
 10
8.5386151017
 20
5.169662022
 30
0.0
  0
SPLINE
  5
345
100
AcDbEntity
  8
0
100
AcDbSpline
 62
7
  6
CONTINUOUS
 70
0
 71
3
 72
9
 73
5
 74
0
 42
0.0000001
 43
0.0000001
 44
0.0000000001
 40
0.0
 40
0.0
 40
0.0
 40
0.0
 40
0.4954457948
 40
1.0
 40
1.0
 40
1.0
 40
1.0
 10
8.5526600393
 20
5.1765443972
 30
0.0
 10
8.5527462849
 20
5.1771548493
 30
0.0
 10
8.5528316239
 20
5.1784009495
 30
0.0
 10
8.5527447577
 20
5.179646517
 30
0.0
 10
8.5526600393
 20
5.1802686237
 30
0.0
  0
SPLINE
  5
346
100
AcDbEntity
  8
0
100
AcDbSpline
 62
7
  6
CONTINUOUS
 70
0
 71
3
 72
14
 73
10
 74
0
 42
0.0000001
 43
0.0000001
 44
0.0000000001
 40
0.0
 40
0.0
 40
0.0
 40
0.0
 40
0.1064470759
 40
0.2186739866
 40
0.3369443883
 40
0.4612114757
 40
0.724333886
 40
0.861457983
 40
1.0
 40
1.0
 40
1.0
 40
1.0
 10
8.5526600393
 20
5.4456223592
 30
0.0
 10
8.5523881332
 20
5.4461350704
 30
0.0
 10
8.5517248498
 20
5.4471351996
 30
0.0
 10
8.5504567771
 20
5.4484748303
 30
0.0
 10
8.5489199381
 20
5.4496613065
 30
0.0
 10
8.5465183634
 20
5.451028982
 30
0.0
 10
8.5437777365
 20
5.4519530449
 30
0.0
 10
8.5408749918
 20
5.4524240579
 30
0.0
 10
8.539370433
 20
5.4525047345
 30
0.0
 10
8.5386151017
 20
5.4525047345
 30
0.0
  0
SPLINE
  5
347
100
AcDbEntity
  8
0
100
AcDbSpline
 62
7
  6
CONTINUOUS
 70
0
 71
3
 72
11
 73
7
 74
0
 42
0.0000001
 43
0.0000001
 44
0.0000000001
 40
0.0
 40
0.0
 40
0.0
 40
0.0
 40
0.2718775795
 40
0.525603703
 40
0.7662474693
 40
1.0
 40
1.0
 40
1.0
 40
1.0
 10
8.5526600393
 20
5.4456223592
 30
0.0
 10
8.5527012035
 20
5.4457584821
 30
0.0
 10
8.5527649063
 20
5.4460269388
 30
0.0
 10
8.5527994242
 20
5.4464278844
 30
0.0
 10
8.552768272
 20
5.4468093518
 30
0.0
 10
8.5527029708
 20
5.4470505006
 30
0.0
 10
8.5526600393
 20
5.4471649844
 30
0.0
  0
SPLINE
  5
348
100
AcDbEntity
  8
0
100
AcDbSpline
 62
7
  6
CONTINUOUS
 70
0
 71
3
 72
14
 73
10
 74
0
 42
0.0000001
 43
0.0000001
 44
0.0000000001
 40
0.0
 40
0.0
 40
0.0
 40
0.0
 40
0.1064470569
 40
0.2186739238
 40
0.3369442837
 40
0.4612113046
 40
0.7243334057
 40
0.861457773
 40
1.0
 40
1.0
 40
1.0
 40
1.0
 10
8.5526600393
 20
5.3372518683
 30
0.0
 10
8.5523881332
 20
5.3377645794
 30
0.0
 10
8.5517248502
 20
5.3387647083
 30
0.0
 10
8.5504567778
 20
5.3401043386
 30
0.0
 10
8.5489199396
 20
5.3412908145
 30
0.0
 10
8.546518367
 20
5.342658489
 30
0.0
 10
8.5437777413
 20
5.3435825539
 30
0.0
 10
8.5408749955
 20
5.3440535654
 30
0.0
 10
8.5393704342
 20
5.3441342435
 30
0.0
 10
8.5386151017
 20
5.3441342435
 30
0.0
  0
SPLINE
  5
349
100
AcDbEntity
  8
0
100
AcDbSpline
 62
7
  6
CONTINUOUS
 70
0
 71
3
 72
9
 73
5
 74
0
 42
0.0000001
 43
0.0000001
 44
0.0000000001
 40
0.0
 40
0.0
 40
0.0
 40
0.0
 40
0.5045541733
 40
1.0
 40
1.0
 40
1.0
 40
1.0
 10
8.5526600393
 20
5.3335276418
 30
0.0
 10
8.5527447577
 20
5.3341497484
 30
0.0
 10
8.5528316239
 20
5.335395316
 30
0.0
 10
8.5527462849
 20
5.3366414161
 30
0.0
 10
8.5526600393
 20
5.3372518683
 30
0.0
  0
SPLINE
  5
34A
100
AcDbEntity
  8
ALL_ASSEMBLY_MEMBERS
100
AcDbSpline
 62
7
  6
CONTINUOUS
 70
0
 71
3
 72
35
 73
31
 74
0
 42
0.0000001
 43
0.0000001
 44
0.0000000001
 40
0.0
 40
0.0
 40
0.0
 40
0.0
 40
0.0034406999
 40
0.0118400422
 40
0.0250483776
 40
0.042844492
 40
0.0910715288
 40
0.1540326093
 40
0.1902264867
 40
0.2291293202
 40
0.2704148678
 40
0.3137465995
 40
0.3587685843
 40
0.4050978784
 40
0.4523214755
 40
0.4999999916
 40
0.5476785079
 40
0.5949021053
 40
0.6412313998
 40
0.6862533851
 40
0.7295851175
 40
0.7708706658
 40
0.8097735003
 40
0.8459673786
 40
0.9089284615
 40
0.9571555012
 40
0.9749516172
 40
0.9881599543
 40
0.9965592984
 40
1.0
 40
1.0
 40
1.0
 40
1.0
 10
7.1889038601
 20
5.1606640349
 30
0.0
 10
7.1888209832
 20
5.1608749944
 30
0.0
 10
7.1885365349
 20
5.1616012355
 30
0.0
 10
7.1879397264
 20
5.1631395841
 30
0.0
 10
7.1870155774
 20
5.1655652405
 30
0.0
 10
7.1852005866
 20
5.1704589278
 30
0.0
 10
7.1824003969
 20
5.1784822954
 30
0.0
 10
7.1795229031
 20
5.1877580683
 30
0.0
 10
7.1771246433
 20
5.1965315516
 30
0.0
 10
7.1753025511
 20
5.2039796236
 30
0.0
 10
7.173606988
 20
5.2119392266
 30
0.0
 10
7.1721046027
 20
5.2203477095
 30
0.0
 10
7.170858148
 20
5.2291339847
 30
0.0
 10
7.1699229545
 20
5.238216908
 30
0.0
 10
7.1693428709
 20
5.2475049936
 30
0.0
 10
7.1691462352
 20
5.2568981311
 30
0.0
 10
7.1693428707
 20
5.2662912685
 30
0.0
 10
7.1699229542
 20
5.2755793542
 30
0.0
 10
7.1708581476
 20
5.2846622776
 30
0.0
 10
7.1721046022
 20
5.2934485529
 30
0.0
 10
7.1736069874
 20
5.3018570359
 30
0.0
 10
7.1753025505
 20
5.3098166392
 30
0.0
 10
7.1771246426
 20
5.3172647113
 30
0.0
 10
7.1795229025
 20
5.3260381949
 30
0.0
 10
7.1824003963
 20
5.3353139682
 30
0.0
 10
7.1852005861
 20
5.3433373363
 30
0.0
 10
7.187015577
 20
5.3482310239
 30
0.0
 10
7.1879397261
 20
5.3506566807
 30
0.0
 10
7.1885365347
 20
5.3521950296
 30
0.0
 10
7.1888209831
 20
5.3529212709
 30
0.0
 10
7.1889038601
 20
5.3531322305
 30
0.0
  0
SPLINE
  5
34B
100
AcDbEntity
  8
ALL_ASSEMBLY_MEMBERS
100
AcDbSpline
 62
7
  6
CONTINUOUS
 70
0
 71
3
 72
18
 73
14
 74
0
 42
0.0000001
 43
0.0000001
 44
0.0000000001
 40
0.0
 40
0.0
 40
0.0
 40
0.0
 40
0.1313540398
 40
0.2621352075
 40
0.3917643492
 40
0.5196365035
 40
0.6451121167
 40
0.7067476863
 40
0.7675210456
 40
0.8273359149
 40
0.8860915779
 40
0.9436828169
 40
1.0
 40
1.0
 40
1.0
 40
1.0
 10
6.834428538
 20
5.4908981327
 30
0.0
 10
6.834428538
 20
5.4925069132
 30
0.0
 10
6.834321097
 20
5.4957185012
 30
0.0
 10
6.8338399188
 20
5.5004959399
 30
0.0
 10
6.8330466366
 20
5.505188577
 30
0.0
 10
6.8319538979
 20
5.5097536735
 30
0.0
 10
6.8308009106
 20
5.5134386896
 30
0.0
 10
6.8297427057
 20
5.5162848694
 30
0.0
 10
6.8288908566
 20
5.5183482624
 30
0.0
 10
6.8279793183
 20
5.5203472728
 30
0.0
 10
6.8270114306
 20
5.5222761494
 30
0.0
 10
6.8259908172
 20
5.5241288749
 30
0.0
 10
6.8252692059
 20
5.5253234053
 30
0.0
 10
6.8249001589
 20
5.5259061274
 30
0.0
  0
SPLINE
  5
34C
100
AcDbEntity
  8
ALL_ASSEMBLY_MEMBERS
100
AcDbSpline
 62
7
  6
CONTINUOUS
 70
0
 71
3
 72
24
 73
20
 74
0
 42
0.0000001
 43
0.0000001
 44
0.0000000001
 40
0.0
 40
0.0
 40
0.0
 40
0.0
 40
0.0618541405
 40
0.1220142421
 40
0.1808077311
 40
0.2386143094
 40
0.295842883
 40
0.3529259211
 40
0.410303482
 40
0.4684079856
 40
0.5276499576
 40
0.5884059441
 40
0.6510096089
 40
0.7157464086
 40
0.7489962457
 40
0.782863314
 40
0.8525217994
 40
0.9248703188
 40
1.0
 40
1.0
 40
1.0
 40
1.0
 10
6.8061297183
 20
5.5310934825
 30
0.0
 10
6.806514478
 20
5.5313091601
 30
0.0
 10
6.8072914564
 20
5.5317035879
 30
0.0
 10
6.808490132
 20
5.5321832509
 30
0.0
 10
6.8097011089
 20
5.5325400798
 30
0.0
 10
6.8109208007
 20
5.5327725126
 30
0.0
 10
6.8121456701
 20
5.5328794135
 30
0.0
 10
6.8133720087
 20
5.5328601078
 30
0.0
 10
6.8145960793
 20
5.5327144082
 30
0.0
 10
6.8158141564
 20
5.5324426105
 30
0.0
 10
6.817022581
 20
5.5320454754
 30
0.0
 10
6.8182178042
 20
5.531524174
 30
0.0
 10
6.8193963418
 20
5.5308802968
 30
0.0
 10
6.8203532514
 20
5.5302487898
 30
0.0
 10
6.8211069524
 20
5.5296863301
 30
0.0
 10
6.8218663792
 20
5.5290739703
 30
0.0
 10
6.8227990354
 20
5.5282337791
 30
0.0
 10
6.823878191
 20
5.5271219802
 30
0.0
 10
6.8245628951
 20
5.5263227493
 30
0.0
 10
6.8248998094
 20
5.5259061897
 30
0.0
  0
SPLINE
  5
34D
100
AcDbEntity
  8
ALL_ASSEMBLY_MEMBERS
100
AcDbSpline
 62
7
  6
CONTINUOUS
 70
0
 71
3
 72
30
 73
26
 74
0
 42
0.0000001
 43
0.0000001
 44
0.0000000001
 40
0.0
 40
0.0
 40
0.0
 40
0.0
 40
0.0789985184
 40
0.1537417973
 40
0.2243421265
 40
0.2910123618
 40
0.3540791085
 40
0.4139937643
 40
0.4429605372
 40
0.4713681142
 40
0.4993080785
 40
0.5268786894
 40
0.5541831535
 40
0.581328646
 40
0.6084243443
 40
0.6355798561
 40
0.6629033056
 40
0.6904996951
 40
0.7184692823
 40
0.7469064497
 40
0.7758984688
 40
0.8055251837
 40
0.8669368945
 40
0.9316451341
 40
1.0
 40
1.0
 40
1.0
 40
1.0
 10
6.8085243866
 20
5.4608591047
 30
0.0
 10
6.8088202183
 20
5.4603831842
 30
0.0
 10
6.8094265752
 20
5.4594754524
 30
0.0
 10
6.8104076488
 20
5.4582204823
 30
0.0
 10
6.8114302573
 20
5.4571151211
 30
0.0
 10
6.8124894179
 20
5.4561642445
 30
0.0
 10
6.8135799324
 20
5.4553721146
 30
0.0
 10
6.814521354
 20
5.45484135
 30
0.0
 10
6.8152822077
 20
5.4545035131
 30
0.0
 10
6.8158506156
 20
5.4542944549
 30
0.0
 10
6.8164223823
 20
5.4541271721
 30
0.0
 10
6.8169967882
 20
5.4540017825
 30
0.0
 10
6.8175730996
 20
5.4539184233
 30
0.0
 10
6.8181505721
 20
5.4538771212
 30
0.0
 10
6.8187284642
 20
5.45387789
 30
0.0
 10
6.8193060328
 20
5.4539206558
 30
0.0
 10
6.8198825427
 20
5.4540053033
 30
0.0
 10
6.820457265
 20
5.4541316633
 30
0.0
 10
6.8210294898
 20
5.4542994989
 30
0.0
 10
6.8215985055
 20
5.4545085519
 30
0.0
 10
6.8221636505
 20
5.4547584915
 30
0.0
 10
6.8229200235
 20
5.4551504153
 30
0.0
 10
6.8238538603
 20
5.4557455872
 30
0.0
 10
6.8249335961
 20
5.4566076293
 30
0.0
 10
6.8256129812
 20
5.4572650414
 30
0.0
 10
6.8259471733
 20
5.457616348
 30
0.0
  0
SPLINE
  5
34E
100
AcDbEntity
  8
ALL_ASSEMBLY_MEMBERS
100
AcDbSpline
 62
7
  6
CONTINUOUS
 70
0
 71
3
 72
17
 73
13
 74
0
 42
0.0000001
 43
0.0000001
 44
0.0000000001
 40
0.0
 40
0.0
 40
0.0
 40
0.0
 40
0.0571577108
 40
0.1154101181
 40
0.1746646638
 40
0.2348324174
 40
0.3575532802
 40
0.482950553
 40
0.6104336221
 40
0.739450354
 40
0.8694742064
 40
1.0
 40
1.0
 40
1.0
 40
1.0
 10
6.8259466379
 20
5.4576187721
 30
0.0
 10
6.8262779991
 20
5.4581913558
 30
0.0
 10
6.8269252094
 20
5.4593602783
 30
0.0
 10
6.8278399733
 20
5.4611635207
 30
0.0
 10
6.828705524
 20
5.4630294102
 30
0.0
 10
6.8297972774
 20
5.4656111143
 30
0.0
 10
6.831019956
 20
5.4689662774
 30
0.0
 10
6.8322406369
 20
5.4731416942
 30
0.0
 10
6.8332081377
 20
5.4774577163
 30
0.0
 10
6.8339091186
 20
5.4818791875
 30
0.0
 10
6.8343337758
 20
5.4863708976
 30
0.0
 10
6.834428538
 20
5.4893874052
 30
0.0
 10
6.834428538
 20
5.4908981327
 30
0.0
  0
SPLINE
  5
34F
100
AcDbEntity
  8
ALL_ASSEMBLY_MEMBERS
100
AcDbSpline
 62
7
  6
CONTINUOUS
 70
0
 71
3
 72
14
 73
10
 74
0
 42
0.0000001
 43
0.0000001
 44
0.0000000001
 40
0.0
 40
0.0
 40
0.0
 40
0.0
 40
0.255830067
 40
0.3829630392
 40
0.5092049003
 40
0.6342837037
 40
0.7579376897
 40
0.8799253329
 40
1.0
 40
1.0
 40
1.0
 40
1.0
 10
6.79245725
 20
5.4912266253
 30
0.0
 10
6.7924598722
 20
5.4925529515
 30
0.0
 10
6.7924874554
 20
5.4945384556
 30
0.0
 10
6.7925727344
 20
5.4971770534
 30
0.0
 10
6.7926608875
 20
5.4991371906
 30
0.0
 10
6.7927736819
 20
5.501077996
 30
0.0
 10
6.7929115327
 20
5.5029950793
 30
0.0
 10
6.7930749311
 20
5.5048841161
 30
0.0
 10
6.7932023424
 20
5.5061326465
 30
0.0
 10
6.7932706935
 20
5.5067513995
 30
0.0
  0
SPLINE
  5
350
100
AcDbEntity
  8
ALL_ASSEMBLY_MEMBERS
100
AcDbSpline
 62
7
  6
CONTINUOUS
 70
0
 71
3
 72
22
 73
18
 74
0
 42
0.0000001
 43
0.0000001
 44
0.0000000001
 40
0.0
 40
0.0
 40
0.0
 40
0.0
 40
0.1289121265
 40
0.1938615418
 40
0.2589512502
 40
0.3240377364
 40
0.3889778706
 40
0.4536279227
 40
0.5178448131
 40
0.5814872305
 40
0.6444167206
 40
0.7064990222
 40
0.7676055285
 40
0.8276149758
 40
0.8864153375
 40
0.9439059617
 40
1.0
 40
1.0
 40
1.0
 40
1.0
 10
6.7929494237
 20
5.4795005706
 30
0.0
 10
6.793028469
 20
5.4809957176
 30
0.0
 10
6.7932091333
 20
5.4832415444
 30
0.0
 10
6.7935742468
 20
5.4862271241
 30
0.0
 10
6.7939125238
 20
5.4884683325
 30
0.0
 10
6.7943148375
 20
5.490698806
 30
0.0
 10
6.7947813199
 20
5.4929115539
 30
0.0
 10
6.7953119048
 20
5.4950994378
 30
0.0
 10
6.7959063285
 20
5.4972552401
 30
0.0
 10
6.7965641199
 20
5.4993716698
 30
0.0
 10
6.7972845966
 20
5.501441389
 30
0.0
 10
6.7980668571
 20
5.5034570338
 30
0.0
 10
6.798909776
 20
5.5054112418
 30
0.0
 10
6.7998119953
 20
5.5072966708
 30
0.0
 10
6.8007719396
 20
5.5091060524
 30
0.0
 10
6.8017877498
 20
5.510832125
 30
0.0
 10
6.8025101026
 20
5.5119367504
 30
0.0
 10
6.802880545
 20
5.5124726811
 30
0.0
  0
SPLINE
  5
351
100
AcDbEntity
  8
ALL_ASSEMBLY_MEMBERS
100
AcDbSpline
 62
7
  6
CONTINUOUS
 70
0
 71
3
 72
32
 73
28
 74
0
 42
0.0000001
 43
0.0000001
 44
0.0000000001
 40
0.0
 40
0.0
 40
0.0
 40
0.0
 40
0.0761316766
 40
0.1519546614
 40
0.2270409314
 40
0.3009737347
 40
0.3733582786
 40
0.443827082
 40
0.512047575
 40
0.5452261659
 40
0.5777382163
 40
0.6095557281
 40
0.640654744
 40
0.6710154476
 40
0.7006227473
 40
0.729466683
 40
0.7575426962
 40
0.7848523942
 40
0.8114038077
 40
0.8372119551
 40
0.8622994884
 40
0.8866969021
 40
0.9104431653
 40
0.9335859196
 40
0.9561815141
 40
0.9782950918
 40
1.0
 40
1.0
 40
1.0
 40
1.0
 10
6.79245725
 20
5.4912266253
 30
0.0
 10
6.7925251847
 20
5.4924709024
 30
0.0
 10
6.7927152112
 20
5.4949517923
 30
0.0
 10
6.7931628723
 20
5.4986421456
 30
0.0
 10
6.7937711436
 20
5.5022730973
 30
0.0
 10
6.7945368123
 20
5.5058166475
 30
0.0
 10
6.7954554577
 20
5.5092456116
 30
0.0
 10
6.7965214666
 20
5.51253358
 30
0.0
 10
6.7975363078
 20
5.5151591478
 30
0.0
 10
6.7984184049
 20
5.5171660105
 30
0.0
 10
6.7991061091
 20
5.518606582
 30
0.0
 10
6.7998248983
 20
5.5199936796
 30
0.0
 10
6.8005735726
 20
5.5213246476
 30
0.0
 10
6.8013508864
 20
5.5225969152
 30
0.0
 10
6.8021555332
 20
5.5238080328
 30
0.0
 10
6.8029861508
 20
5.5249556718
 30
0.0
 10
6.8038413493
 20
5.5260376118
 30
0.0
 10
6.8047196722
 20
5.5270517726
 30
0.0
 10
6.8056196361
 20
5.5279961921
 30
0.0
 10
6.8065397215
 20
5.5288690336
 30
0.0
 10
6.8074783562
 20
5.5296686089
 30
0.0
 10
6.8084339548
 20
5.5303933402
 30
0.0
 10
6.809404885
 20
5.5310417996
 30
0.0
 10
6.8103894744
 20
5.5316126949
 30
0.0
 10
6.8113860559
 20
5.5321048576
 30
0.0
 10
6.8123928063
 20
5.5325172667
 30
0.0
 10
6.8130752931
 20
5.532740306
 30
0.0
 10
6.8134169368
 20
5.5328377475
 30
0.0
  0
LINE
  5
352
100
AcDbEntity
  8
ALL_ASSEMBLY_MEMBERS
100
AcDbLine
 62
7
  6
CONTINUOUS
 10
6.8132933452
 20
5.4555952657
 11
6.8118312343
 21
5.4580770543
  0
SPLINE
  5
353
100
AcDbEntity
  8
ALL_ASSEMBLY_MEMBERS
100
AcDbSpline
 62
7
  6
CONTINUOUS
 70
0
 71
3
 72
46
 73
42
 74
0
 42
0.0000001
 43
0.0000001
 44
0.0000000001
 40
0.0
 40
0.0
 40
0.0
 40
0.0
 40
0.0369386283
 40
0.0726425409
 40
0.1070228913
 40
0.1399991947
 40
0.17150562
 40
0.20149917
 40
0.2299697794
 40
0.2569520261
 40
0.282537475
 40
0.2948591102
 40
0.3068975619
 40
0.3186843761
 40
0.3302556269
 40
0.3416515303
 40
0.3529158338
 40
0.364095012
 40
0.3752372562
 40
0.3863913831
 40
0.3976056721
 40
0.4089267926
 40
0.4203988199
 40
0.4320624845
 40
0.4439545827
 40
0.4685398668
 40
0.494374698
 40
0.5216005366
 40
0.5503010661
 40
0.5805130346
 40
0.6122367821
 40
0.6454453047
 40
0.6800915508
 40
0.7161139673
 40
0.7534405571
 40
0.7919916843
 40
0.8316821766
 40
0.8724227121
 40
0.9141195777
 40
0.9566794769
 40
1.0
 40
1.0
 40
1.0
 40
1.0
 10
6.8235782165
 20
5.5278821203
 30
0.0
 10
6.8231737644
 20
5.5284541015
 30
0.0
 10
6.8223516978
 20
5.5295604168
 30
0.0
 10
6.8210587369
 20
5.5311261424
 30
0.0
 10
6.819732006
 20
5.5325628742
 30
0.0
 10
6.818378252
 20
5.533861848
 30
0.0
 10
6.8170045447
 20
5.5350144366
 30
0.0
 10
6.8156182975
 20
5.5360122411
 30
0.0
 10
6.814227084
 20
5.5368473227
 30
0.0
 10
6.8128388369
 20
5.5375123309
 30
0.0
 10
6.8116762347
 20
5.5379245139
 30
0.0
 10
6.8107580688
 20
5.5381593698
 30
0.0
 10
6.8100841233
 20
5.538287407
 30
0.0
 10
6.8094173289
 20
5.5383691595
 30
0.0
 10
6.8087586334
 20
5.5384043792
 30
0.0
 10
6.8081089819
 20
5.5383929476
 30
0.0
 10
6.8074692783
 20
5.5383348544
 30
0.0
 10
6.8068403833
 20
5.5382302419
 30
0.0
 10
6.8062231077
 20
5.5380793586
 30
0.0
 10
6.8056181931
 20
5.5378826095
 30
0.0
 10
6.8050263185
 20
5.5376404906
 30
0.0
 10
6.8044480698
 20
5.5373536425
 30
0.0
 10
6.8038839724
 20
5.5370227706
 30
0.0
 10
6.803334429
 20
5.5366486881
 30
0.0
 10
6.8026137415
 20
5.5360873425
 30
0.0
 10
6.8017500352
 20
5.53527659
 30
0.0
 10
6.8007889203
 20
5.5341578703
 30
0.0
 10
6.7998912599
 20
5.5328911407
 30
0.0
 10
6.7990564205
 20
5.5314852235
 30
0.0
 10
6.7982830961
 20
5.5299487798
 30
0.0
 10
6.797569673
 20
5.5282904076
 30
0.0
 10
6.7969142452
 20
5.5265185312
 30
0.0
 10
6.7963147119
 20
5.5246413627
 30
0.0
 10
6.7957688441
 20
5.5226668646
 30
0.0
 10
6.7952743525
 20
5.5206027423
 30
0.0
 10
6.7948289411
 20
5.5184564521
 30
0.0
 10
6.7944303552
 20
5.5162352212
 30
0.0
 10
6.7940764286
 20
5.5139460965
 30
0.0
 10
6.7937651002
 20
5.5115959186
 30
0.0
 10
6.793494486
 20
5.5091914947
 30
0.0
 10
6.7933412902
 20
5.5075699228
 30
0.0
 10
6.7932706935
 20
5.5067513995
 30
0.0
  0
SPLINE
  5
354
100
AcDbEntity
  8
ALL_ASSEMBLY_MEMBERS
100
AcDbSpline
 62
7
  6
CONTINUOUS
 70
0
 71
3
 72
22
 73
18
 74
0
 42
0.0000001
 43
0.0000001
 44
0.0000000001
 40
0.0
 40
0.0
 40
0.0
 40
0.0
 40
0.0761137383
 40
0.1508841938
 40
0.2241648541
 40
0.2958268095
 40
0.3657465114
 40
0.4338137086
 40
0.4999308113
 40
0.5640149574
 40
0.625999777
 40
0.6858374268
 40
0.7435009409
 40
0.7989868295
 40
0.8523181171
 40
0.9035461465
 40
1.0
 40
1.0
 40
1.0
 40
1.0
 10
6.7932706935
 20
5.5067513995
 30
0.0
 10
6.7934116131
 20
5.5074515666
 30
0.0
 10
6.7937116423
 20
5.5088354862
 30
0.0
 10
6.7942209061
 20
5.5108766847
 30
0.0
 10
6.794784243
 20
5.5128602788
 30
0.0
 10
6.7954000015
 20
5.5147805069
 30
0.0
 10
6.7960664274
 20
5.5166318659
 30
0.0
 10
6.7967815989
 20
5.518409019
 30
0.0
 10
6.7975434666
 20
5.5201068598
 30
0.0
 10
6.7983498485
 20
5.5217205103
 30
0.0
 10
6.7991984438
 20
5.5232453385
 30
0.0
 10
6.8000868343
 20
5.524676964
 30
0.0
 10
6.8010125218
 20
5.5260112916
 30
0.0
 10
6.8019728381
 20
5.5272444413
 30
0.0
 10
6.8029653018
 20
5.528373036
 30
0.0
 10
6.8043001201
 20
5.5297066189
 30
0.0
 10
6.8053812863
 20
5.5305845654
 30
0.0
 10
6.8061297183
 20
5.5310934825
 30
0.0
  0
LINE
  5
355
100
AcDbEntity
  8
ALL_ASSEMBLY_MEMBERS
100
AcDbLine
 62
7
  6
CONTINUOUS
 10
6.7929494237
 20
5.4795005706
 11
6.79245725
 21
5.4912266253
  0
SPLINE
  5
356
100
AcDbEntity
  8
ALL_ASSEMBLY_MEMBERS
100
AcDbSpline
 62
7
  6
CONTINUOUS
 70
0
 71
3
 72
56
 73
52
 74
0
 42
0.0000001
 43
0.0000001
 44
0.0000000001
 40
0.0
 40
0.0
 40
0.0
 40
0.0
 40
0.0434609913
 40
0.0863164521
 40
0.128451433
 40
0.1697592096
 40
0.2101327906
 40
0.2494693759
 40
0.2876695586
 40
0.3246383695
 40
0.3602866499
 40
0.3945331055
 40
0.4111093645
 40
0.4273100189
 40
0.4431288622
 40
0.4585608506
 40
0.4736027529
 40
0.4882530342
 40
0.5025125265
 40
0.5163845185
 40
0.5298753259
 40
0.542994607
 40
0.5557558199
 40
0.5681766532
 40
0.5920798054
 40
0.6036326951
 40
0.6149639761
 40
0.6261155991
 40
0.6371337931
 40
0.6480682133
 40
0.6589708908
 40
0.6698949865
 40
0.6808933352
 40
0.692017223
 40
0.7033149155
 40
0.7148309223
 40
0.7266048494
 40
0.7386713537
 40
0.7510594405
 40
0.7768804974
 40
0.7903556522
 40
0.8042176767
 40
0.8184719217
 40
0.8331200959
 40
0.8481609672
 40
0.8635906769
 40
0.8794031993
 40
0.8955907884
 40
0.9290490351
 40
0.9638841975
 40
1.0
 40
1.0
 40
1.0
 40
1.0
 10
6.7929494237
 20
5.4795005706
 30
0.0
 10
6.7930014877
 20
5.478613113
 30
0.0
 10
6.7931183101
 20
5.4768513142
 30
0.0
 10
6.7933351922
 20
5.4742327163
 30
0.0
 10
6.793594312
 20
5.4716621948
 30
0.0
 10
6.7938975506
 20
5.4691476036
 30
0.0
 10
6.7942470416
 20
5.4666967916
 30
0.0
 10
6.7946451012
 20
5.4643177748
 30
0.0
 10
6.7950942194
 20
5.4620187274
 30
0.0
 10
6.7955970084
 20
5.4598080325
 30
0.0
 10
6.7961561515
 20
5.4576943899
 30
0.0
 10
6.7966768238
 20
5.456003376
 30
0.0
 10
6.7971260031
 20
5.4547079785
 30
0.0
 10
6.7974750302
 20
5.453777135
 30
0.0
 10
6.797840143
 20
5.4528776821
 30
0.0
 10
6.7982216199
 20
5.4520108617
 30
0.0
 10
6.7986197282
 20
5.4511779482
 30
0.0
 10
6.7990346853
 20
5.4503802137
 30
0.0
 10
6.7994667066
 20
5.4496189592
 30
0.0
 10
6.7999159384
 20
5.4488954727
 30
0.0
 10
6.8003825217
 20
5.4482110585
 30
0.0
 10
6.8008665026
 20
5.4475670128
 30
0.0
 10
6.8013679685
 20
5.4469645774
 30
0.0
 10
6.8020508466
 20
5.4462281229
 30
0.0
 10
6.8027775274
 20
5.4455672261
 30
0.0
 10
6.8035462298
 20
5.4449961251
 30
0.0
 10
6.8041328502
 20
5.4446200952
 30
0.0
 10
6.8047355107
 20
5.4442926479
 30
0.0
 10
6.8053536783
 20
5.4440146592
 30
0.0
 10
6.8059866945
 20
5.4437869436
 30
0.0
 10
6.8066337956
 20
5.4436101439
 30
0.0
 10
6.8072941324
 20
5.4434847992
 30
0.0
 10
6.8079667638
 20
5.4434112334
 30
0.0
 10
6.8086506863
 20
5.4433896732
 30
0.0
 10
6.8093448392
 20
5.4434201023
 30
0.0
 10
6.8100481162
 20
5.4435024334
 30
0.0
 10
6.8107593798
 20
5.4436363332
 30
0.0
 10
6.811477483
 20
5.4438214325
 30
0.0
 10
6.8124558232
 20
5.4441400389
 30
0.0
 10
6.8134301229
 20
5.4445570751
 30
0.0
 10
6.8143941597
 20
5.4450605997
 30
0.0
 10
6.8151284284
 20
5.4454909691
 30
0.0
 10
6.815862249
 20
5.4459675761
 30
0.0
 10
6.8165945068
 20
5.4464893064
 30
0.0
 10
6.817323997
 20
5.4470550036
 30
0.0
 10
6.8180495889
 20
5.4476634307
 30
0.0
 10
6.818770153
 20
5.4483133584
 30
0.0
 10
6.8197333118
 20
5.4492437603
 30
0.0
 10
6.8209164999
 20
5.4505048936
 30
0.0
 10
6.8222841523
 20
5.4521465515
 30
0.0
 10
6.8231517045
 20
5.4533109671
 30
0.0
 10
6.8235782166
 20
5.4539141451
 30
0.0
  0
SPLINE
  5
357
100
AcDbEntity
  8
ALL_ASSEMBLY_MEMBERS
100
AcDbSpline
 62
7
  6
CONTINUOUS
 70
0
 71
3
 72
35
 73
31
 74
0
 42
0.0000001
 43
0.0000001
 44
0.0000000001
 40
0.0
 40
0.0
 40
0.0
 40
0.0
 40
0.0034406993
 40
0.0118400412
 40
0.0250483762
 40
0.0428444902
 40
0.0910715263
 40
0.1540326064
 40
0.1902264837
 40
0.2291293171
 40
0.2704148647
 40
0.3137465964
 40
0.3587685811
 40
0.4050978753
 40
0.4523214726
 40
0.4999999888
 40
0.5476785052
 40
0.5949021028
 40
0.6412313974
 40
0.6862533829
 40
0.7295851155
 40
0.7708706641
 40
0.8097734988
 40
0.8459673773
 40
0.9089284607
 40
0.9571555007
 40
0.9749516168
 40
0.9881599541
 40
0.9965592983
 40
1.0
 40
1.0
 40
1.0
 40
1.0
 10
2.7619113573
 20
5.3531322306
 30
0.0
 10
2.7619942342
 20
5.3529212711
 30
0.0
 10
2.7622786825
 20
5.3521950301
 30
0.0
 10
2.762875491
 20
5.3506566816
 30
0.0
 10
2.7637996399
 20
5.3482310252
 30
0.0
 10
2.7656146307
 20
5.3433373381
 30
0.0
 10
2.7684148203
 20
5.3353139705
 30
0.0
 10
2.7712923141
 20
5.3260381977
 30
0.0
 10
2.773690574
 20
5.3172647145
 30
0.0
 10
2.7755126662
 20
5.3098166425
 30
0.0
 10
2.7772082293
 20
5.3018570395
 30
0.0
 10
2.7787106146
 20
5.2934485566
 30
0.0
 10
2.7799570693
 20
5.2846622814
 30
0.0
 10
2.7808922628
 20
5.2755793581
 30
0.0
 10
2.7814723465
 20
5.2662912724
 30
0.0
 10
2.7816689822
 20
5.256898135
 30
0.0
 10
2.7814723467
 20
5.2475049975
 30
0.0
 10
2.7808922632
 20
5.2382169118
 30
0.0
 10
2.7799570699
 20
5.2291339884
 30
0.0
 10
2.7787106153
 20
5.220347713
 30
0.0
 10
2.77720823
 20
5.2119392299
 30
0.0
 10
2.775512667
 20
5.2039796267
 30
0.0
 10
2.7736905748
 20
5.1965315544
 30
0.0
 10
2.771292315
 20
5.1877580708
 30
0.0
 10
2.7684148211
 20
5.1784822974
 30
0.0
 10
2.7656146313
 20
5.1704589293
 30
0.0
 10
2.7637996404
 20
5.1655652416
 30
0.0
 10
2.7628754913
 20
5.1631395848
 30
0.0
 10
2.7622786827
 20
5.1616012359
 30
0.0
 10
2.7619942343
 20
5.1608749946
 30
0.0
 10
2.7619113573
 20
5.1606640349
 30
0.0
  0
SPLINE
  5
358
100
AcDbEntity
  8
ALL_ASSEMBLY_MEMBERS
100
AcDbSpline
 62
7
  6
CONTINUOUS
 70
0
 71
3
 72
13
 73
9
 74
0
 42
0.0000001
 43
0.0000001
 44
0.0000000001
 40
0.0
 40
0.0
 40
0.0
 40
0.0
 40
0.2552283207
 40
0.5083961584
 40
0.6335792675
 40
0.757437876
 40
0.8796804682
 40
1.0
 40
1.0
 40
1.0
 40
1.0
 10
3.1163866794
 20
5.4908981327
 30
0.0
 10
3.1163866794
 20
5.4887131126
 30
0.0
 10
3.1165845172
 20
5.4843582852
 30
0.0
 10
3.1173229081
 20
5.4789767472
 30
0.0
 10
3.1181993858
 20
5.474766277
 30
0.0
 10
3.1189901513
 20
5.4716863981
 30
0.0
 10
3.1199110674
 20
5.4686865522
 30
0.0
 10
3.1206138064
 20
5.4667314943
 30
0.0
 10
3.1209857027
 20
5.4657709124
 30
0.0
  0
SPLINE
  5
359
100
AcDbEntity
  8
ALL_ASSEMBLY_MEMBERS
100
AcDbSpline
 62
7
  6
CONTINUOUS
 70
0
 71
3
 72
11
 73
7
 74
0
 42
0.0000001
 43
0.0000001
 44
0.0000000001
 40
0.0
 40
0.0
 40
0.0
 40
0.0
 40
0.2566930855
 40
0.5092313528
 40
0.7571593679
 40
1.0
 40
1.0
 40
1.0
 40
1.0
 10
3.1209857027
 20
5.4657709124
 30
0.0
 10
3.121264911
 20
5.4650497371
 30
0.0
 10
3.1218450071
 20
5.4636290319
 30
0.0
 10
3.1227862567
 20
5.4615506063
 30
0.0
 10
3.1237883032
 20
5.4595473415
 30
0.0
 10
3.1245021307
 20
5.4582519863
 30
0.0
 10
3.1248685795
 20
5.4576187721
 30
0.0
  0
SPLINE
  5
35A
100
AcDbEntity
  8
ALL_ASSEMBLY_MEMBERS
100
AcDbSpline
 62
7
  6
CONTINUOUS
 70
0
 71
3
 72
23
 73
19
 74
0
 42
0.0000001
 43
0.0000001
 44
0.0000000001
 40
0.0
 40
0.0
 40
0.0
 40
0.0
 40
0.0731561749
 40
0.1434740347
 40
0.2111169869
 40
0.2762957544
 40
0.3392709774
 40
0.400354176
 40
0.4599069587
 40
0.5183361431
 40
0.5760853812
 40
0.6336231864
 40
0.6914280019
 40
0.7499722709
 40
0.8097069082
 40
0.8710488419
 40
0.9343717363
 40
1.0
 40
1.0
 40
1.0
 40
1.0
 10
3.1248680441
 20
5.457616348
 30
0.0
 10
3.1251096649
 20
5.4573623534
 30
0.0
 10
3.1255986363
 20
5.4568782631
 30
0.0
 10
3.126363693
 20
5.4562151529
 30
0.0
 10
3.1271438171
 20
5.4556314049
 30
0.0
 10
3.1279371657
 20
5.455128601
 30
0.0
 10
3.1287418858
 20
5.4547081368
 30
0.0
 10
3.1295560559
 20
5.4543712959
 30
0.0
 10
3.1303776618
 20
5.4541191774
 30
0.0
 10
3.1312045995
 20
5.4539527003
 30
0.0
 10
3.1320346733
 20
5.4538725834
 30
0.0
 10
3.1328656083
 20
5.4538792586
 30
0.0
 10
3.1336950975
 20
5.4539728898
 30
0.0
 10
3.1345208382
 20
5.4541533695
 30
0.0
 10
3.1353405751
 20
5.4544202909
 30
0.0
 10
3.1361521398
 20
5.4547730431
 30
0.0
 10
3.1369533546
 20
5.4552107661
 30
0.0
 10
3.1374694362
 20
5.4555520649
 30
0.0
 10
3.1377248861
 20
5.4557355003
 30
0.0
  0
SPLINE
  5
35B
100
AcDbEntity
  8
ALL_ASSEMBLY_MEMBERS
100
AcDbSpline
 62
7
  6
CONTINUOUS
 70
0
 71
3
 72
14
 73
10
 74
0
 42
0.0000001
 43
0.0000001
 44
0.0000000001
 40
0.0
 40
0.0
 40
0.0
 40
0.0
 40
0.2235566914
 40
0.3416150684
 40
0.4640796522
 40
0.5910823551
 40
0.7227114763
 40
0.8590142335
 40
1.0
 40
1.0
 40
1.0
 40
1.0
 10
3.1377248861
 20
5.4557355003
 30
0.0
 10
3.1382045171
 20
5.4560799172
 30
0.0
 10
3.1389002474
 20
5.4566597322
 30
0.0
 10
3.139768181
 20
5.457525796
 30
0.0
 10
3.1404157496
 20
5.4582497432
 30
0.0
 10
3.1410464828
 20
5.459034753
 30
0.0
 10
3.1416591443
 20
5.4598795261
 30
0.0
 10
3.1422523852
 20
5.4607825063
 30
0.0
 10
3.1426277993
 20
5.4614116727
 30
0.0
 10
3.1428121729
 20
5.4617352129
 30
0.0
  0
SPLINE
  5
35C
100
AcDbEntity
  8
ALL_ASSEMBLY_MEMBERS
100
AcDbSpline
 62
7
  6
CONTINUOUS
 70
0
 71
3
 72
24
 73
20
 74
0
 42
0.0000001
 43
0.0000001
 44
0.0000000001
 40
0.0
 40
0.0
 40
0.0
 40
0.0
 40
0.0751296812
 40
0.1474782006
 40
0.217136686
 40
0.2510037544
 40
0.2842535914
 40
0.3489903911
 40
0.4115940559
 40
0.4723500424
 40
0.5315920144
 40
0.589696518
 40
0.6470740789
 40
0.704157117
 40
0.7613856906
 40
0.8191922689
 40
0.8779857579
 40
0.9381458595
 40
1.0
 40
1.0
 40
1.0
 40
1.0
 10
3.125915408
 20
5.5259061897
 30
0.0
 10
3.1262523223
 20
5.5263227493
 30
0.0
 10
3.1269370264
 20
5.5271219802
 30
0.0
 10
3.128016182
 20
5.5282337791
 30
0.0
 10
3.1289488382
 20
5.5290739703
 30
0.0
 10
3.129708265
 20
5.5296863301
 30
0.0
 10
3.130461966
 20
5.5302487898
 30
0.0
 10
3.1314188755
 20
5.5308802968
 30
0.0
 10
3.1325974132
 20
5.531524174
 30
0.0
 10
3.1337926364
 20
5.5320454754
 30
0.0
 10
3.135001061
 20
5.5324426105
 30
0.0
 10
3.1362191381
 20
5.5327144082
 30
0.0
 10
3.1374432087
 20
5.5328601078
 30
0.0
 10
3.1386695473
 20
5.5328794135
 30
0.0
 10
3.1398944167
 20
5.5327725126
 30
0.0
 10
3.1411141085
 20
5.5325400798
 30
0.0
 10
3.1423250854
 20
5.5321832509
 30
0.0
 10
3.143523761
 20
5.5317035879
 30
0.0
 10
3.1443007394
 20
5.5313091601
 30
0.0
 10
3.1446854991
 20
5.5310934825
 30
0.0
  0
SPLINE
  5
35D
100
AcDbEntity
  8
ALL_ASSEMBLY_MEMBERS
100
AcDbSpline
 62
7
  6
CONTINUOUS
 70
0
 71
3
 72
18
 73
14
 74
0
 42
0.0000001
 43
0.0000001
 44
0.0000000001
 40
0.0
 40
0.0
 40
0.0
 40
0.0
 40
0.0563171831
 40
0.1139084221
 40
0.1726640851
 40
0.2324789544
 40
0.2932523137
 40
0.3548878833
 40
0.4803634965
 40
0.6082356508
 40
0.7378647925
 40
0.8686459602
 40
1.0
 40
1.0
 40
1.0
 40
1.0
 10
3.1259150585
 20
5.5259061274
 30
0.0
 10
3.1255460115
 20
5.5253234053
 30
0.0
 10
3.1248244002
 20
5.5241288749
 30
0.0
 10
3.1238037868
 20
5.5222761494
 30
0.0
 10
3.1228358991
 20
5.5203472728
 30
0.0
 10
3.1219243608
 20
5.5183482624
 30
0.0
 10
3.1210725117
 20
5.5162848694
 30
0.0
 10
3.1200143068
 20
5.5134386896
 30
0.0
 10
3.1188613195
 20
5.5097536735
 30
0.0
 10
3.1177685808
 20
5.505188577
 30
0.0
 10
3.1169752986
 20
5.5004959399
 30
0.0
 10
3.1164941204
 20
5.4957185012
 30
0.0
 10
3.1163866794
 20
5.4925069132
 30
0.0
 10
3.1163866794
 20
5.4908981327
 30
0.0
  0
LINE
  5
35E
100
AcDbEntity
  8
ALL_ASSEMBLY_MEMBERS
100
AcDbLine
 62
7
  6
CONTINUOUS
 10
3.1583579674
 20
5.4912266253
 11
3.1578657937
 21
5.4795005706
  0
SPLINE
  5
35F
100
AcDbEntity
  8
ALL_ASSEMBLY_MEMBERS
100
AcDbSpline
 62
7
  6
CONTINUOUS
 70
0
 71
3
 72
22
 73
18
 74
0
 42
0.0000001
 43
0.0000001
 44
0.0000000001
 40
0.0
 40
0.0
 40
0.0
 40
0.0
 40
0.0964538535
 40
0.1476818829
 40
0.2010131705
 40
0.2564990591
 40
0.3141625732
 40
0.374000223
 40
0.4359850426
 40
0.5000691887
 40
0.5661862914
 40
0.6342534886
 40
0.7041731905
 40
0.7758351459
 40
0.8491158062
 40
0.9238862617
 40
1.0
 40
1.0
 40
1.0
 40
1.0
 10
3.1446854991
 20
5.5310934825
 30
0.0
 10
3.1454339311
 20
5.5305845654
 30
0.0
 10
3.1465150973
 20
5.5297066189
 30
0.0
 10
3.1478499156
 20
5.528373036
 30
0.0
 10
3.1488423793
 20
5.5272444413
 30
0.0
 10
3.1498026956
 20
5.5260112916
 30
0.0
 10
3.1507283831
 20
5.524676964
 30
0.0
 10
3.1516167736
 20
5.5232453385
 30
0.0
 10
3.1524653689
 20
5.5217205103
 30
0.0
 10
3.1532717508
 20
5.5201068598
 30
0.0
 10
3.1540336184
 20
5.518409019
 30
0.0
 10
3.1547487899
 20
5.5166318659
 30
0.0
 10
3.1554152159
 20
5.5147805069
 30
0.0
 10
3.1560309744
 20
5.5128602788
 30
0.0
 10
3.1565943113
 20
5.5108766847
 30
0.0
 10
3.1571035751
 20
5.5088354862
 30
0.0
 10
3.1574036043
 20
5.5074515666
 30
0.0
 10
3.1575445239
 20
5.5067513995
 30
0.0
  0
SPLINE
  5
360
100
AcDbEntity
  8
ALL_ASSEMBLY_MEMBERS
100
AcDbSpline
 62
7
  6
CONTINUOUS
 70
0
 71
3
 72
14
 73
10
 74
0
 42
0.0000001
 43
0.0000001
 44
0.0000000001
 40
0.0
 40
0.0
 40
0.0
 40
0.0
 40
0.1200746671
 40
0.2420623103
 40
0.3657162963
 40
0.4907950997
 40
0.6170369608
 40
0.744169933
 40
1.0
 40
1.0
 40
1.0
 40
1.0
 10
3.1575445239
 20
5.5067513995
 30
0.0
 10
3.157612875
 20
5.5061326465
 30
0.0
 10
3.1577402863
 20
5.5048841161
 30
0.0
 10
3.1579036847
 20
5.5029950793
 30
0.0
 10
3.1580415354
 20
5.501077996
 30
0.0
 10
3.1581543299
 20
5.4991371906
 30
0.0
 10
3.158242483
 20
5.4971770534
 30
0.0
 10
3.158327762
 20
5.4945384556
 30
0.0
 10
3.1583553452
 20
5.4925529515
 30
0.0
 10
3.1583579674
 20
5.4912266253
 30
0.0
  0
SPLINE
  5
361
100
AcDbEntity
  8
ALL_ASSEMBLY_MEMBERS
100
AcDbSpline
 62
7
  6
CONTINUOUS
 70
0
 71
3
 72
22
 73
18
 74
0
 42
0.0000001
 43
0.0000001
 44
0.0000000001
 40
0.0
 40
0.0
 40
0.0
 40
0.0
 40
0.0560940383
 40
0.1135846625
 40
0.1723850242
 40
0.2323944715
 40
0.2935009778
 40
0.3555832794
 40
0.4185127695
 40
0.4821551869
 40
0.5463720773
 40
0.6110221294
 40
0.6759622636
 40
0.7410487498
 40
0.8061384582
 40
0.8710878735
 40
1.0
 40
1.0
 40
1.0
 40
1.0
 10
3.1479346724
 20
5.5124726811
 30
0.0
 10
3.1483051148
 20
5.5119367504
 30
0.0
 10
3.1490274676
 20
5.510832125
 30
0.0
 10
3.1500432778
 20
5.5091060524
 30
0.0
 10
3.1510032221
 20
5.5072966708
 30
0.0
 10
3.1519054414
 20
5.5054112418
 30
0.0
 10
3.1527483602
 20
5.5034570338
 30
0.0
 10
3.1535306208
 20
5.501441389
 30
0.0
 10
3.1542510975
 20
5.4993716698
 30
0.0
 10
3.1549088889
 20
5.4972552401
 30
0.0
 10
3.1555033126
 20
5.4950994378
 30
0.0
 10
3.1560338975
 20
5.4929115539
 30
0.0
 10
3.1565003799
 20
5.490698806
 30
0.0
 10
3.1569026936
 20
5.4884683325
 30
0.0
 10
3.1572409706
 20
5.4862271241
 30
0.0
 10
3.1576060841
 20
5.4832415444
 30
0.0
 10
3.1577867484
 20
5.4809957176
 30
0.0
 10
3.1578657937
 20
5.4795005706
 30
0.0
  0
SPLINE
  5
362
100
AcDbEntity
  8
ALL_ASSEMBLY_MEMBERS
100
AcDbSpline
 62
7
  6
CONTINUOUS
 70
0
 71
3
 72
32
 73
28
 74
0
 42
0.0000001
 43
0.0000001
 44
0.0000000001
 40
0.0
 40
0.0
 40
0.0
 40
0.0
 40
0.0761316766
 40
0.1519546614
 40
0.2270409314
 40
0.3009737347
 40
0.3733582786
 40
0.443827082
 40
0.512047575
 40
0.5452261659
 40
0.5777382163
 40
0.6095557281
 40
0.640654744
 40
0.6710154476
 40
0.7006227473
 40
0.729466683
 40
0.7575426962
 40
0.7848523942
 40
0.8114038077
 40
0.8372119551
 40
0.8622994884
 40
0.8866969021
 40
0.9104431653
 40
0.9335859196
 40
0.9561815141
 40
0.9782950918
 40
1.0
 40
1.0
 40
1.0
 40
1.0
 10
3.1583579674
 20
5.4912266253
 30
0.0
 10
3.1582900327
 20
5.4924709024
 30
0.0
 10
3.1581000062
 20
5.4949517923
 30
0.0
 10
3.1576523451
 20
5.4986421456
 30
0.0
 10
3.1570440738
 20
5.5022730973
 30
0.0
 10
3.1562784051
 20
5.5058166475
 30
0.0
 10
3.1553597597
 20
5.5092456116
 30
0.0
 10
3.1542937508
 20
5.51253358
 30
0.0
 10
3.1532789096
 20
5.5151591478
 30
0.0
 10
3.1523968125
 20
5.5171660105
 30
0.0
 10
3.1517091083
 20
5.518606582
 30
0.0
 10
3.1509903191
 20
5.5199936796
 30
0.0
 10
3.1502416448
 20
5.5213246476
 30
0.0
 10
3.149464331
 20
5.5225969152
 30
0.0
 10
3.1486596841
 20
5.5238080328
 30
0.0
 10
3.1478290666
 20
5.5249556718
 30
0.0
 10
3.1469738681
 20
5.5260376118
 30
0.0
 10
3.1460955451
 20
5.5270517726
 30
0.0
 10
3.1451955813
 20
5.5279961921
 30
0.0
 10
3.1442754959
 20
5.5288690336
 30
0.0
 10
3.1433368612
 20
5.5296686089
 30
0.0
 10
3.1423812626
 20
5.5303933402
 30
0.0
 10
3.1414103324
 20
5.5310417996
 30
0.0
 10
3.140425743
 20
5.5316126949
 30
0.0
 10
3.1394291615
 20
5.5321048576
 30
0.0
 10
3.1384224111
 20
5.5325172667
 30
0.0
 10
3.1377399243
 20
5.532740306
 30
0.0
 10
3.1373982805
 20
5.5328377475
 30
0.0
  0
SPLINE
  5
363
100
AcDbEntity
  8
ALL_ASSEMBLY_MEMBERS
100
AcDbSpline
 62
7
  6
CONTINUOUS
 70
0
 71
3
 72
46
 73
42
 74
0
 42
0.0000001
 43
0.0000001
 44
0.0000000001
 40
0.0
 40
0.0
 40
0.0
 40
0.0
 40
0.0433205231
 40
0.0858804223
 40
0.1275772879
 40
0.1683178234
 40
0.2080083157
 40
0.2465594429
 40
0.2838860327
 40
0.3199084492
 40
0.3545546953
 40
0.3877632179
 40
0.4194869654
 40
0.4496989339
 40
0.4783994634
 40
0.505625302
 40
0.5314601332
 40
0.5560454173
 40
0.5679375155
 40
0.5796011801
 40
0.5910732074
 40
0.6023943279
 40
0.6136086169
 40
0.6247627438
 40
0.635904988
 40
0.6470841662
 40
0.6583484697
 40
0.6697443731
 40
0.6813156239
 40
0.6931024381
 40
0.7051408898
 40
0.717462525
 40
0.7430479739
 40
0.7700302206
 40
0.79850083
 40
0.82849438
 40
0.8600008053
 40
0.8929771087
 40
0.9273574591
 40
0.9630613717
 40
1.0
 40
1.0
 40
1.0
 40
1.0
 10
3.1575445239
 20
5.5067513995
 30
0.0
 10
3.1574739272
 20
5.5075699228
 30
0.0
 10
3.1573207313
 20
5.5091914947
 30
0.0
 10
3.1570501172
 20
5.5115959186
 30
0.0
 10
3.1567387888
 20
5.5139460965
 30
0.0
 10
3.1563848622
 20
5.5162352212
 30
0.0
 10
3.1559862763
 20
5.5184564521
 30
0.0
 10
3.1555408649
 20
5.5206027423
 30
0.0
 10
3.1550463733
 20
5.5226668646
 30
0.0
 10
3.1545005055
 20
5.5246413627
 30
0.0
 10
3.1539009722
 20
5.5265185312
 30
0.0
 10
3.1532455444
 20
5.5282904076
 30
0.0
 10
3.1525321213
 20
5.5299487798
 30
0.0
 10
3.1517587969
 20
5.5314852235
 30
0.0
 10
3.1509239574
 20
5.5328911407
 30
0.0
 10
3.1500262971
 20
5.5341578703
 30
0.0
 10
3.1490651822
 20
5.53527659
 30
0.0
 10
3.1482014759
 20
5.5360873425
 30
0.0
 10
3.1474807884
 20
5.5366486881
 30
0.0
 10
3.146931245
 20
5.5370227706
 30
0.0
 10
3.1463671476
 20
5.5373536425
 30
0.0
 10
3.1457888989
 20
5.5376404906
 30
0.0
 10
3.1451970243
 20
5.5378826095
 30
0.0
 10
3.1445921097
 20
5.5380793586
 30
0.0
 10
3.1439748341
 20
5.5382302419
 30
0.0
 10
3.1433459391
 20
5.5383348544
 30
0.0
 10
3.1427062355
 20
5.5383929476
 30
0.0
 10
3.142056584
 20
5.5384043792
 30
0.0
 10
3.1413978885
 20
5.5383691595
 30
0.0
 10
3.1407310941
 20
5.538287407
 30
0.0
 10
3.1400571486
 20
5.5381593698
 30
0.0
 10
3.1391389827
 20
5.5379245139
 30
0.0
 10
3.1379763805
 20
5.5375123309
 30
0.0
 10
3.1365881333
 20
5.5368473227
 30
0.0
 10
3.1351969199
 20
5.5360122411
 30
0.0
 10
3.1338106727
 20
5.5350144366
 30
0.0
 10
3.1324369654
 20
5.533861848
 30
0.0
 10
3.1310832114
 20
5.5325628742
 30
0.0
 10
3.1297564805
 20
5.5311261424
 30
0.0
 10
3.1284635196
 20
5.5295604168
 30
0.0
 10
3.127641453
 20
5.5284541015
 30
0.0
 10
3.1272370009
 20
5.5278821203
 30
0.0
  0
SPLINE
  5
364
100
AcDbEntity
  8
ALL_ASSEMBLY_MEMBERS
100
AcDbSpline
 62
7
  6
CONTINUOUS
 70
0
 71
3
 72
56
 73
52
 74
0
 42
0.0000001
 43
0.0000001
 44
0.0000000001
 40
0.0
 40
0.0
 40
0.0
 40
0.0
 40
0.0361158025
 40
0.0709509649
 40
0.1044092116
 40
0.1205968007
 40
0.1364093231
 40
0.1518390328
 40
0.1668799041
 40
0.1815280783
 40
0.1957823233
 40
0.2096443478
 40
0.2231195026
 40
0.2489405595
 40
0.2613286463
 40
0.2733951506
 40
0.2851690777
 40
0.2966850845
 40
0.307982777
 40
0.3191066648
 40
0.3301050135
 40
0.3410291092
 40
0.3519317867
 40
0.3628662069
 40
0.3738844009
 40
0.3850360239
 40
0.3963673049
 40
0.4079201946
 40
0.4318233468
 40
0.4442441801
 40
0.457005393
 40
0.4701246741
 40
0.4836154815
 40
0.4974874735
 40
0.5117469658
 40
0.5263972471
 40
0.5414391494
 40
0.5568711378
 40
0.5726899811
 40
0.5888906355
 40
0.6054668945
 40
0.6397133501
 40
0.6753616305
 40
0.7123304414
 40
0.7505306241
 40
0.7898672094
 40
0.8302407904
 40
0.871548567
 40
0.9136835479
 40
0.9565390087
 40
1.0
 40
1.0
 40
1.0
 40
1.0
 10
3.1272370008
 20
5.4539141451
 30
0.0
 10
3.1276635129
 20
5.4533109671
 30
0.0
 10
3.1285310651
 20
5.4521465515
 30
0.0
 10
3.1298987175
 20
5.4505048936
 30
0.0
 10
3.1310819055
 20
5.4492437603
 30
0.0
 10
3.1320450643
 20
5.4483133584
 30
0.0
 10
3.1327656285
 20
5.4476634307
 30
0.0
 10
3.1334912204
 20
5.4470550036
 30
0.0
 10
3.1342207106
 20
5.4464893064
 30
0.0
 10
3.1349529684
 20
5.4459675761
 30
0.0
 10
3.135686789
 20
5.4454909691
 30
0.0
 10
3.1364210577
 20
5.4450605997
 30
0.0
 10
3.1373850945
 20
5.4445570751
 30
0.0
 10
3.1383593942
 20
5.4441400389
 30
0.0
 10
3.1393377344
 20
5.4438214325
 30
0.0
 10
3.1400558376
 20
5.4436363332
 30
0.0
 10
3.1407671012
 20
5.4435024334
 30
0.0
 10
3.1414703781
 20
5.4434201023
 30
0.0
 10
3.142164531
 20
5.4433896732
 30
0.0
 10
3.1428484536
 20
5.4434112334
 30
0.0
 10
3.143521085
 20
5.4434847992
 30
0.0
 10
3.1441814218
 20
5.4436101439
 30
0.0
 10
3.1448285229
 20
5.4437869436
 30
0.0
 10
3.1454615391
 20
5.4440146592
 30
0.0
 10
3.1460797067
 20
5.4442926479
 30
0.0
 10
3.1466823672
 20
5.4446200952
 30
0.0
 10
3.1472689876
 20
5.4449961251
 30
0.0
 10
3.14803769
 20
5.4455672261
 30
0.0
 10
3.1487643707
 20
5.4462281229
 30
0.0
 10
3.1494472489
 20
5.4469645774
 30
0.0
 10
3.1499487148
 20
5.4475670128
 30
0.0
 10
3.1504326957
 20
5.4482110585
 30
0.0
 10
3.150899279
 20
5.4488954727
 30
0.0
 10
3.1513485108
 20
5.4496189592
 30
0.0
 10
3.1517805321
 20
5.4503802137
 30
0.0
 10
3.1521954892
 20
5.4511779482
 30
0.0
 10
3.1525935975
 20
5.4520108617
 30
0.0
 10
3.1529750744
 20
5.4528776821
 30
0.0
 10
3.1533401872
 20
5.453777135
 30
0.0
 10
3.1536892142
 20
5.4547079785
 30
0.0
 10
3.1541383935
 20
5.456003376
 30
0.0
 10
3.1546590659
 20
5.4576943899
 30
0.0
 10
3.155218209
 20
5.4598080325
 30
0.0
 10
3.155720998
 20
5.4620187274
 30
0.0
 10
3.1561701162
 20
5.4643177748
 30
0.0
 10
3.1565681758
 20
5.4666967916
 30
0.0
 10
3.1569176668
 20
5.4691476036
 30
0.0
 10
3.1572209054
 20
5.4716621948
 30
0.0
 10
3.1574800252
 20
5.4742327163
 30
0.0
 10
3.1576969073
 20
5.4768513142
 30
0.0
 10
3.1578137296
 20
5.478613113
 30
0.0
 10
3.1578657937
 20
5.4795005706
 30
0.0
  0
SPLINE
  5
365
100
AcDbEntity
  8
0
100
AcDbSpline
 62
7
  6
CONTINUOUS
 70
0
 71
3
 72
15
 73
11
 74
0
 42
0.0000001
 43
0.0000001
 44
0.0000000001
 40
0.0
 40
0.0
 40
0.0
 40
0.0
 40
0.1358998208
 40
0.267238004
 40
0.3946686073
 40
0.5189074185
 40
0.6407265016
 40
0.7609445495
 40
0.8804131744
 40
1.0
 40
1.0
 40
1.0
 40
1.0
 10
5.5691599843
 20
6.0754646698
 30
0.0
 10
5.5552073618
 20
6.0592698384
 30
0.0
 10
5.5287542067
 20
6.026556159
 30
0.0
 10
5.4930773363
 20
5.9756920238
 30
0.0
 10
5.4621368239
 20
5.9239326007
 30
0.0
 10
5.4359416421
 20
5.8712799947
 30
0.0
 10
5.4144986748
 20
5.8177360131
 30
0.0
 10
5.3978147968
 20
5.7633040147
 30
0.0
 10
5.3858956941
 20
5.7079961603
 30
0.0
 10
5.3811405794
 20
5.6706416021
 30
0.0
 10
5.3795552125
 20
5.6518981327
 30
0.0
  0
SPLINE
  5
366
100
AcDbEntity
  8
0
100
AcDbSpline
 62
7
  6
CONTINUOUS
 70
0
 71
3
 72
15
 73
11
 74
0
 42
0.0000001
 43
0.0000001
 44
0.0000000001
 40
0.0
 40
0.0
 40
0.0
 40
0.0
 40
0.1358998208
 40
0.267238004
 40
0.3946686073
 40
0.5189074185
 40
0.6407265016
 40
0.7609445495
 40
0.8804131744
 40
1.0
 40
1.0
 40
1.0
 40
1.0
 10
4.381660233
 20
6.0754646698
 30
0.0
 10
4.3956128556
 20
6.0592698384
 30
0.0
 10
4.4220660107
 20
6.026556159
 30
0.0
 10
4.4577428811
 20
5.9756920238
 30
0.0
 10
4.4886833934
 20
5.9239326007
 30
0.0
 10
4.5148785753
 20
5.8712799947
 30
0.0
 10
4.5363215426
 20
5.8177360131
 30
0.0
 10
4.5530054206
 20
5.7633040147
 30
0.0
 10
4.5649245233
 20
5.7079961603
 30
0.0
 10
4.569679638
 20
5.6706416021
 30
0.0
 10
4.5712650049
 20
5.6518981327
 30
0.0
  0
SPLINE
  5
367
100
AcDbEntity
  8
0
100
AcDbSpline
 62
7
  6
CONTINUOUS
 70
0
 71
3
 72
21
 73
17
 74
0
 42
0.0000001
 43
0.0000001
 44
0.0000000001
 40
0.0
 40
0.0
 40
0.0
 40
0.0
 40
0.0698089599
 40
0.1377172362
 40
0.2039275282
 40
0.2686409128
 40
0.3320568797
 40
0.3943734214
 40
0.4557871812
 40
0.5164936584
 40
0.6365626198
 40
0.7561322095
 40
0.8162148943
 40
0.8767560555
 40
0.9379519044
 40
1.0
 40
1.0
 40
1.0
 40
1.0
 10
5.3795552125
 20
5.6518981327
 30
0.0
 10
5.3744749524
 20
5.5918352553
 30
0.0
 10
5.3650315502
 20
5.4732950768
 30
0.0
 10
5.3527004715
 20
5.297641521
 30
0.0
 10
5.3421804334
 20
5.1262783527
 30
0.0
 10
5.3332388632
 20
4.9587103698
 30
0.0
 10
5.3256430574
 20
4.7944420141
 30
0.0
 10
5.3191601132
 20
4.6329777052
 30
0.0
 10
5.3135572642
 20
4.4738217694
 30
0.0
 10
5.3069728599
 20
4.2648040479
 30
0.0
 10
5.2997365256
 20
4.0055685765
 30
0.0
 10
5.2923099657
 20
3.7468767845
 30
0.0
 10
5.2853607332
 20
3.5395949102
 30
0.0
 10
5.2793880279
 20
3.3827135623
 30
0.0
 10
5.2724295009
 20
3.2241738454
 30
0.0
 10
5.2670212013
 20
3.1178937617
 30
0.0
 10
5.2640851828
 20
3.0643981327
 30
0.0
  0
SPLINE
  5
368
100
AcDbEntity
  8
0
100
AcDbSpline
 62
7
  6
CONTINUOUS
 70
0
 71
3
 72
21
 73
17
 74
0
 42
0.0000001
 43
0.0000001
 44
0.0000000001
 40
0.0
 40
0.0
 40
0.0
 40
0.0
 40
0.0698089599
 40
0.1377172362
 40
0.2039275282
 40
0.2686409128
 40
0.3320568797
 40
0.3943734214
 40
0.4557871812
 40
0.5164936584
 40
0.6365626198
 40
0.7561322095
 40
0.8162148943
 40
0.8767560555
 40
0.9379519044
 40
1.0
 40
1.0
 40
1.0
 40
1.0
 10
4.5712650049
 20
5.6518981327
 30
0.0
 10
4.576345265
 20
5.5918352553
 30
0.0
 10
4.5857886672
 20
5.4732950768
 30
0.0
 10
4.5981197458
 20
5.297641521
 30
0.0
 10
4.608639784
 20
5.1262783527
 30
0.0
 10
4.6175813542
 20
4.9587103698
 30
0.0
 10
4.62517716
 20
4.7944420141
 30
0.0
 10
4.6316601042
 20
4.6329777052
 30
0.0
 10
4.6372629532
 20
4.4738217694
 30
0.0
 10
4.6438473575
 20
4.2648040479
 30
0.0
 10
4.6510836918
 20
4.0055685765
 30
0.0
 10
4.6585102517
 20
3.7468767845
 30
0.0
 10
4.6654594841
 20
3.5395949102
 30
0.0
 10
4.6714321895
 20
3.3827135623
 30
0.0
 10
4.6783907165
 20
3.2241738454
 30
0.0
 10
4.6837990161
 20
3.1178937617
 30
0.0
 10
4.6867350346
 20
3.0643981327
 30
0.0
  0
SPLINE
  5
369
100
AcDbEntity
  8
0
100
AcDbSpline
 62
7
  6
CONTINUOUS
 70
0
 71
3
 72
15
 73
11
 74
0
 42
0.0000001
 43
0.0000001
 44
0.0000000001
 40
0.0
 40
0.0
 40
0.0
 40
0.0
 40
0.150864766
 40
0.2991688762
 40
0.4422678911
 40
0.5777769216
 40
0.7033610135
 40
0.8168693296
 40
0.9163359387
 40
1.0
 40
1.0
 40
1.0
 40
1.0
 10
5.2640851828
 20
3.0643981327
 30
0.0
 10
5.263090279
 20
3.0462705196
 30
0.0
 10
5.2608041916
 20
3.0103396218
 30
0.0
 10
5.2566264099
 20
2.9572801925
 30
0.0
 10
5.2519078299
 20
2.9061217915
 30
0.0
 10
5.2468506094
 20
2.8577442695
 30
0.0
 10
5.241652305
 20
2.8129649443
 30
0.0
 10
5.2365122906
 20
2.7725478578
 30
0.0
 10
5.2316298368
 20
2.7371854869
 30
0.0
 10
5.2283822764
 20
2.7153878231
 30
0.0
 10
5.2268376563
 20
2.705438977
 30
0.0
  0
SPLINE
  5
36A
100
AcDbEntity
  8
0
100
AcDbSpline
 62
7
  6
CONTINUOUS
 70
0
 71
3
 72
15
 73
11
 74
0
 42
0.0000001
 43
0.0000001
 44
0.0000000001
 40
0.0
 40
0.0
 40
0.0
 40
0.0
 40
0.1511219668
 40
0.2996543823
 40
0.4429286518
 40
0.5785358625
 40
0.7041197066
 40
0.8175109791
 40
0.9167284172
 40
1.0
 40
1.0
 40
1.0
 40
1.0
 10
4.6867350346
 20
3.0643981327
 30
0.0
 10
4.6877339949
 20
3.0461966088
 30
0.0
 10
4.6900274053
 20
3.0101220751
 30
0.0
 10
4.6942123199
 20
2.9568568432
 30
0.0
 10
4.6989318442
 20
2.9055155916
 30
0.0
 10
4.7039818387
 20
2.8569883914
 30
0.0
 10
4.7091628801
 20
2.8121019433
 30
0.0
 10
4.7142738917
 20
2.7716285135
 30
0.0
 10
4.7191140666
 20
2.7362674055
 30
0.0
 10
4.7223238406
 20
2.7144896709
 30
0.0
 10
4.7238461283
 20
2.7045611546
 30
0.0
  0
SPLINE
  5
36B
100
AcDbEntity
  8
0
100
AcDbSpline
 62
7
  6
CONTINUOUS
 70
0
 71
3
 72
9
 73
5
 74
0
 42
0.0000001
 43
0.0000001
 44
0.0000000001
 40
0.0
 40
0.0
 40
0.0
 40
0.0
 40
0.4999999929
 40
1.0
 40
1.0
 40
1.0
 40
1.0
 10
4.9329690722
 20
2.4130696252
 30
0.0
 10
4.9190800307
 20
2.4155139611
 30
0.0
 10
4.891676888
 20
2.4228453187
 30
0.0
 10
4.8659687547
 20
2.4348357255
 30
0.0
 10
4.8537556395
 20
2.4418869723
 30
0.0
  0
SPLINE
  5
36C
100
AcDbEntity
  8
0
100
AcDbSpline
 62
7
  6
CONTINUOUS
 70
0
 71
3
 72
49
 73
45
 74
0
 42
0.0000001
 43
0.0000001
 44
0.0000000001
 40
0.0
 40
0.0
 40
0.0
 40
0.0
 40
0.100165151
 40
0.1989912794
 40
0.2954518892
 40
0.3886798487
 40
0.4778323433
 40
0.5620804443
 40
0.6406593401
 40
0.7128543698
 40
0.7463577893
 40
0.778029377
 40
0.8077994552
 40
0.8356077705
 40
0.8613947166
 40
0.8851024793
 40
0.906685246
 40
0.9261021227
 40
0.9433122618
 40
0.9510782363
 40
0.9582808712
 40
0.9649176125
 40
0.9709859055
 40
0.9764831952
 40
0.9814069264
 40
0.9857545476
 40
0.9895242407
 40
0.9927157601
 40
0.9940946915
 40
0.9953290639
 40
0.9964188723
 40
0.9973641119
 40
0.9981647786
 40
0.9988208695
 40
0.9990946987
 40
0.999332384
 40
0.9995339263
 40
0.9996993277
 40
0.9998285922
 40
0.9999217301
 40
0.9999547603
 40
0.9999787757
 40
0.9999938048
 40
1.0
 40
1.0
 40
1.0
 40
1.0
 10
5.1199094436
 20
3.0643981327
 30
0.0
 10
5.1193382303
 20
3.0436058938
 30
0.0
 10
5.1181679787
 20
3.0023003357
 30
0.0
 10
5.1163286713
 20
2.9409749705
 30
0.0
 10
5.1144341934
 20
2.8810925502
 30
0.0
 10
5.1125082261
 20
2.8232210167
 30
0.0
 10
5.1105747698
 20
2.7678872366
 30
0.0
 10
5.1086582052
 20
2.7155967925
 30
0.0
 10
5.1067849807
 20
2.6668285519
 30
0.0
 10
5.1052456582
 20
2.6285928553
 30
0.0
 10
5.1040560226
 20
2.6000916963
 30
0.0
 10
5.1032140891
 20
2.5803935815
 30
0.0
 10
5.1024035176
 20
2.5618778494
 30
0.0
 10
5.101628136
 20
2.5445837491
 30
0.0
 10
5.100891626
 20
2.5285480678
 30
0.0
 10
5.1001974601
 20
2.5138045985
 30
0.0
 10
5.0995495375
 20
2.5003832221
 30
0.0
 10
5.0989517432
 20
2.4883102894
 30
0.0
 10
5.0984837532
 20
2.4791036182
 30
0.0
 10
5.0981371235
 20
2.4724304432
 30
0.0
 10
5.0979010749
 20
2.4679501352
 30
0.0
 10
5.0976803933
 20
2.4638220446
 30
0.0
 10
5.097475555
 20
2.4600477424
 30
0.0
 10
5.0972870374
 20
2.4566287993
 30
0.0
 10
5.0971153199
 20
2.4535667849
 30
0.0
 10
5.0969608742
 20
2.4508631161
 30
0.0
 10
5.0968241519
 20
2.4485187303
 30
0.0
 10
5.0967209449
 20
2.4467899107
 30
0.0
 10
5.0966474912
 20
2.4455867333
 30
0.0
 10
5.0965998674
 20
2.4448192288
 30
0.0
 10
5.0965570289
 20
2.4441416606
 30
0.0
 10
5.0965190387
 20
2.4435540284
 30
0.0
 10
5.0964859562
 20
2.4430563332
 30
0.0
 10
5.0964612614
 20
2.442697811
 30
0.0
 10
5.0964439044
 20
2.4424559721
 30
0.0
 10
5.0964329602
 20
2.4423083011
 30
0.0
 10
5.0964232793
 20
2.4421831302
 30
0.0
 10
5.0964149263
 20
2.4420803954
 30
0.0
 10
5.0964077872
 20
2.442000263
 30
0.0
 10
5.0964027162
 20
2.4419472916
 30
0.0
 10
5.0963989041
 20
2.4419165634
 30
0.0
 10
5.0963971378
 20
2.4419013186
 30
0.0
 10
5.0963949518
 20
2.4418928516
 30
0.0
 10
5.0963944048
 20
2.4418876657
 30
0.0
 10
5.0963932903
 20
2.4418870231
 30
0.0
  0
SPLINE
  5
36D
100
AcDbEntity
  8
0
100
AcDbSpline
 62
7
  6
CONTINUOUS
 70
0
 71
3
 72
49
 73
45
 74
0
 42
0.0000001
 43
0.0000001
 44
0.0000000001
 40
0.0
 40
0.0
 40
0.0
 40
0.0
 40
0.1001971629
 40
0.1990538358
 40
0.2955427017
 40
0.3887959004
 40
0.4779698882
 40
0.5622350568
 40
0.6408260286
 40
0.713027634
 40
0.7465321485
 40
0.7782032888
 40
0.8079713769
 40
0.8357761245
 40
0.8615578751
 40
0.8852588023
 40
0.9068331232
 40
0.9262399129
 40
0.9434382945
 40
0.9511977828
 40
0.9583935375
 40
0.9650230028
 40
0.9710836223
 40
0.9765728393
 40
0.9814880968
 40
0.9858268423
 40
0.9895872816
 40
0.9927691813
 40
0.9941431658
 40
0.9953725002
 40
0.9964571796
 40
0.9973971993
 40
0.9981925556
 40
0.9988432455
 40
0.9991143403
 40
0.9993492688
 40
0.9995480318
 40
0.9997106316
 40
0.9998370727
 40
0.9999273659
 40
0.9999589667
 40
0.9999815499
 40
0.9999951502
 40
1.0
 40
1.0
 40
1.0
 40
1.0
 10
4.8312343694
 20
3.0643981327
 30
0.0
 10
4.8318044515
 20
3.0436004972
 30
0.0
 10
4.8329698734
 20
3.0022843622
 30
0.0
 10
4.8347942421
 20
2.9409434774
 30
0.0
 10
4.8366662167
 20
2.8810465937
 30
0.0
 10
4.8385623511
 20
2.8231620752
 30
0.0
 10
4.8404589357
 20
2.7678171869
 30
0.0
 10
4.8423319271
 20
2.7155178789
 30
0.0
 10
4.8441553123
 20
2.6667433464
 30
0.0
 10
4.8456471929
 20
2.6285040352
 30
0.0
 10
4.846795685
 20
2.6000014504
 30
0.0
 10
4.8476062448
 20
2.5803035173
 30
0.0
 10
4.8483842397
 20
2.5617887816
 30
0.0
 10
4.8491259254
 20
2.5444965087
 30
0.0
 10
4.8498277026
 20
2.5284635047
 30
0.0
 10
4.8504861698
 20
2.5137235673
 30
0.0
 10
4.8510975238
 20
2.5003065801
 30
0.0
 10
4.8516579777
 20
2.4882389011
 30
0.0
 10
4.8520933007
 20
2.4790370883
 30
0.0
 10
4.8524131733
 20
2.4723682133
 30
0.0
 10
4.852629689
 20
2.4678914876
 30
0.0
 10
4.8528307051
 20
2.4637671867
 30
0.0
 10
4.8530157576
 20
2.4599968828
 30
0.0
 10
4.8531843847
 20
2.4565821482
 30
0.0
 10
4.8533361238
 20
2.453524554
 30
0.0
 10
4.853470527
 20
2.4508255135
 30
0.0
 10
4.8535871575
 20
2.4484859572
 30
0.0
 10
4.8536729
 20
2.4467612435
 30
0.0
 10
4.8537320971
 20
2.4455614308
 30
0.0
 10
4.8537695454
 20
2.4447965522
 30
0.0
 10
4.8538022132
 20
2.4441216585
 30
0.0
 10
4.8538300509
 20
2.4435367494
 30
0.0
 10
4.8538530049
 20
2.4430418276
 30
0.0
 10
4.8538688796
 20
2.4426856221
 30
0.0
 10
4.8538789887
 20
2.4424456536
 30
0.0
 10
4.8538848463
 20
2.4422994146
 30
0.0
 10
4.8538894335
 20
2.4421757138
 30
0.0
 10
4.8538928065
 20
2.442074393
 30
0.0
 10
4.8538948257
 20
2.4419958723
 30
0.0
 10
4.8538957977
 20
2.4419438574
 30
0.0
 10
4.8538955033
 20
2.4419144648
 30
0.0
 10
4.8538954269
 20
2.4418993916
 30
0.0
 10
4.8538943114
 20
2.4418926738
 30
0.0
 10
4.8538941747
 20
2.4418869723
 30
0.0
 10
4.8538931677
 20
2.4418869723
 30
0.0
  0
SPLINE
  5
36E
100
AcDbEntity
  8
0
100
AcDbSpline
 62
7
  6
CONTINUOUS
 70
0
 71
3
 72
15
 73
11
 74
0
 42
0.0000001
 43
0.0000001
 44
0.0000000001
 40
0.0
 40
0.0
 40
0.0
 40
0.0
 40
0.1233029442
 40
0.2465582741
 40
0.3700357032
 40
0.4940034956
 40
0.6187267512
 40
0.7444657916
 40
0.8714746929
 40
1.0
 40
1.0
 40
1.0
 40
1.0
 10
4.6788679583
 20
6.0754646698
 30
0.0
 10
4.6859577784
 20
6.0589878687
 30
0.0
 10
4.6993683458
 20
6.0257046677
 30
0.0
 10
4.717132322
 20
5.9748696482
 30
0.0
 10
4.7325279223
 20
5.9231659012
 30
0.0
 10
4.745554463
 20
5.8705955772
 30
0.0
 10
4.7562121648
 20
5.8171591404
 30
0.0
 10
4.7645011938
 20
5.7628570616
 30
0.0
 10
4.7704218101
 20
5.7076912548
 30
0.0
 10
4.7727749404
 20
5.6705785973
 30
0.0
 10
4.7735640737
 20
5.6518981327
 30
0.0
  0
SPLINE
  5
36F
100
AcDbEntity
  8
0
100
AcDbSpline
 62
7
  6
CONTINUOUS
 70
0
 71
3
 72
32
 73
28
 74
0
 42
0.0000001
 43
0.0000001
 44
0.0000000001
 40
0.0
 40
0.0
 40
0.0
 40
0.0
 40
0.0283024233
 40
0.0550232536
 40
0.0802311643
 40
0.1040293427
 40
0.1479740816
 40
0.1686128344
 40
0.1887114171
 40
0.2085945854
 40
0.2285936889
 40
0.2490303141
 40
0.2702098011
 40
0.3157831489
 40
0.3406193435
 40
0.3669899369
 40
0.3949925191
 40
0.4246753682
 40
0.4560591886
 40
0.4891490908
 40
0.5239297446
 40
0.5603561393
 40
0.6379076438
 40
0.7213025377
 40
0.8099277902
 40
0.903100514
 40
1.0
 40
1.0
 40
1.0
 40
1.0
 10
5.5691599843
 20
6.0754646698
 30
0.0
 10
5.5691636101
 20
6.0790186394
 30
0.0
 10
5.5690157925
 20
6.0859298621
 30
0.0
 10
5.5682517269
 20
6.0959807801
 30
0.0
 10
5.5669206895
 20
6.1054057866
 30
0.0
 10
5.5644201482
 20
6.1168122369
 30
0.0
 10
5.560630379
 20
6.1273398396
 30
0.0
 10
5.5553527522
 20
6.1365972707
 30
0.0
 10
5.5507887887
 20
6.1427155831
 30
0.0
 10
5.5455244659
 20
6.148132543
 30
0.0
 10
5.5395612473
 20
6.1528374137
 30
0.0
 10
5.5329052434
 20
6.1568224942
 30
0.0
 10
5.5228775793
 20
6.1612740799
 30
0.0
 10
5.5116286943
 20
6.1640892061
 30
0.0
 10
5.4995487072
 20
6.1654744491
 30
0.0
 10
5.4895970023
 20
6.1658170463
 30
0.0
 10
5.4790417425
 20
6.1654313555
 30
0.0
 10
5.4679056862
 20
6.1643215177
 30
0.0
 10
5.4562194719
 20
6.1624898103
 30
0.0
 10
5.4440149582
 20
6.1599386948
 30
0.0
 10
5.4313277291
 20
6.1566721641
 30
0.0
 10
5.4134454427
 20
6.1512564942
 30
0.0
 10
5.3901693563
 20
6.1426714443
 30
0.0
 10
5.361554088
 20
6.1298411956
 30
0.0
 10
5.3320645864
 20
6.1143262199
 30
0.0
 10
5.3021050455
 20
6.0962011173
 30
0.0
 10
5.2824325579
 20
6.0826567739
 30
0.0
 10
5.2726178339
 20
6.0754646698
 30
0.0
  0
SPLINE
  5
370
100
AcDbEntity
  8
0
100
AcDbSpline
 62
7
  6
CONTINUOUS
 70
0
 71
3
 72
15
 73
11
 74
0
 42
0.0000001
 43
0.0000001
 44
0.0000000001
 40
0.0
 40
0.0
 40
0.0
 40
0.0
 40
0.1375412941
 40
0.2684113266
 40
0.3941597669
 40
0.5163303421
 40
0.6364622629
 40
0.7560924451
 40
0.8767582119
 40
1.0
 40
1.0
 40
1.0
 40
1.0
 10
5.1777091775
 20
5.6518981327
 30
0.0
 10
5.1726896763
 20
5.533341955
 30
0.0
 10
5.1640217679
 20
5.3019308402
 30
0.0
 10
5.1543080889
 20
4.962008734
 30
0.0
 10
5.1473200846
 20
4.6352848675
 30
0.0
 10
5.1421171559
 20
4.3177945217
 30
0.0
 10
5.1377551521
 20
4.005571176
 30
0.0
 10
5.1332876137
 20
3.6946475498
 30
0.0
 10
5.1277678377
 20
3.3810566584
 30
0.0
 10
5.1228293652
 20
3.1706836639
 30
0.0
 10
5.1199094436
 20
3.0643981327
 30
0.0
  0
SPLINE
  5
371
100
AcDbEntity
  8
0
100
AcDbSpline
 62
7
  6
CONTINUOUS
 70
0
 71
3
 72
15
 73
11
 74
0
 42
0.0000001
 43
0.0000001
 44
0.0000000001
 40
0.0
 40
0.0
 40
0.0
 40
0.0
 40
0.1375410318
 40
0.2684109845
 40
0.3941594488
 40
0.516330099
 40
0.6364621133
 40
0.7560923855
 40
0.8767582148
 40
1.0
 40
1.0
 40
1.0
 40
1.0
 10
4.7735640737
 20
5.6518981327
 30
0.0
 10
4.7785723384
 20
5.5333418542
 30
0.0
 10
4.7872208386
 20
5.3019306156
 30
0.0
 10
4.7969127605
 20
4.9620086018
 30
0.0
 10
4.8038851137
 20
4.6352848006
 30
0.0
 10
4.80907639
 20
4.3177944963
 30
0.0
 10
4.813428625
 20
4.0055711799
 30
0.0
 10
4.8178861583
 20
3.6946475855
 30
0.0
 10
4.823393572
 20
3.3810567421
 30
0.0
 10
4.8283209855
 20
3.1706837084
 30
0.0
 10
4.8312343694
 20
3.0643981327
 30
0.0
  0
SPLINE
  5
372
100
AcDbEntity
  8
0
100
AcDbSpline
 62
7
  6
CONTINUOUS
 70
0
 71
3
 72
23
 73
19
 74
0
 42
0.0000001
 43
0.0000001
 44
0.0000000001
 40
0.0
 40
0.0
 40
0.0
 40
0.0
 40
0.0592692649
 40
0.1194968733
 40
0.1807385918
 40
0.2430060399
 40
0.3062555274
 40
0.3703197538
 40
0.4349702636
 40
0.4999251957
 40
0.5648830876
 40
0.62954231
 40
0.6936206777
 40
0.7568890536
 40
0.8191792651
 40
0.8804467398
 40
0.9407021181
 40
1.0
 40
1.0
 40
1.0
 40
1.0
 10
5.2726178339
 20
6.0754646698
 30
0.0
 10
5.2625676894
 20
6.0828292871
 30
0.0
 10
5.2416018451
 20
6.0967408923
 30
0.0
 10
5.2081709626
 20
6.1148909106
 30
0.0
 10
5.1727427412
 20
6.1303906927
 30
0.0
 10
5.1355799627
 20
6.1431788696
 30
0.0
 10
5.0969652923
 20
6.1531943523
 30
0.0
 10
5.0572211579
 20
6.1603957244
 30
0.0
 10
5.0167038188
 20
6.1647297633
 30
0.0
 10
4.9757939213
 20
6.1661802549
 30
0.0
 10
4.9348821995
 20
6.1647296567
 30
0.0
 10
4.8943594279
 20
6.1603955082
 30
0.0
 10
4.8546064205
 20
6.153194018
 30
0.0
 10
4.8159796844
 20
6.1431784684
 30
0.0
 10
4.7788019717
 20
6.130390267
 30
0.0
 10
4.7433562785
 20
6.1148905367
 30
0.0
 10
4.709905728
 20
6.0967406658
 30
0.0
 10
4.6889255797
 20
6.0828292603
 30
0.0
 10
4.6788679583
 20
6.0754646698
 30
0.0
  0
SPLINE
  5
373
100
AcDbEntity
  8
0
100
AcDbSpline
 62
7
  6
CONTINUOUS
 70
0
 71
3
 72
15
 73
11
 74
0
 42
0.0000001
 43
0.0000001
 44
0.0000000001
 40
0.0
 40
0.0
 40
0.0
 40
0.0
 40
0.1233256978
 40
0.2465952423
 40
0.370079325
 40
0.494047232
 40
0.6187651157
 40
0.7444943657
 40
0.8714901267
 40
1.0
 40
1.0
 40
1.0
 40
1.0
 10
5.2726178339
 20
6.0754646698
 30
0.0
 10
5.2655123656
 20
6.0589884821
 30
0.0
 10
5.2520720889
 20
6.0257064111
 30
0.0
 10
5.2342680964
 20
5.9748712249
 30
0.0
 10
5.2188378074
 20
5.9231672825
 30
0.0
 10
5.2057819131
 20
5.8705967435
 30
0.0
 10
5.1951001946
 20
5.8171600776
 30
0.0
 10
5.1867924872
 20
5.7628577608
 30
0.0
 10
5.1808585309
 20
5.7076917189
 30
0.0
 10
5.1785000861
 20
5.670578692
 30
0.0
 10
5.1777091775
 20
5.6518981327
 30
0.0
  0
SPLINE
  5
374
100
AcDbEntity
  8
0
100
AcDbSpline
 62
7
  6
CONTINUOUS
 70
0
 71
3
 72
32
 73
28
 74
0
 42
0.0000001
 43
0.0000001
 44
0.0000000001
 40
0.0
 40
0.0
 40
0.0
 40
0.0
 40
0.0968259348
 40
0.1899394379
 40
0.2785214927
 40
0.3618904337
 40
0.4394339024
 40
0.4758630699
 40
0.510650973
 40
0.5437525527
 40
0.5751523776
 40
0.6048553197
 40
0.6328817568
 40
0.6592795533
 40
0.6841456511
 40
0.7297833433
 40
0.7509944885
 40
0.7714604757
 40
0.7914849703
 40
0.8113880027
 40
0.831499701
 40
0.8521440754
 40
0.8960767986
 40
0.9198578672
 40
0.9450419629
 40
0.9717329087
 40
1.0
 40
1.0
 40
1.0
 40
1.0
 10
4.6788679583
 20
6.0754646698
 30
0.0
 10
4.6690453557
 20
6.0826571702
 30
0.0
 10
4.6493559256
 20
6.0962022974
 30
0.0
 10
4.6193689605
 20
6.1143273835
 30
0.0
 10
4.5898486651
 20
6.1298423166
 30
0.0
 10
4.5611992863
 20
6.1426725333
 30
0.0
 10
4.5378927836
 20
6.151257037
 30
0.0
 10
4.5199847287
 20
6.156672362
 30
0.0
 10
4.5072770766
 20
6.159938879
 30
0.0
 10
4.4950514989
 20
6.1624899637
 30
0.0
 10
4.4833436258
 20
6.1643216306
 30
0.0
 10
4.4721853689
 20
6.1654314191
 30
0.0
 10
4.4616074192
 20
6.1658170468
 30
0.0
 10
4.4516326079
 20
6.1654743931
 30
0.0
 10
4.4395213545
 20
6.1640889868
 30
0.0
 10
4.4282410801
 20
6.1612738586
 30
0.0
 10
4.4181805481
 20
6.1568226017
 30
0.0
 10
4.4115000893
 20
6.1528377806
 30
0.0
 10
4.4055122123
 20
6.1481332364
 30
0.0
 10
4.4002230634
 20
6.142716598
 30
0.0
 10
4.3956341869
 20
6.1365985095
 30
0.0
 10
4.3903236921
 20
6.1273429731
 30
0.0
 10
4.3865003445
 20
6.1168151026
 30
0.0
 10
4.3839682521
 20
6.1054068067
 30
0.0
 10
4.3826135777
 20
6.0959816229
 30
0.0
 10
4.3818263556
 20
6.0859305323
 30
0.0
 10
4.381663859
 20
6.0790188229
 30
0.0
 10
4.381660233
 20
6.0754646698
 30
0.0
  0
ELLIPSE
  5
375
100
AcDbEntity
  8
ALL_FEATURES
100
AcDbEllipse
 62
7
  6
CONTINUOUS
 10
6.9439101087
 20
5.7471487475
 30
0.0
 11
0.5205684689
 21
0.4949291313
 31
0.0
 40
0.5769821704
 41
0.021858488
 42
1.0690560392
  0
ELLIPSE
  5
376
100
AcDbEntity
  8
ALL_FEATURES
100
AcDbEllipse
 62
7
  6
CONTINUOUS
 10
6.9439101087
 20
5.7471487475
 30
0.0
 11
-0.5205684689
 21
0.4949291313
 31
0.0
 40
0.5769821704
 41
-1.0690560392
 42
-0.021858488
  0
ELLIPSE
  5
377
100
AcDbEntity
  8
ALL_FEATURES
100
AcDbEllipse
 62
7
  6
CONTINUOUS
 10
3.0069051087
 20
5.7471487475
 30
0.0
 11
0.5205684689
 21
0.4949291313
 31
0.0
 40
0.5769821704
 41
0.021858488
 42
1.0690560392
  0
ELLIPSE
  5
378
100
AcDbEntity
  8
ALL_FEATURES
100
AcDbEllipse
 62
7
  6
CONTINUOUS
 10
3.0069051087
 20
5.7471487475
 30
0.0
 11
-0.5205684689
 21
0.4949291313
 31
0.0
 40
0.5769821704
 41
-1.0690560392
 42
-0.021858488
  0
ENDSEC
  0
SECTION
  2
OBJECTS
  0
DICTIONARY
  5
C
100
AcDbDictionary
280
0
281
1
  3
ACAD_GROUP
350
D
  3
ACAD_MLINESTYLE
350
17
  3
ACAD_LAYOUT
350
1A
  3
ACAD_PLOTSETTINGS
350
19
  3
ACAD_PLOTSTYLENAME
350
E
  0
DICTIONARY
  5
D
102
{ACAD_REACTORS
330
C
102
}
100
AcDbDictionary
280
0
281
1
  0
ACDBDICTIONARYWDFLT
  5
E
102
{ACAD_REACTORS
330
C
102
}
100
AcDbDictionary
281
1
  3
Normal
350
F
100
AcDbDictionaryWithDefault
340
F
  0
DICTIONARY
  5
17
102
{ACAD_REACTORS
330
C
102
}
100
AcDbDictionary
280
0
281
1
  3
Standard
350
18
  0
DICTIONARY
  5
19
102
{ACAD_REACTORS
330
C
102
}
100
AcDbDictionary
281
1
  0
DICTIONARY
  5
1A
102
{ACAD_REACTORS
330
C
102
}
100
AcDbDictionary
281
1
  3
Model
350
379
  3
Layout1
350
37A
  0
ACDBPLACEHOLDER
  5
F
102
{ACAD_REACTORS
330
E
102
}
  0
MLINESTYLE
  5
18
102
{ACAD_REACTORS
330
17
102
}
100
AcDbMlineStyle
  2
STANDARD
 70
0
  3

 62
256
 51
90.0
 52
90.0
 71
2
 49
0.5
 62
256
  6
BYLAYER
 49
-0.5
 62
256
  6
BYLAYER
  0
LAYOUT
  5
379
102
{ACAD_REACTORS
330
1A
102
}
100
AcDbPlotSettings
  1

  2
none_device
  4
ANSI_A_(11.00_x_8.50_Inches)
  6

 40
0.0
 41
0.0
 42
0.0
 43
0.0
 44
279.4
 45
215.9
 46
0.0
 47
0.0
 48
0.0
 49
0.0
140
0.0
141
0.0
142
1.0
143
1.0
 70
1024
 72
0
 73
0
 74
0
  7

 75
0
147
1.0
148
0.0
149
0.0
100
AcDbLayout
  1
Model
 70
0
 71
0
 10
0.0
 20
0.0
 11
11.0
 21
8.5
 12
0.0
 22
0.0
 32
0.0
 14
0.0
 24
0.0
 34
0.0
 15
0.0
 25
0.0
 35
0.0
146
0.0
 13
0.0
 23
0.0
 33
0.0
 16
1.0
 26
0.0
 36
0.0
 17
0.0
 27
1.0
 37
0.0
 76
0
330
217
345
0
346
0
  0
LAYOUT
  5
37A
102
{ACAD_REACTORS
330
1A
102
}
100
AcDbPlotSettings
  1

  2
none_device
  4
ANSI_A_(11.00_x_8.50_Inches)
  6

 40
0.0
 41
0.0
 42
0.0
 43
0.0
 44
279.4
 45
215.9
 46
0.0
 47
0.0
 48
0.0
 49
0.0
140
0.0
141
0.0
142
1.0
143
1.0
 70
0
 72
0
 73
0
 74
0
  7

 75
0
147
1.0
148
0.0
149
0.0
100
AcDbLayout
  1
Layout1
 70
0
 71
1
 10
0.0
 20
0.0
 11
11.0
 21
8.5
 12
0.0
 22
0.0
 32
0.0
 14
0.0
 24
0.0
 34
0.0
 15
0.0
 25
0.0
 35
0.0
146
0.0
 13
0.0
 23
0.0
 33
0.0
 16
1.0
 26
0.0
 36
0.0
 17
0.0
 27
1.0
 37
0.0
 76
0
330
218
345
0
346
0
  0
ENDSEC
  0
EOF
