999
DXF file: E:\BT Custom\CADOUTPUT\_RIGHT.dxf
999
Pro/ENGINEER 2018400 by Parametric Technology Corporation
  0
SECTION
  2
HEADER
  9
$ACADVER
  1
AC1018
  9
$DWGCODEPAGE
  3
ANSI_1252
  9
$EXTMAX
 10
22.0
 20
17.0
 30
0.0
  9
$EXTMIN
 10
0.0
 20
0.0
 30
0.0
  9
$LIMMIN
 10
0.0
 20
0.0
  9
$LIMMAX
 10
22.0
 20
17.0
  9
$VIEWCTR
 10
11.0
 20
8.5
  9
$VIEWSIZE
 40
17.0
  9
$CLAYER
  8
0
  9
$LTSCALE
 40
1.21
  9
$CELTYPE
  6
BYLAYER
  9
$DIMSCALE
 40
1.0
  9
$DIMASZ
 40
0.1
  9
$DIMEXO
 40
0.0625
  9
$DIMDLI
 40
0.836
  9
$DIMEXE
 40
0.125
  9
$DIMCEN
 40
0.198
  9
$DIMLFAC
 40
1.0
  9
$DIMBLK
  1
_FILLED
  9
$DIMALT
 70
1
  9
$DIMALTD
 70
2
  9
$DIMALTTD
 70
2
  9
$DIMALTF
 40
25.4
  9
$DIMTXT
 40
0.08
  9
$DIMTOL
 70
1
  9
$DIMLIM
 70
0
  9
$DIMTFAC
 40
1.0
  9
$DIMTP
 40
0.001
  9
$DIMTM
 40
0.001
  9
$DIMGAP
 40
0.09
  9
$DIMDSEP
 70
46
  9
$AUNITS
 70
0
  9
$PDMODE
 70
3
  9
$PDSIZE
 40
0.06
  9
$HANDSEED
  5
2FE
  9
$TILEMODE
 70
1
  9
$MEASUREMENT
 70
0
  9
$INSUNITS
 70
1
  0
ENDSEC
  0
SECTION
  2
CLASSES
  0
CLASS
  1
ACDBDICTIONARYWDFLT
  2
AcDbDictionaryWithDefault
  3
AutoCAD 2000
 90
0
 91
1
280
0
281
0
  0
CLASS
  1
ACDBPLACEHOLDER
  2
AcDbPlaceHolder
  3
AutoCAD 2000
 90
0
 91
1
280
0
281
0
  0
CLASS
  1
LAYOUT
  2
AcDbLayout
  3
AutoCAD 2000
 90
0
 91
0
280
0
281
0
  0
ENDSEC
  0
SECTION
  2
TABLES
  0
TABLE
  2
VPORT
  5
8
100
AcDbSymbolTable
 70
2
  0
VPORT
  5
1F4
100
AcDbSymbolTableRecord
100
AcDbViewportTableRecord
  2
*ACTIVE
 70
0
 10
0.0
 20
0.0
 11
1.0
 21
1.0
 12
11.0
 22
8.5
 13
0.0
 23
0.0
 14
1.0
 24
1.0
 15
0.0
 25
0.0
 16
0.0
 26
0.0
 36
1.0
 17
0.0
 27
0.0
 37
0.0
 40
17.0
 41
1.2941176471
 42
50.0
 43
0.0
 44
0.0
 50
0.0
 51
0.0
 71
0
 72
100
 73
1
 74
1
 75
0
 76
0
 77
0
 78
0
  0
ENDTAB
  0
TABLE
  2
LTYPE
  5
5
100
AcDbSymbolTable
 70
6
  0
LTYPE
  5
14
100
AcDbSymbolTableRecord
100
AcDbLinetypeTableRecord
  2
BYBLOCK
 70
0
  3

 72
65
 73
0
 40
0.0
  0
LTYPE
  5
15
100
AcDbSymbolTableRecord
100
AcDbLinetypeTableRecord
  2
BYLAYER
 70
0
  3

 72
65
 73
0
 40
0.0
  0
LTYPE
  5
16
100
AcDbSymbolTableRecord
100
AcDbLinetypeTableRecord
  2
CONTINUOUS
 70
64
  3
Solid line
 72
65
 73
0
 40
0.0
  0
LTYPE
  5
1F5
100
AcDbSymbolTableRecord
100
AcDbLinetypeTableRecord
  2
CENTER
 70
64
  3
____ _ ____ _ ____ _ ____ _ ____ _ ____ _ ____
 72
65
 73
4
 40
0.6
 49
0.375
 74
0
 49
-0.075
 74
0
 49
0.075
 74
0
 49
-0.075
 74
0
  0
LTYPE
  5
1F6
100
AcDbSymbolTableRecord
100
AcDbLinetypeTableRecord
  2
HIDDEN
 70
64
  3
- - - - - - - - - - - - - - - - - - - -
 72
65
 73
2
 40
0.2
 49
0.1
 74
0
 49
-0.1
 74
0
  0
LTYPE
  5
1F7
100
AcDbSymbolTableRecord
100
AcDbLinetypeTableRecord
  2
PHANTOM
 70
64
  3
_____ _ _ _____ _ _ _____ _ _ _____
 72
65
 73
6
 40
0.8
 49
0.45
 74
0
 49
-0.05
 74
0
 49
0.1
 74
0
 49
-0.05
 74
0
 49
0.1
 74
0
 49
-0.05
 74
0
  0
LTYPE
  5
1F8
100
AcDbSymbolTableRecord
100
AcDbLinetypeTableRecord
  2
DOT
 70
64
  3
. . . . . . . . . . . . . . . . . . . .
 72
65
 73
2
 40
0.2
 49
0.1
 74
0
 49
-0.1
 74
0
  0
LTYPE
  5
1F9
100
AcDbSymbolTableRecord
100
AcDbLinetypeTableRecord
  2
DASHED
 70
64
  3
- - - - - - - - - - - - - - - - - - - -
 72
65
 73
2
 40
0.2
 49
0.1
 74
0
 49
-0.1
 74
0
  0
ENDTAB
  0
TABLE
  2
LAYER
  5
2
100
AcDbSymbolTable
 70
36
  0
LAYER
  5
10
100
AcDbSymbolTableRecord
100
AcDbLayerTableRecord
  2
0
 70
0
 62
7
  6
CONTINUOUS
370
-3
390
F
  0
LAYER
  5
1FA
100
AcDbSymbolTableRecord
100
AcDbLayerTableRecord
  2
DEFAULT_1
 70
0
 62
7
  6
CENTER
370
-3
390
F
  0
LAYER
  5
1FB
100
AcDbSymbolTableRecord
100
AcDbLayerTableRecord
  2
DEFAULT_2
 70
0
 62
8
  6
HIDDEN
370
-3
390
F
  0
LAYER
  5
1FC
100
AcDbSymbolTableRecord
100
AcDbLayerTableRecord
  2
DEFAULT_3
 70
0
 62
7
  6
PHANTOM
370
-3
390
F
  0
LAYER
  5
1FD
100
AcDbSymbolTableRecord
100
AcDbLayerTableRecord
  2
ALL_FEATURES
 70
0
 62
7
  6
CONTINUOUS
370
-3
390
F
  0
LAYER
  5
1FE
100
AcDbSymbolTableRecord
100
AcDbLayerTableRecord
  2
AXES_FEATURES
 70
0
 62
7
  6
CONTINUOUS
370
-3
390
F
  0
LAYER
  5
1FF
100
AcDbSymbolTableRecord
100
AcDbLayerTableRecord
  2
DIMENSIONS
 70
0
 62
7
  6
CONTINUOUS
370
-3
390
F
  0
ENDTAB
  0
TABLE
  2
STYLE
  5
3
100
AcDbSymbolTable
 70
1
  0
STYLE
  5
11
100
AcDbSymbolTableRecord
100
AcDbTextStyleTableRecord
  2
STANDARD
 70
0
 40
0.0
 41
0.8
 50
0.0
 71
0
 42
0.2
  3
txt
  4

  0
STYLE
  5
200
100
AcDbSymbolTableRecord
100
AcDbTextStyleTableRecord
  2
TEXTSTYLE_1
 70
0
 40
0.0
 41
0.8
 50
0.0
 71
0
 42
0.2
  3
gdt
  4

  0
ENDTAB
  0
TABLE
  2
VIEW
  5
6
100
AcDbSymbolTable
 70
0
  0
ENDTAB
  0
TABLE
  2
UCS
  5
7
100
AcDbSymbolTable
 70
0
  0
ENDTAB
  0
TABLE
  2
APPID
  5
9
100
AcDbSymbolTable
 70
1
  0
APPID
  5
201
100
AcDbSymbolTableRecord
100
AcDbRegAppTableRecord
  2
ACAD
 70
0
  0
ENDTAB
  0
TABLE
  2
BLOCK_RECORD
  5
1
100
AcDbSymbolTable
 70
0
  0
BLOCK_RECORD
  5
202
100
AcDbSymbolTableRecord
100
AcDbBlockTableRecord
  2
*Model_Space
  0
BLOCK_RECORD
  5
203
100
AcDbSymbolTableRecord
100
AcDbBlockTableRecord
  2
*Paper_Space
  0
BLOCK_RECORD
  5
204
100
AcDbSymbolTableRecord
100
AcDbBlockTableRecord
  2
_FILLED
  0
ENDTAB
  0
TABLE
  2
DIMSTYLE
  5
A
100
AcDbSymbolTable
 70
1
100
AcDbDimStyleTable
 71
0
  0
DIMSTYLE
105
205
100
AcDbSymbolTableRecord
100
AcDbDimStyleTableRecord
  2
STANDARD
 70
0
  3

  4

 40
1.0
 41
0.1
 42
0.0625
 43
0.38
 44
0.125
 45
0.0
 46
0.0
 47
0.001
 48
0.001
140
0.08
141
0.09
142
0.0
143
25.4
144
1.0
145
0.0
146
1.0
147
0.09
 71
1.0
 72
0.0
 73
1
 74
1
 75
0
 76
0
 77
0
 78
4
 79
1
170
1
171
2
172
0
173
0
174
0
175
0
176
0
177
0
178
0
270
2
179
3
271
3
272
3
273
2
274
2
275
0
280
0
281
0
282
0
283
1
284
4
285
0
286
0
287
3
288
0
340
11
278
46
341
204
342
204
343
204
344
204
  0
ENDTAB
  0
ENDSEC
  0
SECTION
  2
BLOCKS
  0
BLOCK
  5
20
100
AcDbEntity
  8
0
100
AcDbBlockBegin
  2
*Model_Space
 70
0
 10
0.0
 20
0.0
 30
0.0
  3
*Model_Space
  1

  0
ENDBLK
  5
21
100
AcDbEntity
  8
0
100
AcDbBlockEnd
  0
BLOCK
  5
1C
100
AcDbEntity
  8
0
100
AcDbBlockBegin
  2
*Paper_Space
 70
0
 10
0.0
 20
0.0
 30
0.0
  3
*Paper_Space
  1

  0
ENDBLK
  5
1D
100
AcDbEntity
  8
0
100
AcDbBlockEnd
  0
BLOCK
  5
206
100
AcDbEntity
  8
0
100
AcDbBlockBegin
  2
_FILLED
 70
64
 10
0.0
 20
0.0
  3
_FILLED
  1

  0
SOLID
  5
207
100
AcDbEntity
  8
0
  6
BYBLOCK
 62
0
100
AcDbTrace
 10
0.0
 20
0.0
 11
-1.0
 21
0.2
 12
-1.0
 22
-0.2
 13
-1.0
 23
-0.2
  0
ENDBLK
  5
208
100
AcDbEntity
  8
0
  6
BYBLOCK
 62
0
100
AcDbBlockEnd
  0
ENDSEC
  0
SECTION
  2
ENTITIES
  0
LINE
  5
209
100
AcDbEntity
  8
0
100
AcDbLine
 62
7
  6
CONTINUOUS
 10
4.9679976496
 20
10.6224533431
 11
5.0446006923
 21
11.0568907867
  0
LINE
  5
20A
100
AcDbEntity
  8
0
100
AcDbLine
 62
9
  6
CONTINUOUS
 10
5.0760262059
 20
10.6034049939
 11
5.1383809299
 21
10.9322466259
  0
LINE
  5
20B
100
AcDbEntity
  8
0
100
AcDbLine
 62
7
  6
CONTINUOUS
 10
6.4107410078
 20
10.3680587629
 11
6.4272729588
 21
10.4618161164
  0
LINE
  5
20C
100
AcDbEntity
  8
0
100
AcDbLine
 62
9
  6
CONTINUOUS
 10
7.1640421459
 20
10.8130699717
 11
7.647252657
 21
11.9793290975
  0
LINE
  5
20D
100
AcDbEntity
  8
0
100
AcDbLine
 62
7
  6
CONTINUOUS
 10
13.4619693287
 20
5.7234560529
 11
16.4519693287
 21
5.7234560529
  0
LINE
  5
20E
100
AcDbEntity
  8
0
100
AcDbLine
 62
9
  6
CONTINUOUS
 10
16.126680974
 20
6.0452241797
 11
13.7872576833
 21
6.0452241797
  0
LINE
  5
20F
100
AcDbEntity
  8
0
100
AcDbLine
 62
7
  6
CONTINUOUS
 10
14.0743533577
 20
6.3633995397
 11
13.66226135
 21
6.3633995397
  0
LINE
  5
210
100
AcDbEntity
  8
0
100
AcDbLine
 62
9
  6
CONTINUOUS
 10
14.2924276447
 20
6.8576479027
 11
15.6215110127
 21
6.8576479027
  0
LINE
  5
211
100
AcDbEntity
  8
0
100
AcDbLine
 62
7
  6
CONTINUOUS
 10
15.189621457
 20
7.5201921667
 11
15.162005042
 21
7.5184560529
  0
LINE
  5
212
100
AcDbEntity
  8
0
100
AcDbLine
 62
7
  6
CONTINUOUS
 10
15.1412496699
 20
7.5001559164
 11
15.1688785432
 21
7.5018619532
  0
LINE
  5
213
100
AcDbEntity
  8
0
100
AcDbLine
 62
7
  6
CONTINUOUS
 10
14.3796190595
 20
7.2504560529
 11
15.5343195979
 21
7.2504560529
  0
LINE
  5
214
100
AcDbEntity
  8
0
100
AcDbLine
 62
7
  6
CONTINUOUS
 10
15.3869693287
 20
7.3704560529
 11
14.5269693287
 21
7.3704560529
  0
LINE
  5
215
100
AcDbEntity
  8
0
100
AcDbLine
 62
7
  6
CONTINUOUS
 10
14.6444825633
 20
7.3904560529
 11
15.269456094
 21
7.3904560529
  0
LINE
  5
216
100
AcDbEntity
  8
0
100
AcDbLine
 62
7
  6
CONTINUOUS
 10
15.1412496699
 20
7.5001559164
 11
14.7726889874
 21
7.5001559164
  0
LINE
  5
217
100
AcDbEntity
  8
0
100
AcDbLine
 62
7
  6
CONTINUOUS
 10
15.162005042
 20
7.5184560529
 11
14.7519336153
 21
7.5184560529
  0
LINE
  5
218
100
AcDbEntity
  8
0
100
AcDbLine
 62
7
  6
CONTINUOUS
 10
15.1102283468
 20
7.6134560529
 11
14.8037103106
 21
7.6134560529
  0
LINE
  5
219
100
AcDbEntity
  8
0
100
AcDbLine
 62
9
  6
CONTINUOUS
 10
14.8037103106
 20
7.6329223497
 11
15.1102283468
 21
7.6329223496
  0
LINE
  5
21A
100
AcDbEntity
  8
0
100
AcDbLine
 62
7
  6
CONTINUOUS
 10
14.4669702773
 20
7.7004560529
 11
14.5440533141
 21
7.7004560529
  0
LINE
  5
21B
100
AcDbEntity
  8
0
100
AcDbLine
 62
7
  6
CONTINUOUS
 10
15.3698853433
 20
7.7004560529
 11
15.4469683801
 21
7.7004560529
  0
LINE
  5
21C
100
AcDbEntity
  8
0
100
AcDbLine
 62
9
  6
CONTINUOUS
 10
14.5569693287
 20
7.8601970348
 11
14.5764356254
 21
7.8601970348
  0
LINE
  5
21D
100
AcDbEntity
  8
0
100
AcDbLine
 62
9
  6
CONTINUOUS
 10
15.3375030319
 20
7.8601970348
 11
15.3569693287
 21
7.8601970348
  0
LINE
  5
21E
100
AcDbEntity
  8
0
100
AcDbLine
 62
9
  6
CONTINUOUS
 10
15.3569693287
 20
8.166715071
 11
15.3375030319
 21
8.166715071
  0
LINE
  5
21F
100
AcDbEntity
  8
0
100
AcDbLine
 62
9
  6
CONTINUOUS
 10
14.5764356254
 20
8.166715071
 11
14.5569693287
 21
8.166715071
  0
LINE
  5
220
100
AcDbEntity
  8
0
100
AcDbLine
 62
7
  6
CONTINUOUS
 10
14.7726889874
 20
7.5001559164
 11
14.7450601141
 21
7.5018619532
  0
LINE
  5
221
100
AcDbEntity
  8
0
100
AcDbLine
 62
7
  6
CONTINUOUS
 10
14.7243172003
 20
7.5201921667
 11
14.7519336153
 21
7.5184560529
  0
LINE
  5
222
100
AcDbEntity
  8
0
100
AcDbLine
 62
7
  6
CONTINUOUS
 10
14.7243172003
 20
8.5067199391
 11
14.7519336153
 21
8.5084560529
  0
LINE
  5
223
100
AcDbEntity
  8
0
100
AcDbLine
 62
7
  6
CONTINUOUS
 10
14.7726889874
 20
8.5267561894
 11
14.7450601141
 21
8.5250501526
  0
LINE
  5
224
100
AcDbEntity
  8
0
100
AcDbLine
 62
7
  6
CONTINUOUS
 10
15.4469693287
 20
8.3254560529
 11
15.3708853433
 21
8.3254560529
  0
LINE
  5
225
100
AcDbEntity
  8
0
100
AcDbLine
 62
7
  6
CONTINUOUS
 10
14.5430533141
 20
8.3254560529
 11
14.4669693287
 21
8.3254560529
  0
LINE
  5
226
100
AcDbEntity
  8
0
100
AcDbLine
 62
9
  6
CONTINUOUS
 10
15.1102283467
 20
8.3939897561
 11
14.8037103106
 21
8.3939897561
  0
LINE
  5
227
100
AcDbEntity
  8
0
100
AcDbLine
 62
7
  6
CONTINUOUS
 10
14.8037103106
 20
8.4134560529
 11
15.1102283467
 21
8.4134560529
  0
LINE
  5
228
100
AcDbEntity
  8
0
100
AcDbLine
 62
7
  6
CONTINUOUS
 10
14.7519336153
 20
8.5084560529
 11
15.162005042
 21
8.5084560529
  0
LINE
  5
229
100
AcDbEntity
  8
0
100
AcDbLine
 62
7
  6
CONTINUOUS
 10
14.7726889874
 20
8.5267561894
 11
15.1412496699
 21
8.5267561894
  0
LINE
  5
22A
100
AcDbEntity
  8
0
100
AcDbLine
 62
7
  6
CONTINUOUS
 10
15.1412496699
 20
8.5267561894
 11
15.1688785432
 21
8.5250501526
  0
LINE
  5
22B
100
AcDbEntity
  8
0
100
AcDbLine
 62
7
  6
CONTINUOUS
 10
15.189621457
 20
8.5067199391
 11
15.162005042
 21
8.5084560529
  0
LINE
  5
22C
100
AcDbEntity
  8
0
100
AcDbLine
 62
9
  6
CONTINUOUS
 10
6.9918842169
 20
10.8697506496
 11
6.9604652146
 21
10.8886081177
  0
LINE
  5
22D
100
AcDbEntity
  8
0
100
AcDbLine
 62
7
  6
CONTINUOUS
 10
15.6569693287
 20
9.7684560529
 11
14.2569693723
 21
9.7684560529
  0
LINE
  5
22E
100
AcDbEntity
  8
0
100
AcDbLine
 62
7
  6
CONTINUOUS
 10
15.4819693287
 20
9.8384560529
 11
14.4319693287
 21
9.8384560529
  0
LINE
  5
22F
100
AcDbEntity
  8
0
100
AcDbLine
 62
7
  6
CONTINUOUS
 10
15.2504693287
 20
9.8484560529
 11
14.6634693287
 21
9.8484560529
  0
LINE
  5
230
100
AcDbEntity
  8
0
100
AcDbLine
 62
9
  6
CONTINUOUS
 10
14.6178017485
 20
9.884344252
 11
15.2961369089
 21
9.884344252
  0
LINE
  5
231
100
AcDbEntity
  8
0
100
AcDbLine
 62
7
  6
CONTINUOUS
 10
4.9679976541
 20
10.6224533422
 11
6.4107410039
 21
10.3680587634
  0
LINE
  5
232
100
AcDbEntity
  8
0
100
AcDbLine
 62
9
  6
CONTINUOUS
 10
5.1383850696
 20
10.9322458791
 11
5.0265649585
 21
10.9546050572
  0
LINE
  5
233
100
AcDbEntity
  8
0
100
AcDbLine
 62
9
  6
CONTINUOUS
 10
5.1575421526
 20
11.0331901141
 11
5.0446006923
 21
11.0568907867
  0
LINE
  5
234
100
AcDbEntity
  8
0
100
AcDbLine
 62
9
  6
CONTINUOUS
 10
6.4272729588
 20
10.4618161164
 11
6.3181402416
 21
10.4850674121
  0
LINE
  5
235
100
AcDbEntity
  8
0
100
AcDbLine
 62
9
  6
CONTINUOUS
 10
6.4332072737
 20
10.490522827
 11
6.3228237487
 21
10.5154981272
  0
LINE
  5
236
100
AcDbEntity
  8
0
100
AcDbLine
 62
9
  6
CONTINUOUS
 10
14.5764356254
 20
8.166715071
 11
14.9464356254
 21
8.0134560529
  0
LINE
  5
237
100
AcDbEntity
  8
0
100
AcDbLine
 62
9
  6
CONTINUOUS
 10
14.9644177817
 20
8.0060075999
 11
15.3344177817
 21
7.8527485818
  0
LINE
  5
238
100
AcDbEntity
  8
0
100
AcDbLine
 62
9
  6
CONTINUOUS
 10
15.3375030319
 20
7.8601970348
 11
14.9675030319
 21
8.0134560529
  0
LINE
  5
239
100
AcDbEntity
  8
0
100
AcDbLine
 62
9
  6
CONTINUOUS
 10
14.9495208757
 20
8.0209045059
 11
14.5795208757
 21
8.174163524
  0
LINE
  5
23A
100
AcDbEntity
  8
0
100
AcDbLine
 62
7
  6
CONTINUOUS
 10
14.3769693287
 20
10.3184560529
 11
15.5369693287
 21
10.3184560529
  0
LINE
  5
23B
100
AcDbEntity
  8
0
100
AcDbLine
 62
7
  6
CONTINUOUS
 10
7.3239790382
 20
11.4385877302
 11
7.4087033874
 21
11.4035753613
  0
LINE
  5
23C
100
AcDbEntity
  8
0
100
AcDbLine
 62
7
  6
CONTINUOUS
 10
12.9762241802
 20
9.0968313186
 11
7.4087129464
 21
11.403597288
  0
LINE
  5
23D
100
AcDbEntity
  8
0
100
AcDbLine
 62
9
  6
CONTINUOUS
 10
7.073969156
 20
12.1865745261
 11
7.0424466455
 21
12.203166508
  0
LINE
  5
23E
100
AcDbEntity
  8
0
100
AcDbLine
 62
7
  6
CONTINUOUS
 10
16.1444693287
 20
6.0302032956
 11
16.126680974
 21
6.0452241797
  0
LINE
  5
23F
100
AcDbEntity
  8
0
100
AcDbLine
 62
7
  6
CONTINUOUS
 10
15.5369693287
 20
10.5284560529
 11
14.3769693287
 21
10.5284560529
  0
LINE
  5
240
100
AcDbEntity
  8
0
100
AcDbLine
 62
7
  6
CONTINUOUS
 10
14.964564487
 20
10.7084848965
 11
14.9494895578
 21
10.7084848965
  0
LINE
  5
241
100
AcDbEntity
  8
0
100
AcDbLine
 62
7
  6
CONTINUOUS
 10
7.5205564327
 20
12.0261122431
 11
7.6472367193
 21
11.9792859807
  0
LINE
  5
242
100
AcDbEntity
  8
0
100
AcDbLine
 62
7
  6
CONTINUOUS
 10
7.0424466455
 20
12.203166508
 11
7.5132664175
 21
12.0289171501
  0
LINE
  5
243
100
AcDbEntity
  8
0
100
AcDbLine
 62
7
  6
CONTINUOUS
 10
14.7726889874
 20
7.5001559164
 11
14.7519336153
 21
7.5184560529
  0
LINE
  5
244
100
AcDbEntity
  8
0
100
AcDbLine
 62
7
  6
CONTINUOUS
 10
14.7450601141
 20
7.5018619532
 11
14.7243172003
 21
7.5201921667
  0
LINE
  5
245
100
AcDbEntity
  8
0
100
AcDbLine
 62
7
  6
CONTINUOUS
 10
14.7243172003
 20
7.5201921667
 11
14.4637054424
 21
7.7808039245
  0
LINE
  5
246
100
AcDbEntity
  8
0
100
AcDbLine
 62
7
  6
CONTINUOUS
 10
14.7519336153
 20
7.5184560529
 11
14.4619693287
 21
7.8084203395
  0
LINE
  5
247
100
AcDbEntity
  8
0
100
AcDbLine
 62
9
  6
CONTINUOUS
 10
13.294673136
 20
9.9278289325
 11
12.6625374904
 21
8.2782592408
  0
LINE
  5
248
100
AcDbEntity
  8
0
100
AcDbLine
 62
7
  6
CONTINUOUS
 10
14.7824971072
 20
7.6222428494
 11
14.5657561253
 21
7.8389838314
  0
LINE
  5
249
100
AcDbEntity
  8
0
100
AcDbLine
 62
9
  6
CONTINUOUS
 10
14.5795208757
 20
7.8527485818
 11
14.7962618576
 21
7.6360075999
  0
LINE
  5
24A
100
AcDbEntity
  8
0
100
AcDbLine
 62
9
  6
CONTINUOUS
 10
14.5657561252
 20
8.1879282744
 11
14.5795208757
 21
8.174163524
  0
LINE
  5
24B
100
AcDbEntity
  8
0
100
AcDbLine
 62
9
  6
CONTINUOUS
 10
15.1176767997
 20
7.6360075999
 11
15.1314415502
 21
7.6222428495
  0
LINE
  5
24C
100
AcDbEntity
  8
0
100
AcDbLine
 62
7
  6
CONTINUOUS
 10
14.4453752289
 20
7.8015468384
 11
14.4637054424
 21
7.7808039245
  0
LINE
  5
24D
100
AcDbEntity
  8
0
100
AcDbLine
 62
7
  6
CONTINUOUS
 10
14.4436691922
 20
7.8291757116
 11
14.4619693287
 21
7.8084203395
  0
LINE
  5
24E
100
AcDbEntity
  8
0
100
AcDbLine
 62
9
  6
CONTINUOUS
 10
15.3344177817
 20
8.174163524
 11
14.9644177817
 21
8.0209045059
  0
LINE
  5
24F
100
AcDbEntity
  8
0
100
AcDbLine
 62
9
  6
CONTINUOUS
 10
14.9464356254
 20
8.0134560529
 11
14.5764356254
 21
7.8601970348
  0
LINE
  5
250
100
AcDbEntity
  8
0
100
AcDbLine
 62
9
  6
CONTINUOUS
 10
14.5795208757
 20
7.8527485818
 11
14.9495208757
 21
8.0060075999
  0
LINE
  5
251
100
AcDbEntity
  8
0
100
AcDbLine
 62
9
  6
CONTINUOUS
 10
14.9675030319
 20
8.0134560529
 11
15.3375030319
 21
8.166715071
  0
LINE
  5
252
100
AcDbEntity
  8
0
100
AcDbLine
 62
7
  6
CONTINUOUS
 10
15.1412496699
 20
8.5267561894
 11
15.162005042
 21
8.5084560529
  0
LINE
  5
253
100
AcDbEntity
  8
0
100
AcDbLine
 62
7
  6
CONTINUOUS
 10
15.1688785432
 20
8.5250501526
 11
15.189621457
 21
8.5067199391
  0
LINE
  5
254
100
AcDbEntity
  8
0
100
AcDbLine
 62
9
  6
CONTINUOUS
 10
15.3481825321
 20
7.8389838314
 11
15.3344177817
 21
7.8527485818
  0
LINE
  5
255
100
AcDbEntity
  8
0
100
AcDbLine
 62
9
  6
CONTINUOUS
 10
14.7962618576
 20
8.3909045059
 11
14.7824971072
 21
8.4046692563
  0
LINE
  5
256
100
AcDbEntity
  8
0
100
AcDbLine
 62
9
  6
CONTINUOUS
 10
15.3344177817
 20
8.174163524
 11
15.1176767997
 21
8.3909045059
  0
LINE
  5
257
100
AcDbEntity
  8
0
100
AcDbLine
 62
7
  6
CONTINUOUS
 10
15.1314415502
 20
8.4046692563
 11
15.3481825321
 21
8.1879282744
  0
LINE
  5
258
100
AcDbEntity
  8
0
100
AcDbLine
 62
7
  6
CONTINUOUS
 10
15.5507193287
 20
6.0302032956
 11
15.5418251514
 21
6.0452241797
  0
LINE
  5
259
100
AcDbEntity
  8
0
100
AcDbLine
 62
7
  6
CONTINUOUS
 10
13.4619693287
 20
5.7234560529
 11
13.4619693287
 21
5.7786953457
  0
LINE
  5
25A
100
AcDbEntity
  8
0
100
AcDbLine
 62
7
  6
CONTINUOUS
 10
13.7694693287
 20
5.7234560529
 11
13.7694693287
 21
6.0302032956
  0
LINE
  5
25B
100
AcDbEntity
  8
0
100
AcDbLine
 62
7
  6
CONTINUOUS
 10
14.4319693287
 20
9.8384560529
 11
14.3944693287
 21
9.7684560529
  0
LINE
  5
25C
100
AcDbEntity
  8
0
100
AcDbLine
 62
7
  6
CONTINUOUS
 10
14.7450601141
 20
8.5250501526
 11
14.7243172003
 21
8.5067199391
  0
LINE
  5
25D
100
AcDbEntity
  8
0
100
AcDbLine
 62
7
  6
CONTINUOUS
 10
14.7726889874
 20
8.5267561894
 11
14.7519336153
 21
8.5084560529
  0
LINE
  5
25E
100
AcDbEntity
  8
0
100
AcDbLine
 62
7
  6
CONTINUOUS
 10
15.162005042
 20
8.5084560529
 11
15.4519693287
 21
8.2184917663
  0
LINE
  5
25F
100
AcDbEntity
  8
0
100
AcDbLine
 62
7
  6
CONTINUOUS
 10
15.189621457
 20
8.5067199391
 11
15.4502332149
 21
8.2461081813
  0
LINE
  5
260
100
AcDbEntity
  8
0
100
AcDbLine
 62
7
  6
CONTINUOUS
 10
15.4685634284
 20
8.2253652674
 11
15.4502332149
 21
8.2461081813
  0
LINE
  5
261
100
AcDbEntity
  8
0
100
AcDbLine
 62
7
  6
CONTINUOUS
 10
15.4702694652
 20
8.1977363942
 11
15.4519693287
 21
8.2184917663
  0
LINE
  5
262
100
AcDbEntity
  8
0
100
AcDbLine
 62
7
  6
CONTINUOUS
 10
14.4436691922
 20
8.1977363942
 11
14.4619693287
 21
8.2184917663
  0
LINE
  5
263
100
AcDbEntity
  8
0
100
AcDbLine
 62
7
  6
CONTINUOUS
 10
14.4453752289
 20
8.2253652674
 11
14.4637054424
 21
8.2461081813
  0
LINE
  5
264
100
AcDbEntity
  8
0
100
AcDbLine
 62
7
  6
CONTINUOUS
 10
14.4637054424
 20
8.2461081813
 11
14.7243172003
 21
8.5067199391
  0
LINE
  5
265
100
AcDbEntity
  8
0
100
AcDbLine
 62
7
  6
CONTINUOUS
 10
14.4619693287
 20
8.2184917663
 11
14.7519336153
 21
8.5084560529
  0
LINE
  5
266
100
AcDbEntity
  8
0
100
AcDbLine
 62
7
  6
CONTINUOUS
 10
14.5657561252
 20
8.1879282744
 11
14.7824971071
 21
8.4046692563
  0
LINE
  5
267
100
AcDbEntity
  8
0
100
AcDbLine
 62
9
  6
CONTINUOUS
 10
14.7962618576
 20
8.3909045059
 11
14.5795208757
 21
8.174163524
  0
LINE
  5
268
100
AcDbEntity
  8
0
100
AcDbLine
 62
9
  6
CONTINUOUS
 10
15.1314415502
 20
8.4046692563
 11
15.1176767997
 21
8.3909045059
  0
LINE
  5
269
100
AcDbEntity
  8
0
100
AcDbLine
 62
9
  6
CONTINUOUS
 10
14.5795208757
 20
7.8527485818
 11
14.5657561252
 21
7.8389838314
  0
LINE
  5
26A
100
AcDbEntity
  8
0
100
AcDbLine
 62
9
  6
CONTINUOUS
 10
14.7962618576
 20
8.3909045059
 11
14.9495208757
 21
8.0209045059
  0
LINE
  5
26B
100
AcDbEntity
  8
0
100
AcDbLine
 62
9
  6
CONTINUOUS
 10
14.9569693287
 20
8.0029223496
 11
15.1102283468
 21
7.6329223496
  0
LINE
  5
26C
100
AcDbEntity
  8
0
100
AcDbLine
 62
9
  6
CONTINUOUS
 10
15.1176767997
 20
7.6360075999
 11
14.9644177817
 21
8.0060075999
  0
LINE
  5
26D
100
AcDbEntity
  8
0
100
AcDbLine
 62
9
  6
CONTINUOUS
 10
14.9569693287
 20
8.0239897561
 11
14.8037103106
 21
8.3939897561
  0
LINE
  5
26E
100
AcDbEntity
  8
0
100
AcDbLine
 62
7
  6
CONTINUOUS
 10
14.4637054424
 20
7.7808039245
 11
14.4619693287
 21
7.8084203395
  0
LINE
  5
26F
100
AcDbEntity
  8
0
100
AcDbLine
 62
7
  6
CONTINUOUS
 10
14.4453752289
 20
7.8015468384
 11
14.4436691922
 21
7.8291757116
  0
LINE
  5
270
100
AcDbEntity
  8
0
100
AcDbLine
 62
7
  6
CONTINUOUS
 10
14.3769693287
 20
10.5284560529
 11
14.3769693287
 21
10.3184560529
  0
LINE
  5
271
100
AcDbEntity
  8
0
100
AcDbLine
 62
7
  6
CONTINUOUS
 10
14.4436691922
 20
7.8291757116
 11
14.4436691922
 21
8.1977363942
  0
LINE
  5
272
100
AcDbEntity
  8
0
100
AcDbLine
 62
7
  6
CONTINUOUS
 10
14.4619693287
 20
7.8084203395
 11
14.4619693287
 21
8.2184917663
  0
LINE
  5
273
100
AcDbEntity
  8
0
100
AcDbLine
 62
7
  6
CONTINUOUS
 10
14.4669693287
 20
7.7004560529
 11
14.4669693287
 21
7.7775400383
  0
LINE
  5
274
100
AcDbEntity
  8
0
100
AcDbLine
 62
7
  6
CONTINUOUS
 10
14.4669693287
 20
8.2493720675
 11
14.4669693287
 21
8.3254560529
  0
LINE
  5
275
100
AcDbEntity
  8
0
100
AcDbLine
 62
7
  6
CONTINUOUS
 10
14.5269693287
 20
7.3704560529
 11
14.5269693287
 21
7.2504560529
  0
LINE
  5
276
100
AcDbEntity
  8
0
100
AcDbLine
 62
7
  6
CONTINUOUS
 10
14.5569693287
 20
7.8601970348
 11
14.5569693287
 21
8.1667150709
  0
LINE
  5
277
100
AcDbEntity
  8
0
100
AcDbLine
 62
9
  6
CONTINUOUS
 10
14.5764356254
 20
8.166715071
 11
14.5764356254
 21
7.8601970348
  0
LINE
  5
278
100
AcDbEntity
  8
0
100
AcDbLine
 62
7
  6
CONTINUOUS
 10
14.6444693287
 20
7.3904560529
 11
14.6444693287
 21
7.6000400383
  0
LINE
  5
279
100
AcDbEntity
  8
0
100
AcDbLine
 62
7
  6
CONTINUOUS
 10
14.4453752289
 20
8.2253652674
 11
14.4436691922
 21
8.1977363942
  0
LINE
  5
27A
100
AcDbEntity
  8
0
100
AcDbLine
 62
7
  6
CONTINUOUS
 10
14.4637054424
 20
8.2461081813
 11
14.4619693287
 21
8.2184917663
  0
LINE
  5
27B
100
AcDbEntity
  8
0
100
AcDbLine
 62
7
  6
CONTINUOUS
 10
14.2924276447
 20
6.8576479027
 11
14.3796190595
 21
7.2504560529
  0
LINE
  5
27C
100
AcDbEntity
  8
0
100
AcDbLine
 62
9
  6
CONTINUOUS
 10
14.7824971072
 20
7.6222428495
 11
14.7962618576
 21
7.6360075999
  0
LINE
  5
27D
100
AcDbEntity
  8
0
100
AcDbLine
 62
9
  6
CONTINUOUS
 10
15.3344177817
 20
8.174163524
 11
15.3481825321
 21
8.1879282744
  0
LINE
  5
27E
100
AcDbEntity
  8
0
100
AcDbLine
 62
7
  6
CONTINUOUS
 10
14.7569693287
 20
7.3704560529
 11
14.7569693287
 21
7.3904560529
  0
LINE
  5
27F
100
AcDbEntity
  8
0
100
AcDbLine
 62
9
  6
CONTINUOUS
 10
14.8037103106
 20
8.4134560529
 11
14.8037103106
 21
8.3939897561
  0
LINE
  5
280
100
AcDbEntity
  8
0
100
AcDbLine
 62
9
  6
CONTINUOUS
 10
14.8037103106
 20
7.6329223497
 11
14.8037103106
 21
7.6134560529
  0
LINE
  5
281
100
AcDbEntity
  8
0
100
AcDbLine
 62
7
  6
CONTINUOUS
 10
14.9569550807
 20
8.5267561894
 11
14.9569693287
 21
9.7684560529
  0
LINE
  5
282
100
AcDbEntity
  8
0
100
AcDbLine
 62
9
  6
CONTINUOUS
 10
15.1102283467
 20
7.6134560529
 11
15.1102283467
 21
7.6329223497
  0
LINE
  5
283
100
AcDbEntity
  8
0
100
AcDbLine
 62
9
  6
CONTINUOUS
 10
15.1102283467
 20
8.3939897561
 11
15.1102283467
 21
8.4134560529
  0
LINE
  5
284
100
AcDbEntity
  8
0
100
AcDbLine
 62
7
  6
CONTINUOUS
 10
15.1569693287
 20
7.3704560529
 11
15.1569693287
 21
7.3904560529
  0
LINE
  5
285
100
AcDbEntity
  8
0
100
AcDbLine
 62
7
  6
CONTINUOUS
 10
14.6246984867
 20
6.8576479027
 11
14.6682941941
 21
7.2504560529
  0
LINE
  5
286
100
AcDbEntity
  8
0
100
AcDbLine
 62
9
  6
CONTINUOUS
 10
15.1102283467
 20
8.3939897561
 11
14.9569693287
 21
8.0239897561
  0
LINE
  5
287
100
AcDbEntity
  8
0
100
AcDbLine
 62
9
  6
CONTINUOUS
 10
14.9495208757
 20
8.0060075999
 11
14.7962618576
 21
7.6360075999
  0
LINE
  5
288
100
AcDbEntity
  8
0
100
AcDbLine
 62
9
  6
CONTINUOUS
 10
14.8037103106
 20
7.6329223497
 11
14.9569693287
 21
8.0029223496
  0
LINE
  5
289
100
AcDbEntity
  8
0
100
AcDbLine
 62
9
  6
CONTINUOUS
 10
14.9644177817
 20
8.0209045059
 11
15.1176767997
 21
8.3909045059
  0
LINE
  5
28A
100
AcDbEntity
  8
0
100
AcDbLine
 62
7
  6
CONTINUOUS
 10
15.4702694652
 20
7.8291757116
 11
15.4519693287
 21
7.8084203395
  0
LINE
  5
28B
100
AcDbEntity
  8
0
100
AcDbLine
 62
7
  6
CONTINUOUS
 10
15.4685634284
 20
7.8015468384
 11
15.4502332149
 21
7.7808039245
  0
LINE
  5
28C
100
AcDbEntity
  8
0
100
AcDbLine
 62
9
  6
CONTINUOUS
 10
15.1176767997
 20
7.6360075999
 11
15.3344177817
 21
7.8527485818
  0
LINE
  5
28D
100
AcDbEntity
  8
0
100
AcDbLine
 62
7
  6
CONTINUOUS
 10
15.3481825321
 20
7.8389838314
 11
15.1314415502
 21
7.6222428495
  0
LINE
  5
28E
100
AcDbEntity
  8
0
100
AcDbLine
 62
7
  6
CONTINUOUS
 10
15.4519693287
 20
7.8084203395
 11
15.162005042
 21
7.5184560529
  0
LINE
  5
28F
100
AcDbEntity
  8
0
100
AcDbLine
 62
7
  6
CONTINUOUS
 10
15.4502332149
 20
7.7808039245
 11
15.189621457
 21
7.5201921667
  0
LINE
  5
290
100
AcDbEntity
  8
0
100
AcDbLine
 62
7
  6
CONTINUOUS
 10
15.1688785432
 20
7.5018619532
 11
15.189621457
 21
7.5201921667
  0
LINE
  5
291
100
AcDbEntity
  8
0
100
AcDbLine
 62
7
  6
CONTINUOUS
 10
15.1412496699
 20
7.5001559164
 11
15.162005042
 21
7.5184560529
  0
LINE
  5
292
100
AcDbEntity
  8
0
100
AcDbLine
 62
7
  6
CONTINUOUS
 10
13.7694693287
 20
6.0302032956
 11
13.7872576833
 21
6.0452241797
  0
LINE
  5
293
100
AcDbEntity
  8
0
100
AcDbLine
 62
7
  6
CONTINUOUS
 10
15.6215110127
 20
6.8576479027
 11
15.5343195979
 21
7.2504560529
  0
LINE
  5
294
100
AcDbEntity
  8
0
100
AcDbLine
 62
7
  6
CONTINUOUS
 10
15.2892401707
 20
6.8576479027
 11
15.2456444633
 21
7.2504560529
  0
LINE
  5
295
100
AcDbEntity
  8
0
100
AcDbLine
 62
7
  6
CONTINUOUS
 10
15.4502332149
 20
8.2461081813
 11
15.4519693287
 21
8.2184917663
  0
LINE
  5
296
100
AcDbEntity
  8
0
100
AcDbLine
 62
7
  6
CONTINUOUS
 10
15.4685634284
 20
8.2253652674
 11
15.4702694652
 21
8.1977363942
  0
LINE
  5
297
100
AcDbEntity
  8
0
100
AcDbLine
 62
7
  6
CONTINUOUS
 10
15.2694693287
 20
7.3904560529
 11
15.2694693287
 21
7.6000400383
  0
LINE
  5
298
100
AcDbEntity
  8
0
100
AcDbLine
 62
9
  6
CONTINUOUS
 10
15.3375030319
 20
7.8601970348
 11
15.3375030319
 21
8.166715071
  0
LINE
  5
299
100
AcDbEntity
  8
0
100
AcDbLine
 62
7
  6
CONTINUOUS
 10
15.3569693287
 20
8.166715071
 11
15.3569693287
 21
7.8601970349
  0
LINE
  5
29A
100
AcDbEntity
  8
0
100
AcDbLine
 62
7
  6
CONTINUOUS
 10
15.3869693287
 20
7.3704560529
 11
15.3869693287
 21
7.2504560529
  0
LINE
  5
29B
100
AcDbEntity
  8
0
100
AcDbLine
 62
7
  6
CONTINUOUS
 10
15.4469693287
 20
7.7004560529
 11
15.4469693287
 21
7.7775400383
  0
LINE
  5
29C
100
AcDbEntity
  8
0
100
AcDbLine
 62
7
  6
CONTINUOUS
 10
15.4469693287
 20
8.2493720675
 11
15.4469693287
 21
8.3254560529
  0
LINE
  5
29D
100
AcDbEntity
  8
0
100
AcDbLine
 62
7
  6
CONTINUOUS
 10
15.4519693287
 20
8.2184917663
 11
15.4519693287
 21
7.8084203395
  0
LINE
  5
29E
100
AcDbEntity
  8
0
100
AcDbLine
 62
7
  6
CONTINUOUS
 10
15.4702694652
 20
8.1977363942
 11
15.4702694652
 21
7.8291757116
  0
LINE
  5
29F
100
AcDbEntity
  8
0
100
AcDbLine
 62
7
  6
CONTINUOUS
 10
15.5369693287
 20
10.5284560529
 11
15.5369693287
 21
10.3184560529
  0
LINE
  5
2A0
100
AcDbEntity
  8
0
100
AcDbLine
 62
7
  6
CONTINUOUS
 10
15.4685634284
 20
7.8015468384
 11
15.4702694652
 21
7.8291757116
  0
LINE
  5
2A1
100
AcDbEntity
  8
0
100
AcDbLine
 62
7
  6
CONTINUOUS
 10
15.4502332149
 20
7.7808039245
 11
15.4519693287
 21
7.8084203395
  0
LINE
  5
2A2
100
AcDbEntity
  8
0
100
AcDbLine
 62
7
  6
CONTINUOUS
 10
14.3632193287
 20
6.0302032956
 11
14.372113506
 21
6.0452241797
  0
LINE
  5
2A3
100
AcDbEntity
  8
0
100
AcDbLine
 62
7
  6
CONTINUOUS
 10
15.4819693287
 20
9.8384560529
 11
15.5194693287
 21
9.7684560529
  0
LINE
  5
2A4
100
AcDbEntity
  8
0
100
AcDbLine
 62
7
  6
CONTINUOUS
 10
16.1444693287
 20
5.7234560529
 11
16.1444693287
 21
6.0302032956
  0
LINE
  5
2A5
100
AcDbEntity
  8
0
100
AcDbLine
 62
7
  6
CONTINUOUS
 10
16.4519693287
 20
5.7234560529
 11
16.4519693287
 21
5.7786953457
  0
ARC
  5
2A6
100
AcDbEntity
  8
0
100
AcDbCircle
 62
7
  6
CONTINUOUS
 10
-339.8450164912
 20
-749.1479327348
 40
835.437617091
100
AcDbArc
 50
65.0426441052
 51
65.4578831504
  0
ARC
  5
2A7
100
AcDbEntity
  8
0
100
AcDbCircle
 62
9
  6
CONTINUOUS
 10
-149.3904743847
 20
0.0147365343
 40
164.1306860827
100
AcDbArc
 50
2.9083873983
 51
3.4068974034
  0
ARC
  5
2A8
100
AcDbEntity
  8
0
100
AcDbCircle
 62
7
  6
CONTINUOUS
 10
-3.7751221758
 20
-18.7001495868
 40
32.7367149873
100
AcDbArc
 50
69.8154149127
 51
70.6459610759
  0
ARC
  5
2A9
100
AcDbEntity
  8
0
100
AcDbCircle
 62
7
  6
CONTINUOUS
 10
1.2671452566
 20
10.2827230823
 40
13.0
100
AcDbArc
 50
339.72883062
 51
342.4530967739
  0
ARC
  5
2AA
100
AcDbEntity
  8
0
100
AcDbCircle
 62
7
  6
CONTINUOUS
 10
11.1344255667
 20
19.508354299
 40
9.5588660926
100
AcDbArc
 50
245.1679644962
 51
245.4579252527
  0
ARC
  5
2AB
100
AcDbEntity
  8
0
100
AcDbCircle
 62
7
  6
CONTINUOUS
 10
11.1883820178
 20
9.7349231497
 40
5.5467962324
100
AcDbArc
 50
169.1332598324
 51
169.8370938194
  0
ARC
  5
2AC
100
AcDbEntity
  8
0
100
AcDbCircle
 62
7
  6
CONTINUOUS
 10
5.5259430122
 20
7.0752820981
 40
4.7192705905
100
AcDbArc
 50
67.6043788037
 51
71.5114247032
  0
ARC
  5
2AD
100
AcDbEntity
  8
0
100
AcDbCircle
 62
7
  6
CONTINUOUS
 10
10.8661793346
 20
5.7748049817
 40
4.1156968371
100
AcDbArc
 50
22.8363412183
 51
23.1509586943
  0
ARC
  5
2AE
100
AcDbEntity
  8
0
100
AcDbCircle
 62
7
  6
CONTINUOUS
 10
11.0404725001
 20
5.8514125524
 40
3.9253188814
100
AcDbArc
 50
23.1872707972
 51
26.0403519421
  0
ARC
  5
2AF
100
AcDbEntity
  8
0
100
AcDbCircle
 62
7
  6
CONTINUOUS
 10
11.2389577638
 20
5.9487483021
 40
3.7042520582
100
AcDbArc
 50
26.0354195181
 51
28.2225017287
  0
ARC
  5
2B0
100
AcDbEntity
  8
0
100
AcDbCircle
 62
7
  6
CONTINUOUS
 10
11.3872731748
 20
6.0292470466
 40
3.5354931286
100
AcDbArc
 50
29.3959098125
 51
29.6550527331
  0
ARC
  5
2B1
100
AcDbEntity
  8
0
100
AcDbCircle
 62
7
  6
CONTINUOUS
 10
11.4091093759
 20
6.0416992202
 40
3.5103559846
100
AcDbArc
 50
29.6547730606
 51
30.0553120359
  0
ARC
  5
2B2
100
AcDbEntity
  8
0
100
AcDbCircle
 62
7
  6
CONTINUOUS
 10
11.4351100194
 20
6.0567775361
 40
3.480299545
100
AcDbArc
 50
30.0965901819
 51
30.5059670998
  0
ARC
  5
2B3
100
AcDbEntity
  8
0
100
AcDbCircle
 62
7
  6
CONTINUOUS
 10
11.5146974951
 20
6.1044432865
 40
3.3875324539
100
AcDbArc
 50
30.4946883194
 51
32.7695951185
  0
ARC
  5
2B4
100
AcDbEntity
  8
0
100
AcDbCircle
 62
7
  6
CONTINUOUS
 10
6.7647703175
 20
10.0661831423
 40
0.8453870906
100
AcDbArc
 50
65.1463447049
 51
76.6154518304
  0
ARC
  5
2B5
100
AcDbEntity
  8
0
100
AcDbCircle
 62
7
  6
CONTINUOUS
 10
6.8993155594
 20
10.411196087
 40
0.5858512803
100
AcDbArc
 50
169.744674286
 51
172.7561619263
  0
ARC
  5
2B6
100
AcDbEntity
  8
0
100
AcDbCircle
 62
7
  6
CONTINUOUS
 10
6.9194239213
 20
10.3741130535
 40
0.5009062997
100
AcDbArc
 50
66.3917409343
 51
81.6825025609
  0
ARC
  5
2B7
100
AcDbEntity
  8
0
100
AcDbCircle
 62
7
  6
CONTINUOUS
 10
6.9197820682
 20
10.3749702736
 40
0.5001074117
100
AcDbArc
 50
166.6407803317
 51
169.9996391165
  0
ARC
  5
2B8
100
AcDbEntity
  8
0
100
AcDbCircle
 62
7
  6
CONTINUOUS
 10
6.9196959784
 20
10.3749638262
 40
0.5000190726
100
AcDbArc
 50
81.6992463028
 51
166.6377822475
  0
ARC
  5
2B9
100
AcDbEntity
  8
0
100
AcDbCircle
 62
9
  6
CONTINUOUS
 10
14.9258332666
 20
7.9382869497
 40
0.0911834711
100
AcDbArc
 50
64.9662205126
 51
70.0337794892
  0
ARC
  5
2BA
100
AcDbEntity
  8
0
100
AcDbCircle
 62
9
  6
CONTINUOUS
 10
14.9258339931
 20
8.0886234022
 40
0.0911815745
100
AcDbArc
 50
289.9661677756
 51
295.0338322261
  0
ARC
  5
2BB
100
AcDbEntity
  8
0
100
AcDbCircle
 62
9
  6
CONTINUOUS
 10
14.8818020063
 20
7.9823207285
 40
0.0911815454
100
AcDbArc
 50
19.9661669654
 51
25.0338330362
  0
ARC
  5
2BC
100
AcDbEntity
  8
0
100
AcDbCircle
 62
9
  6
CONTINUOUS
 10
14.834845635
 20
7.7186233753
 40
0.0911815454
100
AcDbArc
 50
244.9661669657
 51
250.033833036
  0
ARC
  5
2BD
100
AcDbEntity
  8
0
100
AcDbCircle
 62
9
  6
CONTINUOUS
 10
14.8818020063
 20
8.0445913773
 40
0.0911815454
100
AcDbArc
 50
334.9661669646
 51
340.0338330358
  0
ARC
  5
2BE
100
AcDbEntity
  8
0
100
AcDbCircle
 62
9
  6
CONTINUOUS
 10
14.662136651
 20
7.8913323592
 40
0.0911815454
100
AcDbArc
 50
199.9661669655
 51
205.033833036
  0
ARC
  5
2BF
100
AcDbEntity
  8
0
100
AcDbCircle
 62
9
  6
CONTINUOUS
 10
14.662136651
 20
8.1355797466
 40
0.0911815454
100
AcDbArc
 50
154.9661669662
 51
160.033833036
  0
ARC
  5
2C0
100
AcDbEntity
  8
0
100
AcDbCircle
 62
7
  6
CONTINUOUS
 10
14.5869693287
 20
8.166715071
 40
0.03
100
AcDbArc
 50
135.0000000184
 51
180.0
  0
ARC
  5
2C1
100
AcDbEntity
  8
0
100
AcDbCircle
 62
7
  6
CONTINUOUS
 10
14.8037103106
 20
7.6434560529
 40
0.03
100
AcDbArc
 50
225.0000000194
 51
270.0
  0
ARC
  5
2C2
100
AcDbEntity
  8
0
100
AcDbCircle
 62
7
  6
CONTINUOUS
 10
14.5869693287
 20
7.8601970348
 40
0.03
100
AcDbArc
 50
180.0000000193
 51
225.0
  0
ARC
  5
2C3
100
AcDbEntity
  8
0
100
AcDbCircle
 62
7
  6
CONTINUOUS
 10
14.9493741703
 20
9.7084848965
 40
1.0
100
AcDbArc
 50
90.0
 51
124.9180935011
  0
ARC
  5
2C4
100
AcDbEntity
  8
0
100
AcDbCircle
 62
7
  6
CONTINUOUS
 10
13.7063934461
 20
9.6625810757
 40
0.938
100
AcDbArc
 50
13.6754181611
 51
44.3650233311
  0
ARC
  5
2C5
100
AcDbEntity
  8
0
100
AcDbCircle
 62
9
  6
CONTINUOUS
 10
14.834845635
 20
8.3082887305
 40
0.0911815454
100
AcDbArc
 50
109.9661669655
 51
115.0338330362
  0
ARC
  5
2C6
100
AcDbEntity
  8
0
100
AcDbCircle
 62
7
  6
CONTINUOUS
 10
14.8037103106
 20
8.3834560529
 40
0.03
100
AcDbArc
 50
90.0000000191
 51
135.0
  0
ARC
  5
2C7
100
AcDbEntity
  8
0
100
AcDbCircle
 62
7
  6
CONTINUOUS
 10
14.9569693287
 20
6.9077466327
 40
1.5
100
AcDbArc
 50
104.8404371934
 51
109.0665801007
  0
ARC
  5
2C8
100
AcDbEntity
  8
0
100
AcDbCircle
 62
7
  6
CONTINUOUS
 10
14.9569693287
 20
6.9077466327
 40
1.5
100
AcDbArc
 50
70.9334198993
 51
75.1595628066
  0
CIRCLE
  5
2C9
100
AcDbEntity
  8
0
100
AcDbCircle
 62
7
  6
CONTINUOUS
 10
14.9569693287
 20
8.0134560529
 40
0.49
  0
CIRCLE
  5
2CA
100
AcDbEntity
  8
0
100
AcDbCircle
 62
9
  6
CONTINUOUS
 10
14.9569693287
 20
8.0134560529
 40
0.46
  0
ARC
  5
2CB
100
AcDbEntity
  8
0
100
AcDbCircle
 62
9
  6
CONTINUOUS
 10
14.9881053907
 20
8.0886251561
 40
0.0911834711
100
AcDbArc
 50
244.9662205126
 51
250.0337794892
  0
ARC
  5
2CC
100
AcDbEntity
  8
0
100
AcDbCircle
 62
9
  6
CONTINUOUS
 10
15.032136651
 20
8.0445913773
 40
0.0911815454
100
AcDbArc
 50
199.9661669654
 51
205.0338330362
  0
ARC
  5
2CD
100
AcDbEntity
  8
0
100
AcDbCircle
 62
9
  6
CONTINUOUS
 10
15.2518020063
 20
7.8913323592
 40
0.0911815454
100
AcDbArc
 50
334.9661669643
 51
340.0338330361
  0
ARC
  5
2CE
100
AcDbEntity
  8
0
100
AcDbCircle
 62
9
  6
CONTINUOUS
 10
14.988104653
 20
7.9382887305
 40
0.0911815454
100
AcDbArc
 50
109.9661669656
 51
115.0338330361
  0
ARC
  5
2CF
100
AcDbEntity
  8
0
100
AcDbCircle
 62
9
  6
CONTINUOUS
 10
15.0790930224
 20
7.7186233753
 40
0.0911815454
100
AcDbArc
 50
289.9661669656
 51
295.0338330361
  0
ARC
  5
2D0
100
AcDbEntity
  8
0
100
AcDbCircle
 62
9
  6
CONTINUOUS
 10
15.2518020063
 20
8.1355797466
 40
0.0911815454
100
AcDbArc
 50
19.9661669656
 51
25.033833036
  0
ARC
  5
2D1
100
AcDbEntity
  8
0
100
AcDbCircle
 62
9
  6
CONTINUOUS
 10
15.0321363904
 20
7.9823208365
 40
0.0911812635
100
AcDbArc
 50
154.966159129
 51
160.0338408732
  0
ARC
  5
2D2
100
AcDbEntity
  8
0
100
AcDbCircle
 62
7
  6
CONTINUOUS
 10
15.1102283467
 20
7.6434560529
 40
0.03
100
AcDbArc
 50
270.0000000191
 51
315.0
  0
ARC
  5
2D3
100
AcDbEntity
  8
0
100
AcDbCircle
 62
7
  6
CONTINUOUS
 10
15.3269693287
 20
8.166715071
 40
0.03
100
AcDbArc
 50
0.0000000193
 51
45.0
  0
ARC
  5
2D4
100
AcDbEntity
  8
0
100
AcDbCircle
 62
7
  6
CONTINUOUS
 10
15.3269693287
 20
7.8601970348
 40
0.03
100
AcDbArc
 50
315.0000000008
 51
360.0
  0
ARC
  5
2D5
100
AcDbEntity
  8
0
100
AcDbCircle
 62
7
  6
CONTINUOUS
 10
14.964564487
 20
9.7084848965
 40
1.0
100
AcDbArc
 50
55.0819064989
 51
90.0
  0
ARC
  5
2D6
100
AcDbEntity
  8
0
100
AcDbCircle
 62
7
  6
CONTINUOUS
 10
16.2075452112
 20
9.6625810757
 40
0.938
100
AcDbArc
 50
135.6349766689
 51
166.3245818389
  0
ARC
  5
2D7
100
AcDbEntity
  8
0
100
AcDbCircle
 62
9
  6
CONTINUOUS
 10
15.0790930224
 20
8.3082887305
 40
0.0911815454
100
AcDbArc
 50
64.9661669657
 51
70.0338330361
  0
ARC
  5
2D8
100
AcDbEntity
  8
0
100
AcDbCircle
 62
7
  6
CONTINUOUS
 10
15.1102283467
 20
8.3834560529
 40
0.03
100
AcDbArc
 50
45.0000000194
 51
90.0
  0
ARC
  5
2D9
100
AcDbEntity
  8
0
100
AcDbCircle
 62
7
  6
CONTINUOUS
 10
14.2180258588
 20
12.5181802947
 40
2.75
100
AcDbArc
 50
250.3809604242
 51
270.8114085621
  0
ARC
  5
2DA
100
AcDbEntity
  8
0
100
AcDbCircle
 62
7
  6
CONTINUOUS
 10
14.6634693287
 20
9.8954560529
 40
0.047
100
AcDbArc
 50
193.6754181615
 51
270.0
  0
ARC
  5
2DB
100
AcDbEntity
  8
0
100
AcDbCircle
 62
7
  6
CONTINUOUS
 10
15.2504693287
 20
9.8954560529
 40
0.047
100
AcDbArc
 50
270.0
 51
346.3245818385
  0
ARC
  5
2DC
100
AcDbEntity
  8
0
100
AcDbCircle
 62
9
  6
CONTINUOUS
 10
27.8960657981
 20
7.7422559325
 40
21.7515490584
100
AcDbArc
 50
172.7558724571
 51
173.0173784439
  0
ARC
  5
2DD
100
AcDbEntity
  8
0
100
AcDbCircle
 62
7
  6
CONTINUOUS
 10
28.6467934007
 20
10.2827230823
 40
13.0
100
AcDbArc
 50
182.2671554514
 51
200.2712180642
  0
ARC
  5
2DE
100
AcDbEntity
  8
0
100
AcDbCircle
 62
7
  6
CONTINUOUS
 10
180.75333508
 20
479.7111275474
 40
498.7371564417
100
AcDbArc
 50
249.6906436929
 51
250.3809140679
  0
SPLINE
  5
2DF
100
AcDbEntity
  8
0
100
AcDbSpline
 62
7
  6
CONTINUOUS
 70
0
 71
3
 72
17
 73
13
 74
0
 42
0.0000001
 43
0.0000001
 44
0.0000000001
 40
0.0
 40
0.0
 40
0.0
 40
0.0
 40
0.1249770448
 40
0.2499919497
 40
0.3125004005
 40
0.3750034957
 40
0.4999932429
 40
0.624985609
 40
0.7499782347
 40
0.8124967277
 40
0.8750250093
 40
1.0
 40
1.0
 40
1.0
 40
1.0
 10
13.7872576833
 20
6.0452241797
 30
0.0
 10
13.8182474818
 20
6.0713926578
 30
0.0
 10
13.8783722242
 20
6.1259917979
 30
0.0
 10
13.9482611495
 20
6.1996261989
 30
0.0
 10
14.0006536991
 20
6.2616138096
 30
0.0
 10
14.0505875746
 20
6.3255867498
 30
0.0
 10
14.1081945812
 20
6.4091968176
 30
0.0
 10
14.1689116089
 20
6.5148173542
 30
0.0
 10
14.2119477258
 20
6.606802937
 30
0.0
 10
14.2415257348
 20
6.6823942374
 30
0.0
 10
14.2677699431
 20
6.7591950442
 30
0.0
 10
14.2836385117
 20
6.8180517674
 30
0.0
 10
14.2924276447
 20
6.8576479027
 30
0.0
  0
SPLINE
  5
2E0
100
AcDbEntity
  8
0
100
AcDbSpline
 62
7
  6
CONTINUOUS
 70
0
 71
3
 72
17
 73
13
 74
0
 42
0.0000001
 43
0.0000001
 44
0.0000000001
 40
0.0
 40
0.0
 40
0.0
 40
0.0
 40
0.1249770448
 40
0.2499919497
 40
0.3125004005
 40
0.3750034957
 40
0.4999932429
 40
0.624985609
 40
0.7499782347
 40
0.8124967277
 40
0.8750250093
 40
1.0
 40
1.0
 40
1.0
 40
1.0
 10
16.126680974
 20
6.0452241797
 30
0.0
 10
16.0956911755
 20
6.0713926578
 30
0.0
 10
16.0355664331
 20
6.1259917979
 30
0.0
 10
15.9656775078
 20
6.1996261989
 30
0.0
 10
15.9132849583
 20
6.2616138096
 30
0.0
 10
15.8633510827
 20
6.3255867498
 30
0.0
 10
15.8057440761
 20
6.4091968176
 30
0.0
 10
15.7450270485
 20
6.5148173542
 30
0.0
 10
15.7019909315
 20
6.606802937
 30
0.0
 10
15.6724129225
 20
6.6823942374
 30
0.0
 10
15.6461687143
 20
6.7591950442
 30
0.0
 10
15.6303001456
 20
6.8180517674
 30
0.0
 10
15.6215110127
 20
6.8576479027
 30
0.0
  0
SPLINE
  5
2E1
100
AcDbEntity
  8
0
100
AcDbSpline
 62
7
  6
CONTINUOUS
 70
0
 71
3
 72
15
 73
11
 74
0
 42
0.0000001
 43
0.0000001
 44
0.0000000001
 40
0.0
 40
0.0
 40
0.0
 40
0.0
 40
0.1090055948
 40
0.2230766546
 40
0.3420585014
 40
0.4657745527
 40
0.5939097236
 40
0.7260378073
 40
0.861643226
 40
1.0
 40
1.0
 40
1.0
 40
1.0
 10
15.5418251514
 20
6.0452241797
 30
0.0
 10
15.5259618911
 20
6.0720147622
 30
0.0
 10
15.4952868253
 20
6.1279168071
 30
0.0
 10
15.4534898156
 20
6.2162834214
 30
0.0
 10
15.4152074784
 20
6.310779106
 30
0.0
 10
15.3807903958
 20
6.4110030164
 30
0.0
 10
15.3505693883
 20
6.5164805788
 30
0.0
 10
15.3248785833
 20
6.6266409967
 30
0.0
 10
15.3040244693
 20
6.7407835929
 30
0.0
 10
15.293599334
 20
6.818370759
 30
0.0
 10
15.2892401707
 20
6.8576479027
 30
0.0
  0
SPLINE
  5
2E2
100
AcDbEntity
  8
0
100
AcDbSpline
 62
7
  6
CONTINUOUS
 70
0
 71
3
 72
15
 73
11
 74
0
 42
0.0000001
 43
0.0000001
 44
0.0000000001
 40
0.0
 40
0.0
 40
0.0
 40
0.0
 40
0.1090055958
 40
0.2230766555
 40
0.3420585005
 40
0.4657745514
 40
0.5939097228
 40
0.7260378066
 40
0.8616432258
 40
1.0
 40
1.0
 40
1.0
 40
1.0
 10
14.372113506
 20
6.0452241797
 30
0.0
 10
14.3879767663
 20
6.0720147625
 30
0.0
 10
14.4186518339
 20
6.1279168066
 30
0.0
 10
14.4604488437
 20
6.2162834207
 30
0.0
 10
14.4987311754
 20
6.3107791067
 30
0.0
 10
14.5331482569
 20
6.4110030168
 30
0.0
 10
14.5633692665
 20
6.5164805785
 30
0.0
 10
14.5890600712
 20
6.6266409968
 30
0.0
 10
14.6099141865
 20
6.7407835929
 30
0.0
 10
14.6203393234
 20
6.8183707589
 30
0.0
 10
14.6246984867
 20
6.8576479027
 30
0.0
  0
SPLINE
  5
2E3
100
AcDbEntity
  8
0
100
AcDbSpline
 62
7
  6
CONTINUOUS
 70
0
 71
3
 72
8
 73
4
 74
0
 42
0.0000001
 43
0.0000001
 44
0.0000000001
 40
0.0
 40
0.0
 40
0.0
 40
0.0
 40
1.0
 40
1.0
 40
1.0
 40
1.0
 10
12.6625374781
 20
8.2782592144
 30
0.0
 10
13.3249777516
 20
7.9699578465
 30
0.0
 10
13.8792849061
 20
7.0497506774
 30
0.0
 10
13.66226135
 20
6.3633995397
 30
0.0
  0
SPLINE
  5
2E4
100
AcDbEntity
  8
0
100
AcDbSpline
 62
7
  6
CONTINUOUS
 70
0
 71
3
 72
23
 73
19
 74
0
 42
0.0000001
 43
0.0000001
 44
0.0000000001
 40
0.0
 40
0.0
 40
0.0
 40
0.0
 40
0.0625018746
 40
0.1250081971
 40
0.1875105346
 40
0.2500003164
 40
0.3124922374
 40
0.3749981149
 40
0.4375049562
 40
0.5
 40
0.5624950438
 40
0.6250018851
 40
0.6875077626
 40
0.7499996836
 40
0.8124894654
 40
0.8749918029
 40
0.9374981254
 40
1.0
 40
1.0
 40
1.0
 40
1.0
 10
5.0446006923
 20
11.0568907867
 30
0.0
 10
5.054096081
 20
11.1107418121
 30
0.0
 10
5.0790947155
 20
11.2174825588
 30
0.0
 10
5.133780014
 20
11.3724740059
 30
0.0
 10
5.2049146608
 20
11.5206483751
 30
0.0
 10
5.2917589529
 20
11.6601903979
 30
0.0
 10
5.3935401291
 20
11.7892482114
 30
0.0
 10
5.5087674821
 20
11.9064608718
 30
0.0
 10
5.6359998286
 20
12.0105234667
 30
0.0
 10
5.7738083447
 20
12.1001159562
 30
0.0
 10
5.9207024098
 20
12.1738732265
 30
0.0
 10
6.0747512333
 20
12.2311973369
 30
0.0
 10
6.2340941244
 20
12.271520949
 30
0.0
 10
6.3968772146
 20
12.2942584202
 30
0.0
 10
6.5611732696
 20
12.2988096305
 30
0.0
 10
6.7249935636
 20
12.2854420235
 30
0.0
 10
6.886397647
 20
12.2544331145
 30
0.0
 10
6.9911643377
 20
12.2221459769
 30
0.0
 10
7.0424466455
 20
12.203166508
 30
0.0
  0
SPLINE
  5
2E5
100
AcDbEntity
  8
0
100
AcDbSpline
 62
9
  6
CONTINUOUS
 70
0
 71
3
 72
14
 73
10
 74
0
 42
0.0000001
 43
0.0000001
 44
0.0000000001
 40
0.0
 40
0.0
 40
0.0
 40
0.0
 40
0.1181296221
 40
0.239720624
 40
0.3642220735
 40
0.4910303799
 40
0.619374559
 40
0.7479471871
 40
1.0
 40
1.0
 40
1.0
 40
1.0
 10
6.9604652001
 20
10.8886081263
 30
0.0
 10
6.9654928798
 20
10.9143420327
 30
0.0
 10
6.9746357605
 20
10.9667741678
 30
0.0
 10
6.9859336112
 20
11.0468350663
 30
0.0
 10
6.9953620564
 20
11.1290743298
 30
0.0
 10
7.0032468309
 20
11.2129780257
 30
0.0
 10
7.0099064791
 20
11.2978934024
 30
0.0
 10
7.01712569
 20
11.4106374945
 30
0.0
 10
7.020825216
 20
11.495055048
 30
0.0
 10
7.0224971275
 20
11.5509765343
 30
0.0
  0
SPLINE
  5
2E6
100
AcDbEntity
  8
0
100
AcDbSpline
 62
9
  6
CONTINUOUS
 70
0
 71
3
 72
12
 73
8
 74
0
 42
0.0000001
 43
0.0000001
 44
0.0000000001
 40
0.0
 40
0.0
 40
0.0
 40
0.0
 40
0.253492469
 40
0.5071781629
 40
0.7572492011
 40
0.8797616058
 40
1.0
 40
1.0
 40
1.0
 40
1.0
 10
7.0224971295
 20
11.5509765396
 30
0.0
 10
7.0238497256
 20
11.604894908
 30
0.0
 10
7.026932466
 20
11.7127665831
 30
0.0
 10
7.0352181809
 20
11.8736956139
 30
0.0
 10
7.0473566498
 20
12.0064486572
 30
0.0
 10
7.0610765316
 20
12.1104165617
 30
0.0
 10
7.0693998145
 20
12.1614028803
 30
0.0
 10
7.0739691533
 20
12.1865745109
 30
0.0
  0
SPLINE
  5
2E7
100
AcDbEntity
  8
0
100
AcDbSpline
 62
7
  6
CONTINUOUS
 70
0
 71
3
 72
11
 73
7
 74
0
 42
0.0000001
 43
0.0000001
 44
0.0000000001
 40
0.0
 40
0.0
 40
0.0
 40
0.0
 40
0.2546822889
 40
0.5063957515
 40
0.7548805866
 40
1.0
 40
1.0
 40
1.0
 40
1.0
 10
16.2516773073
 20
6.3633995397
 30
0.0
 10
16.2430337877
 20
6.3360638456
 30
0.0
 10
16.2247324879
 20
6.2820535115
 30
0.0
 10
16.1935567662
 20
6.2029586982
 30
0.0
 10
16.1582922048
 20
6.1267727151
 30
0.0
 10
16.1314537857
 20
6.0780418493
 30
0.0
 10
16.1171146711
 20
6.0544669978
 30
0.0
  0
LINE
  5
2E8
100
AcDbEntity
  8
0
100
AcDbLine
 62
9
  6
CONTINUOUS
 10
14.5673129881
 20
7.5746433822
 11
14.561993848
 21
7.6811549952
  0
SPLINE
  5
2E9
100
AcDbEntity
  8
0
100
AcDbSpline
 62
9
  6
CONTINUOUS
 70
0
 71
3
 72
11
 73
7
 74
0
 42
0.0000001
 43
0.0000001
 44
0.0000000001
 40
0.0
 40
0.0
 40
0.0
 40
0.0
 40
0.2480029778
 40
0.4981671073
 40
0.7493185292
 40
1.0
 40
1.0
 40
1.0
 40
1.0
 10
14.3631175323
 20
7.937986146
 30
0.0
 10
14.3551318518
 20
8.0893519645
 30
0.0
 10
14.3391949823
 20
8.3934080354
 30
0.0
 10
14.3142221265
 20
8.8507019603
 30
0.0
 10
14.2868638355
 20
9.309500154
 30
0.0
 10
14.2671603897
 20
9.615581856
 30
0.0
 10
14.256969414
 20
9.7684559401
 30
0.0
  0
SPLINE
  5
2EA
100
AcDbEntity
  8
0
100
AcDbSpline
 62
9
  6
CONTINUOUS
 70
0
 71
3
 72
9
 73
5
 74
0
 42
0.0000001
 43
0.0000001
 44
0.0000000001
 40
0.0
 40
0.0
 40
0.0
 40
0.0
 40
0.5006978939
 40
1.0
 40
1.0
 40
1.0
 40
1.0
 10
13.968542466
 20
8.433644962
 30
0.0
 10
13.9629750175
 20
8.6590392822
 30
0.0
 10
13.9519250267
 20
9.1092068687
 30
0.0
 10
13.9349052251
 20
9.5591987734
 30
0.0
 10
13.9251424508
 20
9.7838212639
 30
0.0
  0
SPLINE
  5
2EB
100
AcDbEntity
  8
0
100
AcDbSpline
 62
9
  6
CONTINUOUS
 70
0
 71
3
 72
10
 73
6
 74
0
 42
0.0000001
 43
0.0000001
 44
0.0000000001
 40
0.0
 40
0.0
 40
0.0
 40
0.0
 40
0.2486596612
 40
0.4992823073
 40
1.0
 40
1.0
 40
1.0
 40
1.0
 10
7.1200881967
 20
10.8332741002
 30
0.0
 10
7.1382449765
 20
10.8830084413
 30
0.0
 10
7.1737093689
 20
10.9832331346
 30
0.0
 10
7.2419343109
 20
11.1849319163
 30
0.0
 10
7.2912971061
 20
11.3371069469
 30
0.0
 10
7.3239790382
 20
11.4385877302
 30
0.0
  0
SPLINE
  5
2EC
100
AcDbEntity
  8
0
100
AcDbSpline
 62
7
  6
CONTINUOUS
 70
0
 71
3
 72
17
 73
13
 74
0
 42
0.0000001
 43
0.0000001
 44
0.0000000001
 40
0.0
 40
0.0
 40
0.0
 40
0.0
 40
0.0590612255
 40
0.1183573375
 40
0.1779776191
 40
0.2379975428
 40
0.3593629775
 40
0.4829939485
 40
0.6090324358
 40
0.7373992918
 40
0.8678501214
 40
1.0
 40
1.0
 40
1.0
 40
1.0
 10
6.3228237487
 20
10.5154981272
 30
0.0
 10
6.3257150568
 20
10.5314828836
 30
0.0
 10
6.333344174
 20
10.5632132835
 30
0.0
 10
6.3500386702
 20
10.6093285646
 30
0.0
 10
6.3717969009
 20
10.6535860657
 30
0.0
 10
6.4073812316
 20
10.7096436621
 30
0.0
 10
6.4637268785
 20
10.7727193225
 30
0.0
 10
6.5464463486
 20
10.8336696253
 30
0.0
 10
6.6415345963
 20
10.87741036
 30
0.0
 10
6.7450728485
 20
10.9024223387
 30
0.0
 10
6.8531127041
 20
10.9072128087
 30
0.0
 10
6.9251027581
 20
10.8970079099
 30
0.0
 10
6.9604652001
 20
10.8886081263
 30
0.0
  0
SPLINE
  5
2ED
100
AcDbEntity
  8
0
100
AcDbSpline
 62
7
  6
CONTINUOUS
 70
0
 71
3
 72
23
 73
19
 74
0
 42
0.0000001
 43
0.0000001
 44
0.0000000001
 40
0.0
 40
0.0
 40
0.0
 40
0.0
 40
0.0634763453
 40
0.126833728
 40
0.1900492377
 40
0.2531042274
 40
0.3160048671
 40
0.3787599002
 40
0.4413605075
 40
0.5038018016
 40
0.5661045893
 40
0.6282946114
 40
0.6903789394
 40
0.7523667736
 40
0.8142917786
 40
0.8761928477
 40
0.9380890931
 40
1.0
 40
1.0
 40
1.0
 40
1.0
 10
5.7410491823
 20
10.7806350753
 30
0.0
 10
5.747801362
 20
10.8158075593
 30
0.0
 10
5.7649876814
 20
10.8854331333
 30
0.0
 10
5.8013602923
 20
10.9864980184
 30
0.0
 10
5.8478560393
 20
11.0830739829
 30
0.0
 10
5.9040241526
 20
11.1740674956
 30
0.0
 10
5.9693966284
 20
11.2583648967
 30
0.0
 10
6.0430823419
 20
11.3351384167
 30
0.0
 10
6.1242173645
 20
11.403593033
 30
0.0
 10
6.2119450874
 20
11.462925921
 30
0.0
 10
6.3053752399
 20
11.5123077495
 30
0.0
 10
6.403351091
 20
11.5513549103
 30
0.0
 10
6.5047561318
 20
11.5797036788
 30
0.0
 10
6.6084785454
 20
11.5969802983
 30
0.0
 10
6.7133648688
 20
11.6028014039
 30
0.0
 10
6.8182127896
 20
11.5972920174
 30
0.0
 10
6.9218472111
 20
11.5805849847
 30
0.0
 10
6.9893684191
 20
11.5620537691
 30
0.0
 10
7.0224971391
 20
11.5509769217
 30
0.0
  0
SPLINE
  5
2EE
100
AcDbEntity
  8
0
100
AcDbSpline
 62
9
  6
CONTINUOUS
 70
0
 71
3
 72
15
 73
11
 74
0
 42
0.0000001
 43
0.0000001
 44
0.0000000001
 40
0.0
 40
0.0
 40
0.0
 40
0.0
 40
0.0414202363
 40
0.0867756023
 40
0.1883664402
 40
0.3029035647
 40
0.4284921569
 40
0.7047767373
 40
0.851113629
 40
1.0
 40
1.0
 40
1.0
 40
1.0
 10
6.3228237487
 20
10.5154981272
 30
0.0
 10
6.3151429134
 20
10.5198598559
 30
0.0
 10
6.2989543936
 20
10.5288270636
 30
0.0
 10
6.2635063966
 20
10.54772426
 30
0.0
 10
6.2137789194
 20
10.572965227
 30
0.0
 10
6.1482074768
 20
10.6047616153
 30
0.0
 10
6.0484493798
 20
10.651410921
 30
0.0
 10
5.9416764473
 20
10.6990627039
 30
0.0
 10
5.8292365453
 20
10.7460931341
 30
0.0
 10
5.7706985619
 20
10.769278002
 30
0.0
 10
5.7410491823
 20
10.7806350753
 30
0.0
  0
SPLINE
  5
2EF
100
AcDbEntity
  8
0
100
AcDbSpline
 62
7
  6
CONTINUOUS
 70
0
 71
3
 72
25
 73
21
 74
0
 42
0.0000001
 43
0.0000001
 44
0.0000000001
 40
0.0
 40
0.0
 40
0.0
 40
0.0
 40
0.0638686913
 40
0.1276358562
 40
0.1912601859
 40
0.254705203
 40
0.3179611694
 40
0.3810218469
 40
0.443862873
 40
0.4752052607
 40
0.5064873425
 40
0.56885821
 40
0.6310146506
 40
0.6620231837
 40
0.6929768889
 40
0.7546998266
 40
0.8162342669
 40
0.8776173629
 40
0.9388664251
 40
1.0
 40
1.0
 40
1.0
 40
1.0
 10
5.1575421526
 20
11.0331901141
 30
0.0
 10
5.1676470277
 20
11.0862576166
 30
0.0
 10
5.1934271348
 20
11.1913286604
 30
0.0
 10
5.2480985823
 20
11.3438708883
 30
0.0
 10
5.3180595864
 20
11.489657799
 30
0.0
 10
5.4026180601
 20
11.6269934856
 30
0.0
 10
5.5010582514
 20
11.754151241
 30
0.0
 10
5.6119808514
 20
11.8698484652
 30
0.0
 10
5.7138298593
 20
11.9558016165
 30
0.0
 10
5.8001856445
 20
12.0175559145
 30
0.0
 10
5.8894124864
 20
12.0743502172
 30
0.0
 10
6.0062495307
 20
12.1359084942
 30
0.0
 10
6.1288209408
 20
12.1844260114
 30
0.0
 10
6.2292811832
 20
12.2150580643
 30
0.0
 10
6.3308938656
 20
12.2401201427
 30
0.0
 10
6.4599442301
 20
12.2609619213
 30
0.0
 10
6.6162435878
 20
12.2685709931
 30
0.0
 10
6.7720382152
 20
12.2590101109
 30
0.0
 10
6.925498695
 20
12.2325308411
 30
0.0
 10
7.0251836678
 20
12.2037108062
 30
0.0
 10
7.0739691561
 20
12.1865745261
 30
0.0
  0
SPLINE
  5
2F0
100
AcDbEntity
  8
0
100
AcDbSpline
 62
9
  6
CONTINUOUS
 70
0
 71
3
 72
15
 73
11
 74
0
 42
0.0000001
 43
0.0000001
 44
0.0000000001
 40
0.0
 40
0.0
 40
0.0
 40
0.0
 40
0.2939821872
 40
0.4353395561
 40
0.5698656483
 40
0.6953604636
 40
0.8100098317
 40
0.912110997
 40
0.9579343648
 40
1.0
 40
1.0
 40
1.0
 40
1.0
 10
5.7410491823
 20
10.7806350753
 30
0.0
 10
5.6828704395
 20
10.8030460129
 30
0.0
 10
5.5968861813
 20
10.8366794797
 30
0.0
 10
5.4849166742
 20
10.8821639728
 30
0.0
 10
5.4064126607
 20
10.9150765506
 30
0.0
 10
5.3335860823
 20
10.9468634634
 30
0.0
 10
5.2675934264
 20
10.9770895361
 30
0.0
 10
5.2175042497
 20
11.0014374346
 30
0.0
 10
5.1817142105
 20
11.0199485489
 30
0.0
 10
5.1653288204
 20
11.0288366744
 30
0.0
 10
5.1575421526
 20
11.0331901141
 30
0.0
  0
SPLINE
  5
2F1
100
AcDbEntity
  8
0
100
AcDbSpline
 62
7
  6
CONTINUOUS
 70
0
 71
3
 72
11
 73
7
 74
0
 42
0.0000001
 43
0.0000001
 44
0.0000000001
 40
0.0
 40
0.0
 40
0.0
 40
0.0
 40
0.2451198789
 40
0.4936049351
 40
0.7453183352
 40
1.0
 40
1.0
 40
1.0
 40
1.0
 10
13.7968220187
 20
6.0544700028
 30
0.0
 10
13.782483163
 20
6.078044731
 30
0.0
 10
13.7556451003
 20
6.1267752069
 30
0.0
 10
13.7203812083
 20
6.2029605938
 30
0.0
 10
13.6892056935
 20
6.2820544617
 30
0.0
 10
13.6709047569
 20
6.3360642021
 30
0.0
 10
13.66226135
 20
6.3633995397
 30
0.0
  0
SPLINE
  5
2F2
100
AcDbEntity
  8
0
100
AcDbSpline
 62
7
  6
CONTINUOUS
 70
0
 71
3
 72
11
 73
7
 74
0
 42
0.0000001
 43
0.0000001
 44
0.0000000001
 40
0.0
 40
0.0
 40
0.0
 40
0.0
 40
0.2463324253
 40
0.4946671557
 40
0.745673582
 40
1.0
 40
1.0
 40
1.0
 40
1.0
 10
13.9685424714
 20
8.4336449564
 30
0.0
 10
14.0050772511
 20
8.3964933725
 30
0.0
 10
14.0764689515
 20
8.319917733
 30
0.0
 10
14.1778749307
 20
8.1990163823
 30
0.0
 10
14.273945738
 20
8.0717107222
 30
0.0
 10
14.3339963773
 20
7.9832195682
 30
0.0
 10
14.3631175427
 20
7.9379861299
 30
0.0
  0
SPLINE
  5
2F3
100
AcDbEntity
  8
0
100
AcDbSpline
 62
7
  6
CONTINUOUS
 70
0
 71
3
 72
15
 73
11
 74
0
 42
0.0000001
 43
0.0000001
 44
0.0000000001
 40
0.0
 40
0.0
 40
0.0
 40
0.0
 40
0.1283784566
 40
0.2551714648
 40
0.3806795902
 40
0.5052127021
 40
0.6290879868
 40
0.7526276975
 40
0.876156714
 40
1.0
 40
1.0
 40
1.0
 40
1.0
 10
12.9762025503
 20
9.0968375966
 30
0.0
 10
13.0237059688
 20
9.0771561171
 30
0.0
 10
13.1172319751
 20
9.035831908
 30
0.0
 10
13.2536206587
 20
8.9675404868
 30
0.0
 10
13.3851436903
 20
8.8933690083
 30
0.0
 10
13.5117942423
 20
8.8133190138
 30
0.0
 10
13.6335701766
 20
8.7273908378
 30
0.0
 10
13.750469325
 20
8.6355847685
 30
0.0
 10
13.8624856651
 20
8.5379060411
 30
0.0
 10
13.933762847
 20
8.4690117535
 30
0.0
 10
13.9685424714
 20
8.4336449564
 30
0.0
  0
LINE
  5
2F4
100
AcDbEntity
  8
0
100
AcDbLine
 62
7
  6
CONTINUOUS
 10
5.689348761
 20
10.4952596811
 11
5.7285947687
 21
10.7136482675
  0
SPLINE
  5
2F5
100
AcDbEntity
  8
0
100
AcDbSpline
 62
9
  6
CONTINUOUS
 70
0
 71
3
 72
14
 73
10
 74
0
 42
0.0000001
 43
0.0000001
 44
0.0000000001
 40
0.0
 40
0.0
 40
0.0
 40
0.0
 40
0.0862538507
 40
0.1874504489
 40
0.3017292319
 40
0.4272160339
 40
0.7038258604
 40
0.8505700466
 40
1.0
 40
1.0
 40
1.0
 40
1.0
 10
6.3181402414
 20
10.485067412
 30
0.0
 10
6.301683322
 20
10.4928074991
 30
0.0
 10
6.2656372965
 20
10.5090300858
 30
0.0
 10
6.2071197038
 20
10.5339947146
 30
0.0
 10
6.14059512
 20
10.5612531701
 30
0.0
 10
6.0393981839
 20
10.6014180052
 30
0.0
 10
5.9312420905
 20
10.6426014878
 30
0.0
 10
5.8175915524
 20
10.6834602838
 30
0.0
 10
5.7585112948
 20
10.7036985569
 30
0.0
 10
5.728614752
 20
10.7136416215
 30
0.0
  0
LINE
  5
2F6
100
AcDbEntity
  8
0
100
AcDbLine
 62
7
  6
CONTINUOUS
 10
5.1383852144
 20
10.9322446356
 11
5.1575466516
 21
11.0331875988
  0
SPLINE
  5
2F7
100
AcDbEntity
  8
0
100
AcDbSpline
 62
9
  6
CONTINUOUS
 70
0
 71
3
 72
15
 73
11
 74
0
 42
0.0000001
 43
0.0000001
 44
0.0000000001
 40
0.0
 40
0.0
 40
0.0
 40
0.0
 40
0.2946734517
 40
0.4362882524
 40
0.5709674084
 40
0.6964748371
 40
0.8109683294
 40
0.9127134412
 40
0.9582698806
 40
1.0
 40
1.0
 40
1.0
 40
1.0
 10
5.7286147519
 20
10.7136416215
 30
0.0
 10
5.6699588372
 20
10.7332538658
 30
0.0
 10
5.5832310198
 20
10.762647091
 30
0.0
 10
5.470131853
 20
10.8022703035
 30
0.0
 10
5.3907877213
 20
10.8308485535
 30
0.0
 10
5.3171079972
 20
10.8583425346
 30
0.0
 10
5.2502649402
 20
10.8843662688
 30
0.0
 10
5.1994255448
 20
10.9052253692
 30
0.0
 10
5.1630224271
 20
10.9210056421
 30
0.0
 10
5.1463285266
 20
10.9285546024
 30
0.0
 10
5.1383852144
 20
10.9322446356
 30
0.0
  0
SPLINE
  5
2F8
100
AcDbEntity
  8
0
100
AcDbSpline
 62
9
  6
CONTINUOUS
 70
0
 71
3
 72
9
 73
5
 74
0
 42
0.0000001
 43
0.0000001
 44
0.0000000001
 40
0.0
 40
0.0
 40
0.0
 40
0.0
 40
0.5001183926
 40
1.0
 40
1.0
 40
1.0
 40
1.0
 10
7.3239793547
 20
11.4385886296
 30
0.0
 10
7.3554694668
 20
11.536948321
 30
0.0
 10
7.4185465946
 20
11.7335863437
 30
0.0
 10
7.4854713264
 20
11.9289798931
 30
0.0
 10
7.5205403526
 20
12.0260691396
 30
0.0
  0
ELLIPSE
  5
2F9
100
AcDbEntity
  8
0
100
AcDbEllipse
 62
7
  6
CONTINUOUS
 10
14.9569693287
 20
7.0329548233
 30
0.0
 11
1.1492470711
 21
1.1162095399
 31
0.0
 40
0.2678505055
 41
-3.3961017501
 42
-2.3489041989
  0
ELLIPSE
  5
2FA
100
AcDbEntity
  8
0
100
AcDbEllipse
 62
7
  6
CONTINUOUS
 10
14.9569693287
 20
7.0329548233
 30
0.0
 11
-1.1492470711
 21
1.1162095399
 31
0.0
 40
0.2678505055
 41
-3.9342811082
 42
-2.887083557
  0
ELLIPSE
  5
2FB
100
AcDbEntity
  8
0
100
AcDbEllipse
 62
7
  6
CONTINUOUS
 10
14.9569693287
 20
7.0329548233
 30
0.0
 11
1.1875
 21
-0.0
 31
0.0
 40
0.9750549296
 41
-2.0943951024
 42
-1.0471975512
  0
ENDSEC
  0
SECTION
  2
OBJECTS
  0
DICTIONARY
  5
C
100
AcDbDictionary
280
0
281
1
  3
ACAD_GROUP
350
D
  3
ACAD_MLINESTYLE
350
17
  3
ACAD_LAYOUT
350
1A
  3
ACAD_PLOTSETTINGS
350
19
  3
ACAD_PLOTSTYLENAME
350
E
  0
DICTIONARY
  5
D
102
{ACAD_REACTORS
330
C
102
}
100
AcDbDictionary
280
0
281
1
  0
ACDBDICTIONARYWDFLT
  5
E
102
{ACAD_REACTORS
330
C
102
}
100
AcDbDictionary
281
1
  3
Normal
350
F
100
AcDbDictionaryWithDefault
340
F
  0
DICTIONARY
  5
17
102
{ACAD_REACTORS
330
C
102
}
100
AcDbDictionary
280
0
281
1
  3
Standard
350
18
  0
DICTIONARY
  5
19
102
{ACAD_REACTORS
330
C
102
}
100
AcDbDictionary
281
1
  0
DICTIONARY
  5
1A
102
{ACAD_REACTORS
330
C
102
}
100
AcDbDictionary
281
1
  3
Model
350
2FC
  3
Layout1
350
2FD
  0
ACDBPLACEHOLDER
  5
F
102
{ACAD_REACTORS
330
E
102
}
  0
MLINESTYLE
  5
18
102
{ACAD_REACTORS
330
17
102
}
100
AcDbMlineStyle
  2
STANDARD
 70
0
  3

 62
256
 51
90.0
 52
90.0
 71
2
 49
0.5
 62
256
  6
BYLAYER
 49
-0.5
 62
256
  6
BYLAYER
  0
LAYOUT
  5
2FC
102
{ACAD_REACTORS
330
1A
102
}
100
AcDbPlotSettings
  1

  2
none_device
  4
ANSI_C_(22.00_x_17.00_Inches)
  6

 40
0.0
 41
0.0
 42
0.0
 43
0.0
 44
558.8
 45
431.8
 46
0.0
 47
0.0
 48
0.0
 49
0.0
140
0.0
141
0.0
142
1.0
143
1.0
 70
1024
 72
0
 73
0
 74
0
  7

 75
0
147
1.0
148
0.0
149
0.0
100
AcDbLayout
  1
Model
 70
0
 71
0
 10
0.0
 20
0.0
 11
22.0
 21
17.0
 12
0.0
 22
0.0
 32
0.0
 14
0.0
 24
0.0
 34
0.0
 15
0.0
 25
0.0
 35
0.0
146
0.0
 13
0.0
 23
0.0
 33
0.0
 16
1.0
 26
0.0
 36
0.0
 17
0.0
 27
1.0
 37
0.0
 76
0
330
202
345
0
346
0
  0
LAYOUT
  5
2FD
102
{ACAD_REACTORS
330
1A
102
}
100
AcDbPlotSettings
  1

  2
none_device
  4
ANSI_C_(22.00_x_17.00_Inches)
  6

 40
0.0
 41
0.0
 42
0.0
 43
0.0
 44
558.8
 45
431.8
 46
0.0
 47
0.0
 48
0.0
 49
0.0
140
0.0
141
0.0
142
1.0
143
1.0
 70
0
 72
0
 73
0
 74
0
  7

 75
0
147
1.0
148
0.0
149
0.0
100
AcDbLayout
  1
Layout1
 70
0
 71
1
 10
0.0
 20
0.0
 11
22.0
 21
17.0
 12
0.0
 22
0.0
 32
0.0
 14
0.0
 24
0.0
 34
0.0
 15
0.0
 25
0.0
 35
0.0
146
0.0
 13
0.0
 23
0.0
 33
0.0
 16
1.0
 26
0.0
 36
0.0
 17
0.0
 27
1.0
 37
0.0
 76
0
330
203
345
0
346
0
  0
ENDSEC
  0
EOF
