999
DXF file: E:\BT Custom\CADOUTPUT\_FRONT.dxf
999
Pro/ENGINEER 2018400 by Parametric Technology Corporation
  0
SECTION
  2
HEADER
  9
$ACADVER
  1
AC1018
  9
$DWGCODEPAGE
  3
ANSI_1252
  9
$EXTMAX
 10
22.0
 20
17.0
 30
0.0
  9
$EXTMIN
 10
0.0
 20
0.0
 30
0.0
  9
$LIMMIN
 10
0.0
 20
0.0
  9
$LIMMAX
 10
22.0
 20
17.0
  9
$VIEWCTR
 10
11.0
 20
8.5
  9
$VIEWSIZE
 40
17.0
  9
$CLAYER
  8
0
  9
$LTSCALE
 40
1.21
  9
$CELTYPE
  6
BYLAYER
  9
$DIMSCALE
 40
1.0
  9
$DIMASZ
 40
0.1
  9
$DIMEXO
 40
0.0625
  9
$DIMDLI
 40
0.836
  9
$DIMEXE
 40
0.125
  9
$DIMCEN
 40
0.198
  9
$DIMLFAC
 40
1.0
  9
$DIMBLK
  1
_FILLED
  9
$DIMALT
 70
1
  9
$DIMALTD
 70
2
  9
$DIMALTTD
 70
2
  9
$DIMALTF
 40
25.4
  9
$DIMTXT
 40
0.08
  9
$DIMTOL
 70
1
  9
$DIMLIM
 70
0
  9
$DIMTFAC
 40
1.0
  9
$DIMTP
 40
0.001
  9
$DIMTM
 40
0.001
  9
$DIMGAP
 40
0.09
  9
$DIMDSEP
 70
46
  9
$AUNITS
 70
0
  9
$PDMODE
 70
3
  9
$PDSIZE
 40
0.06
  9
$HANDSEED
  5
27C
  9
$TILEMODE
 70
1
  9
$MEASUREMENT
 70
0
  9
$INSUNITS
 70
1
  0
ENDSEC
  0
SECTION
  2
CLASSES
  0
CLASS
  1
ACDBDICTIONARYWDFLT
  2
AcDbDictionaryWithDefault
  3
AutoCAD 2000
 90
0
 91
1
280
0
281
0
  0
CLASS
  1
ACDBPLACEHOLDER
  2
AcDbPlaceHolder
  3
AutoCAD 2000
 90
0
 91
1
280
0
281
0
  0
CLASS
  1
LAYOUT
  2
AcDbLayout
  3
AutoCAD 2000
 90
0
 91
0
280
0
281
0
  0
ENDSEC
  0
SECTION
  2
TABLES
  0
TABLE
  2
VPORT
  5
8
100
AcDbSymbolTable
 70
2
  0
VPORT
  5
1F4
100
AcDbSymbolTableRecord
100
AcDbViewportTableRecord
  2
*ACTIVE
 70
0
 10
0.0
 20
0.0
 11
1.0
 21
1.0
 12
11.0
 22
8.5
 13
0.0
 23
0.0
 14
1.0
 24
1.0
 15
0.0
 25
0.0
 16
0.0
 26
0.0
 36
1.0
 17
0.0
 27
0.0
 37
0.0
 40
17.0
 41
1.2941176471
 42
50.0
 43
0.0
 44
0.0
 50
0.0
 51
0.0
 71
0
 72
100
 73
1
 74
1
 75
0
 76
0
 77
0
 78
0
  0
ENDTAB
  0
TABLE
  2
LTYPE
  5
5
100
AcDbSymbolTable
 70
6
  0
LTYPE
  5
14
100
AcDbSymbolTableRecord
100
AcDbLinetypeTableRecord
  2
BYBLOCK
 70
0
  3

 72
65
 73
0
 40
0.0
  0
LTYPE
  5
15
100
AcDbSymbolTableRecord
100
AcDbLinetypeTableRecord
  2
BYLAYER
 70
0
  3

 72
65
 73
0
 40
0.0
  0
LTYPE
  5
16
100
AcDbSymbolTableRecord
100
AcDbLinetypeTableRecord
  2
CONTINUOUS
 70
64
  3
Solid line
 72
65
 73
0
 40
0.0
  0
LTYPE
  5
1F5
100
AcDbSymbolTableRecord
100
AcDbLinetypeTableRecord
  2
CENTER
 70
64
  3
____ _ ____ _ ____ _ ____ _ ____ _ ____ _ ____
 72
65
 73
4
 40
0.6
 49
0.375
 74
0
 49
-0.075
 74
0
 49
0.075
 74
0
 49
-0.075
 74
0
  0
LTYPE
  5
1F6
100
AcDbSymbolTableRecord
100
AcDbLinetypeTableRecord
  2
HIDDEN
 70
64
  3
- - - - - - - - - - - - - - - - - - - -
 72
65
 73
2
 40
0.2
 49
0.1
 74
0
 49
-0.1
 74
0
  0
LTYPE
  5
1F7
100
AcDbSymbolTableRecord
100
AcDbLinetypeTableRecord
  2
PHANTOM
 70
64
  3
_____ _ _ _____ _ _ _____ _ _ _____
 72
65
 73
6
 40
0.8
 49
0.45
 74
0
 49
-0.05
 74
0
 49
0.1
 74
0
 49
-0.05
 74
0
 49
0.1
 74
0
 49
-0.05
 74
0
  0
LTYPE
  5
1F8
100
AcDbSymbolTableRecord
100
AcDbLinetypeTableRecord
  2
DOT
 70
64
  3
. . . . . . . . . . . . . . . . . . . .
 72
65
 73
2
 40
0.2
 49
0.1
 74
0
 49
-0.1
 74
0
  0
LTYPE
  5
1F9
100
AcDbSymbolTableRecord
100
AcDbLinetypeTableRecord
  2
DASHED
 70
64
  3
- - - - - - - - - - - - - - - - - - - -
 72
65
 73
2
 40
0.2
 49
0.1
 74
0
 49
-0.1
 74
0
  0
ENDTAB
  0
TABLE
  2
LAYER
  5
2
100
AcDbSymbolTable
 70
36
  0
LAYER
  5
10
100
AcDbSymbolTableRecord
100
AcDbLayerTableRecord
  2
0
 70
0
 62
7
  6
CONTINUOUS
370
-3
390
F
  0
LAYER
  5
1FA
100
AcDbSymbolTableRecord
100
AcDbLayerTableRecord
  2
DEFAULT_1
 70
0
 62
7
  6
CENTER
370
-3
390
F
  0
LAYER
  5
1FB
100
AcDbSymbolTableRecord
100
AcDbLayerTableRecord
  2
DEFAULT_2
 70
0
 62
8
  6
HIDDEN
370
-3
390
F
  0
LAYER
  5
1FC
100
AcDbSymbolTableRecord
100
AcDbLayerTableRecord
  2
DEFAULT_3
 70
0
 62
7
  6
PHANTOM
370
-3
390
F
  0
LAYER
  5
1FD
100
AcDbSymbolTableRecord
100
AcDbLayerTableRecord
  2
ALL_FEATURES
 70
0
 62
7
  6
CONTINUOUS
370
-3
390
F
  0
LAYER
  5
1FE
100
AcDbSymbolTableRecord
100
AcDbLayerTableRecord
  2
AXES_FEATURES
 70
0
 62
7
  6
CONTINUOUS
370
-3
390
F
  0
LAYER
  5
1FF
100
AcDbSymbolTableRecord
100
AcDbLayerTableRecord
  2
DIMENSIONS
 70
0
 62
7
  6
CONTINUOUS
370
-3
390
F
  0
ENDTAB
  0
TABLE
  2
STYLE
  5
3
100
AcDbSymbolTable
 70
1
  0
STYLE
  5
11
100
AcDbSymbolTableRecord
100
AcDbTextStyleTableRecord
  2
STANDARD
 70
0
 40
0.0
 41
0.8
 50
0.0
 71
0
 42
0.2
  3
txt
  4

  0
STYLE
  5
200
100
AcDbSymbolTableRecord
100
AcDbTextStyleTableRecord
  2
TEXTSTYLE_1
 70
0
 40
0.0
 41
0.8
 50
0.0
 71
0
 42
0.2
  3
gdt
  4

  0
ENDTAB
  0
TABLE
  2
VIEW
  5
6
100
AcDbSymbolTable
 70
0
  0
ENDTAB
  0
TABLE
  2
UCS
  5
7
100
AcDbSymbolTable
 70
0
  0
ENDTAB
  0
TABLE
  2
APPID
  5
9
100
AcDbSymbolTable
 70
1
  0
APPID
  5
201
100
AcDbSymbolTableRecord
100
AcDbRegAppTableRecord
  2
ACAD
 70
0
  0
ENDTAB
  0
TABLE
  2
BLOCK_RECORD
  5
1
100
AcDbSymbolTable
 70
0
  0
BLOCK_RECORD
  5
202
100
AcDbSymbolTableRecord
100
AcDbBlockTableRecord
  2
*Model_Space
  0
BLOCK_RECORD
  5
203
100
AcDbSymbolTableRecord
100
AcDbBlockTableRecord
  2
*Paper_Space
  0
BLOCK_RECORD
  5
204
100
AcDbSymbolTableRecord
100
AcDbBlockTableRecord
  2
_FILLED
  0
ENDTAB
  0
TABLE
  2
DIMSTYLE
  5
A
100
AcDbSymbolTable
 70
1
100
AcDbDimStyleTable
 71
0
  0
DIMSTYLE
105
205
100
AcDbSymbolTableRecord
100
AcDbDimStyleTableRecord
  2
STANDARD
 70
0
  3

  4

 40
1.0
 41
0.1
 42
0.0625
 43
0.38
 44
0.125
 45
0.0
 46
0.0
 47
0.001
 48
0.001
140
0.08
141
0.09
142
0.0
143
25.4
144
1.0
145
0.0
146
1.0
147
0.09
 71
1.0
 72
0.0
 73
1
 74
1
 75
0
 76
0
 77
0
 78
4
 79
1
170
1
171
2
172
0
173
0
174
0
175
0
176
0
177
0
178
0
270
2
179
3
271
3
272
3
273
2
274
2
275
0
280
0
281
0
282
0
283
1
284
4
285
0
286
0
287
3
288
0
340
11
278
46
341
204
342
204
343
204
344
204
  0
ENDTAB
  0
ENDSEC
  0
SECTION
  2
BLOCKS
  0
BLOCK
  5
20
100
AcDbEntity
  8
0
100
AcDbBlockBegin
  2
*Model_Space
 70
0
 10
0.0
 20
0.0
 30
0.0
  3
*Model_Space
  1

  0
ENDBLK
  5
21
100
AcDbEntity
  8
0
100
AcDbBlockEnd
  0
BLOCK
  5
1C
100
AcDbEntity
  8
0
100
AcDbBlockBegin
  2
*Paper_Space
 70
0
 10
0.0
 20
0.0
 30
0.0
  3
*Paper_Space
  1

  0
ENDBLK
  5
1D
100
AcDbEntity
  8
0
100
AcDbBlockEnd
  0
BLOCK
  5
206
100
AcDbEntity
  8
0
100
AcDbBlockBegin
  2
_FILLED
 70
64
 10
0.0
 20
0.0
  3
_FILLED
  1

  0
SOLID
  5
207
100
AcDbEntity
  8
0
  6
BYBLOCK
 62
0
100
AcDbTrace
 10
0.0
 20
0.0
 11
-1.0
 21
0.2
 12
-1.0
 22
-0.2
 13
-1.0
 23
-0.2
  0
ENDBLK
  5
208
100
AcDbEntity
  8
0
  6
BYBLOCK
 62
0
100
AcDbBlockEnd
  0
ENDSEC
  0
SECTION
  2
ENTITIES
  0
LINE
  5
209
100
AcDbEntity
  8
0
100
AcDbLine
 62
7
  6
CONTINUOUS
 10
5.7501923427
 20
4.7169195021
 11
5.7501923427
 21
4.3419195021
  0
LINE
  5
20A
100
AcDbEntity
  8
0
100
AcDbLine
 62
7
  6
CONTINUOUS
 10
5.7502069519
 20
4.3419195021
 11
8.1251777336
 21
4.3419195021
  0
LINE
  5
20B
100
AcDbEntity
  8
0
100
AcDbLine
 62
7
  6
CONTINUOUS
 10
9.750194642
 20
4.3419195021
 11
12.1251900434
 21
4.3419195021
  0
LINE
  5
20C
100
AcDbEntity
  8
0
100
AcDbLine
 62
7
  6
CONTINUOUS
 10
13.7502069519
 20
4.3419195021
 11
16.1251777336
 21
4.3419195021
  0
LINE
  5
20D
100
AcDbEntity
  8
0
100
AcDbLine
 62
7
  6
CONTINUOUS
 10
6.2814423427
 20
6.2849195021
 11
6.2814423427
 21
5.8449195021
  0
LINE
  5
20E
100
AcDbEntity
  8
0
100
AcDbLine
 62
7
  6
CONTINUOUS
 10
6.2814423427
 20
5.8249195021
 11
6.2814423427
 21
4.7169195021
  0
LINE
  5
20F
100
AcDbEntity
  8
0
100
AcDbLine
 62
7
  6
CONTINUOUS
 10
6.5626923427
 20
7.4449195021
 11
6.5626923427
 21
7.3674195021
  0
LINE
  5
210
100
AcDbEntity
  8
0
100
AcDbLine
 62
7
  6
CONTINUOUS
 10
6.5626923427
 20
6.9224195021
 11
6.5626923427
 21
6.8449195021
  0
LINE
  5
211
100
AcDbEntity
  8
0
100
AcDbLine
 62
7
  6
CONTINUOUS
 10
6.6876923427
 20
6.8449195021
 11
6.6876923427
 21
6.2849195021
  0
LINE
  5
212
100
AcDbEntity
  8
0
100
AcDbLine
 62
7
  6
CONTINUOUS
 10
16.1251812692
 20
4.7169195021
 11
13.7502034163
 21
4.7169195021
  0
LINE
  5
213
100
AcDbEntity
  8
0
100
AcDbLine
 62
7
  6
CONTINUOUS
 10
8.1251812692
 20
4.7169195021
 11
5.7502034163
 21
4.7169195021
  0
LINE
  5
214
100
AcDbEntity
  8
0
100
AcDbLine
 62
7
  6
CONTINUOUS
 10
6.7376923427
 20
5.8449195021
 11
6.7376923427
 21
5.8249195021
  0
LINE
  5
215
100
AcDbEntity
  8
0
100
AcDbLine
 62
7
  6
CONTINUOUS
 10
7.1376923427
 20
5.8449195021
 11
7.1376923427
 21
5.8249195021
  0
LINE
  5
216
100
AcDbEntity
  8
0
100
AcDbLine
 62
7
  6
CONTINUOUS
 10
12.1251900434
 20
5.4449195021
 11
9.750194642
 21
5.4449195021
  0
LINE
  5
217
100
AcDbEntity
  8
0
100
AcDbLine
 62
7
  6
CONTINUOUS
 10
7.1876923427
 20
6.8449195021
 11
7.1876923427
 21
6.2849195021
  0
LINE
  5
218
100
AcDbEntity
  8
0
100
AcDbLine
 62
7
  6
CONTINUOUS
 10
7.3126923427
 20
7.4449195021
 11
7.3126923427
 21
7.3674195021
  0
LINE
  5
219
100
AcDbEntity
  8
0
100
AcDbLine
 62
7
  6
CONTINUOUS
 10
7.3126923427
 20
6.9224195021
 11
7.3126923427
 21
6.8449195021
  0
LINE
  5
21A
100
AcDbEntity
  8
0
100
AcDbLine
 62
7
  6
CONTINUOUS
 10
7.5939423427
 20
6.2849195021
 11
7.5939423427
 21
5.8449195021
  0
LINE
  5
21B
100
AcDbEntity
  8
0
100
AcDbLine
 62
7
  6
CONTINUOUS
 10
7.5939423427
 20
5.8249195021
 11
7.5939423427
 21
4.7169195021
  0
LINE
  5
21C
100
AcDbEntity
  8
0
100
AcDbLine
 62
7
  6
CONTINUOUS
 10
15.5939291653
 20
5.8249195021
 11
14.2814555202
 21
5.8249195021
  0
LINE
  5
21D
100
AcDbEntity
  8
0
100
AcDbLine
 62
7
  6
CONTINUOUS
 10
7.5939291653
 20
5.8249195021
 11
6.2814555202
 21
5.8249195021
  0
LINE
  5
21E
100
AcDbEntity
  8
0
100
AcDbLine
 62
7
  6
CONTINUOUS
 10
6.2814551088
 20
5.8449195021
 11
7.5939295767
 21
5.8449195021
  0
LINE
  5
21F
100
AcDbEntity
  8
0
100
AcDbLine
 62
7
  6
CONTINUOUS
 10
14.2814551088
 20
5.8449195021
 11
15.5939295767
 21
5.8449195021
  0
LINE
  5
220
100
AcDbEntity
  8
0
100
AcDbLine
 62
7
  6
CONTINUOUS
 10
8.1251923427
 20
4.7169195021
 11
8.1251923427
 21
4.3419195021
  0
LINE
  5
221
100
AcDbEntity
  8
0
100
AcDbLine
 62
7
  6
CONTINUOUS
 10
15.5939291653
 20
6.2849195021
 11
14.2814555202
 21
6.2849195021
  0
LINE
  5
222
100
AcDbEntity
  8
0
100
AcDbLine
 62
7
  6
CONTINUOUS
 10
7.5939291653
 20
6.2849195021
 11
6.2814555202
 21
6.2849195021
  0
LINE
  5
223
100
AcDbEntity
  8
0
100
AcDbLine
 62
7
  6
CONTINUOUS
 10
6.5626929515
 20
6.8449195021
 11
7.312691734
 21
6.8449195021
  0
LINE
  5
224
100
AcDbEntity
  8
0
100
AcDbLine
 62
7
  6
CONTINUOUS
 10
14.5626929515
 20
6.8449195021
 11
15.312691734
 21
6.8449195021
  0
LINE
  5
225
100
AcDbEntity
  8
0
100
AcDbLine
 62
7
  6
CONTINUOUS
 10
15.9099641669
 20
6.9224195021
 11
15.1467486558
 21
6.9224195021
  0
LINE
  5
226
100
AcDbEntity
  8
0
100
AcDbLine
 62
7
  6
CONTINUOUS
 10
7.9099641669
 20
6.9224195021
 11
7.1467881376
 21
6.9224195021
  0
LINE
  5
227
100
AcDbEntity
  8
0
100
AcDbLine
 62
7
  6
CONTINUOUS
 10
5.9654205186
 20
6.9224195021
 11
6.7311138142
 21
6.9224195021
  0
LINE
  5
228
100
AcDbEntity
  8
0
100
AcDbLine
 62
7
  6
CONTINUOUS
 10
13.9654205186
 20
6.9224195021
 11
14.7311134402
 21
6.9224195021
  0
LINE
  5
229
100
AcDbEntity
  8
0
100
AcDbLine
 62
7
  6
CONTINUOUS
 10
15.9099641669
 20
7.3674195021
 11
15.1460539942
 21
7.3674195021
  0
LINE
  5
22A
100
AcDbEntity
  8
0
100
AcDbLine
 62
7
  6
CONTINUOUS
 10
7.9099641669
 20
7.3674195021
 11
7.1459673686
 21
7.3674195021
  0
LINE
  5
22B
100
AcDbEntity
  8
0
100
AcDbLine
 62
7
  6
CONTINUOUS
 10
5.9654205186
 20
7.3674195021
 11
6.731113131
 21
7.3674195021
  0
LINE
  5
22C
100
AcDbEntity
  8
0
100
AcDbLine
 62
7
  6
CONTINUOUS
 10
13.9654205186
 20
7.3674195021
 11
14.7311129678
 21
7.3674195021
  0
LINE
  5
22D
100
AcDbEntity
  8
0
100
AcDbLine
 62
7
  6
CONTINUOUS
 10
15.3126921898
 20
7.4449195021
 11
14.5626924957
 21
7.4449195021
  0
LINE
  5
22E
100
AcDbEntity
  8
0
100
AcDbLine
 62
7
  6
CONTINUOUS
 10
7.3126921898
 20
7.4449195021
 11
6.5626924957
 21
7.4449195021
  0
LINE
  5
22F
100
AcDbEntity
  8
0
100
AcDbLine
 62
7
  6
CONTINUOUS
 10
11.6251902493
 20
7.8819195021
 11
10.2501944362
 21
7.8819195021
  0
LINE
  5
230
100
AcDbEntity
  8
0
100
AcDbLine
 62
7
  6
CONTINUOUS
 10
9.7501923427
 20
5.4449195021
 11
9.7501923427
 21
4.3419195021
  0
LINE
  5
231
100
AcDbEntity
  8
0
100
AcDbLine
 62
7
  6
CONTINUOUS
 10
10.2501923427
 20
7.8819195021
 11
10.2501923427
 21
5.4449195021
  0
LINE
  5
232
100
AcDbEntity
  8
0
100
AcDbLine
 62
7
  6
CONTINUOUS
 10
10.5001923427
 20
7.8819195021
 11
10.5001923427
 21
13.7559195021
  0
LINE
  5
233
100
AcDbEntity
  8
0
100
AcDbLine
 62
7
  6
CONTINUOUS
 10
11.3751923427
 20
7.8819195021
 11
11.3751923427
 21
13.7559195021
  0
LINE
  5
234
100
AcDbEntity
  8
0
100
AcDbLine
 62
7
  6
CONTINUOUS
 10
11.6251923427
 20
7.8819195021
 11
11.6251923427
 21
5.4449195021
  0
LINE
  5
235
100
AcDbEntity
  8
0
100
AcDbLine
 62
7
  6
CONTINUOUS
 10
12.1251923427
 20
5.4449195021
 11
12.1251923427
 21
4.3419195021
  0
LINE
  5
236
100
AcDbEntity
  8
0
100
AcDbLine
 62
7
  6
CONTINUOUS
 10
10.5002075437
 20
10.6939195021
 11
11.3751771418
 21
10.6939195021
  0
LINE
  5
237
100
AcDbEntity
  8
0
100
AcDbLine
 62
7
  6
CONTINUOUS
 10
13.7501923427
 20
4.7169195021
 11
13.7501923427
 21
4.3419195021
  0
LINE
  5
238
100
AcDbEntity
  8
0
100
AcDbLine
 62
7
  6
CONTINUOUS
 10
14.2814423427
 20
6.2849195021
 11
14.2814423427
 21
5.8449195021
  0
LINE
  5
239
100
AcDbEntity
  8
0
100
AcDbLine
 62
7
  6
CONTINUOUS
 10
14.2814423427
 20
5.8249195021
 11
14.2814423427
 21
4.7169195021
  0
LINE
  5
23A
100
AcDbEntity
  8
0
100
AcDbLine
 62
9
  6
CONTINUOUS
 10
11.3751923427
 20
12.2559195021
 11
10.5001923427
 21
12.2559195021
  0
LINE
  5
23B
100
AcDbEntity
  8
0
100
AcDbLine
 62
7
  6
CONTINUOUS
 10
14.5626923427
 20
7.4449195021
 11
14.5626923427
 21
7.3674195021
  0
LINE
  5
23C
100
AcDbEntity
  8
0
100
AcDbLine
 62
7
  6
CONTINUOUS
 10
14.5626923427
 20
6.9224195021
 11
14.5626923427
 21
6.8449195021
  0
LINE
  5
23D
100
AcDbEntity
  8
0
100
AcDbLine
 62
7
  6
CONTINUOUS
 10
14.6876923427
 20
6.8449195021
 11
14.6876923427
 21
6.2849195021
  0
LINE
  5
23E
100
AcDbEntity
  8
0
100
AcDbLine
 62
7
  6
CONTINUOUS
 10
14.7376923427
 20
5.8449195021
 11
14.7376923427
 21
5.8249195021
  0
LINE
  5
23F
100
AcDbEntity
  8
0
100
AcDbLine
 62
7
  6
CONTINUOUS
 10
15.1376923427
 20
5.8449195021
 11
15.1376923427
 21
5.8249195021
  0
LINE
  5
240
100
AcDbEntity
  8
0
100
AcDbLine
 62
7
  6
CONTINUOUS
 10
15.1876923427
 20
6.8449195021
 11
15.1876923427
 21
6.2849195021
  0
LINE
  5
241
100
AcDbEntity
  8
0
100
AcDbLine
 62
7
  6
CONTINUOUS
 10
15.3126923427
 20
7.4449195021
 11
15.3126923427
 21
7.3674195021
  0
LINE
  5
242
100
AcDbEntity
  8
0
100
AcDbLine
 62
7
  6
CONTINUOUS
 10
15.3126923427
 20
6.9224195021
 11
15.3126923427
 21
6.8449195021
  0
LINE
  5
243
100
AcDbEntity
  8
0
100
AcDbLine
 62
7
  6
CONTINUOUS
 10
15.5939423427
 20
6.2849195021
 11
15.5939423427
 21
5.8449195021
  0
LINE
  5
244
100
AcDbEntity
  8
0
100
AcDbLine
 62
7
  6
CONTINUOUS
 10
15.5939423427
 20
5.8249195021
 11
15.5939423427
 21
4.7169195021
  0
LINE
  5
245
100
AcDbEntity
  8
0
100
AcDbLine
 62
7
  6
CONTINUOUS
 10
16.1251923427
 20
4.7169195021
 11
16.1251923427
 21
4.3419195021
  0
ARC
  5
246
100
AcDbEntity
  8
0
100
AcDbCircle
 62
7
  6
CONTINUOUS
 10
10.9376923427
 20
13.7559195021
 40
0.4375
100
AcDbArc
 50
0.0
 51
180.0
  0
ARC
  5
247
100
AcDbEntity
  8
0
100
AcDbCircle
 62
7
  6
CONTINUOUS
 10
7.2324176923
 20
7.1426257706
 40
0.2373293422
100
AcDbArc
 50
244.1758820773
 51
245.4797098096
  0
ARC
  5
248
100
AcDbEntity
  8
0
100
AcDbCircle
 62
7
  6
CONTINUOUS
 10
15.2322428578
 20
7.1422510127
 40
0.2369158607
100
AcDbArc
 50
244.2857960372
 51
245.4750381893
  0
ARC
  5
249
100
AcDbEntity
  8
0
100
AcDbCircle
 62
7
  6
CONTINUOUS
 10
7.2295352638
 20
7.1535175415
 40
0.2303976037
100
AcDbArc
 50
114.0888707542
 51
114.3725082886
  0
SPLINE
  5
24A
100
AcDbEntity
  8
0
100
AcDbSpline
 62
7
  6
CONTINUOUS
 70
0
 71
3
 72
21
 73
17
 74
0
 42
0.0000001
 43
0.0000001
 44
0.0000000001
 40
0.0
 40
0.0
 40
0.0
 40
0.0
 40
0.0514702653
 40
0.1034287619
 40
0.156332756
 40
0.2105799718
 40
0.2664894738
 40
0.3242948265
 40
0.3841310709
 40
0.4460557065
 40
0.5758563308
 40
0.6435860602
 40
0.7128773594
 40
0.8550416079
 40
0.9273985282
 40
1.0
 40
1.0
 40
1.0
 40
1.0
 10
13.9654205186
 20
6.9224202196
 30
0.0
 10
13.9602678181
 20
6.9224202697
 30
0.0
 10
13.9498996681
 20
6.9231462839
 30
0.0
 10
13.9345399488
 20
6.9263809232
 30
0.0
 10
13.9194901209
 20
6.9317389226
 30
0.0
 10
13.9048996426
 20
6.9391529894
 30
0.0
 10
13.8909084596
 20
6.9485493105
 30
0.0
 10
13.877650879
 20
6.9598320886
 30
0.0
 10
13.8652451988
 20
6.9728865242
 30
0.0
 10
13.8497679773
 20
6.9927945928
 30
0.0
 10
13.8367697165
 20
7.0154633514
 30
0.0
 10
13.8263628333
 20
7.0400844707
 30
0.0
 10
13.8175099444
 20
7.0666204241
 30
0.0
 10
13.8115833623
 20
7.0945300143
 30
0.0
 10
13.8085957407
 20
7.1231334151
 30
0.0
 10
13.8080892598
 20
7.1376513516
 30
0.0
 10
13.8080892598
 20
7.1449195021
 30
0.0
  0
SPLINE
  5
24B
100
AcDbEntity
  8
0
100
AcDbSpline
 62
7
  6
CONTINUOUS
 70
0
 71
3
 72
21
 73
17
 74
0
 42
0.0000001
 43
0.0000001
 44
0.0000000001
 40
0.0
 40
0.0
 40
0.0
 40
0.0
 40
0.0641528618
 40
0.1283879097
 40
0.1925843233
 40
0.2567342667
 40
0.3208285507
 40
0.3848137985
 40
0.4486683617
 40
0.5123168986
 40
0.6385631733
 40
0.7010214721
 40
0.7628347339
 40
0.8238388854
 40
0.8838582237
 40
1.0
 40
1.0
 40
1.0
 40
1.0
 10
14.9781620324
 20
7.1449195021
 30
0.0
 10
14.9781620324
 20
7.1389965202
 30
0.0
 10
14.9787446929
 20
7.1271356394
 30
0.0
 10
14.9812908466
 20
7.109513379
 30
0.0
 10
14.9854608236
 20
7.0922033459
 30
0.0
 10
14.9911306873
 20
7.0753426777
 30
0.0
 10
14.9981503491
 20
7.0590218505
 30
0.0
 10
15.0063864756
 20
7.0433135284
 30
0.0
 10
15.0156990885
 20
7.0282685911
 30
0.0
 10
15.0293306287
 20
7.0091991937
 30
0.0
 10
15.0446313569
 20
6.9915403992
 30
0.0
 10
15.0612338578
 20
6.9754245719
 30
0.0
 10
15.0741646763
 20
6.964211899
 30
0.0
 10
15.0875275117
 20
6.9538811908
 30
0.0
 10
15.1055878627
 20
6.9414888643
 30
0.0
 10
15.1197880852
 20
6.9334492884
 30
0.0
 10
15.1294492228
 20
6.9287970512
 30
0.0
  0
SPLINE
  5
24C
100
AcDbEntity
  8
0
100
AcDbSpline
 62
7
  6
CONTINUOUS
 70
0
 71
3
 72
11
 73
7
 74
0
 42
0.0000001
 43
0.0000001
 44
0.0000000001
 40
0.0
 40
0.0
 40
0.0
 40
0.0
 40
0.2695021077
 40
0.5267257339
 40
0.7704818707
 40
1.0
 40
1.0
 40
1.0
 40
1.0
 10
15.1339015379
 20
6.9267095785
 30
0.0
 10
15.1397428998
 20
6.9240449976
 30
0.0
 10
15.1513814321
 20
6.9193042516
 30
0.0
 10
15.1689784396
 20
6.913979168
 30
0.0
 10
15.1861060976
 20
6.9107132879
 30
0.0
 10
15.197389534
 20
6.9099195021
 30
0.0
 10
15.2028573857
 20
6.9099195021
 30
0.0
  0
SPLINE
  5
24D
100
AcDbEntity
  8
0
100
AcDbSpline
 62
7
  6
CONTINUOUS
 70
0
 71
3
 72
11
 73
7
 74
0
 42
0.0000001
 43
0.0000001
 44
0.0000000001
 40
0.0
 40
0.0
 40
0.0
 40
0.0
 40
0.2297827183
 40
0.4735668568
 40
0.7306807169
 40
1.0
 40
1.0
 40
1.0
 40
1.0
 10
15.2028573857
 20
7.3799195021
 30
0.0
 10
15.1974731381
 20
7.3799195021
 30
0.0
 10
15.1863682038
 20
7.3791519562
 30
0.0
 10
15.1695102354
 20
7.3759814283
 30
0.0
 10
15.1521894742
 20
7.370810383
 30
0.0
 10
15.1407266262
 20
7.3662049056
 30
0.0
 10
15.1349719876
 20
7.3636148045
 30
0.0
  0
SPLINE
  5
24E
100
AcDbEntity
  8
0
100
AcDbSpline
 62
7
  6
CONTINUOUS
 70
0
 71
3
 72
18
 73
14
 74
0
 42
0.0000001
 43
0.0000001
 44
0.0000000001
 40
0.0
 40
0.0
 40
0.0
 40
0.0
 40
0.1153419301
 40
0.2359513298
 40
0.2977089059
 40
0.360172649
 40
0.4865684557
 40
0.6142487816
 40
0.7425541134
 40
0.8068746744
 40
0.8712571363
 40
0.9356775546
 40
1.0
 40
1.0
 40
1.0
 40
1.0
 10
15.1349719876
 20
7.3636148045
 30
0.0
 10
15.1250500297
 20
7.3591490378
 30
0.0
 10
15.1053793529
 20
7.3485811282
 30
0.0
 10
15.0823588171
 20
7.3323841456
 30
0.0
 10
15.0646641377
 20
7.3175235424
 30
0.0
 10
15.0474534184
 20
7.3012991165
 30
0.0
 10
15.0275579678
 20
7.2789269103
 30
0.0
 10
15.0071017463
 20
7.2490935888
 30
0.0
 10
14.9937222311
 20
7.2218497741
 30
0.0
 10
14.9858158119
 20
7.1989025025
 30
0.0
 10
14.9814482245
 20
7.181187503
 30
0.0
 10
14.9787756354
 20
7.1631399661
 30
0.0
 10
14.9781620324
 20
7.1509872812
 30
0.0
 10
14.9781620324
 20
7.1449195021
 30
0.0
  0
SPLINE
  5
24F
100
AcDbEntity
  8
0
100
AcDbSpline
 62
7
  6
CONTINUOUS
 70
0
 71
3
 72
17
 73
13
 74
0
 42
0.0000001
 43
0.0000001
 44
0.0000000001
 40
0.0
 40
0.0
 40
0.0
 40
0.0
 40
0.0640155592
 40
0.1280313375
 40
0.1920250216
 40
0.2559922417
 40
0.3836493012
 40
0.5108173726
 40
0.6369771699
 40
0.7613435637
 40
0.8828217308
 40
1.0
 40
1.0
 40
1.0
 40
1.0
 10
14.8972226531
 20
7.1449195021
 30
0.0
 10
14.8972226531
 20
7.1506504567
 30
0.0
 10
14.8966856733
 20
7.162119523
 30
0.0
 10
14.8942958613
 20
7.1791663081
 30
0.0
 10
14.8903905309
 20
7.1959268645
 30
0.0
 10
14.8833115914
 20
7.2177126601
 30
0.0
 10
14.8712495978
 20
7.2437095685
 30
0.0
 10
14.852683264
 20
7.2724305108
 30
0.0
 10
14.8309502744
 20
7.2984337975
 30
0.0
 10
14.8068273444
 20
7.3214913033
 30
0.0
 10
14.7810080621
 20
7.341326481
 30
0.0
 10
14.7626839772
 20
7.3524235067
 30
0.0
 10
14.7533921614
 20
7.3572926804
 30
0.0
  0
SPLINE
  5
250
100
AcDbEntity
  8
0
100
AcDbSpline
 62
7
  6
CONTINUOUS
 70
0
 71
3
 72
9
 73
5
 74
0
 42
0.0000001
 43
0.0000001
 44
0.0000000001
 40
0.0
 40
0.0
 40
0.0
 40
0.0
 40
0.2538477685
 40
1.0
 40
1.0
 40
1.0
 40
1.0
 10
14.7533921614
 20
7.3572926804
 30
0.0
 10
14.7517853108
 20
7.3581347155
 30
0.0
 10
14.7454198181
 20
7.3613833612
 30
0.0
 10
14.7389114784
 20
7.364353873
 30
0.0
 10
14.7339833471
 20
7.3663903725
 30
0.0
  0
SPLINE
  5
251
100
AcDbEntity
  8
0
100
AcDbSpline
 62
7
  6
CONTINUOUS
 70
0
 71
3
 72
10
 73
6
 74
0
 42
0.0000001
 43
0.0000001
 44
0.0000000001
 40
0.0
 40
0.0
 40
0.0
 40
0.0
 40
0.2682369799
 40
0.5248849229
 40
1.0
 40
1.0
 40
1.0
 40
1.0
 10
14.7339833471
 20
7.3663903725
 30
0.0
 10
14.7287562189
 20
7.3685504294
 30
0.0
 10
14.7183557055
 20
7.3723865488
 30
0.0
 10
14.6980090978
 20
7.3779519136
 30
0.0
 10
14.6825453454
 20
7.3799193672
 30
0.0
 10
14.6725274023
 20
7.3799193656
 30
0.0
  0
SPLINE
  5
252
100
AcDbEntity
  8
0
100
AcDbSpline
 62
7
  6
CONTINUOUS
 70
0
 71
3
 72
10
 73
6
 74
0
 42
0.0000001
 43
0.0000001
 44
0.0000000001
 40
0.0
 40
0.0
 40
0.0
 40
0.0
 40
0.4751152954
 40
0.7317631919
 40
1.0
 40
1.0
 40
1.0
 40
1.0
 10
14.6725274023
 20
6.9099196387
 30
0.0
 10
14.6825452836
 20
6.9099196403
 30
0.0
 10
14.698008937
 20
6.9118870648
 30
0.0
 10
14.7183554174
 20
6.9174523657
 30
0.0
 10
14.7287558641
 20
6.9212884394
 30
0.0
 10
14.7339829582
 20
6.9234484711
 30
0.0
  0
SPLINE
  5
253
100
AcDbEntity
  8
0
100
AcDbSpline
 62
7
  6
CONTINUOUS
 70
0
 71
3
 72
9
 73
5
 74
0
 42
0.0000001
 43
0.0000001
 44
0.0000000001
 40
0.0
 40
0.0
 40
0.0
 40
0.0
 40
0.2460996408
 40
1.0
 40
1.0
 40
1.0
 40
1.0
 10
14.7339829582
 20
6.9234484711
 30
0.0
 10
14.735607956
 20
6.9241199812
 30
0.0
 10
14.7421780262
 20
6.9269278659
 30
0.0
 10
14.7486157484
 20
6.9300434967
 30
0.0
 10
14.753386736
 20
6.9325434808
 30
0.0
  0
SPLINE
  5
254
100
AcDbEntity
  8
0
100
AcDbSpline
 62
7
  6
CONTINUOUS
 70
0
 71
3
 72
17
 73
13
 74
0
 42
0.0000001
 43
0.0000001
 44
0.0000000001
 40
0.0
 40
0.0
 40
0.0
 40
0.0
 40
0.1171775195
 40
0.2386553682
 40
0.3630218117
 40
0.4891814815
 40
0.616349675
 40
0.744006967
 40
0.807974393
 40
0.8719683227
 40
0.935984323
 40
1.0
 40
1.0
 40
1.0
 40
1.0
 10
14.753386736
 20
6.9325434808
 30
0.0
 10
14.7626788225
 20
6.9374125082
 30
0.0
 10
14.781003481
 20
6.9485093525
 30
0.0
 10
14.8068236286
 20
6.9683444757
 30
0.0
 10
14.8309474265
 20
6.9914021262
 30
0.0
 10
14.8526812543
 20
7.0174057253
 30
0.0
 10
14.8712483595
 20
7.0461271236
 30
0.0
 10
14.8833108994
 20
7.0721245573
 30
0.0
 10
14.8903901884
 20
7.0939108536
 30
0.0
 10
14.8942957071
 20
7.1106718313
 30
0.0
 10
14.8966856498
 20
7.1277190479
 30
0.0
 10
14.8972226531
 20
7.1391884065
 30
0.0
 10
14.8972226531
 20
7.1449195021
 30
0.0
  0
SPLINE
  5
255
100
AcDbEntity
  8
0
100
AcDbSpline
 62
7
  6
CONTINUOUS
 70
0
 71
3
 72
21
 73
17
 74
0
 42
0.0000001
 43
0.0000001
 44
0.0000000001
 40
0.0
 40
0.0
 40
0.0
 40
0.0
 40
0.0726016691
 40
0.1449576655
 40
0.287118499
 40
0.3564088352
 40
0.4241378997
 40
0.5539373588
 40
0.6158621616
 40
0.6756991395
 40
0.7335057059
 40
0.7894162993
 40
0.8436648673
 40
0.8965698443
 40
0.9485292074
 40
1.0
 40
1.0
 40
1.0
 40
1.0
 10
13.8080892598
 20
7.1449195021
 30
0.0
 10
13.8080892598
 20
7.1521876741
 30
0.0
 10
13.8085956994
 20
7.1667055428
 30
0.0
 10
13.8115832715
 20
7.1953085362
 30
0.0
 10
13.8175096153
 20
7.2232176443
 30
0.0
 10
13.8263623733
 20
7.2497531066
 30
0.0
 10
13.8367687088
 20
7.2743741638
 30
0.0
 10
13.8497669073
 20
7.2970427645
 30
0.0
 10
13.8652437793
 20
7.3169510882
 30
0.0
 10
13.8776496566
 20
7.3300056179
 30
0.0
 10
13.8909071163
 20
7.3412890316
 30
0.0
 10
13.9048987709
 20
7.350685313
 30
0.0
 10
13.9194893411
 20
7.3580999568
 30
0.0
 10
13.9345395598
 20
7.363457872
 30
0.0
 10
13.9498994586
 20
7.3666927296
 30
0.0
 10
13.9602677642
 20
7.3674188348
 30
0.0
 10
13.9654205186
 20
7.3674187847
 30
0.0
  0
SPLINE
  5
256
100
AcDbEntity
  8
0
100
AcDbSpline
 62
7
  6
CONTINUOUS
 70
0
 71
3
 72
35
 73
31
 74
0
 42
0.0000001
 43
0.0000001
 44
0.0000000001
 40
0.0
 40
0.0
 40
0.0
 40
0.0
 40
0.0257152867
 40
0.0517105843
 40
0.0781730286
 40
0.1052951067
 40
0.1332471742
 40
0.1621503948
 40
0.1920699211
 40
0.2230329594
 40
0.2879312934
 40
0.3563947519
 40
0.3917006668
 40
0.4275116459
 40
0.4636676423
 40
0.4999974083
 40
0.5363271338
 40
0.5724829173
 40
0.6082935788
 40
0.6435991704
 40
0.7120623249
 40
0.7769612786
 40
0.8079250517
 40
0.8378454018
 40
0.8667494826
 40
0.8947022772
 40
0.9218252958
 40
0.94828868
 40
0.9742845518
 40
1.0
 40
1.0
 40
1.0
 40
1.0
 10
15.9099641669
 20
7.3674195021
 30
0.0
 10
15.9151128403
 20
7.3674195021
 30
0.0
 10
15.9254799218
 20
7.3666914366
 30
0.0
 10
15.9408411119
 20
7.3634590636
 30
0.0
 10
15.95589664
 20
7.3581021381
 30
0.0
 10
15.9704873998
 20
7.350685979
 30
0.0
 10
15.9844768857
 20
7.3412889259
 30
0.0
 10
15.9977341336
 20
7.3300061927
 30
0.0
 10
16.0101403237
 20
7.3169522543
 30
0.0
 10
16.0256177903
 20
7.2970420591
 30
0.0
 10
16.0420750713
 20
7.2683436345
 30
0.0
 10
16.0539490825
 20
7.2365805851
 30
0.0
 10
16.0607920143
 20
7.2094644148
 30
0.0
 10
16.0645338193
 20
7.188295142
 30
0.0
 10
16.066789918
 20
7.1667123363
 30
0.0
 10
16.0675479808
 20
7.1449210949
 30
0.0
 10
16.0667900909
 20
7.1231298959
 30
0.0
 10
16.0645343619
 20
7.1015471624
 30
0.0
 10
16.0607926281
 20
7.0803780524
 30
0.0
 10
16.0539503124
 20
7.0532619288
 30
0.0
 10
16.0420766432
 20
7.0214987277
 30
0.0
 10
16.0256196124
 20
6.9927999518
 30
0.0
 10
16.0101423268
 20
6.972889047
 30
0.0
 10
15.9977358371
 20
6.9598347354
 30
0.0
 10
15.984478598
 20
6.9485512427
 30
0.0
 10
15.9704886941
 20
6.9391538894
 30
0.0
 10
15.9558976013
 20
6.9317372364
 30
0.0
 10
15.9408415989
 20
6.9263801467
 30
0.0
 10
15.9254801012
 20
6.9231476318
 30
0.0
 10
15.9151128727
 20
6.9224195021
 30
0.0
 10
15.9099641669
 20
6.9224195021
 30
0.0
  0
SPLINE
  5
257
100
AcDbEntity
  8
0
100
AcDbSpline
 62
7
  6
CONTINUOUS
 70
0
 71
3
 72
9
 73
5
 74
0
 42
0.0000001
 43
0.0000001
 44
0.0000000001
 40
0.0
 40
0.0
 40
0.0
 40
0.0
 40
0.2474257708
 40
1.0
 40
1.0
 40
1.0
 40
1.0
 10
14.7108019168
 20
6.9144417603
 30
0.0
 10
14.709062668
 20
6.9149313549
 30
0.0
 10
14.7020769204
 20
6.9170627185
 30
0.0
 10
14.6952775564
 20
6.9197989206
 30
0.0
 10
14.6903138075
 20
6.9221577845
 30
0.0
  0
SPLINE
  5
258
100
AcDbEntity
  8
0
100
AcDbSpline
 62
7
  6
CONTINUOUS
 70
0
 71
3
 72
11
 73
7
 74
0
 42
0.0000001
 43
0.0000001
 44
0.0000000001
 40
0.0
 40
0.0
 40
0.0
 40
0.0
 40
0.2371359966
 40
0.4807729686
 40
0.7342132111
 40
1.0
 40
1.0
 40
1.0
 40
1.0
 10
14.6247301999
 20
6.922281841
 30
0.0
 10
14.6281147006
 20
6.9202486329
 30
0.0
 10
14.6352907486
 20
6.9166267247
 30
0.0
 10
14.6469232751
 20
6.9127420179
 30
0.0
 10
14.6594460017
 20
6.9104084564
 30
0.0
 10
14.6681021099
 20
6.909919638
 30
0.0
 10
14.6725274023
 20
6.9099196387
 30
0.0
  0
SPLINE
  5
259
100
AcDbEntity
  8
0
100
AcDbSpline
 62
7
  6
CONTINUOUS
 70
0
 71
3
 72
21
 73
17
 74
0
 42
0.0000001
 43
0.0000001
 44
0.0000000001
 40
0.0
 40
0.0
 40
0.0
 40
0.0
 40
0.0514702653
 40
0.1034287619
 40
0.156332756
 40
0.2105799718
 40
0.2664894738
 40
0.3242948265
 40
0.3841310709
 40
0.4460557065
 40
0.5758563308
 40
0.6435860602
 40
0.7128773594
 40
0.8550416079
 40
0.9273985282
 40
1.0
 40
1.0
 40
1.0
 40
1.0
 10
13.9654205186
 20
7.3674187847
 30
0.0
 10
13.9705732191
 20
7.3674187346
 30
0.0
 10
13.9809413691
 20
7.3666927204
 30
0.0
 10
13.9963010884
 20
7.363458081
 30
0.0
 10
14.0113509163
 20
7.3581000817
 30
0.0
 10
14.0259413946
 20
7.3506860149
 30
0.0
 10
14.0399325777
 20
7.3412896938
 30
0.0
 10
14.0531901582
 20
7.3300069156
 30
0.0
 10
14.0655958384
 20
7.3169524801
 30
0.0
 10
14.0810730599
 20
7.2970444115
 30
0.0
 10
14.0940713207
 20
7.2743756529
 30
0.0
 10
14.1044782039
 20
7.2497545336
 30
0.0
 10
14.1133310928
 20
7.2232185802
 30
0.0
 10
14.1192576749
 20
7.19530899
 30
0.0
 10
14.1222452965
 20
7.1667055891
 30
0.0
 10
14.1227517774
 20
7.1521876527
 30
0.0
 10
14.1227517774
 20
7.1449195021
 30
0.0
  0
SPLINE
  5
25A
100
AcDbEntity
  8
0
100
AcDbSpline
 62
7
  6
CONTINUOUS
 70
0
 71
3
 72
9
 73
5
 74
0
 42
0.0000001
 43
0.0000001
 44
0.0000000001
 40
0.0
 40
0.0
 40
0.0
 40
0.0
 40
0.2474854225
 40
1.0
 40
1.0
 40
1.0
 40
1.0
 10
15.1652636064
 20
7.3752035008
 30
0.0
 10
15.1669444315
 20
7.3747200342
 30
0.0
 10
15.1736944731
 20
7.3726241176
 30
0.0
 10
15.1802676487
 20
7.3699638019
 30
0.0
 10
15.1850708779
 20
7.3676812197
 30
0.0
  0
SPLINE
  5
25B
100
AcDbEntity
  8
0
100
AcDbSpline
 62
7
  6
CONTINUOUS
 70
0
 71
3
 72
9
 73
5
 74
0
 42
0.0000001
 43
0.0000001
 44
0.0000000001
 40
0.0
 40
0.0
 40
0.0
 40
0.0
 40
0.2529715351
 40
1.0
 40
1.0
 40
1.0
 40
1.0
 10
15.1851875658
 20
6.9222132466
 30
0.0
 10
15.1835370337
 20
6.9214269767
 30
0.0
 10
15.1769504402
 20
6.9184511509
 30
0.0
 10
15.1701178516
 20
6.9160164446
 30
0.0
 10
15.164925209
 20
6.9145386648
 30
0.0
  0
SPLINE
  5
25C
100
AcDbEntity
  8
0
100
AcDbSpline
 62
7
  6
CONTINUOUS
 70
0
 71
3
 72
11
 73
7
 74
0
 42
0.0000001
 43
0.0000001
 44
0.0000000001
 40
0.0
 40
0.0
 40
0.0
 40
0.0
 40
0.2652579035
 40
0.518894772
 40
0.762780776
 40
1.0
 40
1.0
 40
1.0
 40
1.0
 10
15.2028573857
 20
6.9099195021
 30
0.0
 10
15.2071477989
 20
6.9099195021
 30
0.0
 10
15.2155503245
 20
6.9103843592
 30
0.0
 10
15.2277258403
 20
6.9125733086
 30
0.0
 10
15.2390719256
 20
6.9162282482
 30
0.0
 10
15.2460992669
 20
6.9196407628
 30
0.0
 10
15.24942285
 20
6.9215579508
 30
0.0
  0
SPLINE
  5
25D
100
AcDbEntity
  8
0
100
AcDbSpline
 62
7
  6
CONTINUOUS
 70
0
 71
3
 72
9
 73
5
 74
0
 42
0.0000001
 43
0.0000001
 44
0.0000000001
 40
0.0
 40
0.0
 40
0.0
 40
0.0
 40
0.2530148228
 40
1.0
 40
1.0
 40
1.0
 40
1.0
 10
14.6901971196
 20
7.3676257576
 30
0.0
 10
14.6918745312
 20
7.3684248322
 30
0.0
 10
14.6985682504
 20
7.3714464132
 30
0.0
 10
14.7055159346
 20
7.3739089591
 30
0.0
 10
14.7107961286
 20
7.375395637
 30
0.0
  0
SPLINE
  5
25E
100
AcDbEntity
  8
0
100
AcDbSpline
 62
7
  6
CONTINUOUS
 70
0
 71
3
 72
11
 73
7
 74
0
 42
0.0000001
 43
0.0000001
 44
0.0000000001
 40
0.0
 40
0.0
 40
0.0
 40
0.0
 40
0.2372307208
 40
0.4812582987
 40
0.7349228183
 40
1.0
 40
1.0
 40
1.0
 40
1.0
 10
15.2489386153
 20
7.368557747
 30
0.0
 10
15.2456403104
 20
7.3704308516
 30
0.0
 10
15.2386723983
 20
7.3737645445
 30
0.0
 10
15.2274383163
 20
7.3773271445
 30
0.0
 10
15.2153991368
 20
7.3794646373
 30
0.0
 10
15.2070956849
 20
7.3799195021
 30
0.0
 10
15.2028573857
 20
7.3799195021
 30
0.0
  0
SPLINE
  5
25F
100
AcDbEntity
  8
0
100
AcDbSpline
 62
7
  6
CONTINUOUS
 70
0
 71
3
 72
21
 73
17
 74
0
 42
0.0000001
 43
0.0000001
 44
0.0000000001
 40
0.0
 40
0.0
 40
0.0
 40
0.0
 40
0.0726016691
 40
0.1449576655
 40
0.287118499
 40
0.3564088352
 40
0.4241378997
 40
0.5539373588
 40
0.6158621616
 40
0.6756991395
 40
0.7335057059
 40
0.7894162993
 40
0.8436648673
 40
0.8965698443
 40
0.9485292074
 40
1.0
 40
1.0
 40
1.0
 40
1.0
 10
14.1227517774
 20
7.1449195021
 30
0.0
 10
14.1227517774
 20
7.1376513302
 30
0.0
 10
14.1222453378
 20
7.1231334615
 30
0.0
 10
14.1192577657
 20
7.094530468
 30
0.0
 10
14.1133314219
 20
7.06662136
 30
0.0
 10
14.1044786639
 20
7.0400858977
 30
0.0
 10
14.0940723284
 20
7.0154648405
 30
0.0
 10
14.0810741299
 20
6.9927962398
 30
0.0
 10
14.0655972579
 20
6.9728879161
 30
0.0
 10
14.0531913806
 20
6.9598333864
 30
0.0
 10
14.0399339209
 20
6.9485499727
 30
0.0
 10
14.0259422663
 20
6.9391536913
 30
0.0
 10
14.0113516961
 20
6.9317390475
 30
0.0
 10
13.9963014774
 20
6.9263811323
 30
0.0
 10
13.9809415786
 20
6.9231462747
 30
0.0
 10
13.970573273
 20
6.9224201695
 30
0.0
 10
13.9654205186
 20
6.9224202196
 30
0.0
  0
SPLINE
  5
260
100
AcDbEntity
  8
0
100
AcDbSpline
 62
7
  6
CONTINUOUS
 70
0
 71
3
 72
35
 73
31
 74
0
 42
0.0000001
 43
0.0000001
 44
0.0000000001
 40
0.0
 40
0.0
 40
0.0
 40
0.0
 40
0.0257152867
 40
0.0517105843
 40
0.0781730286
 40
0.1052951067
 40
0.1332471742
 40
0.1621503948
 40
0.1920699211
 40
0.2230329594
 40
0.2879312934
 40
0.3563947519
 40
0.3917006668
 40
0.4275116459
 40
0.4636676423
 40
0.4999974083
 40
0.5363271338
 40
0.5724829173
 40
0.6082935788
 40
0.6435991704
 40
0.7120623249
 40
0.7769612786
 40
0.8079250517
 40
0.8378454018
 40
0.8667494826
 40
0.8947022772
 40
0.9218252958
 40
0.94828868
 40
0.9742845518
 40
1.0
 40
1.0
 40
1.0
 40
1.0
 10
15.9099641669
 20
6.9224195021
 30
0.0
 10
15.9048154934
 20
6.9224195021
 30
0.0
 10
15.894448412
 20
6.9231475676
 30
0.0
 10
15.8790872219
 20
6.9263799407
 30
0.0
 10
15.8640316937
 20
6.9317368662
 30
0.0
 10
15.849440934
 20
6.9391530253
 30
0.0
 10
15.8354514481
 20
6.9485500784
 30
0.0
 10
15.8221942001
 20
6.9598328116
 30
0.0
 10
15.80978801
 20
6.97288675
 30
0.0
 10
15.7943105434
 20
6.9927969452
 30
0.0
 10
15.7778532625
 20
7.0214953698
 30
0.0
 10
15.7659792513
 20
7.0532584192
 30
0.0
 10
15.7591363194
 20
7.0803745895
 30
0.0
 10
15.7553945145
 20
7.1015438623
 30
0.0
 10
15.7531384158
 20
7.123126668
 30
0.0
 10
15.7523803529
 20
7.1449179094
 30
0.0
 10
15.7531382428
 20
7.1667091084
 30
0.0
 10
15.7553939719
 20
7.1882918419
 30
0.0
 10
15.7591357056
 20
7.2094609519
 30
0.0
 10
15.7659780214
 20
7.2365770755
 30
0.0
 10
15.7778516905
 20
7.2683402765
 30
0.0
 10
15.7943087214
 20
7.2970390525
 30
0.0
 10
15.8097860069
 20
7.3169499573
 30
0.0
 10
15.8221924966
 20
7.3300042689
 30
0.0
 10
15.8354497357
 20
7.3412877615
 30
0.0
 10
15.8494396396
 20
7.3506851149
 30
0.0
 10
15.8640307324
 20
7.3581017679
 30
0.0
 10
15.8790867348
 20
7.3634588575
 30
0.0
 10
15.8944482325
 20
7.3666913725
 30
0.0
 10
15.904815461
 20
7.3674195021
 30
0.0
 10
15.9099641669
 20
7.3674195021
 30
0.0
  0
SPLINE
  5
261
100
AcDbEntity
  8
0
100
AcDbSpline
 62
7
  6
CONTINUOUS
 70
0
 71
3
 72
11
 73
7
 74
0
 42
0.0000001
 43
0.0000001
 44
0.0000000001
 40
0.0
 40
0.0
 40
0.0
 40
0.0
 40
0.2657869713
 40
0.5192272041
 40
0.7628641148
 40
1.0
 40
1.0
 40
1.0
 40
1.0
 10
14.6725274023
 20
7.3799193656
 30
0.0
 10
14.6681020735
 20
7.3799193649
 30
0.0
 10
14.6594458968
 20
7.3794305424
 30
0.0
 10
14.6469230773
 20
7.3770969406
 30
0.0
 10
14.635290477
 20
7.373212171
 30
0.0
 10
14.6281143912
 20
7.3695902084
 30
0.0
 10
14.6247298764
 20
7.3675569695
 30
0.0
  0
SPLINE
  5
262
100
AcDbEntity
  8
0
100
AcDbSpline
 62
7
  6
CONTINUOUS
 70
0
 71
3
 72
21
 73
17
 74
0
 42
0.0000001
 43
0.0000001
 44
0.0000000001
 40
0.0
 40
0.0
 40
0.0
 40
0.0
 40
0.0514702653
 40
0.1034287619
 40
0.156332756
 40
0.2105799718
 40
0.2664894738
 40
0.3242948265
 40
0.3841310709
 40
0.4460557065
 40
0.5758563308
 40
0.6435860602
 40
0.7128773594
 40
0.8550416079
 40
0.9273985282
 40
1.0
 40
1.0
 40
1.0
 40
1.0
 10
5.9654205186
 20
6.9224202196
 30
0.0
 10
5.9602678181
 20
6.9224202697
 30
0.0
 10
5.9498996681
 20
6.9231462839
 30
0.0
 10
5.9345399488
 20
6.9263809232
 30
0.0
 10
5.9194901209
 20
6.9317389226
 30
0.0
 10
5.9048996426
 20
6.9391529894
 30
0.0
 10
5.8909084596
 20
6.9485493105
 30
0.0
 10
5.877650879
 20
6.9598320886
 30
0.0
 10
5.8652451988
 20
6.9728865242
 30
0.0
 10
5.8497679773
 20
6.9927945928
 30
0.0
 10
5.8367697165
 20
7.0154633514
 30
0.0
 10
5.8263628333
 20
7.0400844707
 30
0.0
 10
5.8175099444
 20
7.0666204241
 30
0.0
 10
5.8115833623
 20
7.0945300143
 30
0.0
 10
5.8085957407
 20
7.1231334151
 30
0.0
 10
5.8080892598
 20
7.1376513516
 30
0.0
 10
5.8080892598
 20
7.1449195021
 30
0.0
  0
SPLINE
  5
263
100
AcDbEntity
  8
0
100
AcDbSpline
 62
7
  6
CONTINUOUS
 70
0
 71
3
 72
11
 73
7
 74
0
 42
0.0000001
 43
0.0000001
 44
0.0000000001
 40
0.0
 40
0.0
 40
0.0
 40
0.0
 40
0.229903677
 40
0.4737134212
 40
0.7307782863
 40
1.0
 40
1.0
 40
1.0
 40
1.0
 10
7.2028573857
 20
7.3799195021
 30
0.0
 10
7.1975144137
 20
7.3799195021
 30
0.0
 10
7.1864970746
 20
7.3791639138
 30
0.0
 10
7.1697712867
 20
7.3760402467
 30
0.0
 10
7.1525858255
 20
7.3709444107
 30
0.0
 10
7.141209615
 20
7.3664043016
 30
0.0
 10
7.1354977579
 20
7.3638506186
 30
0.0
  0
SPLINE
  5
264
100
AcDbEntity
  8
0
100
AcDbSpline
 62
7
  6
CONTINUOUS
 70
0
 71
3
 72
18
 73
14
 74
0
 42
0.0000001
 43
0.0000001
 44
0.0000000001
 40
0.0
 40
0.0
 40
0.0
 40
0.0
 40
0.1154185958
 40
0.2360606988
 40
0.2978237902
 40
0.3602869366
 40
0.486671229
 40
0.614328181
 40
0.74260861
 40
0.8069153212
 40
0.8712855871
 40
0.9356925335
 40
1.0
 40
1.0
 40
1.0
 40
1.0
 10
7.1344576797
 20
7.3633825191
 30
0.0
 10
7.124559843
 20
7.3588984259
 30
0.0
 10
7.1049416899
 20
7.3483062889
 30
0.0
 10
7.0819853485
 20
7.3320972137
 30
0.0
 10
7.0643449877
 20
7.3172380669
 30
0.0
 10
7.0471905917
 20
7.3010235303
 30
0.0
 10
7.0273641626
 20
7.2786745018
 30
0.0
 10
7.0069829308
 20
7.2488842201
 30
0.0
 10
6.9936564834
 20
7.2216886637
 30
0.0
 10
6.9857824206
 20
7.198786507
 30
0.0
 10
6.9814342177
 20
7.181108078
 30
0.0
 10
6.9787730696
 20
7.1630995753
 30
0.0
 10
6.9781620324
 20
7.1509737924
 30
0.0
 10
6.9781620324
 20
7.1449195021
 30
0.0
  0
SPLINE
  5
265
100
AcDbEntity
  8
0
100
AcDbSpline
 62
7
  6
CONTINUOUS
 70
0
 71
3
 72
18
 73
14
 74
0
 42
0.0000001
 43
0.0000001
 44
0.0000000001
 40
0.0
 40
0.0
 40
0.0
 40
0.0
 40
0.1282507059
 40
0.1924496376
 40
0.2566036379
 40
0.3207019523
 40
0.3846928309
 40
0.4485546823
 40
0.512210912
 40
0.6384791486
 40
0.7627373925
 40
0.8837698417
 40
1.0
 40
1.0
 40
1.0
 40
1.0
 10
6.9781620324
 20
7.1449195021
 30
0.0
 10
6.9781620324
 20
7.1331011368
 30
0.0
 10
6.9798996562
 20
7.1153109237
 30
0.0
 10
6.9854343301
 20
7.0923009206
 30
0.0
 10
6.9910844787
 20
7.0754656534
 30
0.0
 10
6.9980802379
 20
7.0591707408
 30
0.0
 10
7.0062897738
 20
7.0434845806
 30
0.0
 10
7.01557309
 20
7.0284591965
 30
0.0
 10
7.0291639657
 20
7.0094101006
 30
0.0
 10
7.0481518081
 20
6.9874546816
 30
0.0
 10
7.0734037048
 20
6.9642280897
 30
0.0
 10
7.1003290814
 20
6.9444984841
 30
0.0
 10
7.1193934547
 20
6.9336625853
 30
0.0
 10
7.1290346485
 20
6.9289972077
 30
0.0
  0
SPLINE
  5
266
100
AcDbEntity
  8
0
100
AcDbSpline
 62
7
  6
CONTINUOUS
 70
0
 71
3
 72
11
 73
7
 74
0
 42
0.0000001
 43
0.0000001
 44
0.0000000001
 40
0.0
 40
0.0
 40
0.0
 40
0.0
 40
0.2694978593
 40
0.5267208381
 40
0.770479644
 40
1.0
 40
1.0
 40
1.0
 40
1.0
 10
7.1339223458
 20
6.9267001274
 30
0.0
 10
7.1397620087
 20
6.9240370093
 30
0.0
 10
7.1513970908
 20
6.9192987625
 30
0.0
 10
7.1689888511
 20
6.9139768171
 30
0.0
 10
7.1861112922
 20
6.9107129226
 30
0.0
 10
7.1973912282
 20
6.9099195021
 30
0.0
 10
7.2028573857
 20
6.9099195021
 30
0.0
  0
SPLINE
  5
267
100
AcDbEntity
  8
0
100
AcDbSpline
 62
7
  6
CONTINUOUS
 70
0
 71
3
 72
17
 73
13
 74
0
 42
0.0000001
 43
0.0000001
 44
0.0000000001
 40
0.0
 40
0.0
 40
0.0
 40
0.0
 40
0.0640156048
 40
0.1280314344
 40
0.192025168
 40
0.2559924331
 40
0.3836495719
 40
0.5108177047
 40
0.6369775337
 40
0.7613439104
 40
0.8828219693
 40
1.0
 40
1.0
 40
1.0
 40
1.0
 10
6.8972226531
 20
7.1449195021
 30
0.0
 10
6.8972226531
 20
7.1506505042
 30
0.0
 10
6.8966856644
 20
7.1621196662
 30
0.0
 10
6.8942958124
 20
7.1791665911
 30
0.0
 10
6.8903904192
 20
7.1959272805
 30
0.0
 10
6.8833113679
 20
7.217713239
 30
0.0
 10
6.8712491934
 20
7.2437103228
 30
0.0
 10
6.8526826007
 20
7.2724314257
 30
0.0
 10
6.8309493286
 20
7.2984348209
 30
0.0
 10
6.806826107
 20
7.3214923768
 30
0.0
 10
6.781006539
 20
7.3413275358
 30
0.0
 10
6.7626822623
 20
7.352424501
 30
0.0
 10
6.7533903556
 20
7.3572936267
 30
0.0
  0
SPLINE
  5
268
100
AcDbEntity
  8
0
100
AcDbSpline
 62
7
  6
CONTINUOUS
 70
0
 71
3
 72
9
 73
5
 74
0
 42
0.0000001
 43
0.0000001
 44
0.0000000001
 40
0.0
 40
0.0
 40
0.0
 40
0.0
 40
0.2538477575
 40
1.0
 40
1.0
 40
1.0
 40
1.0
 10
6.7533903556
 20
7.3572936267
 30
0.0
 10
6.7517835384
 20
7.3581356277
 30
0.0
 10
6.745418179
 20
7.3613841418
 30
0.0
 10
6.7389099803
 20
7.3643545315
 30
0.0
 10
6.7339819582
 20
7.3663909465
 30
0.0
  0
SPLINE
  5
269
100
AcDbEntity
  8
0
100
AcDbSpline
 62
7
  6
CONTINUOUS
 70
0
 71
3
 72
10
 73
6
 74
0
 42
0.0000001
 43
0.0000001
 44
0.0000000001
 40
0.0
 40
0.0
 40
0.0
 40
0.0
 40
0.2682366831
 40
0.524884488
 40
1.0
 40
1.0
 40
1.0
 40
1.0
 10
6.7339819582
 20
7.3663909465
 30
0.0
 10
6.7287549448
 20
7.368550914
 30
0.0
 10
6.7183546628
 20
7.3723868735
 30
0.0
 10
6.698008509
 20
7.3779520037
 30
0.0
 10
6.6825451172
 20
7.3799193671
 30
0.0
 10
6.6725274023
 20
7.3799193656
 30
0.0
  0
SPLINE
  5
26A
100
AcDbEntity
  8
0
100
AcDbSpline
 62
7
  6
CONTINUOUS
 70
0
 71
3
 72
35
 73
31
 74
0
 42
0.0000001
 43
0.0000001
 44
0.0000000001
 40
0.0
 40
0.0
 40
0.0
 40
0.0
 40
0.0257152867
 40
0.0517105843
 40
0.0781730286
 40
0.1052951067
 40
0.1332471742
 40
0.1621503948
 40
0.1920699211
 40
0.2230329594
 40
0.2879312934
 40
0.3563947519
 40
0.3917006668
 40
0.4275116459
 40
0.4636676423
 40
0.4999974083
 40
0.5363271338
 40
0.5724829173
 40
0.6082935788
 40
0.6435991704
 40
0.7120623249
 40
0.7769612786
 40
0.8079250517
 40
0.8378454018
 40
0.8667494826
 40
0.8947022772
 40
0.9218252958
 40
0.94828868
 40
0.9742845518
 40
1.0
 40
1.0
 40
1.0
 40
1.0
 10
7.9099641669
 20
7.3674195021
 30
0.0
 10
7.9151128403
 20
7.3674195021
 30
0.0
 10
7.9254799218
 20
7.3666914366
 30
0.0
 10
7.9408411119
 20
7.3634590636
 30
0.0
 10
7.95589664
 20
7.3581021381
 30
0.0
 10
7.9704873998
 20
7.350685979
 30
0.0
 10
7.9844768857
 20
7.3412889259
 30
0.0
 10
7.9977341336
 20
7.3300061927
 30
0.0
 10
8.0101403237
 20
7.3169522543
 30
0.0
 10
8.0256177903
 20
7.2970420591
 30
0.0
 10
8.0420750713
 20
7.2683436345
 30
0.0
 10
8.0539490825
 20
7.2365805851
 30
0.0
 10
8.0607920143
 20
7.2094644148
 30
0.0
 10
8.0645338193
 20
7.188295142
 30
0.0
 10
8.066789918
 20
7.1667123363
 30
0.0
 10
8.0675479808
 20
7.1449210949
 30
0.0
 10
8.0667900909
 20
7.1231298959
 30
0.0
 10
8.0645343619
 20
7.1015471624
 30
0.0
 10
8.0607926281
 20
7.0803780524
 30
0.0
 10
8.0539503124
 20
7.0532619288
 30
0.0
 10
8.0420766432
 20
7.0214987277
 30
0.0
 10
8.0256196124
 20
6.9927999518
 30
0.0
 10
8.0101423268
 20
6.972889047
 30
0.0
 10
7.9977358371
 20
6.9598347354
 30
0.0
 10
7.984478598
 20
6.9485512427
 30
0.0
 10
7.9704886941
 20
6.9391538894
 30
0.0
 10
7.9558976013
 20
6.9317372364
 30
0.0
 10
7.9408415989
 20
6.9263801467
 30
0.0
 10
7.9254801012
 20
6.9231476318
 30
0.0
 10
7.9151128727
 20
6.9224195021
 30
0.0
 10
7.9099641669
 20
6.9224195021
 30
0.0
  0
SPLINE
  5
26B
100
AcDbEntity
  8
0
100
AcDbSpline
 62
7
  6
CONTINUOUS
 70
0
 71
3
 72
10
 73
6
 74
0
 42
0.0000001
 43
0.0000001
 44
0.0000000001
 40
0.0
 40
0.0
 40
0.0
 40
0.0
 40
0.4751163548
 40
0.7317639152
 40
1.0
 40
1.0
 40
1.0
 40
1.0
 10
6.6725274023
 20
6.9099196387
 30
0.0
 10
6.6825447294
 20
6.9099196402
 30
0.0
 10
6.6980075069
 20
6.911886846
 30
0.0
 10
6.7183528845
 20
6.917451577
 30
0.0
 10
6.7287527692
 20
6.9212872622
 30
0.0
 10
6.7339795844
 20
6.9234470769
 30
0.0
  0
SPLINE
  5
26C
100
AcDbEntity
  8
0
100
AcDbSpline
 62
7
  6
CONTINUOUS
 70
0
 71
3
 72
9
 73
5
 74
0
 42
0.0000001
 43
0.0000001
 44
0.0000000001
 40
0.0
 40
0.0
 40
0.0
 40
0.0
 40
0.2460995429
 40
1.0
 40
1.0
 40
1.0
 40
1.0
 10
6.7339795844
 20
6.9234470769
 30
0.0
 10
6.7356045568
 20
6.9241185449
 30
0.0
 10
6.7421745286
 20
6.926926259
 30
0.0
 10
6.74861216
 20
6.9300417158
 30
0.0
 10
6.7533830838
 20
6.9325415671
 30
0.0
  0
SPLINE
  5
26D
100
AcDbEntity
  8
0
100
AcDbSpline
 62
7
  6
CONTINUOUS
 70
0
 71
3
 72
17
 73
13
 74
0
 42
0.0000001
 43
0.0000001
 44
0.0000000001
 40
0.0
 40
0.0
 40
0.0
 40
0.0
 40
0.117177037
 40
0.2386546661
 40
0.3630210757
 40
0.4891808097
 40
0.6163491375
 40
0.7440065906
 40
0.8079741057
 40
0.8719681313
 40
0.9359842317
 40
1.0
 40
1.0
 40
1.0
 40
1.0
 10
6.7533830838
 20
6.9325415671
 30
0.0
 10
6.762675354
 20
6.9374104972
 30
0.0
 10
6.7810004005
 20
6.9485072192
 30
0.0
 10
6.8068211259
 20
6.9683423047
 30
0.0
 10
6.8309455135
 20
6.9914000565
 30
0.0
 10
6.8526799133
 20
7.0174038757
 30
0.0
 10
6.8712475427
 20
7.0461255996
 30
0.0
 10
6.8833104482
 20
7.0721233889
 30
0.0
 10
6.890389963
 20
7.0939100143
 30
0.0
 10
6.8942956087
 20
7.1106712602
 30
0.0
 10
6.8966856318
 20
7.1277187587
 30
0.0
 10
6.8972226531
 20
7.1391883105
 30
0.0
 10
6.8972226531
 20
7.1449195021
 30
0.0
  0
SPLINE
  5
26E
100
AcDbEntity
  8
0
100
AcDbSpline
 62
7
  6
CONTINUOUS
 70
0
 71
3
 72
21
 73
17
 74
0
 42
0.0000001
 43
0.0000001
 44
0.0000000001
 40
0.0
 40
0.0
 40
0.0
 40
0.0
 40
0.0726016691
 40
0.1449576655
 40
0.287118499
 40
0.3564088352
 40
0.4241378997
 40
0.5539373588
 40
0.6158621616
 40
0.6756991395
 40
0.7335057059
 40
0.7894162993
 40
0.8436648673
 40
0.8965698443
 40
0.9485292074
 40
1.0
 40
1.0
 40
1.0
 40
1.0
 10
5.8080892598
 20
7.1449195021
 30
0.0
 10
5.8080892598
 20
7.1521876741
 30
0.0
 10
5.8085956994
 20
7.1667055428
 30
0.0
 10
5.8115832715
 20
7.1953085362
 30
0.0
 10
5.8175096153
 20
7.2232176443
 30
0.0
 10
5.8263623733
 20
7.2497531066
 30
0.0
 10
5.8367687088
 20
7.2743741638
 30
0.0
 10
5.8497669073
 20
7.2970427645
 30
0.0
 10
5.8652437793
 20
7.3169510882
 30
0.0
 10
5.8776496566
 20
7.3300056179
 30
0.0
 10
5.8909071163
 20
7.3412890316
 30
0.0
 10
5.9048987709
 20
7.350685313
 30
0.0
 10
5.9194893411
 20
7.3580999568
 30
0.0
 10
5.9345395598
 20
7.363457872
 30
0.0
 10
5.9498994586
 20
7.3666927296
 30
0.0
 10
5.9602677642
 20
7.3674188348
 30
0.0
 10
5.9654205186
 20
7.3674187847
 30
0.0
  0
SPLINE
  5
26F
100
AcDbEntity
  8
0
100
AcDbSpline
 62
7
  6
CONTINUOUS
 70
0
 71
3
 72
11
 73
7
 74
0
 42
0.0000001
 43
0.0000001
 44
0.0000000001
 40
0.0
 40
0.0
 40
0.0
 40
0.0
 40
0.2371359922
 40
0.4807729486
 40
0.7342131841
 40
1.0
 40
1.0
 40
1.0
 40
1.0
 10
6.6247300886
 20
6.9222819079
 30
0.0
 10
6.6281145947
 20
6.9202486891
 30
0.0
 10
6.6352906561
 20
6.9166267615
 30
0.0
 10
6.6469232088
 20
6.9127420334
 30
0.0
 10
6.6594459669
 20
6.9104084589
 30
0.0
 10
6.668102098
 20
6.909919638
 30
0.0
 10
6.6725274023
 20
6.9099196387
 30
0.0
  0
SPLINE
  5
270
100
AcDbEntity
  8
0
100
AcDbSpline
 62
7
  6
CONTINUOUS
 70
0
 71
3
 72
9
 73
5
 74
0
 42
0.0000001
 43
0.0000001
 44
0.0000000001
 40
0.0
 40
0.0
 40
0.0
 40
0.0
 40
0.2529751218
 40
1.0
 40
1.0
 40
1.0
 40
1.0
 10
7.1851875658
 20
6.9222132466
 30
0.0
 10
7.1835348107
 20
6.9214259178
 30
0.0
 10
7.1769393579
 20
6.9184463048
 30
0.0
 10
7.1700972555
 20
6.9160092817
 30
0.0
 10
7.1648973748
 20
6.9145307469
 30
0.0
  0
SPLINE
  5
271
100
AcDbEntity
  8
0
100
AcDbSpline
 62
7
  6
CONTINUOUS
 70
0
 71
3
 72
9
 73
5
 74
0
 42
0.0000001
 43
0.0000001
 44
0.0000000001
 40
0.0
 40
0.0
 40
0.0
 40
0.0
 40
0.2530148295
 40
1.0
 40
1.0
 40
1.0
 40
1.0
 10
6.6901971196
 20
7.3676257576
 30
0.0
 10
6.6918745353
 20
7.3684248341
 30
0.0
 10
6.6985682712
 20
7.3714464223
 30
0.0
 10
6.7055159733
 20
7.3739089724
 30
0.0
 10
6.7107961807
 20
7.3753956516
 30
0.0
  0
SPLINE
  5
272
100
AcDbEntity
  8
0
100
AcDbSpline
 62
7
  6
CONTINUOUS
 70
0
 71
3
 72
9
 73
5
 74
0
 42
0.0000001
 43
0.0000001
 44
0.0000000001
 40
0.0
 40
0.0
 40
0.0
 40
0.0
 40
0.2474877986
 40
1.0
 40
1.0
 40
1.0
 40
1.0
 10
7.1652903
 20
7.3751958195
 30
0.0
 10
7.1669688349
 20
7.3747126072
 30
0.0
 10
7.1737096381
 20
7.3726181295
 30
0.0
 10
7.1802739475
 20
7.3699608085
 30
0.0
 10
7.1850708779
 20
7.3676812197
 30
0.0
  0
SPLINE
  5
273
100
AcDbEntity
  8
0
100
AcDbSpline
 62
7
  6
CONTINUOUS
 70
0
 71
3
 72
35
 73
31
 74
0
 42
0.0000001
 43
0.0000001
 44
0.0000000001
 40
0.0
 40
0.0
 40
0.0
 40
0.0
 40
0.0257152867
 40
0.0517105843
 40
0.0781730286
 40
0.1052951067
 40
0.1332471742
 40
0.1621503948
 40
0.1920699211
 40
0.2230329594
 40
0.2879312934
 40
0.3563947519
 40
0.3917006668
 40
0.4275116459
 40
0.4636676423
 40
0.4999974083
 40
0.5363271338
 40
0.5724829173
 40
0.6082935788
 40
0.6435991704
 40
0.7120623249
 40
0.7769612786
 40
0.8079250517
 40
0.8378454018
 40
0.8667494826
 40
0.8947022772
 40
0.9218252958
 40
0.94828868
 40
0.9742845518
 40
1.0
 40
1.0
 40
1.0
 40
1.0
 10
7.9099641669
 20
6.9224195021
 30
0.0
 10
7.9048154934
 20
6.9224195021
 30
0.0
 10
7.894448412
 20
6.9231475676
 30
0.0
 10
7.8790872219
 20
6.9263799407
 30
0.0
 10
7.8640316937
 20
6.9317368662
 30
0.0
 10
7.849440934
 20
6.9391530253
 30
0.0
 10
7.8354514481
 20
6.9485500784
 30
0.0
 10
7.8221942001
 20
6.9598328116
 30
0.0
 10
7.80978801
 20
6.97288675
 30
0.0
 10
7.7943105434
 20
6.9927969452
 30
0.0
 10
7.7778532625
 20
7.0214953698
 30
0.0
 10
7.7659792513
 20
7.0532584192
 30
0.0
 10
7.7591363194
 20
7.0803745895
 30
0.0
 10
7.7553945145
 20
7.1015438623
 30
0.0
 10
7.7531384158
 20
7.123126668
 30
0.0
 10
7.7523803529
 20
7.1449179094
 30
0.0
 10
7.7531382428
 20
7.1667091084
 30
0.0
 10
7.7553939719
 20
7.1882918419
 30
0.0
 10
7.7591357056
 20
7.2094609519
 30
0.0
 10
7.7659780214
 20
7.2365770755
 30
0.0
 10
7.7778516905
 20
7.2683402765
 30
0.0
 10
7.7943087214
 20
7.2970390525
 30
0.0
 10
7.8097860069
 20
7.3169499573
 30
0.0
 10
7.8221924966
 20
7.3300042689
 30
0.0
 10
7.8354497357
 20
7.3412877615
 30
0.0
 10
7.8494396396
 20
7.3506851149
 30
0.0
 10
7.8640307324
 20
7.3581017679
 30
0.0
 10
7.8790867348
 20
7.3634588575
 30
0.0
 10
7.8944482325
 20
7.3666913725
 30
0.0
 10
7.904815461
 20
7.3674195021
 30
0.0
 10
7.9099641669
 20
7.3674195021
 30
0.0
  0
SPLINE
  5
274
100
AcDbEntity
  8
0
100
AcDbSpline
 62
7
  6
CONTINUOUS
 70
0
 71
3
 72
11
 73
7
 74
0
 42
0.0000001
 43
0.0000001
 44
0.0000000001
 40
0.0
 40
0.0
 40
0.0
 40
0.0
 40
0.2657870304
 40
0.519227251
 40
0.7628641265
 40
1.0
 40
1.0
 40
1.0
 40
1.0
 10
6.6725274023
 20
7.3799193656
 30
0.0
 10
6.6681020462
 20
7.3799193649
 30
0.0
 10
6.6594458171
 20
7.3794305364
 30
0.0
 10
6.6469229253
 20
7.3770969051
 30
0.0
 10
6.6352902649
 20
7.3732120867
 30
0.0
 10
6.6281141484
 20
7.3695900797
 30
0.0
 10
6.6247296212
 20
7.3675568162
 30
0.0
  0
SPLINE
  5
275
100
AcDbEntity
  8
0
100
AcDbSpline
 62
7
  6
CONTINUOUS
 70
0
 71
3
 72
9
 73
5
 74
0
 42
0.0000001
 43
0.0000001
 44
0.0000000001
 40
0.0
 40
0.0
 40
0.0
 40
0.0
 40
0.2474257579
 40
1.0
 40
1.0
 40
1.0
 40
1.0
 10
6.7108020662
 20
6.9144417183
 30
0.0
 10
6.7090628045
 20
6.9149313141
 30
0.0
 10
6.7020770052
 20
6.9170626852
 30
0.0
 10
6.6952775916
 20
6.9197989039
 30
0.0
 10
6.6903138075
 20
6.9221577845
 30
0.0
  0
SPLINE
  5
276
100
AcDbEntity
  8
0
100
AcDbSpline
 62
7
  6
CONTINUOUS
 70
0
 71
3
 72
21
 73
17
 74
0
 42
0.0000001
 43
0.0000001
 44
0.0000000001
 40
0.0
 40
0.0
 40
0.0
 40
0.0
 40
0.0514702653
 40
0.1034287619
 40
0.156332756
 40
0.2105799718
 40
0.2664894738
 40
0.3242948265
 40
0.3841310709
 40
0.4460557065
 40
0.5758563308
 40
0.6435860602
 40
0.7128773594
 40
0.8550416079
 40
0.9273985282
 40
1.0
 40
1.0
 40
1.0
 40
1.0
 10
5.9654205186
 20
7.3674187847
 30
0.0
 10
5.9705732191
 20
7.3674187346
 30
0.0
 10
5.9809413691
 20
7.3666927204
 30
0.0
 10
5.9963010884
 20
7.363458081
 30
0.0
 10
6.0113509163
 20
7.3581000817
 30
0.0
 10
6.0259413946
 20
7.3506860149
 30
0.0
 10
6.0399325777
 20
7.3412896938
 30
0.0
 10
6.0531901582
 20
7.3300069156
 30
0.0
 10
6.0655958384
 20
7.3169524801
 30
0.0
 10
6.0810730599
 20
7.2970444115
 30
0.0
 10
6.0940713207
 20
7.2743756529
 30
0.0
 10
6.1044782039
 20
7.2497545336
 30
0.0
 10
6.1133310928
 20
7.2232185802
 30
0.0
 10
6.1192576749
 20
7.19530899
 30
0.0
 10
6.1222452965
 20
7.1667055891
 30
0.0
 10
6.1227517774
 20
7.1521876527
 30
0.0
 10
6.1227517774
 20
7.1449195021
 30
0.0
  0
SPLINE
  5
277
100
AcDbEntity
  8
0
100
AcDbSpline
 62
7
  6
CONTINUOUS
 70
0
 71
3
 72
11
 73
7
 74
0
 42
0.0000001
 43
0.0000001
 44
0.0000000001
 40
0.0
 40
0.0
 40
0.0
 40
0.0
 40
0.2652777097
 40
0.5189105197
 40
0.7627821892
 40
1.0
 40
1.0
 40
1.0
 40
1.0
 10
7.2028573857
 20
6.9099195021
 30
0.0
 10
7.2071542606
 20
6.9099195021
 30
0.0
 10
7.2155691005
 20
6.9103856496
 30
0.0
 10
7.2277615784
 20
6.9125812193
 30
0.0
 10
7.2391216816
 20
6.9162476009
 30
0.0
 10
7.2461564456
 20
6.9196700271
 30
0.0
 10
7.2494831388
 20
6.9215927657
 30
0.0
  0
SPLINE
  5
278
100
AcDbEntity
  8
0
100
AcDbSpline
 62
7
  6
CONTINUOUS
 70
0
 71
3
 72
11
 73
7
 74
0
 42
0.0000001
 43
0.0000001
 44
0.0000000001
 40
0.0
 40
0.0
 40
0.0
 40
0.0
 40
0.2372321332
 40
0.4812694211
 40
0.7349347542
 40
1.0
 40
1.0
 40
1.0
 40
1.0
 10
7.2489110719
 20
7.3685733821
 30
0.0
 10
7.2456142143
 20
7.3704440178
 30
0.0
 10
7.2386496553
 20
7.3737732691
 30
0.0
 10
7.2274219027
 20
7.3773305795
 30
0.0
 10
7.215390491
 20
7.3794652039
 30
0.0
 10
7.2070927007
 20
7.3799195021
 30
0.0
 10
7.2028573857
 20
7.3799195021
 30
0.0
  0
SPLINE
  5
279
100
AcDbEntity
  8
0
100
AcDbSpline
 62
7
  6
CONTINUOUS
 70
0
 71
3
 72
21
 73
17
 74
0
 42
0.0000001
 43
0.0000001
 44
0.0000000001
 40
0.0
 40
0.0
 40
0.0
 40
0.0
 40
0.0726016691
 40
0.1449576655
 40
0.287118499
 40
0.3564088352
 40
0.4241378997
 40
0.5539373588
 40
0.6158621616
 40
0.6756991395
 40
0.7335057059
 40
0.7894162993
 40
0.8436648673
 40
0.8965698443
 40
0.9485292074
 40
1.0
 40
1.0
 40
1.0
 40
1.0
 10
6.1227517774
 20
7.1449195021
 30
0.0
 10
6.1227517774
 20
7.1376513302
 30
0.0
 10
6.1222453378
 20
7.1231334615
 30
0.0
 10
6.1192577657
 20
7.094530468
 30
0.0
 10
6.1133314219
 20
7.06662136
 30
0.0
 10
6.1044786639
 20
7.0400858977
 30
0.0
 10
6.0940723284
 20
7.0154648405
 30
0.0
 10
6.0810741299
 20
6.9927962398
 30
0.0
 10
6.0655972579
 20
6.9728879161
 30
0.0
 10
6.0531913806
 20
6.9598333864
 30
0.0
 10
6.0399339209
 20
6.9485499727
 30
0.0
 10
6.0259422663
 20
6.9391536913
 30
0.0
 10
6.0113516961
 20
6.9317390475
 30
0.0
 10
5.9963014774
 20
6.9263811323
 30
0.0
 10
5.9809415786
 20
6.9231462747
 30
0.0
 10
5.970573273
 20
6.9224201695
 30
0.0
 10
5.9654205186
 20
6.9224202196
 30
0.0
  0
ENDSEC
  0
SECTION
  2
OBJECTS
  0
DICTIONARY
  5
C
100
AcDbDictionary
280
0
281
1
  3
ACAD_GROUP
350
D
  3
ACAD_MLINESTYLE
350
17
  3
ACAD_LAYOUT
350
1A
  3
ACAD_PLOTSETTINGS
350
19
  3
ACAD_PLOTSTYLENAME
350
E
  0
DICTIONARY
  5
D
102
{ACAD_REACTORS
330
C
102
}
100
AcDbDictionary
280
0
281
1
  0
ACDBDICTIONARYWDFLT
  5
E
102
{ACAD_REACTORS
330
C
102
}
100
AcDbDictionary
281
1
  3
Normal
350
F
100
AcDbDictionaryWithDefault
340
F
  0
DICTIONARY
  5
17
102
{ACAD_REACTORS
330
C
102
}
100
AcDbDictionary
280
0
281
1
  3
Standard
350
18
  0
DICTIONARY
  5
19
102
{ACAD_REACTORS
330
C
102
}
100
AcDbDictionary
281
1
  0
DICTIONARY
  5
1A
102
{ACAD_REACTORS
330
C
102
}
100
AcDbDictionary
281
1
  3
Model
350
27A
  3
Layout1
350
27B
  0
ACDBPLACEHOLDER
  5
F
102
{ACAD_REACTORS
330
E
102
}
  0
MLINESTYLE
  5
18
102
{ACAD_REACTORS
330
17
102
}
100
AcDbMlineStyle
  2
STANDARD
 70
0
  3

 62
256
 51
90.0
 52
90.0
 71
2
 49
0.5
 62
256
  6
BYLAYER
 49
-0.5
 62
256
  6
BYLAYER
  0
LAYOUT
  5
27A
102
{ACAD_REACTORS
330
1A
102
}
100
AcDbPlotSettings
  1

  2
none_device
  4
ANSI_C_(22.00_x_17.00_Inches)
  6

 40
0.0
 41
0.0
 42
0.0
 43
0.0
 44
558.8
 45
431.8
 46
0.0
 47
0.0
 48
0.0
 49
0.0
140
0.0
141
0.0
142
1.0
143
1.0
 70
1024
 72
0
 73
0
 74
0
  7

 75
0
147
1.0
148
0.0
149
0.0
100
AcDbLayout
  1
Model
 70
0
 71
0
 10
0.0
 20
0.0
 11
22.0
 21
17.0
 12
0.0
 22
0.0
 32
0.0
 14
0.0
 24
0.0
 34
0.0
 15
0.0
 25
0.0
 35
0.0
146
0.0
 13
0.0
 23
0.0
 33
0.0
 16
1.0
 26
0.0
 36
0.0
 17
0.0
 27
1.0
 37
0.0
 76
0
330
202
345
0
346
0
  0
LAYOUT
  5
27B
102
{ACAD_REACTORS
330
1A
102
}
100
AcDbPlotSettings
  1

  2
none_device
  4
ANSI_C_(22.00_x_17.00_Inches)
  6

 40
0.0
 41
0.0
 42
0.0
 43
0.0
 44
558.8
 45
431.8
 46
0.0
 47
0.0
 48
0.0
 49
0.0
140
0.0
141
0.0
142
1.0
143
1.0
 70
0
 72
0
 73
0
 74
0
  7

 75
0
147
1.0
148
0.0
149
0.0
100
AcDbLayout
  1
Layout1
 70
0
 71
1
 10
0.0
 20
0.0
 11
22.0
 21
17.0
 12
0.0
 22
0.0
 32
0.0
 14
0.0
 24
0.0
 34
0.0
 15
0.0
 25
0.0
 35
0.0
146
0.0
 13
0.0
 23
0.0
 33
0.0
 16
1.0
 26
0.0
 36
0.0
 17
0.0
 27
1.0
 37
0.0
 76
0
330
203
345
0
346
0
  0
ENDSEC
  0
EOF
