999
DXF file: E:\BT Custom\CADOUTPUT\_TOP.dxf
999
Pro/ENGINEER 2018400 by Parametric Technology Corporation
  0
SECTION
  2
HEADER
  9
$ACADVER
  1
AC1018
  9
$DWGCODEPAGE
  3
ANSI_1252
  9
$EXTMAX
 10
22.0
 20
17.0
 30
0.0
  9
$EXTMIN
 10
0.0
 20
0.0
 30
0.0
  9
$LIMMIN
 10
0.0
 20
0.0
  9
$LIMMAX
 10
22.0
 20
17.0
  9
$VIEWCTR
 10
11.0
 20
8.5
  9
$VIEWSIZE
 40
17.0
  9
$CLAYER
  8
0
  9
$LTSCALE
 40
1.21
  9
$CELTYPE
  6
BYLAYER
  9
$DIMSCALE
 40
1.0
  9
$DIMASZ
 40
0.1
  9
$DIMEXO
 40
0.0625
  9
$DIMDLI
 40
0.836
  9
$DIMEXE
 40
0.125
  9
$DIMCEN
 40
0.198
  9
$DIMLFAC
 40
1.0
  9
$DIMBLK
  1
_FILLED
  9
$DIMALT
 70
1
  9
$DIMALTD
 70
2
  9
$DIMALTTD
 70
2
  9
$DIMALTF
 40
25.4
  9
$DIMTXT
 40
0.08
  9
$DIMTOL
 70
1
  9
$DIMLIM
 70
0
  9
$DIMTFAC
 40
1.0
  9
$DIMTP
 40
0.001
  9
$DIMTM
 40
0.001
  9
$DIMGAP
 40
0.09
  9
$DIMDSEP
 70
46
  9
$AUNITS
 70
0
  9
$PDMODE
 70
3
  9
$PDSIZE
 40
0.06
  9
$HANDSEED
  5
27F
  9
$TILEMODE
 70
1
  9
$MEASUREMENT
 70
0
  9
$INSUNITS
 70
1
  0
ENDSEC
  0
SECTION
  2
CLASSES
  0
CLASS
  1
ACDBDICTIONARYWDFLT
  2
AcDbDictionaryWithDefault
  3
AutoCAD 2000
 90
0
 91
1
280
0
281
0
  0
CLASS
  1
ACDBPLACEHOLDER
  2
AcDbPlaceHolder
  3
AutoCAD 2000
 90
0
 91
1
280
0
281
0
  0
CLASS
  1
LAYOUT
  2
AcDbLayout
  3
AutoCAD 2000
 90
0
 91
0
280
0
281
0
  0
ENDSEC
  0
SECTION
  2
TABLES
  0
TABLE
  2
VPORT
  5
8
100
AcDbSymbolTable
 70
2
  0
VPORT
  5
1F4
100
AcDbSymbolTableRecord
100
AcDbViewportTableRecord
  2
*ACTIVE
 70
0
 10
0.0
 20
0.0
 11
1.0
 21
1.0
 12
11.0
 22
8.5
 13
0.0
 23
0.0
 14
1.0
 24
1.0
 15
0.0
 25
0.0
 16
0.0
 26
0.0
 36
1.0
 17
0.0
 27
0.0
 37
0.0
 40
17.0
 41
1.2941176471
 42
50.0
 43
0.0
 44
0.0
 50
0.0
 51
0.0
 71
0
 72
100
 73
1
 74
1
 75
0
 76
0
 77
0
 78
0
  0
ENDTAB
  0
TABLE
  2
LTYPE
  5
5
100
AcDbSymbolTable
 70
6
  0
LTYPE
  5
14
100
AcDbSymbolTableRecord
100
AcDbLinetypeTableRecord
  2
BYBLOCK
 70
0
  3

 72
65
 73
0
 40
0.0
  0
LTYPE
  5
15
100
AcDbSymbolTableRecord
100
AcDbLinetypeTableRecord
  2
BYLAYER
 70
0
  3

 72
65
 73
0
 40
0.0
  0
LTYPE
  5
16
100
AcDbSymbolTableRecord
100
AcDbLinetypeTableRecord
  2
CONTINUOUS
 70
64
  3
Solid line
 72
65
 73
0
 40
0.0
  0
LTYPE
  5
1F5
100
AcDbSymbolTableRecord
100
AcDbLinetypeTableRecord
  2
CENTER
 70
64
  3
____ _ ____ _ ____ _ ____ _ ____ _ ____ _ ____
 72
65
 73
4
 40
0.6
 49
0.375
 74
0
 49
-0.075
 74
0
 49
0.075
 74
0
 49
-0.075
 74
0
  0
LTYPE
  5
1F6
100
AcDbSymbolTableRecord
100
AcDbLinetypeTableRecord
  2
HIDDEN
 70
64
  3
- - - - - - - - - - - - - - - - - - - -
 72
65
 73
2
 40
0.2
 49
0.1
 74
0
 49
-0.1
 74
0
  0
LTYPE
  5
1F7
100
AcDbSymbolTableRecord
100
AcDbLinetypeTableRecord
  2
PHANTOM
 70
64
  3
_____ _ _ _____ _ _ _____ _ _ _____
 72
65
 73
6
 40
0.8
 49
0.45
 74
0
 49
-0.05
 74
0
 49
0.1
 74
0
 49
-0.05
 74
0
 49
0.1
 74
0
 49
-0.05
 74
0
  0
LTYPE
  5
1F8
100
AcDbSymbolTableRecord
100
AcDbLinetypeTableRecord
  2
DOT
 70
64
  3
. . . . . . . . . . . . . . . . . . . .
 72
65
 73
2
 40
0.2
 49
0.1
 74
0
 49
-0.1
 74
0
  0
LTYPE
  5
1F9
100
AcDbSymbolTableRecord
100
AcDbLinetypeTableRecord
  2
DASHED
 70
64
  3
- - - - - - - - - - - - - - - - - - - -
 72
65
 73
2
 40
0.2
 49
0.1
 74
0
 49
-0.1
 74
0
  0
ENDTAB
  0
TABLE
  2
LAYER
  5
2
100
AcDbSymbolTable
 70
36
  0
LAYER
  5
10
100
AcDbSymbolTableRecord
100
AcDbLayerTableRecord
  2
0
 70
0
 62
7
  6
CONTINUOUS
370
-3
390
F
  0
LAYER
  5
1FA
100
AcDbSymbolTableRecord
100
AcDbLayerTableRecord
  2
DEFAULT_1
 70
0
 62
7
  6
CENTER
370
-3
390
F
  0
LAYER
  5
1FB
100
AcDbSymbolTableRecord
100
AcDbLayerTableRecord
  2
DEFAULT_2
 70
0
 62
8
  6
HIDDEN
370
-3
390
F
  0
LAYER
  5
1FC
100
AcDbSymbolTableRecord
100
AcDbLayerTableRecord
  2
DEFAULT_3
 70
0
 62
7
  6
PHANTOM
370
-3
390
F
  0
LAYER
  5
1FD
100
AcDbSymbolTableRecord
100
AcDbLayerTableRecord
  2
ALL_FEATURES
 70
0
 62
7
  6
CONTINUOUS
370
-3
390
F
  0
LAYER
  5
1FE
100
AcDbSymbolTableRecord
100
AcDbLayerTableRecord
  2
AXES_FEATURES
 70
0
 62
7
  6
CONTINUOUS
370
-3
390
F
  0
LAYER
  5
1FF
100
AcDbSymbolTableRecord
100
AcDbLayerTableRecord
  2
DEFAULT_COORDINATE_SYSTEM
 70
0
 62
7
  6
CONTINUOUS
370
-3
390
F
  0
LAYER
  5
200
100
AcDbSymbolTableRecord
100
AcDbLayerTableRecord
  2
DEFAULT_DATUM_AXES
 70
0
 62
7
  6
CONTINUOUS
370
-3
390
F
  0
LAYER
  5
201
100
AcDbSymbolTableRecord
100
AcDbLayerTableRecord
  2
DEFAULT_DATUM_PLANES
 70
0
 62
7
  6
CONTINUOUS
370
-3
390
F
  0
LAYER
  5
202
100
AcDbSymbolTableRecord
100
AcDbLayerTableRecord
  2
DIMENSIONS
 70
0
 62
7
  6
CONTINUOUS
370
-3
390
F
  0
ENDTAB
  0
TABLE
  2
STYLE
  5
3
100
AcDbSymbolTable
 70
1
  0
STYLE
  5
11
100
AcDbSymbolTableRecord
100
AcDbTextStyleTableRecord
  2
STANDARD
 70
0
 40
0.0
 41
0.8
 50
0.0
 71
0
 42
0.2
  3
txt
  4

  0
STYLE
  5
203
100
AcDbSymbolTableRecord
100
AcDbTextStyleTableRecord
  2
TEXTSTYLE_1
 70
0
 40
0.0
 41
0.8
 50
0.0
 71
0
 42
0.2
  3
gdt
  4

  0
ENDTAB
  0
TABLE
  2
VIEW
  5
6
100
AcDbSymbolTable
 70
0
  0
ENDTAB
  0
TABLE
  2
UCS
  5
7
100
AcDbSymbolTable
 70
0
  0
ENDTAB
  0
TABLE
  2
APPID
  5
9
100
AcDbSymbolTable
 70
1
  0
APPID
  5
204
100
AcDbSymbolTableRecord
100
AcDbRegAppTableRecord
  2
ACAD
 70
0
  0
ENDTAB
  0
TABLE
  2
BLOCK_RECORD
  5
1
100
AcDbSymbolTable
 70
0
  0
BLOCK_RECORD
  5
205
100
AcDbSymbolTableRecord
100
AcDbBlockTableRecord
  2
*Model_Space
  0
BLOCK_RECORD
  5
206
100
AcDbSymbolTableRecord
100
AcDbBlockTableRecord
  2
*Paper_Space
  0
BLOCK_RECORD
  5
207
100
AcDbSymbolTableRecord
100
AcDbBlockTableRecord
  2
_FILLED
  0
ENDTAB
  0
TABLE
  2
DIMSTYLE
  5
A
100
AcDbSymbolTable
 70
1
100
AcDbDimStyleTable
 71
0
  0
DIMSTYLE
105
208
100
AcDbSymbolTableRecord
100
AcDbDimStyleTableRecord
  2
STANDARD
 70
0
  3

  4

 40
1.0
 41
0.1
 42
0.0625
 43
0.38
 44
0.125
 45
0.0
 46
0.0
 47
0.001
 48
0.001
140
0.08
141
0.09
142
0.0
143
25.4
144
1.0
145
0.0
146
1.0
147
0.09
 71
1.0
 72
0.0
 73
1
 74
1
 75
0
 76
0
 77
0
 78
4
 79
1
170
1
171
2
172
0
173
0
174
0
175
0
176
0
177
0
178
0
270
2
179
3
271
3
272
3
273
2
274
2
275
0
280
0
281
0
282
0
283
1
284
4
285
0
286
0
287
3
288
0
340
11
278
46
341
207
342
207
343
207
344
207
  0
ENDTAB
  0
ENDSEC
  0
SECTION
  2
BLOCKS
  0
BLOCK
  5
20
100
AcDbEntity
  8
0
100
AcDbBlockBegin
  2
*Model_Space
 70
0
 10
0.0
 20
0.0
 30
0.0
  3
*Model_Space
  1

  0
ENDBLK
  5
21
100
AcDbEntity
  8
0
100
AcDbBlockEnd
  0
BLOCK
  5
1C
100
AcDbEntity
  8
0
100
AcDbBlockBegin
  2
*Paper_Space
 70
0
 10
0.0
 20
0.0
 30
0.0
  3
*Paper_Space
  1

  0
ENDBLK
  5
1D
100
AcDbEntity
  8
0
100
AcDbBlockEnd
  0
BLOCK
  5
209
100
AcDbEntity
  8
0
100
AcDbBlockBegin
  2
_FILLED
 70
64
 10
0.0
 20
0.0
  3
_FILLED
  1

  0
SOLID
  5
20A
100
AcDbEntity
  8
0
  6
BYBLOCK
 62
0
100
AcDbTrace
 10
0.0
 20
0.0
 11
-1.0
 21
0.2
 12
-1.0
 22
-0.2
 13
-1.0
 23
-0.2
  0
ENDBLK
  5
20B
100
AcDbEntity
  8
0
  6
BYBLOCK
 62
0
100
AcDbBlockEnd
  0
ENDSEC
  0
SECTION
  2
ENTITIES
  0
LINE
  5
20C
100
AcDbEntity
  8
0
100
AcDbLine
 62
7
  6
CONTINUOUS
 10
1.7662653172
 20
10.9160818604
 11
1.7662653172
 21
11.3610818604
  0
LINE
  5
20D
100
AcDbEntity
  8
0
100
AcDbLine
 62
7
  6
CONTINUOUS
 10
2.9187653172
 20
12.5135818604
 11
2.9187653172
 21
11.4401561749
  0
LINE
  5
20E
100
AcDbEntity
  8
0
100
AcDbLine
 62
7
  6
CONTINUOUS
 10
2.9187653172
 20
9.7635818604
 11
2.9187653172
 21
10.8370075459
  0
LINE
  5
20F
100
AcDbEntity
  8
0
100
AcDbLine
 62
7
  6
CONTINUOUS
 10
3.3637653172
 20
12.5135818604
 11
3.3637653172
 21
11.4401561749
  0
LINE
  5
210
100
AcDbEntity
  8
0
100
AcDbLine
 62
7
  6
CONTINUOUS
 10
3.3637653172
 20
9.7635818604
 11
3.3637653172
 21
10.8370075459
  0
LINE
  5
211
100
AcDbEntity
  8
0
100
AcDbLine
 62
7
  6
CONTINUOUS
 10
4.5162653172
 20
10.9160818604
 11
4.5162653172
 21
11.3610818604
  0
LINE
  5
212
100
AcDbEntity
  8
0
100
AcDbLine
 62
7
  6
CONTINUOUS
 10
6.7037653172
 20
2.8885818604
 11
6.7037653172
 21
11.1385818604
  0
LINE
  5
213
100
AcDbEntity
  8
0
100
AcDbLine
 62
7
  6
CONTINUOUS
 10
7.5787653172
 20
2.8885818604
 11
7.5787653172
 21
11.1385818604
  0
LINE
  5
214
100
AcDbEntity
  8
0
100
AcDbLine
 62
9
  6
CONTINUOUS
 10
6.7037653172
 20
4.3885818604
 11
7.5787653172
 21
4.3885818604
  0
LINE
  5
215
100
AcDbEntity
  8
0
100
AcDbLine
 62
7
  6
CONTINUOUS
 10
9.7662653172
 20
10.9160818604
 11
9.7662653172
 21
11.3610818604
  0
LINE
  5
216
100
AcDbEntity
  8
0
100
AcDbLine
 62
7
  6
CONTINUOUS
 10
10.9187653172
 20
12.5135818604
 11
10.9187653172
 21
11.4401793988
  0
LINE
  5
217
100
AcDbEntity
  8
0
100
AcDbLine
 62
7
  6
CONTINUOUS
 10
10.9187653172
 20
9.7635818604
 11
10.9187653172
 21
10.836984322
  0
LINE
  5
218
100
AcDbEntity
  8
0
100
AcDbLine
 62
7
  6
CONTINUOUS
 10
11.3637653172
 20
12.5135818604
 11
11.3637653172
 21
11.4401793988
  0
LINE
  5
219
100
AcDbEntity
  8
0
100
AcDbLine
 62
7
  6
CONTINUOUS
 10
11.3637653172
 20
9.7635818604
 11
11.3637653172
 21
10.836984322
  0
LINE
  5
21A
100
AcDbEntity
  8
0
100
AcDbLine
 62
7
  6
CONTINUOUS
 10
12.5162653172
 20
10.9160818604
 11
12.5162653172
 21
11.3610818604
  0
LINE
  5
21B
100
AcDbEntity
  8
0
100
AcDbLine
 62
9
  6
CONTINUOUS
 10
6.7037653172
 20
9.6385818604
 11
7.5787653172
 21
9.6385818604
  0
LINE
  5
21C
100
AcDbEntity
  8
0
100
AcDbLine
 62
7
  6
CONTINUOUS
 10
2.9187653172
 20
9.7635818604
 11
3.3637653172
 21
9.7635818604
  0
LINE
  5
21D
100
AcDbEntity
  8
0
100
AcDbLine
 62
7
  6
CONTINUOUS
 10
10.9187658381
 20
9.7635818604
 11
11.3637647964
 21
9.7635818604
  0
LINE
  5
21E
100
AcDbEntity
  8
0
100
AcDbLine
 62
7
  6
CONTINUOUS
 10
15.9187657739
 20
9.7635818604
 11
16.3637648606
 21
9.7635818604
  0
LINE
  5
21F
100
AcDbEntity
  8
0
100
AcDbLine
 62
7
  6
CONTINUOUS
 10
15.8395144815
 20
10.9160818604
 11
14.7662653172
 21
10.9160818604
  0
LINE
  5
220
100
AcDbEntity
  8
0
100
AcDbLine
 62
7
  6
CONTINUOUS
 10
10.8396045584
 20
10.9160818604
 11
9.7662653172
 21
10.9160818604
  0
LINE
  5
221
100
AcDbEntity
  8
0
100
AcDbLine
 62
7
  6
CONTINUOUS
 10
2.8396298642
 20
10.9160818604
 11
1.7662653172
 21
10.9160818604
  0
LINE
  5
222
100
AcDbEntity
  8
0
100
AcDbLine
 62
7
  6
CONTINUOUS
 10
3.4429007703
 20
10.9160818604
 11
4.5162653172
 21
10.9160818604
  0
LINE
  5
223
100
AcDbEntity
  8
0
100
AcDbLine
 62
7
  6
CONTINUOUS
 10
11.442926076
 20
10.9160818604
 11
12.5162653172
 21
10.9160818604
  0
LINE
  5
224
100
AcDbEntity
  8
0
100
AcDbLine
 62
7
  6
CONTINUOUS
 10
16.4430161529
 20
10.9160818604
 11
17.5162653172
 21
10.9160818604
  0
LINE
  5
225
100
AcDbEntity
  8
0
100
AcDbLine
 62
7
  6
CONTINUOUS
 10
14.7662653172
 20
10.9160818604
 11
14.7662653172
 21
11.3610818604
  0
LINE
  5
226
100
AcDbEntity
  8
0
100
AcDbLine
 62
7
  6
CONTINUOUS
 10
15.8395144815
 20
11.3610818604
 11
14.7662653172
 21
11.3610818604
  0
LINE
  5
227
100
AcDbEntity
  8
0
100
AcDbLine
 62
7
  6
CONTINUOUS
 10
10.8396045584
 20
11.3610818604
 11
9.7662653172
 21
11.3610818604
  0
LINE
  5
228
100
AcDbEntity
  8
0
100
AcDbLine
 62
7
  6
CONTINUOUS
 10
2.8396298642
 20
11.3610818604
 11
1.7662653172
 21
11.3610818604
  0
LINE
  5
229
100
AcDbEntity
  8
0
100
AcDbLine
 62
7
  6
CONTINUOUS
 10
3.4429007703
 20
11.3610818604
 11
4.5162653172
 21
11.3610818604
  0
LINE
  5
22A
100
AcDbEntity
  8
0
100
AcDbLine
 62
7
  6
CONTINUOUS
 10
11.442926076
 20
11.3610818604
 11
12.5162653172
 21
11.3610818604
  0
LINE
  5
22B
100
AcDbEntity
  8
0
100
AcDbLine
 62
7
  6
CONTINUOUS
 10
16.4430161529
 20
11.3610818604
 11
17.5162653172
 21
11.3610818604
  0
LINE
  5
22C
100
AcDbEntity
  8
0
100
AcDbLine
 62
7
  6
CONTINUOUS
 10
15.9187653172
 20
12.5135818604
 11
15.9187653172
 21
11.440332313
  0
LINE
  5
22D
100
AcDbEntity
  8
0
100
AcDbLine
 62
7
  6
CONTINUOUS
 10
15.9187653172
 20
9.7635818604
 11
15.9187653172
 21
10.8368314078
  0
LINE
  5
22E
100
AcDbEntity
  8
0
100
AcDbLine
 62
7
  6
CONTINUOUS
 10
16.3637653172
 20
12.5135818604
 11
16.3637653172
 21
11.440332313
  0
LINE
  5
22F
100
AcDbEntity
  8
0
100
AcDbLine
 62
7
  6
CONTINUOUS
 10
16.3637653172
 20
9.7635818604
 11
16.3637653172
 21
10.8368314078
  0
LINE
  5
230
100
AcDbEntity
  8
0
100
AcDbLine
 62
7
  6
CONTINUOUS
 10
2.9187653172
 20
12.5135818604
 11
3.3637653172
 21
12.5135818604
  0
LINE
  5
231
100
AcDbEntity
  8
0
100
AcDbLine
 62
7
  6
CONTINUOUS
 10
10.9187658381
 20
12.5135818604
 11
11.3637647964
 21
12.5135818604
  0
LINE
  5
232
100
AcDbEntity
  8
0
100
AcDbLine
 62
7
  6
CONTINUOUS
 10
15.9187657739
 20
12.5135818604
 11
16.3637648606
 21
12.5135818604
  0
LINE
  5
233
100
AcDbEntity
  8
0
100
AcDbLine
 62
7
  6
CONTINUOUS
 10
17.5162653172
 20
10.9160818604
 11
17.5162653172
 21
11.3610818604
  0
LINE
  5
234
100
AcDbEntity
  8
0
100
AcDbLine
 62
7
  6
CONTINUOUS
 10
18.6412653172
 20
10.5267926296
 11
18.6412653172
 21
5.0759536995
  0
LINE
  5
235
100
AcDbEntity
  8
0
100
AcDbLine
 62
7
  6
CONTINUOUS
 10
18.6512653172
 20
10.7581961691
 11
18.6512653172
 21
10.8417585583
  0
LINE
  5
236
100
AcDbEntity
  8
0
100
AcDbLine
 62
7
  6
CONTINUOUS
 10
18.6537653172
 20
11.1385818604
 11
18.6537653172
 21
10.8782067798
  0
LINE
  5
237
100
AcDbEntity
  8
0
100
AcDbLine
 62
7
  6
CONTINUOUS
 10
18.6712653172
 20
10.8643424008
 11
18.6712653172
 21
10.6586503657
  0
LINE
  5
238
100
AcDbEntity
  8
0
100
AcDbLine
 62
7
  6
CONTINUOUS
 10
18.6460391866
 20
10.9051138122
 11
18.6460076196
 21
10.905180783
  0
LINE
  5
239
100
AcDbEntity
  8
0
100
AcDbLine
 62
7
  6
CONTINUOUS
 10
19.6112653172
 20
10.8643424008
 11
19.6112653172
 21
10.6586503657
  0
LINE
  5
23A
100
AcDbEntity
  8
0
100
AcDbLine
 62
7
  6
CONTINUOUS
 10
19.6287653172
 20
11.1385818604
 11
19.6287653172
 21
10.8782045956
  0
LINE
  5
23B
100
AcDbEntity
  8
0
100
AcDbLine
 62
7
  6
CONTINUOUS
 10
19.6312653172
 20
10.7581961691
 11
19.6312653172
 21
10.8417585583
  0
LINE
  5
23C
100
AcDbEntity
  8
0
100
AcDbLine
 62
7
  6
CONTINUOUS
 10
19.6412653172
 20
10.5267926296
 11
19.6412653172
 21
5.0759536995
  0
ARC
  5
23D
100
AcDbEntity
  8
0
100
AcDbCircle
 62
7
  6
CONTINUOUS
 10
7.1412653172
 20
2.8885818604
 40
0.4375
100
AcDbArc
 50
180.0
 51
360.0
  0
ARC
  5
23E
100
AcDbEntity
  8
0
100
AcDbCircle
 62
7
  6
CONTINUOUS
 10
7.1412653172
 20
11.1385818604
 40
1.1875
100
AcDbArc
 50
291.6373247597
 51
248.3626752403
  0
ARC
  5
23F
100
AcDbEntity
  8
0
100
AcDbCircle
 62
7
  6
CONTINUOUS
 10
3.1412653172
 20
11.1385818604
 40
1.1875
100
AcDbArc
 50
10.8021427474
 51
79.1970954175
  0
ARC
  5
240
100
AcDbEntity
  8
0
100
AcDbCircle
 62
7
  6
CONTINUOUS
 10
3.1412653172
 20
11.1385818604
 40
1.1875
100
AcDbArc
 50
280.8029045825
 51
349.1978572526
  0
ARC
  5
241
100
AcDbEntity
  8
0
100
AcDbCircle
 62
7
  6
CONTINUOUS
 10
3.1412653172
 20
11.1385818604
 40
1.1875
100
AcDbArc
 50
100.8029045825
 51
169.1978572526
  0
ARC
  5
242
100
AcDbEntity
  8
0
100
AcDbCircle
 62
7
  6
CONTINUOUS
 10
3.1412653172
 20
11.1385818604
 40
1.1875
100
AcDbArc
 50
190.8021427474
 51
259.1970954175
  0
ARC
  5
243
100
AcDbEntity
  8
0
100
AcDbCircle
 62
7
  6
CONTINUOUS
 10
11.1412653172
 20
11.1385818604
 40
1.1875
100
AcDbArc
 50
10.8005128475
 51
79.1967793885
  0
ARC
  5
244
100
AcDbEntity
  8
0
100
AcDbCircle
 62
7
  6
CONTINUOUS
 10
11.1412653172
 20
11.1385818604
 40
1.1875
100
AcDbArc
 50
280.8032206115
 51
349.1994871525
  0
ARC
  5
245
100
AcDbEntity
  8
0
100
AcDbCircle
 62
7
  6
CONTINUOUS
 10
11.1412653172
 20
11.1385818604
 40
1.1875
100
AcDbArc
 50
100.8032206115
 51
169.1994871525
  0
ARC
  5
246
100
AcDbEntity
  8
0
100
AcDbCircle
 62
7
  6
CONTINUOUS
 10
11.1412653172
 20
11.1385818604
 40
1.1875
100
AcDbArc
 50
190.8005128475
 51
259.1967793885
  0
ARC
  5
247
100
AcDbEntity
  8
0
100
AcDbCircle
 62
7
  6
CONTINUOUS
 10
7.1412653172
 20
11.1385818604
 40
0.6875
100
AcDbArc
 50
309.5363025097
 51
230.4636974904
  0
ARC
  5
248
100
AcDbEntity
  8
0
100
AcDbCircle
 62
7
  6
CONTINUOUS
 10
3.1412653172
 20
11.1385818604
 40
0.65625
100
AcDbArc
 50
199.8289814184
 51
250.1745224907
  0
ARC
  5
249
100
AcDbEntity
  8
0
100
AcDbCircle
 62
7
  6
CONTINUOUS
 10
3.1412653172
 20
11.1385818604
 40
0.65625
100
AcDbArc
 50
109.8254775093
 51
160.1710185816
  0
ARC
  5
24A
100
AcDbEntity
  8
0
100
AcDbCircle
 62
7
  6
CONTINUOUS
 10
3.1412653172
 20
11.1385818604
 40
0.65625
100
AcDbArc
 50
289.8254775093
 51
340.1710185816
  0
ARC
  5
24B
100
AcDbEntity
  8
0
100
AcDbCircle
 62
7
  6
CONTINUOUS
 10
3.1412653172
 20
11.1385818604
 40
0.65625
100
AcDbArc
 50
19.8289814184
 51
70.1745224907
  0
ARC
  5
24C
100
AcDbEntity
  8
0
100
AcDbCircle
 62
7
  6
CONTINUOUS
 10
11.1412653172
 20
11.1385818604
 40
0.65625
100
AcDbArc
 50
199.8227854446
 51
250.1710291526
  0
ARC
  5
24D
100
AcDbEntity
  8
0
100
AcDbCircle
 62
7
  6
CONTINUOUS
 10
11.1412653172
 20
11.1385818604
 40
0.65625
100
AcDbArc
 50
109.8289708474
 51
160.1772145554
  0
ARC
  5
24E
100
AcDbEntity
  8
0
100
AcDbCircle
 62
7
  6
CONTINUOUS
 10
11.1412653172
 20
11.1385818604
 40
0.65625
100
AcDbArc
 50
289.8289708474
 51
340.1772145554
  0
ARC
  5
24F
100
AcDbEntity
  8
0
100
AcDbCircle
 62
7
  6
CONTINUOUS
 10
11.1412653172
 20
11.1385818604
 40
0.65625
100
AcDbArc
 50
19.8227854446
 51
70.1710291526
  0
ARC
  5
250
100
AcDbEntity
  8
0
100
AcDbCircle
 62
7
  6
CONTINUOUS
 10
7.1412653172
 20
11.1385818604
 40
0.4375
100
AcDbArc
 50
0.0
 51
180.0
  0
CIRCLE
  5
251
100
AcDbEntity
  8
0
100
AcDbCircle
 62
7
  6
CONTINUOUS
 10
3.1412653172
 20
11.1385818604
 40
0.375
  0
CIRCLE
  5
252
100
AcDbEntity
  8
0
100
AcDbCircle
 62
7
  6
CONTINUOUS
 10
11.1412653172
 20
11.1385818604
 40
0.375
  0
ARC
  5
253
100
AcDbEntity
  8
0
100
AcDbCircle
 62
7
  6
CONTINUOUS
 10
16.1412653172
 20
11.1385818604
 40
1.1875
100
AcDbArc
 50
10.7998689547
 51
79.1969651572
  0
ARC
  5
254
100
AcDbEntity
  8
0
100
AcDbCircle
 62
7
  6
CONTINUOUS
 10
16.1412653172
 20
11.1385818604
 40
1.1875
100
AcDbArc
 50
280.8030348428
 51
349.2001310453
  0
ARC
  5
255
100
AcDbEntity
  8
0
100
AcDbCircle
 62
7
  6
CONTINUOUS
 10
16.1412653172
 20
11.1385818604
 40
1.1875
100
AcDbArc
 50
100.8030348428
 51
169.2001310453
  0
ARC
  5
256
100
AcDbEntity
  8
0
100
AcDbCircle
 62
7
  6
CONTINUOUS
 10
16.1412653172
 20
11.1385818604
 40
1.1875
100
AcDbArc
 50
190.7998689547
 51
259.1969651572
  0
ARC
  5
257
100
AcDbEntity
  8
0
100
AcDbCircle
 62
7
  6
CONTINUOUS
 10
16.1412653172
 20
11.1385818604
 40
0.65625
100
AcDbArc
 50
199.8228299452
 51
250.1718814555
  0
ARC
  5
258
100
AcDbEntity
  8
0
100
AcDbCircle
 62
7
  6
CONTINUOUS
 10
16.1412653172
 20
11.1385818604
 40
0.65625
100
AcDbArc
 50
109.8281185445
 51
160.1771700548
  0
ARC
  5
259
100
AcDbEntity
  8
0
100
AcDbCircle
 62
7
  6
CONTINUOUS
 10
16.1412653172
 20
11.1385818604
 40
0.65625
100
AcDbArc
 50
289.8281185445
 51
340.1771700548
  0
ARC
  5
25A
100
AcDbEntity
  8
0
100
AcDbCircle
 62
7
  6
CONTINUOUS
 10
16.1412653172
 20
11.1385818604
 40
0.65625
100
AcDbArc
 50
19.8228299452
 51
70.1718814555
  0
CIRCLE
  5
25B
100
AcDbEntity
  8
0
100
AcDbCircle
 62
7
  6
CONTINUOUS
 10
16.1412653172
 20
11.1385818604
 40
0.375
  0
ARC
  5
25C
100
AcDbEntity
  8
0
100
AcDbCircle
 62
7
  6
CONTINUOUS
 10
18.9610171835
 20
10.7528246842
 40
0.3104711663
100
AcDbArc
 50
158.9496238775
 51
160.6519891693
  0
ARC
  5
25D
100
AcDbEntity
  8
0
100
AcDbCircle
 62
7
  6
CONTINUOUS
 10
19.3218219485
 20
10.7634585234
 40
0.310143994
100
AcDbArc
 50
339.6025574963
 51
340.104866727
  0
ARC
  5
25E
100
AcDbEntity
  8
0
100
AcDbCircle
 62
7
  6
CONTINUOUS
 10
18.960540386
 20
10.7633967799
 40
0.3099647274
100
AcDbArc
 50
199.8949879669
 51
200.397705616
  0
ARC
  5
25F
100
AcDbEntity
  8
0
100
AcDbCircle
 62
7
  6
CONTINUOUS
 10
19.32208454
 20
10.7530347949
 40
0.3098627196
100
AcDbArc
 50
19.3463393245
 51
21.0520476287
  0
ARC
  5
260
100
AcDbEntity
  8
0
100
AcDbCircle
 62
7
  6
CONTINUOUS
 10
19.1412653172
 20
11.1385818604
 40
1.1875
100
AcDbArc
 50
294.9096834227
 51
245.0903168678
  0
ARC
  5
261
100
AcDbEntity
  8
0
100
AcDbCircle
 62
7
  6
CONTINUOUS
 10
19.1412653172
 20
11.1385818604
 40
0.5475
100
AcDbArc
 50
332.9803205072
 51
207.0196794928
  0
ARC
  5
262
100
AcDbEntity
  8
0
100
AcDbCircle
 62
9
  6
CONTINUOUS
 10
19.1412653172
 20
11.1385818604
 40
0.5175
100
AcDbArc
 50
340.4667193999
 51
199.5332806001
  0
ARC
  5
263
100
AcDbEntity
  8
0
100
AcDbCircle
 62
7
  6
CONTINUOUS
 10
19.1412653172
 20
11.1385818604
 40
0.4875
100
AcDbArc
 50
0.0
 51
180.0
  0
SPLINE
  5
264
100
AcDbEntity
  8
0
100
AcDbSpline
 62
7
  6
CONTINUOUS
 70
0
 71
3
 72
30
 73
26
 74
0
 42
0.0000001
 43
0.0000001
 44
0.0000000001
 40
0.0
 40
0.0
 40
0.0
 40
0.0
 40
0.0272583075
 40
0.0545594548
 40
0.0819429744
 40
0.1094502186
 40
0.1371194434
 40
0.1649871934
 40
0.1930874859
 40
0.2214513934
 40
0.2501067959
 40
0.2790780777
 40
0.3083859598
 40
0.338047379
 40
0.3984593455
 40
0.4603933407
 40
0.5238468855
 40
0.5887607522
 40
0.6550245258
 40
0.7224828374
 40
0.7909425729
 40
0.8254855465
 40
0.8601929901
 40
0.9299614139
 40
1.0
 40
1.0
 40
1.0
 40
1.0
 10
18.6812653172
 20
5.0695258234
 30
0.0
 10
18.6812653172
 20
5.063688297
 30
0.0
 10
18.6816390759
 20
5.0520006405
 30
0.0
 10
18.6833186727
 20
5.0345212951
 30
0.0
 10
18.6861128654
 20
5.0171305545
 30
0.0
 10
18.6900135106
 20
4.9998736661
 30
0.0
 10
18.6950099019
 20
4.9827936954
 30
0.0
 10
18.7010881344
 20
4.965933367
 30
0.0
 10
18.7082316203
 20
4.9493342611
 30
0.0
 10
18.7164211891
 20
4.93303692
 30
0.0
 10
18.7256352418
 20
4.9170806985
 30
0.0
 10
18.7358496268
 20
4.90150382
 30
0.0
 10
18.7470384936
 20
4.8863427645
 30
0.0
 10
18.7633143349
 20
4.8666131956
 30
0.0
 10
18.7860004985
 20
4.8431790882
 30
0.0
 10
18.8164351894
 20
4.8174532436
 30
0.0
 10
18.8499577651
 20
4.794174135
 30
0.0
 10
18.8862432814
 20
4.7735540716
 30
0.0
 10
18.9249464244
 20
4.7557785564
 30
0.0
 10
18.9656977093
 20
4.7410088993
 30
0.0
 10
19.000943194
 20
4.7313450047
 30
0.0
 10
19.0297971695
 20
4.7252166173
 30
0.0
 10
19.0591429011
 20
4.7201590133
 30
0.0
 10
19.096314146
 20
4.7159331807
 30
0.0
 10
19.1262661433
 20
4.714805824
 30
0.0
 10
19.1412653172
 20
4.714805824
 30
0.0
  0
SPLINE
  5
265
100
AcDbEntity
  8
0
100
AcDbSpline
 62
7
  6
CONTINUOUS
 70
0
 71
3
 72
30
 73
26
 74
0
 42
0.0000001
 43
0.0000001
 44
0.0000000001
 40
0.0
 40
0.0
 40
0.0
 40
0.0
 40
0.0700386011
 40
0.1398070342
 40
0.1745144821
 40
0.2090574587
 40
0.2775171976
 40
0.3449755095
 40
0.4112392804
 40
0.476153142
 40
0.5396066796
 40
0.6015406665
 40
0.6619526245
 40
0.6916140396
 40
0.7209219179
 40
0.7498931962
 40
0.7785485959
 40
0.8069125012
 40
0.8350127923
 40
0.8628805418
 40
0.8905497673
 40
0.918057013
 40
0.9454405349
 40
0.9727416884
 40
1.0
 40
1.0
 40
1.0
 40
1.0
 10
19.1412653172
 20
4.714805824
 30
0.0
 10
19.1562644943
 20
4.714805824
 30
0.0
 10
19.1862164969
 20
4.7159331811
 30
0.0
 10
19.2233877478
 20
4.7201590152
 30
0.0
 10
19.2527334827
 20
4.7252166208
 30
0.0
 10
19.2815874603
 20
4.7313450095
 30
0.0
 10
19.316832946
 20
4.7410089059
 30
0.0
 10
19.3575842305
 20
4.7557785647
 30
0.0
 10
19.3962873712
 20
4.7735540811
 30
0.0
 10
19.4325728839
 20
4.7941741442
 30
0.0
 10
19.4660954551
 20
4.8174532516
 30
0.0
 10
19.4965301416
 20
4.8431790935
 30
0.0
 10
19.5192163016
 20
4.8666131981
 30
0.0
 10
19.5354921406
 20
4.8863427643
 30
0.0
 10
19.546681006
 20
4.9015038178
 30
0.0
 10
19.55689539
 20
4.9170806943
 30
0.0
 10
19.5661094421
 20
4.9330369141
 30
0.0
 10
19.5742990108
 20
4.9493342537
 30
0.0
 10
19.5814424968
 20
4.9659333587
 30
0.0
 10
19.5875207296
 20
4.9827936866
 30
0.0
 10
19.5925171217
 20
4.9998736575
 30
0.0
 10
19.5964177676
 20
5.0171305467
 30
0.0
 10
19.5992119611
 20
5.0345212894
 30
0.0
 10
19.6008915582
 20
5.0520006374
 30
0.0
 10
19.6012653172
 20
5.0636882961
 30
0.0
 10
19.6012653172
 20
5.0695258234
 30
0.0
  0
SPLINE
  5
266
100
AcDbEntity
  8
0
100
AcDbSpline
 62
7
  6
CONTINUOUS
 70
0
 71
3
 72
11
 73
7
 74
0
 42
0.0000001
 43
0.0000001
 44
0.0000000001
 40
0.0
 40
0.0
 40
0.0
 40
0.0
 40
0.248048877
 40
0.4968891318
 40
0.7472941467
 40
1.0
 40
1.0
 40
1.0
 40
1.0
 10
18.6512653172
 20
10.7581961691
 30
0.0
 10
18.6512653172
 20
10.7497350179
 30
0.0
 10
18.6520149586
 20
10.7327763295
 30
0.0
 10
18.6553815553
 20
10.7074770275
 30
0.0
 10
18.6609736461
 20
10.682412532
 30
0.0
 10
18.666141651
 20
10.6660221696
 30
0.0
 10
18.6690750049
 20
10.6579166214
 30
0.0
  0
SPLINE
  5
267
100
AcDbEntity
  8
0
100
AcDbSpline
 62
7
  6
CONTINUOUS
 70
0
 71
3
 72
11
 73
7
 74
0
 42
0.0000001
 43
0.0000001
 44
0.0000000001
 40
0.0
 40
0.0
 40
0.0
 40
0.0
 40
0.2527058533
 40
0.5031108682
 40
0.751951123
 40
1.0
 40
1.0
 40
1.0
 40
1.0
 10
19.6134556295
 20
10.6579166214
 30
0.0
 10
19.6163889835
 20
10.6660221696
 30
0.0
 10
19.6215569883
 20
10.682412532
 30
0.0
 10
19.6271490792
 20
10.7074770275
 30
0.0
 10
19.6305156758
 20
10.7327763295
 30
0.0
 10
19.6312653172
 20
10.7497350179
 30
0.0
 10
19.6312653172
 20
10.7581961691
 30
0.0
  0
SPLINE
  5
268
100
AcDbEntity
  8
0
100
AcDbSpline
 62
7
  6
CONTINUOUS
 70
0
 71
3
 72
15
 73
11
 74
0
 42
0.0000001
 43
0.0000001
 44
0.0000000001
 40
0.0
 40
0.0
 40
0.0
 40
0.0
 40
0.1234736768
 40
0.2471031487
 40
0.3710258139
 40
0.4953924239
 40
0.6203426782
 40
0.7460104606
 40
0.8725233384
 40
1.0
 40
1.0
 40
1.0
 40
1.0
 10
19.6412653172
 20
10.5267926296
 30
0.0
 10
19.6412653172
 20
10.5324004645
 30
0.0
 10
19.6409477047
 20
10.5436257902
 30
0.0
 10
19.63952015
 20
10.5604247133
 30
0.0
 10
19.6371442091
 20
10.5771573787
 30
0.0
 10
19.6338251964
 20
10.5937897026
 30
0.0
 10
19.6295703264
 20
10.6102892934
 30
0.0
 10
19.6243886913
 20
10.6266239497
 30
0.0
 10
19.6182915065
 20
10.6427614057
 30
0.0
 10
19.6136432517
 20
10.6533258557
 30
0.0
 10
19.6111742824
 20
10.6585626596
 30
0.0
  0
SPLINE
  5
269
100
AcDbEntity
  8
0
100
AcDbSpline
 62
7
  6
CONTINUOUS
 70
0
 71
3
 72
39
 73
35
 74
0
 42
0.0000001
 43
0.0000001
 44
0.0000000001
 40
0.0
 40
0.0
 40
0.0
 40
0.0
 40
0.0275270697
 40
0.0555198267
 40
0.084027742
 40
0.1130862792
 40
0.1427166081
 40
0.1729258092
 40
0.2037073993
 40
0.2350421244
 40
0.2668989765
 40
0.2992363096
 40
0.3320030867
 40
0.3651401743
 40
0.3985816588
 40
0.4322561996
 40
0.466088376
 40
0.5000000481
 40
0.5339117197
 40
0.5677438944
 40
0.6014184324
 40
0.634859913
 40
0.6679969957
 40
0.7007637668
 40
0.7331010932
 40
0.7649579381
 40
0.7962926555
 40
0.8270742374
 40
0.85728343
 40
0.8869137503
 40
0.9159722793
 40
0.9444801869
 40
0.9724729367
 40
1.0
 40
1.0
 40
1.0
 40
1.0
 10
19.6111742824
 20
10.6585626596
 30
0.0
 10
19.6067764485
 20
10.6678906794
 30
0.0
 10
19.5970268435
 20
10.6863024837
 30
0.0
 10
19.5798556674
 20
10.7127325523
 30
0.0
 10
19.5601286959
 20
10.7380459552
 30
0.0
 10
19.5379687652
 20
10.7620962232
 30
0.0
 10
19.5135092484
 20
10.7847495448
 30
0.0
 10
19.4868957229
 20
10.8058796044
 30
0.0
 10
19.4582846756
 20
10.825369269
 30
0.0
 10
19.427843057
 20
10.8431105176
 30
0.0
 10
19.3957475584
 20
10.8590049603
 30
0.0
 10
19.3621838818
 20
10.8729643184
 30
0.0
 10
19.3273458539
 20
10.8849108813
 30
0.0
 10
19.2914344684
 20
10.894777973
 30
0.0
 10
19.254656837
 20
10.9025103892
 30
0.0
 10
19.2172250652
 20
10.9080647653
 30
0.0
 10
19.1793550653
 20
10.911409919
 30
0.0
 10
19.1412653093
 20
10.9125270629
 30
0.0
 10
19.103175554
 20
10.9114099174
 30
0.0
 10
19.0653055562
 20
10.9080647628
 30
0.0
 10
19.0278737874
 20
10.902510388
 30
0.0
 10
18.9910961603
 20
10.8947779723
 30
0.0
 10
18.9551847803
 20
10.8849108813
 30
0.0
 10
18.9203467589
 20
10.8729643201
 30
0.0
 10
18.886783089
 20
10.8590049651
 30
0.0
 10
18.8546875968
 20
10.8431105279
 30
0.0
 10
18.8242459844
 20
10.8253692857
 30
0.0
 10
18.7956349436
 20
10.8058796281
 30
0.0
 10
18.7690214238
 20
10.7847495766
 30
0.0
 10
18.7445619113
 20
10.7620962643
 30
0.0
 10
18.7224019829
 20
10.7380460067
 30
0.0
 10
18.7026750115
 20
10.7127326148
 30
0.0
 10
18.6855038341
 20
10.6863025566
 30
0.0
 10
18.6757542265
 20
10.6678907594
 30
0.0
 10
18.6713563913
 20
10.6585627429
 30
0.0
  0
SPLINE
  5
26A
100
AcDbEntity
  8
0
100
AcDbSpline
 62
7
  6
CONTINUOUS
 70
0
 71
3
 72
15
 73
11
 74
0
 42
0.0000001
 43
0.0000001
 44
0.0000000001
 40
0.0
 40
0.0
 40
0.0
 40
0.0
 40
0.1274766512
 40
0.2539895209
 40
0.3796572972
 40
0.5046075482
 40
0.6289741595
 40
0.7528968286
 40
0.8765263094
 40
1.0
 40
1.0
 40
1.0
 40
1.0
 10
18.6713563913
 20
10.6585627429
 30
0.0
 10
18.6688874193
 20
10.6533259365
 30
0.0
 10
18.6642391584
 20
10.6427614816
 30
0.0
 10
18.6581419666
 20
10.626624017
 30
0.0
 10
18.6529603246
 20
10.6102893515
 30
0.0
 10
18.6487054488
 20
10.5937897507
 30
0.0
 10
18.6453864316
 20
10.5771574159
 30
0.0
 10
18.6430104871
 20
10.5604247388
 30
0.0
 10
18.6415829303
 20
10.5436258032
 30
0.0
 10
18.6412653172
 20
10.5324004689
 30
0.0
 10
18.6412653172
 20
10.5267926296
 30
0.0
  0
SPLINE
  5
26B
100
AcDbEntity
  8
0
100
AcDbSpline
 62
7
  6
CONTINUOUS
 70
0
 71
3
 72
51
 73
47
 74
0
 42
0.0000001
 43
0.0000001
 44
0.0000000001
 40
0.0
 40
0.0
 40
0.0
 40
0.0
 40
0.0136192165
 40
0.0272599565
 40
0.040942207
 40
0.0546867424
 40
0.0685128135
 40
0.0824388118
 40
0.0964818309
 40
0.1106574834
 40
0.1249797647
 40
0.1394609067
 40
0.1541112921
 40
0.1689393944
 40
0.1991429668
 40
0.2301111329
 40
0.2618423264
 40
0.294306565
 40
0.3274481954
 40
0.3611891194
 40
0.395432327
 40
0.4300655989
 40
0.4649652723
 40
0.5000000556
 40
0.5350348379
 40
0.5699345084
 40
0.6045677758
 40
0.638810977
 40
0.6725518933
 40
0.7056935144
 40
0.7381577432
 40
0.7698889258
 40
0.8008570811
 40
0.8310606427
 40
0.8458887398
 40
0.8605391203
 40
0.8750202577
 40
0.8893425346
 40
0.9035181831
 40
0.9175611986
 40
0.9314871939
 40
0.9453132624
 40
0.9590577957
 40
0.9727400446
 40
0.9863807837
 40
1.0
 40
1.0
 40
1.0
 40
1.0
 10
18.6412653172
 20
5.0759536995
 30
0.0
 10
18.6412653172
 20
5.0696146725
 30
0.0
 10
18.6416712799
 20
5.0569228746
 30
0.0
 10
18.6434956436
 20
5.0379416448
 30
0.0
 10
18.6465307192
 20
5.0190562742
 30
0.0
 10
18.6507677482
 20
5.000315721
 30
0.0
 10
18.656195194
 20
4.9817666255
 30
0.0
 10
18.6627981017
 20
4.9634552866
 30
0.0
 10
18.6705585843
 20
4.9454267864
 30
0.0
 10
18.6794559403
 20
4.9277251145
 30
0.0
 10
18.6894668227
 20
4.9103929927
 30
0.0
 10
18.700565171
 20
4.8934719885
 30
0.0
 10
18.7127229977
 20
4.8770017675
 30
0.0
 10
18.7304098335
 20
4.8555666504
 30
0.0
 10
18.7550645568
 20
4.830104826
 30
0.0
 10
18.7881422325
 20
4.8021512183
 30
0.0
 10
18.8245787265
 20
4.7768539917
 30
0.0
 10
18.8640211126
 20
4.7544448355
 30
0.0
 10
18.9060933011
 20
4.7351258564
 30
0.0
 10
18.9503951993
 20
4.719072849
 30
0.0
 10
18.9965065304
 20
4.7064319647
 30
0.0
 10
19.0439902089
 20
4.6973190147
 30
0.0
 10
19.0923961231
 20
4.6918174377
 30
0.0
 10
19.1412653945
 20
4.689978003
 30
0.0
 10
19.1901346643
 20
4.6918174488
 30
0.0
 10
19.2385405731
 20
4.6973190379
 30
0.0
 10
19.2860242435
 20
4.7064319961
 30
0.0
 10
19.3321355626
 20
4.7190728908
 30
0.0
 10
19.3764374478
 20
4.7351259021
 30
0.0
 10
19.4185096197
 20
4.7544448874
 30
0.0
 10
19.4579519904
 20
4.7768540423
 30
0.0
 10
19.4943884662
 20
4.8021512696
 30
0.0
 10
19.5274661271
 20
4.8301048711
 30
0.0
 10
19.5521208368
 20
4.8555666914
 30
0.0
 10
19.5698076642
 20
4.8770018028
 30
0.0
 10
19.5819654853
 20
4.8934720194
 30
0.0
 10
19.5930638283
 20
4.9103930194
 30
0.0
 10
19.6030747058
 20
4.9277251369
 30
0.0
 10
19.6119720584
 20
4.9454268043
 30
0.0
 10
19.6197325383
 20
4.9634553003
 30
0.0
 10
19.6263354437
 20
4.9817666354
 30
0.0
 10
19.6317628879
 20
5.0003157277
 30
0.0
 10
19.635999916
 20
5.0190562781
 30
0.0
 10
19.6390349911
 20
5.0379416467
 30
0.0
 10
19.6408593545
 20
5.0569228752
 30
0.0
 10
19.6412653172
 20
5.0696146725
 30
0.0
 10
19.6412653172
 20
5.0759536994
 30
0.0
  0
SPLINE
  5
26C
100
AcDbEntity
  8
0
100
AcDbSpline
 62
7
  6
CONTINUOUS
 70
0
 71
3
 72
51
 73
47
 74
0
 42
0.0000001
 43
0.0000001
 44
0.0000000001
 40
0.0
 40
0.0
 40
0.0
 40
0.0
 40
0.0137385916
 40
0.0274968351
 40
0.0412933019
 40
0.0551470176
 40
0.0690758395
 40
0.083096875
 40
0.0972261327
 40
0.1114783551
 40
0.1258668712
 40
0.1404034507
 40
0.1550982128
 40
0.1699595474
 40
0.2001965617
 40
0.2311561156
 40
0.262840264
 40
0.2952235583
 40
0.3282553424
 40
0.361862641
 40
0.3959535096
 40
0.4304206309
 40
0.4651450702
 40
0.5000001166
 40
0.5348551611
 40
0.5695795944
 40
0.6040467063
 40
0.6381375615
 40
0.6717448442
 40
0.704776609
 40
0.7371598829
 40
0.7688440086
 40
0.79980354
 40
0.8300405316
 40
0.8449018554
 40
0.8595966071
 40
0.8741331766
 40
0.8885216835
 40
0.9027738974
 40
0.9169031475
 40
0.9309241763
 40
0.9448529926
 40
0.9587067039
 40
0.9725031673
 40
0.9862614091
 40
1.0
 40
1.0
 40
1.0
 40
1.0
 10
19.6312653172
 20
10.8417585583
 30
0.0
 10
19.6312653172
 20
10.8480418479
 30
0.0
 10
19.630864171
 20
10.860621087
 30
0.0
 10
19.6290615318
 20
10.8794323209
 30
0.0
 10
19.6260633105
 20
10.8981443594
 30
0.0
 10
19.6218789921
 20
10.9167069266
 30
0.0
 10
19.6165212263
 20
10.9350722183
 30
0.0
 10
19.6100061652
 20
10.9531931847
 30
0.0
 10
19.6023530091
 20
10.9710243517
 30
0.0
 10
19.5935837705
 20
10.9885217301
 30
0.0
 10
19.5837230346
 20
11.0056429733
 30
0.0
 10
19.5727979444
 20
11.0223472238
 30
0.0
 10
19.56083739
 20
11.038595825
 30
0.0
 10
19.5434549067
 20
11.0597207919
 30
0.0
 10
19.5192459052
 20
11.08479252
 30
0.0
 10
19.4867886755
 20
11.1122968478
 30
0.0
 10
19.4510687009
 20
11.1371628483
 30
0.0
 10
19.4124319962
 20
11.1591715564
 30
0.0
 10
19.3712452696
 20
11.1781323248
 30
0.0
 10
19.3278973037
 20
11.1938791455
 30
0.0
 10
19.2827957917
 20
11.2062738302
 30
0.0
 10
19.2363643923
 20
11.2152066609
 30
0.0
 10
19.1890392899
 20
11.2205984752
 30
0.0
 10
19.1412651578
 20
11.2224010413
 30
0.0
 10
19.0934910292
 20
11.220598452
 30
0.0
 10
19.0461659378
 20
11.2152066131
 30
0.0
 10
18.9997345551
 20
11.2062737648
 30
0.0
 10
18.9546330673
 20
11.1938790593
 30
0.0
 10
18.9112851282
 20
11.1781322298
 30
0.0
 10
18.8700984353
 20
11.1591714491
 30
0.0
 10
18.8314617625
 20
11.1371627427
 30
0.0
 10
18.7957418253
 20
11.1122967413
 30
0.0
 10
18.7632846261
 20
11.0847924255
 30
0.0
 10
18.7390756529
 20
11.0597207059
 30
0.0
 10
18.7216931868
 20
11.038595751
 30
0.0
 10
18.7097326443
 20
11.0223471588
 30
0.0
 10
18.6988075653
 20
11.0056429171
 30
0.0
 10
18.6889468394
 20
10.9885216827
 30
0.0
 10
18.6801776079
 20
10.9710243139
 30
0.0
 10
18.6725244576
 20
10.9531931556
 30
0.0
 10
18.6660094013
 20
10.9350721972
 30
0.0
 10
18.660651639
 20
10.9167069124
 30
0.0
 10
18.6564673224
 20
10.8981443511
 30
0.0
 10
18.6534691021
 20
10.8794323168
 30
0.0
 10
18.6516664635
 20
10.8606210856
 30
0.0
 10
18.6512653172
 20
10.8480418476
 30
0.0
 10
18.6512653172
 20
10.8417585583
 30
0.0
  0
SPLINE
  5
26D
100
AcDbEntity
  8
0
100
AcDbSpline
 62
7
  6
CONTINUOUS
 70
0
 71
3
 72
30
 73
26
 74
0
 42
0.0000001
 43
0.0000001
 44
0.0000000001
 40
0.0
 40
0.0
 40
0.0
 40
0.0
 40
0.027001088
 40
0.0540478192
 40
0.0811851965
 40
0.108456912
 40
0.1359047105
 40
0.1635678466
 40
0.1914826467
 40
0.2196820913
 40
0.2481954603
 40
0.2770480774
 40
0.3062611976
 40
0.3358519166
 40
0.3961936154
 40
0.4581476515
 40
0.5217036055
 40
0.5867923188
 40
0.6532926451
 40
0.7210381621
 40
0.7898249746
 40
0.824543148
 40
0.8594318471
 40
0.9295760587
 40
1.0
 40
1.0
 40
1.0
 40
1.0
 10
19.6012653172
 20
5.0695258234
 30
0.0
 10
19.6012653172
 20
5.07529228
 30
0.0
 10
19.6008950296
 20
5.0868383505
 30
0.0
 10
19.5992306351
 20
5.1041077703
 30
0.0
 10
19.5964612584
 20
5.1212939206
 30
0.0
 10
19.5925937388
 20
5.1383541686
 30
0.0
 10
19.5876375807
 20
5.1552473998
 30
0.0
 10
19.5816050529
 20
5.1719326665
 30
0.0
 10
19.574510995
 20
5.1883696773
 30
0.0
 10
19.5663727918
 20
5.2045187659
 30
0.0
 10
19.5572102732
 20
5.220341033
 30
0.0
 10
19.5470459397
 20
5.2357983332
 30
0.0
 10
19.5359041335
 20
5.2508539198
 30
0.0
 10
19.5196789295
 20
5.270468307
 30
0.0
 10
19.4970412236
 20
5.2937877614
 30
0.0
 10
19.466648132
 20
5.3194092469
 30
0.0
 10
19.4331374617
 20
5.3426188803
 30
0.0
 10
19.3968341009
 20
5.3631960196
 30
0.0
 10
19.3580853682
 20
5.3809475897
 30
0.0
 10
19.317264158
 20
5.3957059122
 30
0.0
 10
19.2819474622
 20
5.4053656598
 30
0.0
 10
19.2530274679
 20
5.4114933491
 30
0.0
 10
19.2236067193
 20
5.4165517716
 30
0.0
 10
19.1863370866
 20
5.4207786097
 30
0.0
 10
19.1563053261
 20
5.4219062672
 30
0.0
 10
19.1412653172
 20
5.4219062672
 30
0.0
  0
SPLINE
  5
26E
100
AcDbEntity
  8
0
100
AcDbSpline
 62
7
  6
CONTINUOUS
 70
0
 71
3
 72
11
 73
7
 74
0
 42
0.0000001
 43
0.0000001
 44
0.0000000001
 40
0.0
 40
0.0
 40
0.0
 40
0.0
 40
0.2525601698
 40
0.5029421399
 40
0.7518448428
 40
1.0
 40
1.0
 40
1.0
 40
1.0
 10
18.6680802902
 20
10.8556853748
 30
0.0
 10
18.6653089817
 20
10.847791861
 30
0.0
 10
18.6604282108
 20
10.8318399058
 30
0.0
 10
18.655149803
 20
10.8074722241
 30
0.0
 10
18.651972684
 20
10.7828894028
 30
0.0
 10
18.6512653172
 20
10.7664161222
 30
0.0
 10
18.6512653172
 20
10.7581961691
 30
0.0
  0
SPLINE
  5
26F
100
AcDbEntity
  8
0
100
AcDbSpline
 62
9
  6
CONTINUOUS
 70
0
 71
3
 72
51
 73
47
 74
0
 42
0.0000001
 43
0.0000001
 44
0.0000000001
 40
0.0
 40
0.0
 40
0.0
 40
0.0
 40
0.0135004769
 40
0.0270243802
 40
0.0405930922
 40
0.0542291612
 40
0.0679532329
 40
0.0817849773
 40
0.0957425657
 40
0.1098424683
 40
0.1240993308
 40
0.1385258268
 40
0.1531325818
 40
0.1679281339
 40
0.198099364
 40
0.2290767934
 40
0.2608551694
 40
0.2933999593
 40
0.3266505401
 40
0.3605237481
 40
0.3949175857
 40
0.4297150193
 40
0.4647877502
 40
0.5
 40
0.5352122498
 40
0.5702849807
 40
0.6050824143
 40
0.6394762519
 40
0.6733494599
 40
0.7066000407
 40
0.7391448306
 40
0.7709232066
 40
0.801900636
 40
0.8320718661
 40
0.8468674182
 40
0.8614741732
 40
0.8759006692
 40
0.8901575317
 40
0.9042574343
 40
0.9182150227
 40
0.9320467671
 40
0.9457708388
 40
0.9594069078
 40
0.9729756198
 40
0.9864995231
 40
1.0
 40
1.0
 40
1.0
 40
1.0
 10
19.6412653172
 20
5.0759536995
 30
0.0
 10
19.6412653172
 20
5.0822214749
 30
0.0
 10
19.640862788
 20
5.0947716045
 30
0.0
 10
19.6390537731
 20
5.1135427104
 30
0.0
 10
19.6360434725
 20
5.1322234078
 30
0.0
 10
19.6318396976
 20
5.1507671068
 30
0.0
 10
19.6264525694
 20
5.1691293293
 30
0.0
 10
19.6198954664
 20
5.1872654861
 30
0.0
 10
19.6121845269
 20
5.2051318009
 30
0.0
 10
19.6033386509
 20
5.2226851559
 30
0.0
 10
19.5933794137
 20
5.2398832811
 30
0.0
 10
19.582331218
 20
5.2566846907
 30
0.0
 10
19.5702205435
 20
5.2730494519
 30
0.0
 10
19.5525844532
 20
5.2943694368
 30
0.0
 10
19.5279782741
 20
5.319716695
 30
0.0
 10
19.4949422695
 20
5.3475660914
 30
0.0
 10
19.4585176786
 20
5.3727940062
 30
0.0
 10
19.419057401
 20
5.3951604117
 30
0.0
 10
19.3769395172
 20
5.4144556088
 30
0.0
 10
19.3325675586
 20
5.4304974264
 30
0.0
 10
19.2863660954
 20
5.4431346035
 30
0.0
 10
19.2387770027
 20
5.4522475145
 30
0.0
 10
19.1902554117
 20
5.4577500898
 30
0.0
 10
19.1412653172
 20
5.459590028
 30
0.0
 10
19.0922752227
 20
5.4577500898
 30
0.0
 10
19.0437536318
 20
5.4522475145
 30
0.0
 10
18.9961645391
 20
5.4431346035
 30
0.0
 10
18.9499630758
 20
5.4304974264
 30
0.0
 10
18.9055911172
 20
5.4144556088
 30
0.0
 10
18.8634732334
 20
5.3951604117
 30
0.0
 10
18.8240129558
 20
5.3727940062
 30
0.0
 10
18.7875883649
 20
5.3475660914
 30
0.0
 10
18.7545523603
 20
5.319716695
 30
0.0
 10
18.7299461812
 20
5.2943694368
 30
0.0
 10
18.7123100909
 20
5.2730494519
 30
0.0
 10
18.7001994165
 20
5.2566846907
 30
0.0
 10
18.6891512208
 20
5.2398832811
 30
0.0
 10
18.6791919836
 20
5.2226851559
 30
0.0
 10
18.6703461076
 20
5.2051318009
 30
0.0
 10
18.6626351681
 20
5.1872654861
 30
0.0
 10
18.6560780651
 20
5.1691293293
 30
0.0
 10
18.6506909368
 20
5.1507671068
 30
0.0
 10
18.6464871619
 20
5.1322234078
 30
0.0
 10
18.6434768613
 20
5.1135427104
 30
0.0
 10
18.6416678464
 20
5.0947716045
 30
0.0
 10
18.6412653172
 20
5.0822214749
 30
0.0
 10
18.6412653172
 20
5.0759536995
 30
0.0
  0
SPLINE
  5
270
100
AcDbEntity
  8
0
100
AcDbSpline
 62
9
  6
CONTINUOUS
 70
0
 71
3
 72
15
 73
11
 74
0
 42
0.0000001
 43
0.0000001
 44
0.0000000001
 40
0.0
 40
0.0
 40
0.0
 40
0.0
 40
0.1233084299
 40
0.2467913417
 40
0.3705989687
 40
0.4948995963
 40
0.6198471816
 40
0.7455886267
 40
0.8722633601
 40
1.0
 40
1.0
 40
1.0
 40
1.0
 10
18.6412653172
 20
10.5267926296
 30
0.0
 10
18.6412653172
 20
10.5323903193
 30
0.0
 10
18.6415862844
 20
10.5435962574
 30
0.0
 10
18.6430289239
 20
10.560366665
 30
0.0
 10
18.6454304152
 20
10.5770728205
 30
0.0
 10
18.6487858235
 20
10.5936813809
 30
0.0
 10
18.6530885942
 20
10.6101606818
 30
0.0
 10
18.6583303589
 20
10.6264789619
 30
0.0
 10
18.6645006435
 20
10.6426041765
 30
0.0
 10
18.6692047269
 20
10.6531590456
 30
0.0
 10
18.6717037434
 20
10.6583916337
 30
0.0
  0
SPLINE
  5
271
100
AcDbEntity
  8
0
100
AcDbSpline
 62
9
  6
CONTINUOUS
 70
0
 71
3
 72
39
 73
35
 74
0
 42
0.0000001
 43
0.0000001
 44
0.0000000001
 40
0.0
 40
0.0
 40
0.0
 40
0.0
 40
0.0273467519
 40
0.0551910724
 40
0.083582701
 40
0.1125562335
 40
0.1421311214
 40
0.1723121178
 40
0.2030900418
 40
0.2344427708
 40
0.2663363833
 40
0.2987263957
 40
0.3315590627
 40
0.3647727017
 40
0.3982990236
 40
0.4320644631
 40
0.4659915035
 40
0.5
 40
0.5340084965
 40
0.5679355369
 40
0.6017009764
 40
0.6352272983
 40
0.6684409373
 40
0.7012736043
 40
0.7336636167
 40
0.7655572292
 40
0.7969099582
 40
0.8276878822
 40
0.8578688786
 40
0.8874437665
 40
0.916417299
 40
0.9448089276
 40
0.9726532481
 40
1.0
 40
1.0
 40
1.0
 40
1.0
 10
18.6717037434
 20
10.6583916337
 30
0.0
 10
18.6761055762
 20
10.6676084509
 30
0.0
 10
18.6858572438
 20
10.6858077128
 30
0.0
 10
18.7030064051
 20
10.7119384633
 30
0.0
 10
18.7227010625
 20
10.7369866104
 30
0.0
 10
18.744823396
 20
10.7608048317
 30
0.0
 10
18.7692439203
 20
10.7832573013
 30
0.0
 10
18.7958198218
 20
10.8042150791
 30
0.0
 10
18.8243963748
 20
10.8235581623
 30
0.0
 10
18.8548075648
 20
10.8411757001
 30
0.0
 10
18.8868770115
 20
10.8569666968
 30
0.0
 10
18.9204188815
 20
10.8708405943
 30
0.0
 10
18.955238934
 20
10.8827177707
 30
0.0
 10
18.9911356009
 20
10.8925300076
 30
0.0
 10
19.027901121
 20
10.9002209054
 30
0.0
 10
19.0653227198
 20
10.9057462182
 30
0.0
 10
19.1031838239
 20
10.9090741656
 30
0.0
 10
19.1412653172
 20
10.9101856127
 30
0.0
 10
19.1793468106
 20
10.9090741656
 30
0.0
 10
19.2172079147
 20
10.9057462182
 30
0.0
 10
19.2546295135
 20
10.9002209054
 30
0.0
 10
19.2913950335
 20
10.8925300076
 30
0.0
 10
19.3272917005
 20
10.8827177707
 30
0.0
 10
19.362111753
 20
10.8708405943
 30
0.0
 10
19.395653623
 20
10.8569666968
 30
0.0
 10
19.4277230697
 20
10.8411757001
 30
0.0
 10
19.4581342597
 20
10.8235581623
 30
0.0
 10
19.4867108126
 20
10.8042150791
 30
0.0
 10
19.5132867142
 20
10.7832573013
 30
0.0
 10
19.5377072385
 20
10.7608048317
 30
0.0
 10
19.5598295719
 20
10.7369866104
 30
0.0
 10
19.5795242294
 20
10.7119384633
 30
0.0
 10
19.5966733907
 20
10.6858077128
 30
0.0
 10
19.6064250583
 20
10.6676084509
 30
0.0
 10
19.6108268911
 20
10.6583916337
 30
0.0
  0
SPLINE
  5
272
100
AcDbEntity
  8
0
100
AcDbSpline
 62
9
  6
CONTINUOUS
 70
0
 71
3
 72
15
 73
11
 74
0
 42
0.0000001
 43
0.0000001
 44
0.0000000001
 40
0.0
 40
0.0
 40
0.0
 40
0.0
 40
0.1277366399
 40
0.2544113733
 40
0.3801528184
 40
0.5051004037
 40
0.6294010313
 40
0.7532086583
 40
0.8766915701
 40
1.0
 40
1.0
 40
1.0
 40
1.0
 10
19.6108268911
 20
10.6583916337
 30
0.0
 10
19.6133259076
 20
10.6531590456
 30
0.0
 10
19.618029991
 20
10.6426041765
 30
0.0
 10
19.6242002755
 20
10.6264789619
 30
0.0
 10
19.6294420403
 20
10.6101606818
 30
0.0
 10
19.6337448109
 20
10.5936813809
 30
0.0
 10
19.6371002193
 20
10.5770728205
 30
0.0
 10
19.6395017106
 20
10.560366665
 30
0.0
 10
19.6409443501
 20
10.5435962574
 30
0.0
 10
19.6412653172
 20
10.5323903193
 30
0.0
 10
19.6412653172
 20
10.5267926296
 30
0.0
  0
SPLINE
  5
273
100
AcDbEntity
  8
0
100
AcDbSpline
 62
7
  6
CONTINUOUS
 70
0
 71
3
 72
11
 73
7
 74
0
 42
0.0000001
 43
0.0000001
 44
0.0000000001
 40
0.0
 40
0.0
 40
0.0
 40
0.0
 40
0.2481551572
 40
0.4970578601
 40
0.7474398302
 40
1.0
 40
1.0
 40
1.0
 40
1.0
 10
19.6312653172
 20
10.7581961691
 30
0.0
 10
19.6312653172
 20
10.7664161222
 30
0.0
 10
19.6305579505
 20
10.7828894028
 30
0.0
 10
19.6273808315
 20
10.8074722241
 30
0.0
 10
19.6221024236
 20
10.8318399058
 30
0.0
 10
19.6172216527
 20
10.847791861
 30
0.0
 10
19.6144503442
 20
10.8556853748
 30
0.0
  0
SPLINE
  5
274
100
AcDbEntity
  8
0
100
AcDbSpline
 62
9
  6
CONTINUOUS
 70
0
 71
3
 72
39
 73
35
 74
0
 42
0.0000001
 43
0.0000001
 44
0.0000000001
 40
0.0
 40
0.0
 40
0.0
 40
0.0
 40
0.0271755823
 40
0.0548256222
 40
0.0830186551
 40
0.1118049742
 40
0.1412173939
 40
0.1712710278
 40
0.2019640832
 40
0.2332789443
 40
0.2651834947
 40
0.2976325941
 40
0.3305696687
 40
0.3639283389
 40
0.3976340576
 40
0.4316057501
 40
0.4657574639
 40
0.5
 40
0.5342425361
 40
0.5683942499
 40
0.6023659424
 40
0.6360716611
 40
0.6694303313
 40
0.7023674059
 40
0.7348165053
 40
0.7667210557
 40
0.7980359168
 40
0.8287289722
 40
0.8587826061
 40
0.8881950258
 40
0.9169813449
 40
0.9451743778
 40
0.9728244177
 40
1.0
 40
1.0
 40
1.0
 40
1.0
 10
18.6712653172
 20
10.6586503657
 30
0.0
 10
18.674999643
 20
10.6683535305
 30
0.0
 10
18.6835183385
 20
10.6875646165
 30
0.0
 10
18.699143701
 20
10.7152682039
 30
0.0
 10
18.7176149897
 20
10.741915239
 30
0.0
 10
18.738809188
 20
10.7673317419
 30
0.0
 10
18.7625880549
 20
10.7913570749
 30
0.0
 10
18.7887970239
 20
10.8138385345
 30
0.0
 10
18.8172666977
 20
10.8346337367
 30
0.0
 10
18.8478136724
 20
10.8536108925
 30
0.0
 10
18.8802416214
 20
10.8706496973
 30
0.0
 10
18.9143423813
 20
10.8856421214
 30
0.0
 10
18.9498972597
 20
10.8984930148
 30
0.0
 10
18.9866783608
 20
10.9091207293
 30
0.0
 10
19.0244499879
 20
10.9174576629
 30
0.0
 10
19.0629701022
 20
10.9234508156
 30
0.0
 10
19.1019918874
 20
10.9270620541
 30
0.0
 10
19.1412653172
 20
10.9282683733
 30
0.0
 10
19.180538747
 20
10.9270620541
 30
0.0
 10
19.2195605323
 20
10.9234508156
 30
0.0
 10
19.2580806466
 20
10.9174576629
 30
0.0
 10
19.2958522736
 20
10.9091207293
 30
0.0
 10
19.3326333748
 20
10.8984930148
 30
0.0
 10
19.3681882532
 20
10.8856421214
 30
0.0
 10
19.4022890131
 20
10.8706496973
 30
0.0
 10
19.434716962
 20
10.8536108925
 30
0.0
 10
19.4652639368
 20
10.8346337367
 30
0.0
 10
19.4937336105
 20
10.8138385345
 30
0.0
 10
19.5199425795
 20
10.7913570749
 30
0.0
 10
19.5437214464
 20
10.7673317419
 30
0.0
 10
19.5649156447
 20
10.741915239
 30
0.0
 10
19.5833869334
 20
10.7152682039
 30
0.0
 10
19.599012296
 20
10.6875646165
 30
0.0
 10
19.6075309915
 20
10.6683535305
 30
0.0
 10
19.6112653172
 20
10.6586503657
 30
0.0
  0
SPLINE
  5
275
100
AcDbEntity
  8
0
100
AcDbSpline
 62
9
  6
CONTINUOUS
 70
0
 71
3
 72
51
 73
47
 74
0
 42
0.0000001
 43
0.0000001
 44
0.0000000001
 40
0.0
 40
0.0
 40
0.0
 40
0.0
 40
0.0135004769
 40
0.0270243802
 40
0.0405930922
 40
0.0542291612
 40
0.067953233
 40
0.0817849774
 40
0.0957425658
 40
0.1098424684
 40
0.1240993309
 40
0.1385258269
 40
0.1531325819
 40
0.1679281341
 40
0.1980993641
 40
0.2290767935
 40
0.2608551695
 40
0.2933999594
 40
0.3266505402
 40
0.3605237482
 40
0.3949175858
 40
0.4297150193
 40
0.4647877502
 40
0.5
 40
0.5352122498
 40
0.5702849807
 40
0.6050824142
 40
0.6394762518
 40
0.6733494598
 40
0.7066000406
 40
0.7391448305
 40
0.7709232065
 40
0.8019006359
 40
0.8320718659
 40
0.8468674181
 40
0.8614741731
 40
0.8759006691
 40
0.8901575316
 40
0.9042574342
 40
0.9182150226
 40
0.932046767
 40
0.9457708388
 40
0.9594069078
 40
0.9729756198
 40
0.9864995231
 40
1.0
 40
1.0
 40
1.0
 40
1.0
 10
18.6512653172
 20
10.8417585583
 30
0.0
 10
18.6512653172
 20
10.8479009783
 30
0.0
 10
18.6516597958
 20
10.8602001053
 30
0.0
 10
18.6534326304
 20
10.8785957891
 30
0.0
 10
18.656382725
 20
10.8969028725
 30
0.0
 10
18.6605024244
 20
10.9150756976
 30
0.0
 10
18.6657818102
 20
10.9330706756
 30
0.0
 10
18.6722077711
 20
10.9508441093
 30
0.0
 10
18.6797644918
 20
10.9683530978
 30
0.0
 10
18.6884334503
 20
10.9855553858
 30
0.0
 10
18.6981935028
 20
11.0024095485
 30
0.0
 10
18.7090207346
 20
11.01887493
 30
0.0
 10
18.7208891956
 20
11.0349123959
 30
0.0
 10
18.7381725641
 20
11.0558059811
 30
0.0
 10
18.7622866196
 20
11.0806462941
 30
0.0
 10
18.7946619041
 20
11.1079387026
 30
0.0
 10
18.8303580032
 20
11.1326620591
 30
0.0
 10
18.8690290752
 20
11.1545811364
 30
0.0
 10
18.9103046013
 20
11.1734904296
 30
0.0
 10
18.9537891207
 20
11.1892114108
 30
0.0
 10
18.9990665547
 20
11.2015958443
 30
0.0
 10
19.0457038655
 20
11.2105264971
 30
0.0
 10
19.0932550246
 20
11.2159190209
 30
0.0
 10
19.1412653172
 20
11.2177221603
 30
0.0
 10
19.1892756098
 20
11.2159190209
 30
0.0
 10
19.2368267689
 20
11.2105264971
 30
0.0
 10
19.2834640798
 20
11.2015958443
 30
0.0
 10
19.3287415137
 20
11.1892114108
 30
0.0
 10
19.3722260331
 20
11.1734904296
 30
0.0
 10
19.4135015593
 20
11.1545811364
 30
0.0
 10
19.4521726313
 20
11.1326620591
 30
0.0
 10
19.4878687303
 20
11.1079387026
 30
0.0
 10
19.5202440149
 20
11.0806462941
 30
0.0
 10
19.5443580704
 20
11.0558059811
 30
0.0
 10
19.5616414389
 20
11.0349123959
 30
0.0
 10
19.5735098999
 20
11.01887493
 30
0.0
 10
19.5843371317
 20
11.0024095485
 30
0.0
 10
19.5940971841
 20
10.9855553858
 30
0.0
 10
19.6027661427
 20
10.9683530978
 30
0.0
 10
19.6103228634
 20
10.9508441093
 30
0.0
 10
19.6167488243
 20
10.9330706756
 30
0.0
 10
19.62202821
 20
10.9150756976
 30
0.0
 10
19.6261479094
 20
10.8969028725
 30
0.0
 10
19.629098004
 20
10.8785957891
 30
0.0
 10
19.6308708386
 20
10.8602001053
 30
0.0
 10
19.6312653172
 20
10.8479009783
 30
0.0
 10
19.6312653172
 20
10.8417585583
 30
0.0
  0
SPLINE
  5
276
100
AcDbEntity
  8
0
100
AcDbSpline
 62
9
  6
CONTINUOUS
 70
0
 71
3
 72
51
 73
47
 74
0
 42
0.0000001
 43
0.0000001
 44
0.0000000001
 40
0.0
 40
0.0
 40
0.0
 40
0.0
 40
0.0135004347
 40
0.027024267
 40
0.0405929614
 40
0.0542290191
 40
0.0679530882
 40
0.0817848395
 40
0.0957424379
 40
0.1098423504
 40
0.1240992195
 40
0.1385257183
 40
0.1531324735
 40
0.1679280252
 40
0.1980992591
 40
0.2290767005
 40
0.260855088
 40
0.2933998876
 40
0.3266504781
 40
0.3605236978
 40
0.3949175477
 40
0.4297149938
 40
0.4647877373
 40
0.5
 40
0.5352122627
 40
0.5702850062
 40
0.6050824523
 40
0.6394763022
 40
0.6733495219
 40
0.7066001123
 40
0.7391449119
 40
0.7709232995
 40
0.8019007408
 40
0.8320719747
 40
0.8468675265
 40
0.8614742817
 40
0.8759007805
 40
0.8901576495
 40
0.9042575621
 40
0.9182151604
 40
0.9320469118
 40
0.9457709808
 40
0.9594070386
 40
0.972975733
 40
0.9864995653
 40
1.0
 40
1.0
 40
1.0
 40
1.0
 10
18.6512653172
 20
5.0695258234
 30
0.0
 10
18.6512653172
 20
5.0633834226
 30
0.0
 10
18.651659787
 20
5.0510843469
 30
0.0
 10
18.6534326171
 20
5.0326887225
 30
0.0
 10
18.6563826925
 20
5.0143816822
 30
0.0
 10
18.660502378
 20
4.9962088687
 30
0.0
 10
18.665781748
 20
4.9782138894
 30
0.0
 10
18.6722077011
 20
4.9604404459
 30
0.0
 10
18.6797644188
 20
4.9429314427
 30
0.0
 10
18.688433374
 20
4.9257291398
 30
0.0
 10
18.6981934205
 20
4.9088749635
 30
0.0
 10
18.7090206481
 20
4.8924095739
 30
0.0
 10
18.7208891043
 20
4.876372103
 30
0.0
 10
18.7381724666
 20
4.8554785107
 30
0.0
 10
18.7622865152
 20
4.830638181
 30
0.0
 10
18.7946618038
 20
4.8033457579
 30
0.0
 10
18.8303579068
 20
4.7786223803
 30
0.0
 10
18.8690289883
 20
4.7567032909
 30
0.0
 10
18.910304523
 20
4.7377939824
 30
0.0
 10
18.9537890554
 20
4.722072992
 30
0.0
 10
18.9990665038
 20
4.7096885482
 30
0.0
 10
19.045703831
 20
4.7007578898
 30
0.0
 10
19.0932550071
 20
4.6953653615
 30
0.0
 10
19.1412653172
 20
4.6935622212
 30
0.0
 10
19.1892756273
 20
4.6953653615
 30
0.0
 10
19.2368268034
 20
4.7007578898
 30
0.0
 10
19.2834641306
 20
4.7096885482
 30
0.0
 10
19.328741579
 20
4.722072992
 30
0.0
 10
19.3722261115
 20
4.7377939824
 30
0.0
 10
19.4135016461
 20
4.7567032908
 30
0.0
 10
19.4521727276
 20
4.7786223803
 30
0.0
 10
19.4878688306
 20
4.8033457578
 30
0.0
 10
19.5202441193
 20
4.8306381809
 30
0.0
 10
19.5443581678
 20
4.8554785106
 30
0.0
 10
19.5616415301
 20
4.876372103
 30
0.0
 10
19.5735099864
 20
4.8924095739
 30
0.0
 10
19.5843372139
 20
4.9088749634
 30
0.0
 10
19.5940972604
 20
4.9257291397
 30
0.0
 10
19.6027662157
 20
4.9429314427
 30
0.0
 10
19.6103229333
 20
4.9604404458
 30
0.0
 10
19.6167488864
 20
4.9782138894
 30
0.0
 10
19.6220282564
 20
4.9962088687
 30
0.0
 10
19.626147942
 20
5.0143816822
 30
0.0
 10
19.6290980173
 20
5.0326887225
 30
0.0
 10
19.6308708475
 20
5.0510843469
 30
0.0
 10
19.6312653172
 20
5.0633834226
 30
0.0
 10
19.6312653172
 20
5.0695258234
 30
0.0
  0
SPLINE
  5
277
100
AcDbEntity
  8
0
100
AcDbSpline
 62
9
  6
CONTINUOUS
 70
0
 71
3
 72
51
 73
47
 74
0
 42
0.0000001
 43
0.0000001
 44
0.0000000001
 40
0.0
 40
0.0
 40
0.0
 40
0.0
 40
0.0135004347
 40
0.027024267
 40
0.0405929614
 40
0.0542290191
 40
0.0679530882
 40
0.0817848395
 40
0.0957424379
 40
0.1098423504
 40
0.1240992195
 40
0.1385257183
 40
0.1531324735
 40
0.1679280252
 40
0.1980992591
 40
0.2290767005
 40
0.260855088
 40
0.2933998876
 40
0.3266504781
 40
0.3605236978
 40
0.3949175477
 40
0.4297149938
 40
0.4647877373
 40
0.5
 40
0.5352122627
 40
0.5702850062
 40
0.6050824523
 40
0.6394763022
 40
0.6733495219
 40
0.7066001123
 40
0.7391449119
 40
0.7709232995
 40
0.8019007408
 40
0.8320719747
 40
0.8468675265
 40
0.8614742817
 40
0.8759007805
 40
0.8901576495
 40
0.9042575621
 40
0.9182151604
 40
0.9320469118
 40
0.9457709808
 40
0.9594070386
 40
0.972975733
 40
0.9864995653
 40
1.0
 40
1.0
 40
1.0
 40
1.0
 10
19.6312653172
 20
5.0695258234
 30
0.0
 10
19.6312653172
 20
5.0756682241
 30
0.0
 10
19.6308708475
 20
5.0879672998
 30
0.0
 10
19.6290980173
 20
5.1063629242
 30
0.0
 10
19.626147942
 20
5.1246699645
 30
0.0
 10
19.6220282565
 20
5.142842778
 30
0.0
 10
19.6167488865
 20
5.1608377573
 30
0.0
 10
19.6103229333
 20
5.1786112008
 30
0.0
 10
19.6027662157
 20
5.196120204
 30
0.0
 10
19.5940972604
 20
5.213322507
 30
0.0
 10
19.5843372139
 20
5.2301766833
 30
0.0
 10
19.5735099864
 20
5.2466420728
 30
0.0
 10
19.5616415301
 20
5.2626795437
 30
0.0
 10
19.5443581679
 20
5.2835731361
 30
0.0
 10
19.5202441193
 20
5.3084134658
 30
0.0
 10
19.4878688306
 20
5.3357058889
 30
0.0
 10
19.4521727277
 20
5.3604292664
 30
0.0
 10
19.4135016462
 20
5.3823483559
 30
0.0
 10
19.3722261115
 20
5.4012576643
 30
0.0
 10
19.328741579
 20
5.4169786547
 30
0.0
 10
19.2834641307
 20
5.4293630985
 30
0.0
 10
19.2368268035
 20
5.4382937569
 30
0.0
 10
19.1892756274
 20
5.4436862852
 30
0.0
 10
19.1412653173
 20
5.4454894255
 30
0.0
 10
19.0932550071
 20
5.4436862852
 30
0.0
 10
19.0457038311
 20
5.4382937569
 30
0.0
 10
18.9990665039
 20
5.4293630986
 30
0.0
 10
18.9537890555
 20
5.4169786547
 30
0.0
 10
18.910304523
 20
5.4012576644
 30
0.0
 10
18.8690289883
 20
5.3823483559
 30
0.0
 10
18.8303579068
 20
5.3604292664
 30
0.0
 10
18.7946618039
 20
5.3357058889
 30
0.0
 10
18.7622865152
 20
5.3084134658
 30
0.0
 10
18.7381724666
 20
5.2835731361
 30
0.0
 10
18.7208891044
 20
5.2626795437
 30
0.0
 10
18.7090206481
 20
5.2466420728
 30
0.0
 10
18.6981934205
 20
5.2301766833
 30
0.0
 10
18.6884333741
 20
5.213322507
 30
0.0
 10
18.6797644188
 20
5.196120204
 30
0.0
 10
18.6722077011
 20
5.1786112009
 30
0.0
 10
18.665781748
 20
5.1608377573
 30
0.0
 10
18.660502378
 20
5.142842778
 30
0.0
 10
18.6563826925
 20
5.1246699645
 30
0.0
 10
18.6534326171
 20
5.1063629243
 30
0.0
 10
18.651659787
 20
5.0879672999
 30
0.0
 10
18.6512653172
 20
5.0756682241
 30
0.0
 10
18.6512653172
 20
5.0695258234
 30
0.0
  0
SPLINE
  5
278
100
AcDbEntity
  8
0
100
AcDbSpline
 62
7
  6
CONTINUOUS
 70
0
 71
3
 72
30
 73
26
 74
0
 42
0.0000001
 43
0.0000001
 44
0.0000000001
 40
0.0
 40
0.0
 40
0.0
 40
0.0
 40
0.0704239413
 40
0.1405681529
 40
0.175456852
 40
0.2101750254
 40
0.2789618379
 40
0.3467073549
 40
0.4132076812
 40
0.4782963945
 40
0.5418523485
 40
0.6038063846
 40
0.6641480834
 40
0.6937388024
 40
0.7229519226
 40
0.7518045397
 40
0.7803179087
 40
0.8085173533
 40
0.8364321534
 40
0.8640952895
 40
0.891543088
 40
0.9188148035
 40
0.9459521808
 40
0.972998912
 40
1.0
 40
1.0
 40
1.0
 40
1.0
 10
19.1412653172
 20
5.4219062672
 30
0.0
 10
19.1262253084
 20
5.4219062672
 30
0.0
 10
19.0961935478
 20
5.4207786097
 30
0.0
 10
19.0589239151
 20
5.4165517716
 30
0.0
 10
19.0295031666
 20
5.4114933491
 30
0.0
 10
19.0005831723
 20
5.4053656598
 30
0.0
 10
18.9652664764
 20
5.3957059122
 30
0.0
 10
18.9244452663
 20
5.3809475897
 30
0.0
 10
18.8856965336
 20
5.3631960196
 30
0.0
 10
18.8493931728
 20
5.3426188803
 30
0.0
 10
18.8158825025
 20
5.3194092469
 30
0.0
 10
18.7854894109
 20
5.2937877614
 30
0.0
 10
18.7628517049
 20
5.270468307
 30
0.0
 10
18.7466265009
 20
5.2508539198
 30
0.0
 10
18.7354846948
 20
5.2357983332
 30
0.0
 10
18.7253203612
 20
5.220341033
 30
0.0
 10
18.7161578427
 20
5.2045187659
 30
0.0
 10
18.7080196394
 20
5.1883696773
 30
0.0
 10
18.7009255816
 20
5.1719326665
 30
0.0
 10
18.6948930537
 20
5.1552473998
 30
0.0
 10
18.6899368956
 20
5.1383541686
 30
0.0
 10
18.6860693761
 20
5.1212939206
 30
0.0
 10
18.6832999994
 20
5.1041077703
 30
0.0
 10
18.6816356048
 20
5.0868383505
 30
0.0
 10
18.6812653172
 20
5.07529228
 30
0.0
 10
18.6812653172
 20
5.0695258234
 30
0.0
  0
SPLINE
  5
279
100
AcDbEntity
  8
0
100
AcDbSpline
 62
7
  6
CONTINUOUS
 70
0
 71
3
 72
45
 73
41
 74
0
 42
0.0000001
 43
0.0000001
 44
0.0000000001
 40
0.0
 40
0.0
 40
0.0
 40
0.0
 40
0.0134494448
 40
0.026980026
 40
0.0406072101
 40
0.0543453522
 40
0.0682076084
 40
0.0822058476
 40
0.1106417565
 40
0.1397290354
 40
0.169510235
 40
0.2000043118
 40
0.2312076105
 40
0.2630954842
 40
0.295624325
 40
0.328733738
 40
0.3623489366
 40
0.396383116
 40
0.4307398932
 40
0.4653156942
 40
0.5000021894
 40
0.5346886538
 40
0.5692643629
 40
0.6036209891
 40
0.6376549619
 40
0.6712699027
 40
0.7043790129
 40
0.736907513
 40
0.7687950171
 40
0.799997927
 40
0.8304916069
 40
0.8602724138
 40
0.8893593169
 40
0.9177948805
 40
0.9317929625
 40
0.9456550741
 40
0.9593930854
 40
0.9730201541
 40
0.9865506364
 40
1.0
 40
1.0
 40
1.0
 40
1.0
 10
19.6224117706
 20
10.9147100476
 30
0.0
 10
19.6212573322
 20
10.9201339739
 30
0.0
 10
19.6186328356
 20
10.9309513831
 30
0.0
 10
19.6137802739
 20
10.9469842953
 30
0.0
 10
19.6080106646
 20
10.9628376427
 30
0.0
 10
19.6013356813
 20
10.9784798654
 30
0.0
 10
19.593768059
 20
10.9938811684
 30
0.0
 10
19.5824508549
 20
11.0141573372
 30
0.0
 10
19.5661000925
 20
11.0387643983
 30
0.0
 10
19.5432977594
 20
11.0666876006
 30
0.0
 10
19.5173867936
 20
11.0929564066
 30
0.0
 10
19.4885714135
 20
11.1173682043
 30
0.0
 10
19.4570756707
 20
11.1397379438
 30
0.0
 10
19.4231439557
 20
11.1598954129
 30
0.0
 10
19.3870385948
 20
11.1776871795
 30
0.0
 10
19.3490383976
 20
11.1929777722
 30
0.0
 10
19.3094365073
 20
11.2056506424
 30
0.0
 10
19.2685382414
 20
11.2156089526
 30
0.0
 10
19.2266589149
 20
11.2227767319
 30
0.0
 10
19.1841213343
 20
11.2270991314
 30
0.0
 10
19.1412534002
 20
11.2285430449
 30
0.0
 10
19.098385558
 20
11.227097528
 30
0.0
 10
19.0558482522
 20
11.2227735372
 30
0.0
 10
19.0139693815
 20
11.2156041913
 30
0.0
 10
18.9730717487
 20
11.2056443507
 30
0.0
 10
18.9334706641
 20
11.1929699982
 30
0.0
 10
18.895471439
 20
11.1776779826
 30
0.0
 10
18.8593672091
 20
11.159884863
 30
0.0
 10
18.8254367755
 20
11.1397261213
 30
0.0
 10
18.793942455
 20
11.1173551993
 30
0.0
 10
18.7651286276
 20
11.0929423176
 30
0.0
 10
18.739219333
 20
11.0666725352
 30
0.0
 10
18.7164187777
 20
11.0387484713
 30
0.0
 10
18.7000695882
 20
11.0141407975
 30
0.0
 10
18.6887536818
 20
10.9938642097
 30
0.0
 10
18.6811870425
 20
10.9784626221
 30
0.0
 10
18.674513058
 20
10.9628201482
 30
0.0
 10
18.668744461
 20
10.9469665836
 30
0.0
 10
18.663892923
 20
10.9309334888
 30
0.0
 10
18.6612691193
 20
10.9201159878
 30
0.0
 10
18.6601150278
 20
10.9146920219
 30
0.0
  0
SPLINE
  5
27A
100
AcDbEntity
  8
0
100
AcDbSpline
 62
9
  6
CONTINUOUS
 70
0
 71
3
 72
51
 73
47
 74
0
 42
0.0000001
 43
0.0000001
 44
0.0000000001
 40
0.0
 40
0.0
 40
0.0
 40
0.0
 40
0.0135004769
 40
0.0270243802
 40
0.0405930922
 40
0.0542291612
 40
0.0679532329
 40
0.0817849773
 40
0.0957425657
 40
0.1098424683
 40
0.1240993308
 40
0.1385258268
 40
0.1531325818
 40
0.1679281339
 40
0.198099364
 40
0.2290767934
 40
0.2608551694
 40
0.2933999593
 40
0.3266505401
 40
0.3605237481
 40
0.3949175857
 40
0.4297150193
 40
0.4647877502
 40
0.5
 40
0.5352122498
 40
0.5702849807
 40
0.6050824143
 40
0.6394762519
 40
0.6733494599
 40
0.7066000407
 40
0.7391448306
 40
0.7709232066
 40
0.801900636
 40
0.8320718661
 40
0.8468674182
 40
0.8614741732
 40
0.8759006692
 40
0.8901575317
 40
0.9042574343
 40
0.9182150227
 40
0.9320467671
 40
0.9457708388
 40
0.9594069078
 40
0.9729756198
 40
0.9864995231
 40
1.0
 40
1.0
 40
1.0
 40
1.0
 10
19.6287653172
 20
10.9865107484
 30
0.0
 10
19.6287653172
 20
10.9926218295
 30
0.0
 10
19.6283728513
 20
11.0048582058
 30
0.0
 10
19.6266090617
 20
11.0231600341
 30
0.0
 10
19.6236740187
 20
11.041373714
 30
0.0
 10
19.6195753381
 20
11.0594538206
 30
0.0
 10
19.6143228881
 20
11.0773569875
 30
0.0
 10
19.6079297127
 20
11.0950397404
 30
0.0
 10
19.6004115467
 20
11.1124593973
 30
0.0
 10
19.5917868175
 20
11.1295739184
 30
0.0
 10
19.5820765613
 20
11.1463420905
 30
0.0
 10
19.5713045705
 20
11.1627234649
 30
0.0
 10
19.5594966629
 20
11.1786791071
 30
0.0
 10
19.5423014748
 20
11.1994660923
 30
0.0
 10
19.5183104502
 20
11.224179669
 30
0.0
 10
19.4861003457
 20
11.2513328306
 30
0.0
 10
19.4505863696
 20
11.2759300475
 30
0.0
 10
19.412112599
 20
11.2977372929
 30
0.0
 10
19.3710476622
 20
11.3165501101
 30
0.0
 10
19.3277850026
 20
11.3321908822
 30
0.0
 10
19.2827385759
 20
11.3445121298
 30
0.0
 10
19.2363392106
 20
11.3533972181
 30
0.0
 10
19.1890306594
 20
11.358762229
 30
0.0
 10
19.1412653172
 20
11.3605561687
 30
0.0
 10
19.0934999751
 20
11.358762229
 30
0.0
 10
19.0461914239
 20
11.3533972181
 30
0.0
 10
18.9997920585
 20
11.3445121298
 30
0.0
 10
18.9547456319
 20
11.3321908822
 30
0.0
 10
18.9114829722
 20
11.3165501101
 30
0.0
 10
18.8704180355
 20
11.2977372929
 30
0.0
 10
18.8319442649
 20
11.2759300475
 30
0.0
 10
18.7964302887
 20
11.2513328306
 30
0.0
 10
18.7642201842
 20
11.224179669
 30
0.0
 10
18.7402291596
 20
11.1994660923
 30
0.0
 10
18.7230339716
 20
11.1786791071
 30
0.0
 10
18.711226064
 20
11.1627234649
 30
0.0
 10
18.7004540732
 20
11.1463420905
 30
0.0
 10
18.6907438169
 20
11.1295739184
 30
0.0
 10
18.6821190878
 20
11.1124593973
 30
0.0
 10
18.6746009218
 20
11.0950397404
 30
0.0
 10
18.6682077464
 20
11.0773569875
 30
0.0
 10
18.6629552963
 20
11.0594538206
 30
0.0
 10
18.6588566158
 20
11.041373714
 30
0.0
 10
18.6559215727
 20
11.0231600341
 30
0.0
 10
18.6541577832
 20
11.0048582058
 30
0.0
 10
18.6537653172
 20
10.9926218295
 30
0.0
 10
18.6537653172
 20
10.9865107484
 30
0.0
  0
SPLINE
  5
27B
100
AcDbEntity
  8
0
100
AcDbSpline
 62
9
  6
CONTINUOUS
 70
0
 71
3
 72
49
 73
45
 74
0
 42
0.0000001
 43
0.0000001
 44
0.0000000001
 40
0.0
 40
0.0
 40
0.0
 40
0.0
 40
0.0352131248
 40
0.0702864346
 40
0.1050846177
 40
0.1394792006
 40
0.1733531354
 40
0.2066044392
 40
0.2391499271
 40
0.2709289927
 40
0.3019070878
 40
0.3320789713
 40
0.3614711852
 40
0.3758979912
 40
0.390155163
 40
0.4042553711
 40
0.418213257
 40
0.4320453041
 40
0.4457696723
 40
0.4594059979
 40
0.4729751587
 40
0.4864989941
 40
0.5
 40
0.5135010059
 40
0.5270248413
 40
0.5405940021
 40
0.5542303277
 40
0.5679546959
 40
0.581786743
 40
0.5957446289
 40
0.609844837
 40
0.6241020088
 40
0.6385288148
 40
0.6679210286
 40
0.6980929122
 40
0.7290710073
 40
0.7608500728
 40
0.7933955608
 40
0.8266468646
 40
0.8605207994
 40
0.8949153823
 40
0.9297135654
 40
0.9647868751
 40
1.0
 40
1.0
 40
1.0
 40
1.0
 10
19.1412653172
 20
4.7183779479
 30
0.0
 10
19.1559783458
 20
4.7183779479
 30
0.0
 10
19.1853580395
 20
4.7194812157
 30
0.0
 10
19.2290254173
 20
4.72443348
 30
0.0
 10
19.2718560595
 20
4.7326351625
 30
0.0
 10
19.3134372599
 20
4.7440085336
 30
0.0
 10
19.3533720502
 20
4.7584462543
 30
0.0
 10
19.3912781398
 20
4.7758118193
 30
0.0
 10
19.4267924839
 20
4.7959417992
 30
0.0
 10
19.4595742358
 20
4.8186463091
 30
0.0
 10
19.4893081151
 20
4.8437128331
 30
0.0
 10
19.5157045729
 20
4.870902499
 30
0.0
 10
19.5348296642
 20
4.895276808
 30
0.0
 10
19.5481677984
 20
4.9155611091
 30
0.0
 10
19.5571313652
 20
4.931039673
 30
0.0
 10
19.5650925918
 20
4.9468376272
 30
0.0
 10
19.5720324489
 20
4.9629173329
 30
0.0
 10
19.5779338327
 20
4.9792398769
 30
0.0
 10
19.5827822493
 20
4.9957658539
 30
0.0
 10
19.5865656934
 20
5.0124552683
 30
0.0
 10
19.5892748663
 20
5.029267658
 30
0.0
 10
19.5909030798
 20
5.0461622265
 30
0.0
 10
19.591446283
 20
5.0630979473
 30
0.0
 10
19.5909030798
 20
5.080033668
 30
0.0
 10
19.5892748663
 20
5.0969282365
 30
0.0
 10
19.5865656934
 20
5.1137406262
 30
0.0
 10
19.5827822493
 20
5.1304300406
 30
0.0
 10
19.5779338327
 20
5.1469560176
 30
0.0
 10
19.5720324489
 20
5.1632785616
 30
0.0
 10
19.5650925918
 20
5.1793582674
 30
0.0
 10
19.5571313652
 20
5.1951562215
 30
0.0
 10
19.5481677984
 20
5.2106347855
 30
0.0
 10
19.5348296642
 20
5.2309190865
 30
0.0
 10
19.5157045729
 20
5.2552933955
 30
0.0
 10
19.4893081151
 20
5.2824830614
 30
0.0
 10
19.4595742358
 20
5.3075495854
 30
0.0
 10
19.4267924839
 20
5.3302540954
 30
0.0
 10
19.3912781398
 20
5.3503840752
 30
0.0
 10
19.3533720502
 20
5.3677496402
 30
0.0
 10
19.3134372599
 20
5.3821873609
 30
0.0
 10
19.2718560595
 20
5.3935607321
 30
0.0
 10
19.2290254173
 20
5.4017624146
 30
0.0
 10
19.1853580395
 20
5.4067146789
 30
0.0
 10
19.1559783458
 20
5.4078179467
 30
0.0
 10
19.1412653172
 20
5.4078179467
 30
0.0
  0
SPLINE
  5
27C
100
AcDbEntity
  8
0
100
AcDbSpline
 62
9
  6
CONTINUOUS
 70
0
 71
3
 72
49
 73
45
 74
0
 42
0.0000001
 43
0.0000001
 44
0.0000000001
 40
0.0
 40
0.0
 40
0.0
 40
0.0
 40
0.0352131248
 40
0.0702864346
 40
0.1050846177
 40
0.1394792006
 40
0.1733531354
 40
0.2066044392
 40
0.2391499271
 40
0.2709289927
 40
0.3019070878
 40
0.3320789713
 40
0.3614711852
 40
0.3758979912
 40
0.390155163
 40
0.4042553711
 40
0.418213257
 40
0.4320453041
 40
0.4457696723
 40
0.4594059979
 40
0.4729751587
 40
0.4864989941
 40
0.5
 40
0.5135010059
 40
0.5270248413
 40
0.5405940021
 40
0.5542303277
 40
0.5679546959
 40
0.581786743
 40
0.5957446289
 40
0.609844837
 40
0.6241020088
 40
0.6385288148
 40
0.6679210286
 40
0.6980929122
 40
0.7290710073
 40
0.7608500728
 40
0.7933955608
 40
0.8266468646
 40
0.8605207994
 40
0.8949153823
 40
0.9297135654
 40
0.9647868751
 40
1.0
 40
1.0
 40
1.0
 40
1.0
 10
19.1412653172
 20
5.4078179467
 30
0.0
 10
19.1265522887
 20
5.4078179467
 30
0.0
 10
19.0971725949
 20
5.4067146789
 30
0.0
 10
19.0535052172
 20
5.4017624146
 30
0.0
 10
19.0106745749
 20
5.3935607321
 30
0.0
 10
18.9690933745
 20
5.3821873609
 30
0.0
 10
18.9291585843
 20
5.3677496402
 30
0.0
 10
18.8912524946
 20
5.3503840752
 30
0.0
 10
18.8557381506
 20
5.3302540954
 30
0.0
 10
18.8229563987
 20
5.3075495854
 30
0.0
 10
18.7932225194
 20
5.2824830614
 30
0.0
 10
18.7668260616
 20
5.2552933955
 30
0.0
 10
18.7477009703
 20
5.2309190865
 30
0.0
 10
18.7343628361
 20
5.2106347855
 30
0.0
 10
18.7253992693
 20
5.1951562215
 30
0.0
 10
18.7174380426
 20
5.1793582674
 30
0.0
 10
18.7104981856
 20
5.1632785616
 30
0.0
 10
18.7045968017
 20
5.1469560176
 30
0.0
 10
18.6997483851
 20
5.1304300406
 30
0.0
 10
18.695964941
 20
5.1137406262
 30
0.0
 10
18.6932557681
 20
5.0969282365
 30
0.0
 10
18.6916275547
 20
5.080033668
 30
0.0
 10
18.6910843515
 20
5.0630979473
 30
0.0
 10
18.6916275547
 20
5.0461622265
 30
0.0
 10
18.6932557681
 20
5.029267658
 30
0.0
 10
18.695964941
 20
5.0124552683
 30
0.0
 10
18.6997483851
 20
4.9957658539
 30
0.0
 10
18.7045968017
 20
4.9792398769
 30
0.0
 10
18.7104981856
 20
4.9629173329
 30
0.0
 10
18.7174380426
 20
4.9468376272
 30
0.0
 10
18.7253992693
 20
4.931039673
 30
0.0
 10
18.7343628361
 20
4.9155611091
 30
0.0
 10
18.7477009703
 20
4.895276808
 30
0.0
 10
18.7668260616
 20
4.870902499
 30
0.0
 10
18.7932225194
 20
4.8437128332
 30
0.0
 10
18.8229563987
 20
4.8186463091
 30
0.0
 10
18.8557381506
 20
4.7959417992
 30
0.0
 10
18.8912524946
 20
4.7758118193
 30
0.0
 10
18.9291585843
 20
4.7584462543
 30
0.0
 10
18.9690933745
 20
4.7440085336
 30
0.0
 10
19.0106745749
 20
4.7326351625
 30
0.0
 10
19.0535052172
 20
4.72443348
 30
0.0
 10
19.0971725949
 20
4.7194812157
 30
0.0
 10
19.1265522887
 20
4.7183779479
 30
0.0
 10
19.1412653172
 20
4.7183779479
 30
0.0
  0
ENDSEC
  0
SECTION
  2
OBJECTS
  0
DICTIONARY
  5
C
100
AcDbDictionary
280
0
281
1
  3
ACAD_GROUP
350
D
  3
ACAD_MLINESTYLE
350
17
  3
ACAD_LAYOUT
350
1A
  3
ACAD_PLOTSETTINGS
350
19
  3
ACAD_PLOTSTYLENAME
350
E
  0
DICTIONARY
  5
D
102
{ACAD_REACTORS
330
C
102
}
100
AcDbDictionary
280
0
281
1
  0
ACDBDICTIONARYWDFLT
  5
E
102
{ACAD_REACTORS
330
C
102
}
100
AcDbDictionary
281
1
  3
Normal
350
F
100
AcDbDictionaryWithDefault
340
F
  0
DICTIONARY
  5
17
102
{ACAD_REACTORS
330
C
102
}
100
AcDbDictionary
280
0
281
1
  3
Standard
350
18
  0
DICTIONARY
  5
19
102
{ACAD_REACTORS
330
C
102
}
100
AcDbDictionary
281
1
  0
DICTIONARY
  5
1A
102
{ACAD_REACTORS
330
C
102
}
100
AcDbDictionary
281
1
  3
Model
350
27D
  3
Layout1
350
27E
  0
ACDBPLACEHOLDER
  5
F
102
{ACAD_REACTORS
330
E
102
}
  0
MLINESTYLE
  5
18
102
{ACAD_REACTORS
330
17
102
}
100
AcDbMlineStyle
  2
STANDARD
 70
0
  3

 62
256
 51
90.0
 52
90.0
 71
2
 49
0.5
 62
256
  6
BYLAYER
 49
-0.5
 62
256
  6
BYLAYER
  0
LAYOUT
  5
27D
102
{ACAD_REACTORS
330
1A
102
}
100
AcDbPlotSettings
  1

  2
none_device
  4
ANSI_C_(22.00_x_17.00_Inches)
  6

 40
0.0
 41
0.0
 42
0.0
 43
0.0
 44
558.8
 45
431.8
 46
0.0
 47
0.0
 48
0.0
 49
0.0
140
0.0
141
0.0
142
1.0
143
1.0
 70
1024
 72
0
 73
0
 74
0
  7

 75
0
147
1.0
148
0.0
149
0.0
100
AcDbLayout
  1
Model
 70
0
 71
0
 10
0.0
 20
0.0
 11
22.0
 21
17.0
 12
0.0
 22
0.0
 32
0.0
 14
0.0
 24
0.0
 34
0.0
 15
0.0
 25
0.0
 35
0.0
146
0.0
 13
0.0
 23
0.0
 33
0.0
 16
1.0
 26
0.0
 36
0.0
 17
0.0
 27
1.0
 37
0.0
 76
0
330
205
345
0
346
0
  0
LAYOUT
  5
27E
102
{ACAD_REACTORS
330
1A
102
}
100
AcDbPlotSettings
  1

  2
none_device
  4
ANSI_C_(22.00_x_17.00_Inches)
  6

 40
0.0
 41
0.0
 42
0.0
 43
0.0
 44
558.8
 45
431.8
 46
0.0
 47
0.0
 48
0.0
 49
0.0
140
0.0
141
0.0
142
1.0
143
1.0
 70
0
 72
0
 73
0
 74
0
  7

 75
0
147
1.0
148
0.0
149
0.0
100
AcDbLayout
  1
Layout1
 70
0
 71
1
 10
0.0
 20
0.0
 11
22.0
 21
17.0
 12
0.0
 22
0.0
 32
0.0
 14
0.0
 24
0.0
 34
0.0
 15
0.0
 25
0.0
 35
0.0
146
0.0
 13
0.0
 23
0.0
 33
0.0
 16
1.0
 26
0.0
 36
0.0
 17
0.0
 27
1.0
 37
0.0
 76
0
330
206
345
0
346
0
  0
ENDSEC
  0
EOF
