999
DXF file: E:\BT Custom\CADOUTPUT\_TOP.dxf
999
Pro/ENGINEER 2018400 by Parametric Technology Corporation
  0
SECTION
  2
HEADER
  9
$ACADVER
  1
AC1018
  9
$DWGCODEPAGE
  3
ANSI_1252
  9
$EXTMAX
 10
22.0
 20
17.0
 30
0.0
  9
$EXTMIN
 10
0.0
 20
0.0
 30
0.0
  9
$LIMMIN
 10
0.0
 20
0.0
  9
$LIMMAX
 10
22.0
 20
17.0
  9
$VIEWCTR
 10
11.0
 20
8.5
  9
$VIEWSIZE
 40
17.0
  9
$CLAYER
  8
0
  9
$LTSCALE
 40
1.21
  9
$CELTYPE
  6
BYLAYER
  9
$DIMSCALE
 40
1.0
  9
$DIMASZ
 40
0.1
  9
$DIMEXO
 40
0.0625
  9
$DIMDLI
 40
0.836
  9
$DIMEXE
 40
0.125
  9
$DIMCEN
 40
0.198
  9
$DIMLFAC
 40
1.0
  9
$DIMBLK
  1
_FILLED
  9
$DIMALT
 70
1
  9
$DIMALTD
 70
2
  9
$DIMALTTD
 70
2
  9
$DIMALTF
 40
25.4
  9
$DIMTXT
 40
0.08
  9
$DIMTOL
 70
1
  9
$DIMLIM
 70
0
  9
$DIMTFAC
 40
1.0
  9
$DIMTP
 40
0.001
  9
$DIMTM
 40
0.001
  9
$DIMGAP
 40
0.09
  9
$DIMDSEP
 70
46
  9
$AUNITS
 70
0
  9
$PDMODE
 70
3
  9
$PDSIZE
 40
0.06
  9
$HANDSEED
  5
278
  9
$TILEMODE
 70
1
  9
$MEASUREMENT
 70
0
  9
$INSUNITS
 70
1
  0
ENDSEC
  0
SECTION
  2
CLASSES
  0
CLASS
  1
ACDBDICTIONARYWDFLT
  2
AcDbDictionaryWithDefault
  3
AutoCAD 2000
 90
0
 91
1
280
0
281
0
  0
CLASS
  1
ACDBPLACEHOLDER
  2
AcDbPlaceHolder
  3
AutoCAD 2000
 90
0
 91
1
280
0
281
0
  0
CLASS
  1
LAYOUT
  2
AcDbLayout
  3
AutoCAD 2000
 90
0
 91
0
280
0
281
0
  0
ENDSEC
  0
SECTION
  2
TABLES
  0
TABLE
  2
VPORT
  5
8
100
AcDbSymbolTable
 70
2
  0
VPORT
  5
1F4
100
AcDbSymbolTableRecord
100
AcDbViewportTableRecord
  2
*ACTIVE
 70
0
 10
0.0
 20
0.0
 11
1.0
 21
1.0
 12
11.0
 22
8.5
 13
0.0
 23
0.0
 14
1.0
 24
1.0
 15
0.0
 25
0.0
 16
0.0
 26
0.0
 36
1.0
 17
0.0
 27
0.0
 37
0.0
 40
17.0
 41
1.2941176471
 42
50.0
 43
0.0
 44
0.0
 50
0.0
 51
0.0
 71
0
 72
100
 73
1
 74
1
 75
0
 76
0
 77
0
 78
0
  0
ENDTAB
  0
TABLE
  2
LTYPE
  5
5
100
AcDbSymbolTable
 70
6
  0
LTYPE
  5
14
100
AcDbSymbolTableRecord
100
AcDbLinetypeTableRecord
  2
BYBLOCK
 70
0
  3

 72
65
 73
0
 40
0.0
  0
LTYPE
  5
15
100
AcDbSymbolTableRecord
100
AcDbLinetypeTableRecord
  2
BYLAYER
 70
0
  3

 72
65
 73
0
 40
0.0
  0
LTYPE
  5
16
100
AcDbSymbolTableRecord
100
AcDbLinetypeTableRecord
  2
CONTINUOUS
 70
64
  3
Solid line
 72
65
 73
0
 40
0.0
  0
LTYPE
  5
1F5
100
AcDbSymbolTableRecord
100
AcDbLinetypeTableRecord
  2
CENTER
 70
64
  3
____ _ ____ _ ____ _ ____ _ ____ _ ____ _ ____
 72
65
 73
4
 40
0.6
 49
0.375
 74
0
 49
-0.075
 74
0
 49
0.075
 74
0
 49
-0.075
 74
0
  0
LTYPE
  5
1F6
100
AcDbSymbolTableRecord
100
AcDbLinetypeTableRecord
  2
HIDDEN
 70
64
  3
- - - - - - - - - - - - - - - - - - - -
 72
65
 73
2
 40
0.2
 49
0.1
 74
0
 49
-0.1
 74
0
  0
LTYPE
  5
1F7
100
AcDbSymbolTableRecord
100
AcDbLinetypeTableRecord
  2
PHANTOM
 70
64
  3
_____ _ _ _____ _ _ _____ _ _ _____
 72
65
 73
6
 40
0.8
 49
0.45
 74
0
 49
-0.05
 74
0
 49
0.1
 74
0
 49
-0.05
 74
0
 49
0.1
 74
0
 49
-0.05
 74
0
  0
LTYPE
  5
1F8
100
AcDbSymbolTableRecord
100
AcDbLinetypeTableRecord
  2
DOT
 70
64
  3
. . . . . . . . . . . . . . . . . . . .
 72
65
 73
2
 40
0.2
 49
0.1
 74
0
 49
-0.1
 74
0
  0
LTYPE
  5
1F9
100
AcDbSymbolTableRecord
100
AcDbLinetypeTableRecord
  2
DASHED
 70
64
  3
- - - - - - - - - - - - - - - - - - - -
 72
65
 73
2
 40
0.2
 49
0.1
 74
0
 49
-0.1
 74
0
  0
ENDTAB
  0
TABLE
  2
LAYER
  5
2
100
AcDbSymbolTable
 70
36
  0
LAYER
  5
10
100
AcDbSymbolTableRecord
100
AcDbLayerTableRecord
  2
0
 70
0
 62
7
  6
CONTINUOUS
370
-3
390
F
  0
LAYER
  5
1FA
100
AcDbSymbolTableRecord
100
AcDbLayerTableRecord
  2
DEFAULT_1
 70
0
 62
7
  6
CENTER
370
-3
390
F
  0
LAYER
  5
1FB
100
AcDbSymbolTableRecord
100
AcDbLayerTableRecord
  2
DEFAULT_2
 70
0
 62
8
  6
HIDDEN
370
-3
390
F
  0
LAYER
  5
1FC
100
AcDbSymbolTableRecord
100
AcDbLayerTableRecord
  2
DEFAULT_3
 70
0
 62
7
  6
PHANTOM
370
-3
390
F
  0
LAYER
  5
1FD
100
AcDbSymbolTableRecord
100
AcDbLayerTableRecord
  2
ALL_FEATURES
 70
0
 62
7
  6
CONTINUOUS
370
-3
390
F
  0
LAYER
  5
1FE
100
AcDbSymbolTableRecord
100
AcDbLayerTableRecord
  2
AXES_FEATURES
 70
0
 62
7
  6
CONTINUOUS
370
-3
390
F
  0
LAYER
  5
1FF
100
AcDbSymbolTableRecord
100
AcDbLayerTableRecord
  2
DEFAULT_COORDINATE_SYSTEM
 70
0
 62
7
  6
CONTINUOUS
370
-3
390
F
  0
LAYER
  5
200
100
AcDbSymbolTableRecord
100
AcDbLayerTableRecord
  2
DEFAULT_DATUM_AXES
 70
0
 62
7
  6
CONTINUOUS
370
-3
390
F
  0
LAYER
  5
201
100
AcDbSymbolTableRecord
100
AcDbLayerTableRecord
  2
DEFAULT_DATUM_PLANES
 70
0
 62
7
  6
CONTINUOUS
370
-3
390
F
  0
LAYER
  5
202
100
AcDbSymbolTableRecord
100
AcDbLayerTableRecord
  2
DIMENSIONS
 70
0
 62
7
  6
CONTINUOUS
370
-3
390
F
  0
ENDTAB
  0
TABLE
  2
STYLE
  5
3
100
AcDbSymbolTable
 70
1
  0
STYLE
  5
11
100
AcDbSymbolTableRecord
100
AcDbTextStyleTableRecord
  2
STANDARD
 70
0
 40
0.0
 41
0.8
 50
0.0
 71
0
 42
0.2
  3
txt
  4

  0
STYLE
  5
203
100
AcDbSymbolTableRecord
100
AcDbTextStyleTableRecord
  2
TEXTSTYLE_1
 70
0
 40
0.0
 41
0.8
 50
0.0
 71
0
 42
0.2
  3
gdt
  4

  0
ENDTAB
  0
TABLE
  2
VIEW
  5
6
100
AcDbSymbolTable
 70
0
  0
ENDTAB
  0
TABLE
  2
UCS
  5
7
100
AcDbSymbolTable
 70
0
  0
ENDTAB
  0
TABLE
  2
APPID
  5
9
100
AcDbSymbolTable
 70
1
  0
APPID
  5
204
100
AcDbSymbolTableRecord
100
AcDbRegAppTableRecord
  2
ACAD
 70
0
  0
ENDTAB
  0
TABLE
  2
BLOCK_RECORD
  5
1
100
AcDbSymbolTable
 70
0
  0
BLOCK_RECORD
  5
205
100
AcDbSymbolTableRecord
100
AcDbBlockTableRecord
  2
*Model_Space
  0
BLOCK_RECORD
  5
206
100
AcDbSymbolTableRecord
100
AcDbBlockTableRecord
  2
*Paper_Space
  0
BLOCK_RECORD
  5
207
100
AcDbSymbolTableRecord
100
AcDbBlockTableRecord
  2
_FILLED
  0
ENDTAB
  0
TABLE
  2
DIMSTYLE
  5
A
100
AcDbSymbolTable
 70
1
100
AcDbDimStyleTable
 71
0
  0
DIMSTYLE
105
208
100
AcDbSymbolTableRecord
100
AcDbDimStyleTableRecord
  2
STANDARD
 70
0
  3

  4

 40
1.0
 41
0.1
 42
0.0625
 43
0.38
 44
0.125
 45
0.0
 46
0.0
 47
0.001
 48
0.001
140
0.08
141
0.09
142
0.0
143
25.4
144
1.0
145
0.0
146
1.0
147
0.09
 71
1.0
 72
0.0
 73
1
 74
1
 75
0
 76
0
 77
0
 78
4
 79
1
170
1
171
2
172
0
173
0
174
0
175
0
176
0
177
0
178
0
270
2
179
3
271
3
272
3
273
2
274
2
275
0
280
0
281
0
282
0
283
1
284
4
285
0
286
0
287
3
288
0
340
11
278
46
341
207
342
207
343
207
344
207
  0
ENDTAB
  0
ENDSEC
  0
SECTION
  2
BLOCKS
  0
BLOCK
  5
20
100
AcDbEntity
  8
0
100
AcDbBlockBegin
  2
*Model_Space
 70
0
 10
0.0
 20
0.0
 30
0.0
  3
*Model_Space
  1

  0
ENDBLK
  5
21
100
AcDbEntity
  8
0
100
AcDbBlockEnd
  0
BLOCK
  5
1C
100
AcDbEntity
  8
0
100
AcDbBlockBegin
  2
*Paper_Space
 70
0
 10
0.0
 20
0.0
 30
0.0
  3
*Paper_Space
  1

  0
ENDBLK
  5
1D
100
AcDbEntity
  8
0
100
AcDbBlockEnd
  0
BLOCK
  5
209
100
AcDbEntity
  8
0
100
AcDbBlockBegin
  2
_FILLED
 70
64
 10
0.0
 20
0.0
  3
_FILLED
  1

  0
SOLID
  5
20A
100
AcDbEntity
  8
0
  6
BYBLOCK
 62
0
100
AcDbTrace
 10
0.0
 20
0.0
 11
-1.0
 21
0.2
 12
-1.0
 22
-0.2
 13
-1.0
 23
-0.2
  0
ENDBLK
  5
20B
100
AcDbEntity
  8
0
  6
BYBLOCK
 62
0
100
AcDbBlockEnd
  0
ENDSEC
  0
SECTION
  2
ENTITIES
  0
LINE
  5
20C
100
AcDbEntity
  8
0
100
AcDbLine
 62
7
  6
CONTINUOUS
 10
-0.0409316616
 20
10.9398318604
 11
-0.0409316616
 21
11.5248318604
  0
LINE
  5
20D
100
AcDbEntity
  8
0
100
AcDbLine
 62
7
  6
CONTINUOUS
 10
-0.0209316616
 20
10.9198318604
 11
-0.0209316616
 21
11.5448318604
  0
LINE
  5
20E
100
AcDbEntity
  8
0
100
AcDbLine
 62
7
  6
CONTINUOUS
 10
-0.0409316617
 20
11.5248318603
 11
-0.0209316617
 21
11.5448318603
  0
LINE
  5
20F
100
AcDbEntity
  8
0
100
AcDbLine
 62
7
  6
CONTINUOUS
 10
3.8140683384
 20
11.5448318604
 11
3.8140683384
 21
10.9198318604
  0
LINE
  5
210
100
AcDbEntity
  8
0
100
AcDbLine
 62
7
  6
CONTINUOUS
 10
3.8340683384
 20
11.5248318604
 11
3.8340683384
 21
10.9398318604
  0
LINE
  5
211
100
AcDbEntity
  8
0
100
AcDbLine
 62
7
  6
CONTINUOUS
 10
3.8340683386
 20
10.9398318606
 11
3.8140683386
 21
10.9198318606
  0
LINE
  5
212
100
AcDbEntity
  8
0
100
AcDbLine
 62
7
  6
CONTINUOUS
 10
-0.0409316617
 20
10.9398318605
 11
-0.0209316617
 21
10.9198318605
  0
LINE
  5
213
100
AcDbEntity
  8
0
100
AcDbLine
 62
7
  6
CONTINUOUS
 10
6.5105683384
 20
2.9823318604
 11
6.5105683384
 21
11.2323318604
  0
LINE
  5
214
100
AcDbEntity
  8
0
100
AcDbLine
 62
7
  6
CONTINUOUS
 10
7.3855683384
 20
2.9823318604
 11
7.3855683384
 21
11.2323318604
  0
LINE
  5
215
100
AcDbEntity
  8
0
100
AcDbLine
 62
7
  6
CONTINUOUS
 10
10.0620683383
 20
11.5248318603
 11
10.0820683383
 21
11.5448318603
  0
LINE
  5
216
100
AcDbEntity
  8
0
100
AcDbLine
 62
9
  6
CONTINUOUS
 10
6.5105683384
 20
4.4823318604
 11
7.3855683384
 21
4.4823318604
  0
LINE
  5
217
100
AcDbEntity
  8
0
100
AcDbLine
 62
7
  6
CONTINUOUS
 10
3.8340683386
 20
11.5248318602
 11
3.8140683386
 21
11.5448318602
  0
LINE
  5
218
100
AcDbEntity
  8
0
100
AcDbLine
 62
7
  6
CONTINUOUS
 10
10.0620683384
 20
10.9398318604
 11
10.0620683384
 21
11.5248318604
  0
LINE
  5
219
100
AcDbEntity
  8
0
100
AcDbLine
 62
7
  6
CONTINUOUS
 10
10.0820683384
 20
10.9198318604
 11
10.0820683384
 21
11.5448318604
  0
LINE
  5
21A
100
AcDbEntity
  8
0
100
AcDbLine
 62
7
  6
CONTINUOUS
 10
13.9370683386
 20
10.9398318606
 11
13.9170683386
 21
10.9198318606
  0
LINE
  5
21B
100
AcDbEntity
  8
0
100
AcDbLine
 62
7
  6
CONTINUOUS
 10
15.0620683383
 20
11.5248318603
 11
15.0820683383
 21
11.5448318603
  0
LINE
  5
21C
100
AcDbEntity
  8
0
100
AcDbLine
 62
9
  6
CONTINUOUS
 10
6.5105683384
 20
9.7323318604
 11
7.3855683384
 21
9.7323318604
  0
LINE
  5
21D
100
AcDbEntity
  8
0
100
AcDbLine
 62
7
  6
CONTINUOUS
 10
10.0620683383
 20
10.9398318605
 11
10.0820683383
 21
10.9198318605
  0
LINE
  5
21E
100
AcDbEntity
  8
0
100
AcDbLine
 62
7
  6
CONTINUOUS
 10
13.9170683384
 20
11.5448318604
 11
13.9170683384
 21
10.9198318604
  0
LINE
  5
21F
100
AcDbEntity
  8
0
100
AcDbLine
 62
7
  6
CONTINUOUS
 10
13.9370683384
 20
11.5248318604
 11
13.9370683384
 21
10.9398318604
  0
LINE
  5
220
100
AcDbEntity
  8
0
100
AcDbLine
 62
7
  6
CONTINUOUS
 10
18.9370683386
 20
10.9398318606
 11
18.9170683386
 21
10.9198318606
  0
LINE
  5
221
100
AcDbEntity
  8
0
100
AcDbLine
 62
7
  6
CONTINUOUS
 10
15.0620683384
 20
10.9398318604
 11
15.0620683384
 21
11.5248318604
  0
LINE
  5
222
100
AcDbEntity
  8
0
100
AcDbLine
 62
7
  6
CONTINUOUS
 10
15.0820683384
 20
10.9198318604
 11
15.0820683384
 21
11.5448318604
  0
LINE
  5
223
100
AcDbEntity
  8
0
100
AcDbLine
 62
7
  6
CONTINUOUS
 10
18.9170683384
 20
10.9198318604
 11
15.0820683384
 21
10.9198318604
  0
LINE
  5
224
100
AcDbEntity
  8
0
100
AcDbLine
 62
7
  6
CONTINUOUS
 10
13.9170683384
 20
10.9198318604
 11
10.0820683384
 21
10.9198318604
  0
LINE
  5
225
100
AcDbEntity
  8
0
100
AcDbLine
 62
7
  6
CONTINUOUS
 10
3.8140683384
 20
10.9198318604
 11
-0.0209316616
 21
10.9198318604
  0
LINE
  5
226
100
AcDbEntity
  8
0
100
AcDbLine
 62
7
  6
CONTINUOUS
 10
18.9170683384
 20
11.5448318604
 11
15.0820683384
 21
11.5448318604
  0
LINE
  5
227
100
AcDbEntity
  8
0
100
AcDbLine
 62
7
  6
CONTINUOUS
 10
13.9170683384
 20
11.5448318604
 11
10.0820683384
 21
11.5448318604
  0
LINE
  5
228
100
AcDbEntity
  8
0
100
AcDbLine
 62
7
  6
CONTINUOUS
 10
3.8140683384
 20
11.5448318604
 11
-0.0209316616
 21
11.5448318604
  0
LINE
  5
229
100
AcDbEntity
  8
0
100
AcDbLine
 62
7
  6
CONTINUOUS
 10
13.9370683386
 20
11.5248318602
 11
13.9170683386
 21
11.5448318602
  0
LINE
  5
22A
100
AcDbEntity
  8
0
100
AcDbLine
 62
7
  6
CONTINUOUS
 10
15.0620683383
 20
10.9398318605
 11
15.0820683383
 21
10.9198318605
  0
LINE
  5
22B
100
AcDbEntity
  8
0
100
AcDbLine
 62
7
  6
CONTINUOUS
 10
18.9170683384
 20
11.5448318604
 11
18.9170683384
 21
10.9198318604
  0
LINE
  5
22C
100
AcDbEntity
  8
0
100
AcDbLine
 62
7
  6
CONTINUOUS
 10
18.9370683384
 20
11.5248318604
 11
18.9370683384
 21
10.9398318604
  0
LWPOLYLINE
  5
22D
100
AcDbEntity
  8
0
100
AcDbPolyline
 62
7
  6
CONTINUOUS
 90
4
 70
0
 10
21.4505493571
 20
11.0149160611
 10
21.4515202382
 20
11.017174988
 10
21.4525462668
 20
11.0195913512
 10
21.4536263229
 20
11.0221698007
  0
LINE
  5
22E
100
AcDbEntity
  8
0
100
AcDbLine
 62
7
  6
CONTINUOUS
 10
21.4487910069
 20
11.0108971994
 11
21.4505493571
 21
11.0149160611
  0
LINE
  5
22F
100
AcDbEntity
  8
0
100
AcDbLine
 62
7
  6
CONTINUOUS
 10
21.4472872752
 20
11.0075273814
 11
21.4487910069
 21
11.0108971994
  0
LINE
  5
230
100
AcDbEntity
  8
0
100
AcDbLine
 62
7
  6
CONTINUOUS
 10
21.4460016883
 20
11.0046941798
 11
21.4472872752
 21
11.0075273814
  0
LINE
  5
231
100
AcDbEntity
  8
0
100
AcDbLine
 62
7
  6
CONTINUOUS
 10
21.4445363085
 20
11.001516327
 11
21.4460016883
 21
11.0046941798
  0
LINE
  5
232
100
AcDbEntity
  8
0
100
AcDbLine
 62
7
  6
CONTINUOUS
 10
21.4438498437
 20
11.0000461545
 11
21.4445363085
 21
11.001516327
  0
LWPOLYLINE
  5
233
100
AcDbEntity
  8
0
100
AcDbPolyline
 62
7
  6
CONTINUOUS
 90
9
 70
0
 10
21.4660649257
 20
11.055030475
 10
21.4673711617
 20
11.0588931776
 10
21.4686722284
 20
11.0628380287
 10
21.4699639508
 20
11.0668585201
 10
21.4712427378
 20
11.0709478545
 10
21.4725058109
 20
11.0751004926
 10
21.4737501277
 20
11.0793116798
 10
21.4749725197
 20
11.0835755191
 10
21.4755275682
 20
11.0855560446
  0
LWPOLYLINE
  5
234
100
AcDbEntity
  8
0
100
AcDbPolyline
 62
7
  6
CONTINUOUS
 90
11
 70
0
 10
21.4536263229
 20
11.0221698007
 10
21.4547515987
 20
11.0248978122
 10
21.45591382
 20
11.0277609907
 10
21.4571096607
 20
11.0307545902
 10
21.4583378222
 20
11.0338831725
 10
21.4595912168
 20
11.0371370443
 10
21.4608634863
 20
11.0405054034
 10
21.4621512236
 20
11.0439832338
 10
21.4634509688
 20
11.0475687508
 10
21.4647571476
 20
11.0512539852
 10
21.4660649257
 20
11.055030475
  0
LINE
  5
235
100
AcDbEntity
  8
0
100
AcDbLine
 62
7
  6
CONTINUOUS
 10
18.9370683386
 20
11.5248318602
 11
18.9170683386
 21
11.5448318602
  0
LINE
  5
236
100
AcDbEntity
  8
0
100
AcDbLine
 62
7
  6
CONTINUOUS
 10
20.4480683384
 20
10.6205426296
 11
20.4480683384
 21
5.1697036995
  0
LINE
  5
237
100
AcDbEntity
  8
0
100
AcDbLine
 62
7
  6
CONTINUOUS
 10
20.4580683384
 20
10.8519461691
 11
20.4580683384
 21
10.9355085583
  0
LINE
  5
238
100
AcDbEntity
  8
0
100
AcDbLine
 62
7
  6
CONTINUOUS
 10
20.4605683384
 20
11.2323318604
 11
20.4605683384
 21
10.9717619068
  0
LINE
  5
239
100
AcDbEntity
  8
0
100
AcDbLine
 62
7
  6
CONTINUOUS
 10
20.4780683384
 20
10.9580924008
 11
20.4780683384
 21
10.7524003657
  0
LINE
  5
23A
100
AcDbEntity
  8
0
100
AcDbLine
 62
7
  6
CONTINUOUS
 10
21.4180683384
 20
10.7517042269
 11
21.4180683384
 21
10.9580924008
  0
LINE
  5
23B
100
AcDbEntity
  8
0
100
AcDbLine
 62
7
  6
CONTINUOUS
 10
21.4355683384
 20
11.2323318604
 11
21.4355683384
 21
10.9717601983
  0
LINE
  5
23C
100
AcDbEntity
  8
0
100
AcDbLine
 62
7
  6
CONTINUOUS
 10
21.4380683384
 20
10.8519461691
 11
21.4380683384
 21
10.9355085583
  0
LINE
  5
23D
100
AcDbEntity
  8
0
100
AcDbLine
 62
7
  6
CONTINUOUS
 10
21.4480683384
 20
10.6205426296
 11
21.4480683384
 21
5.1697036995
  0
LINE
  5
23E
100
AcDbEntity
  8
0
100
AcDbLine
 62
7
  6
CONTINUOUS
 10
21.4445053853
 20
11.463213942
 11
21.4434411058
 21
11.4654869675
  0
LINE
  5
23F
100
AcDbEntity
  8
0
100
AcDbLine
 62
7
  6
CONTINUOUS
 10
21.445948467
 20
11.4600858385
 11
21.4445053853
 21
11.463213942
  0
LINE
  5
240
100
AcDbEntity
  8
0
100
AcDbLine
 62
7
  6
CONTINUOUS
 10
21.4472331019
 20
11.4572566613
 11
21.445948467
 21
11.4600858385
  0
LINE
  5
241
100
AcDbEntity
  8
0
100
AcDbLine
 62
7
  6
CONTINUOUS
 10
21.4487222105
 20
11.4539219287
 11
21.4472331019
 21
11.4572566613
  0
LINE
  5
242
100
AcDbEntity
  8
0
100
AcDbLine
 62
7
  6
CONTINUOUS
 10
21.4504157224
 20
11.4500563839
 11
21.4487222105
 21
11.4539219287
  0
LWPOLYLINE
  5
243
100
AcDbEntity
  8
0
100
AcDbPolyline
 62
7
  6
CONTINUOUS
 90
4
 70
0
 10
21.4539020608
 20
11.4418253248
 10
21.4532546298
 20
11.4433855683
 10
21.4522687866
 20
11.4457288539
 10
21.4504157224
 20
11.4500563839
  0
LINE
  5
244
100
AcDbEntity
  8
0
100
AcDbLine
 62
7
  6
CONTINUOUS
 10
21.4673339713
 20
11.4058818281
 11
21.4664790436
 21
11.4084090831
  0
LWPOLYLINE
  5
245
100
AcDbEntity
  8
0
100
AcDbPolyline
 62
7
  6
CONTINUOUS
 90
8
 70
0
 10
21.4755275715
 20
11.3791076726
 10
21.4748949683
 20
11.3813626585
 10
21.4736566465
 20
11.385672795
 10
21.4724054592
 20
11.3898974982
 10
21.4711446932
 20
11.3940333897
 10
21.469877275
 20
11.3980783807
 10
21.4686059135
 20
11.4020292363
 10
21.4673339713
 20
11.4058818281
  0
ARC
  5
246
100
AcDbEntity
  8
0
100
AcDbCircle
 62
7
  6
CONTINUOUS
 10
6.9480683384
 20
2.9823318604
 40
0.4375
100
AcDbArc
 50
180.0
 51
360.0
  0
ARC
  5
247
100
AcDbEntity
  8
0
100
AcDbCircle
 62
7
  6
CONTINUOUS
 10
6.9480683384
 20
11.2323318604
 40
1.1875
100
AcDbArc
 50
291.6332662532
 51
248.3667337468
  0
ARC
  5
248
100
AcDbEntity
  8
0
100
AcDbCircle
 62
7
  6
CONTINUOUS
 10
2.9480683384
 20
11.2323318604
 40
1.1875
100
AcDbArc
 50
195.264102689
 51
164.735897311
  0
ARC
  5
249
100
AcDbEntity
  8
0
100
AcDbCircle
 62
7
  6
CONTINUOUS
 10
10.9480683384
 20
11.2323318604
 40
1.1875
100
AcDbArc
 50
15.2577228006
 51
344.7422771994
  0
ARC
  5
24A
100
AcDbEntity
  8
0
100
AcDbCircle
 62
7
  6
CONTINUOUS
 10
6.9480683384
 20
11.2323318604
 40
0.6875
100
AcDbArc
 50
309.5615998076
 51
230.4384001924
  0
ARC
  5
24B
100
AcDbEntity
  8
0
100
AcDbCircle
 62
7
  6
CONTINUOUS
 10
2.9480683384
 20
11.2323318604
 40
0.65625
100
AcDbArc
 50
28.4404971353
 51
151.5595028647
  0
ARC
  5
24C
100
AcDbEntity
  8
0
100
AcDbCircle
 62
7
  6
CONTINUOUS
 10
2.9480683384
 20
11.2323318604
 40
0.65625
100
AcDbArc
 50
208.4404974902
 51
331.5595025098
  0
ARC
  5
24D
100
AcDbEntity
  8
0
100
AcDbCircle
 62
7
  6
CONTINUOUS
 10
10.9480683384
 20
11.2323318604
 40
0.65625
100
AcDbArc
 50
28.4511035467
 51
151.5488968105
  0
ARC
  5
24E
100
AcDbEntity
  8
0
100
AcDbCircle
 62
7
  6
CONTINUOUS
 10
10.9480683384
 20
11.2323318604
 40
0.65625
100
AcDbArc
 50
208.4511031895
 51
331.5488964533
  0
ARC
  5
24F
100
AcDbEntity
  8
0
100
AcDbCircle
 62
7
  6
CONTINUOUS
 10
6.9480683384
 20
11.2323318604
 40
0.4375
100
AcDbArc
 50
0.0
 51
180.0
  0
ARC
  5
250
100
AcDbEntity
  8
0
100
AcDbCircle
 62
7
  6
CONTINUOUS
 10
15.9480683384
 20
11.2323318604
 40
1.1875
100
AcDbArc
 50
15.2609470051
 51
344.7390529949
  0
ARC
  5
251
100
AcDbEntity
  8
0
100
AcDbCircle
 62
7
  6
CONTINUOUS
 10
15.9480683384
 20
11.2323318604
 40
0.65625
100
AcDbArc
 50
28.4530506422
 51
151.5469495818
  0
ARC
  5
252
100
AcDbEntity
  8
0
100
AcDbCircle
 62
7
  6
CONTINUOUS
 10
15.9480683384
 20
11.2323318604
 40
0.65625
100
AcDbArc
 50
208.4530504182
 51
331.5469493578
  0
ARC
  5
253
100
AcDbEntity
  8
0
100
AcDbCircle
 62
7
  6
CONTINUOUS
 10
20.7678202046
 20
10.8465746842
 40
0.3104711663
100
AcDbArc
 50
158.9496238775
 51
160.6519891693
  0
ARC
  5
254
100
AcDbEntity
  8
0
100
AcDbCircle
 62
7
  6
CONTINUOUS
 10
20.7673988382
 20
10.8571671679
 40
0.3100237882
100
AcDbArc
 50
199.8950449154
 51
200.3678845802
  0
ARC
  5
255
100
AcDbEntity
  8
0
100
AcDbCircle
 62
7
  6
CONTINUOUS
 10
21.1287382552
 20
10.8571670158
 40
0.3100233446
100
AcDbArc
 50
339.6325276156
 51
340.1049553113
  0
ARC
  5
256
100
AcDbEntity
  8
0
100
AcDbCircle
 62
7
  6
CONTINUOUS
 10
21.1288875612
 20
10.8467847949
 40
0.3098627196
100
AcDbArc
 50
19.3463393246
 51
21.0520476287
  0
ARC
  5
257
100
AcDbEntity
  8
0
100
AcDbCircle
 62
7
  6
CONTINUOUS
 10
20.7540325755
 20
10.9355051211
 40
0.2959642371
100
AcDbArc
 50
177.4918119279
 51
179.9993345853
  0
ARC
  5
258
100
AcDbEntity
  8
0
100
AcDbCircle
 62
7
  6
CONTINUOUS
 10
21.1422096842
 20
10.9355074334
 40
0.2958586542
100
AcDbArc
 50
0.000217848
 51
2.5086381184
  0
ARC
  5
259
100
AcDbEntity
  8
0
100
AcDbCircle
 62
7
  6
CONTINUOUS
 10
20.9480683384
 20
11.2323318604
 40
1.1875
100
AcDbArc
 50
294.9019606063
 51
245.0980393283
  0
ARC
  5
25A
100
AcDbEntity
  8
0
100
AcDbCircle
 62
7
  6
CONTINUOUS
 10
20.9480683384
 20
11.2323318604
 40
0.5475
100
AcDbArc
 50
332.9644643063
 51
207.0355356937
  0
ARC
  5
25B
100
AcDbEntity
  8
0
100
AcDbCircle
 62
9
  6
CONTINUOUS
 10
20.9480683384
 20
11.2323318604
 40
0.5175
100
AcDbArc
 50
340.4301071549
 51
199.5698928451
  0
ARC
  5
25C
100
AcDbEntity
  8
0
100
AcDbCircle
 62
7
  6
CONTINUOUS
 10
20.9480683384
 20
11.2323318604
 40
0.4875
100
AcDbArc
 50
0.0
 51
180.0
  0
SPLINE
  5
25D
100
AcDbEntity
  8
0
100
AcDbSpline
 62
7
  6
CONTINUOUS
 70
0
 71
3
 72
29
 73
25
 74
0
 42
0.0000001
 43
0.0000001
 44
0.0000000001
 40
0.0
 40
0.0
 40
0.0
 40
0.0
 40
0.0272587826
 40
0.0545606721
 40
0.0819447484
 40
0.1094525686
 40
0.1371224081
 40
0.1649907513
 40
0.1930916521
 40
0.2214561733
 40
0.2501121897
 40
0.2790840927
 40
0.3380331751
 40
0.3984464293
 40
0.4603817695
 40
0.5238366606
 40
0.5887519366
 40
0.6550171201
 40
0.7224768862
 40
0.7909380884
 40
0.8254817934
 40
0.8601900178
 40
0.9299598421
 40
1.0
 40
1.0
 40
1.0
 40
1.0
 10
20.4880683384
 20
5.1632758234
 30
0.0
 10
20.4880683384
 20
5.1574383207
 30
0.0
 10
20.488442113
 20
5.1457506554
 30
0.0
 10
20.4901216909
 20
5.1282713063
 30
0.0
 10
20.4929158786
 20
5.1108805407
 30
0.0
 10
20.4968165404
 20
5.0936236624
 30
0.0
 10
20.501812941
 20
5.0765436935
 30
0.0
 10
20.5078911565
 20
5.0596833621
 30
0.0
 10
20.5150346379
 20
5.0430842269
 30
0.0
 10
20.5232241799
 20
5.0267869732
 30
0.0
 10
20.5324384805
 20
5.0108304884
 30
0.0
 10
20.5461341369
 20
4.9899440828
 30
0.0
 10
20.5657508797
 20
4.9648722991
 30
0.0
 10
20.5928023034
 20
4.9369306644
 30
0.0
 10
20.6232385862
 20
4.9112028304
 30
0.0
 10
20.6567606774
 20
4.8879242084
 30
0.0
 10
20.6930463605
 20
4.8673040778
 30
0.0
 10
20.7317494334
 20
4.8495285274
 30
0.0
 10
20.7725007502
 20
4.8347589264
 30
0.0
 10
20.8077462162
 20
4.8250949899
 30
0.0
 10
20.8366002017
 20
4.8189666266
 30
0.0
 10
20.8659459157
 20
4.8139090204
 30
0.0
 10
20.90311716
 20
4.8096831776
 30
0.0
 10
20.9330691504
 20
4.808555824
 30
0.0
 10
20.9480683384
 20
4.808555824
 30
0.0
  0
SPLINE
  5
25E
100
AcDbEntity
  8
0
100
AcDbSpline
 62
7
  6
CONTINUOUS
 70
0
 71
3
 72
29
 73
25
 74
0
 42
0.0000001
 43
0.0000001
 44
0.0000000001
 40
0.0
 40
0.0
 40
0.0
 40
0.0
 40
0.0700401741
 40
0.1398100086
 40
0.1745182377
 40
0.2090619459
 40
0.2775231519
 40
0.3449829184
 40
0.4112480989
 40
0.4761633692
 40
0.5396182526
 40
0.6015535839
 40
0.6619668287
 40
0.7209159025
 40
0.7498878017
 40
0.7785438151
 40
0.8069083339
 40
0.8350092332
 40
0.8628775759
 40
0.8905474161
 40
0.9180552378
 40
0.9454393167
 40
0.9727412131
 40
1.0
 40
1.0
 40
1.0
 40
1.0
 10
20.9480683384
 20
4.808555824
 30
0.0
 10
20.9630675299
 20
4.808555824
 30
0.0
 10
20.9930195259
 20
4.809683178
 30
0.0
 10
21.0301907767
 20
4.8139090227
 30
0.0
 10
21.0595364944
 20
4.8189666304
 30
0.0
 10
21.0883904822
 20
4.825094995
 30
0.0
 10
21.1236359492
 20
4.8347589339
 30
0.0
 10
21.1643872658
 20
4.8495285362
 30
0.0
 10
21.203090336
 20
4.8673040881
 30
0.0
 10
21.2393760152
 20
4.8879242184
 30
0.0
 10
21.2728981017
 20
4.911202839
 30
0.0
 10
21.3033343793
 20
4.9369306703
 30
0.0
 10
21.3303857986
 20
4.9648723011
 30
0.0
 10
21.3500025385
 20
4.9899440812
 30
0.0
 10
21.3636981935
 20
5.0108304838
 30
0.0
 10
21.3729124933
 20
5.0267869668
 30
0.0
 10
21.3811020352
 20
5.0430842189
 30
0.0
 10
21.3882455168
 20
5.059683353
 30
0.0
 10
21.3943237326
 20
5.076543684
 30
0.0
 10
21.3993201337
 20
5.0936236531
 30
0.0
 10
21.4032207967
 20
5.1108805321
 30
0.0
 10
21.4060149852
 20
5.1282713
 30
0.0
 10
21.4076945633
 20
5.1457506521
 30
0.0
 10
21.4080683384
 20
5.1574383198
 30
0.0
 10
21.4080683384
 20
5.1632758234
 30
0.0
  0
SPLINE
  5
25F
100
AcDbEntity
  8
0
100
AcDbSpline
 62
7
  6
CONTINUOUS
 70
0
 71
3
 72
11
 73
7
 74
0
 42
0.0000001
 43
0.0000001
 44
0.0000000001
 40
0.0
 40
0.0
 40
0.0
 40
0.0
 40
0.248048877
 40
0.4968891318
 40
0.7472941467
 40
1.0
 40
1.0
 40
1.0
 40
1.0
 10
20.4580683384
 20
10.8519461691
 30
0.0
 10
20.4580683384
 20
10.8434850179
 30
0.0
 10
20.4588179798
 20
10.8265263295
 30
0.0
 10
20.4621845764
 20
10.8012270275
 30
0.0
 10
20.4677766673
 20
10.776162532
 30
0.0
 10
20.4729446721
 20
10.7597721696
 30
0.0
 10
20.4758780261
 20
10.7516666214
 30
0.0
  0
SPLINE
  5
260
100
AcDbEntity
  8
0
100
AcDbSpline
 62
7
  6
CONTINUOUS
 70
0
 71
3
 72
11
 73
7
 74
0
 42
0.0000001
 43
0.0000001
 44
0.0000000001
 40
0.0
 40
0.0
 40
0.0
 40
0.0
 40
0.2527058533
 40
0.5031108682
 40
0.751951123
 40
1.0
 40
1.0
 40
1.0
 40
1.0
 10
21.4202586507
 20
10.7516666214
 30
0.0
 10
21.4231920046
 20
10.7597721696
 30
0.0
 10
21.4283600095
 20
10.776162532
 30
0.0
 10
21.4339521003
 20
10.8012270275
 30
0.0
 10
21.437318697
 20
10.8265263295
 30
0.0
 10
21.4380683384
 20
10.8434850179
 30
0.0
 10
21.4380683384
 20
10.8519461691
 30
0.0
  0
SPLINE
  5
261
100
AcDbEntity
  8
0
100
AcDbSpline
 62
7
  6
CONTINUOUS
 70
0
 71
3
 72
15
 73
11
 74
0
 42
0.0000001
 43
0.0000001
 44
0.0000000001
 40
0.0
 40
0.0
 40
0.0
 40
0.0
 40
0.1234730277
 40
0.2471031264
 40
0.371025787
 40
0.4953921325
 40
0.6203424774
 40
0.7460103156
 40
0.872523226
 40
1.0
 40
1.0
 40
1.0
 40
1.0
 10
21.4480683384
 20
10.6205426296
 30
0.0
 10
21.4480683384
 20
10.6261505706
 30
0.0
 10
21.4477506941
 20
10.6373761661
 30
0.0
 10
21.4463230955
 20
10.6541754933
 30
0.0
 10
21.4439470441
 20
10.6709085736
 30
0.0
 10
21.4406278411
 20
10.6875412693
 30
0.0
 10
21.4363728088
 20
10.7040412378
 30
0.0
 10
21.4311909256
 20
10.7203762609
 30
0.0
 10
21.425093416
 20
10.7365140482
 30
0.0
 10
21.4204450002
 20
10.74707874
 30
0.0
 10
21.4179759055
 20
10.7523156453
 30
0.0
  0
SPLINE
  5
262
100
AcDbEntity
  8
0
100
AcDbSpline
 62
7
  6
CONTINUOUS
 70
0
 71
3
 72
35
 73
31
 74
0
 42
0.0000001
 43
0.0000001
 44
0.0000000001
 40
0.0
 40
0.0
 40
0.0
 40
0.0
 40
0.0275306185
 40
0.055526988
 40
0.0840385793
 40
0.113100859
 40
0.142735001
 40
0.1729480868
 40
0.2037336346
 40
0.2350723809
 40
0.2992400897
 40
0.3320110489
 40
0.3651523635
 40
0.3985981107
 40
0.4322769396
 40
0.5000000754
 40
0.5677232075
 40
0.601402032
 40
0.6348477732
 40
0.6679890801
 40
0.7007600301
 40
0.764927717
 40
0.7962664509
 40
0.8270519858
 40
0.8572650585
 40
0.8868991874
 40
0.9159614543
 40
0.9444730333
 40
0.9724693915
 40
1.0
 40
1.0
 40
1.0
 40
1.0
 10
21.4179759055
 20
10.7523156453
 30
0.0
 10
21.4135779795
 20
10.7616435669
 30
0.0
 10
21.4038282649
 20
10.7800551999
 30
0.0
 10
21.3866569219
 20
10.8064849806
 30
0.0
 10
21.3669298476
 20
10.8317981131
 30
0.0
 10
21.3447699012
 20
10.8558481151
 30
0.0
 10
21.3203102954
 20
10.8785012309
 30
0.0
 10
21.2936971279
 20
10.8996308739
 30
0.0
 10
21.2650848335
 20
10.9191209152
 30
0.0
 10
21.2241858955
 20
10.94295704
 30
0.0
 10
21.18026219
 20
10.9628486041
 30
0.0
 10
21.1341490823
 20
10.9786606267
 30
0.0
 10
21.0982361946
 20
10.9885283883
 30
0.0
 10
21.0614583913
 20
10.9962605994
 30
0.0
 10
21.0114677213
 20
11.0036785063
 30
0.0
 10
20.9480681976
 20
11.0073909913
 30
0.0
 10
20.8846686773
 20
11.003678478
 30
0.0
 10
20.8346780157
 20
10.9962605503
 30
0.0
 10
20.7979002222
 20
10.9885283258
 30
0.0
 10
20.7619873469
 20
10.9786605512
 30
0.0
 10
20.7158742599
 20
10.9628485129
 30
0.0
 10
20.6719505782
 20
10.9429569359
 30
0.0
 10
20.6310516658
 20
10.9191208024
 30
0.0
 10
20.6024393915
 20
10.8996307572
 30
0.0
 10
20.5758262437
 20
10.878501113
 30
0.0
 10
20.5513666577
 20
10.8558479973
 30
0.0
 10
20.5292067307
 20
10.8317979971
 30
0.0
 10
20.5094796745
 20
10.8064848677
 30
0.0
 10
20.4923083483
 20
10.7800550911
 30
0.0
 10
20.4825586438
 20
10.7616434618
 30
0.0
 10
20.4781607227
 20
10.752315542
 30
0.0
  0
SPLINE
  5
263
100
AcDbEntity
  8
0
100
AcDbSpline
 62
7
  6
CONTINUOUS
 70
0
 71
3
 72
15
 73
11
 74
0
 42
0.0000001
 43
0.0000001
 44
0.0000000001
 40
0.0
 40
0.0
 40
0.0
 40
0.0
 40
0.1274767555
 40
0.2539896528
 40
0.3796574824
 40
0.5046078238
 40
0.6289741727
 40
0.7528968403
 40
0.876526953
 40
1.0
 40
1.0
 40
1.0
 40
1.0
 10
20.4781607227
 20
10.752315542
 30
0.0
 10
20.4756916322
 20
10.747078641
 30
0.0
 10
20.4710432239
 20
10.7365139581
 30
0.0
 10
20.4649457247
 20
10.7203761842
 30
0.0
 10
20.4597638502
 20
10.7040411747
 30
0.0
 10
20.4555088244
 20
10.6875412196
 30
0.0
 10
20.4521896267
 20
10.670908537
 30
0.0
 10
20.4498135787
 20
10.6541754694
 30
0.0
 10
20.4483859822
 20
10.6373761544
 30
0.0
 10
20.4480683384
 20
10.6261505668
 30
0.0
 10
20.4480683384
 20
10.6205426296
 30
0.0
  0
SPLINE
  5
264
100
AcDbEntity
  8
0
100
AcDbSpline
 62
7
  6
CONTINUOUS
 70
0
 71
3
 72
51
 73
47
 74
0
 42
0.0000001
 43
0.0000001
 44
0.0000000001
 40
0.0
 40
0.0
 40
0.0
 40
0.0
 40
0.0136191651
 40
0.0272599789
 40
0.0409422108
 40
0.0546867422
 40
0.068512822
 40
0.0824388172
 40
0.096481838
 40
0.1106574918
 40
0.124979774
 40
0.1394609157
 40
0.1541113003
 40
0.1689394039
 40
0.1991429778
 40
0.2301111429
 40
0.2618423368
 40
0.2943065748
 40
0.3274482044
 40
0.3611891283
 40
0.3954323343
 40
0.4300656061
 40
0.464965278
 40
0.5000000604
 40
0.5350348419
 40
0.5699345106
 40
0.6045677773
 40
0.6388109766
 40
0.6725518918
 40
0.7056935117
 40
0.7381577385
 40
0.7698889211
 40
0.8008570742
 40
0.8310606365
 40
0.8458887345
 40
0.8605391136
 40
0.8750202503
 40
0.8893425277
 40
0.9035181772
 40
0.9175611942
 40
0.931487186
 40
0.9453132629
 40
0.9590577921
 40
0.9727400224
 40
0.9863808352
 40
1.0
 40
1.0
 40
1.0
 40
1.0
 10
20.4480683384
 20
5.1697036995
 30
0.0
 10
20.4480683384
 20
5.1633646965
 30
0.0
 10
20.4484743168
 20
5.1506728889
 30
0.0
 10
20.4502986613
 20
5.131691656
 30
0.0
 10
20.4533337369
 20
5.1128062609
 30
0.0
 10
20.4575707687
 20
5.0940657147
 30
0.0
 10
20.4629982335
 20
5.0755166241
 30
0.0
 10
20.4696011351
 20
5.0572052803
 30
0.0
 10
20.4773615937
 20
5.0391767697
 30
0.0
 10
20.4862589603
 20
5.0214751
 30
0.0
 10
20.4962698754
 20
5.0041429967
 30
0.0
 10
20.5073682066
 20
4.9872219828
 30
0.0
 10
20.519526007
 20
4.9707517413
 30
0.0
 10
20.5372128699
 20
4.9493166447
 30
0.0
 10
20.5618675946
 20
4.9238548235
 30
0.0
 10
20.5949452607
 20
4.8959012026
 30
0.0
 10
20.6313817655
 20
4.8706039928
 30
0.0
 10
20.6708241442
 20
4.8481948257
 30
0.0
 10
20.7128963366
 20
4.828875856
 30
0.0
 10
20.7571982321
 20
4.8128228468
 30
0.0
 10
20.8033095624
 20
4.8001819621
 30
0.0
 10
20.8507932402
 20
4.7910690181
 30
0.0
 10
20.8991991523
 20
4.7855674344
 30
0.0
 10
20.9480684224
 20
4.7837280086
 30
0.0
 10
20.9969376905
 20
4.7855674477
 30
0.0
 10
21.0453435972
 20
4.7910690417
 30
0.0
 10
21.0928272652
 20
4.800181999
 30
0.0
 10
21.138938584
 20
4.8128228894
 30
0.0
 10
21.1832404634
 20
4.8288759089
 30
0.0
 10
21.2253126404
 20
4.8481948792
 30
0.0
 10
21.2647549993
 20
4.8706040506
 30
0.0
 10
21.3011914876
 20
4.895901256
 30
0.0
 10
21.3342691343
 20
4.9238548745
 30
0.0
 10
21.3589238471
 20
4.9493166882
 30
0.0
 10
21.3766106992
 20
4.97075178
 30
0.0
 10
21.3887684934
 20
4.9872220167
 30
0.0
 10
21.3998668194
 20
5.0041430255
 30
0.0
 10
21.4098777296
 20
5.0214751242
 30
0.0
 10
21.4187750918
 20
5.0391767893
 30
0.0
 10
21.4265355475
 20
5.0572052952
 30
0.0
 10
21.4331384468
 20
5.0755166349
 30
0.0
 10
21.4385659098
 20
5.0940657219
 30
0.0
 10
21.4428029406
 20
5.1128062651
 30
0.0
 10
21.4458380158
 20
5.131691658
 30
0.0
 10
21.4476623599
 20
5.1506728896
 30
0.0
 10
21.4480683384
 20
5.1633646965
 30
0.0
 10
21.4480683384
 20
5.1697036994
 30
0.0
  0
SPLINE
  5
265
100
AcDbEntity
  8
0
100
AcDbSpline
 62
7
  6
CONTINUOUS
 70
0
 71
3
 72
49
 73
45
 74
0
 42
0.0000001
 43
0.0000001
 44
0.0000000001
 40
0.0
 40
0.0
 40
0.0
 40
0.0
 40
0.013713841
 40
0.0274585977
 40
0.0412527409
 40
0.0551137267
 40
0.0690581547
 40
0.0831017806
 40
0.0972592183
 40
0.1115438296
 40
0.1259675772
 40
0.1405409121
 40
0.1701600959
 40
0.2004632482
 40
0.2314741642
 40
0.2631898944
 40
0.2955820814
 40
0.3285991848
 40
0.3621691954
 40
0.3962027193
 40
0.4305962923
 40
0.4652358341
 40
0.5000001358
 40
0.5347644353
 40
0.5694039703
 40
0.6037975329
 40
0.6378310417
 40
0.6714010343
 40
0.7044181166
 40
0.7368102796
 40
0.768525985
 40
0.7995368748
 40
0.8298400012
 40
0.8594591602
 40
0.8740324835
 40
0.8884562202
 40
0.9027408213
 40
0.9168982497
 40
0.9309418675
 40
0.9448862883
 40
0.9587472681
 40
0.9725414069
 40
0.9862861601
 40
1.0
 40
1.0
 40
1.0
 40
1.0
 10
21.4377847975
 20
10.9484571688
 30
0.0
 10
21.4375155298
 20
10.9546048118
 30
0.0
 10
21.4365922563
 20
10.9669005552
 30
0.0
 10
21.4340614689
 20
10.9852486042
 30
0.0
 10
21.4303913432
 20
11.0034710565
 30
0.0
 10
21.4255928122
 20
11.0215216943
 30
0.0
 10
21.4196797087
 20
11.0393563165
 30
0.0
 10
21.4126687839
 20
11.0569315934
 30
0.0
 10
21.4045795562
 20
11.0742057699
 30
0.0
 10
21.3954341553
 20
11.0911383647
 30
0.0
 10
21.3852563845
 20
11.1076909051
 30
0.0
 10
21.3702672856
 20
11.1293168659
 30
0.0
 10
21.3490299026
 20
11.1552170841
 30
0.0
 10
21.3200375668
 20
11.1840200147
 30
0.0
 10
21.287672147
 20
11.2104815235
 30
0.0
 10
21.252238687
 20
11.2343773568
 30
0.0
 10
21.2140625601
 20
11.2555092348
 30
0.0
 10
21.1734909886
 20
11.2737007056
 30
0.0
 10
21.1308903538
 20
11.2887992183
 30
0.0
 10
21.086644407
 20
11.3006776695
 30
0.0
 10
21.0411512177
 20
11.3092353105
 30
0.0
 10
20.9948201296
 20
11.3143992776
 30
0.0
 10
20.9480681495
 20
11.3161255712
 30
0.0
 10
20.9013161731
 20
11.3143992522
 30
0.0
 10
20.8549850977
 20
11.309235252
 30
0.0
 10
20.8094919262
 20
11.3006775951
 30
0.0
 10
20.7652460065
 20
11.2887991176
 30
0.0
 10
20.722645403
 20
11.2737005904
 30
0.0
 10
20.6820738659
 20
11.2555091114
 30
0.0
 10
20.6438977803
 20
11.234377224
 30
0.0
 10
20.6084643566
 20
11.2104813973
 30
0.0
 10
20.5760989777
 20
11.1840198928
 30
0.0
 10
20.5471066772
 20
11.155216976
 30
0.0
 10
20.5258693205
 20
11.1293167727
 30
0.0
 10
20.5108802394
 20
11.1076908253
 30
0.0
 10
20.500702482
 20
11.091138294
 30
0.0
 10
20.4915570903
 20
11.0742057098
 30
0.0
 10
20.4834678706
 20
11.0569315432
 30
0.0
 10
20.4764569536
 20
11.0393562752
 30
0.0
 10
20.470543855
 20
11.0215216614
 30
0.0
 10
20.4657453274
 20
11.0034710309
 30
0.0
 10
20.4620752046
 20
10.9852485843
 30
0.0
 10
20.4595444187
 20
10.9669005392
 30
0.0
 10
20.4586211461
 20
10.9546047978
 30
0.0
 10
20.4583518787
 20
10.9484571553
 30
0.0
  0
SPLINE
  5
266
100
AcDbEntity
  8
0
100
AcDbSpline
 62
7
  6
CONTINUOUS
 70
0
 71
3
 72
11
 73
7
 74
0
 42
0.0000001
 43
0.0000001
 44
0.0000000001
 40
0.0
 40
0.0
 40
0.0
 40
0.0
 40
0.2481551572
 40
0.4970578601
 40
0.7474398302
 40
1.0
 40
1.0
 40
1.0
 40
1.0
 10
21.4380683384
 20
10.8519461691
 30
0.0
 10
21.4380683384
 20
10.8601661222
 30
0.0
 10
21.4373609716
 20
10.8766394028
 30
0.0
 10
21.4341838526
 20
10.9012222241
 30
0.0
 10
21.4289054448
 20
10.9255899058
 30
0.0
 10
21.4240246739
 20
10.941541861
 30
0.0
 10
21.4212533654
 20
10.9494353748
 30
0.0
  0
SPLINE
  5
267
100
AcDbEntity
  8
0
100
AcDbSpline
 62
9
  6
CONTINUOUS
 70
0
 71
3
 72
39
 73
35
 74
0
 42
0.0000001
 43
0.0000001
 44
0.0000000001
 40
0.0
 40
0.0
 40
0.0
 40
0.0
 40
0.0271755822
 40
0.0548256121
 40
0.0830186631
 40
0.1118049749
 40
0.1412173916
 40
0.1712710241
 40
0.2019640844
 40
0.2332789489
 40
0.2651834958
 40
0.2976325912
 40
0.3305696669
 40
0.3639283403
 40
0.3976340587
 40
0.4316057502
 40
0.4657574637
 40
0.5
 40
0.5342425363
 40
0.5683942498
 40
0.6023659413
 40
0.6360716597
 40
0.6694303331
 40
0.7023674088
 40
0.7348165042
 40
0.7667210511
 40
0.7980359156
 40
0.8287289759
 40
0.8587826084
 40
0.8881950251
 40
0.9169813369
 40
0.9451743879
 40
0.9728244178
 40
1.0
 40
1.0
 40
1.0
 40
1.0
 10
20.4780683384
 20
10.7524003657
 30
0.0
 10
20.4818026641
 20
10.7621035304
 30
0.0
 10
20.4903213533
 20
10.781314615
 30
0.0
 10
20.5059467257
 20
10.8090182004
 30
0.0
 10
20.524418018
 20
10.8356652335
 30
0.0
 10
20.5456122285
 20
10.8610817288
 30
0.0
 10
20.5693910643
 20
10.8851070853
 30
0.0
 10
20.5956000319
 20
10.9075885486
 30
0.0
 10
20.6240697235
 20
10.9283837313
 30
0.0
 10
20.654616711
 20
10.947360868
 30
0.0
 10
20.6870446468
 20
10.9643996926
 30
0.0
 10
20.7211453948
 20
10.9793921382
 30
0.0
 10
20.7567002759
 20
10.9922430264
 30
0.0
 10
20.7934813866
 20
11.002870712
 30
0.0
 10
20.8312530121
 20
11.0112076519
 30
0.0
 10
20.869773124
 20
11.0172008158
 30
0.0
 10
20.9087949086
 20
11.0208120571
 30
0.0
 10
20.9480683384
 20
11.0220183718
 30
0.0
 10
20.9873417681
 20
11.0208120571
 30
0.0
 10
21.0263635527
 20
11.0172008158
 30
0.0
 10
21.0648836646
 20
11.0112076519
 30
0.0
 10
21.1026552902
 20
11.002870712
 30
0.0
 10
21.1394364008
 20
10.9922430264
 30
0.0
 10
21.174991282
 20
10.9793921382
 30
0.0
 10
21.20909203
 20
10.9643996926
 30
0.0
 10
21.2415199657
 20
10.947360868
 30
0.0
 10
21.2720669533
 20
10.9283837313
 30
0.0
 10
21.3005366449
 20
10.9075885486
 30
0.0
 10
21.3267456125
 20
10.8851070853
 30
0.0
 10
21.3505244483
 20
10.8610817288
 30
0.0
 10
21.3717186588
 20
10.8356652335
 30
0.0
 10
21.390189951
 20
10.8090182004
 30
0.0
 10
21.4058153234
 20
10.781314615
 30
0.0
 10
21.4143340127
 20
10.7621035304
 30
0.0
 10
21.4180683384
 20
10.7524003657
 30
0.0
  0
SPLINE
  5
268
100
AcDbEntity
  8
0
100
AcDbSpline
 62
7
  6
CONTINUOUS
 70
0
 71
3
 72
51
 73
47
 74
0
 42
0.0000001
 43
0.0000001
 44
0.0000000001
 40
0.0
 40
0.0
 40
0.0
 40
0.0
 40
0.0134434418
 40
0.0269592356
 40
0.0405639842
 40
0.0542734689
 40
0.0681022233
 40
0.0820634546
 40
0.0961689435
 40
0.1104289592
 40
0.1248522318
 40
0.1394458896
 40
0.1542154482
 40
0.1691648571
 40
0.1996034526
 40
0.2307707927
 40
0.2626449268
 40
0.2951832553
 40
0.3283249115
 40
0.36199331
 40
0.396098765
 40
0.4305411541
 40
0.4652124927
 40
0.499999613
 40
0.534786739
 40
0.5694580943
 40
0.6039005109
 40
0.6380060036
 40
0.671674449
 40
0.7048161601
 40
0.7373545503
 40
0.7692287512
 40
0.8003961611
 40
0.8308348276
 40
0.8457842716
 40
0.8605538648
 40
0.8751475561
 40
0.8895708611
 40
0.9038309076
 40
0.9179364256
 40
0.9318976837
 40
0.9457264625
 40
0.959435969
 40
0.9730407364
 40
0.9865565458
 40
1.0
 40
1.0
 40
1.0
 40
1.0
 10
21.4313432532
 20
10.9974247147
 30
0.0
 10
21.4303812025
 20
11.0029858952
 30
0.0
 10
21.4281270418
 20
11.0140846901
 30
0.0
 10
21.4237821953
 20
11.0305596427
 30
0.0
 10
21.4184744465
 20
11.0468679893
 30
0.0
 10
21.4122148624
 20
11.0629758474
 30
0.0
 10
21.4050163881
 20
11.0788508558
 30
0.0
 10
21.3968937074
 20
11.0944608004
 30
0.0
 10
21.3878634077
 20
11.1097741144
 30
0.0
 10
21.3779440531
 20
11.124759939
 30
0.0
 10
21.3671557567
 20
11.1393880142
 30
0.0
 10
21.3555205493
 20
11.1536287588
 30
0.0
 10
21.3430618471
 20
11.1674538472
 30
0.0
 10
21.3252820566
 20
11.1854008799
 30
0.0
 10
21.3010941362
 20
11.2066365796
 30
0.0
 10
21.2694063609
 20
11.2298676609
 30
0.0
 10
21.2351329729
 20
11.2508218479
 30
0.0
 10
21.1985520864
 20
11.2693312194
 30
0.0
 10
21.1599577513
 20
11.2852493566
 30
0.0
 10
21.1196605498
 20
11.2984497536
 30
0.0
 10
21.077984362
 20
11.3088274299
 30
0.0
 10
21.0352641346
 20
11.3162996881
 30
0.0
 10
20.99184319
 20
11.3208070873
 30
0.0
 10
20.9480704618
 20
11.3223136848
 30
0.0
 10
20.9042977164
 20
11.320807379
 30
0.0
 10
20.8608767208
 20
11.3163002692
 30
0.0
 10
20.8181564087
 20
11.3088282957
 30
0.0
 10
20.7764801034
 20
11.2984508974
 30
0.0
 10
20.7361827524
 20
11.285250769
 30
0.0
 10
20.6975882371
 20
11.2693328894
 30
0.0
 10
20.661007141
 20
11.2508237622
 30
0.0
 10
20.6267335156
 20
11.2298698043
 30
0.0
 10
20.5950454772
 20
11.206638935
 30
0.0
 10
20.5708573163
 20
11.1854033978
 30
0.0
 10
20.553077322
 20
11.167456484
 30
0.0
 10
20.5406184627
 20
11.1536314789
 30
0.0
 10
20.5289830934
 20
11.1393908122
 30
0.0
 10
20.5181946307
 20
11.1247628092
 30
0.0
 10
20.5082751057
 20
11.109777051
 30
0.0
 10
20.4992446319
 20
11.0944637975
 30
0.0
 10
20.4911217737
 20
11.0788539073
 30
0.0
 10
20.4839231188
 20
11.0629789472
 30
0.0
 10
20.4776633514
 20
11.0468711311
 30
0.0
 10
20.472355417
 20
11.0305628201
 30
0.0
 10
20.468010383
 20
11.0140878966
 30
0.0
 10
20.4657560958
 20
11.0029891155
 30
0.0
 10
20.4647939817
 20
10.9974279407
 30
0.0
  0
SPLINE
  5
269
100
AcDbEntity
  8
0
100
AcDbSpline
 62
9
  6
CONTINUOUS
 70
0
 71
3
 72
49
 73
45
 74
0
 42
0.0000001
 43
0.0000001
 44
0.0000000001
 40
0.0
 40
0.0
 40
0.0
 40
0.0
 40
0.0135006553
 40
0.0270249995
 40
0.040593967
 40
0.0542303119
 40
0.0679546978
 40
0.0817867296
 40
0.0957446166
 40
0.109844827
 40
0.1241019953
 40
0.1385287959
 40
0.1679210124
 40
0.1980928841
 40
0.2290709837
 40
0.260850037
 40
0.293395528
 40
0.3266468216
 40
0.3605207552
 40
0.3949153328
 40
0.4297135102
 40
0.4647869955
 40
0.5
 40
0.5352130045
 40
0.5702864898
 40
0.6050846672
 40
0.6394792448
 40
0.6733531784
 40
0.706604472
 40
0.739149963
 40
0.7709290163
 40
0.8019071159
 40
0.8320789876
 40
0.8614712041
 40
0.8758980047
 40
0.890155173
 40
0.9042553834
 40
0.9182132704
 40
0.9320453022
 40
0.9457696881
 40
0.959406033
 40
0.9729750005
 40
0.9864993447
 40
1.0
 40
1.0
 40
1.0
 40
1.0
 10
21.4355683384
 20
11.0802607484
 30
0.0
 10
21.4355683384
 20
11.0863717791
 30
0.0
 10
21.4351758447
 20
11.0986081719
 30
0.0
 10
21.4334120948
 20
11.116910005
 30
0.0
 10
21.4304770499
 20
11.135123731
 30
0.0
 10
21.4263783484
 20
11.1532038172
 30
0.0
 10
21.4211258904
 20
11.1711069799
 30
0.0
 10
21.4147327333
 20
11.1887897363
 30
0.0
 10
21.4072145813
 20
11.2062094248
 30
0.0
 10
21.3985898774
 20
11.2233238543
 30
0.0
 10
21.3888793524
 20
11.2400922963
 30
0.0
 10
21.3744297582
 20
11.2620669878
 30
0.0
 10
21.3537108365
 20
11.2884724216
 30
0.0
 10
21.3251147663
 20
11.3179279789
 30
0.0
 10
21.2929029915
 20
11.3450832811
 30
0.0
 10
21.2573895012
 20
11.3696799347
 30
0.0
 10
21.218915585
 20
11.3914873166
 30
0.0
 10
21.1778506893
 20
11.4103000956
 30
0.0
 10
21.1345880242
 20
11.4259408983
 30
0.0
 10
21.0895415905
 20
11.4382620956
 30
0.0
 10
21.0431422364
 20
11.4471472577
 30
0.0
 10
20.9958336769
 20
11.4525121759
 30
0.0
 10
20.9480683384
 20
11.45430622
 30
0.0
 10
20.9003029999
 20
11.4525121759
 30
0.0
 10
20.8529944403
 20
11.4471472577
 30
0.0
 10
20.8065950863
 20
11.4382620956
 30
0.0
 10
20.7615486525
 20
11.4259408983
 30
0.0
 10
20.7182859874
 20
11.4103000956
 30
0.0
 10
20.6772210918
 20
11.3914873166
 30
0.0
 10
20.6387471756
 20
11.3696799347
 30
0.0
 10
20.6032336853
 20
11.3450832811
 30
0.0
 10
20.5710219105
 20
11.3179279789
 30
0.0
 10
20.5424258403
 20
11.2884724216
 30
0.0
 10
20.5217069185
 20
11.2620669878
 30
0.0
 10
20.5072573243
 20
11.2400922963
 30
0.0
 10
20.4975467994
 20
11.2233238543
 30
0.0
 10
20.4889220955
 20
11.2062094248
 30
0.0
 10
20.4814039434
 20
11.1887897363
 30
0.0
 10
20.4750107863
 20
11.1711069799
 30
0.0
 10
20.4697583284
 20
11.1532038172
 30
0.0
 10
20.4656596268
 20
11.135123731
 30
0.0
 10
20.4627245819
 20
11.116910005
 30
0.0
 10
20.4609608321
 20
11.0986081719
 30
0.0
 10
20.4605683384
 20
11.0863717791
 30
0.0
 10
20.4605683384
 20
11.0802607484
 30
0.0
  0
SPLINE
  5
26A
100
AcDbEntity
  8
0
100
AcDbSpline
 62
9
  6
CONTINUOUS
 70
0
 71
3
 72
49
 73
45
 74
0
 42
0.0000001
 43
0.0000001
 44
0.0000000001
 40
0.0
 40
0.0
 40
0.0
 40
0.0
 40
0.0135006962
 40
0.0270249863
 40
0.0405939641
 40
0.0542303173
 40
0.0679546956
 40
0.0817867306
 40
0.0957446176
 40
0.1098448256
 40
0.1241019956
 40
0.138528798
 40
0.1679210106
 40
0.198092887
 40
0.229070982
 40
0.2608500384
 40
0.2933955279
 40
0.3266468206
 40
0.3605207566
 40
0.3949153309
 40
0.4297135118
 40
0.4647869946
 40
0.5
 40
0.5352130054
 40
0.5702864882
 40
0.6050846691
 40
0.6394792434
 40
0.6733531794
 40
0.7066044721
 40
0.7391499616
 40
0.770929018
 40
0.801907113
 40
0.8320789894
 40
0.861471202
 40
0.8758980044
 40
0.8901551744
 40
0.9042553824
 40
0.9182132694
 40
0.9320453044
 40
0.9457696827
 40
0.9594060359
 40
0.9729750137
 40
0.9864993038
 40
1.0
 40
1.0
 40
1.0
 40
1.0
 10
20.4580683384
 20
10.9355085583
 30
0.0
 10
20.4580683384
 20
10.9416509462
 30
0.0
 10
20.4584628346
 20
10.9539500843
 30
0.0
 10
20.4602356437
 20
10.9723457706
 30
0.0
 10
20.463185742
 20
10.9906528831
 30
0.0
 10
20.4673054477
 20
11.0088256962
 30
0.0
 10
20.472584845
 20
11.0268206713
 30
0.0
 10
20.4790107957
 20
11.0445941036
 30
0.0
 10
20.4865675092
 20
11.0621031207
 30
0.0
 10
20.4952364178
 20
11.0793053284
 30
0.0
 10
20.5049967499
 20
11.0961597587
 30
0.0
 10
20.519520469
 20
11.1182471232
 30
0.0
 10
20.5403455938
 20
11.14478801
 30
0.0
 10
20.5690883647
 20
11.1743945671
 30
0.0
 10
20.6014652826
 20
11.2016891817
 30
0.0
 10
20.6371609266
 20
11.2264119251
 30
0.0
 10
20.6758321254
 20
11.2483311704
 30
0.0
 10
20.7171076153
 20
11.2672404203
 30
0.0
 10
20.7605921454
 20
11.282961409
 30
0.0
 10
20.8058695753
 20
11.2953458456
 30
0.0
 10
20.8525068876
 20
11.3042764917
 30
0.0
 10
20.9000580457
 20
11.3096690237
 30
0.0
 10
20.9480683384
 20
11.3114721544
 30
0.0
 10
20.9960786311
 20
11.3096690237
 30
0.0
 10
21.0436297891
 20
11.3042764917
 30
0.0
 10
21.0902671015
 20
11.2953458456
 30
0.0
 10
21.1355445313
 20
11.282961409
 30
0.0
 10
21.1790290615
 20
11.2672404203
 30
0.0
 10
21.2203045513
 20
11.2483311704
 30
0.0
 10
21.2589757501
 20
11.2264119251
 30
0.0
 10
21.2946713941
 20
11.2016891817
 30
0.0
 10
21.327048312
 20
11.1743945671
 30
0.0
 10
21.355791083
 20
11.14478801
 30
0.0
 10
21.3766162077
 20
11.1182471232
 30
0.0
 10
21.3911399269
 20
11.0961597586
 30
0.0
 10
21.4009002589
 20
11.0793053284
 30
0.0
 10
21.4095691676
 20
11.0621031207
 30
0.0
 10
21.417125881
 20
11.0445941036
 30
0.0
 10
21.4235518318
 20
11.0268206713
 30
0.0
 10
21.4288312291
 20
11.0088256962
 30
0.0
 10
21.4329509347
 20
10.9906528831
 30
0.0
 10
21.435901033
 20
10.9723457706
 30
0.0
 10
21.4376738421
 20
10.9539500843
 30
0.0
 10
21.4380683384
 20
10.9416509462
 30
0.0
 10
21.4380683384
 20
10.9355085583
 30
0.0
  0
SPLINE
  5
26B
100
AcDbEntity
  8
0
100
AcDbSpline
 62
9
  6
CONTINUOUS
 70
0
 71
3
 72
49
 73
45
 74
0
 42
0.0000001
 43
0.0000001
 44
0.0000000001
 40
0.0
 40
0.0
 40
0.0
 40
0.0
 40
0.0135006523
 40
0.0270248638
 40
0.0405938207
 40
0.0542301635
 40
0.0679545383
 40
0.0817865809
 40
0.0957444787
 40
0.1098446971
 40
0.1241018746
 40
0.1385286802
 40
0.1679208919
 40
0.1980927732
 40
0.2290708806
 40
0.2608499502
 40
0.2933954498
 40
0.3266467533
 40
0.3605207018
 40
0.3949152895
 40
0.4297134841
 40
0.4647869805
 40
0.5
 40
0.5352130194
 40
0.5702865159
 40
0.6050847104
 40
0.6394792982
 40
0.6733532467
 40
0.7066045502
 40
0.7391500497
 40
0.7709291194
 40
0.8019072268
 40
0.8320791081
 40
0.8614713198
 40
0.8758981254
 40
0.8901553028
 40
0.9042555213
 40
0.918213419
 40
0.9320454617
 40
0.9457698365
 40
0.9594061793
 40
0.9729751361
 40
0.9864993477
 40
1.0
 40
1.0
 40
1.0
 40
1.0
 10
20.4580683384
 20
5.1632758234
 30
0.0
 10
20.4580683384
 20
5.1571334554
 30
0.0
 10
20.4584628244
 20
5.1448343728
 30
0.0
 10
20.4602356295
 20
5.1264387517
 30
0.0
 10
20.4631857086
 20
5.1081316871
 30
0.0
 10
20.4673053933
 20
5.0899588854
 30
0.0
 10
20.4725847784
 20
5.0719639096
 30
0.0
 10
20.4790107215
 20
5.0541904674
 30
0.0
 10
20.4865674305
 20
5.0366814341
 30
0.0
 10
20.4952363316
 20
5.0194792079
 30
0.0
 10
20.5049966611
 20
5.0026247649
 30
0.0
 10
20.5195203749
 20
4.9805373917
 30
0.0
 10
20.5403454859
 20
4.9539964898
 30
0.0
 10
20.5690882549
 20
4.9243899202
 30
0.0
 10
20.6014651707
 20
4.8970952816
 30
0.0
 10
20.637160824
 20
4.8723725228
 30
0.0
 10
20.6758320296
 20
4.850453258
 30
0.0
 10
20.7171075311
 20
4.8315439967
 30
0.0
 10
20.7605920739
 20
4.815822994
 30
0.0
 10
20.8058695202
 20
4.8034385489
 30
0.0
 10
20.85250685
 20
4.7945078951
 30
0.0
 10
20.9000580266
 20
4.7891153591
 30
0.0
 10
20.9480683384
 20
4.7873122269
 30
0.0
 10
20.9960786501
 20
4.789115359
 30
0.0
 10
21.0436298267
 20
4.7945078951
 30
0.0
 10
21.0902671565
 20
4.8034385489
 30
0.0
 10
21.1355446028
 20
4.815822994
 30
0.0
 10
21.1790291456
 20
4.8315439967
 30
0.0
 10
21.2203046472
 20
4.850453258
 30
0.0
 10
21.2589758527
 20
4.8723725228
 30
0.0
 10
21.294671506
 20
4.8970952815
 30
0.0
 10
21.3270484219
 20
4.9243899201
 30
0.0
 10
21.3557911909
 20
4.9539964897
 30
0.0
 10
21.3766163019
 20
4.9805373917
 30
0.0
 10
21.3911400157
 20
5.0026247649
 30
0.0
 10
21.4009003451
 20
5.0194792079
 30
0.0
 10
21.4095692462
 20
5.0366814341
 30
0.0
 10
21.4171259552
 20
5.0541904673
 30
0.0
 10
21.4235518984
 20
5.0719639096
 30
0.0
 10
21.4288312835
 20
5.0899588854
 30
0.0
 10
21.4329509682
 20
5.1081316871
 30
0.0
 10
21.4359010473
 20
5.1264387517
 30
0.0
 10
21.4376738523
 20
5.1448343728
 30
0.0
 10
21.4380683384
 20
5.1571334554
 30
0.0
 10
21.4380683384
 20
5.1632758234
 30
0.0
  0
SPLINE
  5
26C
100
AcDbEntity
  8
0
100
AcDbSpline
 62
9
  6
CONTINUOUS
 70
0
 71
3
 72
49
 73
45
 74
0
 42
0.0000001
 43
0.0000001
 44
0.0000000001
 40
0.0
 40
0.0
 40
0.0
 40
0.0
 40
0.0135006523
 40
0.0270248638
 40
0.0405938207
 40
0.0542301635
 40
0.0679545383
 40
0.0817865809
 40
0.0957444787
 40
0.1098446971
 40
0.1241018746
 40
0.1385286802
 40
0.1679208919
 40
0.1980927732
 40
0.2290708806
 40
0.2608499502
 40
0.2933954498
 40
0.3266467533
 40
0.3605207018
 40
0.3949152895
 40
0.4297134841
 40
0.4647869805
 40
0.5
 40
0.5352130194
 40
0.5702865159
 40
0.6050847104
 40
0.6394792982
 40
0.6733532467
 40
0.7066045502
 40
0.7391500497
 40
0.7709291194
 40
0.8019072268
 40
0.8320791081
 40
0.8614713198
 40
0.8758981254
 40
0.8901553028
 40
0.9042555213
 40
0.918213419
 40
0.9320454617
 40
0.9457698365
 40
0.9594061793
 40
0.9729751361
 40
0.9864993477
 40
1.0
 40
1.0
 40
1.0
 40
1.0
 10
21.4380683384
 20
5.1632758234
 30
0.0
 10
21.4380683384
 20
5.1694181913
 30
0.0
 10
21.4376738523
 20
5.1817172739
 30
0.0
 10
21.4359010473
 20
5.200112895
 30
0.0
 10
21.4329509682
 20
5.2184199596
 30
0.0
 10
21.4288312835
 20
5.2365927613
 30
0.0
 10
21.4235518984
 20
5.2545877371
 30
0.0
 10
21.4171259552
 20
5.2723611794
 30
0.0
 10
21.4095692462
 20
5.2898702126
 30
0.0
 10
21.4009003452
 20
5.3070724388
 30
0.0
 10
21.3911400157
 20
5.3239268818
 30
0.0
 10
21.3766163019
 20
5.346014255
 30
0.0
 10
21.3557911909
 20
5.3725551569
 30
0.0
 10
21.3270484219
 20
5.4021617265
 30
0.0
 10
21.294671506
 20
5.4294563651
 30
0.0
 10
21.2589758527
 20
5.4541791239
 30
0.0
 10
21.2203046472
 20
5.4760983887
 30
0.0
 10
21.1790291457
 20
5.49500765
 30
0.0
 10
21.1355446028
 20
5.5107286527
 30
0.0
 10
21.0902671565
 20
5.5231130978
 30
0.0
 10
21.0436298267
 20
5.5320437516
 30
0.0
 10
20.9960786501
 20
5.5374362877
 30
0.0
 10
20.9480683384
 20
5.5392394198
 30
0.0
 10
20.9000580267
 20
5.5374362877
 30
0.0
 10
20.8525068501
 20
5.5320437516
 30
0.0
 10
20.8058695203
 20
5.5231130978
 30
0.0
 10
20.760592074
 20
5.5107286527
 30
0.0
 10
20.7171075312
 20
5.49500765
 30
0.0
 10
20.6758320296
 20
5.4760983887
 30
0.0
 10
20.6371608241
 20
5.4541791239
 30
0.0
 10
20.6014651708
 20
5.4294563652
 30
0.0
 10
20.5690882549
 20
5.4021617266
 30
0.0
 10
20.5403454859
 20
5.372555157
 30
0.0
 10
20.5195203749
 20
5.3460142551
 30
0.0
 10
20.5049966611
 20
5.3239268818
 30
0.0
 10
20.4952363316
 20
5.3070724388
 30
0.0
 10
20.4865674306
 20
5.2898702127
 30
0.0
 10
20.4790107216
 20
5.2723611794
 30
0.0
 10
20.4725847784
 20
5.2545877372
 30
0.0
 10
20.4673053933
 20
5.2365927614
 30
0.0
 10
20.4631857086
 20
5.2184199596
 30
0.0
 10
20.4602356295
 20
5.200112895
 30
0.0
 10
20.4584628244
 20
5.1817172739
 30
0.0
 10
20.4580683384
 20
5.1694181913
 30
0.0
 10
20.4580683384
 20
5.1632758234
 30
0.0
  0
SPLINE
  5
26D
100
AcDbEntity
  8
0
100
AcDbSpline
 62
7
  6
CONTINUOUS
 70
0
 71
3
 72
29
 73
25
 74
0
 42
0.0000001
 43
0.0000001
 44
0.0000000001
 40
0.0
 40
0.0
 40
0.0
 40
0.0
 40
0.0704255226
 40
0.1405711416
 40
0.1754606257
 40
0.2101795329
 40
0.2789678201
 40
0.3467147954
 40
0.4132165389
 40
0.4783066619
 40
0.5418639641
 40
0.6038193452
 40
0.664162324
 40
0.7229459831
 40
0.751799212
 40
0.7803131916
 40
0.8085132494
 40
0.8364286449
 40
0.8640923718
 40
0.8915407603
 40
0.9188130633
 40
0.945951021
 40
0.972998332
 40
1.0
 40
1.0
 40
1.0
 40
1.0
 10
20.9480683384
 20
5.5156562672
 30
0.0
 10
20.9330283146
 20
5.5156562672
 30
0.0
 10
20.9029965598
 20
5.514528612
 30
0.0
 10
20.8657269258
 20
5.5103017652
 30
0.0
 10
20.8363061943
 20
5.5052433383
 30
0.0
 10
20.807386189
 20
5.4991156721
 30
0.0
 10
20.77206951
 20
5.489455885
 30
0.0
 10
20.7312482677
 20
5.4746976133
 30
0.0
 10
20.6924996039
 20
5.4569460094
 30
0.0
 10
20.6561960738
 20
5.4363688014
 30
0.0
 10
20.6226858946
 20
5.4131596493
 30
0.0
 10
20.5922911958
 20
5.3875361837
 30
0.0
 10
20.5653082386
 20
5.3597422238
 30
0.0
 10
20.545758076
 20
5.3348263272
 30
0.0
 10
20.5321235874
 20
5.3140912337
 30
0.0
 10
20.522960834
 20
5.2982687012
 30
0.0
 10
20.5148226538
 20
5.2821197013
 30
0.0
 10
20.5077285964
 20
5.2656826633
 30
0.0
 10
20.5016960921
 20
5.2489973964
 30
0.0
 10
20.4967399224
 20
5.2321041674
 30
0.0
 10
20.492872387
 20
5.2150439226
 30
0.0
 10
20.4901030263
 20
5.1978577694
 30
0.0
 10
20.4884386324
 20
5.1805883505
 30
0.0
 10
20.4880683384
 20
5.1690422801
 30
0.0
 10
20.4880683384
 20
5.1632758234
 30
0.0
  0
SPLINE
  5
26E
100
AcDbEntity
  8
0
100
AcDbSpline
 62
7
  6
CONTINUOUS
 70
0
 71
3
 72
29
 73
25
 74
0
 42
0.0000001
 43
0.0000001
 44
0.0000000001
 40
0.0
 40
0.0
 40
0.0
 40
0.0
 40
0.027001668
 40
0.054048979
 40
0.0811869367
 40
0.1084592397
 40
0.1359076282
 40
0.1635713551
 40
0.1914867506
 40
0.2196868084
 40
0.248200788
 40
0.2770540169
 40
0.335837676
 40
0.3961806548
 40
0.4581360359
 40
0.5216933381
 40
0.5867834611
 40
0.6532852046
 40
0.7210321799
 40
0.7898204671
 40
0.8245393743
 40
0.8594288584
 40
0.9295744774
 40
1.0
 40
1.0
 40
1.0
 40
1.0
 10
21.4080683384
 20
5.1632758234
 30
0.0
 10
21.4080683384
 20
5.1690422801
 30
0.0
 10
21.4076980443
 20
5.1805883505
 30
0.0
 10
21.4060336505
 20
5.1978577694
 30
0.0
 10
21.4032642898
 20
5.2150439226
 30
0.0
 10
21.3993967544
 20
5.2321041674
 30
0.0
 10
21.3944405847
 20
5.2489973964
 30
0.0
 10
21.3884080803
 20
5.2656826633
 30
0.0
 10
21.381314023
 20
5.2821197013
 30
0.0
 10
21.3731758427
 20
5.2982687012
 30
0.0
 10
21.3640130893
 20
5.3140912337
 30
0.0
 10
21.3503786007
 20
5.3348263272
 30
0.0
 10
21.3308284382
 20
5.3597422238
 30
0.0
 10
21.3038454809
 20
5.3875361837
 30
0.0
 10
21.2734507822
 20
5.4131596493
 30
0.0
 10
21.239940603
 20
5.4363688014
 30
0.0
 10
21.2036370728
 20
5.4569460094
 30
0.0
 10
21.164888409
 20
5.4746976133
 30
0.0
 10
21.1240671667
 20
5.489455885
 30
0.0
 10
21.0887504878
 20
5.4991156721
 30
0.0
 10
21.0598304825
 20
5.5052433383
 30
0.0
 10
21.030409751
 20
5.5103017652
 30
0.0
 10
20.993140117
 20
5.514528612
 30
0.0
 10
20.9631083622
 20
5.5156562672
 30
0.0
 10
20.9480683384
 20
5.5156562672
 30
0.0
  0
SPLINE
  5
26F
100
AcDbEntity
  8
0
100
AcDbSpline
 62
9
  6
CONTINUOUS
 70
0
 71
3
 72
49
 73
45
 74
0
 42
0.0000001
 43
0.0000001
 44
0.0000000001
 40
0.0
 40
0.0
 40
0.0
 40
0.0
 40
0.0135006962
 40
0.0270249862
 40
0.0405939641
 40
0.0542303172
 40
0.0679546955
 40
0.0817867305
 40
0.0957446176
 40
0.1098448255
 40
0.1241019954
 40
0.1385287978
 40
0.1679210104
 40
0.1980928868
 40
0.2290709819
 40
0.2608500383
 40
0.2933955278
 40
0.3266468205
 40
0.3605207565
 40
0.3949153308
 40
0.4297135118
 40
0.4647869946
 40
0.5
 40
0.5352130054
 40
0.5702864882
 40
0.6050846692
 40
0.6394792435
 40
0.6733531795
 40
0.7066044722
 40
0.7391499617
 40
0.7709290181
 40
0.8019071132
 40
0.8320789896
 40
0.8614712022
 40
0.8758980046
 40
0.8901551745
 40
0.9042553824
 40
0.9182132695
 40
0.9320453045
 40
0.9457696828
 40
0.9594060359
 40
0.9729750138
 40
0.9864993038
 40
1.0
 40
1.0
 40
1.0
 40
1.0
 10
21.4480683384
 20
5.1697036995
 30
0.0
 10
21.4480683384
 20
5.1759714422
 30
0.0
 10
21.4476657912
 20
5.188521583
 30
0.0
 10
21.4458568023
 20
5.2072926915
 30
0.0
 10
21.4428464979
 20
5.2259734185
 30
0.0
 10
21.4386427167
 20
5.2445171054
 30
0.0
 10
21.4332555766
 20
5.2628793248
 30
0.0
 10
21.426698484
 20
5.2810154802
 30
0.0
 10
21.4189875519
 20
5.2988818242
 30
0.0
 10
21.4101417268
 20
5.3164350974
 30
0.0
 10
21.4001822043
 20
5.3336334955
 30
0.0
 10
21.3853620827
 20
5.3561716226
 30
0.0
 10
21.3641119555
 20
5.3832541602
 30
0.0
 10
21.3347825974
 20
5.4134649328
 30
0.0
 10
21.301744926
 20
5.4413165803
 30
0.0
 10
21.2653207995
 20
5.4665438696
 30
0.0
 10
21.2258603925
 20
5.4889104463
 30
0.0
 10
21.1837425457
 20
5.5082055994
 30
0.0
 10
21.1393705762
 20
5.5242474246
 30
0.0
 10
21.0931691172
 20
5.5368846048
 30
0.0
 10
21.0455800229
 20
5.545997509
 30
0.0
 10
20.997058433
 20
5.5515000926
 30
0.0
 10
20.9480683384
 20
5.553340022
 30
0.0
 10
20.8990782438
 20
5.5515000926
 30
0.0
 10
20.8505566539
 20
5.545997509
 30
0.0
 10
20.8029675596
 20
5.5368846048
 30
0.0
 10
20.7567661006
 20
5.5242474246
 30
0.0
 10
20.7123941311
 20
5.5082055994
 30
0.0
 10
20.6702762842
 20
5.4889104463
 30
0.0
 10
20.6308158773
 20
5.4665438696
 30
0.0
 10
20.5943917507
 20
5.4413165803
 30
0.0
 10
20.5613540794
 20
5.4134649328
 30
0.0
 10
20.5320247213
 20
5.3832541602
 30
0.0
 10
20.510774594
 20
5.3561716226
 30
0.0
 10
20.4959544724
 20
5.3336334955
 30
0.0
 10
20.48599495
 20
5.3164350974
 30
0.0
 10
20.4771491249
 20
5.2988818242
 30
0.0
 10
20.4694381928
 20
5.2810154802
 30
0.0
 10
20.4628811002
 20
5.2628793248
 30
0.0
 10
20.4574939601
 20
5.2445171054
 30
0.0
 10
20.4532901788
 20
5.2259734185
 30
0.0
 10
20.4502798744
 20
5.2072926915
 30
0.0
 10
20.4484708856
 20
5.188521583
 30
0.0
 10
20.4480683384
 20
5.1759714422
 30
0.0
 10
20.4480683384
 20
5.1697036995
 30
0.0
  0
SPLINE
  5
270
100
AcDbEntity
  8
0
100
AcDbSpline
 62
9
  6
CONTINUOUS
 70
0
 71
3
 72
15
 73
11
 74
0
 42
0.0000001
 43
0.0000001
 44
0.0000000001
 40
0.0
 40
0.0
 40
0.0
 40
0.0
 40
0.1233077663
 40
0.2467916855
 40
0.3705994328
 40
0.4948998027
 40
0.6198475042
 40
0.7455889306
 40
0.8722635376
 40
1.0
 40
1.0
 40
1.0
 40
1.0
 10
20.4480683384
 20
10.6205426296
 30
0.0
 10
20.4480683384
 20
10.6261401021
 30
0.0
 10
20.4483893026
 20
10.6373456803
 30
0.0
 10
20.4498318215
 20
10.6541155535
 30
0.0
 10
20.4522331551
 20
10.6708212023
 30
0.0
 10
20.4555883814
 20
10.6874292196
 30
0.0
 10
20.4598908364
 20
10.7039080056
 30
0.0
 10
20.4651322647
 20
10.720225792
 30
0.0
 10
20.4713021963
 20
10.7363505056
 30
0.0
 10
20.4760059261
 20
10.7469050943
 30
0.0
 10
20.478504796
 20
10.7521375286
 30
0.0
  0
SPLINE
  5
271
100
AcDbEntity
  8
0
100
AcDbSpline
 62
9
  6
CONTINUOUS
 70
0
 71
3
 72
39
 73
35
 74
0
 42
0.0000001
 43
0.0000001
 44
0.0000000001
 40
0.0
 40
0.0
 40
0.0
 40
0.0
 40
0.0273467198
 40
0.0551910059
 40
0.0835825975
 40
0.1125560918
 40
0.1421309474
 40
0.1723119228
 40
0.2030898371
 40
0.2344425636
 40
0.2663361778
 40
0.2987261987
 40
0.3315588832
 40
0.3647725488
 40
0.3982989044
 40
0.4320643815
 40
0.4659914619
 40
0.5
 40
0.5340085381
 40
0.5679356185
 40
0.6017010956
 40
0.6352274512
 40
0.6684411168
 40
0.7012738013
 40
0.7336638222
 40
0.7655574364
 40
0.7969101629
 40
0.8276880772
 40
0.8578690526
 40
0.8874439082
 40
0.9164174025
 40
0.9448089941
 40
0.9726532802
 40
1.0
 40
1.0
 40
1.0
 40
1.0
 10
20.478504796
 20
10.7521375286
 30
0.0
 10
20.4829065546
 20
10.7613544598
 30
0.0
 10
20.4926580314
 20
10.7795539855
 30
0.0
 10
20.5098070273
 20
10.8056851047
 30
0.0
 10
20.5295015524
 20
10.8307336321
 30
0.0
 10
20.5516237979
 20
10.8545522415
 30
0.0
 10
20.5760442965
 20
10.8770050882
 30
0.0
 10
20.602620246
 20
10.8979632128
 30
0.0
 10
20.6311969109
 20
10.9173066097
 30
0.0
 10
20.6616082581
 20
10.9349244378
 30
0.0
 10
20.6936778916
 20
10.9507157186
 30
0.0
 10
20.7272199837
 20
10.964589878
 30
0.0
 10
20.7620402962
 20
10.9764672798
 30
0.0
 10
20.7979372577
 20
10.9862796979
 30
0.0
 10
20.8347031
 20
10.9939707251
 30
0.0
 10
20.872125037
 20
10.9994961345
 30
0.0
 10
20.9099864899
 20
11.0028241476
 30
0.0
 10
20.9480683384
 20
11.0039356171
 30
0.0
 10
20.9861501869
 20
11.0028241476
 30
0.0
 10
21.0240116398
 20
10.9994961345
 30
0.0
 10
21.0614335768
 20
10.9939707251
 30
0.0
 10
21.0981994191
 20
10.9862796979
 30
0.0
 10
21.1340963805
 20
10.9764672798
 30
0.0
 10
21.168916693
 20
10.964589878
 30
0.0
 10
21.2024587852
 20
10.9507157186
 30
0.0
 10
21.2345284186
 20
10.9349244378
 30
0.0
 10
21.2649397658
 20
10.9173066097
 30
0.0
 10
21.2935164307
 20
10.8979632128
 30
0.0
 10
21.3200923803
 20
10.8770050882
 30
0.0
 10
21.3445128789
 20
10.8545522415
 30
0.0
 10
21.3666351243
 20
10.8307336321
 30
0.0
 10
21.3863296495
 20
10.8056851047
 30
0.0
 10
21.4034786453
 20
10.7795539855
 30
0.0
 10
21.4132301222
 20
10.7613544598
 30
0.0
 10
21.4176318807
 20
10.7521375286
 30
0.0
  0
SPLINE
  5
272
100
AcDbEntity
  8
0
100
AcDbSpline
 62
9
  6
CONTINUOUS
 70
0
 71
3
 72
15
 73
11
 74
0
 42
0.0000001
 43
0.0000001
 44
0.0000000001
 40
0.0
 40
0.0
 40
0.0
 40
0.0
 40
0.1277364624
 40
0.2544110694
 40
0.3801524958
 40
0.5051001973
 40
0.6294005672
 40
0.7532083145
 40
0.8766922337
 40
1.0
 40
1.0
 40
1.0
 40
1.0
 10
21.4176318807
 20
10.7521375286
 30
0.0
 10
21.4201307507
 20
10.7469050943
 30
0.0
 10
21.4248344804
 20
10.7363505056
 30
0.0
 10
21.4310044121
 20
10.720225792
 30
0.0
 10
21.4362458403
 20
10.7039080056
 30
0.0
 10
21.4405482954
 20
10.6874292196
 30
0.0
 10
21.4439035216
 20
10.6708212023
 30
0.0
 10
21.4463048553
 20
10.6541155535
 30
0.0
 10
21.4477473741
 20
10.6373456803
 30
0.0
 10
21.4480683384
 20
10.6261401021
 30
0.0
 10
21.4480683384
 20
10.6205426296
 30
0.0
  0
SPLINE
  5
273
100
AcDbEntity
  8
0
100
AcDbSpline
 62
7
  6
CONTINUOUS
 70
0
 71
3
 72
11
 73
7
 74
0
 42
0.0000001
 43
0.0000001
 44
0.0000000001
 40
0.0
 40
0.0
 40
0.0
 40
0.0
 40
0.2525601698
 40
0.5029421399
 40
0.7518448428
 40
1.0
 40
1.0
 40
1.0
 40
1.0
 10
20.4748833114
 20
10.9494353748
 30
0.0
 10
20.4721120029
 20
10.941541861
 30
0.0
 10
20.467231232
 20
10.9255899058
 30
0.0
 10
20.4619528241
 20
10.9012222241
 30
0.0
 10
20.4587757052
 20
10.8766394028
 30
0.0
 10
20.4580683384
 20
10.8601661222
 30
0.0
 10
20.4580683384
 20
10.8519461691
 30
0.0
  0
SPLINE
  5
274
100
AcDbEntity
  8
0
100
AcDbSpline
 62
9
  6
CONTINUOUS
 70
0
 71
3
 72
51
 73
47
 74
0
 42
0.0000001
 43
0.0000001
 44
0.0000000001
 40
0.0
 40
0.0
 40
0.0
 40
0.0
 40
0.0352127002
 40
0.0702855084
 40
0.087730261
 40
0.1050897185
 40
0.1394838568
 40
0.1733573561
 40
0.2066082259
 40
0.2391533003
 40
0.2709319474
 40
0.301909651
 40
0.3320811367
 40
0.3614729774
 40
0.3758995931
 40
0.3901565794
 40
0.4042566091
 40
0.4182143145
 40
0.4320461811
 40
0.4457703721
 40
0.4594065226
 40
0.472975508
 40
0.4864991684
 40
0.5
 40
0.5135008316
 40
0.527024492
 40
0.5405934774
 40
0.5542296279
 40
0.5679538189
 40
0.5817856855
 40
0.5957433909
 40
0.6098434206
 40
0.6241004069
 40
0.6385270226
 40
0.6679188633
 40
0.698090349
 40
0.7290680526
 40
0.7608466997
 40
0.7933917741
 40
0.8266426439
 40
0.8605161432
 40
0.8949102815
 40
0.912269739
 40
0.9297144916
 40
0.9647872998
 40
1.0
 40
1.0
 40
1.0
 40
1.0
 10
20.9480683384
 20
4.8121279479
 30
0.0
 10
20.9627813796
 20
4.8121279479
 30
0.0
 10
20.992160244
 20
4.8132310867
 30
0.0
 10
21.0286196478
 20
4.8173660363
 30
0.0
 10
21.0574008039
 20
4.8223144962
 30
0.0
 10
21.0856921179
 20
4.8283089496
 30
0.0
 10
21.1202410485
 20
4.8377587377
 30
0.0
 10
21.1601748754
 20
4.8521961747
 30
0.0
 10
21.1980811879
 20
4.8695618731
 30
0.0
 10
21.233595515
 20
4.889691749
 30
0.0
 10
21.2663772219
 20
4.9123963561
 30
0.0
 10
21.2961111704
 20
4.9374627887
 30
0.0
 10
21.3225075496
 20
4.9646525363
 30
0.0
 10
21.3416327125
 20
4.9890267845
 30
0.0
 10
21.3549708029
 20
5.0093111171
 30
0.0
 10
21.3639343659
 20
5.0247896808
 30
0.0
 10
21.3718956318
 20
5.0405876167
 30
0.0
 10
21.3788354725
 20
5.0566673314
 30
0.0
 10
21.3847368379
 20
5.0729898807
 30
0.0
 10
21.3895852644
 20
5.0895158541
 30
0.0
 10
21.3933687247
 20
5.1062052658
 30
0.0
 10
21.3960778817
 20
5.1230176586
 30
0.0
 10
21.3977060947
 20
5.1399122265
 30
0.0
 10
21.3982493072
 20
5.1568479473
 30
0.0
 10
21.3977060947
 20
5.173783668
 30
0.0
 10
21.3960778817
 20
5.1906782359
 30
0.0
 10
21.3933687247
 20
5.2074906288
 30
0.0
 10
21.3895852644
 20
5.2241800405
 30
0.0
 10
21.3847368379
 20
5.2407060138
 30
0.0
 10
21.3788354725
 20
5.2570285631
 30
0.0
 10
21.3718956318
 20
5.2731082778
 30
0.0
 10
21.363934366
 20
5.2889062137
 30
0.0
 10
21.3549708029
 20
5.3043847774
 30
0.0
 10
21.3416327125
 20
5.32466911
 30
0.0
 10
21.3225075496
 20
5.3490433583
 30
0.0
 10
21.2961111704
 20
5.3762331059
 30
0.0
 10
21.2663772219
 20
5.4012995384
 30
0.0
 10
21.233595515
 20
5.4240041455
 30
0.0
 10
21.1980811879
 20
5.4441340214
 30
0.0
 10
21.1601748754
 20
5.4614997198
 30
0.0
 10
21.1202410485
 20
5.4759371568
 30
0.0
 10
21.0856921179
 20
5.485386945
 30
0.0
 10
21.057400804
 20
5.4913813983
 30
0.0
 10
21.0286196478
 20
5.4963298582
 30
0.0
 10
20.992160244
 20
5.5004648079
 30
0.0
 10
20.9627813796
 20
5.5015679467
 30
0.0
 10
20.9480683384
 20
5.5015679467
 30
0.0
  0
SPLINE
  5
275
100
AcDbEntity
  8
0
100
AcDbSpline
 62
9
  6
CONTINUOUS
 70
0
 71
3
 72
51
 73
47
 74
0
 42
0.0000001
 43
0.0000001
 44
0.0000000001
 40
0.0
 40
0.0
 40
0.0
 40
0.0
 40
0.0352127002
 40
0.0702855084
 40
0.087730261
 40
0.1050897185
 40
0.1394838568
 40
0.1733573561
 40
0.2066082259
 40
0.2391533003
 40
0.2709319474
 40
0.301909651
 40
0.3320811367
 40
0.3614729774
 40
0.3758995931
 40
0.3901565794
 40
0.4042566091
 40
0.4182143145
 40
0.4320461811
 40
0.4457703721
 40
0.4594065226
 40
0.472975508
 40
0.4864991684
 40
0.5
 40
0.5135008316
 40
0.527024492
 40
0.5405934774
 40
0.5542296279
 40
0.5679538189
 40
0.5817856855
 40
0.5957433909
 40
0.6098434206
 40
0.6241004069
 40
0.6385270226
 40
0.6679188633
 40
0.698090349
 40
0.7290680526
 40
0.7608466997
 40
0.7933917741
 40
0.8266426439
 40
0.8605161432
 40
0.8949102815
 40
0.912269739
 40
0.9297144916
 40
0.9647872998
 40
1.0
 40
1.0
 40
1.0
 40
1.0
 10
20.9480683384
 20
5.5015679467
 30
0.0
 10
20.9333552971
 20
5.5015679467
 30
0.0
 10
20.9039764328
 20
5.5004648079
 30
0.0
 10
20.867517029
 20
5.4963298582
 30
0.0
 10
20.8387358728
 20
5.4913813983
 30
0.0
 10
20.8104445588
 20
5.485386945
 30
0.0
 10
20.7758956283
 20
5.4759371568
 30
0.0
 10
20.7359618013
 20
5.4614997198
 30
0.0
 10
20.6980554889
 20
5.4441340214
 30
0.0
 10
20.6625411617
 20
5.4240041456
 30
0.0
 10
20.6297594548
 20
5.4012995384
 30
0.0
 10
20.6000255064
 20
5.3762331059
 30
0.0
 10
20.5736291272
 20
5.3490433583
 30
0.0
 10
20.5545039642
 20
5.32466911
 30
0.0
 10
20.5411658739
 20
5.3043847774
 30
0.0
 10
20.5322023108
 20
5.2889062137
 30
0.0
 10
20.5242410449
 20
5.2731082778
 30
0.0
 10
20.5173012043
 20
5.2570285631
 30
0.0
 10
20.5113998388
 20
5.2407060138
 30
0.0
 10
20.5065514124
 20
5.2241800405
 30
0.0
 10
20.5027679521
 20
5.2074906288
 30
0.0
 10
20.5000587951
 20
5.1906782359
 30
0.0
 10
20.498430582
 20
5.173783668
 30
0.0
 10
20.4978873696
 20
5.1568479473
 30
0.0
 10
20.498430582
 20
5.1399122265
 30
0.0
 10
20.5000587951
 20
5.1230176586
 30
0.0
 10
20.5027679521
 20
5.1062052658
 30
0.0
 10
20.5065514124
 20
5.0895158541
 30
0.0
 10
20.5113998388
 20
5.0729898807
 30
0.0
 10
20.5173012043
 20
5.0566673314
 30
0.0
 10
20.5242410449
 20
5.0405876167
 30
0.0
 10
20.5322023108
 20
5.0247896808
 30
0.0
 10
20.5411658739
 20
5.0093111171
 30
0.0
 10
20.5545039642
 20
4.9890267845
 30
0.0
 10
20.5736291272
 20
4.9646525363
 30
0.0
 10
20.6000255064
 20
4.9374627887
 30
0.0
 10
20.6297594548
 20
4.9123963561
 30
0.0
 10
20.6625411617
 20
4.889691749
 30
0.0
 10
20.6980554889
 20
4.8695618731
 30
0.0
 10
20.7359618013
 20
4.8521961747
 30
0.0
 10
20.7758956283
 20
4.8377587377
 30
0.0
 10
20.8104445588
 20
4.8283089496
 30
0.0
 10
20.8387358728
 20
4.8223144962
 30
0.0
 10
20.867517029
 20
4.8173660363
 30
0.0
 10
20.9039764328
 20
4.8132310867
 30
0.0
 10
20.9333552971
 20
4.8121279479
 30
0.0
 10
20.9480683384
 20
4.8121279479
 30
0.0
  0
ENDSEC
  0
SECTION
  2
OBJECTS
  0
DICTIONARY
  5
C
100
AcDbDictionary
280
0
281
1
  3
ACAD_GROUP
350
D
  3
ACAD_MLINESTYLE
350
17
  3
ACAD_LAYOUT
350
1A
  3
ACAD_PLOTSETTINGS
350
19
  3
ACAD_PLOTSTYLENAME
350
E
  0
DICTIONARY
  5
D
102
{ACAD_REACTORS
330
C
102
}
100
AcDbDictionary
280
0
281
1
  0
ACDBDICTIONARYWDFLT
  5
E
102
{ACAD_REACTORS
330
C
102
}
100
AcDbDictionary
281
1
  3
Normal
350
F
100
AcDbDictionaryWithDefault
340
F
  0
DICTIONARY
  5
17
102
{ACAD_REACTORS
330
C
102
}
100
AcDbDictionary
280
0
281
1
  3
Standard
350
18
  0
DICTIONARY
  5
19
102
{ACAD_REACTORS
330
C
102
}
100
AcDbDictionary
281
1
  0
DICTIONARY
  5
1A
102
{ACAD_REACTORS
330
C
102
}
100
AcDbDictionary
281
1
  3
Model
350
276
  3
Layout1
350
277
  0
ACDBPLACEHOLDER
  5
F
102
{ACAD_REACTORS
330
E
102
}
  0
MLINESTYLE
  5
18
102
{ACAD_REACTORS
330
17
102
}
100
AcDbMlineStyle
  2
STANDARD
 70
0
  3

 62
256
 51
90.0
 52
90.0
 71
2
 49
0.5
 62
256
  6
BYLAYER
 49
-0.5
 62
256
  6
BYLAYER
  0
LAYOUT
  5
276
102
{ACAD_REACTORS
330
1A
102
}
100
AcDbPlotSettings
  1

  2
none_device
  4
ANSI_C_(22.00_x_17.00_Inches)
  6

 40
0.0
 41
0.0
 42
0.0
 43
0.0
 44
558.8
 45
431.8
 46
0.0
 47
0.0
 48
0.0
 49
0.0
140
0.0
141
0.0
142
1.0
143
1.0
 70
1024
 72
0
 73
0
 74
0
  7

 75
0
147
1.0
148
0.0
149
0.0
100
AcDbLayout
  1
Model
 70
0
 71
0
 10
0.0
 20
0.0
 11
22.0
 21
17.0
 12
0.0
 22
0.0
 32
0.0
 14
0.0
 24
0.0
 34
0.0
 15
0.0
 25
0.0
 35
0.0
146
0.0
 13
0.0
 23
0.0
 33
0.0
 16
1.0
 26
0.0
 36
0.0
 17
0.0
 27
1.0
 37
0.0
 76
0
330
205
345
0
346
0
  0
LAYOUT
  5
277
102
{ACAD_REACTORS
330
1A
102
}
100
AcDbPlotSettings
  1

  2
none_device
  4
ANSI_C_(22.00_x_17.00_Inches)
  6

 40
0.0
 41
0.0
 42
0.0
 43
0.0
 44
558.8
 45
431.8
 46
0.0
 47
0.0
 48
0.0
 49
0.0
140
0.0
141
0.0
142
1.0
143
1.0
 70
0
 72
0
 73
0
 74
0
  7

 75
0
147
1.0
148
0.0
149
0.0
100
AcDbLayout
  1
Layout1
 70
0
 71
1
 10
0.0
 20
0.0
 11
22.0
 21
17.0
 12
0.0
 22
0.0
 32
0.0
 14
0.0
 24
0.0
 34
0.0
 15
0.0
 25
0.0
 35
0.0
146
0.0
 13
0.0
 23
0.0
 33
0.0
 16
1.0
 26
0.0
 36
0.0
 17
0.0
 27
1.0
 37
0.0
 76
0
330
206
345
0
346
0
  0
ENDSEC
  0
EOF
