999
DXF file: E:\BT Custom\CADOUTPUT\_FRONT.dxf
999
Pro/ENGINEER 2018400 by Parametric Technology Corporation
  0
SECTION
  2
HEADER
  9
$ACADVER
  1
AC1018
  9
$DWGCODEPAGE
  3
ANSI_1252
  9
$EXTMAX
 10
22.0
 20
17.0
 30
0.0
  9
$EXTMIN
 10
0.0
 20
0.0
 30
0.0
  9
$LIMMIN
 10
0.0
 20
0.0
  9
$LIMMAX
 10
22.0
 20
17.0
  9
$VIEWCTR
 10
11.0
 20
8.5
  9
$VIEWSIZE
 40
17.0
  9
$CLAYER
  8
0
  9
$LTSCALE
 40
1.21
  9
$CELTYPE
  6
BYLAYER
  9
$DIMSCALE
 40
1.0
  9
$DIMASZ
 40
0.1
  9
$DIMEXO
 40
0.0625
  9
$DIMDLI
 40
0.836
  9
$DIMEXE
 40
0.125
  9
$DIMCEN
 40
0.198
  9
$DIMLFAC
 40
1.0
  9
$DIMBLK
  1
_FILLED
  9
$DIMALT
 70
1
  9
$DIMALTD
 70
2
  9
$DIMALTTD
 70
2
  9
$DIMALTF
 40
25.4
  9
$DIMTXT
 40
0.08
  9
$DIMTOL
 70
1
  9
$DIMLIM
 70
0
  9
$DIMTFAC
 40
1.0
  9
$DIMTP
 40
0.001
  9
$DIMTM
 40
0.001
  9
$DIMGAP
 40
0.09
  9
$DIMDSEP
 70
46
  9
$AUNITS
 70
0
  9
$PDMODE
 70
3
  9
$PDSIZE
 40
0.06
  9
$HANDSEED
  5
249
  9
$TILEMODE
 70
1
  9
$MEASUREMENT
 70
0
  9
$INSUNITS
 70
1
  0
ENDSEC
  0
SECTION
  2
CLASSES
  0
CLASS
  1
ACDBDICTIONARYWDFLT
  2
AcDbDictionaryWithDefault
  3
AutoCAD 2000
 90
0
 91
1
280
0
281
0
  0
CLASS
  1
ACDBPLACEHOLDER
  2
AcDbPlaceHolder
  3
AutoCAD 2000
 90
0
 91
1
280
0
281
0
  0
CLASS
  1
LAYOUT
  2
AcDbLayout
  3
AutoCAD 2000
 90
0
 91
0
280
0
281
0
  0
ENDSEC
  0
SECTION
  2
TABLES
  0
TABLE
  2
VPORT
  5
8
100
AcDbSymbolTable
 70
2
  0
VPORT
  5
1F4
100
AcDbSymbolTableRecord
100
AcDbViewportTableRecord
  2
*ACTIVE
 70
0
 10
0.0
 20
0.0
 11
1.0
 21
1.0
 12
11.0
 22
8.5
 13
0.0
 23
0.0
 14
1.0
 24
1.0
 15
0.0
 25
0.0
 16
0.0
 26
0.0
 36
1.0
 17
0.0
 27
0.0
 37
0.0
 40
17.0
 41
1.2941176471
 42
50.0
 43
0.0
 44
0.0
 50
0.0
 51
0.0
 71
0
 72
100
 73
1
 74
1
 75
0
 76
0
 77
0
 78
0
  0
ENDTAB
  0
TABLE
  2
LTYPE
  5
5
100
AcDbSymbolTable
 70
6
  0
LTYPE
  5
14
100
AcDbSymbolTableRecord
100
AcDbLinetypeTableRecord
  2
BYBLOCK
 70
0
  3

 72
65
 73
0
 40
0.0
  0
LTYPE
  5
15
100
AcDbSymbolTableRecord
100
AcDbLinetypeTableRecord
  2
BYLAYER
 70
0
  3

 72
65
 73
0
 40
0.0
  0
LTYPE
  5
16
100
AcDbSymbolTableRecord
100
AcDbLinetypeTableRecord
  2
CONTINUOUS
 70
64
  3
Solid line
 72
65
 73
0
 40
0.0
  0
LTYPE
  5
1F5
100
AcDbSymbolTableRecord
100
AcDbLinetypeTableRecord
  2
CENTER
 70
64
  3
____ _ ____ _ ____ _ ____ _ ____ _ ____ _ ____
 72
65
 73
4
 40
0.6
 49
0.375
 74
0
 49
-0.075
 74
0
 49
0.075
 74
0
 49
-0.075
 74
0
  0
LTYPE
  5
1F6
100
AcDbSymbolTableRecord
100
AcDbLinetypeTableRecord
  2
HIDDEN
 70
64
  3
- - - - - - - - - - - - - - - - - - - -
 72
65
 73
2
 40
0.2
 49
0.1
 74
0
 49
-0.1
 74
0
  0
LTYPE
  5
1F7
100
AcDbSymbolTableRecord
100
AcDbLinetypeTableRecord
  2
PHANTOM
 70
64
  3
_____ _ _ _____ _ _ _____ _ _ _____
 72
65
 73
6
 40
0.8
 49
0.45
 74
0
 49
-0.05
 74
0
 49
0.1
 74
0
 49
-0.05
 74
0
 49
0.1
 74
0
 49
-0.05
 74
0
  0
LTYPE
  5
1F8
100
AcDbSymbolTableRecord
100
AcDbLinetypeTableRecord
  2
DOT
 70
64
  3
. . . . . . . . . . . . . . . . . . . .
 72
65
 73
2
 40
0.2
 49
0.1
 74
0
 49
-0.1
 74
0
  0
LTYPE
  5
1F9
100
AcDbSymbolTableRecord
100
AcDbLinetypeTableRecord
  2
DASHED
 70
64
  3
- - - - - - - - - - - - - - - - - - - -
 72
65
 73
2
 40
0.2
 49
0.1
 74
0
 49
-0.1
 74
0
  0
ENDTAB
  0
TABLE
  2
LAYER
  5
2
100
AcDbSymbolTable
 70
36
  0
LAYER
  5
10
100
AcDbSymbolTableRecord
100
AcDbLayerTableRecord
  2
0
 70
0
 62
7
  6
CONTINUOUS
370
-3
390
F
  0
LAYER
  5
1FA
100
AcDbSymbolTableRecord
100
AcDbLayerTableRecord
  2
DEFAULT_1
 70
0
 62
7
  6
CENTER
370
-3
390
F
  0
LAYER
  5
1FB
100
AcDbSymbolTableRecord
100
AcDbLayerTableRecord
  2
DEFAULT_2
 70
0
 62
8
  6
HIDDEN
370
-3
390
F
  0
LAYER
  5
1FC
100
AcDbSymbolTableRecord
100
AcDbLayerTableRecord
  2
DEFAULT_3
 70
0
 62
7
  6
PHANTOM
370
-3
390
F
  0
LAYER
  5
1FD
100
AcDbSymbolTableRecord
100
AcDbLayerTableRecord
  2
ALL_FEATURES
 70
0
 62
7
  6
CONTINUOUS
370
-3
390
F
  0
LAYER
  5
1FE
100
AcDbSymbolTableRecord
100
AcDbLayerTableRecord
  2
AXES_FEATURES
 70
0
 62
7
  6
CONTINUOUS
370
-3
390
F
  0
LAYER
  5
1FF
100
AcDbSymbolTableRecord
100
AcDbLayerTableRecord
  2
DIMENSIONS
 70
0
 62
7
  6
CONTINUOUS
370
-3
390
F
  0
ENDTAB
  0
TABLE
  2
STYLE
  5
3
100
AcDbSymbolTable
 70
1
  0
STYLE
  5
11
100
AcDbSymbolTableRecord
100
AcDbTextStyleTableRecord
  2
STANDARD
 70
0
 40
0.0
 41
0.8
 50
0.0
 71
0
 42
0.2
  3
txt
  4

  0
STYLE
  5
200
100
AcDbSymbolTableRecord
100
AcDbTextStyleTableRecord
  2
TEXTSTYLE_1
 70
0
 40
0.0
 41
0.8
 50
0.0
 71
0
 42
0.2
  3
gdt
  4

  0
ENDTAB
  0
TABLE
  2
VIEW
  5
6
100
AcDbSymbolTable
 70
0
  0
ENDTAB
  0
TABLE
  2
UCS
  5
7
100
AcDbSymbolTable
 70
0
  0
ENDTAB
  0
TABLE
  2
APPID
  5
9
100
AcDbSymbolTable
 70
1
  0
APPID
  5
201
100
AcDbSymbolTableRecord
100
AcDbRegAppTableRecord
  2
ACAD
 70
0
  0
ENDTAB
  0
TABLE
  2
BLOCK_RECORD
  5
1
100
AcDbSymbolTable
 70
0
  0
BLOCK_RECORD
  5
202
100
AcDbSymbolTableRecord
100
AcDbBlockTableRecord
  2
*Model_Space
  0
BLOCK_RECORD
  5
203
100
AcDbSymbolTableRecord
100
AcDbBlockTableRecord
  2
*Paper_Space
  0
BLOCK_RECORD
  5
204
100
AcDbSymbolTableRecord
100
AcDbBlockTableRecord
  2
_FILLED
  0
ENDTAB
  0
TABLE
  2
DIMSTYLE
  5
A
100
AcDbSymbolTable
 70
1
100
AcDbDimStyleTable
 71
0
  0
DIMSTYLE
105
205
100
AcDbSymbolTableRecord
100
AcDbDimStyleTableRecord
  2
STANDARD
 70
0
  3

  4

 40
1.0
 41
0.1
 42
0.0625
 43
0.38
 44
0.125
 45
0.0
 46
0.0
 47
0.001
 48
0.001
140
0.08
141
0.09
142
0.0
143
25.4
144
1.0
145
0.0
146
1.0
147
0.09
 71
1.0
 72
0.0
 73
1
 74
1
 75
0
 76
0
 77
0
 78
4
 79
1
170
1
171
2
172
0
173
0
174
0
175
0
176
0
177
0
178
0
270
2
179
3
271
3
272
3
273
2
274
2
275
0
280
0
281
0
282
0
283
1
284
4
285
0
286
0
287
3
288
0
340
11
278
46
341
204
342
204
343
204
344
204
  0
ENDTAB
  0
ENDSEC
  0
SECTION
  2
BLOCKS
  0
BLOCK
  5
20
100
AcDbEntity
  8
0
100
AcDbBlockBegin
  2
*Model_Space
 70
0
 10
0.0
 20
0.0
 30
0.0
  3
*Model_Space
  1

  0
ENDBLK
  5
21
100
AcDbEntity
  8
0
100
AcDbBlockEnd
  0
BLOCK
  5
1C
100
AcDbEntity
  8
0
100
AcDbBlockBegin
  2
*Paper_Space
 70
0
 10
0.0
 20
0.0
 30
0.0
  3
*Paper_Space
  1

  0
ENDBLK
  5
1D
100
AcDbEntity
  8
0
100
AcDbBlockEnd
  0
BLOCK
  5
206
100
AcDbEntity
  8
0
100
AcDbBlockBegin
  2
_FILLED
 70
64
 10
0.0
 20
0.0
  3
_FILLED
  1

  0
SOLID
  5
207
100
AcDbEntity
  8
0
  6
BYBLOCK
 62
0
100
AcDbTrace
 10
0.0
 20
0.0
 11
-1.0
 21
0.2
 12
-1.0
 22
-0.2
 13
-1.0
 23
-0.2
  0
ENDBLK
  5
208
100
AcDbEntity
  8
0
  6
BYBLOCK
 62
0
100
AcDbBlockEnd
  0
ENDSEC
  0
SECTION
  2
ENTITIES
  0
LINE
  5
209
100
AcDbEntity
  8
0
100
AcDbLine
 62
7
  6
CONTINUOUS
 10
3.9314423427
 20
5.4619195021
 11
3.9314423427
 21
5.0219208064
  0
LINE
  5
20A
100
AcDbEntity
  8
0
100
AcDbLine
 62
9
  6
CONTINUOUS
 10
3.9614423427
 20
5.4919195021
 11
3.9614423427
 21
4.9919195021
  0
LINE
  5
20B
100
AcDbEntity
  8
0
100
AcDbLine
 62
7
  6
CONTINUOUS
 10
5.7502081119
 20
3.2789195021
 11
8.1251765736
 21
3.2789195021
  0
LINE
  5
20C
100
AcDbEntity
  8
0
100
AcDbLine
 62
7
  6
CONTINUOUS
 10
9.7501946004
 20
3.2789195021
 11
12.1251900851
 21
3.2789195021
  0
LINE
  5
20D
100
AcDbEntity
  8
0
100
AcDbLine
 62
7
  6
CONTINUOUS
 10
13.7502081119
 20
3.2789195021
 11
16.1251765736
 21
3.2789195021
  0
LINE
  5
20E
100
AcDbEntity
  8
0
100
AcDbLine
 62
7
  6
CONTINUOUS
 10
16.1251765736
 20
3.6539195021
 11
13.7502081119
 21
3.6539195021
  0
LINE
  5
20F
100
AcDbEntity
  8
0
100
AcDbLine
 62
7
  6
CONTINUOUS
 10
8.1251765736
 20
3.6539195021
 11
5.7502081119
 21
3.6539195021
  0
LINE
  5
210
100
AcDbEntity
  8
0
100
AcDbLine
 62
7
  6
CONTINUOUS
 10
5.7501923427
 20
3.6539195021
 11
5.7501923427
 21
3.2789195021
  0
LINE
  5
211
100
AcDbEntity
  8
0
100
AcDbLine
 62
7
  6
CONTINUOUS
 10
12.1251900851
 20
4.3819195021
 11
9.7501946004
 21
4.3819195021
  0
LINE
  5
212
100
AcDbEntity
  8
0
100
AcDbLine
 62
7
  6
CONTINUOUS
 10
6.2814423427
 20
4.7619195021
 11
6.2814423427
 21
3.6539195021
  0
LINE
  5
213
100
AcDbEntity
  8
0
100
AcDbLine
 62
7
  6
CONTINUOUS
 10
6.2816923427
 20
5.8719195021
 11
6.2816923427
 21
5.5019195021
  0
LINE
  5
214
100
AcDbEntity
  8
0
100
AcDbLine
 62
7
  6
CONTINUOUS
 10
6.2816923427
 20
4.9819195021
 11
6.2816923427
 21
4.7819195021
  0
LINE
  5
215
100
AcDbEntity
  8
0
100
AcDbLine
 62
7
  6
CONTINUOUS
 10
15.593941456
 20
4.7619195021
 11
14.2814432295
 21
4.7619195021
  0
LINE
  5
216
100
AcDbEntity
  8
0
100
AcDbLine
 62
7
  6
CONTINUOUS
 10
7.593941456
 20
4.7619195021
 11
6.2814432295
 21
4.7619195021
  0
LINE
  5
217
100
AcDbEntity
  8
0
100
AcDbLine
 62
7
  6
CONTINUOUS
 10
6.2816932291
 20
4.7819195021
 11
7.5936914564
 21
4.7819195021
  0
LINE
  5
218
100
AcDbEntity
  8
0
100
AcDbLine
 62
7
  6
CONTINUOUS
 10
14.2816932291
 20
4.7819195021
 11
15.5936914564
 21
4.7819195021
  0
LINE
  5
219
100
AcDbEntity
  8
0
100
AcDbLine
 62
7
  6
CONTINUOUS
 10
17.9139423427
 20
4.9919195021
 11
15.5898049868
 21
4.9919195021
  0
LINE
  5
21A
100
AcDbEntity
  8
0
100
AcDbLine
 62
7
  6
CONTINUOUS
 10
3.9614423427
 20
4.9919195021
 11
6.2855759166
 21
4.9919195021
  0
LINE
  5
21B
100
AcDbEntity
  8
0
100
AcDbLine
 62
7
  6
CONTINUOUS
 10
6.7376923427
 20
4.7819195021
 11
6.7376923427
 21
4.7619195021
  0
LINE
  5
21C
100
AcDbEntity
  8
0
100
AcDbLine
 62
7
  6
CONTINUOUS
 10
7.1376923427
 20
4.7819195021
 11
7.1376923427
 21
4.7619195021
  0
LINE
  5
21D
100
AcDbEntity
  8
0
100
AcDbLine
 62
7
  6
CONTINUOUS
 10
17.9139423427
 20
5.4919195021
 11
15.5898090116
 21
5.4919195021
  0
LINE
  5
21E
100
AcDbEntity
  8
0
100
AcDbLine
 62
7
  6
CONTINUOUS
 10
3.9614423427
 20
5.4919195021
 11
6.2855797886
 21
5.4919195021
  0
LINE
  5
21F
100
AcDbEntity
  8
0
100
AcDbLine
 62
7
  6
CONTINUOUS
 10
7.5936923427
 20
5.8719195021
 11
7.5936923427
 21
4.7819195021
  0
LINE
  5
220
100
AcDbEntity
  8
0
100
AcDbLine
 62
7
  6
CONTINUOUS
 10
7.5939423427
 20
4.7619195021
 11
7.5939423427
 21
3.6539195021
  0
LINE
  5
221
100
AcDbEntity
  8
0
100
AcDbLine
 62
9
  6
CONTINUOUS
 10
15.5936923427
 20
5.8719195021
 11
14.2816923427
 21
5.8719195021
  0
LINE
  5
222
100
AcDbEntity
  8
0
100
AcDbLine
 62
9
  6
CONTINUOUS
 10
7.5936923427
 20
5.8719195021
 11
6.2816923427
 21
5.8719195021
  0
LINE
  5
223
100
AcDbEntity
  8
0
100
AcDbLine
 62
7
  6
CONTINUOUS
 10
15.5636911689
 20
5.9019195021
 11
14.3116935166
 21
5.9019195021
  0
LINE
  5
224
100
AcDbEntity
  8
0
100
AcDbLine
 62
7
  6
CONTINUOUS
 10
7.5636911689
 20
5.9019195021
 11
6.3116935166
 21
5.9019195021
  0
LINE
  5
225
100
AcDbEntity
  8
0
100
AcDbLine
 62
7
  6
CONTINUOUS
 10
8.1251923427
 20
3.6539195021
 11
8.1251923427
 21
3.2789195021
  0
LINE
  5
226
100
AcDbEntity
  8
0
100
AcDbLine
 62
7
  6
CONTINUOUS
 10
11.6251902575
 20
6.8189195021
 11
10.250194428
 21
6.8189195021
  0
LINE
  5
227
100
AcDbEntity
  8
0
100
AcDbLine
 62
7
  6
CONTINUOUS
 10
9.7501923427
 20
4.3819195021
 11
9.7501923427
 21
3.2789195021
  0
LINE
  5
228
100
AcDbEntity
  8
0
100
AcDbLine
 62
7
  6
CONTINUOUS
 10
10.2501923427
 20
6.8189195021
 11
10.2501923427
 21
4.3819195021
  0
LINE
  5
229
100
AcDbEntity
  8
0
100
AcDbLine
 62
7
  6
CONTINUOUS
 10
10.4376923427
 20
6.8189195021
 11
10.4376923427
 21
14.7564195021
  0
LINE
  5
22A
100
AcDbEntity
  8
0
100
AcDbLine
 62
7
  6
CONTINUOUS
 10
11.4376923427
 20
6.8189195021
 11
11.4376923427
 21
14.7564195021
  0
LINE
  5
22B
100
AcDbEntity
  8
0
100
AcDbLine
 62
7
  6
CONTINUOUS
 10
11.6251923427
 20
6.8189195021
 11
11.6251923427
 21
4.3819195021
  0
LINE
  5
22C
100
AcDbEntity
  8
0
100
AcDbLine
 62
7
  6
CONTINUOUS
 10
10.43772429
 20
9.7064195021
 11
11.4376603955
 21
9.7064195021
  0
LINE
  5
22D
100
AcDbEntity
  8
0
100
AcDbLine
 62
7
  6
CONTINUOUS
 10
12.1251923427
 20
4.3819195021
 11
12.1251923427
 21
3.2789195021
  0
LINE
  5
22E
100
AcDbEntity
  8
0
100
AcDbLine
 62
9
  6
CONTINUOUS
 10
11.4376923427
 20
10.8189195021
 11
10.4376923427
 21
10.8189195021
  0
LINE
  5
22F
100
AcDbEntity
  8
0
100
AcDbLine
 62
7
  6
CONTINUOUS
 10
13.7501923427
 20
3.6539195021
 11
13.7501923427
 21
3.2789195021
  0
LINE
  5
230
100
AcDbEntity
  8
0
100
AcDbLine
 62
7
  6
CONTINUOUS
 10
14.2814423427
 20
4.7619195021
 11
14.2814423427
 21
3.6539195021
  0
LINE
  5
231
100
AcDbEntity
  8
0
100
AcDbLine
 62
7
  6
CONTINUOUS
 10
14.2816923427
 20
5.8719195021
 11
14.2816923427
 21
4.7819195021
  0
LINE
  5
232
100
AcDbEntity
  8
0
100
AcDbLine
 62
7
  6
CONTINUOUS
 10
14.7376923427
 20
4.7819195021
 11
14.7376923427
 21
4.7619195021
  0
LINE
  5
233
100
AcDbEntity
  8
0
100
AcDbLine
 62
7
  6
CONTINUOUS
 10
15.1376923427
 20
4.7819195021
 11
15.1376923427
 21
4.7619195021
  0
LINE
  5
234
100
AcDbEntity
  8
0
100
AcDbLine
 62
7
  6
CONTINUOUS
 10
15.5936923427
 20
5.8719195021
 11
15.5936923427
 21
5.5019195021
  0
LINE
  5
235
100
AcDbEntity
  8
0
100
AcDbLine
 62
7
  6
CONTINUOUS
 10
15.5936923427
 20
4.9819195021
 11
15.5936923427
 21
4.7819195021
  0
LINE
  5
236
100
AcDbEntity
  8
0
100
AcDbLine
 62
7
  6
CONTINUOUS
 10
15.5939423427
 20
4.7619195021
 11
15.5939423427
 21
3.6539195021
  0
LINE
  5
237
100
AcDbEntity
  8
0
100
AcDbLine
 62
7
  6
CONTINUOUS
 10
16.1251923427
 20
3.6539195021
 11
16.1251923427
 21
3.2789195021
  0
LINE
  5
238
100
AcDbEntity
  8
0
100
AcDbLine
 62
9
  6
CONTINUOUS
 10
17.9139423427
 20
4.9919195021
 11
17.9139423427
 21
5.4919195021
  0
LINE
  5
239
100
AcDbEntity
  8
0
100
AcDbLine
 62
7
  6
CONTINUOUS
 10
17.9439423427
 20
5.0219195021
 11
17.9439423427
 21
5.4619181978
  0
ARC
  5
23A
100
AcDbEntity
  8
0
100
AcDbCircle
 62
7
  6
CONTINUOUS
 10
10.9376923427
 20
14.7564195021
 40
0.5
100
AcDbArc
 50
0.0
 51
180.0
  0
ARC
  5
23B
100
AcDbEntity
  8
0
100
AcDbCircle
 62
7
  6
CONTINUOUS
 10
6.3116923427
 20
5.8719195021
 40
0.03
100
AcDbArc
 50
90.0
 51
180.0
  0
ARC
  5
23C
100
AcDbEntity
  8
0
100
AcDbCircle
 62
7
  6
CONTINUOUS
 10
7.5636923427
 20
5.8719195021
 40
0.03
100
AcDbArc
 50
0.0
 51
90.0
  0
ARC
  5
23D
100
AcDbEntity
  8
0
100
AcDbCircle
 62
7
  6
CONTINUOUS
 10
3.9614423427
 20
5.4619195021
 40
0.03
100
AcDbArc
 50
90.0
 51
180.0
  0
ARC
  5
23E
100
AcDbEntity
  8
0
100
AcDbCircle
 62
7
  6
CONTINUOUS
 10
3.9614423427
 20
5.0219195021
 40
0.03
100
AcDbArc
 50
180.0
 51
270.0
  0
ARC
  5
23F
100
AcDbEntity
  8
0
100
AcDbCircle
 62
7
  6
CONTINUOUS
 10
15.5636923427
 20
5.8719195021
 40
0.03
100
AcDbArc
 50
0.0
 51
90.0
  0
ARC
  5
240
100
AcDbEntity
  8
0
100
AcDbCircle
 62
7
  6
CONTINUOUS
 10
14.3116923427
 20
5.8719195021
 40
0.03
100
AcDbArc
 50
90.0
 51
180.0
  0
ARC
  5
241
100
AcDbEntity
  8
0
100
AcDbCircle
 62
7
  6
CONTINUOUS
 10
17.9139423427
 20
5.4619195021
 40
0.03
100
AcDbArc
 50
0.0
 51
90.0
  0
ARC
  5
242
100
AcDbEntity
  8
0
100
AcDbCircle
 62
7
  6
CONTINUOUS
 10
17.9139423427
 20
5.0219195021
 40
0.03
100
AcDbArc
 50
270.0
 51
360.0
  0
SPLINE
  5
243
100
AcDbEntity
  8
0
100
AcDbSpline
 62
7
  6
CONTINUOUS
 70
0
 71
3
 72
38
 73
34
 74
0
 42
0.0000001
 43
0.0000001
 44
0.0000000001
 40
0.0
 40
0.0
 40
0.0
 40
0.0
 40
0.0963522153
 40
0.1918844681
 40
0.2855183461
 40
0.3764315686
 40
0.4638530693
 40
0.5470661088
 40
0.6253530502
 40
0.6980442838
 40
0.764486218
 40
0.8240057878
 40
0.8509555691
 40
0.8759159082
 40
0.8988056174
 40
0.9195467346
 40
0.9380607779
 40
0.9542689663
 40
0.9681036417
 40
0.9741149873
 40
0.9795141011
 40
0.9842947952
 40
0.9884508726
 40
0.9919761284
 40
0.9948643604
 40
0.9971111672
 40
0.9979938461
 40
0.9987160422
 40
0.9992777555
 40
0.9996789862
 40
0.9998194206
 40
0.9999197343
 40
1.0
 40
1.0
 40
1.0
 40
1.0
 10
6.3354166584
 20
5.2419195021
 30
0.0
 10
6.3354166584
 20
5.2333410593
 30
0.0
 10
6.3350451156
 20
5.2162551332
 30
0.0
 10
6.3334337359
 20
5.1908788998
 30
0.0
 10
6.330818737
 20
5.1660733971
 30
0.0
 10
6.3273487356
 20
5.1421036092
 30
0.0
 10
6.3231679952
 20
5.1191909167
 30
0.0
 10
6.3184624273
 20
5.0975303931
 30
0.0
 10
6.3134185918
 20
5.0772961197
 30
0.0
 10
6.3082258904
 20
5.0586460386
 30
0.0
 10
6.3030772604
 20
5.0417240508
 30
0.0
 10
6.2988455232
 20
5.0287834824
 30
0.0
 10
6.295633116
 20
5.0193970599
 30
0.0
 10
6.2934272895
 20
5.0131133246
 30
0.0
 10
6.2913631465
 20
5.0073658803
 30
0.0
 10
6.2894585639
 20
5.00217109
 30
0.0
 10
6.2877313696
 20
4.9975449595
 30
0.0
 10
6.2861993647
 20
4.9935023757
 30
0.0
 10
6.2850499764
 20
4.9905052184
 30
0.0
 10
6.284238992
 20
4.9884089977
 30
0.0
 10
6.2837165017
 20
4.9870654862
 30
0.0
 10
6.2832519542
 20
4.9858766729
 30
0.0
 10
6.2828466597
 20
4.9848438252
 30
0.0
 10
6.282501901
 20
4.9839682231
 30
0.0
 10
6.2822189548
 20
4.9832509679
 30
0.0
 10
6.2820223138
 20
4.982752595
 30
0.0
 10
6.2818965268
 20
4.9824335645
 30
0.0
 10
6.2818256237
 20
4.9822541929
 30
0.0
 10
6.2817708647
 20
4.9821144574
 30
0.0
 10
6.2817341942
 20
4.9820234309
 30
0.0
 10
6.2817140512
 20
4.9819697845
 30
0.0
 10
6.2817021018
 20
4.9819440359
 30
0.0
 10
6.2816990242
 20
4.9819274612
 30
0.0
 10
6.281694611
 20
4.9819218405
 30
0.0
  0
SPLINE
  5
244
100
AcDbEntity
  8
0
100
AcDbSpline
 62
7
  6
CONTINUOUS
 70
0
 71
3
 72
37
 73
33
 74
0
 42
0.0000001
 43
0.0000001
 44
0.0000000001
 40
0.0
 40
0.0
 40
0.0
 40
0.0
 40
0.0000802163
 40
0.0003209133
 40
0.000722091
 40
0.0012837491
 40
0.0020058877
 40
0.0028885065
 40
0.0051351849
 40
0.0080231028
 40
0.0115475946
 40
0.0157025525
 40
0.0204818734
 40
0.0258794622
 40
0.0318892321
 40
0.0457210079
 40
0.0619258675
 40
0.080433833
 40
0.1011676207
 40
0.1240504208
 40
0.149005314
 40
0.175948973
 40
0.2354559744
 40
0.3018898355
 40
0.3745802335
 40
0.4528757062
 40
0.5360939804
 40
0.6235262066
 40
0.7144547355
 40
0.8081042067
 40
0.9036462332
 40
1.0
 40
1.0
 40
1.0
 40
1.0
 10
6.2816946109
 20
5.5019171638
 30
0.0
 10
6.2816904732
 20
5.5019229849
 30
0.0
 10
6.2817174142
 20
5.5018660491
 30
0.0
 10
6.2817251042
 20
5.5018355763
 30
0.0
 10
6.2817734928
 20
5.501719172
 30
0.0
 10
6.2818245351
 20
5.5015870158
 30
0.0
 10
6.2818968693
 20
5.501404727
 30
0.0
 10
6.2820219635
 20
5.5010871158
 30
0.0
 10
6.2822190465
 20
5.5005878718
 30
0.0
 10
6.2825017562
 20
5.4998711163
 30
0.0
 10
6.2828464665
 20
5.4989955334
 30
0.0
 10
6.2832515695
 20
5.4979629813
 30
0.0
 10
6.2837159298
 20
5.4967744597
 30
0.0
 10
6.2842382234
 20
5.4954313057
 30
0.0
 10
6.2850489865
 20
5.4933355701
 30
0.0
 10
6.286198256
 20
5.490339114
 30
0.0
 10
6.2877302013
 20
5.4862976793
 30
0.0
 10
6.2894567606
 20
5.4816729028
 30
0.0
 10
6.2913606262
 20
5.4764797775
 30
0.0
 10
6.2934242433
 20
5.470734009
 30
0.0
 10
6.2956301126
 20
5.4644520337
 30
0.0
 10
6.298841736
 20
5.4550676127
 30
0.0
 10
6.3030720435
 20
5.4421290923
 30
0.0
 10
6.3082210575
 20
5.4252092307
 30
0.0
 10
6.3134138791
 20
5.4065592098
 30
0.0
 10
6.318458139
 20
5.3863238778
 30
0.0
 10
6.3231660714
 20
5.3646616318
 30
0.0
 10
6.3273466146
 20
5.3417460639
 30
0.0
 10
6.3308177629
 20
5.3177727179
 30
0.0
 10
6.3334334132
 20
5.292963632
 30
0.0
 10
6.3350447386
 20
5.267585004
 30
0.0
 10
6.3354166584
 20
5.2504980814
 30
0.0
 10
6.3354166584
 20
5.2419195021
 30
0.0
  0
SPLINE
  5
245
100
AcDbEntity
  8
0
100
AcDbSpline
 62
7
  6
CONTINUOUS
 70
0
 71
3
 72
40
 73
36
 74
0
 42
0.0000001
 43
0.0000001
 44
0.0000000001
 40
0.0
 40
0.0
 40
0.0
 40
0.0
 40
0.0963519232
 40
0.1918833133
 40
0.2855164259
 40
0.376429253
 40
0.4638506389
 40
0.5470637914
 40
0.6253506523
 40
0.6980420552
 40
0.7644843027
 40
0.8240043068
 40
0.8509543294
 40
0.8759149422
 40
0.8988049985
 40
0.9195464657
 40
0.9380607829
 40
0.9542690963
 40
0.9681038008
 40
0.9741151399
 40
0.9795142367
 40
0.9842949059
 40
0.9884509537
 40
0.9919761777
 40
0.994864379
 40
0.9960680122
 40
0.9971111658
 40
0.9979938395
 40
0.9987160331
 40
0.9992777462
 40
0.9996789786
 40
0.9998194144
 40
0.9999197299
 40
0.9999799251
 40
1.0
 40
1.0
 40
1.0
 40
1.0
 10
15.5399680271
 20
5.2419195021
 30
0.0
 10
15.5399680271
 20
5.2504979181
 30
0.0
 10
15.5403395775
 20
5.2675837404
 30
0.0
 10
15.5419510116
 20
5.2929597948
 30
0.0
 10
15.544565801
 20
5.3177651323
 30
0.0
 10
15.5480355784
 20
5.3417348394
 30
0.0
 10
15.5522165436
 20
5.3646474561
 30
0.0
 10
15.5569223452
 20
5.3863079177
 30
0.0
 10
15.5619662483
 20
5.4065421882
 30
0.0
 10
15.5671587832
 20
5.425192349
 30
0.0
 10
15.5723071911
 20
5.4421144881
 30
0.0
 10
15.5765388496
 20
5.4550551743
 30
0.0
 10
15.5797512715
 20
5.4644416802
 30
0.0
 10
15.5819571609
 20
5.4707254742
 30
0.0
 10
15.5840214317
 20
5.4764729639
 30
0.0
 10
15.5859261556
 20
5.4816677939
 30
0.0
 10
15.5876534669
 20
5.4862939513
 30
0.0
 10
15.5891855156
 20
5.4903365587
 30
0.0
 10
15.5903348824
 20
5.4933337379
 30
0.0
 10
15.5911458274
 20
5.4954299741
 30
0.0
 10
15.5916682829
 20
5.4967734943
 30
0.0
 10
15.5921327917
 20
5.4979623159
 30
0.0
 10
15.5925380495
 20
5.4989951693
 30
0.0
 10
15.5928827677
 20
5.4998707791
 30
0.0
 10
15.5931316184
 20
5.5005016351
 30
0.0
 10
15.5932993744
 20
5.5009269224
 30
0.0
 10
15.5934016019
 20
5.5011861167
 30
0.0
 10
15.593488141
 20
5.5014054091
 30
0.0
 10
15.5935588439
 20
5.5015849055
 30
0.0
 10
15.5936141049
 20
5.5017243229
 30
0.0
 10
15.5936497289
 20
5.5018160112
 30
0.0
 10
15.5936712775
 20
5.5018687694
 30
0.0
 10
15.5936801703
 20
5.5018943687
 30
0.0
 10
15.5936877334
 20
5.5019081319
 30
0.0
 10
15.5936886358
 20
5.5019160148
 30
0.0
 10
15.5936900001
 20
5.5019171694
 30
0.0
  0
SPLINE
  5
246
100
AcDbEntity
  8
0
100
AcDbSpline
 62
7
  6
CONTINUOUS
 70
0
 71
3
 72
41
 73
37
 74
0
 42
0.0000001
 43
0.0000001
 44
0.0000000001
 40
0.0
 40
0.0
 40
0.0
 40
0.0
 40
0.0000200451
 40
0.0000802103
 40
0.0001804955
 40
0.0003209008
 40
0.0007220718
 40
0.0012837237
 40
0.0020058566
 40
0.0028884708
 40
0.0039315668
 40
0.0051351446
 40
0.0080230629
 40
0.0115475552
 40
0.0157025141
 40
0.020481837
 40
0.0258794291
 40
0.0318892042
 40
0.0457209976
 40
0.0619259062
 40
0.0804339789
 40
0.1011679164
 40
0.1240508921
 40
0.149005992
 40
0.17594993
 40
0.2047959412
 40
0.2354582409
 40
0.3018925887
 40
0.374583197
 40
0.4528785637
 40
0.5360968963
 40
0.6235289145
 40
0.714457075
 40
0.8081056449
 40
0.9036466251
 40
1.0
 40
1.0
 40
1.0
 40
1.0
 10
15.5936900001
 20
4.9819218348
 30
0.0
 10
15.5936913915
 20
4.9819207172
 30
0.0
 10
15.5936837917
 20
4.9819341282
 30
0.0
 10
15.5936827075
 20
4.9819425413
 30
0.0
 10
15.5936701557
 20
4.9819711614
 30
0.0
 10
15.5936508468
 20
4.9820220696
 30
0.0
 10
15.593613573
 20
4.9821151179
 30
0.0
 10
15.5935591228
 20
4.9822538604
 30
0.0
 10
15.593488115
 20
4.9824336005
 30
0.0
 10
15.593401693
 20
4.9826527843
 30
0.0
 10
15.5932994276
 20
4.9829119944
 30
0.0
 10
15.5931316858
 20
4.9833372295
 30
0.0
 10
15.5928828446
 20
4.9839679995
 30
0.0
 10
15.592538221
 20
4.9848434408
 30
0.0
 10
15.5921330975
 20
4.9858760464
 30
0.0
 10
15.5916687535
 20
4.9870645559
 30
0.0
 10
15.5911464652
 20
4.9884077203
 30
0.0
 10
15.5903357167
 20
4.9905034629
 30
0.0
 10
15.5891864686
 20
4.9934999378
 30
0.0
 10
15.5876545579
 20
4.9975414044
 30
0.0
 10
15.585928026
 20
5.0021662237
 30
0.0
 10
15.5840241747
 20
5.0073593985
 30
0.0
 10
15.5819605542
 20
5.0131052211
 30
0.0
 10
15.5797546411
 20
5.0193872437
 30
0.0
 10
15.5774268636
 20
5.0261889364
 30
0.0
 10
15.5749990372
 20
5.0334931646
 30
0.0
 10
15.5715647263
 20
5.0441673831
 30
0.0
 10
15.5671632206
 20
5.0586303138
 30
0.0
 10
15.5619703874
 20
5.0772803582
 30
0.0
 10
15.5569262039
 20
5.0975157514
 30
0.0
 10
15.5522185175
 20
5.1191780376
 30
0.0
 10
15.5480380402
 20
5.142093585
 30
0.0
 10
15.5445669904
 20
5.1660668266
 30
0.0
 10
15.5419512792
 20
5.1908757126
 30
0.0
 10
15.5403399063
 20
5.2162541463
 30
0.0
 10
15.5399680271
 20
5.2333409524
 30
0.0
 10
15.5399680271
 20
5.2419195021
 30
0.0
  0
ENDSEC
  0
SECTION
  2
OBJECTS
  0
DICTIONARY
  5
C
100
AcDbDictionary
280
0
281
1
  3
ACAD_GROUP
350
D
  3
ACAD_MLINESTYLE
350
17
  3
ACAD_LAYOUT
350
1A
  3
ACAD_PLOTSETTINGS
350
19
  3
ACAD_PLOTSTYLENAME
350
E
  0
DICTIONARY
  5
D
102
{ACAD_REACTORS
330
C
102
}
100
AcDbDictionary
280
0
281
1
  0
ACDBDICTIONARYWDFLT
  5
E
102
{ACAD_REACTORS
330
C
102
}
100
AcDbDictionary
281
1
  3
Normal
350
F
100
AcDbDictionaryWithDefault
340
F
  0
DICTIONARY
  5
17
102
{ACAD_REACTORS
330
C
102
}
100
AcDbDictionary
280
0
281
1
  3
Standard
350
18
  0
DICTIONARY
  5
19
102
{ACAD_REACTORS
330
C
102
}
100
AcDbDictionary
281
1
  0
DICTIONARY
  5
1A
102
{ACAD_REACTORS
330
C
102
}
100
AcDbDictionary
281
1
  3
Model
350
247
  3
Layout1
350
248
  0
ACDBPLACEHOLDER
  5
F
102
{ACAD_REACTORS
330
E
102
}
  0
MLINESTYLE
  5
18
102
{ACAD_REACTORS
330
17
102
}
100
AcDbMlineStyle
  2
STANDARD
 70
0
  3

 62
256
 51
90.0
 52
90.0
 71
2
 49
0.5
 62
256
  6
BYLAYER
 49
-0.5
 62
256
  6
BYLAYER
  0
LAYOUT
  5
247
102
{ACAD_REACTORS
330
1A
102
}
100
AcDbPlotSettings
  1

  2
none_device
  4
ANSI_C_(22.00_x_17.00_Inches)
  6

 40
0.0
 41
0.0
 42
0.0
 43
0.0
 44
558.8
 45
431.8
 46
0.0
 47
0.0
 48
0.0
 49
0.0
140
0.0
141
0.0
142
1.0
143
1.0
 70
1024
 72
0
 73
0
 74
0
  7

 75
0
147
1.0
148
0.0
149
0.0
100
AcDbLayout
  1
Model
 70
0
 71
0
 10
0.0
 20
0.0
 11
22.0
 21
17.0
 12
0.0
 22
0.0
 32
0.0
 14
0.0
 24
0.0
 34
0.0
 15
0.0
 25
0.0
 35
0.0
146
0.0
 13
0.0
 23
0.0
 33
0.0
 16
1.0
 26
0.0
 36
0.0
 17
0.0
 27
1.0
 37
0.0
 76
0
330
202
345
0
346
0
  0
LAYOUT
  5
248
102
{ACAD_REACTORS
330
1A
102
}
100
AcDbPlotSettings
  1

  2
none_device
  4
ANSI_C_(22.00_x_17.00_Inches)
  6

 40
0.0
 41
0.0
 42
0.0
 43
0.0
 44
558.8
 45
431.8
 46
0.0
 47
0.0
 48
0.0
 49
0.0
140
0.0
141
0.0
142
1.0
143
1.0
 70
0
 72
0
 73
0
 74
0
  7

 75
0
147
1.0
148
0.0
149
0.0
100
AcDbLayout
  1
Layout1
 70
0
 71
1
 10
0.0
 20
0.0
 11
22.0
 21
17.0
 12
0.0
 22
0.0
 32
0.0
 14
0.0
 24
0.0
 34
0.0
 15
0.0
 25
0.0
 35
0.0
146
0.0
 13
0.0
 23
0.0
 33
0.0
 16
1.0
 26
0.0
 36
0.0
 17
0.0
 27
1.0
 37
0.0
 76
0
330
203
345
0
346
0
  0
ENDSEC
  0
EOF
