999
DXF file: E:\BT Custom\CADOUTPUT\_RIGHT.dxf
999
Pro/ENGINEER 2018400 by Parametric Technology Corporation
  0
SECTION
  2
HEADER
  9
$ACADVER
  1
AC1018
  9
$DWGCODEPAGE
  3
ANSI_1252
  9
$EXTMAX
 10
22.0
 20
17.0
 30
0.0
  9
$EXTMIN
 10
0.0
 20
0.0
 30
0.0
  9
$LIMMIN
 10
0.0
 20
0.0
  9
$LIMMAX
 10
22.0
 20
17.0
  9
$VIEWCTR
 10
11.0
 20
8.5
  9
$VIEWSIZE
 40
17.0
  9
$CLAYER
  8
0
  9
$LTSCALE
 40
1.21
  9
$CELTYPE
  6
BYLAYER
  9
$DIMSCALE
 40
1.0
  9
$DIMASZ
 40
0.1
  9
$DIMEXO
 40
0.0625
  9
$DIMDLI
 40
0.836
  9
$DIMEXE
 40
0.125
  9
$DIMCEN
 40
0.198
  9
$DIMLFAC
 40
1.0
  9
$DIMBLK
  1
_FILLED
  9
$DIMALT
 70
1
  9
$DIMALTD
 70
2
  9
$DIMALTTD
 70
2
  9
$DIMALTF
 40
25.4
  9
$DIMTXT
 40
0.08
  9
$DIMTOL
 70
1
  9
$DIMLIM
 70
0
  9
$DIMTFAC
 40
1.0
  9
$DIMTP
 40
0.001
  9
$DIMTM
 40
0.001
  9
$DIMGAP
 40
0.09
  9
$DIMDSEP
 70
46
  9
$AUNITS
 70
0
  9
$PDMODE
 70
3
  9
$PDSIZE
 40
0.06
  9
$HANDSEED
  5
465
  9
$TILEMODE
 70
1
  9
$MEASUREMENT
 70
0
  9
$INSUNITS
 70
1
  0
ENDSEC
  0
SECTION
  2
CLASSES
  0
CLASS
  1
ACDBDICTIONARYWDFLT
  2
AcDbDictionaryWithDefault
  3
AutoCAD 2000
 90
0
 91
1
280
0
281
0
  0
CLASS
  1
ACDBPLACEHOLDER
  2
AcDbPlaceHolder
  3
AutoCAD 2000
 90
0
 91
1
280
0
281
0
  0
CLASS
  1
LAYOUT
  2
AcDbLayout
  3
AutoCAD 2000
 90
0
 91
0
280
0
281
0
  0
ENDSEC
  0
SECTION
  2
TABLES
  0
TABLE
  2
VPORT
  5
8
100
AcDbSymbolTable
 70
2
  0
VPORT
  5
1F4
100
AcDbSymbolTableRecord
100
AcDbViewportTableRecord
  2
*ACTIVE
 70
0
 10
0.0
 20
0.0
 11
1.0
 21
1.0
 12
11.0
 22
8.5
 13
0.0
 23
0.0
 14
1.0
 24
1.0
 15
0.0
 25
0.0
 16
0.0
 26
0.0
 36
1.0
 17
0.0
 27
0.0
 37
0.0
 40
17.0
 41
1.2941176471
 42
50.0
 43
0.0
 44
0.0
 50
0.0
 51
0.0
 71
0
 72
100
 73
1
 74
1
 75
0
 76
0
 77
0
 78
0
  0
ENDTAB
  0
TABLE
  2
LTYPE
  5
5
100
AcDbSymbolTable
 70
6
  0
LTYPE
  5
14
100
AcDbSymbolTableRecord
100
AcDbLinetypeTableRecord
  2
BYBLOCK
 70
0
  3

 72
65
 73
0
 40
0.0
  0
LTYPE
  5
15
100
AcDbSymbolTableRecord
100
AcDbLinetypeTableRecord
  2
BYLAYER
 70
0
  3

 72
65
 73
0
 40
0.0
  0
LTYPE
  5
16
100
AcDbSymbolTableRecord
100
AcDbLinetypeTableRecord
  2
CONTINUOUS
 70
64
  3
Solid line
 72
65
 73
0
 40
0.0
  0
LTYPE
  5
1F5
100
AcDbSymbolTableRecord
100
AcDbLinetypeTableRecord
  2
CENTER
 70
64
  3
____ _ ____ _ ____ _ ____ _ ____ _ ____ _ ____
 72
65
 73
4
 40
0.6
 49
0.375
 74
0
 49
-0.075
 74
0
 49
0.075
 74
0
 49
-0.075
 74
0
  0
LTYPE
  5
1F6
100
AcDbSymbolTableRecord
100
AcDbLinetypeTableRecord
  2
HIDDEN
 70
64
  3
- - - - - - - - - - - - - - - - - - - -
 72
65
 73
2
 40
0.2
 49
0.1
 74
0
 49
-0.1
 74
0
  0
LTYPE
  5
1F7
100
AcDbSymbolTableRecord
100
AcDbLinetypeTableRecord
  2
PHANTOM
 70
64
  3
_____ _ _ _____ _ _ _____ _ _ _____
 72
65
 73
6
 40
0.8
 49
0.45
 74
0
 49
-0.05
 74
0
 49
0.1
 74
0
 49
-0.05
 74
0
 49
0.1
 74
0
 49
-0.05
 74
0
  0
LTYPE
  5
1F8
100
AcDbSymbolTableRecord
100
AcDbLinetypeTableRecord
  2
DOT
 70
64
  3
. . . . . . . . . . . . . . . . . . . .
 72
65
 73
2
 40
0.2
 49
0.1
 74
0
 49
-0.1
 74
0
  0
LTYPE
  5
1F9
100
AcDbSymbolTableRecord
100
AcDbLinetypeTableRecord
  2
DASHED
 70
64
  3
- - - - - - - - - - - - - - - - - - - -
 72
65
 73
2
 40
0.2
 49
0.1
 74
0
 49
-0.1
 74
0
  0
ENDTAB
  0
TABLE
  2
LAYER
  5
2
100
AcDbSymbolTable
 70
36
  0
LAYER
  5
10
100
AcDbSymbolTableRecord
100
AcDbLayerTableRecord
  2
0
 70
0
 62
7
  6
CONTINUOUS
370
-3
390
F
  0
LAYER
  5
1FA
100
AcDbSymbolTableRecord
100
AcDbLayerTableRecord
  2
DEFAULT_1
 70
0
 62
7
  6
CENTER
370
-3
390
F
  0
LAYER
  5
1FB
100
AcDbSymbolTableRecord
100
AcDbLayerTableRecord
  2
DEFAULT_2
 70
0
 62
8
  6
HIDDEN
370
-3
390
F
  0
LAYER
  5
1FC
100
AcDbSymbolTableRecord
100
AcDbLayerTableRecord
  2
DEFAULT_3
 70
0
 62
7
  6
PHANTOM
370
-3
390
F
  0
LAYER
  5
1FD
100
AcDbSymbolTableRecord
100
AcDbLayerTableRecord
  2
ALL_FEATURES
 70
0
 62
7
  6
CONTINUOUS
370
-3
390
F
  0
LAYER
  5
1FE
100
AcDbSymbolTableRecord
100
AcDbLayerTableRecord
  2
AXES_FEATURES
 70
0
 62
7
  6
CONTINUOUS
370
-3
390
F
  0
LAYER
  5
1FF
100
AcDbSymbolTableRecord
100
AcDbLayerTableRecord
  2
DIMENSIONS
 70
0
 62
7
  6
CONTINUOUS
370
-3
390
F
  0
ENDTAB
  0
TABLE
  2
STYLE
  5
3
100
AcDbSymbolTable
 70
1
  0
STYLE
  5
11
100
AcDbSymbolTableRecord
100
AcDbTextStyleTableRecord
  2
STANDARD
 70
0
 40
0.0
 41
0.8
 50
0.0
 71
0
 42
0.2
  3
txt
  4

  0
STYLE
  5
200
100
AcDbSymbolTableRecord
100
AcDbTextStyleTableRecord
  2
TEXTSTYLE_1
 70
0
 40
0.0
 41
0.8
 50
0.0
 71
0
 42
0.2
  3
gdt
  4

  0
ENDTAB
  0
TABLE
  2
VIEW
  5
6
100
AcDbSymbolTable
 70
0
  0
ENDTAB
  0
TABLE
  2
UCS
  5
7
100
AcDbSymbolTable
 70
0
  0
ENDTAB
  0
TABLE
  2
APPID
  5
9
100
AcDbSymbolTable
 70
1
  0
APPID
  5
201
100
AcDbSymbolTableRecord
100
AcDbRegAppTableRecord
  2
ACAD
 70
0
  0
ENDTAB
  0
TABLE
  2
BLOCK_RECORD
  5
1
100
AcDbSymbolTable
 70
0
  0
BLOCK_RECORD
  5
202
100
AcDbSymbolTableRecord
100
AcDbBlockTableRecord
  2
*Model_Space
  0
BLOCK_RECORD
  5
203
100
AcDbSymbolTableRecord
100
AcDbBlockTableRecord
  2
*Paper_Space
  0
BLOCK_RECORD
  5
204
100
AcDbSymbolTableRecord
100
AcDbBlockTableRecord
  2
_FILLED
  0
ENDTAB
  0
TABLE
  2
DIMSTYLE
  5
A
100
AcDbSymbolTable
 70
1
100
AcDbDimStyleTable
 71
0
  0
DIMSTYLE
105
205
100
AcDbSymbolTableRecord
100
AcDbDimStyleTableRecord
  2
STANDARD
 70
0
  3

  4

 40
1.0
 41
0.1
 42
0.0625
 43
0.38
 44
0.125
 45
0.0
 46
0.0
 47
0.001
 48
0.001
140
0.08
141
0.09
142
0.0
143
25.4
144
1.0
145
0.0
146
1.0
147
0.09
 71
1.0
 72
0.0
 73
1
 74
1
 75
0
 76
0
 77
0
 78
4
 79
1
170
1
171
2
172
0
173
0
174
0
175
0
176
0
177
0
178
0
270
2
179
3
271
3
272
3
273
2
274
2
275
0
280
0
281
0
282
0
283
1
284
4
285
0
286
0
287
3
288
0
340
11
278
46
341
204
342
204
343
204
344
204
  0
ENDTAB
  0
ENDSEC
  0
SECTION
  2
BLOCKS
  0
BLOCK
  5
20
100
AcDbEntity
  8
0
100
AcDbBlockBegin
  2
*Model_Space
 70
0
 10
0.0
 20
0.0
 30
0.0
  3
*Model_Space
  1

  0
ENDBLK
  5
21
100
AcDbEntity
  8
0
100
AcDbBlockEnd
  0
BLOCK
  5
1C
100
AcDbEntity
  8
0
100
AcDbBlockBegin
  2
*Paper_Space
 70
0
 10
0.0
 20
0.0
 30
0.0
  3
*Paper_Space
  1

  0
ENDBLK
  5
1D
100
AcDbEntity
  8
0
100
AcDbBlockEnd
  0
BLOCK
  5
206
100
AcDbEntity
  8
0
100
AcDbBlockBegin
  2
_FILLED
 70
64
 10
0.0
 20
0.0
  3
_FILLED
  1

  0
SOLID
  5
207
100
AcDbEntity
  8
0
  6
BYBLOCK
 62
0
100
AcDbTrace
 10
0.0
 20
0.0
 11
-1.0
 21
0.2
 12
-1.0
 22
-0.2
 13
-1.0
 23
-0.2
  0
ENDBLK
  5
208
100
AcDbEntity
  8
0
  6
BYBLOCK
 62
0
100
AcDbBlockEnd
  0
ENDSEC
  0
SECTION
  2
ENTITIES
  0
LINE
  5
209
100
AcDbEntity
  8
0
100
AcDbLine
 62
7
  6
CONTINUOUS
 10
10.386815607
 20
7.2043198556
 11
12.9568127885
 21
7.2043198556
  0
LINE
  5
20A
100
AcDbEntity
  8
0
100
AcDbLine
 62
7
  6
CONTINUOUS
 10
12.9568141978
 20
7.3543198556
 11
10.3868141978
 21
7.3543198556
  0
LINE
  5
20B
100
AcDbEntity
  8
0
100
AcDbLine
 62
7
  6
CONTINUOUS
 10
12.8718144558
 20
7.4043198556
 11
10.4718139398
 21
7.4043198556
  0
LINE
  5
20C
100
AcDbEntity
  8
0
100
AcDbLine
 62
9
  6
CONTINUOUS
 10
12.6888221066
 20
7.5751344946
 11
10.654806289
 21
7.5751344946
  0
LINE
  5
20D
100
AcDbEntity
  8
0
100
AcDbLine
 62
9
  6
CONTINUOUS
 10
10.7670800223
 20
10.0706266196
 11
10.7814985102
 21
10.0857966489
  0
LINE
  5
20E
100
AcDbEntity
  8
0
100
AcDbLine
 62
9
  6
CONTINUOUS
 10
11.270123233
 20
10.5093037776
 11
11.2849037288
 21
10.5245153623
  0
LINE
  5
20F
100
AcDbEntity
  8
0
100
AcDbLine
 62
9
  6
CONTINUOUS
 10
10.7789785443
 20
10.0661035117
 11
10.7937405699
 21
10.0811397463
  0
LINE
  5
210
100
AcDbEntity
  8
0
100
AcDbLine
 62
9
  6
CONTINUOUS
 10
11.2934457358
 20
10.5001482074
 11
11.3085851906
 21
10.5152303661
  0
LINE
  5
211
100
AcDbEntity
  8
0
100
AcDbLine
 62
9
  6
CONTINUOUS
 10
11.0187174492
 20
9.9292060819
 11
11.0396878339
 21
9.9385389204
  0
LINE
  5
212
100
AcDbEntity
  8
0
100
AcDbLine
 62
9
  6
CONTINUOUS
 10
11.7387458347
 20
10.186925928
 11
11.7603847448
 21
10.1962989074
  0
LINE
  5
213
100
AcDbEntity
  8
0
100
AcDbLine
 62
9
  6
CONTINUOUS
 10
9.1308085258
 20
10.7657988763
 11
9.1211431478
 21
10.7809497543
  0
LINE
  5
214
100
AcDbEntity
  8
0
100
AcDbLine
 62
9
  6
CONTINUOUS
 10
9.4681011703
 20
10.2993094442
 11
9.4585322651
 21
10.3144562113
  0
LINE
  5
215
100
AcDbEntity
  8
0
100
AcDbLine
 62
7
  6
CONTINUOUS
 10
10.3868141978
 20
7.3543198556
 11
10.3868141978
 21
7.2043198556
  0
LINE
  5
216
100
AcDbEntity
  8
0
100
AcDbLine
 62
7
  6
CONTINUOUS
 10
12.8718157426
 20
7.4043198556
 11
12.9568141978
 21
7.3543198556
  0
LINE
  5
217
100
AcDbEntity
  8
0
100
AcDbLine
 62
7
  6
CONTINUOUS
 10
12.0817126483
 20
8.9343198556
 11
12.0625264341
 21
8.9343198556
  0
LINE
  5
218
100
AcDbEntity
  8
0
100
AcDbLine
 62
7
  6
CONTINUOUS
 10
12.0612285222
 20
8.9343198556
 11
12.0229545023
 21
8.9343198556
  0
LINE
  5
219
100
AcDbEntity
  8
0
100
AcDbLine
 62
7
  6
CONTINUOUS
 10
12.0198296684
 20
8.9343198556
 11
11.959452939
 21
8.9343198556
  0
LINE
  5
21A
100
AcDbEntity
  8
0
100
AcDbLine
 62
7
  6
CONTINUOUS
 10
11.9550337565
 20
8.9343198556
 11
11.8763492708
 21
8.9343198556
  0
LINE
  5
21B
100
AcDbEntity
  8
0
100
AcDbLine
 62
7
  6
CONTINUOUS
 10
11.8709368997
 20
8.9343198556
 11
11.7793068754
 21
8.9343198556
  0
LINE
  5
21C
100
AcDbEntity
  8
0
100
AcDbLine
 62
7
  6
CONTINUOUS
 10
11.7732701599
 20
8.9343198556
 11
11.6749390317
 21
8.9343198556
  0
LINE
  5
21D
100
AcDbEntity
  8
0
100
AcDbLine
 62
7
  6
CONTINUOUS
 10
11.6686893639
 20
8.9343198556
 11
11.5703582357
 21
8.9343198556
  0
LINE
  5
21E
100
AcDbEntity
  8
0
100
AcDbLine
 62
7
  6
CONTINUOUS
 10
11.5643215202
 20
8.9343198556
 11
11.4726914959
 21
8.9343198556
  0
LINE
  5
21F
100
AcDbEntity
  8
0
100
AcDbLine
 62
7
  6
CONTINUOUS
 10
11.4672791248
 20
8.9343198556
 11
11.3885946391
 21
8.9343198556
  0
LINE
  5
220
100
AcDbEntity
  8
0
100
AcDbLine
 62
7
  6
CONTINUOUS
 10
11.3841754566
 20
8.9343198556
 11
11.3237987272
 21
8.9343198556
  0
LINE
  5
221
100
AcDbEntity
  8
0
100
AcDbLine
 62
7
  6
CONTINUOUS
 10
11.3206738933
 20
8.9343198556
 11
11.2823998734
 21
8.9343198556
  0
LINE
  5
222
100
AcDbEntity
  8
0
100
AcDbLine
 62
7
  6
CONTINUOUS
 10
11.2811019615
 20
8.9343198556
 11
11.2619157473
 21
8.9343198556
  0
LINE
  5
223
100
AcDbEntity
  8
0
100
AcDbLine
 62
7
  6
CONTINUOUS
 10
11.2843141978
 20
8.9533967517
 11
12.0593141978
 21
8.9533967517
  0
LINE
  5
224
100
AcDbEntity
  8
0
100
AcDbLine
 62
9
  6
CONTINUOUS
 10
12.0593141978
 20
8.9643198556
 11
11.2843141978
 21
8.9643198556
  0
LINE
  5
225
100
AcDbEntity
  8
0
100
AcDbLine
 62
7
  6
CONTINUOUS
 10
12.0093002624
 20
9.0143198556
 11
11.3343281332
 21
9.0143198556
  0
LINE
  5
226
100
AcDbEntity
  8
0
100
AcDbLine
 62
9
  6
CONTINUOUS
 10
8.7142940353
 20
10.6352342539
 11
8.7010235967
 21
10.6471805105
  0
LINE
  5
227
100
AcDbEntity
  8
0
100
AcDbLine
 62
9
  6
CONTINUOUS
 10
9.1476263082
 20
10.2806163588
 11
9.1344825449
 21
10.2925051754
  0
LINE
  5
228
100
AcDbEntity
  8
0
100
AcDbLine
 62
7
  6
CONTINUOUS
 10
10.7543548898
 20
7.4293198556
 11
10.7575303061
 21
7.4043198556
  0
LINE
  5
229
100
AcDbEntity
  8
0
100
AcDbLine
 62
7
  6
CONTINUOUS
 10
10.6929005679
 20
7.8271544579
 11
10.6669599512
 21
7.5893609104
  0
LINE
  5
22A
100
AcDbEntity
  8
0
100
AcDbLine
 62
7
  6
CONTINUOUS
 10
11.3666960876
 20
9.0455698556
 11
11.976932308
 21
9.0455698556
  0
LINE
  5
22B
100
AcDbEntity
  8
0
100
AcDbLine
 62
7
  6
CONTINUOUS
 10
11.2781134104
 20
9.1317595408
 11
12.0655149852
 21
9.1317595408
  0
LINE
  5
22C
100
AcDbEntity
  8
0
100
AcDbLine
 62
7
  6
CONTINUOUS
 10
10.999760754
 20
7.6999147958
 11
10.9968067731
 21
7.660750737
  0
LINE
  5
22D
100
AcDbEntity
  8
0
100
AcDbLine
 62
7
  6
CONTINUOUS
 10
10.8604825951
 20
7.8416072605
 11
10.8382343232
 21
7.6353701184
  0
LINE
  5
22E
100
AcDbEntity
  8
0
100
AcDbLine
 62
9
  6
CONTINUOUS
 10
12.0655149852
 20
9.3605304854
 11
11.948238802
 21
9.360530472
  0
LINE
  5
22F
100
AcDbEntity
  8
0
100
AcDbLine
 62
9
  6
CONTINUOUS
 10
11.3761628805
 20
9.3605304431
 11
11.2781134104
 21
9.3605304853
  0
LINE
  5
230
100
AcDbEntity
  8
0
100
AcDbLine
 62
7
  6
CONTINUOUS
 10
11.948238802
 20
9.360530472
 11
11.3761628805
 21
9.3605304431
  0
LINE
  5
231
100
AcDbEntity
  8
0
100
AcDbLine
 62
7
  6
CONTINUOUS
 10
11.2781134104
 20
9.3605304853
 11
11.2781134104
 21
9.3319151792
  0
LINE
  5
232
100
AcDbEntity
  8
0
100
AcDbLine
 62
7
  6
CONTINUOUS
 10
11.2781134104
 20
9.1592245319
 11
11.2781134104
 21
9.1317595408
  0
LINE
  5
233
100
AcDbEntity
  8
0
100
AcDbLine
 62
7
  6
CONTINUOUS
 10
11.2843141978
 20
8.9643198556
 11
11.2843141978
 21
8.9533967517
  0
LINE
  5
234
100
AcDbEntity
  8
0
100
AcDbLine
 62
7
  6
CONTINUOUS
 10
10.654806289
 20
7.5751344946
 11
10.6370518589
 21
7.5282309961
  0
LWPOLYLINE
  5
235
100
AcDbEntity
  8
0
100
AcDbPolyline
 62
7
  6
CONTINUOUS
 90
6
 70
0
 10
11.2659395545
 20
8.8543246355
 10
11.186598306
 20
8.7332335505
 10
11.0823791384
 20
8.5470154252
 10
10.9884179342
 20
8.3337002707
 10
10.912545511
 20
8.0966610452
 10
10.8604825951
 20
7.8416072605
  0
LWPOLYLINE
  5
236
100
AcDbEntity
  8
0
100
AcDbPolyline
 62
7
  6
CONTINUOUS
 90
5
 70
0
 10
11.0861976425
 20
8.7270289608
 10
10.9413113444
 20
8.510416563
 10
10.8295261912
 20
8.2902330478
 10
10.7473428545
 20
8.0637527301
 10
10.6929005679
 20
7.8271544579
  0
LINE
  5
237
100
AcDbEntity
  8
0
100
AcDbLine
 62
7
  6
CONTINUOUS
 10
11.2871709373
 20
8.884734186
 11
11.2659395545
 21
8.8543246355
  0
LWPOLYLINE
  5
238
100
AcDbEntity
  8
0
100
AcDbPolyline
 62
7
  6
CONTINUOUS
 90
8
 70
0
 10
11.2823905251
 20
8.9343198556
 10
11.1770241666
 20
8.8054497694
 10
11.068740531
 20
8.6528642807
 10
10.967592375
 20
8.4813250306
 10
10.87773417
 20
8.2889940369
 10
10.8037766257
 20
8.0742072256
 10
10.7508226342
 20
7.8363485653
 10
10.7255198651
 20
7.6085546944
  0
LINE
  5
239
100
AcDbEntity
  8
0
100
AcDbLine
 62
7
  6
CONTINUOUS
 10
11.2619089921
 20
8.9343198556
 11
11.0861976425
 21
8.7270289608
  0
LINE
  5
23A
100
AcDbEntity
  8
0
100
AcDbLine
 62
7
  6
CONTINUOUS
 10
11.4718141978
 20
9.0455698556
 11
11.4718141978
 21
9.0143198556
  0
LWPOLYLINE
  5
23B
100
AcDbEntity
  8
0
100
AcDbPolyline
 62
7
  6
CONTINUOUS
 90
5
 70
0
 10
11.1915091556
 20
8.5419158122
 10
11.1298465076
 20
8.3702600704
 10
11.0635198017
 20
8.1260112739
 10
11.0183040329
 20
7.8722948248
 10
10.999760754
 20
7.6999147958
  0
LINE
  5
23C
100
AcDbEntity
  8
0
100
AcDbLine
 62
7
  6
CONTINUOUS
 10
11.4084074763
 20
9.7148637713
 11
11.3492048269
 21
9.7148612404
  0
LINE
  5
23D
100
AcDbEntity
  8
0
100
AcDbLine
 62
9
  6
CONTINUOUS
 10
11.8443701899
 20
9.7148613882
 11
12.0217121569
 21
9.714861309
  0
LINE
  5
23E
100
AcDbEntity
  8
0
100
AcDbLine
 62
7
  6
CONTINUOUS
 10
11.8168575009
 20
9.714875396
 11
11.8443701899
 21
9.7148613882
  0
LINE
  5
23F
100
AcDbEntity
  8
0
100
AcDbLine
 62
9
  6
CONTINUOUS
 10
11.3492048269
 20
9.7148612404
 11
11.195441413
 21
9.7148611921
  0
LINE
  5
240
100
AcDbEntity
  8
0
100
AcDbLine
 62
7
  6
CONTINUOUS
 10
11.6718141978
 20
8.884734186
 11
11.6718141978
 21
7.660750737
  0
LINE
  5
241
100
AcDbEntity
  8
0
100
AcDbLine
 62
9
  6
CONTINUOUS
 10
11.0476171614
 20
9.9466067631
 11
11.0483319026
 21
9.9460069313
  0
LINE
  5
242
100
AcDbEntity
  8
0
100
AcDbLine
 62
9
  6
CONTINUOUS
 10
11.0491621013
 20
9.9484988041
 11
11.049870263
 21
9.9478898345
  0
LINE
  5
243
100
AcDbEntity
  8
0
100
AcDbLine
 62
7
  6
CONTINUOUS
 10
11.8718141978
 20
9.0455698556
 11
11.8718141978
 21
9.0143198556
  0
LINE
  5
244
100
AcDbEntity
  8
0
100
AcDbLine
 62
9
  6
CONTINUOUS
 10
10.8512495928
 20
10.1306714465
 11
10.8499042333
 21
10.1311692644
  0
LINE
  5
245
100
AcDbEntity
  8
0
100
AcDbLine
 62
9
  6
CONTINUOUS
 10
10.7944302615
 20
10.0808754864
 11
10.7937405697
 21
10.0811397456
  0
LINE
  5
246
100
AcDbEntity
  8
0
100
AcDbLine
 62
9
  6
CONTINUOUS
 10
10.7841275787
 20
10.0910239707
 11
10.7834688672
 21
10.0912809394
  0
LINE
  5
247
100
AcDbEntity
  8
0
100
AcDbLine
 62
9
  6
CONTINUOUS
 10
10.80111972
 20
10.0985141735
 11
10.8028022134
 21
10.0978427843
  0
LINE
  5
248
100
AcDbEntity
  8
0
100
AcDbLine
 62
9
  6
CONTINUOUS
 10
10.8616565702
 20
10.1613618387
 11
10.8603599285
 21
10.1619029687
  0
LINE
  5
249
100
AcDbEntity
  8
0
100
AcDbLine
 62
7
  6
CONTINUOUS
 10
12.2574307531
 20
8.7270289608
 11
12.0817194035
 21
8.9343198556
  0
LINE
  5
24A
100
AcDbEntity
  8
0
100
AcDbLine
 62
7
  6
CONTINUOUS
 10
12.1666042443
 20
8.8054497495
 11
12.0612378705
 21
8.9343198556
  0
LINE
  5
24B
100
AcDbEntity
  8
0
100
AcDbLine
 62
7
  6
CONTINUOUS
 10
12.0564574582
 20
8.884734186
 11
12.077283245
 21
8.8549145926
  0
LINE
  5
24C
100
AcDbEntity
  8
0
100
AcDbLine
 62
7
  6
CONTINUOUS
 10
12.0593141978
 20
8.9643198556
 11
12.0593141978
 21
8.9533967517
  0
LINE
  5
24D
100
AcDbEntity
  8
0
100
AcDbLine
 62
7
  6
CONTINUOUS
 10
12.0655149852
 20
9.3605304854
 11
12.0655149852
 21
9.3319151792
  0
LINE
  5
24E
100
AcDbEntity
  8
0
100
AcDbLine
 62
7
  6
CONTINUOUS
 10
12.0655149852
 20
9.1592245319
 11
12.0655149852
 21
9.1317595408
  0
LINE
  5
24F
100
AcDbEntity
  8
0
100
AcDbLine
 62
7
  6
CONTINUOUS
 10
10.471812653
 20
7.4043198556
 11
10.3868141978
 21
7.3543198556
  0
LINE
  5
250
100
AcDbEntity
  8
0
100
AcDbLine
 62
9
  6
CONTINUOUS
 10
9.4582842748
 20
10.3217257498
 11
9.4559219387
 21
10.3216640728
  0
LINE
  5
251
100
AcDbEntity
  8
0
100
AcDbLine
 62
9
  6
CONTINUOUS
 10
9.4517367452
 20
10.3242390569
 11
9.4551903813
 21
10.3243139625
  0
LINE
  5
252
100
AcDbEntity
  8
0
100
AcDbLine
 62
7
  6
CONTINUOUS
 10
12.6888221066
 20
7.5751344946
 11
12.7065765367
 21
7.5282309961
  0
LWPOLYLINE
  5
253
100
AcDbEntity
  8
0
100
AcDbPolyline
 62
7
  6
CONTINUOUS
 90
5
 70
0
 10
12.3438875431
 20
7.6996698607
 10
12.3248676136
 20
7.8756695536
 10
12.2799333027
 20
8.1267943988
 10
12.2142883551
 20
8.3686832961
 10
12.1518944375
 20
8.5424807609
  0
LINE
  5
254
100
AcDbEntity
  8
0
100
AcDbLine
 62
7
  6
CONTINUOUS
 10
12.3438875431
 20
7.6996698607
 11
12.3468216225
 21
7.660750737
  0
LINE
  5
255
100
AcDbEntity
  8
0
100
AcDbLine
 62
9
  6
CONTINUOUS
 10
9.1268367455
 20
10.303072222
 11
9.1291277459
 21
10.3034121063
  0
LINE
  5
256
100
AcDbEntity
  8
0
100
AcDbLine
 62
9
  6
CONTINUOUS
 10
9.1274932052
 20
10.299595316
 11
9.1297875825
 21
10.2998980542
  0
LINE
  5
257
100
AcDbEntity
  8
0
100
AcDbLine
 62
9
  6
CONTINUOUS
 10
11.2148193569
 20
10.4593652462
 11
11.2053743263
 21
10.4630665834
  0
LINE
  5
258
100
AcDbEntity
  8
0
100
AcDbLine
 62
9
  6
CONTINUOUS
 10
11.5699506966
 20
10.1158566777
 11
11.5719833492
 21
10.1137681409
  0
LINE
  5
259
100
AcDbEntity
  8
0
100
AcDbLine
 62
9
  6
CONTINUOUS
 10
11.574040258
 20
10.1195328493
 11
11.5760569785
 21
10.117411088
  0
LWPOLYLINE
  5
25A
100
AcDbEntity
  8
0
100
AcDbPolyline
 62
7
  6
CONTINUOUS
 90
7
 70
0
 10
12.5053944773
 20
7.6353642277
 10
12.4839189388
 20
7.8363814551
 10
12.4328176538
 20
8.0899925595
 10
12.357384234
 20
8.3279717287
 10
12.2631837772
 20
8.5431548948
 10
12.1584571177
 20
8.7309222226
 10
12.077283245
 20
8.8549145926
  0
LINE
  5
25B
100
AcDbEntity
  8
0
100
AcDbLine
 62
9
  6
CONTINUOUS
 10
11.2634742004
 20
10.4981292872
 11
11.264958426
 21
10.4975654225
  0
LINE
  5
25C
100
AcDbEntity
  8
0
100
AcDbLine
 62
9
  6
CONTINUOUS
 10
11.2844213964
 20
10.483499738
 11
11.2858220821
 21
10.4829449253
  0
LWPOLYLINE
  5
25D
100
AcDbEntity
  8
0
100
AcDbPolyline
 62
7
  6
CONTINUOUS
 90
7
 70
0
 10
12.6181085305
 20
7.6085546945
 10
12.5928057905
 20
7.8363483873
 10
12.5398518096
 20
8.0742070861
 10
12.4658942678
 20
8.2889939332
 10
12.3760360585
 20
8.481324959
 10
12.274887893
 20
8.6528642371
 10
12.1666042443
 20
8.8054497495
  0
LWPOLYLINE
  5
25E
100
AcDbEntity
  8
0
100
AcDbPolyline
 62
7
  6
CONTINUOUS
 90
6
 70
0
 10
12.6766684444
 20
7.5893609104
 10
12.6507278277
 20
7.8271544579
 10
12.596285541
 20
8.0637527301
 10
12.5141022044
 20
8.2902330478
 10
12.4023170511
 20
8.510416563
 10
12.2574307531
 20
8.7270289608
  0
LINE
  5
25F
100
AcDbEntity
  8
0
100
AcDbLine
 62
9
  6
CONTINUOUS
 10
9.1325659626
 20
10.766018766
 11
9.1308091397
 21
10.7657979162
  0
LINE
  5
260
100
AcDbEntity
  8
0
100
AcDbLine
 62
9
  6
CONTINUOUS
 10
9.134208378
 20
10.7557821928
 11
9.1372236138
 21
10.7561545979
  0
LINE
  5
261
100
AcDbEntity
  8
0
100
AcDbLine
 62
9
  6
CONTINUOUS
 10
9.1333916714
 20
10.7587301488
 11
9.1316342296
 21
10.7585203657
  0
LINE
  5
262
100
AcDbEntity
  8
0
100
AcDbLine
 62
9
  6
CONTINUOUS
 10
9.1350267485
 20
10.7479619513
 11
9.1380218998
 21
10.74831165
  0
LINE
  5
263
100
AcDbEntity
  8
0
100
AcDbLine
 62
7
  6
CONTINUOUS
 10
12.5892735058
 20
7.4293198556
 11
12.5860980895
 21
7.4043198556
  0
LINE
  5
264
100
AcDbEntity
  8
0
100
AcDbLine
 62
7
  6
CONTINUOUS
 10
12.9568141978
 20
7.3543198556
 11
12.9568141978
 21
7.2043198556
  0
ARC
  5
265
100
AcDbEntity
  8
0
100
AcDbCircle
 62
7
  6
CONTINUOUS
 10
9.690602367
 20
6.3290383154
 40
4.4881855623
100
AcDbArc
 50
69.1929693185
 51
97.2893155723
  0
ARC
  5
266
100
AcDbEntity
  8
0
100
AcDbCircle
 62
9
  6
CONTINUOUS
 10
9.6766401733
 20
6.312202823
 40
4.4766062322
100
AcDbArc
 50
69.2388892466
 51
96.9208227465
  0
ARC
  5
267
100
AcDbEntity
  8
0
100
AcDbCircle
 62
9
  6
CONTINUOUS
 10
9.6856681716
 20
6.3443946331
 40
4.4561168832
100
AcDbArc
 50
69.1714721368
 51
97.1301052269
  0
ARC
  5
268
100
AcDbEntity
  8
0
100
AcDbCircle
 62
7
  6
CONTINUOUS
 10
9.5139803029
 20
6.7562986414
 40
3.5433068331
100
AcDbArc
 50
69.2891735586
 51
95.9346007366
  0
ARC
  5
269
100
AcDbEntity
  8
0
100
AcDbCircle
 62
7
  6
CONTINUOUS
 10
9.5138704417
 20
6.757076841
 40
3.5425224768
100
AcDbArc
 50
95.9341347411
 51
99.7191911721
  0
ARC
  5
26A
100
AcDbEntity
  8
0
100
AcDbCircle
 62
7
  6
CONTINUOUS
 10
9.5220330858
 20
6.7774850097
 40
3.5206424893
100
AcDbArc
 50
69.0826046858
 51
69.2897633598
  0
ARC
  5
26B
100
AcDbEntity
  8
0
100
AcDbCircle
 62
9
  6
CONTINUOUS
 10
9.510347175
 20
7.1466147599
 40
3.1682635905
100
AcDbArc
 50
90.9797075753
 51
96.8132853526
  0
ARC
  5
26C
100
AcDbEntity
  8
0
100
AcDbCircle
 62
7
  6
CONTINUOUS
 10
9.6293675952
 20
7.014648849
 40
3.0992577674
100
AcDbArc
 50
37.5078391108
 51
38.2721145965
  0
ARC
  5
26D
100
AcDbEntity
  8
0
100
AcDbCircle
 62
9
  6
CONTINUOUS
 10
9.5626618314
 20
7.3896220007
 40
3.060777938
100
AcDbArc
 50
93.3811627655
 51
93.5753767485
  0
ARC
  5
26E
100
AcDbEntity
  8
0
100
AcDbCircle
 62
9
  6
CONTINUOUS
 10
9.514803883
 20
7.3487507755
 40
2.9761564361
100
AcDbArc
 50
91.2142342592
 51
97.4330123907
  0
ARC
  5
26F
100
AcDbEntity
  8
0
100
AcDbCircle
 62
9
  6
CONTINUOUS
 10
9.5336619465
 20
7.353836083
 40
2.9688451523
100
AcDbArc
 50
91.5004764498
 51
97.7363098798
  0
ARC
  5
270
100
AcDbEntity
  8
0
100
AcDbCircle
 62
9
  6
CONTINUOUS
 10
9.5379193949
 20
7.520751356
 40
2.8125295581
100
AcDbArc
 50
91.7641076809
 51
98.3573615501
  0
ARC
  5
271
100
AcDbEntity
  8
0
100
AcDbCircle
 62
9
  6
CONTINUOUS
 10
9.4583788539
 20
7.5949659661
 40
2.7648919912
100
AcDbArc
 50
90.6741185125
 51
91.2193963562
  0
ARC
  5
272
100
AcDbEntity
  8
0
100
AcDbCircle
 62
7
  6
CONTINUOUS
 10
9.7323771202
 20
7.5802143031
 40
2.6038473044
100
AcDbArc
 50
21.6882150866
 51
30.0659878958
  0
ARC
  5
273
100
AcDbEntity
  8
0
100
AcDbCircle
 62
9
  6
CONTINUOUS
 10
9.4406331491
 20
7.7432268276
 40
2.5675951588
100
AcDbArc
 50
96.8844841725
 51
102.0155677462
  0
ARC
  5
274
100
AcDbEntity
  8
0
100
AcDbCircle
 62
7
  6
CONTINUOUS
 10
8.9158554714
 20
9.3605250156
 40
3.1496595138
100
AcDbArc
 50
0.0000995014
 51
0.9654657806
  0
ARC
  5
275
100
AcDbEntity
  8
0
100
AcDbCircle
 62
9
  6
CONTINUOUS
 10
9.4472108549
 20
8.0081889414
 40
2.3515259983
100
AcDbArc
 50
91.1615801256
 51
98.817585547
  0
ARC
  5
276
100
AcDbEntity
  8
0
100
AcDbCircle
 62
9
  6
CONTINUOUS
 10
9.4592072187
 20
8.0781837731
 40
2.249577457
100
AcDbArc
 50
98.4964398722
 51
104.3455886834
  0
ARC
  5
277
100
AcDbEntity
  8
0
100
AcDbCircle
 62
9
  6
CONTINUOUS
 10
9.5066539317
 20
8.4977833669
 40
1.9392395567
100
AcDbArc
 50
93.6582211743
 51
93.9633524739
  0
ARC
  5
278
100
AcDbEntity
  8
0
100
AcDbCircle
 62
9
  6
CONTINUOUS
 10
9.5394220321
 20
8.8427367441
 40
1.5726799751
100
AcDbArc
 50
94.2069564275
 51
95.1825857368
  0
ARC
  5
279
100
AcDbEntity
  8
0
100
AcDbCircle
 62
9
  6
CONTINUOUS
 10
9.3440007361
 20
9.1312021987
 40
1.5221157088
100
AcDbArc
 50
94.8523156312
 51
95.214427874
  0
ARC
  5
27A
100
AcDbEntity
  8
0
100
AcDbCircle
 62
9
  6
CONTINUOUS
 10
9.3893432886
 20
8.9771398825
 40
1.4558258776
100
AcDbArc
 50
104.1645611839
 51
104.4211847058
  0
ARC
  5
27B
100
AcDbEntity
  8
0
100
AcDbCircle
 62
9
  6
CONTINUOUS
 10
9.3447265489
 20
9.2538779649
 40
1.3880135957
100
AcDbArc
 50
95.3083959684
 51
95.7004736618
  0
ARC
  5
27C
100
AcDbEntity
  8
0
100
AcDbCircle
 62
9
  6
CONTINUOUS
 10
9.3452114056
 20
9.4422912768
 40
1.289584317
100
AcDbArc
 50
98.0641894887
 51
116.4528481856
  0
ARC
  5
27D
100
AcDbEntity
  8
0
100
AcDbCircle
 62
9
  6
CONTINUOUS
 10
9.3040029564
 20
9.3784370728
 40
1.265992765
100
AcDbArc
 50
112.5756090401
 51
112.7823400568
  0
ARC
  5
27E
100
AcDbEntity
  8
0
100
AcDbCircle
 62
9
  6
CONTINUOUS
 10
9.2818197466
 20
9.5003952069
 40
1.2561669018
100
AcDbArc
 50
96.7107598184
 51
116.4781995101
  0
ARC
  5
27F
100
AcDbEntity
  8
0
100
AcDbCircle
 62
9
  6
CONTINUOUS
 10
9.279250444
 20
9.5234623862
 40
1.2438526323
100
AcDbArc
 50
96.8157479724
 51
116.914796247
  0
ARC
  5
280
100
AcDbEntity
  8
0
100
AcDbCircle
 62
9
  6
CONTINUOUS
 10
9.2866720013
 20
9.5257387604
 40
1.2394411859
100
AcDbArc
 50
97.0657671722
 51
117.1981317589
  0
ARC
  5
281
100
AcDbEntity
  8
0
100
AcDbCircle
 62
9
  6
CONTINUOUS
 10
9.2846009878
 20
9.5454710909
 40
1.2299743456
100
AcDbArc
 50
97.1827817531
 51
117.6244611743
  0
ARC
  5
282
100
AcDbEntity
  8
0
100
AcDbCircle
 62
7
  6
CONTINUOUS
 10
9.2764972098
 20
9.5664358787
 40
1.2244095878
100
AcDbArc
 50
97.2893823271
 51
118.0343552185
  0
ARC
  5
283
100
AcDbEntity
  8
0
100
AcDbCircle
 62
9
  6
CONTINUOUS
 10
9.2465378221
 20
9.26558497
 40
1.0782441088
100
AcDbArc
 50
98.5223388256
 51
99.4605477005
  0
ARC
  5
284
100
AcDbEntity
  8
0
100
AcDbCircle
 62
9
  6
CONTINUOUS
 10
9.2814063375
 20
9.4315211966
 40
0.9815993828
100
AcDbArc
 50
104.5436947925
 51
104.9224653904
  0
ARC
  5
285
100
AcDbEntity
  8
0
100
AcDbCircle
 62
9
  6
CONTINUOUS
 10
9.2777050209
 20
9.5614066336
 40
0.8197569654
100
AcDbArc
 50
103.7742937365
 51
105.0369383704
  0
ARC
  5
286
100
AcDbEntity
  8
0
100
AcDbCircle
 62
9
  6
CONTINUOUS
 10
9.7454968176
 20
6.3277177163
 40
4.4297262364
100
AcDbArc
 50
97.2813812509
 51
97.5391398443
  0
ARC
  5
287
100
AcDbEntity
  8
0
100
AcDbCircle
 62
9
  6
CONTINUOUS
 10
9.7966530857
 20
7.4784275332
 40
2.7871660374
100
AcDbArc
 50
69.0383857257
 51
69.2931507128
  0
ARC
  5
288
100
AcDbEntity
  8
0
100
AcDbCircle
 62
9
  6
CONTINUOUS
 10
9.8625297311
 20
7.6905108183
 40
2.5713080103
100
AcDbArc
 50
68.7207146097
 51
68.9973501079
  0
ARC
  5
289
100
AcDbEntity
  8
0
100
AcDbCircle
 62
7
  6
CONTINUOUS
 10
10.2314148542
 20
7.3876498558
 40
2.4068193435
100
AcDbArc
 50
39.9940101157
 51
40.5827868368
  0
ARC
  5
28A
100
AcDbEntity
  8
0
100
AcDbCircle
 62
9
  6
CONTINUOUS
 10
9.9188149284
 20
7.8664993479
 40
2.3939060615
100
AcDbArc
 50
68.4279664295
 51
68.7011897827
  0
ARC
  5
28B
100
AcDbEntity
  8
0
100
AcDbCircle
 62
9
  6
CONTINUOUS
 10
10.0245610213
 20
8.1388610236
 40
2.1079232728
100
AcDbArc
 50
68.3829585437
 51
68.6953496603
  0
ARC
  5
28C
100
AcDbEntity
  8
0
100
AcDbCircle
 62
9
  6
CONTINUOUS
 10
10.2552939756
 20
9.3890618033
 40
1.5340727797
100
AcDbArc
 50
358.9343280363
 51
0.9340954886
  0
ARC
  5
28D
100
AcDbEntity
  8
0
100
AcDbCircle
 62
9
  6
CONTINUOUS
 10
10.3388887166
 20
8.7932631297
 40
1.5147157046
100
AcDbArc
 50
67.797998803
 51
68.0695178909
  0
ARC
  5
28E
100
AcDbEntity
  8
0
100
AcDbCircle
 62
9
  6
CONTINUOUS
 10
10.3766307679
 20
8.8529894069
 40
1.4560309414
100
AcDbArc
 50
67.95430391
 51
68.3035517563
  0
ARC
  5
28F
100
AcDbEntity
  8
0
100
AcDbCircle
 62
9
  6
CONTINUOUS
 10
10.3952531441
 20
8.9334136227
 40
1.3635442257
100
AcDbArc
 50
68.0671728421
 51
68.4409058422
  0
ARC
  5
290
100
AcDbEntity
  8
0
100
AcDbCircle
 62
9
  6
CONTINUOUS
 10
10.5096204066
 20
9.1849145768
 40
1.0985194561
100
AcDbArc
 50
68.3488988115
 51
68.724962228
  0
ARC
  5
291
100
AcDbEntity
  8
0
100
AcDbCircle
 62
9
  6
CONTINUOUS
 10
10.5606720234
 20
9.3363193152
 40
0.9282261516
100
AcDbArc
 50
67.2618933954
 51
67.806117837
  0
ARC
  5
292
100
AcDbEntity
  8
0
100
AcDbCircle
 62
7
  6
CONTINUOUS
 10
10.4572474417
 20
9.2243105953
 40
0.9011809043
100
AcDbArc
 50
51.4616462151
 51
69.0832715358
  0
ARC
  5
293
100
AcDbEntity
  8
0
100
AcDbCircle
 62
9
  6
CONTINUOUS
 10
10.4663148758
 20
9.2554444655
 40
0.8939337396
100
AcDbArc
 50
49.9667434111
 51
68.33209842
  0
ARC
  5
294
100
AcDbEntity
  8
0
100
AcDbCircle
 62
9
  6
CONTINUOUS
 10
10.4748902818
 20
9.2478142633
 40
0.8922446651
100
AcDbArc
 50
50.7273530439
 51
69.0145302334
  0
ARC
  5
295
100
AcDbEntity
  8
0
100
AcDbCircle
 62
9
  6
CONTINUOUS
 10
10.4764779315
 20
9.2816687514
 40
0.8789936887
100
AcDbArc
 50
49.3434963577
 51
68.2073970444
  0
ARC
  5
296
100
AcDbEntity
  8
0
100
AcDbCircle
 62
9
  6
CONTINUOUS
 10
10.484559755
 20
9.2733964696
 40
0.8776385557
100
AcDbArc
 50
50.0916202248
 51
68.8869458209
  0
ARC
  5
297
100
AcDbEntity
  8
0
100
AcDbCircle
 62
9
  6
CONTINUOUS
 10
10.5130464991
 20
9.3795601321
 40
0.8559715276
100
AcDbArc
 50
66.0616424064
 51
66.9685725534
  0
ARC
  5
298
100
AcDbEntity
  8
0
100
AcDbCircle
 62
7
  6
CONTINUOUS
 10
10.4563390171
 20
9.3603623229
 40
0.8217835075
100
AcDbArc
 50
3.8051953529
 51
17.0989729056
  0
ARC
  5
299
100
AcDbEntity
  8
0
100
AcDbCircle
 62
7
  6
CONTINUOUS
 10
10.4570224748
 20
9.3605224827
 40
0.8210909356
100
AcDbArc
 50
0.0005583614
 51
3.7972090566
  0
ARC
  5
29A
100
AcDbEntity
  8
0
100
AcDbCircle
 62
9
  6
CONTINUOUS
 10
8.1786829764
 20
9.8888934037
 40
0.7558795196
100
AcDbArc
 50
52.6258562679
 51
53.2077899818
  0
ARC
  5
29B
100
AcDbEntity
  8
0
100
AcDbCircle
 62
9
  6
CONTINUOUS
 10
8.5014917902
 20
11.2060610545
 40
0.6859260586
100
AcDbArc
 50
293.2843479679
 51
293.8909338124
  0
ARC
  5
29C
100
AcDbEntity
  8
0
100
AcDbCircle
 62
9
  6
CONTINUOUS
 10
8.2727658114
 20
10.1269137125
 40
0.6196341129
100
AcDbArc
 50
14.4046576053
 51
14.8974732423
  0
ARC
  5
29D
100
AcDbEntity
  8
0
100
AcDbCircle
 62
9
  6
CONTINUOUS
 10
8.4564843578
 20
10.1471405169
 40
0.3768882108
100
AcDbArc
 50
47.7874719722
 51
49.1155581463
  0
ARC
  5
29E
100
AcDbEntity
  8
0
100
AcDbCircle
 62
9
  6
CONTINUOUS
 10
8.717361267
 20
10.2592227817
 40
0.2695845162
100
AcDbArc
 50
132.6889051675
 51
137.6109388633
  0
ARC
  5
29F
100
AcDbEntity
  8
0
100
AcDbCircle
 62
9
  6
CONTINUOUS
 10
8.6161466541
 20
10.1931136581
 40
0.2498090234
100
AcDbArc
 50
87.7408768609
 51
90.0867079771
  0
ARC
  5
2A0
100
AcDbEntity
  8
0
100
AcDbCircle
 62
7
  6
CONTINUOUS
 10
8.6796882135
 20
10.3054123752
 40
0.2165354331
100
AcDbArc
 50
163.4531055075
 51
336.5776228917
  0
ARC
  5
2A1
100
AcDbEntity
  8
0
100
AcDbCircle
 62
9
  6
CONTINUOUS
 10
8.6364280006
 20
10.2754569245
 40
0.1903103801
100
AcDbArc
 50
125.5083285641
 51
130.8832335006
  0
ARC
  5
2A2
100
AcDbEntity
  8
0
100
AcDbCircle
 62
9
  6
CONTINUOUS
 10
8.6796882135
 20
10.3054123752
 40
0.1474404331
100
AcDbArc
 50
111.3568688458
 51
354.536944822
  0
ARC
  5
2A3
100
AcDbEntity
  8
0
100
AcDbCircle
 62
9
  6
CONTINUOUS
 10
8.6301205625
 20
10.3676965004
 40
0.1149941993
100
AcDbArc
 50
89.52996418
 51
92.0466004105
  0
ARC
  5
2A4
100
AcDbEntity
  8
0
100
AcDbCircle
 62
9
  6
CONTINUOUS
 10
8.506318093
 20
10.4153364335
 40
0.050657952
100
AcDbArc
 50
55.2901147849
 51
56.0924160204
  0
ARC
  5
2A5
100
AcDbEntity
  8
0
100
AcDbCircle
 62
9
  6
CONTINUOUS
 10
8.5379201672
 20
10.4747186691
 40
0.0390657446
100
AcDbArc
 50
239.2082346949
 51
239.7678207065
  0
CIRCLE
  5
2A6
100
AcDbEntity
  8
0
100
AcDbCircle
 62
9
  6
CONTINUOUS
 10
8.6796882135
 20
10.3054123752
 40
0.0245073868
  0
ARC
  5
2A7
100
AcDbEntity
  8
0
100
AcDbCircle
 62
9
  6
CONTINUOUS
 10
8.5259512251
 20
10.4522555899
 40
0.0071024396
100
AcDbArc
 50
301.0542671899
 51
305.2924276147
  0
ARC
  5
2A8
100
AcDbEntity
  8
0
100
AcDbCircle
 62
9
  6
CONTINUOUS
 10
7.3152062165
 20
11.9808941107
 40
2.153194304
100
AcDbArc
 50
311.9806591512
 51
312.7549131556
  0
ARC
  5
2A9
100
AcDbEntity
  8
0
100
AcDbCircle
 62
9
  6
CONTINUOUS
 10
7.9959001235
 20
12.1469353381
 40
1.7329913532
100
AcDbArc
 50
296.3222733098
 51
296.5595113883
  0
ARC
  5
2AA
100
AcDbEntity
  8
0
100
AcDbCircle
 62
9
  6
CONTINUOUS
 10
10.4231270647
 20
11.371472882
 40
1.8249281314
100
AcDbArc
 50
205.1177769937
 51
205.7407646575
  0
ARC
  5
2AB
100
AcDbEntity
  8
0
100
AcDbCircle
 62
9
  6
CONTINUOUS
 10
10.0723007299
 20
11.198048996
 40
1.4408594877
100
AcDbArc
 50
204.8020489
 51
205.5767866177
  0
ARC
  5
2AC
100
AcDbEntity
  8
0
100
AcDbCircle
 62
9
  6
CONTINUOUS
 10
9.6310413341
 20
11.4665652206
 40
1.3862693161
100
AcDbArc
 50
224.1813314144
 51
224.5866416615
  0
ARC
  5
2AD
100
AcDbEntity
  8
0
100
AcDbCircle
 62
9
  6
CONTINUOUS
 10
9.6513164135
 20
11.108960303
 40
1.106761898
100
AcDbArc
 50
213.4753480234
 51
213.7339553226
  0
ARC
  5
2AE
100
AcDbEntity
  8
0
100
AcDbCircle
 62
9
  6
CONTINUOUS
 10
9.5915695693
 20
10.8678955867
 40
0.8373386829
100
AcDbArc
 50
202.5010290551
 51
202.9775053609
  0
ARC
  5
2AF
100
AcDbEntity
  8
0
100
AcDbCircle
 62
9
  6
CONTINUOUS
 10
9.5645105896
 20
10.8643400617
 40
0.8155778592
100
AcDbArc
 50
203.0028332046
 51
203.4857580731
  0
ARC
  5
2B0
100
AcDbEntity
  8
0
100
AcDbCircle
 62
9
  6
CONTINUOUS
 10
9.566210277
 20
10.5253588078
 40
0.7758735747
100
AcDbArc
 50
197.0964954268
 51
197.5521709736
  0
ARC
  5
2B1
100
AcDbEntity
  8
0
100
AcDbCircle
 62
9
  6
CONTINUOUS
 10
9.0278720992
 20
10.0552433139
 40
0.5350806289
100
AcDbArc
 50
113.5846855133
 51
124.0669984875
  0
ARC
  5
2B2
100
AcDbEntity
  8
0
100
AcDbCircle
 62
9
  6
CONTINUOUS
 10
9.0192564676
 20
10.0495955171
 40
0.5300345776
100
AcDbArc
 50
112.4912217902
 51
122.9552661326
  0
ARC
  5
2B3
100
AcDbEntity
  8
0
100
AcDbCircle
 62
9
  6
CONTINUOUS
 10
9.0143245037
 20
10.0624026499
 40
0.5163154288
100
AcDbArc
 50
112.0290248966
 51
112.5292219845
  0
ARC
  5
2B4
100
AcDbEntity
  8
0
100
AcDbCircle
 62
9
  6
CONTINUOUS
 10
8.9596843234
 20
10.14221199
 40
0.4723983348
100
AcDbArc
 50
113.3257059653
 51
131.9728583204
  0
ARC
  5
2B5
100
AcDbEntity
  8
0
100
AcDbCircle
 62
7
  6
CONTINUOUS
 10
8.9212360971
 20
10.2336361137
 40
0.468521812
100
AcDbArc
 50
118.0353129875
 51
163.44911587
  0
ARC
  5
2B6
100
AcDbEntity
  8
0
100
AcDbCircle
 62
9
  6
CONTINUOUS
 10
9.5399450663
 20
10.8697756926
 40
0.421446053
100
AcDbArc
 50
195.2770676199
 51
195.6920358217
  0
ARC
  5
2B7
100
AcDbEntity
  8
0
100
AcDbCircle
 62
9
  6
CONTINUOUS
 10
9.0565339621
 20
10.2128302754
 40
0.4139511481
100
AcDbArc
 50
15.243516142
 51
15.6235717609
  0
ARC
  5
2B8
100
AcDbEntity
  8
0
100
AcDbCircle
 62
9
  6
CONTINUOUS
 10
8.9007628264
 20
10.2625983259
 40
0.4076911091
100
AcDbArc
 50
116.2925711249
 51
116.4576801856
  0
ARC
  5
2B9
100
AcDbEntity
  8
0
100
AcDbCircle
 62
9
  6
CONTINUOUS
 10
9.1786340181
 20
10.4496136996
 40
0.3806298746
100
AcDbArc
 50
215.4621555869
 51
216.0400502911
  0
ARC
  5
2BA
100
AcDbEntity
  8
0
100
AcDbCircle
 62
9
  6
CONTINUOUS
 10
9.1507354278
 20
10.4614265527
 40
0.331698263
100
AcDbArc
 50
205.4242166294
 51
205.8968930091
  0
ARC
  5
2BB
100
AcDbEntity
  8
0
100
AcDbCircle
 62
9
  6
CONTINUOUS
 10
9.0322862917
 20
10.4566674527
 40
0.2384493293
100
AcDbArc
 50
236.742550449
 51
237.9191221766
  0
ARC
  5
2BC
100
AcDbEntity
  8
0
100
AcDbCircle
 62
9
  6
CONTINUOUS
 10
8.8958128458
 20
10.7342448279
 40
0.2063869816
100
AcDbArc
 50
209.5129114649
 51
211.1188566603
  0
ARC
  5
2BD
100
AcDbEntity
  8
0
100
AcDbCircle
 62
9
  6
CONTINUOUS
 10
9.0418192863
 20
10.3848110463
 40
0.2011084962
100
AcDbArc
 50
199.8041326317
 51
202.3769713404
  0
ARC
  5
2BE
100
AcDbEntity
  8
0
100
AcDbCircle
 62
9
  6
CONTINUOUS
 10
8.9584000799
 20
10.1969219402
 40
0.1999443825
100
AcDbArc
 50
29.5177692008
 51
30.999045264
  0
ARC
  5
2BF
100
AcDbEntity
  8
0
100
AcDbCircle
 62
9
  6
CONTINUOUS
 10
9.0085402566
 20
10.3630110756
 40
0.1596227673
100
AcDbArc
 50
209.3173821694
 51
210.9743728731
  0
ARC
  5
2C0
100
AcDbEntity
  8
0
100
AcDbCircle
 62
9
  6
CONTINUOUS
 10
8.8957494964
 20
10.2200444952
 40
0.1058225677
100
AcDbArc
 50
114.0605475787
 51
115.1404313735
  0
ARC
  5
2C1
100
AcDbEntity
  8
0
100
AcDbCircle
 62
9
  6
CONTINUOUS
 10
8.893761894
 20
10.2518367625
 40
0.079695019
100
AcDbArc
 50
122.3832699354
 51
123.6061083914
  0
ARC
  5
2C2
100
AcDbEntity
  8
0
100
AcDbCircle
 62
7
  6
CONTINUOUS
 10
8.9243369184
 20
10.1993788824
 40
0.0501000162
100
AcDbArc
 50
99.7831248458
 51
156.5156941316
  0
ARC
  5
2C3
100
AcDbEntity
  8
0
100
AcDbCircle
 62
9
  6
CONTINUOUS
 10
8.9857361842
 20
13.2861449074
 40
2.6186618095
100
AcDbArc
 50
274.0217737613
 51
274.4536722776
  0
ARC
  5
2C4
100
AcDbEntity
  8
0
100
AcDbCircle
 62
7
  6
CONTINUOUS
 10
10.7191885998
 20
7.9353360857
 40
1.640013644
100
AcDbArc
 50
35.3729632083
 51
37.4607078786
  0
ARC
  5
2C5
100
AcDbEntity
  8
0
100
AcDbCircle
 62
7
  6
CONTINUOUS
 10
10.9151641413
 20
7.4286767097
 40
0.837668733
100
AcDbArc
 50
358.3337784802
 51
0.0439905941
  0
ARC
  5
2C6
100
AcDbEntity
  8
0
100
AcDbCircle
 62
7
  6
CONTINUOUS
 10
11.0793221865
 20
7.2692057778
 40
0.4562540847
100
AcDbArc
 50
121.5535128898
 51
123.3329438212
  0
ARC
  5
2C7
100
AcDbEntity
  8
0
100
AcDbCircle
 62
7
  6
CONTINUOUS
 10
10.8419102016
 20
7.5043098556
 40
0.20006
100
AcDbArc
 50
150.2681892461
 51
159.26679
  0
ARC
  5
2C8
100
AcDbEntity
  8
0
100
AcDbCircle
 62
7
  6
CONTINUOUS
 10
10.6045034336
 20
7.4292222604
 40
0.1000960377
100
AcDbArc
 50
84.7237640603
 51
92.6194362256
  0
ARC
  5
2C9
100
AcDbEntity
  8
0
100
AcDbCircle
 62
7
  6
CONTINUOUS
 10
10.6831421531
 20
7.4293172553
 40
0.1000018109
100
AcDbArc
 50
66.8339156719
 51
194.4747502461
  0
ARC
  5
2CA
100
AcDbEntity
  8
0
100
AcDbCircle
 62
7
  6
CONTINUOUS
 10
10.8543563569
 20
7.4293172628
 40
0.1000017231
100
AcDbArc
 50
56.010783485
 51
179.9985144914
  0
ARC
  5
2CB
100
AcDbEntity
  8
0
100
AcDbCircle
 62
7
  6
CONTINUOUS
 10
11.0889039236
 20
7.4293171141
 40
0.1000016374
100
AcDbArc
 50
46.9999100348
 51
161.5266571111
  0
ARC
  5
2CC
100
AcDbEntity
  8
0
100
AcDbCircle
 62
7
  6
CONTINUOUS
 10
10.7598739847
 20
7.4293183198
 40
0.1000009887
100
AcDbArc
 50
61.3402882635
 51
194.4715837986
  0
ARC
  5
2CD
100
AcDbEntity
  8
0
100
AcDbCircle
 62
7
  6
CONTINUOUS
 10
10.9647484049
 20
7.4293184052
 40
0.1000005758
100
AcDbArc
 50
51.6496833207
 51
194.4663591992
  0
ARC
  5
2CE
100
AcDbEntity
  8
0
100
AcDbCircle
 62
7
  6
CONTINUOUS
 10
11.6718141978
 20
7.4293198556
 40
0.1
100
AcDbArc
 50
39.7183506612
 51
140.2816493388
  0
ARC
  5
2CF
100
AcDbEntity
  8
0
100
AcDbCircle
 62
7
  6
CONTINUOUS
 10
11.9750149378
 20
7.4293191374
 40
0.0999999238
100
AcDbArc
 50
35.2560540366
 51
138.8698133021
  0
ARC
  5
2D0
100
AcDbEntity
  8
0
100
AcDbCircle
 62
7
  6
CONTINUOUS
 10
10.572483485
 20
7.4293201997
 40
0.0999991969
100
AcDbArc
 50
84.1132313737
 51
194.4775861895
  0
ARC
  5
2D1
100
AcDbEntity
  8
0
100
AcDbCircle
 62
7
  6
CONTINUOUS
 10
10.625651172
 20
7.4293197486
 40
0.0999991421
100
AcDbArc
 50
72.8050748642
 51
194.4775756463
  0
ARC
  5
2D2
100
AcDbEntity
  8
0
100
AcDbCircle
 62
7
  6
CONTINUOUS
 10
11.2244039868
 20
7.4293200728
 40
0.0999989193
100
AcDbArc
 50
43.468718879
 51
150.3396903602
  0
ARC
  5
2D3
100
AcDbEntity
  8
0
100
AcDbCircle
 62
7
  6
CONTINUOUS
 10
12.1192244238
 20
7.429320106
 40
0.0999988891
100
AcDbArc
 50
29.6602973948
 51
136.5966139339
  0
ARC
  5
2D4
100
AcDbEntity
  8
0
100
AcDbCircle
 62
7
  6
CONTINUOUS
 10
10.5885239515
 20
7.4293196661
 40
0.099998282
100
AcDbArc
 50
79.4390654984
 51
194.477648142
  0
ARC
  5
2D5
100
AcDbEntity
  8
0
100
AcDbCircle
 62
7
  6
CONTINUOUS
 10
11.3686126315
 20
7.4293208595
 40
0.0999982067
100
AcDbArc
 50
41.0231011583
 51
144.744636951
  0
ARC
  5
2D6
100
AcDbEntity
  8
0
100
AcDbCircle
 62
7
  6
CONTINUOUS
 10
11.5187238102
 20
7.4293224955
 40
0.0999966973
100
AcDbArc
 50
39.7172235243
 51
141.6724819413
  0
ARC
  5
2D7
100
AcDbEntity
  8
0
100
AcDbCircle
 62
7
  6
CONTINUOUS
 10
11.8249045264
 20
7.4293225826
 40
0.0999966248
100
AcDbArc
 50
38.3274581654
 51
140.2827933759
  0
ARC
  5
2D8
100
AcDbEntity
  8
0
100
AcDbCircle
 62
9
  6
CONTINUOUS
 10
10.6911604362
 20
9.1160530842
 40
1.3607298172
100
AcDbArc
 50
69.8994539057
 51
70.2326010631
  0
ARC
  5
2D9
100
AcDbEntity
  8
0
100
AcDbCircle
 62
9
  6
CONTINUOUS
 10
10.7222157096
 20
9.2258487865
 40
1.3282390276
100
AcDbArc
 50
67.6461128093
 51
68.2307503342
  0
ARC
  5
2DA
100
AcDbEntity
  8
0
100
AcDbCircle
 62
9
  6
CONTINUOUS
 10
10.7164587463
 20
9.2297122911
 40
1.2453475184
100
AcDbArc
 50
68.5313232074
 51
69.1953231949
  0
ARC
  5
2DB
100
AcDbEntity
  8
0
100
AcDbCircle
 62
9
  6
CONTINUOUS
 10
10.6675771834
 20
9.2141220528
 40
1.2298831492
100
AcDbArc
 50
68.2516790819
 51
69.2308388528
  0
ARC
  5
2DC
100
AcDbEntity
  8
0
100
AcDbCircle
 62
9
  6
CONTINUOUS
 10
10.7261060561
 20
9.2425283571
 40
1.2191812384
100
AcDbArc
 50
69.4182900665
 51
69.7871762316
  0
ARC
  5
2DD
100
AcDbEntity
  8
0
100
AcDbCircle
 62
9
  6
CONTINUOUS
 10
10.7375435588
 20
9.255230788
 40
1.2033047744
100
AcDbArc
 50
69.0342867978
 51
69.715371539
  0
ARC
  5
2DE
100
AcDbEntity
  8
0
100
AcDbCircle
 62
7
  6
CONTINUOUS
 10
10.9146282515
 20
9.2413152449
 40
0.374606205
100
AcDbArc
 50
11.3055737447
 51
13.9959790204
  0
ARC
  5
2DF
100
AcDbEntity
  8
0
100
AcDbCircle
 62
7
  6
CONTINUOUS
 10
10.9164169278
 20
9.2494231089
 40
0.3727735624
100
AcDbArc
 50
345.9973878361
 51
348.6985209418
  0
ARC
  5
2E0
100
AcDbEntity
  8
0
100
AcDbCircle
 62
7
  6
CONTINUOUS
 10
11.2689821218
 20
9.0337588319
 40
0.0984251969
100
AcDbArc
 50
6.8921025793
 51
84.6767927167
  0
ARC
  5
2E1
100
AcDbEntity
  8
0
100
AcDbCircle
 62
9
  6
CONTINUOUS
 10
10.8385629445
 20
9.3704394173
 40
1.2178710532
100
AcDbArc
 50
68.067547478
 51
69.2463628989
  0
ARC
  5
2E2
100
AcDbEntity
  8
0
100
AcDbCircle
 62
7
  6
CONTINUOUS
 10
10.8524633114
 20
9.3867300187
 40
1.2171935765
100
AcDbArc
 50
67.992225054
 51
69.1896013922
  0
ARC
  5
2E3
100
AcDbEntity
  8
0
100
AcDbCircle
 62
9
  6
CONTINUOUS
 10
10.8366021337
 20
9.3544912973
 40
1.2145666895
100
AcDbArc
 50
68.3644004898
 51
69.4624206843
  0
ARC
  5
2E4
100
AcDbEntity
  8
0
100
AcDbCircle
 62
9
  6
CONTINUOUS
 10
10.7687582653
 20
9.297284381
 40
1.2127845643
100
AcDbArc
 50
69.0417700173
 51
69.5207607103
  0
ARC
  5
2E5
100
AcDbEntity
  8
0
100
AcDbCircle
 62
9
  6
CONTINUOUS
 10
10.8398872842
 20
9.3619852561
 40
1.2124652461
100
AcDbArc
 50
68.3726212924
 51
69.4781050299
  0
ARC
  5
2E6
100
AcDbEntity
  8
0
100
AcDbCircle
 62
7
  6
CONTINUOUS
 10
10.854410915
 20
9.3931499647
 40
1.21082956
100
AcDbArc
 50
0.9676638689
 51
9.7683669669
  0
ARC
  5
2E7
100
AcDbEntity
  8
0
100
AcDbCircle
 62
7
  6
CONTINUOUS
 10
10.8550032612
 20
9.3932081887
 40
1.2102356519
100
AcDbArc
 50
9.7709581688
 51
67.9887828189
  0
ARC
  5
2E8
100
AcDbEntity
  8
0
100
AcDbCircle
 62
9
  6
CONTINUOUS
 10
10.8450753663
 20
9.3716191441
 40
1.2088136175
100
AcDbArc
 50
68.3592803584
 51
69.5190705742
  0
ARC
  5
2E9
100
AcDbEntity
  8
0
100
AcDbCircle
 62
9
  6
CONTINUOUS
 10
10.8380391484
 20
9.3741176903
 40
1.2018045462
100
AcDbArc
 50
42.0537673151
 51
68.005388359
  0
ARC
  5
2EA
100
AcDbEntity
  8
0
100
AcDbCircle
 62
9
  6
CONTINUOUS
 10
10.8431458701
 20
9.3868022947
 40
1.2009579845
100
AcDbArc
 50
41.7774196829
 51
67.9788153658
  0
ARC
  5
2EB
100
AcDbEntity
  8
0
100
AcDbCircle
 62
9
  6
CONTINUOUS
 10
10.747072713
 20
9.2678197256
 40
1.1987214125
100
AcDbArc
 50
68.85742258
 51
69.2264022414
  0
ARC
  5
2EC
100
AcDbEntity
  8
0
100
AcDbCircle
 62
9
  6
CONTINUOUS
 10
10.8446453707
 20
9.3690882724
 40
1.1980268238
100
AcDbArc
 50
42.4457047755
 51
68.3924944798
  0
ARC
  5
2ED
100
AcDbEntity
  8
0
100
AcDbCircle
 62
9
  6
CONTINUOUS
 10
10.8459764432
 20
9.388866742
 40
1.1974663459
100
AcDbArc
 50
15.7974528066
 51
41.793979925
  0
ARC
  5
2EE
100
AcDbEntity
  8
0
100
AcDbCircle
 62
9
  6
CONTINUOUS
 10
10.8502574305
 20
9.3828853977
 40
1.1964141952
100
AcDbArc
 50
42.1476834041
 51
68.3909719686
  0
ARC
  5
2EF
100
AcDbEntity
  8
0
100
AcDbCircle
 62
9
  6
CONTINUOUS
 10
10.8587962735
 20
9.3912357296
 40
1.1844621434
100
AcDbArc
 50
15.8563228249
 51
42.1253263821
  0
ARC
  5
2F0
100
AcDbEntity
  8
0
100
AcDbCircle
 62
9
  6
CONTINUOUS
 10
10.7819158604
 20
9.3692295362
 40
1.1729091725
100
AcDbArc
 50
42.1795940132
 51
67.1913364699
  0
ARC
  5
2F1
100
AcDbEntity
  8
0
100
AcDbCircle
 62
9
  6
CONTINUOUS
 10
10.7595945509
 20
9.3279516812
 40
1.1275402679
100
AcDbArc
 50
68.3692017303
 51
68.7582675547
  0
ARC
  5
2F2
100
AcDbEntity
  8
0
100
AcDbCircle
 62
9
  6
CONTINUOUS
 10
10.7988602407
 20
9.411948059
 40
1.126974739
100
AcDbArc
 50
67.1435139463
 51
67.6515252372
  0
ARC
  5
2F3
100
AcDbEntity
  8
0
100
AcDbCircle
 62
9
  6
CONTINUOUS
 10
10.8373126964
 20
9.3708002562
 40
1.1203840268
100
AcDbArc
 50
69.7950726802
 51
70.2934689674
  0
ARC
  5
2F4
100
AcDbEntity
  8
0
100
AcDbCircle
 62
9
  6
CONTINUOUS
 10
10.8847759127
 20
9.421140127
 40
1.0501516264
100
AcDbArc
 50
43.6901302806
 51
43.8624128778
  0
ARC
  5
2F5
100
AcDbEntity
  8
0
100
AcDbCircle
 62
9
  6
CONTINUOUS
 10
10.7645632645
 20
9.3974076643
 40
1.0247346795
100
AcDbArc
 50
0.9315073892
 51
11.3917088322
  0
ARC
  5
2F6
100
AcDbEntity
  8
0
100
AcDbCircle
 62
9
  6
CONTINUOUS
 10
10.8694469781
 20
9.4656908535
 40
1.0202166617
100
AcDbArc
 50
70.1954630872
 51
70.9396879806
  0
ARC
  5
2F7
100
AcDbEntity
  8
0
100
AcDbCircle
 62
9
  6
CONTINUOUS
 10
10.8661135067
 20
9.4176983416
 40
0.9211776291
100
AcDbArc
 50
11.4020791688
 51
18.8197057434
  0
ARC
  5
2F8
100
AcDbEntity
  8
0
100
AcDbCircle
 62
9
  6
CONTINUOUS
 10
10.5724262459
 20
9.3553609847
 40
0.9168966362
100
AcDbArc
 50
45.7633740639
 51
67.5113665687
  0
ARC
  5
2F9
100
AcDbEntity
  8
0
100
AcDbCircle
 62
9
  6
CONTINUOUS
 10
10.617847797
 20
9.3863086695
 40
0.8630797151
100
AcDbArc
 50
46.2410980861
 51
46.4903370007
  0
ARC
  5
2FA
100
AcDbEntity
  8
0
100
AcDbCircle
 62
9
  6
CONTINUOUS
 10
10.6125979348
 20
9.3920495218
 40
0.8570956174
100
AcDbArc
 50
45.7086391056
 51
45.9582392866
  0
ARC
  5
2FB
100
AcDbEntity
  8
0
100
AcDbCircle
 62
9
  6
CONTINUOUS
 10
10.5916099454
 20
9.4154260975
 40
0.7025060191
100
AcDbArc
 50
25.228083268
 51
49.2833515401
  0
ARC
  5
2FC
100
AcDbEntity
  8
0
100
AcDbCircle
 62
9
  6
CONTINUOUS
 10
10.6056229825
 20
9.4188932342
 40
0.6883563057
100
AcDbArc
 50
25.4647886671
 51
49.9739844472
  0
ARC
  5
2FD
100
AcDbEntity
  8
0
100
AcDbCircle
 62
7
  6
CONTINUOUS
 10
10.6005581274
 20
9.4045914239
 40
0.6709347602
100
AcDbArc
 50
17.1100458231
 51
27.5449284812
  0
ARC
  5
2FE
100
AcDbEntity
  8
0
100
AcDbCircle
 62
7
  6
CONTINUOUS
 10
10.6009874824
 20
9.4047684281
 40
0.6704723543
100
AcDbArc
 50
27.5484846861
 51
51.4616505029
  0
ARC
  5
2FF
100
AcDbEntity
  8
0
100
AcDbCircle
 62
9
  6
CONTINUOUS
 10
10.7081409333
 20
9.4808689553
 40
0.644773577
100
AcDbArc
 50
48.9871433689
 51
49.4852729294
  0
ARC
  5
300
100
AcDbEntity
  8
0
100
AcDbCircle
 62
9
  6
CONTINUOUS
 10
10.7003983012
 20
9.5223652708
 40
0.6315168912
100
AcDbArc
 50
46.0099240911
 51
46.5300289882
  0
ARC
  5
301
100
AcDbEntity
  8
0
100
AcDbCircle
 62
9
  6
CONTINUOUS
 10
10.6378823462
 20
9.559651328
 40
0.6095783771
100
AcDbArc
 50
69.6532778178
 51
70.8841598598
  0
ARC
  5
302
100
AcDbEntity
  8
0
100
AcDbCircle
 62
7
  6
CONTINUOUS
 10
12.0182708907
 20
9.2455698556
 40
0.0984251969
100
AcDbArc
 50
298.6854020141
 51
61.3145979859
  0
ARC
  5
303
100
AcDbEntity
  8
0
100
AcDbCircle
 62
7
  6
CONTINUOUS
 10
11.9918984453
 20
9.2455698556
 40
0.0984251969
100
AcDbArc
 50
300.9509502561
 51
59.0490497439
  0
ARC
  5
304
100
AcDbEntity
  8
0
100
AcDbCircle
 62
7
  6
CONTINUOUS
 10
11.9167960747
 20
9.2455698556
 40
0.0984251969
100
AcDbArc
 50
309.9594919651
 51
50.0405080349
  0
ARC
  5
305
100
AcDbEntity
  8
0
100
AcDbCircle
 62
7
  6
CONTINUOUS
 10
11.4268323208
 20
9.2455698556
 40
0.0984251969
100
AcDbArc
 50
129.9594919651
 51
230.0405080349
  0
ARC
  5
306
100
AcDbEntity
  8
0
100
AcDbCircle
 62
7
  6
CONTINUOUS
 10
11.3517299503
 20
9.2455698556
 40
0.0984251969
100
AcDbArc
 50
120.9509502561
 51
239.0490497439
  0
ARC
  5
307
100
AcDbEntity
  8
0
100
AcDbCircle
 62
7
  6
CONTINUOUS
 10
11.3253575049
 20
9.2455698556
 40
0.0984251969
100
AcDbArc
 50
118.6854020141
 51
241.3145979859
  0
ARC
  5
308
100
AcDbEntity
  8
0
100
AcDbCircle
 62
7
  6
CONTINUOUS
 10
12.0746462737
 20
9.0337588319
 40
0.0984251969
100
AcDbArc
 50
95.3232072833
 51
173.1078974207
  0
ARC
  5
309
100
AcDbEntity
  8
0
100
AcDbCircle
 62
7
  6
CONTINUOUS
 10
11.3343141978
 20
8.9643198556
 40
0.05
100
AcDbArc
 50
90.0
 51
180.0
  0
ARC
  5
30A
100
AcDbEntity
  8
0
100
AcDbCircle
 62
7
  6
CONTINUOUS
 10
12.0093141978
 20
8.9643198556
 40
0.05
100
AcDbArc
 50
0.0
 51
90.0
  0
ARC
  5
30B
100
AcDbEntity
  8
0
100
AcDbCircle
 62
9
  6
CONTINUOUS
 10
11.7324482694
 20
9.4757595759
 40
0.7766138347
100
AcDbArc
 50
139.8303678137
 51
140.7248893647
  0
ARC
  5
30C
100
AcDbEntity
  8
0
100
AcDbCircle
 62
9
  6
CONTINUOUS
 10
11.7145123499
 20
9.4999619153
 40
0.7530467158
100
AcDbArc
 50
140.3301264035
 51
141.2754146412
  0
ARC
  5
30D
100
AcDbEntity
  8
0
100
AcDbCircle
 62
7
  6
CONTINUOUS
 10
13.8222236157
 20
6.9306333309
 40
3.2360560796
100
AcDbArc
 50
141.7440525433
 51
142.4764591892
  0
ARC
  5
30E
100
AcDbEntity
  8
0
100
AcDbCircle
 62
7
  6
CONTINUOUS
 10
13.611290845
 20
7.5801937512
 40
2.6038918463
100
AcDbArc
 50
149.9340569421
 51
158.325065555
  0
ARC
  5
30F
100
AcDbEntity
  8
0
100
AcDbCircle
 62
7
  6
CONTINUOUS
 10
13.1122135413
 20
7.3876498559
 40
2.4068193434
100
AcDbArc
 50
139.4172131631
 51
140.0059898843
  0
ARC
  5
310
100
AcDbEntity
  8
0
100
AcDbCircle
 62
7
  6
CONTINUOUS
 10
12.6244225305
 20
7.9353488239
 40
1.6399921917
100
AcDbArc
 50
142.5392844703
 51
144.6270504836
  0
ARC
  5
311
100
AcDbEntity
  8
0
100
AcDbCircle
 62
7
  6
CONTINUOUS
 10
12.4629798553
 20
7.4291653672
 40
0.8721841009
100
AcDbArc
 50
179.9898513015
 51
181.6323796243
  0
ARC
  5
312
100
AcDbEntity
  8
0
100
AcDbCircle
 62
7
  6
CONTINUOUS
 10
12.2642859727
 20
7.2691740376
 40
0.4562917243
100
AcDbArc
 50
56.6667114991
 51
58.4426635311
  0
ARC
  5
313
100
AcDbEntity
  8
0
100
AcDbCircle
 62
7
  6
CONTINUOUS
 10
12.501718194
 20
7.5043098556
 40
0.20006
100
AcDbArc
 50
20.73321
 51
29.7318107539
  0
ARC
  5
314
100
AcDbEntity
  8
0
100
AcDbCircle
 62
7
  6
CONTINUOUS
 10
12.739124962
 20
7.4292222603
 40
0.1000960377
100
AcDbArc
 50
87.3805636779
 51
95.276236069
  0
ARC
  5
315
100
AcDbEntity
  8
0
100
AcDbCircle
 62
7
  6
CONTINUOUS
 10
12.6604862393
 20
7.4293172738
 40
0.1000018034
100
AcDbArc
 50
345.5252497539
 51
113.166086819
  0
ARC
  5
316
100
AcDbEntity
  8
0
100
AcDbCircle
 62
7
  6
CONTINUOUS
 10
12.4892720331
 20
7.4293172648
 40
0.1000017231
100
AcDbArc
 50
0.0014843497
 51
123.9892145454
  0
ARC
  5
317
100
AcDbEntity
  8
0
100
AcDbCircle
 62
7
  6
CONTINUOUS
 10
12.2547244716
 20
7.4293171061
 40
0.1000016452
100
AcDbArc
 50
18.4733471442
 51
133.0000866755
  0
ARC
  5
318
100
AcDbEntity
  8
0
100
AcDbCircle
 62
7
  6
CONTINUOUS
 10
12.583754408
 20
7.4293183215
 40
0.1000009889
100
AcDbArc
 50
345.5284162014
 51
118.6597107203
  0
ARC
  5
319
100
AcDbEntity
  8
0
100
AcDbCircle
 62
7
  6
CONTINUOUS
 10
12.3788799907
 20
7.4293184053
 40
0.1000005758
100
AcDbArc
 50
345.5336408008
 51
128.3503166711
  0
ARC
  5
31A
100
AcDbEntity
  8
0
100
AcDbCircle
 62
7
  6
CONTINUOUS
 10
12.7711449106
 20
7.4293201997
 40
0.0999991969
100
AcDbArc
 50
345.5224138101
 51
95.8867685984
  0
ARC
  5
31B
100
AcDbEntity
  8
0
100
AcDbCircle
 62
7
  6
CONTINUOUS
 10
12.7179772236
 20
7.4293197486
 40
0.0999991421
100
AcDbArc
 50
345.5224243537
 51
107.194924501
  0
ARC
  5
31C
100
AcDbEntity
  8
0
100
AcDbCircle
 62
7
  6
CONTINUOUS
 10
12.7551044441
 20
7.4293196661
 40
0.099998282
100
AcDbArc
 50
345.522351858
 51
100.5609345073
  0
ARC
  5
31D
100
AcDbEntity
  8
0
100
AcDbCircle
 62
9
  6
CONTINUOUS
 10
12.4062666962
 20
9.2799779516
 40
1.1571865875
100
AcDbArc
 50
130.7386232251
 51
131.3382532333
  0
ARC
  5
31E
100
AcDbEntity
  8
0
100
AcDbCircle
 62
9
  6
CONTINUOUS
 10
12.4027222491
 20
9.2789558215
 40
1.1524632946
100
AcDbArc
 50
130.5683612574
 51
131.1657039499
  0
ARC
  5
31F
100
AcDbEntity
  8
0
100
AcDbCircle
 62
7
  6
CONTINUOUS
 10
12.4290001429
 20
9.249824466
 40
0.3746062038
100
AcDbArc
 50
191.3055736254
 51
193.9959790241
  0
ARC
  5
320
100
AcDbEntity
  8
0
100
AcDbCircle
 62
7
  6
CONTINUOUS
 10
12.4272114684
 20
9.2417166021
 40
0.372773563
100
AcDbArc
 50
165.9973878381
 51
168.6985209774
  0
ARC
  5
321
100
AcDbEntity
  8
0
100
AcDbCircle
 62
9
  6
CONTINUOUS
 10
10.961255107
 20
10.6194609309
 40
0.327252533
100
AcDbArc
 50
338.1312667348
 51
339.3786114198
  0
ARC
  5
322
100
AcDbEntity
  8
0
100
AcDbCircle
 62
9
  6
CONTINUOUS
 10
10.9957324315
 20
10.6102072758
 40
0.3167411964
100
AcDbArc
 50
337.3941596162
 51
338.7115305768
  0
ARC
  5
323
100
AcDbEntity
  8
0
100
AcDbCircle
 62
9
  6
CONTINUOUS
 10
11.0772924024
 20
9.9816241731
 40
0.3129120158
100
AcDbArc
 50
158.2640485357
 51
159.5360036899
  0
ARC
  5
324
100
AcDbEntity
  8
0
100
AcDbCircle
 62
9
  6
CONTINUOUS
 10
11.0785737241
 20
9.9771800213
 40
0.3025263198
100
AcDbArc
 50
157.5370303037
 51
158.8755368618
  0
ARC
  5
325
100
AcDbEntity
  8
0
100
AcDbCircle
 62
9
  6
CONTINUOUS
 10
10.7641027809
 20
9.926931604
 40
0.2539180438
100
AcDbArc
 50
64.3749258643
 51
67.406272459
  0
ARC
  5
326
100
AcDbEntity
  8
0
100
AcDbCircle
 62
9
  6
CONTINUOUS
 10
11.6132372141
 20
10.2967166631
 40
0.166461037
100
AcDbArc
 50
314.8832712414
 51
318.1818595382
  0
ARC
  5
327
100
AcDbEntity
  8
0
100
AcDbCircle
 62
9
  6
CONTINUOUS
 10
11.1555338211
 20
9.8389430275
 40
0.1524384643
100
AcDbArc
 50
135.0672207772
 51
138.5260398639
  0
SPLINE
  5
328
100
AcDbEntity
  8
0
100
AcDbSpline
 62
7
  6
CONTINUOUS
 70
0
 71
3
 72
9
 73
5
 74
0
 42
0.0000001
 43
0.0000001
 44
0.0000000001
 40
0.0
 40
0.0
 40
0.0
 40
0.0
 40
0.5007028702
 40
1.0
 40
1.0
 40
1.0
 40
1.0
 10
11.3011094809
 20
9.3299800683
 30
0.0
 10
11.3021550587
 20
9.3306071201
 30
0.0
 10
11.3044169316
 20
9.331598239
 30
0.0
 10
11.3068663302
 20
9.3319151669
 30
0.0
 10
11.3080820984
 20
9.3319151669
 30
0.0
  0
SPLINE
  5
329
100
AcDbEntity
  8
0
100
AcDbSpline
 62
7
  6
CONTINUOUS
 70
0
 71
3
 72
29
 73
25
 74
0
 42
0.0000001
 43
0.0000001
 44
0.0000000001
 40
0.0
 40
0.0
 40
0.0
 40
0.0
 40
0.0127764311
 40
0.0226906244
 40
0.0266832149
 40
0.0301887999
 40
0.0334310742
 40
0.0367079374
 40
0.0403260106
 40
0.0445185321
 40
0.0550995032
 40
0.0689697757
 40
0.0861445957
 40
0.1064287823
 40
0.1295651565
 40
0.1832949828
 40
0.2452360549
 40
0.3137304186
 40
0.3875450439
 40
0.4657887616
 40
0.5477977172
 40
0.6330419352
 40
0.8117904836
 40
1.0
 40
1.0
 40
1.0
 40
1.0
 10
12.676668326
 20
7.5893612284
 30
0.0
 10
12.6766884512
 20
7.5889807772
 30
0.0
 10
12.6766919533
 20
7.5883033099
 30
0.0
 10
12.6765611139
 20
7.5875084642
 30
0.0
 10
12.6763473057
 20
7.5870317263
 30
0.0
 10
12.6761508103
 20
7.5867741242
 30
0.0
 10
12.6759035641
 20
7.5865970973
 30
0.0
 10
12.6756087374
 20
7.5865096327
 30
0.0
 10
12.675274387
 20
7.5865127886
 30
0.0
 10
12.6747376523
 20
7.5866394191
 30
0.0
 10
12.6739691537
 20
7.5870325823
 30
0.0
 10
12.6729624983
 20
7.5877605092
 30
0.0
 10
12.6718071569
 20
7.5887671805
 30
0.0
 10
12.670511596
 20
7.5900272037
 30
0.0
 10
12.6685078317
 20
7.5921200343
 30
0.0
 10
12.6657470797
 20
7.5952048163
 30
0.0
 10
12.6621386539
 20
7.5993443907
 30
0.0
 10
12.6581329312
 20
7.6039324263
 30
0.0
 10
12.6537592201
 20
7.6088442466
 30
0.0
 10
12.6490374016
 20
7.6139848249
 30
0.0
 10
12.6439822518
 20
7.6192804635
 30
0.0
 10
12.6366924234
 20
7.6265828753
 30
0.0
 10
12.626814105
 20
7.6357704063
 30
0.0
 10
12.6184027357
 20
7.6427799488
 30
0.0
 10
12.6139918964
 20
7.6462500995
 30
0.0
  0
SPLINE
  5
32A
100
AcDbEntity
  8
0
100
AcDbSpline
 62
7
  6
CONTINUOUS
 70
0
 71
3
 72
9
 73
5
 74
0
 42
0.0000001
 43
0.0000001
 44
0.0000000001
 40
0.0
 40
0.0
 40
0.0
 40
0.0
 40
0.4902688662
 40
1.0
 40
1.0
 40
1.0
 40
1.0
 10
11.4313907699
 20
7.4043198556
 30
0.0
 10
11.4310321392
 20
7.4083942763
 30
0.0
 10
11.4305067758
 20
7.4167237192
 30
0.0
 10
11.4303358403
 20
7.4250673138
 30
0.0
 10
11.4303358403
 20
7.4293198556
 30
0.0
  0
SPLINE
  5
32B
100
AcDbEntity
  8
0
100
AcDbSpline
 62
9
  6
CONTINUOUS
 70
0
 71
3
 72
11
 73
7
 74
0
 42
0.0000001
 43
0.0000001
 44
0.0000000001
 40
0.0
 40
0.0
 40
0.0
 40
0.0
 40
0.2348976513
 40
0.4786215296
 40
0.7331419275
 40
1.0
 40
1.0
 40
1.0
 40
1.0
 10
8.4721208388
 20
10.3670839143
 30
0.0
 10
8.4736112811
 20
10.3721004071
 30
0.0
 10
8.4776595774
 20
10.3820442132
 30
0.0
 10
8.4864601598
 20
10.3958954374
 30
0.0
 10
8.4979118371
 20
10.4086191578
 30
0.0
 10
8.5069847439
 20
10.4159580088
 30
0.0
 10
8.511869099
 20
10.4193475804
 30
0.0
  0
SPLINE
  5
32C
100
AcDbEntity
  8
0
100
AcDbSpline
 62
7
  6
CONTINUOUS
 70
0
 71
3
 72
9
 73
5
 74
0
 42
0.0000001
 43
0.0000001
 44
0.0000000001
 40
0.0
 40
0.0
 40
0.0
 40
0.0
 40
0.4910533058
 40
1.0
 40
1.0
 40
1.0
 40
1.0
 10
11.2763114007
 20
7.4043198556
 30
0.0
 10
11.275723214
 20
7.4083820511
 30
0.0
 10
11.2748581617
 20
7.4167046514
 30
0.0
 10
11.2745760141
 20
7.4250657325
 30
0.0
 10
11.2745760141
 20
7.4293198556
 30
0.0
  0
SPLINE
  5
32D
100
AcDbEntity
  8
0
100
AcDbSpline
 62
7
  6
CONTINUOUS
 70
0
 71
3
 72
9
 73
5
 74
0
 42
0.0000001
 43
0.0000001
 44
0.0000000001
 40
0.0
 40
0.0
 40
0.0
 40
0.0
 40
0.4921432615
 40
1.0
 40
1.0
 40
1.0
 40
1.0
 10
11.1289300436
 20
7.4043198556
 30
0.0
 10
11.1281259884
 20
7.4083653709
 30
0.0
 10
11.126937052
 20
7.4166779553
 30
0.0
 10
11.1265479773
 20
7.4250635158
 30
0.0
 10
11.1265479773
 20
7.4293198556
 30
0.0
  0
SPLINE
  5
32E
100
AcDbEntity
  8
0
100
AcDbSpline
 62
7
  6
CONTINUOUS
 70
0
 71
3
 72
9
 73
5
 74
0
 42
0.0000001
 43
0.0000001
 44
0.0000000001
 40
0.0
 40
0.0
 40
0.0
 40
0.0
 40
0.4934460225
 40
1.0
 40
1.0
 40
1.0
 40
1.0
 10
10.992115309
 20
7.4043198556
 30
0.0
 10
10.9911134683
 20
7.408345888
 30
0.0
 10
10.9896227774
 20
7.4166457485
 30
0.0
 10
10.9891329272
 20
7.4250608364
 30
0.0
 10
10.9891329272
 20
7.4293198556
 30
0.0
  0
SPLINE
  5
32F
100
AcDbEntity
  8
0
100
AcDbSpline
 62
7
  6
CONTINUOUS
 70
0
 71
3
 72
10
 73
6
 74
0
 42
0.0000001
 43
0.0000001
 44
0.0000000001
 40
0.0
 40
0.0
 40
0.0
 40
0.0
 40
0.2566753115
 40
0.5110524329
 40
1.0
 40
1.0
 40
1.0
 40
1.0
 10
12.3544954684
 20
7.4293198556
 30
0.0
 10
12.3544954684
 20
7.4320729181
 30
0.0
 10
12.3542854825
 20
7.4375575113
 30
0.0
 10
12.353063044
 20
7.4482183964
 30
0.0
 10
12.3512322489
 20
7.4560288655
 30
0.0
 10
12.3495716224
 20
7.4610033862
 30
0.0
  0
SPLINE
  5
330
100
AcDbEntity
  8
0
100
AcDbSpline
 62
7
  6
CONTINUOUS
 70
0
 71
3
 72
12
 73
8
 74
0
 42
0.0000001
 43
0.0000001
 44
0.0000000001
 40
0.0
 40
0.0
 40
0.0
 40
0.0
 40
0.2741760825
 40
0.538246715
 40
0.7825779527
 40
0.8950503854
 40
1.0
 40
1.0
 40
1.0
 40
1.0
 10
12.2170804183
 20
7.4293198556
 30
0.0
 10
12.2170804183
 20
7.4339972621
 30
0.0
 10
12.216608957
 20
7.4431874847
 30
0.0
 10
12.2145240679
 20
7.4563984538
 30
0.0
 10
12.2116457823
 20
7.466628041
 30
0.0
 10
12.208686218
 20
7.4739355475
 30
0.0
 10
12.2070103189
 20
7.4772513814
 30
0.0
 10
12.2061238796
 20
7.4788069685
 30
0.0
  0
SPLINE
  5
331
100
AcDbEntity
  8
0
100
AcDbSpline
 62
7
  6
CONTINUOUS
 70
0
 71
3
 72
15
 73
11
 74
0
 42
0.0000001
 43
0.0000001
 44
0.0000000001
 40
0.0
 40
0.0
 40
0.0
 40
0.0
 40
0.149652753
 40
0.2969917943
 40
0.4391185749
 40
0.5737355031
 40
0.6987631099
 40
0.8123435319
 40
0.9130129676
 40
1.0
 40
1.0
 40
1.0
 40
1.0
 10
12.0690523815
 20
7.4293198556
 30
0.0
 10
12.0690523815
 20
7.4323006862
 30
0.0
 10
12.0689097084
 20
7.4382172179
 30
0.0
 10
12.0682793025
 20
7.4469443571
 30
0.0
 10
12.0672416229
 20
7.4553313753
 30
0.0
 10
12.065820959
 20
7.4632115824
 30
0.0
 10
12.0640430991
 20
7.4704355095
 30
0.0
 10
12.061944477
 20
7.4768678194
 30
0.0
 10
12.0595611183
 20
7.4823839265
 30
0.0
 10
12.0576750442
 20
7.4856288901
 30
0.0
 10
12.0566744233
 20
7.4870433801
 30
0.0
  0
SPLINE
  5
332
100
AcDbEntity
  8
0
100
AcDbSpline
 62
7
  6
CONTINUOUS
 70
0
 71
3
 72
17
 73
13
 74
0
 42
0.0000001
 43
0.0000001
 44
0.0000000001
 40
0.0
 40
0.0
 40
0.0
 40
0.0
 40
0.1651344142
 40
0.3262575449
 40
0.478878869
 40
0.6192883403
 40
0.7440742574
 40
0.8502568754
 40
0.8957186778
 40
0.9358287844
 40
0.9705498303
 40
1.0
 40
1.0
 40
1.0
 40
1.0
 10
11.9132925552
 20
7.4293198556
 30
0.0
 10
11.9132925552
 20
7.4328115499
 30
0.0
 10
11.9131742559
 20
7.439710697
 30
0.0
 10
11.9126522635
 20
7.449824971
 30
0.0
 10
11.9118001084
 20
7.4593924261
 30
0.0
 10
11.9106429083
 20
7.4681542668
 30
0.0
 10
11.9092143606
 20
7.4758795427
 30
0.0
 10
11.9077652318
 20
7.4815501901
 30
0.0
 10
11.9064614806
 20
7.4853914863
 30
0.0
 10
11.9054918945
 20
7.4877455366
 30
0.0
 10
11.9044869605
 20
7.4897111081
 30
0.0
 10
11.9037371532
 20
7.4908480374
 30
0.0
 10
11.9033510458
 20
7.4913365964
 30
0.0
  0
SPLINE
  5
333
100
AcDbEntity
  8
0
100
AcDbSpline
 62
7
  6
CONTINUOUS
 70
0
 71
3
 72
13
 73
9
 74
0
 42
0.0000001
 43
0.0000001
 44
0.0000000001
 40
0.0
 40
0.0
 40
0.0
 40
0.0
 40
0.3029899935
 40
0.5837954978
 40
0.7093579393
 40
0.8219253882
 40
0.9193690889
 40
1.0
 40
1.0
 40
1.0
 40
1.0
 10
11.7528326275
 20
7.4293198556
 30
0.0
 10
11.7528326275
 20
7.435067451
 30
0.0
 10
11.7527275305
 20
7.4461420187
 30
0.0
 10
11.7523404981
 20
7.4595938973
 30
0.0
 10
11.7518675118
 20
7.4694267934
 30
0.0
 10
11.7514643752
 20
7.4757800741
 30
0.0
 10
11.7510057429
 20
7.4812746575
 30
0.0
 10
11.7506355358
 20
7.484633142
 30
0.0
 10
11.7504329087
 20
7.4861491962
 30
0.0
  0
SPLINE
  5
334
100
AcDbEntity
  8
0
100
AcDbSpline
 62
7
  6
CONTINUOUS
 70
0
 71
3
 72
13
 73
9
 74
0
 42
0.0000001
 43
0.0000001
 44
0.0000000001
 40
0.0
 40
0.0
 40
0.0
 40
0.0
 40
0.3688579452
 40
0.6590780046
 40
0.7741394876
 40
0.8690180924
 40
0.943967915
 40
1.0
 40
1.0
 40
1.0
 40
1.0
 10
11.7504329087
 20
7.4861491962
 30
0.0
 10
11.7503137341
 20
7.4870408601
 30
0.0
 10
11.7500783936
 20
7.4886311276
 30
0.0
 10
11.7497197429
 20
7.4904863292
 30
0.0
 10
11.7494131333
 20
7.4916673226
 30
0.0
 10
11.7491998192
 20
7.4923294222
 30
0.0
 10
11.7489860717
 20
7.4928374551
 30
0.0
 10
11.7488209093
 20
7.4931143363
 30
0.0
 10
11.7487335085
 20
7.4932193863
 30
0.0
  0
SPLINE
  5
335
100
AcDbEntity
  8
0
100
AcDbSpline
 62
7
  6
CONTINUOUS
 70
0
 71
3
 72
30
 73
26
 74
0
 42
0.0000001
 43
0.0000001
 44
0.0000000001
 40
0.0
 40
0.0
 40
0.0
 40
0.0
 40
0.0907793289
 40
0.1798193592
 40
0.2668655468
 40
0.3515631364
 40
0.4334453959
 40
0.5118475869
 40
0.5858696505
 40
0.6542325252
 40
0.6857428767
 40
0.7150932858
 40
0.742006303
 40
0.7662424457
 40
0.7877238434
 40
0.8066718103
 40
0.8237295656
 40
0.8398828969
 40
0.8561325456
 40
0.8731836261
 40
0.8914023622
 40
0.9108793306
 40
0.9315837234
 40
0.9534198184
 40
1.0
 40
1.0
 40
1.0
 40
1.0
 10
12.5150220736
 20
7.6504004079
 30
0.0
 10
12.5185690443
 20
7.6480687207
 30
0.0
 10
12.5255327412
 20
7.6433545976
 30
0.0
 10
12.5356898636
 20
7.6361041715
 30
0.0
 10
12.5454543175
 20
7.6287987694
 30
0.0
 10
12.554818961
 20
7.6215215846
 30
0.0
 10
12.5637698342
 20
7.6143729208
 30
0.0
 10
12.5722963249
 20
7.6074930569
 30
0.0
 10
12.5803746937
 20
7.6010653191
 30
0.0
 10
12.5868630682
 20
7.5961598062
 30
0.0
 10
12.5918462787
 20
7.5927401838
 30
0.0
 10
12.5953327329
 20
7.5905710789
 30
0.0
 10
12.598652818
 20
7.588790168
 30
0.0
 10
12.6017854895
 20
7.5874613999
 30
0.0
 10
12.6047111726
 20
7.586652608
 30
0.0
 10
12.607409417
 20
7.5864166368
 30
0.0
 10
12.6098467521
 20
7.5868045942
 30
0.0
 10
12.6119687142
 20
7.5877988231
 30
0.0
 10
12.6137406816
 20
7.5893221228
 30
0.0
 10
12.6151788949
 20
7.5912746209
 30
0.0
 10
12.6163122013
 20
7.5935815544
 30
0.0
 10
12.6171692982
 20
7.5961814133
 30
0.0
 10
12.6177670579
 20
7.5990241157
 30
0.0
 10
12.6182489119
 20
7.6031673966
 30
0.0
 10
12.6182414906
 20
7.6063803466
 30
0.0
 10
12.6181087798
 20
7.6085543339
 30
0.0
  0
SPLINE
  5
336
100
AcDbEntity
  8
0
100
AcDbSpline
 62
7
  6
CONTINUOUS
 70
0
 71
3
 72
30
 73
26
 74
0
 42
0.0000001
 43
0.0000001
 44
0.0000000001
 40
0.0
 40
0.0
 40
0.0
 40
0.0
 40
0.0478888406
 40
0.1000820608
 40
0.1559696334
 40
0.1851474347
 40
0.2150763088
 40
0.2769930288
 40
0.308920718
 40
0.3414486049
 40
0.3745603199
 40
0.4082331308
 40
0.442437707
 40
0.4771044848
 40
0.5121005563
 40
0.5472460523
 40
0.5823719191
 40
0.6173508576
 40
0.6520847394
 40
0.6865012167
 40
0.7541339911
 40
0.8198103947
 40
0.8830620821
 40
0.943353369
 40
1.0
 40
1.0
 40
1.0
 40
1.0
 10
11.918884063
 20
7.660750737
 30
0.0
 10
11.915920643
 20
7.657091622
 30
0.0
 10
11.9094849555
 20
7.649639376
 30
0.0
 10
11.8988816904
 20
7.6385528061
 30
0.0
 10
11.8890785396
 20
7.6292673915
 30
0.0
 10
11.8805499026
 20
7.6218416184
 30
0.0
 10
11.8713321752
 20
7.61431469
 30
0.0
 10
11.8614754864
 20
7.6071448354
 30
0.0
 10
11.8508968457
 20
7.6006158887
 30
0.0
 10
11.8424303124
 20
7.596088983
 30
0.0
 10
11.8334809112
 20
7.5921534003
 30
0.0
 10
11.8240350387
 20
7.5890330851
 30
0.0
 10
11.8141347225
 20
7.5869899949
 30
0.0
 10
11.8039138134
 20
7.586273296
 30
0.0
 10
11.7936020526
 20
7.5870022918
 30
0.0
 10
11.7834322728
 20
7.5890525073
 30
0.0
 10
11.7735496495
 20
7.5921755179
 30
0.0
 10
11.7640116411
 20
7.5961102856
 30
0.0
 10
11.7548222561
 20
7.6006376983
 30
0.0
 10
11.7430749078
 20
7.6071947708
 30
0.0
 10
11.7291777942
 20
7.6160992365
 30
0.0
 10
11.7134556466
 20
7.6273461482
 30
0.0
 10
11.6986879289
 20
7.6386661608
 30
0.0
 10
11.6848795578
 20
7.6497682505
 30
0.0
 10
11.6760551309
 20
7.6571401826
 30
0.0
 10
11.6718141978
 20
7.660750737
 30
0.0
  0
SPLINE
  5
337
100
AcDbEntity
  8
0
100
AcDbSpline
 62
7
  6
CONTINUOUS
 70
0
 71
3
 72
9
 73
5
 74
0
 42
0.0000001
 43
0.0000001
 44
0.0000000001
 40
0.0
 40
0.0
 40
0.0
 40
0.0
 40
0.5026260552
 40
1.0
 40
1.0
 40
1.0
 40
1.0
 10
11.6718141978
 20
8.884734186
 30
0.0
 10
11.6722022183
 20
8.8930496954
 30
0.0
 10
11.6730640023
 20
8.9095896601
 30
0.0
 10
11.6742227398
 20
8.9261134856
 30
0.0
 10
11.6749390317
 20
8.9343198556
 30
0.0
  0
LINE
  5
338
100
AcDbEntity
  8
0
100
AcDbLine
 62
7
  6
CONTINUOUS
 10
11.7732701599
 20
8.9343198556
 11
11.7737531912
 21
8.9327112205
  0
SPLINE
  5
339
100
AcDbEntity
  8
0
100
AcDbSpline
 62
7
  6
CONTINUOUS
 70
0
 71
3
 72
9
 73
5
 74
0
 42
0.0000001
 43
0.0000001
 44
0.0000000001
 40
0.0
 40
0.0
 40
0.0
 40
0.0
 40
0.4986567816
 40
1.0
 40
1.0
 40
1.0
 40
1.0
 10
11.7737531912
 20
8.9327112205
 30
0.0
 10
11.7761203355
 20
8.9247941208
 30
0.0
 10
11.7806000576
 20
8.9088372384
 30
0.0
 10
11.7847479921
 20
8.8927927661
 30
0.0
 10
11.7867681021
 20
8.884734186
 30
0.0
  0
SPLINE
  5
33A
100
AcDbEntity
  8
0
100
AcDbSpline
 62
7
  6
CONTINUOUS
 70
0
 71
3
 72
11
 73
7
 74
0
 42
0.0000001
 43
0.0000001
 44
0.0000000001
 40
0.0
 40
0.0
 40
0.0
 40
0.0
 40
0.2305199898
 40
0.4736669731
 40
0.7300009812
 40
1.0
 40
1.0
 40
1.0
 40
1.0
 10
11.7867681021
 20
8.884734186
 30
0.0
 10
11.8064064579
 20
8.7920724018
 30
0.0
 10
11.8412766478
 20
8.6004811403
 30
0.0
 10
11.8800536865
 20
8.3029352516
 30
0.0
 10
11.906668917
 20
7.98778404
 30
0.0
 10
11.9160587976
 20
7.771656532
 30
0.0
 10
11.918884063
 20
7.660750737
 30
0.0
  0
SPLINE
  5
33B
100
AcDbEntity
  8
0
100
AcDbSpline
 62
7
  6
CONTINUOUS
 70
0
 71
3
 72
31
 73
27
 74
0
 42
0.0000001
 43
0.0000001
 44
0.0000000001
 40
0.0
 40
0.0
 40
0.0
 40
0.0
 40
0.0566456701
 40
0.1169336462
 40
0.1801824623
 40
0.2127483547
 40
0.2458611715
 40
0.2794630808
 40
0.3135022688
 40
0.3479186406
 40
0.3826504969
 40
0.4176295197
 40
0.4527558343
 40
0.4879008109
 40
0.5228963482
 40
0.5575635207
 40
0.5917683661
 40
0.6254404611
 40
0.6585518979
 40
0.691081424
 40
0.7230089501
 40
0.7849258582
 40
0.8440255592
 40
0.8999152312
 40
0.9521108265
 40
1.0
 40
1.0
 40
1.0
 40
1.0
 10
11.6718141978
 20
7.660750737
 30
0.0
 10
11.6675733149
 20
7.6571402253
 30
0.0
 10
11.6587492093
 20
7.6497684395
 30
0.0
 10
11.6449410836
 20
7.6386671659
 30
0.0
 10
11.6327584556
 20
7.629327156
 30
0.0
 10
11.6225089053
 20
7.621866463
 30
0.0
 10
11.6145005605
 20
7.6162830918
 30
0.0
 10
11.6062266856
 20
7.6108323894
 30
0.0
 10
11.5976705217
 20
7.6055853214
 30
0.0
 10
11.588808347
 20
7.6006385618
 30
0.0
 10
11.579618872
 20
7.5961118
 30
0.0
 10
11.5700813627
 20
7.5921760501
 30
0.0
 10
11.5601985676
 20
7.589053317
 30
0.0
 10
11.5500288576
 20
7.5870029534
 30
0.0
 10
11.5397171667
 20
7.5862733003
 30
0.0
 10
11.5294961367
 20
7.586989336
 30
0.0
 10
11.519595699
 20
7.5890322663
 30
0.0
 10
11.5101499928
 20
7.5921528887
 30
0.0
 10
11.5011999783
 20
7.5960874264
 30
0.0
 10
11.4927337453
 20
7.6006151596
 30
0.0
 10
11.4821539996
 20
7.6071431604
 30
0.0
 10
11.4699771705
 20
7.6160043785
 30
0.0
 10
11.4566882594
 20
7.6272433058
 30
0.0
 10
11.4447471776
 20
7.6385517791
 30
0.0
 10
11.4341437213
 20
7.6496391791
 30
0.0
 10
11.4277077884
 20
7.6570915778
 30
0.0
 10
11.4247443326
 20
7.660750737
 30
0.0
  0
SPLINE
  5
33C
100
AcDbEntity
  8
0
100
AcDbSpline
 62
7
  6
CONTINUOUS
 70
0
 71
3
 72
9
 73
5
 74
0
 42
0.0000001
 43
0.0000001
 44
0.0000000001
 40
0.0
 40
0.0
 40
0.0
 40
0.0
 40
0.5013432546
 40
1.0
 40
1.0
 40
1.0
 40
1.0
 10
11.5568602935
 20
8.884734186
 30
0.0
 10
11.558880377
 20
8.8927926602
 30
0.0
 10
11.5630282371
 20
8.9088369256
 30
0.0
 10
11.567507915
 20
8.9247935928
 30
0.0
 10
11.5698750166
 20
8.9327105906
 30
0.0
  0
LINE
  5
33D
100
AcDbEntity
  8
0
100
AcDbLine
 62
7
  6
CONTINUOUS
 10
11.5698750166
 20
8.9327105906
 11
11.5703582357
 21
8.9343198556
  0
SPLINE
  5
33E
100
AcDbEntity
  8
0
100
AcDbSpline
 62
7
  6
CONTINUOUS
 70
0
 71
3
 72
9
 73
5
 74
0
 42
0.0000001
 43
0.0000001
 44
0.0000000001
 40
0.0
 40
0.0
 40
0.0
 40
0.0
 40
0.4973740236
 40
1.0
 40
1.0
 40
1.0
 40
1.0
 10
11.6686893639
 20
8.9343198556
 30
0.0
 10
11.6694056559
 20
8.9261134844
 30
0.0
 10
11.6705643732
 20
8.9095896575
 30
0.0
 10
11.6714261773
 20
8.8930496941
 30
0.0
 10
11.6718141978
 20
8.884734186
 30
0.0
  0
SPLINE
  5
33F
100
AcDbEntity
  8
0
100
AcDbSpline
 62
7
  6
CONTINUOUS
 70
0
 71
3
 72
29
 73
25
 74
0
 42
0.0000001
 43
0.0000001
 44
0.0000000001
 40
0.0
 40
0.0
 40
0.0
 40
0.0
 40
0.18820725
 40
0.3669543118
 40
0.4522055831
 40
0.5342160261
 40
0.6124628269
 40
0.6862726543
 40
0.7547715164
 40
0.8167083606
 40
0.8704377897
 40
0.893572254
 40
0.9138577165
 40
0.9310311675
 40
0.9448991624
 40
0.9554836541
 40
0.9596748184
 40
0.9632905427
 40
0.9665675463
 40
0.9698092702
 40
0.9733133794
 40
0.977306601
 40
0.9872246598
 40
1.0
 40
1.0
 40
1.0
 40
1.0
 10
10.7296240368
 20
7.6462402941
 30
0.0
 10
10.7252142247
 20
7.642770577
 30
0.0
 10
10.7168049329
 20
7.6357618147
 30
0.0
 10
10.7069281623
 20
7.6265760135
 30
0.0
 10
10.6996402425
 20
7.6192740192
 30
0.0
 10
10.6945856103
 20
7.6139792264
 30
0.0
 10
10.6898650042
 20
7.608839246
 30
0.0
 10
10.6854916575
 20
7.6039285726
 30
0.0
 10
10.6814871847
 20
7.599341073
 30
0.0
 10
10.6778790491
 20
7.5952025637
 30
0.0
 10
10.6751191443
 20
7.5921182786
 30
0.0
 10
10.6731155041
 20
7.590026084
 30
0.0
 10
10.6718202672
 20
7.5887663033
 30
0.0
 10
10.6706652712
 20
7.5877597066
 30
0.0
 10
10.6696583894
 20
7.5870325308
 30
0.0
 10
10.6688903635
 20
7.5866389031
 30
0.0
 10
10.6683536321
 20
7.5865122788
 30
0.0
 10
10.6680194401
 20
7.5865101226
 30
0.0
 10
10.6677248657
 20
7.5865976449
 30
0.0
 10
10.6674775303
 20
7.5867743248
 30
0.0
 10
10.6672808513
 20
7.587031697
 30
0.0
 10
10.6670672316
 20
7.5875085421
 30
0.0
 10
10.6669365661
 20
7.588303331
 30
0.0
 10
10.6669399216
 20
7.5889807622
 30
0.0
 10
10.6669600228
 20
7.5893611135
 30
0.0
  0
SPLINE
  5
340
100
AcDbEntity
  8
0
100
AcDbSpline
 62
7
  6
CONTINUOUS
 70
0
 71
3
 72
9
 73
5
 74
0
 42
0.0000001
 43
0.0000001
 44
0.0000000001
 40
0.0
 40
0.0
 40
0.0
 40
0.0
 40
0.50070281
 40
1.0
 40
1.0
 40
1.0
 40
1.0
 10
12.0425189147
 20
9.1611596427
 30
0.0
 10
12.0414733369
 20
9.1605325909
 30
0.0
 10
12.0392114632
 20
9.1595414752
 30
0.0
 10
12.0367620656
 20
9.1592245394
 30
0.0
 10
12.0355462972
 20
9.1592245394
 30
0.0
  0
SPLINE
  5
341
100
AcDbEntity
  8
0
100
AcDbSpline
 62
7
  6
CONTINUOUS
 70
0
 71
3
 72
11
 73
7
 74
0
 42
0.0000001
 43
0.0000001
 44
0.0000000001
 40
0.0
 40
0.0
 40
0.0
 40
0.0
 40
0.2540092747
 40
0.502132544
 40
0.7492559301
 40
1.0
 40
1.0
 40
1.0
 40
1.0
 10
11.9800092376
 20
9.1701270835
 30
0.0
 10
11.9779085096
 20
9.1683668667
 30
0.0
 10
11.9734630204
 20
9.1652162565
 30
0.0
 10
11.9661116064
 20
9.1617530267
 30
0.0
 10
11.9582928167
 20
9.1596720397
 30
0.0
 10
11.9529081607
 20
9.1592245442
 30
0.0
 10
11.9502026943
 20
9.1592245442
 30
0.0
  0
SPLINE
  5
342
100
AcDbEntity
  8
0
100
AcDbSpline
 62
7
  6
CONTINUOUS
 70
0
 71
3
 72
9
 73
5
 74
0
 42
0.0000001
 43
0.0000001
 44
0.0000000001
 40
0.0
 40
0.0
 40
0.0
 40
0.0
 40
0.4934456964
 40
1.0
 40
1.0
 40
1.0
 40
1.0
 10
12.3515130866
 20
7.4043198556
 30
0.0
 10
12.3525149263
 20
7.408345884
 30
0.0
 10
12.3540054827
 20
7.4166457621
 30
0.0
 10
12.3544954684
 20
7.4250608351
 30
0.0
 10
12.3544954684
 20
7.4293198556
 30
0.0
  0
LINE
  5
343
100
AcDbEntity
  8
0
100
AcDbLine
 62
9
  6
CONTINUOUS
 10
11.7380438201
 20
9.7148616512
 11
11.7368599206
 21
9.7148616508
  0
SPLINE
  5
344
100
AcDbEntity
  8
0
100
AcDbSpline
 62
9
  6
CONTINUOUS
 70
0
 71
3
 72
11
 73
7
 74
0
 42
0.0000001
 43
0.0000001
 44
0.0000000001
 40
0.0
 40
0.0
 40
0.0
 40
0.0
 40
0.2521486328
 40
0.5025908362
 40
0.7517302287
 40
1.0
 40
1.0
 40
1.0
 40
1.0
 10
11.5024620178
 20
10.1018149847
 30
0.0
 10
11.5290328695
 20
10.0741349773
 30
0.0
 10
11.5790760817
 20
10.0160702489
 30
0.0
 10
11.6440414471
 20
9.9216505737
 30
0.0
 10
11.6979497973
 20
9.8211733821
 30
0.0
 10
11.7260855856
 20
9.7506980546
 30
0.0
 10
11.7380438201
 20
9.7148616512
 30
0.0
  0
SPLINE
  5
345
100
AcDbEntity
  8
0
100
AcDbSpline
 62
9
  6
CONTINUOUS
 70
0
 71
3
 72
14
 73
10
 74
0
 42
0.0000001
 43
0.0000001
 44
0.0000000001
 40
0.0
 40
0.0
 40
0.0
 40
0.0
 40
0.1137024745
 40
0.2339180863
 40
0.35958043
 40
0.4890155292
 40
0.7501975553
 40
0.8775360578
 40
1.0
 40
1.0
 40
1.0
 40
1.0
 10
11.2147590754
 20
10.0096529306
 30
0.0
 10
11.2261791322
 20
10.0108107745
 30
0.0
 10
11.2495535476
 20
10.0144692756
 30
0.0
 10
11.2848300463
 20
10.023163683
 30
0.0
 10
11.3209645372
 20
10.0346241949
 30
0.0
 10
11.3699094602
 20
10.052565068
 30
0.0
 10
11.4183187962
 20
10.0723504285
 30
0.0
 10
11.466630333
 20
10.0904479273
 30
0.0
 10
11.4905964645
 20
10.0983429772
 30
0.0
 10
11.5024620178
 20
10.1018149847
 30
0.0
  0
SPLINE
  5
346
100
AcDbEntity
  8
0
100
AcDbSpline
 62
9
  6
CONTINUOUS
 70
0
 71
3
 72
11
 73
7
 74
0
 42
0.0000001
 43
0.0000001
 44
0.0000000001
 40
0.0
 40
0.0
 40
0.0
 40
0.0
 40
0.222024672
 40
0.4692927539
 40
0.732530515
 40
1.0
 40
1.0
 40
1.0
 40
1.0
 10
8.8264593507
 20
10.2913751365
 30
0.0
 10
8.8283021464
 20
10.2930994875
 30
0.0
 10
8.83247131
 20
10.2964538061
 30
0.0
 10
8.8394984342
 20
10.3009452542
 30
0.0
 10
8.8473946618
 20
10.3049542196
 30
0.0
 10
8.8529912594
 20
10.3072268807
 30
0.0
 10
8.8558538897
 20
10.3082510142
 30
0.0
  0
SPLINE
  5
347
100
AcDbEntity
  8
0
100
AcDbSpline
 62
9
  6
CONTINUOUS
 70
0
 71
3
 72
13
 73
9
 74
0
 42
0.0000001
 43
0.0000001
 44
0.0000000001
 40
0.0
 40
0.0
 40
0.0
 40
0.0
 40
0.2513854491
 40
0.3782855539
 40
0.5050338817
 40
0.6311624564
 40
0.7561697281
 40
1.0
 40
1.0
 40
1.0
 40
1.0
 10
8.8693619378
 20
10.2848523389
 30
0.0
 10
8.8665038836
 20
10.2832924164
 30
0.0
 10
8.862347396
 20
10.2806621332
 30
0.0
 10
8.8572064509
 20
10.2766107454
 30
0.0
 10
8.8535691366
 20
10.273292686
 30
0.0
 10
8.8501886446
 20
10.2697471766
 30
0.0
 10
8.846094281
 20
10.2648103385
 30
0.0
 10
8.8434330381
 20
10.2608140921
 30
0.0
 10
8.841904591
 20
10.258050399
 30
0.0
  0
SPLINE
  5
348
100
AcDbEntity
  8
0
100
AcDbSpline
 62
9
  6
CONTINUOUS
 70
0
 71
3
 72
11
 73
7
 74
0
 42
0.0000001
 43
0.0000001
 44
0.0000000001
 40
0.0
 40
0.0
 40
0.0
 40
0.0
 40
0.2277237755
 40
0.473328295
 40
0.7323953037
 40
1.0
 40
1.0
 40
1.0
 40
1.0
 10
8.8246217719
 20
10.2972660453
 30
0.0
 10
8.8262496526
 20
10.2990981107
 30
0.0
 10
8.8299104589
 20
10.3026631559
 30
0.0
 10
8.8361363875
 20
10.3075165641
 30
0.0
 10
8.8431528443
 20
10.3119922954
 30
0.0
 10
8.8481848508
 20
10.3146188148
 30
0.0
 10
8.8507920186
 20
10.3158423989
 30
0.0
  0
SPLINE
  5
349
100
AcDbEntity
  8
0
100
AcDbSpline
 62
9
  6
CONTINUOUS
 70
0
 71
3
 72
16
 73
12
 74
0
 42
0.0000001
 43
0.0000001
 44
0.0000000001
 40
0.0
 40
0.0
 40
0.0
 40
0.0
 40
0.1330407572
 40
0.2655951582
 40
0.3967493275
 40
0.525652473
 40
0.6514054563
 40
0.7127536973
 40
0.7728911089
 40
0.8892035231
 40
1.0
 40
1.0
 40
1.0
 40
1.0
 10
8.7554342017
 20
10.3802726481
 30
0.0
 10
8.7587189742
 20
10.376778982
 30
0.0
 10
8.7651814516
 20
10.3697149684
 30
0.0
 10
8.7746644071
 20
10.3590106842
 30
0.0
 10
8.7839856165
 20
10.3483626205
 30
0.0
 10
8.7930178589
 20
10.3377882313
 30
0.0
 10
8.8002694985
 20
10.3290041349
 30
0.0
 10
8.805875212
 20
10.3220765175
 30
0.0
 10
8.8112325413
 20
10.315385786
 30
0.0
 10
8.8176103725
 20
10.3072290116
 30
0.0
 10
8.8223983881
 20
10.300583455
 30
0.0
 10
8.8246217809
 20
10.2972660494
 30
0.0
  0
SPLINE
  5
34A
100
AcDbEntity
  8
0
100
AcDbSpline
 62
9
  6
CONTINUOUS
 70
0
 71
3
 72
11
 73
7
 74
0
 42
0.0000001
 43
0.0000001
 44
0.0000000001
 40
0.0
 40
0.0
 40
0.0
 40
0.0
 40
0.2406319957
 40
0.4881857455
 40
0.741734273
 40
1.0
 40
1.0
 40
1.0
 40
1.0
 10
8.6259941016
 20
10.4427285313
 30
0.0
 10
8.6322643786
 20
10.4430086881
 30
0.0
 10
8.6450214929
 20
10.4429150502
 30
0.0
 10
8.6642969847
 20
10.4410066014
 30
0.0
 10
8.6837992945
 20
10.4374315166
 30
0.0
 10
8.6967226188
 20
10.4340276648
 30
0.0
 10
8.7031715951
 20
10.4320806404
 30
0.0
  0
SPLINE
  5
34B
100
AcDbEntity
  8
0
100
AcDbSpline
 62
9
  6
CONTINUOUS
 70
0
 71
3
 72
14
 73
10
 74
0
 42
0.0000001
 43
0.0000001
 44
0.0000000001
 40
0.0
 40
0.0
 40
0.0
 40
0.0
 40
0.2424464565
 40
0.3662232292
 40
0.4912859067
 40
0.6174356356
 40
0.744464809
 40
0.8720903626
 40
1.0
 40
1.0
 40
1.0
 40
1.0
 10
8.7097071022
 20
10.4262844099
 30
0.0
 10
8.7135781441
 20
10.422746773
 30
0.0
 10
8.7193579919
 20
10.4173283254
 30
0.0
 10
8.7269567519
 20
10.409899764
 30
0.0
 10
8.7326789331
 20
10.4041511552
 30
0.0
 10
8.7383949148
 20
10.3982978753
 30
0.0
 10
8.7441196971
 20
10.3923758658
 30
0.0
 10
8.749823508
 20
10.3863808775
 30
0.0
 10
8.7535758527
 20
10.3823222045
 30
0.0
 10
8.7554337565
 20
10.3802722081
 30
0.0
  0
SPLINE
  5
34C
100
AcDbEntity
  8
0
100
AcDbSpline
 62
9
  6
CONTINUOUS
 70
0
 71
3
 72
12
 73
8
 74
0
 42
0.0000001
 43
0.0000001
 44
0.0000000001
 40
0.0
 40
0.0
 40
0.0
 40
0.0
 40
0.2122955223
 40
0.331974492
 40
0.4583295534
 40
0.723199317
 40
1.0
 40
1.0
 40
1.0
 40
1.0
 10
8.6310639964
 20
10.4826868109
 30
0.0
 10
8.631225534
 20
10.4833462828
 30
0.0
 10
8.6317446543
 20
10.4843078498
 30
0.0
 10
8.632651971
 20
10.4854556856
 30
0.0
 10
8.6337766931
 20
10.4866450276
 30
0.0
 10
8.6353916199
 20
10.4880495147
 30
0.0
 10
8.6367890854
 20
10.4890754568
 30
0.0
 10
8.6375148746
 20
10.4895823421
 30
0.0
  0
SPLINE
  5
34D
100
AcDbEntity
  8
0
100
AcDbSpline
 62
9
  6
CONTINUOUS
 70
0
 71
3
 72
11
 73
7
 74
0
 42
0.0000001
 43
0.0000001
 44
0.0000000001
 40
0.0
 40
0.0
 40
0.0
 40
0.0
 40
0.2649493681
 40
0.5207929362
 40
0.7661643186
 40
1.0
 40
1.0
 40
1.0
 40
1.0
 10
8.6310639243
 20
10.4826868213
 30
0.0
 10
8.630160618
 20
10.4790232235
 30
0.0
 10
8.6281848924
 20
10.4718687311
 30
0.0
 10
8.6246043614
 20
10.4615530664
 30
0.0
 10
8.6205168395
 20
10.4519078329
 30
0.0
 10
8.6174134864
 20
10.4458202465
 30
0.0
 10
8.6157717408
 20
10.4429228442
 30
0.0
  0
SPLINE
  5
34E
100
AcDbEntity
  8
0
100
AcDbSpline
 62
9
  6
CONTINUOUS
 70
0
 71
3
 72
11
 73
7
 74
0
 42
0.0000001
 43
0.0000001
 44
0.0000000001
 40
0.0
 40
0.0
 40
0.0
 40
0.0
 40
0.2691089017
 40
0.5264214538
 40
0.7704782449
 40
1.0
 40
1.0
 40
1.0
 40
1.0
 10
8.6260138639
 20
10.4826174221
 30
0.0
 10
8.6254487409
 20
10.4789767538
 30
0.0
 10
8.6241901685
 20
10.4718774973
 30
0.0
 10
8.6218496428
 20
10.4615874674
 30
0.0
 10
8.6191031063
 20
10.4519600757
 30
0.0
 10
8.6169363702
 20
10.4458428281
 30
0.0
 10
8.6157749557
 20
10.4429230445
 30
0.0
  0
SPLINE
  5
34F
100
AcDbEntity
  8
0
100
AcDbSpline
 62
9
  6
CONTINUOUS
 70
0
 71
3
 72
9
 73
5
 74
0
 42
0.0000001
 43
0.0000001
 44
0.0000000001
 40
0.0
 40
0.0
 40
0.0
 40
0.0
 40
0.2434999786
 40
1.0
 40
1.0
 40
1.0
 40
1.0
 10
8.5258915103
 20
10.4303760043
 30
0.0
 10
8.5263566538
 20
10.4316428759
 30
0.0
 10
8.5281342211
 20
10.4368938904
 30
0.0
 10
8.5293825245
 20
10.442319983
 30
0.0
 10
8.5300546673
 20
10.4464585498
 30
0.0
  0
LINE
  5
350
100
AcDbEntity
  8
0
100
AcDbLine
 62
7
  6
CONTINUOUS
 10
12.0564574582
 20
8.884734186
 11
12.0229545023
 21
8.9343198556
  0
SPLINE
  5
351
100
AcDbEntity
  8
0
100
AcDbSpline
 62
9
  6
CONTINUOUS
 70
0
 71
3
 72
11
 73
7
 74
0
 42
0.0000001
 43
0.0000001
 44
0.0000000001
 40
0.0
 40
0.0
 40
0.0
 40
0.0
 40
0.2389867776
 40
0.4848016294
 40
0.7384129062
 40
1.0
 40
1.0
 40
1.0
 40
1.0
 10
8.472121104
 20
10.3670848068
 30
0.0
 10
8.4739300901
 20
10.373173188
 30
0.0
 10
8.4785243437
 20
10.3852668673
 30
0.0
 10
8.4880239792
 20
10.402506078
 30
0.0
 10
8.5000990494
 20
10.4188014804
 30
0.0
 10
8.5096281302
 20
10.4286936257
 30
0.0
 10
8.5147498489
 20
10.4333946275
 30
0.0
  0
LINE
  5
352
100
AcDbEntity
  8
0
100
AcDbLine
 62
7
  6
CONTINUOUS
 10
11.9858741048
 20
8.884734186
 11
11.959452939
 21
8.9343198556
  0
LINE
  5
353
100
AcDbEntity
  8
0
100
AcDbLine
 62
7
  6
CONTINUOUS
 10
12.0198296684
 20
8.9343198556
 11
12.0209832603
 21
8.9328206291
  0
SPLINE
  5
354
100
AcDbEntity
  8
0
100
AcDbSpline
 62
7
  6
CONTINUOUS
 70
0
 71
3
 72
31
 73
27
 74
0
 42
0.0000001
 43
0.0000001
 44
0.0000000001
 40
0.0
 40
0.0
 40
0.0
 40
0.0
 40
0.0407392178
 40
0.0839184774
 40
0.1296796633
 40
0.1535231956
 40
0.1779719555
 40
0.2285145357
 40
0.254610049
 40
0.2812438695
 40
0.3084771913
 40
0.3364581761
 40
0.3654713367
 40
0.3958972827
 40
0.4280404513
 40
0.4619175377
 40
0.4972995697
 40
0.533876844
 40
0.5713565404
 40
0.6095045634
 40
0.6481479547
 40
0.6871412887
 40
0.7263723584
 40
0.7657373378
 40
0.8445242509
 40
1.0
 40
1.0
 40
1.0
 40
1.0
 10
12.3468216225
 20
7.660750737
 30
0.0
 10
12.3470232863
 20
7.6571830252
 30
0.0
 10
12.346711178
 20
7.6497821571
 30
0.0
 10
12.3443874919
 20
7.6386077366
 30
0.0
 10
12.3410018849
 20
7.629274986
 30
0.0
 10
12.337408444
 20
7.6218424455
 30
0.0
 10
12.3330913693
 20
7.6143187324
 30
0.0
 10
12.3278076847
 20
7.6071391969
 30
0.0
 10
12.3215101353
 20
7.6006119404
 30
0.0
 10
12.3161382119
 20
7.5960794557
 30
0.0
 10
12.3101151058
 20
7.5921347211
 30
0.0
 10
12.3033897914
 20
7.5890046986
 30
0.0
 10
12.2959567771
 20
7.5869636914
 30
0.0
 10
12.2879083006
 20
7.5862726281
 30
0.0
 10
12.2794457638
 20
7.5870377217
 30
0.0
 10
12.2707724644
 20
7.5891115098
 30
0.0
 10
12.2620193034
 20
7.5922428202
 30
0.0
 10
12.2532558723
 20
7.5961773474
 30
0.0
 10
12.2445116602
 20
7.6007016783
 30
0.0
 10
12.235790335
 20
7.6056449754
 30
0.0
 10
12.2270927807
 20
7.6108902178
 30
0.0
 10
12.2184097901
 20
7.6163395037
 30
0.0
 10
12.2097363435
 20
7.6219213769
 30
0.0
 10
12.1981698305
 20
7.6294571587
 30
0.0
 10
12.178095334
 20
7.6426114448
 30
0.0
 10
12.1607687281
 20
7.6536651484
 30
0.0
 10
12.1491165251
 20
7.660750737
 30
0.0
  0
LINE
  5
355
100
AcDbEntity
  8
0
100
AcDbLine
 62
7
  6
CONTINUOUS
 10
11.8938880878
 20
8.884734186
 11
11.8763492708
 21
8.9343198556
  0
LINE
  5
356
100
AcDbEntity
  8
0
100
AcDbLine
 62
7
  6
CONTINUOUS
 10
11.9550337565
 20
8.9343198556
 11
11.9563428983
 21
8.932316919
  0
SPLINE
  5
357
100
AcDbEntity
  8
0
100
AcDbSpline
 62
7
  6
CONTINUOUS
 70
0
 71
3
 72
9
 73
5
 74
0
 42
0.0000001
 43
0.0000001
 44
0.0000000001
 40
0.0
 40
0.0
 40
0.0
 40
0.0
 40
0.5003492256
 40
1.0
 40
1.0
 40
1.0
 40
1.0
 10
11.9563428983
 20
8.932316919
 30
0.0
 10
11.9614441858
 20
8.9244923105
 30
0.0
 10
11.9714317337
 20
8.9087181013
 30
0.0
 10
11.9811062474
 20
8.8927511527
 30
0.0
 10
11.9858741048
 20
8.884734186
 30
0.0
  0
SPLINE
  5
358
100
AcDbEntity
  8
0
100
AcDbSpline
 62
7
  6
CONTINUOUS
 70
0
 71
3
 72
31
 73
27
 74
0
 42
0.0000001
 43
0.0000001
 44
0.0000000001
 40
0.0
 40
0.0
 40
0.0
 40
0.0
 40
0.0416736975
 40
0.0874918036
 40
0.1370848111
 40
0.1631903049
 40
0.1901085246
 40
0.2462074107
 40
0.2753614172
 40
0.3052310337
 40
0.3358429671
 40
0.3672538403
 40
0.3995620195
 40
0.4328635542
 40
0.4671688598
 40
0.5023397083
 40
0.5381551864
 40
0.5743987261
 40
0.6108861442
 40
0.6474770559
 40
0.6840653828
 40
0.7205564583
 40
0.756874827
 40
0.7929444476
 40
0.8640564503
 40
1.0
 40
1.0
 40
1.0
 40
1.0
 10
12.1491165251
 20
7.660750737
 30
0.0
 10
12.1476865967
 20
7.6570838965
 30
0.0
 10
12.1441548907
 20
7.6495885276
 30
0.0
 10
12.1374528346
 20
7.6384920403
 30
0.0
 10
12.130644532
 20
7.629231869
 30
0.0
 10
12.1243873874
 20
7.6218268607
 30
0.0
 10
12.1173623905
 20
7.6142827141
 30
0.0
 10
12.1095213579
 20
7.6071144282
 30
0.0
 10
12.1008045473
 20
7.6006026248
 30
0.0
 10
12.0936395778
 20
7.5960745493
 30
0.0
 10
12.0858885195
 20
7.5921372659
 30
0.0
 10
12.0775201568
 20
7.5890162105
 30
0.0
 10
12.0685550828
 20
7.5869773858
 30
0.0
 10
12.0591079853
 20
7.5862731137
 30
0.0
 10
12.0493962896
 20
7.5870173722
 30
0.0
 10
12.0396442518
 20
7.5890775359
 30
0.0
 10
12.0299970703
 20
7.5922044207
 30
0.0
 10
12.0205222273
 20
7.5961396056
 30
0.0
 10
12.0112378961
 20
7.6006664083
 30
0.0
 10
12.002134796
 20
7.6056118325
 30
0.0
 10
11.9932030278
 20
7.6108589569
 30
0.0
 10
11.9844250526
 20
7.6163096171
 30
0.0
 10
11.9757892943
 20
7.6218925178
 30
0.0
 10
11.9644999109
 20
7.6293910686
 30
0.0
 10
11.9455365105
 20
7.6423387577
 30
0.0
 10
11.9294748466
 20
7.65349313
 30
0.0
 10
11.918884063
 20
7.660750737
 30
0.0
  0
SPLINE
  5
359
100
AcDbEntity
  8
0
100
AcDbSpline
 62
7
  6
CONTINUOUS
 70
0
 71
3
 72
9
 73
5
 74
0
 42
0.0000001
 43
0.0000001
 44
0.0000000001
 40
0.0
 40
0.0
 40
0.0
 40
0.0
 40
0.5034130537
 40
1.0
 40
1.0
 40
1.0
 40
1.0
 10
11.7867681021
 20
8.884734186
 30
0.0
 10
11.7854343637
 20
8.8930423445
 30
0.0
 10
11.7828243043
 20
8.9095522229
 30
0.0
 10
11.7804007855
 20
8.92609182
 30
0.0
 10
11.7793068754
 20
8.9343198556
 30
0.0
  0
LINE
  5
35A
100
AcDbEntity
  8
0
100
AcDbLine
 62
7
  6
CONTINUOUS
 10
11.8709368997
 20
8.9343198556
 11
11.8719790757
 21
8.9322081091
  0
SPLINE
  5
35B
100
AcDbEntity
  8
0
100
AcDbSpline
 62
7
  6
CONTINUOUS
 70
0
 71
3
 72
9
 73
5
 74
0
 42
0.0000001
 43
0.0000001
 44
0.0000000001
 40
0.0
 40
0.0
 40
0.0
 40
0.0
 40
0.4997246797
 40
1.0
 40
1.0
 40
1.0
 40
1.0
 10
11.8719790757
 20
8.9322081091
 30
0.0
 10
11.8758225922
 20
8.9243920299
 30
0.0
 10
11.8832737979
 20
8.9086329328
 30
0.0
 10
11.8903923753
 20
8.8927223639
 30
0.0
 10
11.8938880878
 20
8.884734186
 30
0.0
  0
SPLINE
  5
35C
100
AcDbEntity
  8
0
100
AcDbSpline
 62
7
  6
CONTINUOUS
 70
0
 71
3
 72
13
 73
9
 74
0
 42
0.0000001
 43
0.0000001
 44
0.0000000001
 40
0.0
 40
0.0
 40
0.0
 40
0.0
 40
0.1171911411
 40
0.2361332144
 40
0.3570842992
 40
0.4802898503
 40
0.7343268558
 40
1.0
 40
1.0
 40
1.0
 40
1.0
 10
11.8938880878
 20
8.884734186
 30
0.0
 10
11.9124804295
 20
8.839323731
 30
0.0
 10
11.9477074
 20
8.7468923125
 30
0.0
 10
11.994298269
 20
8.6047682456
 30
0.0
 10
12.0349995518
 20
8.4582287326
 30
0.0
 10
12.0818898705
 20
8.2549083407
 30
0.0
 10
12.125395159
 20
7.9889254597
 30
0.0
 10
12.1436486926
 20
7.7718564558
 30
0.0
 10
12.1491165251
 20
7.660750737
 30
0.0
  0
SPLINE
  5
35D
100
AcDbEntity
  8
0
100
AcDbSpline
 62
9
  6
CONTINUOUS
 70
0
 71
3
 72
12
 73
8
 74
0
 42
0.0000001
 43
0.0000001
 44
0.0000000001
 40
0.0
 40
0.0
 40
0.0
 40
0.0
 40
0.2781326795
 40
0.5380050794
 40
0.6606548417
 40
0.7783903977
 40
1.0
 40
1.0
 40
1.0
 40
1.0
 10
8.8264593931
 20
10.291375643
 30
0.0
 10
8.8276496007
 20
10.2881796761
 30
0.0
 10
8.8300442368
 20
10.2820311134
 30
0.0
 10
8.833289063
 20
10.2746053937
 30
0.0
 10
8.835948416
 20
10.2690771222
 30
0.0
 10
8.8385342831
 20
10.2640362895
 30
0.0
 10
8.8405581604
 20
10.2603991901
 30
0.0
 10
8.8419159514
 20
10.2580454166
 30
0.0
  0
SPLINE
  5
35E
100
AcDbEntity
  8
0
100
AcDbSpline
 62
9
  6
CONTINUOUS
 70
0
 71
3
 72
15
 73
11
 74
0
 42
0.0000001
 43
0.0000001
 44
0.0000000001
 40
0.0
 40
0.0
 40
0.0
 40
0.0
 40
0.1100167
 40
0.2247644893
 40
0.3436438884
 40
0.4664385463
 40
0.5934673158
 40
0.7250102359
 40
0.8607430321
 40
1.0
 40
1.0
 40
1.0
 40
1.0
 10
8.5258916801
 20
10.4303754922
 30
0.0
 10
8.528954646
 20
10.431777507
 30
0.0
 10
8.5353167818
 20
10.4344188214
 30
0.0
 10
8.5453008521
 20
10.4377665916
 30
0.0
 10
8.5558810756
 20
10.440482503
 30
0.0
 10
8.5670016512
 20
10.4424816551
 30
0.0
 10
8.5786160211
 20
10.4437648813
 30
0.0
 10
8.5906831371
 20
10.4443419821
 30
0.0
 10
8.6031376994
 20
10.4441524105
 30
0.0
 10
8.6115363012
 20
10.4434404553
 30
0.0
 10
8.6157686084
 20
10.4429223955
 30
0.0
  0
LINE
  5
35F
100
AcDbEntity
  8
0
100
AcDbLine
 62
9
  6
CONTINUOUS
 10
8.8708544446
 20
10.2256698772
 11
8.8783810074
 21
10.2193381779
  0
SPLINE
  5
360
100
AcDbEntity
  8
0
100
AcDbSpline
 62
9
  6
CONTINUOUS
 70
0
 71
3
 72
15
 73
11
 74
0
 42
0.0000001
 43
0.0000001
 44
0.0000000001
 40
0.0
 40
0.0
 40
0.0
 40
0.0
 40
0.1659555726
 40
0.3198408197
 40
0.4615638926
 40
0.5914416018
 40
0.7100325632
 40
0.8177280055
 40
0.9144345124
 40
1.0
 40
1.0
 40
1.0
 40
1.0
 10
8.8419159514
 20
10.2580454166
 30
0.0
 10
8.8431886789
 20
10.2562529062
 30
0.0
 10
8.8456904826
 20
10.252832577
 30
0.0
 10
8.8494587185
 20
10.2480159532
 30
0.0
 10
8.8530982394
 20
10.2437102905
 30
0.0
 10
8.8565855862
 20
10.2398935321
 30
0.0
 10
8.859886419
 20
10.2365214586
 30
0.0
 10
8.862962741
 20
10.2335467268
 30
0.0
 10
8.8658206298
 20
10.2309787626
 30
0.0
 10
8.867701116
 20
10.229460914
 30
0.0
 10
8.8686114037
 20
10.2287855311
 30
0.0
  0
SPLINE
  5
361
100
AcDbEntity
  8
0
100
AcDbSpline
 62
9
  6
CONTINUOUS
 70
0
 71
3
 72
13
 73
9
 74
0
 42
0.0000001
 43
0.0000001
 44
0.0000000001
 40
0.0
 40
0.0
 40
0.0
 40
0.0
 40
0.2491179898
 40
0.3744979479
 40
0.4998805021
 40
0.6252847514
 40
0.7507193085
 40
1.0
 40
1.0
 40
1.0
 40
1.0
 10
8.8708574458
 20
10.2256745856
 30
0.0
 10
8.8724816726
 20
10.2292357716
 30
0.0
 10
8.8755590823
 20
10.2343294097
 30
0.0
 10
8.8807019085
 20
10.2402806242
 30
0.0
 10
8.8850626876
 20
10.2442902075
 30
0.0
 10
8.8898503128
 20
10.2477804575
 30
0.0
 10
8.8966962026
 20
10.251660441
 30
0.0
 10
8.902297928
 20
10.2536826487
 30
0.0
 10
8.9061122451
 20
10.2545721216
 30
0.0
  0
SPLINE
  5
362
100
AcDbEntity
  8
0
100
AcDbSpline
 62
9
  6
CONTINUOUS
 70
0
 71
3
 72
13
 73
9
 74
0
 42
0.0000001
 43
0.0000001
 44
0.0000000001
 40
0.0
 40
0.0
 40
0.0
 40
0.0
 40
0.2490021072
 40
0.3743329986
 40
0.4996881765
 40
0.6250859856
 40
0.7505331147
 40
1.0
 40
1.0
 40
1.0
 40
1.0
 10
8.905648548
 20
10.2546256411
 30
0.0
 10
8.9018761164
 20
10.253705136
 30
0.0
 10
8.8963400489
 20
10.2516537068
 30
0.0
 10
8.8895817659
 20
10.2477519582
 30
0.0
 10
8.8848589858
 20
10.2442518633
 30
0.0
 10
8.8805591927
 20
10.2402409724
 30
0.0
 10
8.8754855966
 20
10.2342992559
 30
0.0
 10
8.8724521765
 20
10.2292232698
 30
0.0
 10
8.8708575245
 20
10.2256747493
 30
0.0
  0
SPLINE
  5
363
100
AcDbEntity
  8
0
100
AcDbSpline
 62
9
  6
CONTINUOUS
 70
0
 71
3
 72
9
 73
5
 74
0
 42
0.0000001
 43
0.0000001
 44
0.0000000001
 40
0.0
 40
0.0
 40
0.0
 40
0.0
 40
0.4997532723
 40
1.0
 40
1.0
 40
1.0
 40
1.0
 10
8.8686144467
 20
10.2287889137
 30
0.0
 10
8.8717080241
 20
10.2355325151
 30
0.0
 10
8.8809001951
 20
10.2478377216
 30
0.0
 10
8.8943988192
 20
10.2551866759
 30
0.0
 10
8.9015279976
 20
10.2572675303
 30
0.0
  0
SPLINE
  5
364
100
AcDbEntity
  8
0
100
AcDbSpline
 62
9
  6
CONTINUOUS
 70
0
 71
3
 72
12
 73
8
 74
0
 42
0.0000001
 43
0.0000001
 44
0.0000000001
 40
0.0
 40
0.0
 40
0.0
 40
0.0
 40
0.2495408748
 40
0.375085535
 40
0.5005899026
 40
0.7510559137
 40
1.0
 40
1.0
 40
1.0
 40
1.0
 10
8.868614438
 20
10.2287892472
 30
0.0
 10
8.8701458509
 20
10.2321880406
 30
0.0
 10
8.8730053643
 20
10.237070959
 30
0.0
 10
8.8777656132
 20
10.242851893
 30
0.0
 10
8.8831353255
 20
10.2480962673
 30
0.0
 10
8.8908344783
 20
10.2535052686
 30
0.0
 10
8.897774148
 20
10.2564233891
 30
0.0
 10
8.9013398504
 20
10.2574799857
 30
0.0
  0
LINE
  5
365
100
AcDbEntity
  8
0
100
AcDbLine
 62
9
  6
CONTINUOUS
 10
8.8716800723
 20
10.2808604875
 11
8.8729206909
 21
10.2810593521
  0
SPLINE
  5
366
100
AcDbEntity
  8
0
100
AcDbSpline
 62
9
  6
CONTINUOUS
 70
0
 71
3
 72
13
 73
9
 74
0
 42
0.0000001
 43
0.0000001
 44
0.0000000001
 40
0.0
 40
0.0
 40
0.0
 40
0.0
 40
0.2390364446
 40
0.3623004189
 40
0.487405933
 40
0.6141798966
 40
0.7423337616
 40
1.0
 40
1.0
 40
1.0
 40
1.0
 10
8.8419045912
 20
10.258050399
 30
0.0
 10
8.8435673609
 20
10.260591691
 30
0.0
 10
8.8464490962
 20
10.2642205139
 30
0.0
 10
8.8508850926
 20
10.2685478208
 30
0.0
 10
8.8545686809
 20
10.2715813678
 30
0.0
 10
8.858527396
 20
10.2743539758
 30
0.0
 10
8.864123376
 20
10.2776918688
 30
0.0
 10
8.8686039463
 20
10.2797406407
 30
0.0
 10
8.8716800766
 20
10.2808604774
 30
0.0
  0
SPLINE
  5
367
100
AcDbEntity
  8
0
100
AcDbSpline
 62
7
  6
CONTINUOUS
 70
0
 71
3
 72
9
 73
5
 74
0
 42
0.0000001
 43
0.0000001
 44
0.0000000001
 40
0.0
 40
0.0
 40
0.0
 40
0.0
 40
0.4921429746
 40
1.0
 40
1.0
 40
1.0
 40
1.0
 10
12.214698352
 20
7.4043198556
 30
0.0
 10
12.2155024065
 20
7.4083653673
 30
0.0
 10
12.216691195
 20
7.4166779673
 30
0.0
 10
12.2170804183
 20
7.4250635147
 30
0.0
 10
12.2170804183
 20
7.4293198556
 30
0.0
  0
SPLINE
  5
368
100
AcDbEntity
  8
0
100
AcDbSpline
 62
9
  6
CONTINUOUS
 70
0
 71
3
 72
9
 73
5
 74
0
 42
0.0000001
 43
0.0000001
 44
0.0000000001
 40
0.0
 40
0.0
 40
0.0
 40
0.0
 40
0.478872355
 40
1.0
 40
1.0
 40
1.0
 40
1.0
 10
8.8693617627
 20
10.2848522461
 30
0.0
 10
8.8666757594
 20
10.2882394926
 30
0.0
 10
8.8616107099
 20
10.2957554596
 30
0.0
 10
8.8576453588
 20
10.3038991014
 30
0.0
 10
8.8558545075
 20
10.3082493254
 30
0.0
  0
LINE
  5
369
100
AcDbEntity
  8
0
100
AcDbLine
 62
9
  6
CONTINUOUS
 10
8.871572247
 20
10.2862154748
 11
8.8693619375
 21
10.2848523397
  0
SPLINE
  5
36A
100
AcDbEntity
  8
0
100
AcDbSpline
 62
9
  6
CONTINUOUS
 70
0
 71
3
 72
15
 73
11
 74
0
 42
0.0000001
 43
0.0000001
 44
0.0000000001
 40
0.0
 40
0.0
 40
0.0
 40
0.0
 40
0.125183285
 40
0.2503439114
 40
0.3754726083
 40
0.5005497443
 40
0.6255524835
 40
0.7504704417
 40
0.8752941648
 40
1.0
 40
1.0
 40
1.0
 40
1.0
 10
9.0650258969
 20
10.3530940751
 30
0.0
 10
9.0567484822
 20
10.3509508522
 30
0.0
 10
9.0402390446
 20
10.3464933706
 30
0.0
 10
9.0156151461
 20
10.339320512
 30
0.0
 10
8.9911358559
 20
10.3316932116
 30
0.0
 10
8.9668096967
 20
10.323624649
 30
0.0
 10
8.9426652517
 20
10.3150691715
 30
0.0
 10
8.9187352906
 20
10.3059789435
 30
0.0
 10
8.8950310616
 20
10.2963702068
 30
0.0
 10
8.8793676734
 20
10.2896482163
 30
0.0
 10
8.871572247
 20
10.2862154748
 30
0.0
  0
SPLINE
  5
36B
100
AcDbEntity
  8
0
100
AcDbSpline
 62
7
  6
CONTINUOUS
 70
0
 71
3
 72
9
 73
5
 74
0
 42
0.0000001
 43
0.0000001
 44
0.0000000001
 40
0.0
 40
0.0
 40
0.0
 40
0.0
 40
0.4910530817
 40
1.0
 40
1.0
 40
1.0
 40
1.0
 10
12.0673169949
 20
7.4043198556
 30
0.0
 10
12.0679051812
 20
7.4083820483
 30
0.0
 10
12.0687700751
 20
7.4167046608
 30
0.0
 10
12.0690523815
 20
7.4250657316
 30
0.0
 10
12.0690523815
 20
7.4293198556
 30
0.0
  0
SPLINE
  5
36C
100
AcDbEntity
  8
0
100
AcDbSpline
 62
7
  6
CONTINUOUS
 70
0
 71
3
 72
30
 73
26
 74
0
 42
0.0000001
 43
0.0000001
 44
0.0000000001
 40
0.0
 40
0.0
 40
0.0
 40
0.0
 40
0.135941474
 40
0.2070518457
 40
0.2431216448
 40
0.2794402119
 40
0.3159317894
 40
0.3525203363
 40
0.3891120519
 40
0.425598137
 40
0.4618427642
 40
0.4976595015
 40
0.5328306943
 40
0.5671364409
 40
0.6004392568
 40
0.6327484618
 40
0.664159379
 40
0.6947717168
 40
0.7246435845
 40
0.7537980023
 40
0.8098983914
 40
0.862907875
 40
0.9125039321
 40
0.9583251401
 40
1.0
 40
1.0
 40
1.0
 40
1.0
 10
11.4247443326
 20
7.660750737
 30
0.0
 10
11.4141538758
 20
7.6534933539
 30
0.0
 10
11.3980927366
 20
7.6423393757
 30
0.0
 10
11.3791298241
 20
7.6293921937
 30
0.0
 10
11.3678406356
 20
7.6218939503
 30
0.0
 10
11.3592053523
 20
7.6163104598
 30
0.0
 10
11.350427378
 20
7.6108599189
 30
0.0
 10
11.3414953728
 20
7.6056132599
 30
0.0
 10
11.3323928526
 20
7.6006671435
 30
0.0
 10
11.323108263
 20
7.5961411385
 30
0.0
 10
11.3136339099
 20
7.5922049615
 30
0.0
 10
11.3039865124
 20
7.5890783389
 30
0.0
 10
11.2942344986
 20
7.5870180355
 30
0.0
 10
11.284522822
 20
7.586273126
 30
0.0
 10
11.2750755539
 20
7.5869767287
 30
0.0
 10
11.2661103125
 20
7.5890153898
 30
0.0
 10
11.2577421193
 20
7.5921367516
 30
0.0
 10
11.249990361
 20
7.5960730127
 30
0.0
 10
11.2428257808
 20
7.6006018523
 30
0.0
 10
11.2341076459
 20
7.6071129057
 30
0.0
 10
11.224446761
 20
7.6159489542
 30
0.0
 10
11.2144920367
 20
7.6271823785
 30
0.0
 10
11.2061758461
 20
7.6384908777
 30
0.0
 10
11.1994736748
 20
7.6495883511
 30
0.0
 10
11.1959418165
 20
7.6570838514
 30
0.0
 10
11.1945118705
 20
7.660750737
 30
0.0
  0
SPLINE
  5
36D
100
AcDbEntity
  8
0
100
AcDbSpline
 62
7
  6
CONTINUOUS
 70
0
 71
3
 72
9
 73
5
 74
0
 42
0.0000001
 43
0.0000001
 44
0.0000000001
 40
0.0
 40
0.0
 40
0.0
 40
0.0
 40
0.5002753569
 40
1.0
 40
1.0
 40
1.0
 40
1.0
 10
11.4497403078
 20
8.884734186
 30
0.0
 10
11.4532359871
 20
8.8927222881
 30
0.0
 10
11.460354481
 20
8.908632712
 30
0.0
 10
11.467805629
 20
8.924391652
 30
0.0
 10
11.4716490998
 20
8.9322076602
 30
0.0
  0
LINE
  5
36E
100
AcDbEntity
  8
0
100
AcDbLine
 62
7
  6
CONTINUOUS
 10
11.4716490998
 20
8.9322076602
 11
11.4726914959
 21
8.9343198556
  0
SPLINE
  5
36F
100
AcDbEntity
  8
0
100
AcDbSpline
 62
7
  6
CONTINUOUS
 70
0
 71
3
 72
9
 73
5
 74
0
 42
0.0000001
 43
0.0000001
 44
0.0000000001
 40
0.0
 40
0.0
 40
0.0
 40
0.0
 40
0.4965870671
 40
1.0
 40
1.0
 40
1.0
 40
1.0
 10
11.5643215202
 20
8.9343198556
 30
0.0
 10
11.5632276099
 20
8.926091818
 30
0.0
 10
11.5608040718
 20
8.9095522238
 30
0.0
 10
11.5581940316
 20
8.8930423424
 30
0.0
 10
11.5568602935
 20
8.884734186
 30
0.0
  0
SPLINE
  5
370
100
AcDbEntity
  8
0
100
AcDbSpline
 62
7
  6
CONTINUOUS
 70
0
 71
3
 72
11
 73
7
 74
0
 42
0.0000001
 43
0.0000001
 44
0.0000000001
 40
0.0
 40
0.0
 40
0.0
 40
0.0
 40
0.2305199898
 40
0.4736669731
 40
0.7300009812
 40
1.0
 40
1.0
 40
1.0
 40
1.0
 10
11.5568602935
 20
8.884734186
 30
0.0
 10
11.5372219377
 20
8.7920724018
 30
0.0
 10
11.5023517477
 20
8.6004811403
 30
0.0
 10
11.4635747091
 20
8.3029352516
 30
0.0
 10
11.4369594786
 20
7.98778404
 30
0.0
 10
11.427569598
 20
7.771656532
 30
0.0
 10
11.4247443326
 20
7.660750737
 30
0.0
  0
SPLINE
  5
371
100
AcDbEntity
  8
0
100
AcDbSpline
 62
7
  6
CONTINUOUS
 70
0
 71
3
 72
30
 73
26
 74
0
 42
0.0000001
 43
0.0000001
 44
0.0000000001
 40
0.0
 40
0.0
 40
0.0
 40
0.0
 40
0.1554764222
 40
0.2342617177
 40
0.2736271251
 40
0.3128589692
 40
0.3518534587
 40
0.3904976358
 40
0.4286472337
 40
0.4661254638
 40
0.5027037504
 40
0.5380875583
 40
0.5719662709
 40
0.6041131106
 40
0.6345434494
 40
0.6635582782
 40
0.6915394861
 40
0.7187728229
 40
0.7454085789
 40
0.7715044768
 40
0.8220490178
 40
0.8703121045
 40
0.9160762007
 40
0.9592588156
 40
1.0
 40
1.0
 40
1.0
 40
1.0
 10
11.1945118705
 20
7.660750737
 30
0.0
 10
11.1828599735
 20
7.6536653345
 30
0.0
 10
11.1655340082
 20
7.642611954
 30
0.0
 10
11.145459968
 20
7.6294583936
 30
0.0
 10
11.1338938184
 20
7.6219228959
 30
0.0
 10
11.1252208276
 20
7.616340517
 30
0.0
 10
11.1165378537
 20
7.6108913326
 30
0.0
 10
11.1078400424
 20
7.605646543
 30
0.0
 10
11.0991193327
 20
7.6007026003
 30
0.0
 10
11.0903749048
 20
7.5961791456
 30
0.0
 10
11.081612111
 20
7.5922436707
 30
0.0
 10
11.0728587813
 20
7.5891123972
 30
0.0
 10
11.064185157
 20
7.5870386812
 30
0.0
 10
11.0557221296
 20
7.5862725113
 30
0.0
 10
11.0476729907
 20
7.5869632912
 30
0.0
 10
11.040239564
 20
7.589004134
 30
0.0
 10
11.0335145014
 20
7.5921344516
 30
0.0
 10
11.027490876
 20
7.5960784273
 30
0.0
 10
11.0221194642
 20
7.6006113018
 30
0.0
 10
11.0158206332
 20
7.6071383536
 30
0.0
 10
11.0092969525
 20
7.6160069762
 30
0.0
 10
11.0033600818
 20
7.6272561855
 30
0.0
 10
10.9992409087
 20
7.6386063888
 30
0.0
 10
10.9969172587
 20
7.6497820289
 30
0.0
 10
10.9966051057
 20
7.6571829621
 30
0.0
 10
10.9968067731
 20
7.660750737
 30
0.0
  0
SPLINE
  5
372
100
AcDbEntity
  8
0
100
AcDbSpline
 62
7
  6
CONTINUOUS
 70
0
 71
3
 72
9
 73
5
 74
0
 42
0.0000001
 43
0.0000001
 44
0.0000000001
 40
0.0
 40
0.0
 40
0.0
 40
0.0
 40
0.499650814
 40
1.0
 40
1.0
 40
1.0
 40
1.0
 10
11.3577542908
 20
8.884734186
 30
0.0
 10
11.362522122
 20
8.8927511086
 30
0.0
 10
11.3721965706
 20
8.9087179747
 30
0.0
 10
11.3821840733
 20
8.9244920891
 30
0.0
 10
11.3872853268
 20
8.9323166566
 30
0.0
  0
LINE
  5
373
100
AcDbEntity
  8
0
100
AcDbLine
 62
7
  6
CONTINUOUS
 10
11.3872853268
 20
8.9323166566
 11
11.3885946391
 21
8.9343198556
  0
LINE
  5
374
100
AcDbEntity
  8
0
100
AcDbLine
 62
7
  6
CONTINUOUS
 10
11.4672791248
 20
8.9343198556
 11
11.4497403078
 21
8.884734186
  0
SPLINE
  5
375
100
AcDbEntity
  8
0
100
AcDbSpline
 62
7
  6
CONTINUOUS
 70
0
 71
3
 72
13
 73
9
 74
0
 42
0.0000001
 43
0.0000001
 44
0.0000000001
 40
0.0
 40
0.0
 40
0.0
 40
0.0
 40
0.1171911411
 40
0.2361332144
 40
0.3570842992
 40
0.4802898503
 40
0.7343268558
 40
1.0
 40
1.0
 40
1.0
 40
1.0
 10
11.4497403078
 20
8.884734186
 30
0.0
 10
11.4311479661
 20
8.839323731
 30
0.0
 10
11.3959209956
 20
8.7468923125
 30
0.0
 10
11.3493301266
 20
8.6047682456
 30
0.0
 10
11.3086288438
 20
8.4582287326
 30
0.0
 10
11.2617385251
 20
8.2549083407
 30
0.0
 10
11.2182332366
 20
7.9889254597
 30
0.0
 10
11.1999797029
 20
7.7718564558
 30
0.0
 10
11.1945118705
 20
7.660750737
 30
0.0
  0
SPLINE
  5
376
100
AcDbEntity
  8
0
100
AcDbSpline
 62
7
  6
CONTINUOUS
 70
0
 71
3
 72
30
 73
26
 74
0
 42
0.0000001
 43
0.0000001
 44
0.0000000001
 40
0.0
 40
0.0
 40
0.0
 40
0.0
 40
0.083160584
 40
0.1660087529
 40
0.2480298561
 40
0.3287527109
 40
0.4075796384
 40
0.4836842151
 40
0.5203681384
 40
0.5558803873
 40
0.5899677909
 40
0.6223158333
 40
0.6526134283
 40
0.6806232678
 40
0.7063662066
 40
0.7302499296
 40
0.7529436744
 40
0.7750872586
 40
0.7971122242
 40
0.8192221784
 40
0.8414954779
 40
0.8639227608
 40
0.9090980164
 40
0.9545244905
 40
1.0
 40
1.0
 40
1.0
 40
1.0
 10
10.9968067731
 20
7.660750737
 30
0.0
 10
10.991696489
 20
7.6577755775
 30
0.0
 10
10.981579742
 20
7.6516901412
 30
0.0
 10
10.9666925416
 20
7.6422315257
 30
0.0
 10
10.9521399797
 20
7.6325767381
 30
0.0
 10
10.9379551069
 20
7.6228887768
 30
0.0
 10
10.9241537762
 20
7.613386495
 30
0.0
 10
10.9128383572
 20
7.6057936865
 30
0.0
 10
10.903916625
 20
7.6001702186
 30
0.0
 10
10.8974069403
 20
7.596328074
 30
0.0
 10
10.891008829
 20
7.5929133969
 30
0.0
 10
10.8847447668
 20
7.5900570928
 30
0.0
 10
10.8786540907
 20
7.587910318
 30
0.0
 10
10.8727938295
 20
7.5866355745
 30
0.0
 10
10.8672471194
 20
7.5863726647
 30
0.0
 10
10.8621288541
 20
7.5871833507
 30
0.0
 10
10.8575455154
 20
7.5889805557
 30
0.0
 10
10.8535329139
 20
7.5915829087
 30
0.0
 10
10.8500707655
 20
7.5948098537
 30
0.0
 10
10.8471123393
 20
7.5985081161
 30
0.0
 10
10.8446185836
 20
7.6025638591
 30
0.0
 10
10.841859973
 20
7.6083389708
 30
0.0
 10
10.8394396425
 20
7.6160498777
 30
0.0
 10
10.8380234637
 20
7.6256544046
 30
0.0
 10
10.8380126066
 20
7.6321441449
 30
0.0
 10
10.8382342843
 20
7.6353701398
 30
0.0
  0
LINE
  5
377
100
AcDbEntity
  8
0
100
AcDbLine
 62
7
  6
CONTINUOUS
 10
11.3226450313
 20
8.9328204935
 11
11.3237987272
 21
8.9343198556
  0
LINE
  5
378
100
AcDbEntity
  8
0
100
AcDbLine
 62
7
  6
CONTINUOUS
 10
11.3841754566
 20
8.9343198556
 11
11.3577542908
 21
8.884734186
  0
SPLINE
  5
379
100
AcDbEntity
  8
0
100
AcDbSpline
 62
7
  6
CONTINUOUS
 70
0
 71
3
 72
30
 73
26
 74
0
 42
0.0000001
 43
0.0000001
 44
0.0000000001
 40
0.0
 40
0.0
 40
0.0
 40
0.0
 40
0.0907791029
 40
0.1798189505
 40
0.2668650158
 40
0.3515625015
 40
0.4334447606
 40
0.511847039
 40
0.5858692827
 40
0.6542326177
 40
0.6857432166
 40
0.7150940171
 40
0.7420073163
 40
0.766243869
 40
0.7877254694
 40
0.8066737782
 40
0.8237315326
 40
0.8398847932
 40
0.8561342401
 40
0.873185081
 40
0.8914035045
 40
0.9108803268
 40
0.9315843766
 40
0.9534203196
 40
1.0
 40
1.0
 40
1.0
 40
1.0
 10
10.8286090622
 20
7.6504022089
 30
0.0
 10
10.8250620013
 20
7.6480704978
 30
0.0
 10
10.8180981273
 20
7.6433563201
 30
0.0
 10
10.8079407471
 20
7.6361057963
 30
0.0
 10
10.7981760529
 20
7.6288002721
 30
0.0
 10
10.7888111713
 20
7.6215229597
 30
0.0
 10
10.7798600783
 20
7.6143741439
 30
0.0
 10
10.7713333813
 20
7.6074941082
 30
0.0
 10
10.7632548036
 20
7.6010661925
 30
0.0
 10
10.7567662837
 20
7.5961604872
 30
0.0
 10
10.7517829325
 20
7.5927407316
 30
0.0
 10
10.7482963986
 20
7.5905714899
 30
0.0
 10
10.744976208
 20
7.5887904884
 30
0.0
 10
10.7418434634
 20
7.5874615718
 30
0.0
 10
10.7389176812
 20
7.5866527337
 30
0.0
 10
10.7362193603
 20
7.5864165727
 30
0.0
 10
10.7337819526
 20
7.5868045241
 30
0.0
 10
10.7316599
 20
7.5877986529
 30
0.0
 10
10.7298878857
 20
7.5893219529
 30
0.0
 10
10.7284496073
 20
7.5912744264
 30
0.0
 10
10.7273162604
 20
7.593581374
 30
0.0
 10
10.7264591479
 20
7.5961812547
 30
0.0
 10
10.7258613485
 20
7.5990239877
 30
0.0
 10
10.7253794973
 20
7.6031673206
 30
0.0
 10
10.7253869024
 20
7.6063803141
 30
0.0
 10
10.7255196128
 20
7.6085543288
 30
0.0
  0
SPLINE
  5
37A
100
AcDbEntity
  8
0
100
AcDbSpline
 62
9
  6
CONTINUOUS
 70
0
 71
3
 72
9
 73
5
 74
0
 42
0.0000001
 43
0.0000001
 44
0.0000000001
 40
0.0
 40
0.0
 40
0.0
 40
0.0
 40
0.5004003344
 40
1.0
 40
1.0
 40
1.0
 40
1.0
 10
8.8526049263
 20
10.3166741108
 30
0.0
 10
8.8807379595
 20
10.3302661578
 30
0.0
 10
8.9385414185
 20
10.3542209998
 30
0.0
 10
8.9983737165
 20
10.3724334031
 30
0.0
 10
9.0286222431
 20
10.3800568178
 30
0.0
  0
LINE
  5
37B
100
AcDbEntity
  8
0
100
AcDbLine
 62
7
  6
CONTINUOUS
 10
11.3206738933
 20
8.9343198556
 11
11.2871709373
 21
8.884734186
  0
SPLINE
  5
37C
100
AcDbEntity
  8
0
100
AcDbSpline
 62
9
  6
CONTINUOUS
 70
0
 71
3
 72
12
 73
8
 74
0
 42
0.0000001
 43
0.0000001
 44
0.0000000001
 40
0.0
 40
0.0
 40
0.0
 40
0.0
 40
0.2499848973
 40
0.4999798931
 40
0.6249901101
 40
0.7500085285
 40
1.0
 40
1.0
 40
1.0
 40
1.0
 10
8.8513668325
 20
10.3191282287
 30
0.0
 10
8.8653046718
 20
10.3263585579
 30
0.0
 10
8.8936239122
 20
10.3399790002
 30
0.0
 10
8.9299026065
 20
10.3550232215
 30
0.0
 10
8.9593582148
 20
10.3659288625
 30
0.0
 10
8.9890736063
 20
10.3761021898
 30
0.0
 10
9.0116392478
 20
10.3829005842
 30
0.0
 10
9.0267837325
 20
10.3870477006
 30
0.0
  0
LINE
  5
37D
100
AcDbEntity
  8
0
100
AcDbLine
 62
9
  6
CONTINUOUS
 10
8.850792015
 20
10.3158424113
 11
8.8496522658
 21
10.3182117338
  0
SPLINE
  5
37E
100
AcDbEntity
  8
0
100
AcDbSpline
 62
7
  6
CONTINUOUS
 70
0
 71
3
 72
9
 73
5
 74
0
 42
0.0000001
 43
0.0000001
 44
0.0000000001
 40
0.0
 40
0.0
 40
0.0
 40
0.0
 40
0.4902687236
 40
1.0
 40
1.0
 40
1.0
 40
1.0
 10
11.9122376257
 20
7.4043198556
 30
0.0
 10
11.9125962563
 20
7.4083942745
 30
0.0
 10
11.913121454
 20
7.4167237251
 30
0.0
 10
11.9132925552
 20
7.4250673132
 30
0.0
 10
11.9132925552
 20
7.4293198556
 30
0.0
  0
SPLINE
  5
37F
100
AcDbEntity
  8
0
100
AcDbSpline
 62
9
  6
CONTINUOUS
 70
0
 71
3
 72
11
 73
7
 74
0
 42
0.0000001
 43
0.0000001
 44
0.0000000001
 40
0.0
 40
0.0
 40
0.0
 40
0.0
 40
0.2309515858
 40
0.4775863938
 40
0.7356349877
 40
1.0
 40
1.0
 40
1.0
 40
1.0
 10
8.8246365698
 20
10.2972826918
 30
0.0
 10
8.8261469477
 20
10.2993098167
 30
0.0
 10
8.8295746977
 20
10.3032783273
 30
0.0
 10
8.8354939703
 20
10.3087569637
 30
0.0
 10
8.8422329447
 20
10.3138243722
 30
0.0
 10
8.847119922
 20
10.3168115035
 30
0.0
 10
8.8496523525
 20
10.318211556
 30
0.0
  0
SPLINE
  5
380
100
AcDbEntity
  8
0
100
AcDbSpline
 62
9
  6
CONTINUOUS
 70
0
 71
3
 72
11
 73
7
 74
0
 42
0.0000001
 43
0.0000001
 44
0.0000000001
 40
0.0
 40
0.0
 40
0.0
 40
0.0
 40
0.245524721
 40
0.4323685801
 40
0.6208492977
 40
1.0
 40
1.0
 40
1.0
 40
1.0
 10
8.7299201598
 20
10.4431437561
 30
0.0
 10
8.7396502632
 20
10.4505857258
 30
0.0
 10
8.7572526822
 20
10.4630917723
 30
0.0
 10
8.7835287994
 20
10.4795178277
 30
0.0
 10
8.8164210432
 20
10.4978454585
 30
0.0
 10
8.8421657992
 20
10.5097898805
 30
0.0
 10
8.8596952274
 20
10.5169005523
 30
0.0
  0
SPLINE
  5
381
100
AcDbEntity
  8
0
100
AcDbSpline
 62
9
  6
CONTINUOUS
 70
0
 71
3
 72
10
 73
6
 74
0
 42
0.0000001
 43
0.0000001
 44
0.0000000001
 40
0.0
 40
0.0
 40
0.0
 40
0.0
 40
0.5073730764
 40
0.756397758
 40
1.0
 40
1.0
 40
1.0
 40
1.0
 10
8.776931719
 20
10.3998804315
 30
0.0
 10
8.7692038315
 20
10.4074368941
 30
0.0
 10
8.7576475202
 20
10.4186695886
 30
0.0
 10
8.7419070913
 20
10.4330267147
 30
0.0
 10
8.7339339613
 20
10.4398545641
 30
0.0
 10
8.7299201852
 20
10.4431437856
 30
0.0
  0
SPLINE
  5
382
100
AcDbEntity
  8
0
100
AcDbSpline
 62
9
  6
CONTINUOUS
 70
0
 71
3
 72
13
 73
9
 74
0
 42
0.0000001
 43
0.0000001
 44
0.0000000001
 40
0.0
 40
0.0
 40
0.0
 40
0.0
 40
0.1093711449
 40
0.2250324748
 40
0.3461452875
 40
0.4717482499
 40
0.7324975926
 40
1.0
 40
1.0
 40
1.0
 40
1.0
 10
8.8511619489
 20
10.3190207452
 30
0.0
 10
8.8488800616
 20
10.3223143795
 30
0.0
 10
8.8439623246
 20
10.3289377362
 30
0.0
 10
8.8359222902
 20
10.3387484206
 30
0.0
 10
8.8271448799
 20
10.3487115515
 30
0.0
 10
8.8144967144
 20
10.3623390317
 30
0.0
 10
8.7977365633
 20
10.3794583895
 30
0.0
 10
8.783938509
 20
10.3930286507
 30
0.0
 10
8.7769315212
 20
10.3998802286
 30
0.0
  0
SPLINE
  5
383
100
AcDbEntity
  8
0
100
AcDbSpline
 62
9
  6
CONTINUOUS
 70
0
 71
3
 72
11
 73
7
 74
0
 42
0.0000001
 43
0.0000001
 44
0.0000000001
 40
0.0
 40
0.0
 40
0.0
 40
0.0
 40
0.2336331234
 40
0.48245149
 40
0.7400685907
 40
1.0
 40
1.0
 40
1.0
 40
1.0
 10
8.7097105748
 20
10.4262841788
 30
0.0
 10
8.7114393124
 20
10.4273928041
 30
0.0
 10
8.7149215163
 20
10.4298200448
 30
0.0
 10
8.7200271079
 20
10.4338565115
 30
0.0
 10
8.7250808979
 20
10.4383152529
 30
0.0
 10
8.7283325077
 20
10.4415006296
 30
0.0
 10
8.7299201597
 20
10.4431437561
 30
0.0
  0
SPLINE
  5
384
100
AcDbEntity
  8
0
100
AcDbSpline
 62
9
  6
CONTINUOUS
 70
0
 71
3
 72
9
 73
5
 74
0
 42
0.0000001
 43
0.0000001
 44
0.0000000001
 40
0.0
 40
0.0
 40
0.0
 40
0.0
 40
0.4902869329
 40
1.0
 40
1.0
 40
1.0
 40
1.0
 10
8.7060222585
 20
10.4607340685
 30
0.0
 10
8.7101045358
 20
10.4581124471
 30
0.0
 10
8.7182344993
 20
10.4524566736
 30
0.0
 10
8.7260217035
 20
10.4463440904
 30
0.0
 10
8.7299201576
 20
10.4431437579
 30
0.0
  0
SPLINE
  5
385
100
AcDbEntity
  8
0
100
AcDbSpline
 62
9
  6
CONTINUOUS
 70
0
 71
3
 72
12
 73
8
 74
0
 42
0.0000001
 43
0.0000001
 44
0.0000000001
 40
0.0
 40
0.0
 40
0.0
 40
0.0
 40
0.2317156777
 40
0.3526019551
 40
0.4766089433
 40
0.7333009796
 40
1.0
 40
1.0
 40
1.0
 40
1.0
 10
8.7031695707
 20
10.432081285
 30
0.0
 10
8.7034126791
 20
10.434292568
 30
0.0
 10
8.703836075
 20
10.4376513775
 30
0.0
 10
8.7043966363
 20
10.4421926089
 30
0.0
 10
8.7049492926
 20
10.4469763752
 30
0.0
 10
8.7055757186
 20
10.4531604916
 30
0.0
 10
8.7059194169
 20
10.4581756674
 30
0.0
 10
8.7060222585
 20
10.4607340685
 30
0.0
  0
SPLINE
  5
386
100
AcDbEntity
  8
0
100
AcDbSpline
 62
9
  6
CONTINUOUS
 70
0
 71
3
 72
11
 73
7
 74
0
 42
0.0000001
 43
0.0000001
 44
0.0000000001
 40
0.0
 40
0.0
 40
0.0
 40
0.0
 40
0.2452454504
 40
0.4940628628
 40
0.745904533
 40
1.0
 40
1.0
 40
1.0
 40
1.0
 10
8.6437544006
 20
10.493422159
 30
0.0
 10
8.6505341516
 20
10.4948721644
 30
0.0
 10
8.6643203809
 20
10.4972179826
 30
0.0
 10
8.6853310367
 20
10.4991995073
 30
0.0
 10
8.7066793634
 20
10.4996908143
 30
0.0
 10
8.7209795049
 20
10.4990414117
 30
0.0
 10
8.7281416154
 20
10.4984905281
 30
0.0
  0
LINE
  5
387
100
AcDbEntity
  8
0
100
AcDbLine
 62
9
  6
CONTINUOUS
 10
8.6375148952
 20
10.4895823084
 11
8.6437542665
 21
10.4934224777
  0
SPLINE
  5
388
100
AcDbEntity
  8
0
100
AcDbSpline
 62
9
  6
CONTINUOUS
 70
0
 71
3
 72
11
 73
7
 74
0
 42
0.0000001
 43
0.0000001
 44
0.0000000001
 40
0.0
 40
0.0
 40
0.0
 40
0.0
 40
0.2240333289
 40
0.4677806599
 40
0.7276732111
 40
1.0
 40
1.0
 40
1.0
 40
1.0
 10
8.6259938597
 20
10.4427285205
 30
0.0
 10
8.6273403307
 20
10.4460796822
 30
0.0
 10
8.6298455101
 20
10.4532015275
 30
0.0
 10
8.632980035
 20
10.4645127337
 30
0.0
 10
8.6356029222
 20
10.4767504153
 30
0.0
 10
8.636942359
 20
10.4852297094
 30
0.0
 10
8.6375149118
 20
10.4895822781
 30
0.0
  0
SPLINE
  5
389
100
AcDbEntity
  8
0
100
AcDbSpline
 62
9
  6
CONTINUOUS
 70
0
 71
3
 72
9
 73
5
 74
0
 42
0.0000001
 43
0.0000001
 44
0.0000000001
 40
0.0
 40
0.0
 40
0.0
 40
0.0
 40
0.5189946659
 40
1.0
 40
1.0
 40
1.0
 40
1.0
 10
8.7027752783
 20
10.4602109813
 30
0.0
 10
8.7030130594
 20
10.4553497167
 30
0.0
 10
8.7031589875
 20
10.4459691365
 30
0.0
 10
8.7031059238
 20
10.4365916596
 30
0.0
 10
8.7031691263
 20
10.4320812858
 30
0.0
  0
LINE
  5
38A
100
AcDbEntity
  8
0
100
AcDbLine
 62
9
  6
CONTINUOUS
 10
8.706022272
 20
10.4607340332
 11
8.7027754053
 21
10.4602109898
  0
SPLINE
  5
38B
100
AcDbEntity
  8
0
100
AcDbSpline
 62
9
  6
CONTINUOUS
 70
0
 71
3
 72
14
 73
10
 74
0
 42
0.0000001
 43
0.0000001
 44
0.0000000001
 40
0.0
 40
0.0
 40
0.0
 40
0.0
 40
0.1161419201
 40
0.2360495409
 40
0.3591415404
 40
0.4849154806
 40
0.6126837333
 40
0.7414135879
 40
1.0
 40
1.0
 40
1.0
 40
1.0
 10
8.702775406
 20
10.4602109825
 30
0.0
 10
8.7026644489
 20
10.4620548076
 30
0.0
 10
8.702900349
 20
10.4658392589
 30
0.0
 10
8.7044291324
 20
10.4713775262
 30
0.0
 10
8.7069937941
 20
10.4766814633
 30
0.0
 10
8.710343119
 20
10.4816657691
 30
0.0
 10
8.7142755908
 20
10.4863148214
 30
0.0
 10
8.720069871
 20
10.4921152682
 30
0.0
 10
8.7248546044
 20
10.496021151
 30
0.0
 10
8.7281427465
 20
10.49849137
 30
0.0
  0
SPLINE
  5
38C
100
AcDbEntity
  8
0
100
AcDbSpline
 62
9
  6
CONTINUOUS
 70
0
 71
3
 72
14
 73
10
 74
0
 42
0.0000001
 43
0.0000001
 44
0.0000000001
 40
0.0
 40
0.0
 40
0.0
 40
0.0
 40
0.113696001
 40
0.2311146917
 40
0.3530732022
 40
0.4792851798
 40
0.6077515942
 40
0.737759876
 40
1.0
 40
1.0
 40
1.0
 40
1.0
 10
8.7060223296
 20
10.4607340679
 30
0.0
 10
8.7058831846
 20
10.4623878021
 30
0.0
 10
8.7060434229
 20
10.4657979623
 30
0.0
 10
8.707487498
 20
10.470789244
 30
0.0
 10
8.7100499291
 20
10.4755073202
 30
0.0
 10
8.7134016088
 20
10.4798836273
 30
0.0
 10
8.7173027424
 20
10.4839354038
 30
0.0
 10
8.7230405487
 20
10.4889297305
 30
0.0
 10
8.7277152916
 20
10.4922611975
 30
0.0
 10
8.730925794
 20
10.494345636
 30
0.0
  0
SPLINE
  5
38D
100
AcDbEntity
  8
0
100
AcDbSpline
 62
7
  6
CONTINUOUS
 70
0
 71
3
 72
21
 73
17
 74
0
 42
0.0000001
 43
0.0000001
 44
0.0000000001
 40
0.0
 40
0.0
 40
0.0
 40
0.0
 40
0.1843950732
 40
0.3626656416
 40
0.5283906065
 40
0.6760877447
 40
0.7415626799
 40
0.8006701875
 40
0.8529482949
 40
0.8979530447
 40
0.9353182196
 40
0.9648193812
 40
0.9765742427
 40
0.9863226397
 40
0.9940969187
 40
1.0
 40
1.0
 40
1.0
 40
1.0
 10
11.5907957681
 20
7.4293198556
 30
0.0
 10
11.5907957681
 20
7.4332674925
 30
0.0
 10
11.5908444535
 20
7.4410317444
 30
0.0
 10
11.5910648903
 20
7.452342056
 30
0.0
 10
11.5914263949
 20
7.4628626915
 30
0.0
 10
11.5918466809
 20
7.470964085
 30
0.0
 10
11.5922527864
 20
7.4767791862
 30
0.0
 10
11.5925698453
 20
7.4805523861
 30
0.0
 10
11.5929082557
 20
7.4838835152
 30
0.0
 10
11.5932645355
 20
7.4867444667
 30
0.0
 10
11.5936360675
 20
7.4891107774
 30
0.0
 10
11.5939727075
 20
7.4907613896
 30
0.0
 10
11.5942594391
 20
7.4918153414
 30
0.0
 10
11.5944593387
 20
7.4924101392
 30
0.0
 10
11.5946597899
 20
7.4928702725
 30
0.0
 10
11.5948136725
 20
7.4931222711
 30
0.0
 10
11.5948945408
 20
7.4932193863
 30
0.0
  0
SPLINE
  5
38E
100
AcDbEntity
  8
0
100
AcDbSpline
 62
9
  6
CONTINUOUS
 70
0
 71
3
 72
11
 73
7
 74
0
 42
0.0000001
 43
0.0000001
 44
0.0000000001
 40
0.0
 40
0.0
 40
0.0
 40
0.0
 40
0.268071015
 40
0.5241054586
 40
0.7680450221
 40
1.0
 40
1.0
 40
1.0
 40
1.0
 10
8.6260138336
 20
10.4826172358
 30
0.0
 10
8.616877873
 20
10.4812507173
 30
0.0
 10
8.5991346091
 20
10.4776811353
 30
0.0
 10
8.5738412014
 20
10.4697160267
 30
0.0
 10
8.5507379434
 20
10.4594638948
 30
0.0
 10
8.536618963
 20
10.4510190204
 30
0.0
 10
8.5300546527
 20
10.4464584572
 30
0.0
  0
SPLINE
  5
38F
100
AcDbEntity
  8
0
100
AcDbSpline
 62
9
  6
CONTINUOUS
 70
0
 71
3
 72
11
 73
7
 74
0
 42
0.0000001
 43
0.0000001
 44
0.0000000001
 40
0.0
 40
0.0
 40
0.0
 40
0.0
 40
0.256661667
 40
0.5112751936
 40
0.760382755
 40
1.0
 40
1.0
 40
1.0
 40
1.0
 10
8.6313903873
 20
10.4942114396
 30
0.0
 10
8.6307184183
 20
10.493331306
 30
0.0
 10
8.6294313571
 20
10.4915372824
 30
0.0
 10
8.6277616237
 20
10.4887060854
 30
0.0
 10
8.6265188886
 20
10.4857338036
 30
0.0
 10
8.6261031242
 20
10.48364735
 30
0.0
 10
8.6260138537
 20
10.4826174182
 30
0.0
  0
SPLINE
  5
390
100
AcDbEntity
  8
0
100
AcDbSpline
 62
7
  6
CONTINUOUS
 70
0
 71
3
 72
15
 73
11
 74
0
 42
0.0000001
 43
0.0000001
 44
0.0000000001
 40
0.0
 40
0.0
 40
0.0
 40
0.0
 40
0.1705476572
 40
0.3290124173
 40
0.4743582227
 40
0.6058397759
 40
0.7232034283
 40
0.8268623719
 40
0.9182001444
 40
1.0
 40
1.0
 40
1.0
 40
1.0
 10
11.3428249689
 20
9.1945095565
 30
0.0
 10
11.3416591918
 20
9.1918068662
 30
0.0
 10
11.3392026652
 20
9.18667881
 30
0.0
 10
11.3350388781
 20
9.1796180058
 30
0.0
 10
11.3306319975
 20
9.1735189908
 30
0.0
 10
11.3260865505
 20
9.1684382451
 30
0.0
 10
11.3214980363
 20
9.1644168638
 30
0.0
 10
11.3169440228
 20
9.1614858543
 30
0.0
 10
11.3124897547
 20
9.1596726524
 30
0.0
 10
11.3094938401
 20
9.1592245442
 30
0.0
 10
11.3080820984
 20
9.1592245442
 30
0.0
  0
SPLINE
  5
391
100
AcDbEntity
  8
0
100
AcDbSpline
 62
7
  6
CONTINUOUS
 70
0
 71
3
 72
9
 73
5
 74
0
 42
0.0000001
 43
0.0000001
 44
0.0000000001
 40
0.0
 40
0.0
 40
0.0
 40
0.0
 40
0.4992980904
 40
1.0
 40
1.0
 40
1.0
 40
1.0
 10
11.3080820984
 20
9.1592245442
 30
0.0
 10
11.3068663275
 20
9.1592245442
 30
0.0
 10
11.3044169318
 20
9.1595414813
 30
0.0
 10
11.3021550484
 20
9.1605325812
 30
0.0
 10
11.3011094767
 20
9.1611596393
 30
0.0
  0
SPLINE
  5
392
100
AcDbEntity
  8
0
100
AcDbSpline
 62
9
  6
CONTINUOUS
 70
0
 71
3
 72
10
 73
6
 74
0
 42
0.0000001
 43
0.0000001
 44
0.0000000001
 40
0.0
 40
0.0
 40
0.0
 40
0.0
 40
0.250062858
 40
0.6252060756
 40
1.0
 40
1.0
 40
1.0
 40
1.0
 10
8.6368953318
 20
10.5004305192
 30
0.0
 10
8.6364074776
 20
10.4999387681
 30
0.0
 10
8.6352039122
 20
10.4986932428
 30
0.0
 10
8.6333396144
 20
10.4966432769
 30
0.0
 10
8.6320238545
 20
10.4950339894
 30
0.0
 10
8.6313903873
 20
10.4942114396
 30
0.0
  0
SPLINE
  5
393
100
AcDbEntity
  8
0
100
AcDbSpline
 62
9
  6
CONTINUOUS
 70
0
 71
3
 72
13
 73
9
 74
0
 42
0.0000001
 43
0.0000001
 44
0.0000000001
 40
0.0
 40
0.0
 40
0.0
 40
0.0
 40
0.2499958742
 40
0.3750331502
 40
0.5000474599
 40
0.6250507767
 40
0.7500660417
 40
1.0
 40
1.0
 40
1.0
 40
1.0
 10
8.7643425556
 20
10.5936306989
 30
0.0
 10
8.75260943
 20
10.5875646144
 30
0.0
 10
8.7353501533
 20
10.5777791512
 30
0.0
 10
8.7131412663
 20
10.5634615328
 30
0.0
 10
8.6969014119
 20
10.5520974454
 30
0.0
 10
8.6811154977
 20
10.5401121752
 30
0.0
 10
8.6607241372
 20
10.523313832
 30
0.0
 10
8.646195899
 20
10.5098047744
 30
0.0
 10
8.6368953318
 20
10.5004305192
 30
0.0
  0
SPLINE
  5
394
100
AcDbEntity
  8
0
100
AcDbSpline
 62
7
  6
CONTINUOUS
 70
0
 71
3
 72
15
 73
11
 74
0
 42
0.0000001
 43
0.0000001
 44
0.0000000001
 40
0.0
 40
0.0
 40
0.0
 40
0.0
 40
0.0818040864
 40
0.1731464915
 40
0.276809915
 40
0.3941761283
 40
0.5256566442
 40
0.6709989826
 40
0.8294579372
 40
1.0
 40
1.0
 40
1.0
 40
1.0
 10
11.3080820984
 20
9.3319151669
 30
0.0
 10
11.3094939348
 20
9.3319151669
 30
0.0
 10
11.3124900496
 20
9.3314669992
 30
0.0
 10
11.3169445632
 20
9.3296535851
 30
0.0
 10
11.3214987502
 20
9.3267223169
 30
0.0
 10
11.3260873174
 20
9.3227006972
 30
0.0
 10
11.3306327243
 20
9.3176198215
 30
0.0
 10
11.3350394622
 20
9.311520781
 30
0.0
 10
11.3392031072
 20
9.3044600478
 30
0.0
 10
11.3416595602
 20
9.2993320774
 30
0.0
 10
11.3428252913
 20
9.2966294231
 30
0.0
  0
SPLINE
  5
395
100
AcDbEntity
  8
0
100
AcDbSpline
 62
7
  6
CONTINUOUS
 70
0
 71
3
 72
13
 73
9
 74
0
 42
0.0000001
 43
0.0000001
 44
0.0000000001
 40
0.0
 40
0.0
 40
0.0
 40
0.0
 40
0.2784846342
 40
0.5387481018
 40
0.661409867
 40
0.7788881147
 40
0.8915152572
 40
1.0
 40
1.0
 40
1.0
 40
1.0
 10
11.4530857596
 20
9.1985195748
 30
0.0
 10
11.4496199391
 20
9.1925315699
 30
0.0
 10
11.4415801199
 20
9.1816603331
 30
0.0
 10
11.428885737
 20
9.1709613902
 30
0.0
 10
11.4180061985
 20
9.164881764
 30
0.0
 10
11.4098306837
 20
9.1616458152
 30
0.0
 10
11.4016225634
 20
9.159679577
 30
0.0
 10
11.3961208987
 20
9.1592245442
 30
0.0
 10
11.3934257013
 20
9.1592245442
 30
0.0
  0
SPLINE
  5
396
100
AcDbEntity
  8
0
100
AcDbSpline
 62
7
  6
CONTINUOUS
 70
0
 71
3
 72
11
 73
7
 74
0
 42
0.0000001
 43
0.0000001
 44
0.0000000001
 40
0.0
 40
0.0
 40
0.0
 40
0.0
 40
0.2507504516
 40
0.497876235
 40
0.7459985642
 40
1.0
 40
1.0
 40
1.0
 40
1.0
 10
11.3934257013
 20
9.1592245442
 30
0.0
 10
11.3907201661
 20
9.1592245442
 30
0.0
 10
11.3853354128
 20
9.1596720508
 30
0.0
 10
11.3775165584
 20
9.161753127
 30
0.0
 10
11.3701652224
 20
9.1652163525
 30
0.0
 10
11.3657198122
 20
9.1683669089
 30
0.0
 10
11.363619153
 20
9.1701270759
 30
0.0
  0
LINE
  5
397
100
AcDbEntity
  8
0
100
AcDbLine
 62
9
  6
CONTINUOUS
 10
8.7207266934
 20
10.6242600161
 11
8.7217600694
 21
10.6247813172
  0
SPLINE
  5
398
100
AcDbEntity
  8
0
100
AcDbSpline
 62
9
  6
CONTINUOUS
 70
0
 71
3
 72
11
 73
7
 74
0
 42
0.0000001
 43
0.0000001
 44
0.0000000001
 40
0.0
 40
0.0
 40
0.0
 40
0.0
 40
0.2501355996
 40
0.5002089686
 40
0.7501646358
 40
1.0
 40
1.0
 40
1.0
 40
1.0
 10
8.5351638194
 20
10.4569796011
 30
0.0
 10
8.5464009519
 20
10.4748054007
 30
0.0
 10
8.5714360774
 20
10.5089020634
 30
0.0
 10
8.6156028182
 20
10.5543655127
 30
0.0
 10
8.6654897689
 20
10.5934177677
 30
0.0
 10
8.7019150953
 20
10.614821348
 30
0.0
 10
8.7207258544
 20
10.6242618101
 30
0.0
  0
SPLINE
  5
399
100
AcDbEntity
  8
0
100
AcDbSpline
 62
7
  6
CONTINUOUS
 70
0
 71
3
 72
13
 73
9
 74
0
 42
0.0000001
 43
0.0000001
 44
0.0000000001
 40
0.0
 40
0.0
 40
0.0
 40
0.0
 40
0.10849068
 40
0.2211227708
 40
0.3386046182
 40
0.4612668958
 40
0.7215232682
 40
1.0
 40
1.0
 40
1.0
 40
1.0
 10
11.3934257013
 20
9.3319151669
 30
0.0
 10
11.3961210464
 20
9.3319151669
 30
0.0
 10
11.401622984
 20
9.3314600914
 30
0.0
 10
11.4098314327
 20
9.3294936633
 30
0.0
 10
11.4180071134
 20
9.3262575173
 30
0.0
 10
11.4288864957
 20
9.3201777613
 30
0.0
 10
11.4415804756
 20
9.3094789218
 30
0.0
 10
11.4496200372
 20
9.2986079718
 30
0.0
 10
11.4530857596
 20
9.2926201363
 30
0.0
  0
SPLINE
  5
39A
100
AcDbEntity
  8
0
100
AcDbSpline
 62
7
  6
CONTINUOUS
 70
0
 71
3
 72
13
 73
9
 74
0
 42
0.0000001
 43
0.0000001
 44
0.0000000001
 40
0.0
 40
0.0
 40
0.0
 40
0.0
 40
0.1286302097
 40
0.2566504805
 40
0.5095305167
 40
0.7575090633
 40
0.8795107918
 40
1.0
 40
1.0
 40
1.0
 40
1.0
 10
11.5950069844
 20
9.1985195748
 30
0.0
 10
11.5929074414
 20
9.1954443753
 30
0.0
 10
11.5883190421
 20
9.1895700027
 30
0.0
 10
11.5778417653
 20
9.1791456778
 30
0.0
 10
11.5626727298
 20
9.1687454583
 30
0.0
 10
11.5456524829
 20
9.1622665848
 30
0.0
 10
11.5316669047
 20
9.1596642624
 30
0.0
 10
11.5246393294
 20
9.1592245442
 30
0.0
 10
11.5211514291
 20
9.1592245442
 30
0.0
  0
SPLINE
  5
39B
100
AcDbEntity
  8
0
100
AcDbSpline
 62
7
  6
CONTINUOUS
 70
0
 71
3
 72
15
 73
11
 74
0
 42
0.0000001
 43
0.0000001
 44
0.0000000001
 40
0.0
 40
0.0
 40
0.0
 40
0.0
 40
0.1255798719
 40
0.2499244982
 40
0.373453923
 40
0.4967178057
 40
0.620369075
 40
0.7450804045
 40
0.8714753087
 40
1.0
 40
1.0
 40
1.0
 40
1.0
 10
11.5211514291
 20
9.1592245442
 30
0.0
 10
11.5177041921
 20
9.1592245442
 30
0.0
 10
11.510835389
 20
9.1596491128
 30
0.0
 10
11.5007401335
 20
9.1615824173
 30
0.0
 10
11.4910400571
 20
9.164793715
 30
0.0
 10
11.481868494
 20
9.1692555224
 30
0.0
 10
11.4733504685
 20
9.1749247034
 30
0.0
 10
11.4656039289
 20
9.1817407825
 30
0.0
 10
11.4587408191
 20
9.1896208074
 30
0.0
 10
11.4548531015
 20
9.1954660836
 30
0.0
 10
11.4530857596
 20
9.1985195748
 30
0.0
  0
SPLINE
  5
39C
100
AcDbEntity
  8
0
100
AcDbSpline
 62
7
  6
CONTINUOUS
 70
0
 71
3
 72
15
 73
11
 74
0
 42
0.0000001
 43
0.0000001
 44
0.0000000001
 40
0.0
 40
0.0
 40
0.0
 40
0.0
 40
0.1154269549
 40
0.2389850742
 40
0.3680404596
 40
0.5000000513
 40
0.631959642
 40
0.7610150004
 40
0.8845730698
 40
1.0
 40
1.0
 40
1.0
 40
1.0
 10
11.4530857596
 20
9.1985195748
 30
0.0
 10
11.4514596575
 20
9.2018726613
 30
0.0
 10
11.4486031178
 20
9.2090684149
 30
0.0
 10
11.4455601329
 20
9.2205782856
 30
0.0
 10
11.4436982364
 20
9.2328773136
 30
0.0
 10
11.4430734546
 20
9.2455698605
 30
0.0
 10
11.4436982373
 20
9.2582624066
 30
0.0
 10
11.4455601346
 20
9.2705614318
 30
0.0
 10
11.4486031181
 20
9.2820712995
 30
0.0
 10
11.4514596578
 20
9.2892670506
 30
0.0
 10
11.4530857596
 20
9.2926201363
 30
0.0
  0
SPLINE
  5
39D
100
AcDbEntity
  8
0
100
AcDbSpline
 62
7
  6
CONTINUOUS
 70
0
 71
3
 72
15
 73
11
 74
0
 42
0.0000001
 43
0.0000001
 44
0.0000000001
 40
0.0
 40
0.0
 40
0.0
 40
0.0
 40
0.1285259568
 40
0.2549269626
 40
0.3796423027
 40
0.5032970479
 40
0.6265608905
 40
0.7500871604
 40
0.8744268763
 40
1.0
 40
1.0
 40
1.0
 40
1.0
 10
11.4530857596
 20
9.2926201363
 30
0.0
 10
11.4548531188
 20
9.2956736574
 30
0.0
 10
11.4587409769
 20
9.3015190815
 30
0.0
 10
11.465604293
 20
9.3093993469
 30
0.0
 10
11.4733512229
 20
9.3162155515
 30
0.0
 10
11.4818694756
 20
9.3218847588
 30
0.0
 10
11.4910411181
 20
9.3263464227
 30
0.0
 10
11.5007410232
 20
9.3295575205
 30
0.0
 10
11.5108358972
 20
9.3314906351
 30
0.0
 10
11.5177043776
 20
9.3319151669
 30
0.0
 10
11.5211514291
 20
9.3319151669
 30
0.0
  0
SPLINE
  5
39E
100
AcDbEntity
  8
0
100
AcDbSpline
 62
7
  6
CONTINUOUS
 70
0
 71
3
 72
13
 73
9
 74
0
 42
0.0000001
 43
0.0000001
 44
0.0000000001
 40
0.0
 40
0.0
 40
0.0
 40
0.0
 40
0.1204957466
 40
0.242502539
 40
0.4904845536
 40
0.7433569904
 40
0.8713710907
 40
1.0
 40
1.0
 40
1.0
 40
1.0
 10
11.5211514291
 20
9.3319151669
 30
0.0
 10
11.5246395189
 20
9.3319151669
 30
0.0
 10
11.5316674324
 20
9.3314754089
 30
0.0
 10
11.5456534153
 20
9.3288728612
 30
0.0
 10
11.5626736244
 20
9.3223937872
 30
0.0
 10
11.5778422663
 20
9.3119935524
 30
0.0
 10
11.5883192241
 20
9.301569529
 30
0.0
 10
11.5929074625
 20
9.2956953049
 30
0.0
 10
11.5950069844
 20
9.2926201363
 30
0.0
  0
SPLINE
  5
39F
100
AcDbEntity
  8
0
100
AcDbSpline
 62
7
  6
CONTINUOUS
 70
0
 71
3
 72
13
 73
9
 74
0
 42
0.0000001
 43
0.0000001
 44
0.0000000001
 40
0.0
 40
0.0
 40
0.0
 40
0.0
 40
0.1248166356
 40
0.249576835
 40
0.3743693424
 40
0.4992987258
 40
0.7493108997
 40
1.0
 40
1.0
 40
1.0
 40
1.0
 10
11.7486214112
 20
9.1985195748
 30
0.0
 10
11.7465190422
 20
9.195440236
 30
0.0
 10
11.7419048905
 20
9.189552306
 30
0.0
 10
11.7339114507
 20
9.1816902044
 30
0.0
 10
11.72498741
 20
9.1748942758
 30
0.0
 10
11.7120615513
 20
9.1673621131
 30
0.0
 10
11.6943138581
 20
9.1609445368
 30
0.0
 10
11.679302891
 20
9.1592245442
 30
0.0
 10
11.6718141978
 20
9.1592245442
 30
0.0
  0
SPLINE
  5
3A0
100
AcDbEntity
  8
0
100
AcDbSpline
 62
7
  6
CONTINUOUS
 70
0
 71
3
 72
13
 73
9
 74
0
 42
0.0000001
 43
0.0000001
 44
0.0000000001
 40
0.0
 40
0.0
 40
0.0
 40
0.0
 40
0.2507008858
 40
0.5007162775
 40
0.6256420788
 40
0.7504304581
 40
0.8751846204
 40
1.0
 40
1.0
 40
1.0
 40
1.0
 10
11.6718141978
 20
9.1592245442
 30
0.0
 10
11.6643251527
 20
9.1592245442
 30
0.0
 10
11.6493137282
 20
9.1609446773
 30
0.0
 10
11.6315657978
 20
9.1673626019
 30
0.0
 10
11.6186401251
 20
9.1748948186
 30
0.0
 10
11.6097165148
 20
9.181690628
 30
0.0
 10
11.6017233193
 20
9.1895524843
 30
0.0
 10
11.5971093322
 20
9.1954402671
 30
0.0
 10
11.5950069844
 20
9.1985195748
 30
0.0
  0
SPLINE
  5
3A1
100
AcDbEntity
  8
0
100
AcDbSpline
 62
7
  6
CONTINUOUS
 70
0
 71
3
 72
15
 73
11
 74
0
 42
0.0000001
 43
0.0000001
 44
0.0000000001
 40
0.0
 40
0.0
 40
0.0
 40
0.0
 40
0.110876976
 40
0.2338171971
 40
0.3648246908
 40
0.5000000528
 40
0.6351754134
 40
0.7661828785
 40
0.8891230497
 40
1.0
 40
1.0
 40
1.0
 40
1.0
 10
11.5950069844
 20
9.1985195748
 30
0.0
 10
11.5944209709
 20
9.201960758
 30
0.0
 10
11.593413469
 20
9.2092568308
 30
0.0
 10
11.5923577892
 20
9.2206968112
 30
0.0
 10
11.5917095934
 20
9.2329333099
 30
0.0
 10
11.5914916629
 20
9.2455698605
 30
0.0
 10
11.5917095939
 20
9.2582064102
 30
0.0
 10
11.5923577899
 20
9.2704429064
 30
0.0
 10
11.5934134691
 20
9.2818828836
 30
0.0
 10
11.5944209711
 20
9.2891789539
 30
0.0
 10
11.5950069844
 20
9.2926201363
 30
0.0
  0
SPLINE
  5
3A2
100
AcDbEntity
  8
0
100
AcDbSpline
 62
7
  6
CONTINUOUS
 70
0
 71
3
 72
13
 73
9
 74
0
 42
0.0000001
 43
0.0000001
 44
0.0000000001
 40
0.0
 40
0.0
 40
0.0
 40
0.0
 40
0.1248166354
 40
0.2495768346
 40
0.3743693422
 40
0.4992987257
 40
0.7493108996
 40
1.0
 40
1.0
 40
1.0
 40
1.0
 10
11.5950069844
 20
9.2926201363
 30
0.0
 10
11.5971093534
 20
9.2956994751
 30
0.0
 10
11.6017235051
 20
9.3015874051
 30
0.0
 10
11.6097169449
 20
9.3094495067
 30
0.0
 10
11.6186409856
 20
9.3162454353
 30
0.0
 10
11.6315668443
 20
9.323777598
 30
0.0
 10
11.6493145375
 20
9.3301951744
 30
0.0
 10
11.6643255046
 20
9.3319151669
 30
0.0
 10
11.6718141978
 20
9.3319151669
 30
0.0
  0
SPLINE
  5
3A3
100
AcDbEntity
  8
0
100
AcDbSpline
 62
7
  6
CONTINUOUS
 70
0
 71
3
 72
13
 73
9
 74
0
 42
0.0000001
 43
0.0000001
 44
0.0000000001
 40
0.0
 40
0.0
 40
0.0
 40
0.0
 40
0.2507008854
 40
0.5007162769
 40
0.6256420783
 40
0.7504304576
 40
0.8751846201
 40
1.0
 40
1.0
 40
1.0
 40
1.0
 10
11.6718141978
 20
9.3319151669
 30
0.0
 10
11.6793032429
 20
9.3319151669
 30
0.0
 10
11.6943146674
 20
9.3301950339
 30
0.0
 10
11.7120625977
 20
9.3237771093
 30
0.0
 10
11.7249882705
 20
9.3162448926
 30
0.0
 10
11.7339118807
 20
9.3094490832
 30
0.0
 10
11.7419050763
 20
9.3015872268
 30
0.0
 10
11.7465190634
 20
9.2956994441
 30
0.0
 10
11.7486214112
 20
9.2926201363
 30
0.0
  0
SPLINE
  5
3A4
100
AcDbEntity
  8
0
100
AcDbSpline
 62
7
  6
CONTINUOUS
 70
0
 71
3
 72
15
 73
11
 74
0
 42
0.0000001
 43
0.0000001
 44
0.0000000001
 40
0.0
 40
0.0
 40
0.0
 40
0.0
 40
0.128525957
 40
0.2549269628
 40
0.3796423028
 40
0.503297048
 40
0.6265608905
 40
0.7500871605
 40
0.8744268764
 40
1.0
 40
1.0
 40
1.0
 40
1.0
 10
11.890542636
 20
9.1985195748
 30
0.0
 10
11.8887752767
 20
9.1954660538
 30
0.0
 10
11.8848874187
 20
9.1896206296
 30
0.0
 10
11.8780241026
 20
9.1817403642
 30
0.0
 10
11.8702771727
 20
9.1749241596
 30
0.0
 10
11.86175892
 20
9.1692549523
 30
0.0
 10
11.8525872775
 20
9.1647932884
 30
0.0
 10
11.8428873724
 20
9.1615821906
 30
0.0
 10
11.8327924984
 20
9.1596490761
 30
0.0
 10
11.825924018
 20
9.1592245442
 30
0.0
 10
11.8224769664
 20
9.1592245442
 30
0.0
  0
SPLINE
  5
3A5
100
AcDbEntity
  8
0
100
AcDbSpline
 62
7
  6
CONTINUOUS
 70
0
 71
3
 72
13
 73
9
 74
0
 42
0.0000001
 43
0.0000001
 44
0.0000000001
 40
0.0
 40
0.0
 40
0.0
 40
0.0
 40
0.1204957468
 40
0.2425025394
 40
0.4904845542
 40
0.7433569909
 40
0.8713710909
 40
1.0
 40
1.0
 40
1.0
 40
1.0
 10
11.8224769664
 20
9.1592245442
 30
0.0
 10
11.8189888767
 20
9.1592245442
 30
0.0
 10
11.8119609632
 20
9.1596643022
 30
0.0
 10
11.7979749803
 20
9.1622668499
 30
0.0
 10
11.7809547711
 20
9.1687459239
 30
0.0
 10
11.7657861292
 20
9.1791461588
 30
0.0
 10
11.7553091714
 20
9.1895701821
 30
0.0
 10
11.7507209331
 20
9.1954444062
 30
0.0
 10
11.7486214112
 20
9.1985195748
 30
0.0
  0
SPLINE
  5
3A6
100
AcDbEntity
  8
0
100
AcDbSpline
 62
7
  6
CONTINUOUS
 70
0
 71
3
 72
15
 73
11
 74
0
 42
0.0000001
 43
0.0000001
 44
0.0000000001
 40
0.0
 40
0.0
 40
0.0
 40
0.0
 40
0.1108792482
 40
0.2338200566
 40
0.364825753
 40
0.5000000527
 40
0.6351743509
 40
0.7661800187
 40
0.8891207774
 40
1.0
 40
1.0
 40
1.0
 40
1.0
 10
11.7486214112
 20
9.1985195748
 30
0.0
 10
11.7492074405
 20
9.2019608508
 30
0.0
 10
11.7502173543
 20
9.2092566888
 30
0.0
 10
11.7512747391
 20
9.2206966995
 30
0.0
 10
11.7519202405
 20
9.2329333636
 30
0.0
 10
11.7521371123
 20
9.2455698605
 30
0.0
 10
11.7519202405
 20
9.2582063565
 30
0.0
 10
11.7512747385
 20
9.270443018
 30
0.0
 10
11.7502173543
 20
9.2818830255
 30
0.0
 10
11.7492074403
 20
9.2891788611
 30
0.0
 10
11.7486214112
 20
9.2926201363
 30
0.0
  0
SPLINE
  5
3A7
100
AcDbEntity
  8
0
100
AcDbSpline
 62
7
  6
CONTINUOUS
 70
0
 71
3
 72
13
 73
9
 74
0
 42
0.0000001
 43
0.0000001
 44
0.0000000001
 40
0.0
 40
0.0
 40
0.0
 40
0.0
 40
0.1286302094
 40
0.2566504802
 40
0.5095305166
 40
0.7575090633
 40
0.8795107917
 40
1.0
 40
1.0
 40
1.0
 40
1.0
 10
11.7486214112
 20
9.2926201363
 30
0.0
 10
11.7507209542
 20
9.2956953358
 30
0.0
 10
11.7553093535
 20
9.3015697084
 30
0.0
 10
11.7657866303
 20
9.3119940333
 30
0.0
 10
11.7809556657
 20
9.3223942528
 30
0.0
 10
11.7979759127
 20
9.3288731264
 30
0.0
 10
11.8119614909
 20
9.3314754487
 30
0.0
 10
11.8189890662
 20
9.3319151669
 30
0.0
 10
11.8224769664
 20
9.3319151669
 30
0.0
  0
SPLINE
  5
3A8
100
AcDbEntity
  8
0
100
AcDbSpline
 62
7
  6
CONTINUOUS
 70
0
 71
3
 72
15
 73
11
 74
0
 42
0.0000001
 43
0.0000001
 44
0.0000000001
 40
0.0
 40
0.0
 40
0.0
 40
0.0
 40
0.1255798717
 40
0.2499244978
 40
0.3734539225
 40
0.4967178051
 40
0.6203690745
 40
0.745080404
 40
0.8714753084
 40
1.0
 40
1.0
 40
1.0
 40
1.0
 10
11.8224769664
 20
9.3319151669
 30
0.0
 10
11.8259242035
 20
9.3319151669
 30
0.0
 10
11.8327930066
 20
9.3314905983
 30
0.0
 10
11.8428882621
 20
9.3295572938
 30
0.0
 10
11.8525883385
 20
9.3263459962
 30
0.0
 10
11.8617599015
 20
9.3218841888
 30
0.0
 10
11.8702779271
 20
9.3162150078
 30
0.0
 10
11.8780244666
 20
9.3093989287
 30
0.0
 10
11.8848875765
 20
9.3015189037
 30
0.0
 10
11.888775294
 20
9.2956736275
 30
0.0
 10
11.890542636
 20
9.2926201363
 30
0.0
  0
SPLINE
  5
3A9
100
AcDbEntity
  8
0
100
AcDbSpline
 62
9
  6
CONTINUOUS
 70
0
 71
3
 72
12
 73
8
 74
0
 42
0.0000001
 43
0.0000001
 44
0.0000000001
 40
0.0
 40
0.0
 40
0.0
 40
0.0
 40
0.1065806365
 40
0.2242419137
 40
0.4792170999
 40
0.7391995026
 40
1.0
 40
1.0
 40
1.0
 40
1.0
 10
8.5300546811
 20
10.4464585574
 30
0.0
 10
8.5301213694
 20
10.446870712
 30
0.0
 10
8.5303368981
 20
10.4477256884
 30
0.0
 10
8.5309841682
 20
10.4494896026
 30
0.0
 10
8.5320728893
 20
10.4517209457
 30
0.0
 10
8.5335514859
 20
10.454376062
 30
0.0
 10
8.5346190251
 20
10.4561153264
 30
0.0
 10
8.5351638343
 20
10.4569795903
 30
0.0
  0
SPLINE
  5
3AA
100
AcDbEntity
  8
0
100
AcDbSpline
 62
7
  6
CONTINUOUS
 70
0
 71
3
 72
13
 73
9
 74
0
 42
0.0000001
 43
0.0000001
 44
0.0000000001
 40
0.0
 40
0.0
 40
0.0
 40
0.0
 40
0.1084906802
 40
0.2211227712
 40
0.3386046187
 40
0.4612668963
 40
0.7215232687
 40
1.0
 40
1.0
 40
1.0
 40
1.0
 10
11.9502026943
 20
9.1592245442
 30
0.0
 10
11.9475073492
 20
9.1592245442
 30
0.0
 10
11.9420054116
 20
9.1596796198
 30
0.0
 10
11.9337969629
 20
9.1616460478
 30
0.0
 10
11.9256212822
 20
9.1648821938
 30
0.0
 10
11.9147418999
 20
9.1709619498
 30
0.0
 10
11.90204792
 20
9.1816607894
 30
0.0
 10
11.8940083584
 20
9.1925317394
 30
0.0
 10
11.890542636
 20
9.1985195748
 30
0.0
  0
SPLINE
  5
3AB
100
AcDbEntity
  8
0
100
AcDbSpline
 62
7
  6
CONTINUOUS
 70
0
 71
3
 72
15
 73
11
 74
0
 42
0.0000001
 43
0.0000001
 44
0.0000000001
 40
0.0
 40
0.0
 40
0.0
 40
0.0
 40
0.1154319089
 40
0.2389914331
 40
0.3680427735
 40
0.5000000509
 40
0.6319573273
 40
0.7610086409
 40
0.8845681155
 40
1.0
 40
1.0
 40
1.0
 40
1.0
 10
11.890542636
 20
9.1985195748
 30
0.0
 10
11.892168831
 20
9.2018728528
 30
0.0
 10
11.8950271846
 20
9.2090681379
 30
0.0
 10
11.8980717432
 20
9.220578014
 30
0.0
 10
11.8999314025
 20
9.2328774419
 30
0.0
 10
11.9005552533
 20
9.2455698605
 30
0.0
 10
11.8999314019
 20
9.2582622783
 30
0.0
 10
11.8980717415
 20
9.2705617034
 30
0.0
 10
11.8950271844
 20
9.2820715765
 30
0.0
 10
11.8921688306
 20
9.289266859
 30
0.0
 10
11.890542636
 20
9.2926201363
 30
0.0
  0
SPLINE
  5
3AC
100
AcDbEntity
  8
0
100
AcDbSpline
 62
7
  6
CONTINUOUS
 70
0
 71
3
 72
13
 73
9
 74
0
 42
0.0000001
 43
0.0000001
 44
0.0000000001
 40
0.0
 40
0.0
 40
0.0
 40
0.0
 40
0.2784846339
 40
0.5387481017
 40
0.6614098669
 40
0.7788881147
 40
0.8915152572
 40
1.0
 40
1.0
 40
1.0
 40
1.0
 10
11.890542636
 20
9.2926201363
 30
0.0
 10
11.8940084565
 20
9.2986081412
 30
0.0
 10
11.9020482756
 20
9.309479378
 30
0.0
 10
11.9147426585
 20
9.320178321
 30
0.0
 10
11.9256221971
 20
9.3262579471
 30
0.0
 10
11.9337977119
 20
9.329493896
 30
0.0
 10
11.9420058322
 20
9.3314601341
 30
0.0
 10
11.9475074969
 20
9.3319151669
 30
0.0
 10
11.9502026943
 20
9.3319151669
 30
0.0
  0
SPLINE
  5
3AD
100
AcDbEntity
  8
0
100
AcDbSpline
 62
7
  6
CONTINUOUS
 70
0
 71
3
 72
11
 73
7
 74
0
 42
0.0000001
 43
0.0000001
 44
0.0000000001
 40
0.0
 40
0.0
 40
0.0
 40
0.0
 40
0.2507504514
 40
0.4978762348
 40
0.745998564
 40
1.0
 40
1.0
 40
1.0
 40
1.0
 10
11.9502026943
 20
9.3319151669
 30
0.0
 10
11.9529082295
 20
9.3319151669
 30
0.0
 10
11.9582929827
 20
9.3314676603
 30
0.0
 10
11.9661118372
 20
9.3293865841
 30
0.0
 10
11.9734631732
 20
9.3259233586
 30
0.0
 10
11.9779085834
 20
9.3227728022
 30
0.0
 10
11.9800092426
 20
9.3210126353
 30
0.0
  0
SPLINE
  5
3AE
100
AcDbEntity
  8
0
100
AcDbSpline
 62
9
  6
CONTINUOUS
 70
0
 71
3
 72
11
 73
7
 74
0
 42
0.0000001
 43
0.0000001
 44
0.0000000001
 40
0.0
 40
0.0
 40
0.0
 40
0.0
 40
0.2503393673
 40
0.5004905217
 40
0.7503725352
 40
1.0
 40
1.0
 40
1.0
 40
1.0
 10
8.5182504311
 20
10.4409663056
 30
0.0
 10
8.5293806884
 20
10.4614570395
 30
0.0
 10
8.5548781839
 20
10.5007452858
 30
0.0
 10
8.6015403269
 20
10.5531292913
 30
0.0
 10
8.6554981075
 20
10.5978501772
 30
0.0
 10
8.695481023
 20
10.622032983
 30
0.0
 10
8.7162125812
 20
10.6325623278
 30
0.0
  0
SPLINE
  5
3AF
100
AcDbEntity
  8
0
100
AcDbSpline
 62
7
  6
CONTINUOUS
 70
0
 71
3
 72
15
 73
11
 74
0
 42
0.0000001
 43
0.0000001
 44
0.0000000001
 40
0.0
 40
0.0
 40
0.0
 40
0.0
 40
0.0818041031
 40
0.1731465086
 40
0.2768099404
 40
0.3941761618
 40
0.5256566804
 40
0.6709990192
 40
0.8294579725
 40
1.0
 40
1.0
 40
1.0
 40
1.0
 10
12.0355462972
 20
9.1592245394
 30
0.0
 10
12.0341344603
 20
9.1592245394
 30
0.0
 10
12.0311383461
 20
9.1596727154
 30
0.0
 10
12.0266838308
 20
9.1614861254
 30
0.0
 10
12.0221296437
 20
9.1644173961
 30
0.0
 10
12.0175410758
 20
9.1684390161
 30
0.0
 10
12.0129956687
 20
9.1735198929
 30
0.0
 10
12.0085889306
 20
9.1796189343
 30
0.0
 10
12.004425286
 20
9.1866796681
 30
0.0
 10
12.0019688331
 20
9.1918076384
 30
0.0
 10
12.0008031023
 20
9.1945102925
 30
0.0
  0
SPLINE
  5
3B0
100
AcDbEntity
  8
0
100
AcDbSpline
 62
7
  6
CONTINUOUS
 70
0
 71
3
 72
15
 73
11
 74
0
 42
0.0000001
 43
0.0000001
 44
0.0000000001
 40
0.0
 40
0.0
 40
0.0
 40
0.0
 40
0.1705476233
 40
0.3290123996
 40
0.4743582168
 40
0.6058397707
 40
0.7232034242
 40
0.8268623687
 40
0.9182001338
 40
1.0
 40
1.0
 40
1.0
 40
1.0
 10
12.0008034247
 20
9.2966301502
 30
0.0
 10
12.0019692015
 20
9.2993328403
 30
0.0
 10
12.0044257282
 20
9.3044608968
 30
0.0
 10
12.0085895152
 20
9.3115217019
 30
0.0
 10
12.0129963963
 20
9.317620718
 30
0.0
 10
12.0175418437
 20
9.3227014648
 30
0.0
 10
12.0221303584
 20
9.3267228462
 30
0.0
 10
12.0266843718
 20
9.3296538579
 30
0.0
 10
12.0311386413
 20
9.3314670552
 30
0.0
 10
12.0341345551
 20
9.3319151717
 30
0.0
 10
12.0355462972
 20
9.3319151717
 30
0.0
  0
SPLINE
  5
3B1
100
AcDbEntity
  8
0
100
AcDbSpline
 62
7
  6
CONTINUOUS
 70
0
 71
3
 72
9
 73
5
 74
0
 42
0.0000001
 43
0.0000001
 44
0.0000000001
 40
0.0
 40
0.0
 40
0.0
 40
0.0
 40
0.4992981438
 40
1.0
 40
1.0
 40
1.0
 40
1.0
 10
12.0355462972
 20
9.3319151717
 30
0.0
 10
12.0367620683
 20
9.3319151717
 30
0.0
 10
12.0392114632
 20
9.331598227
 30
0.0
 10
12.0414733472
 20
9.3306071299
 30
0.0
 10
12.0425189189
 20
9.3299800719
 30
0.0
  0
SPLINE
  5
3B2
100
AcDbEntity
  8
0
100
AcDbSpline
 62
9
  6
CONTINUOUS
 70
0
 71
3
 72
11
 73
7
 74
0
 42
0.0000001
 43
0.0000001
 44
0.0000000001
 40
0.0
 40
0.0
 40
0.0
 40
0.0
 40
0.2499629877
 40
0.4999974615
 40
0.7500311852
 40
1.0
 40
1.0
 40
1.0
 40
1.0
 10
8.5345778832
 20
10.4573794157
 30
0.0
 10
8.5456962138
 20
10.4753799145
 30
0.0
 10
8.5704910288
 20
10.5098724108
 30
0.0
 10
8.614336287
 20
10.5560414316
 30
0.0
 10
8.6639851722
 20
10.5958992426
 30
0.0
 10
8.7003332714
 20
10.6178595032
 30
0.0
 10
8.7191255622
 20
10.627580918
 30
0.0
  0
SPLINE
  5
3B3
100
AcDbEntity
  8
0
100
AcDbSpline
 62
9
  6
CONTINUOUS
 70
0
 71
3
 72
12
 73
8
 74
0
 42
0.0000001
 43
0.0000001
 44
0.0000000001
 40
0.0
 40
0.0
 40
0.0
 40
0.0
 40
0.108349082
 40
0.2282478309
 40
0.4805037865
 40
0.7390854075
 40
1.0
 40
1.0
 40
1.0
 40
1.0
 10
8.5296150171
 20
10.4461710823
 30
0.0
 10
8.5296715139
 20
10.4466122609
 30
0.0
 10
8.5298779718
 20
10.4475300832
 30
0.0
 10
8.530500913
 20
10.4494027651
 30
0.0
 10
8.531537423
 20
10.4517803362
 30
0.0
 10
8.5329877357
 20
10.4545977221
 30
0.0
 10
8.53403838
 20
10.4564541219
 30
0.0
 10
8.5345778807
 20
10.4573794002
 30
0.0
  0
SPLINE
  5
3B4
100
AcDbEntity
  8
0
100
AcDbSpline
 62
7
  6
CONTINUOUS
 70
0
 71
3
 72
17
 73
13
 74
0
 42
0.0000001
 43
0.0000001
 44
0.0000000001
 40
0.0
 40
0.0
 40
0.0
 40
0.0
 40
0.1651352753
 40
0.3262581971
 40
0.4788822428
 40
0.6192996752
 40
0.7440944949
 40
0.8502767327
 40
0.8957346054
 40
0.9358394888
 40
0.970554891
 40
1.0
 40
1.0
 40
1.0
 40
1.0
 10
11.4303358403
 20
7.4293198556
 30
0.0
 10
11.4303358403
 20
7.4328115394
 30
0.0
 10
11.4304522795
 20
7.4397106487
 30
0.0
 10
11.4309718858
 20
7.4498250678
 30
0.0
 10
11.4318251383
 20
7.4593926127
 30
0.0
 10
11.4329859139
 20
7.468154359
 30
0.0
 10
11.4344178016
 20
7.4758792615
 30
0.0
 10
11.4358665215
 20
7.4815499845
 30
0.0
 10
11.4371690843
 20
7.4853914304
 30
0.0
 10
11.4381377405
 20
7.4877455007
 30
0.0
 10
11.4391418476
 20
7.4897110963
 30
0.0
 10
11.4398912071
 20
7.4908480442
 30
0.0
 10
11.4402771427
 20
7.4913365961
 30
0.0
  0
SPLINE
  5
3B5
100
AcDbEntity
  8
0
100
AcDbSpline
 62
9
  6
CONTINUOUS
 70
0
 71
3
 72
11
 73
7
 74
0
 42
0.0000001
 43
0.0000001
 44
0.0000000001
 40
0.0
 40
0.0
 40
0.0
 40
0.0
 40
0.2318201374
 40
0.4850166111
 40
0.7429540977
 40
1.0
 40
1.0
 40
1.0
 40
1.0
 10
8.5150000201
 20
10.4336049439
 30
0.0
 10
8.515121942
 20
10.4342171237
 30
0.0
 10
8.5154759344
 20
10.4354805834
 30
0.0
 10
8.5162918644
 20
10.4373110591
 30
0.0
 10
8.5172411167
 20
10.4391487845
 30
0.0
 10
8.5179106941
 20
10.4403632985
 30
0.0
 10
8.5182504297
 20
10.4409663061
 30
0.0
  0
SPLINE
  5
3B6
100
AcDbEntity
  8
0
100
AcDbSpline
 62
7
  6
CONTINUOUS
 70
0
 71
3
 72
9
 73
5
 74
0
 42
0.0000001
 43
0.0000001
 44
0.0000000001
 40
0.0
 40
0.0
 40
0.0
 40
0.0
 40
0.2446826107
 40
1.0
 40
1.0
 40
1.0
 40
1.0
 10
8.5118679405
 20
10.4193460356
 30
0.0
 10
8.5122310719
 20
10.4204809842
 30
0.0
 10
8.5136022545
 20
10.4251551757
 30
0.0
 10
8.5145288441
 20
10.4299567827
 30
0.0
 10
8.5150000201
 20
10.4336049439
 30
0.0
  0
SPLINE
  5
3B7
100
AcDbEntity
  8
0
100
AcDbSpline
 62
9
  6
CONTINUOUS
 70
0
 71
3
 72
9
 73
5
 74
0
 42
0.0000001
 43
0.0000001
 44
0.0000000001
 40
0.0
 40
0.0
 40
0.0
 40
0.0
 40
0.2574683543
 40
1.0
 40
1.0
 40
1.0
 40
1.0
 10
8.5296150314
 20
10.4461710949
 30
0.0
 10
8.5294225037
 20
10.4447905285
 30
0.0
 10
8.5285563515
 20
10.439446192
 30
0.0
 10
8.5272018553
 20
10.4341765759
 30
0.0
 10
8.5258915649
 20
10.4303760625
 30
0.0
  0
SPLINE
  5
3B8
100
AcDbEntity
  8
0
100
AcDbSpline
 62
9
  6
CONTINUOUS
 70
0
 71
3
 72
11
 73
7
 74
0
 42
0.0000001
 43
0.0000001
 44
0.0000000001
 40
0.0
 40
0.0
 40
0.0
 40
0.0
 40
0.2598719178
 40
0.5195472305
 40
0.7717773709
 40
1.0
 40
1.0
 40
1.0
 40
1.0
 10
8.5179216492
 20
10.4411598854
 30
0.0
 10
8.5175791537
 20
10.4405159028
 30
0.0
 10
8.5169087774
 20
10.4392206268
 30
0.0
 10
8.5159720564
 20
10.4372672081
 30
0.0
 10
8.5151869241
 20
10.4353402506
 30
0.0
 10
8.5148560927
 20
10.4340264947
 30
0.0
 10
8.5147500081
 20
10.4333947769
 30
0.0
  0
SPLINE
  5
3B9
100
AcDbEntity
  8
0
100
AcDbSpline
 62
9
  6
CONTINUOUS
 70
0
 71
3
 72
13
 73
9
 74
0
 42
0.0000001
 43
0.0000001
 44
0.0000000001
 40
0.0
 40
0.0
 40
0.0
 40
0.0
 40
0.2498864558
 40
0.3749812765
 40
0.5000176014
 40
0.6250508412
 40
0.7501427669
 40
1.0
 40
1.0
 40
1.0
 40
1.0
 10
8.7142948865
 20
10.6352334895
 30
0.0
 10
8.6936333832
 20
10.6244038164
 30
0.0
 10
8.6637713758
 20
10.6058181953
 30
0.0
 10
8.6270817519
 20
10.5769146417
 30
0.0
 10
8.6012300501
 20
10.553235839
 30
0.0
 10
8.577209856
 20
10.5277007626
 30
0.0
 10
8.5478427605
 20
10.4913853793
 30
0.0
 10
8.5289257179
 20
10.4617259434
 30
0.0
 10
8.5179216492
 20
10.4411598854
 30
0.0
  0
LINE
  5
3BA
100
AcDbEntity
  8
0
100
AcDbLine
 62
9
  6
CONTINUOUS
 10
8.7162062205
 20
10.6325747911
 11
8.7147586949
 21
10.635477248
  0
SPLINE
  5
3BB
100
AcDbEntity
  8
0
100
AcDbSpline
 62
7
  6
CONTINUOUS
 70
0
 71
3
 72
15
 73
11
 74
0
 42
0.0000001
 43
0.0000001
 44
0.0000000001
 40
0.0
 40
0.0
 40
0.0
 40
0.0
 40
0.1496504352
 40
0.2969854414
 40
0.4391106086
 40
0.5737318159
 40
0.6987699053
 40
0.8123590231
 40
0.9130254214
 40
1.0
 40
1.0
 40
1.0
 40
1.0
 10
11.2745760141
 20
7.4293198556
 30
0.0
 10
11.2745760141
 20
7.4323006538
 30
0.0
 10
11.2747174161
 20
7.4382170848
 30
0.0
 10
11.2753454134
 20
7.4469443047
 30
0.0
 10
11.2763831186
 20
7.4553313735
 30
0.0
 10
11.2778056893
 20
7.4632115775
 30
0.0
 10
11.2795867262
 20
7.4704352533
 30
0.0
 10
11.2816873604
 20
7.4768672162
 30
0.0
 10
11.2840701491
 20
7.4823833754
 30
0.0
 10
11.2859551741
 20
7.4856285956
 30
0.0
 10
11.2869552821
 20
7.4870431544
 30
0.0
  0
LINE
  5
3BC
100
AcDbEntity
  8
0
100
AcDbLine
 62
9
  6
CONTINUOUS
 10
8.9158234354
 20
10.2487534028
 11
8.9061176679
 21
10.2545687115
  0
SPLINE
  5
3BD
100
AcDbEntity
  8
0
100
AcDbSpline
 62
7
  6
CONTINUOUS
 70
0
 71
3
 72
11
 73
7
 74
0
 42
0.0000001
 43
0.0000001
 44
0.0000000001
 40
0.0
 40
0.0
 40
0.0
 40
0.0
 40
0.2540092747
 40
0.502132544
 40
0.7492559301
 40
1.0
 40
1.0
 40
1.0
 40
1.0
 10
11.363619158
 20
9.3210126277
 30
0.0
 10
11.365719886
 20
9.3227728444
 30
0.0
 10
11.3701653752
 20
9.3259234546
 30
0.0
 10
11.3775167892
 20
9.3293866844
 30
0.0
 10
11.3853355789
 20
9.3314676714
 30
0.0
 10
11.3907202349
 20
9.3319151669
 30
0.0
 10
11.3934257013
 20
9.3319151669
 30
0.0
  0
LINE
  5
3BE
100
AcDbEntity
  8
0
100
AcDbLine
 62
9
  6
CONTINUOUS
 10
9.1328606634
 20
10.2923092462
 11
9.1323922679
 21
10.2954332327
  0
LINE
  5
3BF
100
AcDbEntity
  8
0
100
AcDbLine
 62
9
  6
CONTINUOUS
 10
9.1344827527
 20
10.2925069005
 11
9.1328611846
 21
10.292306864
  0
SPLINE
  5
3C0
100
AcDbEntity
  8
0
100
AcDbSpline
 62
9
  6
CONTINUOUS
 70
0
 71
3
 72
12
 73
8
 74
0
 42
0.0000001
 43
0.0000001
 44
0.0000000001
 40
0.0
 40
0.0
 40
0.0
 40
0.0
 40
0.2500838762
 40
0.4376098496
 40
0.6250958887
 40
0.8125568224
 40
1.0
 40
1.0
 40
1.0
 40
1.0
 10
9.1323922691
 20
10.29543323
 30
0.0
 10
9.1133595552
 20
10.292824219
 30
0.0
 10
9.0801045924
 20
10.2878883663
 30
0.0
 10
9.0327469484
 20
10.2799417279
 30
0.0
 10
8.9902496422
 20
10.2721306626
 30
0.0
 10
8.9478741304
 20
10.2637183769
 30
0.0
 10
8.9197050053
 20
10.2577229152
 30
0.0
 10
8.9056423689
 20
10.2546296036
 30
0.0
  0
SPLINE
  5
3C1
100
AcDbEntity
  8
0
100
AcDbSpline
 62
9
  6
CONTINUOUS
 70
0
 71
3
 72
11
 73
7
 74
0
 42
0.0000001
 43
0.0000001
 44
0.0000000001
 40
0.0
 40
0.0
 40
0.0
 40
0.0
 40
0.2500068202
 40
0.5000055861
 40
0.7500036257
 40
1.0
 40
1.0
 40
1.0
 40
1.0
 10
8.9015201657
 20
10.2572725922
 30
0.0
 10
8.9201341443
 20
10.2618474607
 30
0.0
 10
8.9574977338
 20
10.2704519738
 30
0.0
 10
9.0138836896
 20
10.2817643757
 30
0.0
 10
9.0705531345
 20
10.291550301
 30
0.0
 10
9.1084915955
 20
10.2970818023
 30
0.0
 10
9.1274932052
 20
10.299595316
 30
0.0
  0
LINE
  5
3C2
100
AcDbEntity
  8
0
100
AcDbLine
 62
9
  6
CONTINUOUS
 10
8.9019243228
 20
10.2573719076
 11
8.9018296616
 21
10.2576169549
  0
SPLINE
  5
3C3
100
AcDbEntity
  8
0
100
AcDbSpline
 62
9
  6
CONTINUOUS
 70
0
 71
3
 72
9
 73
5
 74
0
 42
0.0000001
 43
0.0000001
 44
0.0000000001
 40
0.0
 40
0.0
 40
0.0
 40
0.0
 40
0.4993159766
 40
1.0
 40
1.0
 40
1.0
 40
1.0
 10
8.8729210625
 20
10.2810582294
 30
0.0
 10
8.9049225333
 20
10.2915456637
 30
0.0
 10
8.9698879621
 20
10.3099320847
 30
0.0
 10
9.0359998421
 20
10.3236110984
 30
0.0
 10
9.0693087244
 20
10.3291628268
 30
0.0
  0
SPLINE
  5
3C4
100
AcDbEntity
  8
0
100
AcDbSpline
 62
9
  6
CONTINUOUS
 70
0
 71
3
 72
11
 73
7
 74
0
 42
0.0000001
 43
0.0000001
 44
0.0000000001
 40
0.0
 40
0.0
 40
0.0
 40
0.0
 40
0.1921455565
 40
0.4254702372
 40
0.6957514671
 40
1.0
 40
1.0
 40
1.0
 40
1.0
 10
8.9018296146
 20
10.2576169516
 30
0.0
 10
8.899827488
 20
10.2589210665
 30
0.0
 10
8.89541484
 20
10.2618415726
 30
0.0
 10
8.8884123282
 20
10.2669303766
 30
0.0
 10
8.8806653001
 20
10.27333819
 30
0.0
 10
8.875523879
 20
10.2783138356
 30
0.0
 10
8.8729206482
 20
10.2810593052
 30
0.0
  0
LINE
  5
3C5
100
AcDbEntity
  8
0
100
AcDbLine
 62
9
  6
CONTINUOUS
 10
9.0692864136
 20
10.3291602121
 11
9.06502589
 21
10.3530941157
  0
LINE
  5
3C6
100
AcDbEntity
  8
0
100
AcDbLine
 62
9
  6
CONTINUOUS
 10
9.086747452
 20
10.3319231465
 11
9.082524084
 21
10.3575886941
  0
SPLINE
  5
3C7
100
AcDbEntity
  8
0
100
AcDbSpline
 62
9
  6
CONTINUOUS
 70
0
 71
3
 72
9
 73
5
 74
0
 42
0.0000001
 43
0.0000001
 44
0.0000000001
 40
0.0
 40
0.0
 40
0.0
 40
0.0
 40
0.246089357
 40
1.0
 40
1.0
 40
1.0
 40
1.0
 10
9.0650258638
 20
10.3530941088
 30
0.0
 10
9.0626413177
 20
10.3555221382
 30
0.0
 10
9.0528847354
 20
10.3653217114
 30
0.0
 10
9.042792809
 20
10.3747957829
 30
0.0
 10
9.0349185679
 20
10.3816289816
 30
0.0
  0
SPLINE
  5
3C8
100
AcDbEntity
  8
0
100
AcDbSpline
 62
9
  6
CONTINUOUS
 70
0
 71
3
 72
15
 73
11
 74
0
 42
0.0000001
 43
0.0000001
 44
0.0000000001
 40
0.0
 40
0.0
 40
0.0
 40
0.0
 40
0.1250258685
 40
0.2500542528
 40
0.3750800337
 40
0.5000931063
 40
0.6250894301
 40
0.7500765117
 40
0.8750525954
 40
1.0
 40
1.0
 40
1.0
 40
1.0
 10
9.3973620344
 20
10.4089874226
 30
0.0
 10
9.3841095426
 20
10.407788772
 30
0.0
 10
9.3576260502
 20
10.4051442956
 30
0.0
 10
9.3179780569
 20
10.4004762482
 30
0.0
 10
9.278413809
 20
10.3951557502
 30
0.0
 10
9.2389438622
 20
10.3891973851
 30
0.0
 10
9.1995928719
 20
10.3825189954
 30
0.0
 10
9.1603899546
 20
10.3750391696
 30
0.0
 10
9.1213545519
 20
10.3667559673
 30
0.0
 10
9.0954456653
 20
10.3607254807
 30
0.0
 10
9.082522752
 20
10.3575883742
 30
0.0
  0
SPLINE
  5
3C9
100
AcDbEntity
  8
0
100
AcDbSpline
 62
9
  6
CONTINUOUS
 70
0
 71
3
 72
9
 73
5
 74
0
 42
0.0000001
 43
0.0000001
 44
0.0000000001
 40
0.0
 40
0.0
 40
0.0
 40
0.0
 40
0.5001137957
 40
1.0
 40
1.0
 40
1.0
 40
1.0
 10
9.0349185782
 20
10.3816289401
 30
0.0
 10
9.0902351024
 20
10.3953338747
 30
0.0
 10
9.2022297191
 20
10.4173870128
 30
0.0
 10
9.3157494243
 20
10.4290776842
 30
0.0
 10
9.3726134489
 20
10.4324348404
 30
0.0
  0
LINE
  5
3CA
100
AcDbEntity
  8
0
100
AcDbLine
 62
9
  6
CONTINUOUS
 10
9.0349185785
 20
10.3816289402
 11
9.0330806791
 21
10.3887509976
  0
SPLINE
  5
3CB
100
AcDbEntity
  8
0
100
AcDbSpline
 62
9
  6
CONTINUOUS
 70
0
 71
3
 72
11
 73
7
 74
0
 42
0.0000001
 43
0.0000001
 44
0.0000000001
 40
0.0
 40
0.0
 40
0.0
 40
0.0
 40
0.2499980614
 40
0.5000034448
 40
0.750012209
 40
1.0
 40
1.0
 40
1.0
 40
1.0
 10
9.0330806791
 20
10.3887509976
 30
0.0
 10
9.0607490374
 20
10.3961693635
 30
0.0
 10
9.1164889447
 20
10.4095436194
 30
0.0
 10
9.2009830904
 20
10.4254109145
 30
0.0
 10
9.2861342072
 20
10.4372350907
 30
0.0
 10
9.3432104232
 20
10.4424680944
 30
0.0
 10
9.3717885583
 20
10.4444156521
 30
0.0
  0
LINE
  5
3CC
100
AcDbEntity
  8
0
100
AcDbLine
 62
9
  6
CONTINUOUS
 10
9.0286205718
 20
10.3800565442
 11
9.0267837333
 21
10.3870477008
  0
LINE
  5
3CD
100
AcDbEntity
  8
0
100
AcDbLine
 62
9
  6
CONTINUOUS
 10
11.7891629171
 20
9.4140685001
 11
12.0650677544
 21
9.4136008996
  0
SPLINE
  5
3CE
100
AcDbEntity
  8
0
100
AcDbSpline
 62
7
  6
CONTINUOUS
 70
0
 71
3
 72
12
 73
8
 74
0
 42
0.0000001
 43
0.0000001
 44
0.0000000001
 40
0.0
 40
0.0
 40
0.0
 40
0.0
 40
0.2741640237
 40
0.5382238954
 40
0.78256593
 40
0.8950481612
 40
1.0
 40
1.0
 40
1.0
 40
1.0
 10
11.1265479773
 20
7.4293198556
 30
0.0
 10
11.1265479773
 20
7.4339972197
 30
0.0
 10
11.1270163932
 20
7.4431874526
 30
0.0
 10
11.1291005529
 20
7.4563990553
 30
0.0
 10
11.1319824974
 20
7.4666282768
 30
0.0
 10
11.1349447647
 20
7.4739353744
 30
0.0
 10
11.1366211739
 20
7.4772512899
 30
0.0
 10
11.1375076554
 20
7.4788069685
 30
0.0
  0
LINE
  5
3CF
100
AcDbEntity
  8
0
100
AcDbLine
 62
9
  6
CONTINUOUS
 10
11.2763108657
 20
9.4148994732
 11
11.789162952
 21
9.4140669339
  0
SPLINE
  5
3D0
100
AcDbEntity
  8
0
100
AcDbSpline
 62
9
  6
CONTINUOUS
 70
0
 71
3
 72
11
 73
7
 74
0
 42
0.0000001
 43
0.0000001
 44
0.0000000001
 40
0.0
 40
0.0
 40
0.0
 40
0.0
 40
0.5003122133
 40
0.7485058781
 40
0.873610837
 40
1.0
 40
1.0
 40
1.0
 40
1.0
 10
8.8596952274
 20
10.5169005523
 30
0.0
 10
8.9209808283
 20
10.5417605643
 30
0.0
 10
9.0156781639
 20
10.5720264339
 30
0.0
 10
9.1288687753
 20
10.5952327236
 30
0.0
 10
9.1941960171
 20
10.605095294
 30
0.0
 10
9.2272314511
 20
10.6088914784
 30
0.0
 10
9.2438605948
 20
10.6105052715
 30
0.0
  0
SPLINE
  5
3D1
100
AcDbEntity
  8
0
100
AcDbSpline
 62
9
  6
CONTINUOUS
 70
0
 71
3
 72
15
 73
11
 74
0
 42
0.0000001
 43
0.0000001
 44
0.0000000001
 40
0.0
 40
0.0
 40
0.0
 40
0.0
 40
0.1059194633
 40
0.2219987655
 40
0.3467300101
 40
0.4776944585
 40
0.6118321066
 40
0.7457578172
 40
0.8761325521
 40
1.0
 40
1.0
 40
1.0
 40
1.0
 10
9.0267837338
 20
10.387047701
 30
0.0
 10
9.0200540246
 20
10.3903284244
 30
0.0
 10
9.0063639267
 20
10.3980649219
 30
0.0
 10
8.9861365425
 20
10.4119362684
 30
0.0
 10
8.9653987342
 20
10.428094487
 30
0.0
 10
8.9443299775
 20
10.4458584986
 30
0.0
 10
8.9231173135
 20
10.4644472449
 30
0.0
 10
8.9019330765
 20
10.4830057735
 30
0.0
 10
8.8809497873
 20
10.5006869192
 30
0.0
 10
8.8667710869
 20
10.5117440256
 30
0.0
 10
8.8596952274
 20
10.5169005523
 30
0.0
  0
SPLINE
  5
3D2
100
AcDbEntity
  8
0
100
AcDbSpline
 62
9
  6
CONTINUOUS
 70
0
 71
3
 72
9
 73
5
 74
0
 42
0.0000001
 43
0.0000001
 44
0.0000000001
 40
0.0
 40
0.0
 40
0.0
 40
0.0
 40
0.5231526343
 40
1.0
 40
1.0
 40
1.0
 40
1.0
 10
8.8596952274
 20
10.5169005523
 30
0.0
 10
8.8532228317
 20
10.5216173052
 30
0.0
 10
8.8405838548
 20
10.5302780049
 30
0.0
 10
8.8272278638
 20
10.537823771
 30
0.0
 10
8.8206668546
 20
10.5410239366
 30
0.0
  0
SPLINE
  5
3D3
100
AcDbEntity
  8
0
100
AcDbSpline
 62
9
  6
CONTINUOUS
 70
0
 71
3
 72
11
 73
7
 74
0
 42
0.0000001
 43
0.0000001
 44
0.0000000001
 40
0.0
 40
0.0
 40
0.0
 40
0.0
 40
0.2500918725
 40
0.5001088058
 40
0.7500950017
 40
1.0
 40
1.0
 40
1.0
 40
1.0
 10
8.8206668559
 20
10.5410239333
 30
0.0
 10
8.8514460551
 20
10.5535909566
 30
0.0
 10
8.913989428
 20
10.5763560018
 30
0.0
 10
9.010063019
 20
10.6033752694
 30
0.0
 10
9.1078234011
 20
10.6233122687
 30
0.0
 10
9.173783014
 20
10.6319154857
 30
0.0
 10
9.206855843
 20
10.6350501267
 30
0.0
  0
SPLINE
  5
3D4
100
AcDbEntity
  8
0
100
AcDbSpline
 62
9
  6
CONTINUOUS
 70
0
 71
3
 72
11
 73
7
 74
0
 42
0.0000001
 43
0.0000001
 44
0.0000000001
 40
0.0
 40
0.0
 40
0.0
 40
0.0
 40
0.2499859713
 40
0.4999977944
 40
0.7500123901
 40
1.0
 40
1.0
 40
1.0
 40
1.0
 10
8.8179752537
 20
10.5474460513
 30
0.0
 10
8.8487487513
 20
10.5606115575
 30
0.0
 10
8.9113719804
 20
10.5845070196
 30
0.0
 10
9.0077620089
 20
10.6130040157
 30
0.0
 10
9.1060104998
 20
10.634207152
 30
0.0
 10
9.1723769827
 20
10.6435180997
 30
0.0
 10
9.2056709344
 20
10.646962832
 30
0.0
  0
SPLINE
  5
3D5
100
AcDbEntity
  8
0
100
AcDbSpline
 62
9
  6
CONTINUOUS
 70
0
 71
3
 72
12
 73
8
 74
0
 42
0.0000001
 43
0.0000001
 44
0.0000000001
 40
0.0
 40
0.0
 40
0.0
 40
0.0
 40
0.2510694949
 40
0.3763525314
 40
0.5014606164
 40
0.751092646
 40
1.0
 40
1.0
 40
1.0
 40
1.0
 10
8.7792897332
 20
10.5789064637
 30
0.0
 10
8.8103197704
 20
10.592178895
 30
0.0
 10
8.8576938638
 20
10.6101454983
 30
0.0
 10
8.9220896891
 20
10.6301140202
 30
0.0
 10
8.9870661634
 20
10.6473809058
 30
0.0
 10
9.069346524
 20
10.6639395538
 30
0.0
 10
9.1360211763
 20
10.6715844944
 30
0.0
 10
9.16939749
 20
10.6739316078
 30
0.0
  0
SPLINE
  5
3D6
100
AcDbEntity
  8
0
100
AcDbSpline
 62
9
  6
CONTINUOUS
 70
0
 71
3
 72
9
 73
5
 74
0
 42
0.0000001
 43
0.0000001
 44
0.0000000001
 40
0.0
 40
0.0
 40
0.0
 40
0.0
 40
0.2535950006
 40
1.0
 40
1.0
 40
1.0
 40
1.0
 10
8.8137829709
 20
10.5456312816
 30
0.0
 10
8.8107294439
 20
10.5482952083
 30
0.0
 10
8.798852121
 20
10.5589879768
 30
0.0
 10
8.787544798
 20
10.5702980784
 30
0.0
 10
8.7792897248
 20
10.5789064838
 30
0.0
  0
LINE
  5
3D7
100
AcDbEntity
  8
0
100
AcDbLine
 62
9
  6
CONTINUOUS
 10
11.2417982848
 20
9.6019857324
 11
11.7691104321
 21
9.5998086316
  0
LINE
  5
3D8
100
AcDbEntity
  8
0
100
AcDbLine
 62
9
  6
CONTINUOUS
 10
11.7691104321
 20
9.5998086316
 11
12.0476855303
 21
9.5985858814
  0
SPLINE
  5
3D9
100
AcDbEntity
  8
0
100
AcDbSpline
 62
9
  6
CONTINUOUS
 70
0
 71
3
 72
10
 73
6
 74
0
 42
0.0000001
 43
0.0000001
 44
0.0000000001
 40
0.0
 40
0.0
 40
0.0
 40
0.0
 40
0.5390200837
 40
0.7883914407
 40
1.0
 40
1.0
 40
1.0
 40
1.0
 10
9.1890831045
 20
10.6753903082
 30
0.0
 10
9.188096057
 20
10.6837052682
 30
0.0
 10
9.1867051562
 20
10.6958734983
 30
0.0
 10
9.1850740489
 20
10.7113220572
 30
0.0
 10
9.1843713016
 20
10.7184486503
 30
0.0
 10
9.1840686709
 20
10.7217218967
 30
0.0
  0
SPLINE
  5
3DA
100
AcDbEntity
  8
0
100
AcDbSpline
 62
9
  6
CONTINUOUS
 70
0
 71
3
 72
10
 73
6
 74
0
 42
0.0000001
 43
0.0000001
 44
0.0000000001
 40
0.0
 40
0.0
 40
0.0
 40
0.0
 40
0.5472451612
 40
0.7933768938
 40
1.0
 40
1.0
 40
1.0
 40
1.0
 10
9.1693975145
 20
10.6739316336
 30
0.0
 10
9.1683843277
 20
10.6821706484
 30
0.0
 10
9.1669668704
 20
10.6941217882
 30
0.0
 10
9.1653092549
 20
10.7091998493
 30
0.0
 10
9.1646050195
 20
10.7160315243
 30
0.0
 10
9.1643014953
 20
10.7191510274
 30
0.0
  0
SPLINE
  5
3DB
100
AcDbEntity
  8
0
100
AcDbSpline
 62
9
  6
CONTINUOUS
 70
0
 71
3
 72
14
 73
10
 74
0
 42
0.0000001
 43
0.0000001
 44
0.0000000001
 40
0.0
 40
0.0
 40
0.0
 40
0.0
 40
0.3130928865
 40
0.4546334248
 40
0.5855843878
 40
0.7056561778
 40
0.8147416279
 40
0.9128219999
 40
1.0
 40
1.0
 40
1.0
 40
1.0
 10
8.7643425756
 20
10.5936306811
 30
0.0
 10
8.7602181585
 20
10.5973082261
 30
0.0
 10
8.7541608836
 20
10.6025742705
 30
0.0
 10
8.7461366009
 20
10.6090892961
 30
0.0
 10
8.7406365517
 20
10.61330464
 30
0.0
 10
8.7354585443
 20
10.6169927123
 30
0.0
 10
8.7306134664
 20
10.6201404346
 30
0.0
 10
8.7261098574
 20
10.6227352095
 30
0.0
 10
8.7231684666
 20
10.6241726141
 30
0.0
 10
8.721755548
 20
10.6247817434
 30
0.0
  0
SPLINE
  5
3DC
100
AcDbEntity
  8
0
100
AcDbSpline
 62
7
  6
CONTINUOUS
 70
0
 71
3
 72
10
 73
6
 74
0
 42
0.0000001
 43
0.0000001
 44
0.0000000001
 40
0.0
 40
0.0
 40
0.0
 40
0.0
 40
0.2566744391
 40
0.5110461326
 40
1.0
 40
1.0
 40
1.0
 40
1.0
 10
10.9891329272
 20
7.4293198556
 30
0.0
 10
10.9891329272
 20
7.432072905
 30
0.0
 10
10.9893419848
 20
7.4375574215
 30
0.0
 10
10.990561809
 20
7.4482186072
 30
0.0
 10
10.9923931516
 20
7.4560291741
 30
0.0
 10
10.9940548925
 20
7.4610033862
 30
0.0
  0
LINE
  5
3DD
100
AcDbEntity
  8
0
100
AcDbLine
 62
9
  6
CONTINUOUS
 10
8.7217591082
 20
10.6247835381
 11
8.7201591821
 21
10.628141904
  0
LINE
  5
3DE
100
AcDbEntity
  8
0
100
AcDbLine
 62
9
  6
CONTINUOUS
 10
8.7207258539
 20
10.6242618112
 11
8.7191255622
 21
10.6275809182
  0
SPLINE
  5
3DF
100
AcDbEntity
  8
0
100
AcDbSpline
 62
7
  6
CONTINUOUS
 70
0
 71
3
 72
31
 73
27
 74
0
 42
0.0000001
 43
0.0000001
 44
0.0000000001
 40
0.0
 40
0.0
 40
0.0
 40
0.0
 40
0.0454719464
 40
0.0908992171
 40
0.1360729758
 40
0.1584987519
 40
0.1807718184
 40
0.2028807514
 40
0.2249049385
 40
0.2470491261
 40
0.2697423922
 40
0.293626454
 40
0.3193714676
 40
0.3473805626
 40
0.3776782766
 40
0.4100278306
 40
0.4441135606
 40
0.4796282021
 40
0.5163107161
 40
0.5539613711
 40
0.5924169703
 40
0.6712426119
 40
0.7519664648
 40
0.8339895214
 40
0.9168401535
 40
1.0
 40
1.0
 40
1.0
 40
1.0
 10
12.5053944838
 20
7.6353642544
 30
0.0
 10
12.5056159548
 20
7.6321385841
 30
0.0
 10
12.5056039525
 20
7.6256492287
 30
0.0
 10
12.5041880902
 20
7.6160452704
 30
0.0
 10
12.5017670768
 20
7.608334849
 30
0.0
 10
12.4990075728
 20
7.6025606558
 30
0.0
 10
12.4965142542
 20
7.5985050016
 30
0.0
 10
12.493555151
 20
7.5948076174
 30
0.0
 10
12.4900931882
 20
7.5915808113
 30
0.0
 10
12.4860801777
 20
7.5889792754
 30
0.0
 10
12.4814967021
 20
7.587182971
 30
0.0
 10
12.4763784881
 20
7.5863716921
 30
0.0
 10
12.4708318139
 20
7.5866363389
 30
0.0
 10
12.4649717653
 20
7.5879112661
 30
0.0
 10
12.4588810508
 20
7.5900577572
 30
0.0
 10
12.4526175885
 20
7.5929149018
 30
0.0
 10
12.4462190941
 20
7.5963287862
 30
0.0
 10
12.4397102512
 20
7.6001718887
 30
0.0
 10
12.433101184
 20
7.6043357701
 30
0.0
 10
12.426399959
 20
7.6087420979
 30
0.0
 10
12.4172681156
 20
7.6149043209
 30
0.0
 10
12.4056723444
 20
7.6228893266
 30
0.0
 10
12.391487986
 20
7.6325772452
 30
0.0
 10
12.3769352967
 20
7.6422317702
 30
0.0
 10
12.3620483277
 20
7.651690357
 30
0.0
 10
12.3519317275
 20
7.6577756818
 30
0.0
 10
12.3468216225
 20
7.660750737
 30
0.0
  0
SPLINE
  5
3E0
100
AcDbEntity
  8
0
100
AcDbSpline
 62
9
  6
CONTINUOUS
 70
0
 71
3
 72
13
 73
9
 74
0
 42
0.0000001
 43
0.0000001
 44
0.0000000001
 40
0.0
 40
0.0
 40
0.0
 40
0.0
 40
0.2499337531
 40
0.3749879669
 40
0.5000093863
 40
0.6250293208
 40
0.750083228
 40
1.0
 40
1.0
 40
1.0
 40
1.0
 10
11.7307028937
 20
10.1787713796
 30
0.0
 10
11.7605478495
 20
10.1456243556
 30
0.0
 10
11.8026073653
 20
10.0933375562
 30
0.0
 10
11.8525292186
 20
10.0193387455
 30
0.0
 10
11.8867970245
 20
9.9617914556
 30
0.0
 10
11.9177574429
 20
9.902398716
 30
0.0
 10
11.9544526316
 20
9.8210300172
 30
0.0
 10
11.9767205177
 20
9.7577205561
 30
0.0
 10
11.9890605024
 20
9.7148614727
 30
0.0
  0
SPLINE
  5
3E1
100
AcDbEntity
  8
0
100
AcDbSpline
 62
9
  6
CONTINUOUS
 70
0
 71
3
 72
11
 73
7
 74
0
 42
0.0000001
 43
0.0000001
 44
0.0000000001
 40
0.0
 40
0.0
 40
0.0
 40
0.0
 40
0.2499469067
 40
0.4999322042
 40
0.7499443606
 40
1.0
 40
1.0
 40
1.0
 40
1.0
 10
11.7286819602
 20
10.1776218025
 30
0.0
 10
11.7587540278
 20
10.14468109
 30
0.0
 10
11.8152369952
 20
10.0753392469
 30
0.0
 10
11.8876670335
 20
9.9624739887
 30
0.0
 10
11.9467203537
 20
9.8420427221
 30
0.0
 10
11.976625674
 20
9.7577160604
 30
0.0
 10
11.9890605349
 20
9.7148613607
 30
0.0
  0
SPLINE
  5
3E2
100
AcDbEntity
  8
0
100
AcDbSpline
 62
9
  6
CONTINUOUS
 70
0
 71
3
 72
11
 73
7
 74
0
 42
0.0000001
 43
0.0000001
 44
0.0000000001
 40
0.0
 40
0.0
 40
0.0
 40
0.0
 40
0.2499741512
 40
0.5000019927
 40
0.7500283578
 40
1.0
 40
1.0
 40
1.0
 40
1.0
 10
11.9002128529
 20
9.7148613461
 30
0.0
 10
11.8881815765
 20
9.7554520951
 30
0.0
 10
11.8594505291
 20
9.8353374768
 30
0.0
 10
11.8032450808
 20
9.9495353489
 30
0.0
 10
11.734747194
 20
10.0568060554
 30
0.0
 10
11.6815182112
 20
10.1229205352
 30
0.0
 10
11.6532121581
 20
10.1544021472
 30
0.0
  0
SPLINE
  5
3E3
100
AcDbEntity
  8
0
100
AcDbSpline
 62
9
  6
CONTINUOUS
 70
0
 71
3
 72
14
 73
10
 74
0
 42
0.0000001
 43
0.0000001
 44
0.0000000001
 40
0.0
 40
0.0
 40
0.0
 40
0.0
 40
0.3083615601
 40
0.4484161503
 40
0.5786579117
 40
0.698905632
 40
0.8091349032
 40
0.909427218
 40
1.0
 40
1.0
 40
1.0
 40
1.0
 10
11.6532121581
 20
10.1544021472
 30
0.0
 10
11.660699278
 20
10.1576245017
 30
0.0
 10
11.6716515993
 20
10.1621681246
 30
0.0
 10
11.6859899057
 20
10.1675004972
 30
0.0
 10
11.6957756991
 20
10.1707956016
 30
0.0
 10
11.704928292
 20
10.1734795877
 30
0.0
 10
11.7134304831
 20
10.1755372827
 30
0.0
 10
11.721267565
 20
10.1769532567
 30
0.0
 10
11.7262917121
 20
10.177485816
 30
0.0
 10
11.7286820093
 20
10.1776218445
 30
0.0
  0
LINE
  5
3E4
100
AcDbEntity
  8
0
100
AcDbLine
 62
7
  6
CONTINUOUS
 10
11.4084079746
 20
9.7148617206
 11
11.4928927078
 21
9.7148617381
  0
LINE
  5
3E5
100
AcDbEntity
  8
0
100
AcDbLine
 62
9
  6
CONTINUOUS
 10
11.4928927132
 20
9.7148614498
 11
11.6286572741
 21
9.7148614753
  0
LINE
  5
3E6
100
AcDbEntity
  8
0
100
AcDbLine
 62
9
  6
CONTINUOUS
 10
11.6286572734
 20
9.7148620036
 11
11.7368598774
 21
9.7148620281
  0
SPLINE
  5
3E7
100
AcDbEntity
  8
0
100
AcDbSpline
 62
9
  6
CONTINUOUS
 70
0
 71
3
 72
11
 73
7
 74
0
 42
0.0000001
 43
0.0000001
 44
0.0000000001
 40
0.0
 40
0.0
 40
0.0
 40
0.0
 40
0.2499793217
 40
0.4999967296
 40
0.750013888
 40
1.0
 40
1.0
 40
1.0
 40
1.0
 10
11.2180880154
 20
9.7148612902
 30
0.0
 10
11.2074918874
 20
9.7364020782
 30
0.0
 10
11.1839929413
 20
9.7783941127
 30
0.0
 10
11.1423898542
 20
9.8373416261
 30
0.0
 10
11.0949073594
 20
9.8916645251
 30
0.0
 10
11.0596953135
 20
9.9244532641
 30
0.0
 10
11.0413182664
 20
9.9398999117
 30
0.0
  0
LINE
  5
3E8
100
AcDbEntity
  8
0
100
AcDbLine
 62
9
  6
CONTINUOUS
 10
11.0476171632
 20
9.9466067615
 11
11.0491621013
 21
9.9484988041
  0
SPLINE
  5
3E9
100
AcDbEntity
  8
0
100
AcDbSpline
 62
9
  6
CONTINUOUS
 70
0
 71
3
 72
15
 73
11
 74
0
 42
0.0000001
 43
0.0000001
 44
0.0000000001
 40
0.0
 40
0.0
 40
0.0
 40
0.0
 40
0.081259948
 40
0.1737400371
 40
0.2786046865
 40
0.3965194667
 40
0.5278239556
 40
0.6724543073
 40
0.8300170205
 40
1.0
 40
1.0
 40
1.0
 40
1.0
 10
10.802804785
 20
10.0978431785
 30
0.0
 10
10.8043877235
 20
10.0980975794
 30
0.0
 10
10.8077214429
 20
10.0989681814
 30
0.0
 10
10.8128109512
 20
10.1010735444
 30
0.0
 10
10.818291795
 20
10.1040329296
 30
0.0
 10
10.8241630415
 20
10.1078288091
 30
0.0
 10
10.8304194078
 20
10.11244396
 30
0.0
 10
10.8370558315
 20
10.1178430385
 30
0.0
 10
10.8440675278
 20
10.1239791099
 30
0.0
 10
10.8488114916
 20
10.1283685762
 30
0.0
 10
10.8512495977
 20
10.1306714583
 30
0.0
  0
LINE
  5
3EA
100
AcDbEntity
  8
0
100
AcDbLine
 62
9
  6
CONTINUOUS
 10
10.8512495975
 20
10.1306714576
 11
10.8633676526
 21
10.1262781112
  0
SPLINE
  5
3EB
100
AcDbEntity
  8
0
100
AcDbSpline
 62
9
  6
CONTINUOUS
 70
0
 71
3
 72
11
 73
7
 74
0
 42
0.0000001
 43
0.0000001
 44
0.0000000001
 40
0.0
 40
0.0
 40
0.0
 40
0.0
 40
0.2492302679
 40
0.499076216
 40
0.749363785
 40
1.0
 40
1.0
 40
1.0
 40
1.0
 10
10.8633676515
 20
10.1262781075
 30
0.0
 10
10.8872933214
 20
10.117342393
 30
0.0
 10
10.9344503119
 20
10.0973540418
 30
0.0
 10
11.0023751664
 20
10.0613345026
 30
0.0
 10
11.0670236517
 20
10.0194506217
 30
0.0
 10
11.1075227015
 20
9.9877769648
 30
0.0
 10
11.127013878
 20
9.9710509746
 30
0.0
  0
LINE
  5
3EC
100
AcDbEntity
  8
0
100
AcDbLine
 62
9
  6
CONTINUOUS
 10
10.8005953085
 20
10.0918684705
 11
10.802802214
 21
10.0978427853
  0
SPLINE
  5
3ED
100
AcDbEntity
  8
0
100
AcDbSpline
 62
9
  6
CONTINUOUS
 70
0
 71
3
 72
13
 73
9
 74
0
 42
0.0000001
 43
0.0000001
 44
0.0000000001
 40
0.0
 40
0.0
 40
0.0
 40
0.0
 40
0.249895667
 40
0.3757353859
 40
0.5018526824
 40
0.626338995
 40
0.7504379688
 40
1.0
 40
1.0
 40
1.0
 40
1.0
 10
10.7990010842
 20
10.0927711675
 30
0.0
 10
10.7991474766
 20
10.0927174698
 30
0.0
 10
10.7993642421
 20
10.0926278319
 30
0.0
 10
10.79966003
 20
10.0925247248
 30
0.0
 10
10.7998833003
 20
10.0924520615
 30
0.0
 10
10.8000989996
 20
10.092358992
 30
0.0
 10
10.8003537822
 20
10.0921771343
 30
0.0
 10
10.8005049057
 20
10.0919953374
 30
0.0
 10
10.8005953603
 20
10.0918685806
 30
0.0
  0
LINE
  5
3EE
100
AcDbEntity
  8
0
100
AcDbLine
 62
9
  6
CONTINUOUS
 10
10.7990010843
 20
10.0927711678
 11
10.8011197244
 21
10.0985141846
  0
SPLINE
  5
3EF
100
AcDbEntity
  8
0
100
AcDbSpline
 62
9
  6
CONTINUOUS
 70
0
 71
3
 72
15
 73
11
 74
0
 42
0.0000001
 43
0.0000001
 44
0.0000000001
 40
0.0
 40
0.0
 40
0.0
 40
0.0
 40
0.0806924337
 40
0.1726999968
 40
0.277245991
 40
0.3950272574
 40
0.5263998582
 40
0.6713066282
 40
0.8293475278
 40
1.0
 40
1.0
 40
1.0
 40
1.0
 10
10.7904287232
 20
10.1027464438
 30
0.0
 10
10.7919708124
 20
10.1029994292
 30
0.0
 10
10.7952191446
 20
10.103869172
 30
0.0
 10
10.8001704874
 20
10.1059745691
 30
0.0
 10
10.8054993698
 20
10.1089357546
 30
0.0
 10
10.8112052682
 20
10.1127354274
 30
0.0
 10
10.8172833419
 20
10.1173565474
 30
0.0
 10
10.8237287098
 20
10.122764363
 30
0.0
 10
10.8305370544
 20
10.1289122146
 30
0.0
 10
10.8351406499
 20
10.1333095111
 30
0.0
 10
10.8375066419
 20
10.1356169646
 30
0.0
  0
LINE
  5
3F0
100
AcDbEntity
  8
0
100
AcDbLine
 62
9
  6
CONTINUOUS
 10
10.7882642895
 20
10.096789226
 11
10.7904287798
 21
10.102746453
  0
LINE
  5
3F1
100
AcDbEntity
  8
0
100
AcDbLine
 62
9
  6
CONTINUOUS
 10
10.7866283128
 20
10.097504786
 11
10.788264296
 21
10.0967892401
  0
LINE
  5
3F2
100
AcDbEntity
  8
0
100
AcDbLine
 62
9
  6
CONTINUOUS
 10
10.7963757477
 20
10.0862051384
 11
10.795681645
 21
10.0864802951
  0
LINE
  5
3F3
100
AcDbEntity
  8
0
100
AcDbLine
 62
9
  6
CONTINUOUS
 10
10.7887699044
 20
10.1033958161
 11
10.7904290611
 21
10.1027477627
  0
LINE
  5
3F4
100
AcDbEntity
  8
0
100
AcDbLine
 62
9
  6
CONTINUOUS
 10
10.7866283111
 20
10.0975047825
 11
10.7887701842
 21
10.1033971233
  0
SPLINE
  5
3F5
100
AcDbEntity
  8
0
100
AcDbSpline
 62
9
  6
CONTINUOUS
 70
0
 71
3
 72
14
 73
10
 74
0
 42
0.0000001
 43
0.0000001
 44
0.0000000001
 40
0.0
 40
0.0
 40
0.0
 40
0.0
 40
0.0789475105
 40
0.1702716896
 40
0.2747243859
 40
0.3926961061
 40
0.5243596455
 40
0.6697121114
 40
1.0
 40
1.0
 40
1.0
 40
1.0
 10
9.4513366962
 20
10.331948121
 30
0.0
 10
9.4504382736
 20
10.332384973
 30
0.0
 10
9.4485813641
 20
10.3334943519
 30
0.0
 10
9.4458201726
 20
10.3356142129
 30
0.0
 10
9.4428880378
 20
10.3382968006
 30
0.0
 10
9.439786639
 20
10.341533858
 30
0.0
 10
9.4365173285
 20
10.345316875
 30
0.0
 10
9.4317350938
 20
10.3513343471
 30
0.0
 10
9.4282245131
 20
10.3562278627
 30
0.0
 10
9.4258490246
 20
10.3596666029
 30
0.0
  0
SPLINE
  5
3F6
100
AcDbEntity
  8
0
100
AcDbSpline
 62
9
  6
CONTINUOUS
 70
0
 71
3
 72
12
 73
8
 74
0
 42
0.0000001
 43
0.0000001
 44
0.0000000001
 40
0.0
 40
0.0
 40
0.0
 40
0.0
 40
0.2501813649
 40
0.5000645259
 40
0.7499090442
 40
0.8749150368
 40
1.0
 40
1.0
 40
1.0
 40
1.0
 10
9.4258490249
 20
10.3596665934
 30
0.0
 10
9.5456365594
 20
10.3613369886
 30
0.0
 10
9.7853282856
 20
10.3551515847
 30
0.0
 10
10.1426720657
 20
10.3158255681
 30
0.0
 10
10.4364368761
 20
10.2568781461
 30
0.0
 10
10.6672856083
 20
10.1932116972
 30
0.0
 10
10.7810987016
 20
10.1557612567
 30
0.0
 10
10.8375064288
 20
10.1356167502
 30
0.0
  0
SPLINE
  5
3F7
100
AcDbEntity
  8
0
100
AcDbSpline
 62
9
  6
CONTINUOUS
 70
0
 71
3
 72
13
 73
9
 74
0
 42
0.0000001
 43
0.0000001
 44
0.0000000001
 40
0.0
 40
0.0
 40
0.0
 40
0.0
 40
0.1250175051
 40
0.2500524414
 40
0.5000122464
 40
0.6250272277
 40
0.7500445955
 40
1.0
 40
1.0
 40
1.0
 40
1.0
 10
10.7887701835
 20
10.1033971223
 30
0.0
 10
10.7359199032
 20
10.1241201697
 30
0.0
 10
10.6291012143
 20
10.1628071869
 30
0.0
 10
10.4118265981
 20
10.228949164
 30
0.0
 10
10.1897192157
 20
10.2782311376
 30
0.0
 10
9.9649439341
 20
10.310720313
 30
0.0
 10
9.7388475801
 20
10.3320647857
 30
0.0
 10
9.5682452041
 20
10.3354705886
 30
0.0
 10
9.454796935
 20
10.3320543332
 30
0.0
  0
LINE
  5
3F8
100
AcDbEntity
  8
0
100
AcDbLine
 62
9
  6
CONTINUOUS
 10
9.4513364701
 20
10.3319497523
 11
9.4547971597
 21
10.3320527138
  0
LINE
  5
3F9
100
AcDbEntity
  8
0
100
AcDbLine
 62
9
  6
CONTINUOUS
 10
9.4517367448
 20
10.3242390569
 11
9.4513366957
 21
10.331948121
  0
LINE
  5
3FA
100
AcDbEntity
  8
0
100
AcDbLine
 62
9
  6
CONTINUOUS
 10
9.4551903811
 20
10.324313954
 11
9.4547969354
 21
10.3320543334
  0
SPLINE
  5
3FB
100
AcDbEntity
  8
0
100
AcDbSpline
 62
9
  6
CONTINUOUS
 70
0
 71
3
 72
11
 73
7
 74
0
 42
0.0000001
 43
0.0000001
 44
0.0000000001
 40
0.0
 40
0.0
 40
0.0
 40
0.0
 40
0.2500198183
 40
0.4999784828
 40
0.7499550779
 40
1.0
 40
1.0
 40
1.0
 40
1.0
 10
9.4551903815
 20
10.324313954
 30
0.0
 10
9.5683774081
 20
10.326716083
 30
0.0
 10
9.7950922973
 20
10.3210382765
 30
0.0
 10
10.1327496144
 20
10.2804349821
 30
0.0
 10
10.4649747141
 20
10.2076189207
 30
0.0
 10
10.680780314
 20
10.1377024029
 30
0.0
 10
10.7866283087
 20
10.0975047759
 30
0.0
  0
SPLINE
  5
3FC
100
AcDbEntity
  8
0
100
AcDbSpline
 62
9
  6
CONTINUOUS
 70
0
 71
3
 72
17
 73
13
 74
0
 42
0.0000001
 43
0.0000001
 44
0.0000000001
 40
0.0
 40
0.0
 40
0.0
 40
0.0
 40
0.1250084866
 40
0.1875172471
 40
0.2500221013
 40
0.3750189877
 40
0.500014966
 40
0.6250096428
 40
0.7500020463
 40
0.8125031485
 40
0.8750069763
 40
1.0
 40
1.0
 40
1.0
 40
1.0
 10
10.7834685265
 20
10.0912800247
 30
0.0
 10
10.7308999846
 20
10.1117430334
 30
0.0
 10
10.6512712659
 20
10.1405075898
 30
0.0
 10
10.5437666486
 20
10.174772068
 30
0.0
 10
10.4354274298
 20
10.2062865869
 30
0.0
 10
10.2985728037
 20
10.240555421
 30
0.0
 10
10.1325293154
 20
10.2735103806
 30
0.0
 10
9.9650768844
 20
10.2983142581
 30
0.0
 10
9.8246829033
 20
10.3121434653
 30
0.0
 10
9.7120713013
 20
10.3190506855
 30
0.0
 10
9.5993249141
 20
10.3231675817
 30
0.0
 10
9.5146712624
 20
10.3231220007
 30
0.0
 10
9.458284692
 20
10.3217242183
 30
0.0
  0
LINE
  5
3FD
100
AcDbEntity
  8
0
100
AcDbLine
 62
9
  6
CONTINUOUS
 10
10.7821575342
 20
10.0855467205
 11
10.7814987992
 21
10.0857974686
  0
LINE
  5
3FE
100
AcDbEntity
  8
0
100
AcDbLine
 62
9
  6
CONTINUOUS
 10
10.7814985105
 20
10.08579665
 11
10.7834688676
 21
10.0912809399
  0
LINE
  5
3FF
100
AcDbEntity
  8
0
100
AcDbLine
 62
9
  6
CONTINUOUS
 10
10.7821578229
 20
10.0855475396
 11
10.7841275791
 21
10.0910239715
  0
LINE
  5
400
100
AcDbEntity
  8
0
100
AcDbLine
 62
9
  6
CONTINUOUS
 10
10.7937405699
 20
10.0811397463
 11
10.7956816463
 21
10.0864802981
  0
LINE
  5
401
100
AcDbEntity
  8
0
100
AcDbLine
 62
9
  6
CONTINUOUS
 10
10.7944302549
 20
10.0808754703
 11
10.7963757493
 21
10.0862051415
  0
LINE
  5
402
100
AcDbEntity
  8
0
100
AcDbLine
 62
9
  6
CONTINUOUS
 10
11.040007095
 20
9.9382772274
 11
11.0413182689
 21
9.939899911
  0
SPLINE
  5
403
100
AcDbEntity
  8
0
100
AcDbSpline
 62
9
  6
CONTINUOUS
 70
0
 71
3
 72
12
 73
8
 74
0
 42
0.0000001
 43
0.0000001
 44
0.0000000001
 40
0.0
 40
0.0
 40
0.0
 40
0.0
 40
0.2498904342
 40
0.4998757875
 40
0.6249254242
 40
0.7499757257
 40
1.0
 40
1.0
 40
1.0
 40
1.0
 10
11.0396877944
 20
9.9385388708
 30
0.0
 10
11.0582572082
 20
9.9233320666
 30
0.0
 10
11.0938104718
 20
9.8909118442
 30
0.0
 10
11.1337461308
 20
9.8459502005
 30
0.0
 10
11.1627273742
 20
9.8076202466
 30
0.0
 10
11.1896429423
 20
9.7678146386
 30
0.0
 10
11.207421537
 20
9.7363767081
 30
0.0
 10
11.2180880164
 20
9.7148612837
 30
0.0
  0
LINE
  5
404
100
AcDbEntity
  8
0
100
AcDbLine
 62
9
  6
CONTINUOUS
 10
9.1316342293
 20
10.7585203661
 11
9.1308091405
 21
10.7657979112
  0
LINE
  5
405
100
AcDbEntity
  8
0
100
AcDbLine
 62
9
  6
CONTINUOUS
 10
9.1333916713
 20
10.7587301494
 11
9.1325659631
 21
10.7660187621
  0
LINE
  5
406
100
AcDbEntity
  8
0
100
AcDbLine
 62
9
  6
CONTINUOUS
 10
11.2696469451
 20
10.5095279821
 11
11.2675403127
 21
10.5042064607
  0
LINE
  5
407
100
AcDbEntity
  8
0
100
AcDbLine
 62
9
  6
CONTINUOUS
 10
11.29300554
 20
10.5003265166
 11
11.2908679914
 21
10.495229084
  0
SPLINE
  5
408
100
AcDbEntity
  8
0
100
AcDbSpline
 62
9
  6
CONTINUOUS
 70
0
 71
3
 72
11
 73
7
 74
0
 42
0.0000001
 43
0.0000001
 44
0.0000000001
 40
0.0
 40
0.0
 40
0.0
 40
0.0
 40
0.250005575
 40
0.4999859018
 40
0.7499749216
 40
1.0
 40
1.0
 40
1.0
 40
1.0
 10
9.4585322651
 20
10.3144562118
 30
0.0
 10
9.5710270342
 20
10.3163597379
 30
0.0
 10
9.7963251792
 20
10.3096765795
 30
0.0
 10
10.1317424284
 20
10.2680177732
 30
0.0
 10
10.4617676078
 20
10.1949896441
 30
0.0
 10
10.6762378445
 20
10.1255567278
 30
0.0
 10
10.7814985106
 20
10.0857966499
 30
0.0
  0
LINE
  5
409
100
AcDbEntity
  8
0
100
AcDbLine
 62
9
  6
CONTINUOUS
 10
9.4585327714
 20
10.3144562206
 11
9.4582842756
 21
10.3217257562
  0
LINE
  5
40A
100
AcDbEntity
  8
0
100
AcDbLine
 62
9
  6
CONTINUOUS
 10
9.4561752658
 20
10.3144155067
 11
9.4559219381
 21
10.3216640792
  0
LINE
  5
40B
100
AcDbEntity
  8
0
100
AcDbLine
 62
9
  6
CONTINUOUS
 10
9.4585326116
 20
10.3144581011
 11
9.4561754269
 21
10.3144136257
  0
LINE
  5
40C
100
AcDbEntity
  8
0
100
AcDbLine
 62
9
  6
CONTINUOUS
 10
9.1344832721
 20
10.2925045204
 11
9.1340139212
 21
10.2956546306
  0
LINE
  5
40D
100
AcDbEntity
  8
0
100
AcDbLine
 62
9
  6
CONTINUOUS
 10
9.134013921
 20
10.2956546245
 11
9.1323922692
 21
10.2954332244
  0
LINE
  5
40E
100
AcDbEntity
  8
0
100
AcDbLine
 62
9
  6
CONTINUOUS
 10
9.1297875997
 20
10.2998979413
 11
9.1291272514
 21
10.3034140194
  0
LINE
  5
40F
100
AcDbEntity
  8
0
100
AcDbLine
 62
9
  6
CONTINUOUS
 10
9.1274932052
 20
10.299595316
 11
9.1268367443
 21
10.3030722219
  0
SPLINE
  5
410
100
AcDbEntity
  8
0
100
AcDbSpline
 62
9
  6
CONTINUOUS
 70
0
 71
3
 72
13
 73
9
 74
0
 42
0.0000001
 43
0.0000001
 44
0.0000000001
 40
0.0
 40
0.0
 40
0.0
 40
0.0
 40
0.0883287478
 40
0.1871908084
 40
0.2966897334
 40
0.4168216627
 40
0.6885051812
 40
1.0
 40
1.0
 40
1.0
 40
1.0
 10
9.1268367443
 20
10.3030722219
 30
0.0
 10
9.1254988333
 20
10.3036540115
 30
0.0
 10
9.1227177746
 20
10.3050129233
 30
0.0
 10
9.1184607333
 20
10.3074449037
 30
0.0
 10
9.1138912997
 20
10.31037414
 30
0.0
 10
9.1071090586
 20
10.315127494
 30
0.0
 10
9.0979513455
 20
10.3222858564
 30
0.0
 10
9.090619596
 20
10.3285354945
 30
0.0
 10
9.0867474269
 20
10.3319232915
 30
0.0
  0
SPLINE
  5
411
100
AcDbEntity
  8
0
100
AcDbSpline
 62
9
  6
CONTINUOUS
 70
0
 71
3
 72
11
 73
7
 74
0
 42
0.0000001
 43
0.0000001
 44
0.0000000001
 40
0.0
 40
0.0
 40
0.0
 40
0.0
 40
0.2000072412
 40
0.4458367459
 40
0.7202766686
 40
1.0
 40
1.0
 40
1.0
 40
1.0
 10
9.3995395338
 20
10.3592318104
 30
0.0
 10
9.3993274825
 20
10.3625454866
 30
0.0
 10
9.3989142463
 20
10.3699357802
 30
0.0
 10
9.3983488286
 20
10.3818802855
 30
0.0
 10
9.3978195182
 20
10.3951510558
 30
0.0
 10
9.3975059271
 20
10.4043458014
 30
0.0
 10
9.3973620337
 20
10.4089874459
 30
0.0
  0
SPLINE
  5
412
100
AcDbEntity
  8
0
100
AcDbSpline
 62
9
  6
CONTINUOUS
 70
0
 71
3
 72
11
 73
7
 74
0
 42
0.0000001
 43
0.0000001
 44
0.0000000001
 40
0.0
 40
0.0
 40
0.0
 40
0.0
 40
0.1944485234
 40
0.4381724533
 40
0.7150291516
 40
1.0
 40
1.0
 40
1.0
 40
1.0
 10
9.4258490241
 20
10.3596665934
 30
0.0
 10
9.4256597881
 20
10.3630022521
 30
0.0
 10
9.4252982849
 20
10.3705225007
 30
0.0
 10
9.424820951
 20
10.3827989847
 30
0.0
 10
9.4243938756
 20
10.3966335395
 30
0.0
 10
9.4241559188
 20
10.4062840203
 30
0.0
 10
9.4240520784
 20
10.4111792994
 30
0.0
  0
SPLINE
  5
413
100
AcDbEntity
  8
0
100
AcDbSpline
 62
9
  6
CONTINUOUS
 70
0
 71
3
 72
9
 73
5
 74
0
 42
0.0000001
 43
0.0000001
 44
0.0000000001
 40
0.0
 40
0.0
 40
0.0
 40
0.0
 40
0.2532026238
 40
1.0
 40
1.0
 40
1.0
 40
1.0
 10
9.3973620219
 20
10.4089874449
 30
0.0
 10
9.3962021087
 20
10.4110506569
 30
0.0
 10
9.3915713282
 20
10.4191707177
 30
0.0
 10
9.3867199903
 20
10.4271673452
 30
0.0
 10
9.3829242721
 20
10.4330262199
 30
0.0
  0
SPLINE
  5
414
100
AcDbEntity
  8
0
100
AcDbSpline
 62
9
  6
CONTINUOUS
 70
0
 71
3
 72
21
 73
17
 74
0
 42
0.0000001
 43
0.0000001
 44
0.0000000001
 40
0.0
 40
0.0
 40
0.0
 40
0.0
 40
0.1249650013
 40
0.1874538556
 40
0.2499355767
 40
0.3748765254
 40
0.4373586274
 40
0.4998474739
 40
0.5623438476
 40
0.6248483055
 40
0.6873606046
 40
0.7498777501
 40
0.8124006897
 40
0.8749349292
 40
0.9374730088
 40
1.0
 40
1.0
 40
1.0
 40
1.0
 10
10.8479333569
 20
10.1673025066
 30
0.0
 10
10.7920291371
 20
10.1910072971
 30
0.0
 10
10.7071443431
 20
10.2242206617
 30
0.0
 10
10.592225497
 20
10.2635430284
 30
0.0
 10
10.4762104136
 20
10.2994694764
 30
0.0
 10
10.3586636874
 20
10.3302639286
 30
0.0
 10
10.2399693276
 20
10.3559777919
 30
0.0
 10
10.1504185534
 20
10.3727402577
 30
0.0
 10
10.0604200174
 20
10.386965922
 30
0.0
 10
9.9700439117
 20
10.3986436104
 30
0.0
 10
9.8793641836
 20
10.4077699636
 30
0.0
 10
9.7884466354
 20
10.4142459173
 30
0.0
 10
9.6973626808
 20
10.4179604179
 30
0.0
 10
9.6061955269
 20
10.4187954061
 30
0.0
 10
9.5150472739
 20
10.4167072849
 30
0.0
 10
9.4543563282
 20
10.413352183
 30
0.0
 10
9.4240513566
 20
10.4111792555
 30
0.0
  0
SPLINE
  5
415
100
AcDbEntity
  8
0
100
AcDbSpline
 62
9
  6
CONTINUOUS
 70
0
 71
3
 72
13
 73
9
 74
0
 42
0.0000001
 43
0.0000001
 44
0.0000000001
 40
0.0
 40
0.0
 40
0.0
 40
0.0
 40
0.2502190172
 40
0.5002828178
 40
0.6253029934
 40
0.7502676447
 40
0.8751681346
 40
1.0
 40
1.0
 40
1.0
 40
1.0
 10
9.3829242721
 20
10.4330262197
 30
0.0
 10
9.5113290174
 20
10.4402305559
 30
0.0
 10
9.7689759777
 20
10.4415103389
 30
0.0
 10
10.0894291376
 20
10.4100863102
 30
0.0
 10
10.3425670992
 20
10.3650375683
 30
0.0
 10
10.5302948601
 20
10.3211885304
 30
0.0
 10
10.7152490614
 20
10.2671882384
 30
0.0
 10
10.8363809931
 20
10.2245026181
 30
0.0
 10
10.8962847076
 20
10.2015214697
 30
0.0
  0
SPLINE
  5
416
100
AcDbEntity
  8
0
100
AcDbSpline
 62
9
  6
CONTINUOUS
 70
0
 71
3
 72
10
 73
6
 74
0
 42
0.0000001
 43
0.0000001
 44
0.0000000001
 40
0.0
 40
0.0
 40
0.0
 40
0.0
 40
0.2100501574
 40
0.4528891745
 40
1.0
 40
1.0
 40
1.0
 40
1.0
 10
10.8375065067
 20
10.1356170115
 30
0.0
 10
10.8381722515
 20
10.1378558498
 30
0.0
 10
10.8396565812
 20
10.1426684768
 30
0.0
 10
10.8430761986
 20
10.1532496517
 30
0.0
 10
10.845919306
 20
10.1615617685
 30
0.0
 10
10.8479333566
 20
10.1673025067
 30
0.0
  0
SPLINE
  5
417
100
AcDbEntity
  8
0
100
AcDbSpline
 62
9
  6
CONTINUOUS
 70
0
 71
3
 72
10
 73
6
 74
0
 42
0.0000001
 43
0.0000001
 44
0.0000000001
 40
0.0
 40
0.0
 40
0.0
 40
0.0
 40
0.2104771077
 40
0.4531317168
 40
1.0
 40
1.0
 40
1.0
 40
1.0
 10
10.8499042398
 20
10.1311692748
 30
0.0
 10
10.8505783593
 20
10.1333450023
 30
0.0
 10
10.8520744201
 20
10.1380152252
 30
0.0
 10
10.85550759
 20
10.1482783154
 30
0.0
 10
10.8583496614
 20
10.1563366783
 30
0.0
 10
10.8603599246
 20
10.1619029664
 30
0.0
  0
SPLINE
  5
418
100
AcDbEntity
  8
0
100
AcDbSpline
 62
9
  6
CONTINUOUS
 70
0
 71
3
 72
9
 73
5
 74
0
 42
0.0000001
 43
0.0000001
 44
0.0000000001
 40
0.0
 40
0.0
 40
0.0
 40
0.0
 40
0.5020153843
 40
1.0
 40
1.0
 40
1.0
 40
1.0
 10
10.8603599921
 20
10.1619031474
 30
0.0
 10
10.8660053339
 20
10.1688528464
 30
0.0
 10
10.8775304291
 20
10.1824731577
 30
0.0
 10
10.889871655
 20
10.1953766549
 30
0.0
 10
10.8962847077
 20
10.20152147
 30
0.0
  0
SPLINE
  5
419
100
AcDbEntity
  8
0
100
AcDbSpline
 62
9
  6
CONTINUOUS
 70
0
 71
3
 72
10
 73
6
 74
0
 42
0.0000001
 43
0.0000001
 44
0.0000000001
 40
0.0
 40
0.0
 40
0.0
 40
0.0
 40
0.2107398573
 40
0.4535003741
 40
1.0
 40
1.0
 40
1.0
 40
1.0
 10
10.8512495965
 20
10.1306714587
 30
0.0
 10
10.8519202313
 20
10.1328470771
 30
0.0
 10
10.8534089089
 20
10.1375148733
 30
0.0
 10
10.8568251665
 20
10.1477637231
 30
0.0
 10
10.8596549191
 20
10.1558076436
 30
0.0
 10
10.8616565695
 20
10.1613618352
 30
0.0
  0
SPLINE
  5
41A
100
AcDbEntity
  8
0
100
AcDbSpline
 62
9
  6
CONTINUOUS
 70
0
 71
3
 72
10
 73
6
 74
0
 42
0.0000001
 43
0.0000001
 44
0.0000000001
 40
0.0
 40
0.0
 40
0.0
 40
0.0
 40
0.2116044126
 40
0.4543340766
 40
1.0
 40
1.0
 40
1.0
 40
1.0
 10
10.8633676503
 20
10.1262781079
 30
0.0
 10
10.8640565842
 20
10.128384734
 30
0.0
 10
10.8655768784
 20
10.1328944314
 30
0.0
 10
10.8690451341
 20
10.1427780622
 30
0.0
 10
10.8719015982
 20
10.150526888
 30
0.0
 10
10.8739173521
 20
10.1558751188
 30
0.0
  0
SPLINE
  5
41B
100
AcDbEntity
  8
0
100
AcDbSpline
 62
9
  6
CONTINUOUS
 70
0
 71
3
 72
12
 73
8
 74
0
 42
0.0000001
 43
0.0000001
 44
0.0000000001
 40
0.0
 40
0.0
 40
0.0
 40
0.0
 40
0.2869138861
 40
0.5761318524
 40
0.8234898105
 40
0.9221723437
 40
1.0
 40
1.0
 40
1.0
 40
1.0
 10
10.9112791372
 20
10.1957207417
 30
0.0
 10
10.9116811904
 20
10.1966741509
 30
0.0
 10
10.912460618
 20
10.1986004507
 30
0.0
 10
10.9135097587
 20
10.2013790499
 30
0.0
 10
10.9142484459
 20
10.2035484797
 30
0.0
 10
10.9146885862
 20
10.2050124577
 30
0.0
 10
10.9148529279
 20
10.2056277047
 30
0.0
 10
10.9149167573
 20
10.2059010252
 30
0.0
  0
SPLINE
  5
41C
100
AcDbEntity
  8
0
100
AcDbSpline
 62
9
  6
CONTINUOUS
 70
0
 71
3
 72
9
 73
5
 74
0
 42
0.0000001
 43
0.0000001
 44
0.0000000001
 40
0.0
 40
0.0
 40
0.0
 40
0.0
 40
0.501390814
 40
1.0
 40
1.0
 40
1.0
 40
1.0
 10
10.8739173511
 20
10.1558751192
 30
0.0
 10
10.8797883651
 20
10.1628716616
 30
0.0
 10
10.891782853
 20
10.1765909583
 30
0.0
 10
10.904610982
 20
10.1895535028
 30
0.0
 10
10.9112790856
 20
10.1957206552
 30
0.0
  0
SPLINE
  5
41D
100
AcDbEntity
  8
0
100
AcDbSpline
 62
9
  6
CONTINUOUS
 70
0
 71
3
 72
13
 73
9
 74
0
 42
0.0000001
 43
0.0000001
 44
0.0000000001
 40
0.0
 40
0.0
 40
0.0
 40
0.0
 40
0.2500138959
 40
0.3750567766
 40
0.5000717339
 40
0.6250837215
 40
0.7501044908
 40
1.0
 40
1.0
 40
1.0
 40
1.0
 10
11.1348655494
 20
9.9806793532
 30
0.0
 10
11.1157644621
 20
9.9987684292
 30
0.0
 10
11.0859278627
 20
10.0246951173
 30
0.0
 10
11.0440936316
 20
10.0566284068
 30
0.0
 10
11.0117374965
 20
10.0792468524
 30
0.0
 10
10.978485885
 20
10.1005212784
 30
0.0
 10
10.9330714221
 20
10.1270851988
 30
0.0
 10
10.8978366439
 20
10.1449536551
 30
0.0
 10
10.8739173511
 20
10.1558751192
 30
0.0
  0
SPLINE
  5
41E
100
AcDbEntity
  8
0
100
AcDbSpline
 62
9
  6
CONTINUOUS
 70
0
 71
3
 72
12
 73
8
 74
0
 42
0.0000001
 43
0.0000001
 44
0.0000000001
 40
0.0
 40
0.0
 40
0.0
 40
0.0
 40
0.2498558193
 40
0.4998100768
 40
0.6248451215
 40
0.7498950833
 40
1.0
 40
1.0
 40
1.0
 40
1.0
 10
10.9194756777
 20
10.1924643965
 30
0.0
 10
10.9461234909
 20
10.1817958291
 30
0.0
 10
10.9984630869
 20
10.1579506697
 30
0.0
 10
11.0608335643
 20
10.1221982532
 30
0.0
 10
11.1085653486
 20
10.0901986809
 30
0.0
 10
11.1547504949
 20
10.055984265
 30
0.0
 10
11.1875371739
 20
10.0278768082
 30
0.0
 10
11.2084208194
 20
10.0081425412
 30
0.0
  0
LINE
  5
41F
100
AcDbEntity
  8
0
100
AcDbLine
 62
9
  6
CONTINUOUS
 10
11.0483318998
 20
9.9460069278
 11
11.0498702639
 21
9.9478898358
  0
SPLINE
  5
420
100
AcDbEntity
  8
0
100
AcDbSpline
 62
9
  6
CONTINUOUS
 70
0
 71
3
 72
12
 73
8
 74
0
 42
0.0000001
 43
0.0000001
 44
0.0000000001
 40
0.0
 40
0.0
 40
0.0
 40
0.0
 40
0.249688273
 40
0.4996595328
 40
0.6247622765
 40
0.7498829175
 40
1.0
 40
1.0
 40
1.0
 40
1.0
 10
11.1312596282
 20
9.9673908191
 30
0.0
 10
11.1511773625
 20
9.9500686641
 30
0.0
 10
11.189234596
 20
9.9132730533
 30
0.0
 10
11.2316522527
 20
9.8624730866
 30
0.0
 10
11.2621337273
 20
9.8192323205
 30
0.0
 10
11.2902024852
 20
9.7743777789
 30
0.0
 10
11.3084280108
 20
9.7390187364
 30
0.0
 10
11.3191785906
 20
9.7148610558
 30
0.0
  0
SPLINE
  5
421
100
AcDbEntity
  8
0
100
AcDbSpline
 62
9
  6
CONTINUOUS
 70
0
 71
3
 72
14
 73
10
 74
0
 42
0.0000001
 43
0.0000001
 44
0.0000000001
 40
0.0
 40
0.0
 40
0.0
 40
0.0
 40
0.0886910376
 40
0.1875313173
 40
0.2968054103
 40
0.4166632886
 40
0.5471411056
 40
0.6880612359
 40
1.0
 40
1.0
 40
1.0
 40
1.0
 10
11.049870263
 20
9.9478898345
 30
0.0
 10
11.0522564044
 20
9.9480299393
 30
0.0
 10
11.0572882843
 20
9.9485708259
 30
0.0
 10
11.0651648651
 20
9.9499912045
 30
0.0
 10
11.073765057
 20
9.9520485485
 30
0.0
 10
11.0830816965
 20
9.9547276492
 30
0.0
 10
11.0931033937
 20
9.9580126623
 30
0.0
 10
11.1078975436
 20
9.9633355437
 30
0.0
 10
11.1192393928
 20
9.967852162
 30
0.0
 10
11.1270138797
 20
9.9710509785
 30
0.0
  0
SPLINE
  5
422
100
AcDbEntity
  8
0
100
AcDbSpline
 62
9
  6
CONTINUOUS
 70
0
 71
3
 72
9
 73
5
 74
0
 42
0.0000001
 43
0.0000001
 44
0.0000000001
 40
0.0
 40
0.0
 40
0.0
 40
0.0
 40
0.4851501177
 40
1.0
 40
1.0
 40
1.0
 40
1.0
 10
11.1390081052
 20
9.976716483
 30
0.0
 10
11.1499533616
 20
9.9823883341
 30
0.0
 10
11.1727363084
 20
9.9936598683
 30
0.0
 10
11.1961727889
 20
10.0035458146
 30
0.0
 10
11.208420826
 20
10.0081425484
 30
0.0
  0
SPLINE
  5
423
100
AcDbEntity
  8
0
100
AcDbSpline
 62
9
  6
CONTINUOUS
 70
0
 71
3
 72
11
 73
7
 74
0
 42
0.0000001
 43
0.0000001
 44
0.0000000001
 40
0.0
 40
0.0
 40
0.0
 40
0.0
 40
0.2499738486
 40
0.4999948509
 40
0.7500185456
 40
1.0
 40
1.0
 40
1.0
 40
1.0
 10
11.3191785757
 20
9.7148610902
 30
0.0
 10
11.3089992969
 20
9.7395033175
 30
0.0
 10
11.2858994285
 20
9.7877066163
 30
0.0
 10
11.2437883178
 20
9.8558863411
 30
0.0
 10
11.1948831655
 20
9.9193618373
 30
0.0
 10
11.1582207788
 20
9.9582293655
 30
0.0
 10
11.1390081052
 20
9.976716483
 30
0.0
  0
LINE
  5
424
100
AcDbEntity
  8
0
100
AcDbLine
 62
9
  6
CONTINUOUS
 10
11.738712284
 20
10.1869626263
 11
11.7373019592
 21
10.1857320014
  0
LINE
  5
425
100
AcDbEntity
  8
0
100
AcDbLine
 62
9
  6
CONTINUOUS
 10
11.7303980606
 20
10.1791188578
 11
11.7286843539
 21
10.1776238812
  0
LINE
  5
426
100
AcDbEntity
  8
0
100
AcDbLine
 62
9
  6
CONTINUOUS
 10
11.2858220694
 20
10.4829448932
 11
11.2881438906
 21
10.4884677026
  0
LINE
  5
427
100
AcDbEntity
  8
0
100
AcDbLine
 62
9
  6
CONTINUOUS
 10
11.6532272426
 20
10.1544155988
 11
11.6510610058
 21
10.1567584998
  0
SPLINE
  5
428
100
AcDbEntity
  8
0
100
AcDbSpline
 62
9
  6
CONTINUOUS
 70
0
 71
3
 72
15
 73
11
 74
0
 42
0.0000001
 43
0.0000001
 44
0.0000000001
 40
0.0
 40
0.0
 40
0.0
 40
0.0
 40
0.1692920505
 40
0.3263515934
 40
0.4706679859
 40
0.6018580009
 40
0.7198622082
 40
0.8250186853
 40
0.9180022763
 40
1.0
 40
1.0
 40
1.0
 40
1.0
 10
11.2366045375
 20
10.4504334864
 30
0.0
 10
11.2389780467
 20
10.4527569127
 30
0.0
 10
11.2436033588
 20
10.4571856343
 30
0.0
 10
11.250460002
 20
10.46337342
 30
0.0
 10
11.2569742095
 20
10.4688171534
 30
0.0
 10
11.263141278
 20
10.4734687706
 30
0.0
 10
11.2689549363
 20
10.47729182
 30
0.0
 10
11.2744069054
 20
10.4802689985
 30
0.0
 10
11.279493163
 20
10.4823822137
 30
0.0
 10
11.2828338765
 20
10.4832489279
 30
0.0
 10
11.2844229211
 20
10.4834999758
 30
0.0
  0
LINE
  5
429
100
AcDbEntity
  8
0
100
AcDbLine
 62
9
  6
CONTINUOUS
 10
11.286738592
 20
10.4890302777
 11
11.2881454457
 21
10.4884715371
  0
LINE
  5
42A
100
AcDbEntity
  8
0
100
AcDbLine
 62
9
  6
CONTINUOUS
 10
11.2844213951
 20
10.4834997347
 11
11.2867401376
 21
10.4890341028
  0
LINE
  5
42B
100
AcDbEntity
  8
0
100
AcDbLine
 62
9
  6
CONTINUOUS
 10
11.2626836009
 20
10.4918336815
 11
11.2649584307
 21
10.4975654369
  0
LINE
  5
42C
100
AcDbEntity
  8
0
100
AcDbLine
 62
9
  6
CONTINUOUS
 10
11.2612162161
 20
10.4924028003
 11
11.2626835835
 21
10.4918336349
  0
SPLINE
  5
42D
100
AcDbEntity
  8
0
100
AcDbSpline
 62
9
  6
CONTINUOUS
 70
0
 71
3
 72
15
 73
11
 74
0
 42
0.0000001
 43
0.0000001
 44
0.0000000001
 40
0.0
 40
0.0
 40
0.0
 40
0.0
 40
0.1699632207
 40
0.32749864
 40
0.472086965
 40
0.6033401136
 40
0.7212074893
 40
0.8260454074
 40
0.9185610332
 40
1.0
 40
1.0
 40
1.0
 40
1.0
 10
11.2148190111
 20
10.4593644539
 30
0.0
 10
11.2171185036
 20
10.461686868
 30
0.0
 10
11.2215995597
 20
10.4661127788
 30
0.0
 10
11.2282465907
 20
10.4722976625
 30
0.0
 10
11.2345631456
 20
10.4777374002
 30
0.0
 10
11.240545042
 20
10.4823844259
 30
0.0
 10
11.2461862062
 20
10.4862031795
 30
0.0
 10
11.251478974
 20
10.4891766158
 30
0.0
 10
11.2564198995
 20
10.4912869448
 30
0.0
 10
11.2596703172
 20
10.4921526209
 30
0.0
 10
11.2612162003
 20
10.4924027575
 30
0.0
  0
LINE
  5
42E
100
AcDbEntity
  8
0
100
AcDbLine
 62
9
  6
CONTINUOUS
 10
11.2612162005
 20
10.4924027582
 11
11.263474205
 21
10.4981293012
  0
SPLINE
  5
42F
100
AcDbEntity
  8
0
100
AcDbSpline
 62
9
  6
CONTINUOUS
 70
0
 71
3
 72
15
 73
11
 74
0
 42
0.0000001
 43
0.0000001
 44
0.0000000001
 40
0.0
 40
0.0
 40
0.0
 40
0.0
 40
0.1250026729
 40
0.2499892496
 40
0.374971212
 40
0.4999528633
 40
0.6249393196
 40
0.7499382398
 40
0.8749562729
 40
1.0
 40
1.0
 40
1.0
 40
1.0
 10
9.1333916721
 20
10.7587301421
 30
0.0
 10
9.2231525163
 20
10.7694271562
 30
0.0
 10
9.4033316266
 20
10.7855872858
 30
0.0
 10
9.6745169555
 20
10.7938914804
 30
0.0
 10
9.945712296
 20
10.7860519139
 30
0.0
 10
10.2159575718
 20
10.762071006
 30
0.0
 10
10.4842948853
 20
10.7219518796
 30
0.0
 10
10.7497865373
 20
10.6658816805
 30
0.0
 10
11.0114873147
 20
10.5940524607
 30
0.0
 10
11.1828279406
 20
10.5358389999
 30
0.0
 10
11.2675403129
 20
10.5042064606
 30
0.0
  0
LINE
  5
430
100
AcDbEntity
  8
0
100
AcDbLine
 62
9
  6
CONTINUOUS
 10
9.135026768
 20
10.7479617859
 11
9.1342083722
 21
10.7557822256
  0
LINE
  5
431
100
AcDbEntity
  8
0
100
AcDbLine
 62
9
  6
CONTINUOUS
 10
9.1380219195
 20
10.7483114851
 11
9.1372236077
 21
10.7561546304
  0
SPLINE
  5
432
100
AcDbEntity
  8
0
100
AcDbSpline
 62
9
  6
CONTINUOUS
 70
0
 71
3
 72
13
 73
9
 74
0
 42
0.0000001
 43
0.0000001
 44
0.0000000001
 40
0.0
 40
0.0
 40
0.0
 40
0.0
 40
0.1250287658
 40
0.2500495446
 40
0.4999790981
 40
0.7499175315
 40
0.8749532737
 40
1.0
 40
1.0
 40
1.0
 40
1.0
 10
9.1380219195
 20
10.7483114852
 30
0.0
 10
9.2273528532
 20
10.7586530901
 30
0.0
 10
9.4066618037
 20
10.7741310676
 30
0.0
 10
9.7662985345
 20
10.7840786844
 30
0.0
 10
10.2160415786
 20
10.7568417997
 30
0.0
 10
10.6594507488
 20
10.6767149569
 30
0.0
 10
11.0064443073
 20
10.5815443111
 30
0.0
 10
11.1769229027
 20
10.523770385
 30
0.0
 10
11.2612162006
 20
10.4924027584
 30
0.0
  0
SPLINE
  5
433
100
AcDbEntity
  8
0
100
AcDbSpline
 62
9
  6
CONTINUOUS
 70
0
 71
3
 72
22
 73
18
 74
0
 42
0.0000001
 43
0.0000001
 44
0.0000000001
 40
0.0
 40
0.0
 40
0.0
 40
0.0
 40
0.1249432725
 40
0.1874317205
 40
0.2499168174
 40
0.3124007464
 40
0.3748877124
 40
0.437379667
 40
0.4998761436
 40
0.5623767647
 40
0.6248810063
 40
0.687388986
 40
0.7499012753
 40
0.8124194563
 40
0.8749470826
 40
0.9374785042
 40
1.0
 40
1.0
 40
1.0
 40
1.0
 10
11.2053739864
 20
10.4630658046
 30
0.0
 10
11.1255409652
 20
10.494371012
 30
0.0
 10
11.0043037074
 20
10.5376887604
 30
0.0
 10
10.8403140403
 20
10.5880246556
 30
0.0
 10
10.7162157433
 20
10.6220489176
 30
0.0
 10
10.5911407037
 20
10.652273661
 30
0.0
 10
10.4651895312
 20
10.6786373159
 30
0.0
 10
10.3384757762
 20
10.7010995988
 30
0.0
 10
10.2111190516
 20
10.7196367988
 30
0.0
 10
10.0832407061
 20
10.734221002
 30
0.0
 10
9.9549625022
 20
10.7448206602
 30
0.0
 10
9.8264074551
 20
10.751406391
 30
0.0
 10
9.6976986317
 20
10.7539378123
 30
0.0
 10
9.5689605172
 20
10.7523496201
 30
0.0
 10
9.4403282834
 20
10.7465709076
 30
0.0
 10
9.3119530429
 20
10.7365881441
 30
0.0
 10
9.2266295652
 20
10.7271410223
 30
0.0
 10
9.1840632262
 20
10.7217212269
 30
0.0
  0
SPLINE
  5
434
100
AcDbEntity
  8
0
100
AcDbSpline
 62
9
  6
CONTINUOUS
 70
0
 71
3
 72
14
 73
10
 74
0
 42
0.0000001
 43
0.0000001
 44
0.0000000001
 40
0.0
 40
0.0
 40
0.0
 40
0.0
 40
0.3312401911
 40
0.4769246064
 40
0.6087531669
 40
0.7266810176
 40
0.8308723683
 40
0.9217199387
 40
1.0
 40
1.0
 40
1.0
 40
1.0
 10
9.1643015118
 20
10.7191510296
 30
0.0
 10
9.1618585159
 20
10.722775379
 30
0.0
 10
9.1582465272
 20
10.7279336345
 30
0.0
 10
9.1533184637
 20
10.7342790642
 30
0.0
 10
9.1499477025
 20
10.7382647133
 30
0.0
 10
9.1467479542
 20
10.7416703991
 30
0.0
 10
9.1437216623
 20
10.7444867
 30
0.0
 10
9.1408711965
 20
10.7467045869
 30
0.0
 10
9.1389509159
 20
10.7478599172
 30
0.0
 10
9.1380219194
 20
10.7483114861
 30
0.0
  0
SPLINE
  5
435
100
AcDbEntity
  8
0
100
AcDbSpline
 62
9
  6
CONTINUOUS
 70
0
 71
3
 72
10
 73
6
 74
0
 42
0.0000001
 43
0.0000001
 44
0.0000000001
 40
0.0
 40
0.0
 40
0.0
 40
0.0
 40
0.5361196729
 40
0.7823944833
 40
1.0
 40
1.0
 40
1.0
 40
1.0
 10
11.1930273838
 20
10.4333012023
 30
0.0
 10
11.1951582712
 20
10.438651447
 30
0.0
 10
11.1983114782
 20
10.4464423647
 30
0.0
 10
11.2024624763
 20
10.4563499826
 30
0.0
 10
11.2044333851
 20
10.4609267888
 30
0.0
 10
11.2053743165
 20
10.4630665549
 30
0.0
  0
SPLINE
  5
436
100
AcDbEntity
  8
0
100
AcDbSpline
 62
9
  6
CONTINUOUS
 70
0
 71
3
 72
10
 73
6
 74
0
 42
0.0000001
 43
0.0000001
 44
0.0000000001
 40
0.0
 40
0.0
 40
0.0
 40
0.0
 40
0.5473924629
 40
0.789837604
 40
1.0
 40
1.0
 40
1.0
 40
1.0
 10
11.2026115195
 20
10.4299747652
 30
0.0
 10
11.2047661559
 20
10.4353673819
 30
0.0
 10
11.2079173233
 20
10.4431318252
 30
0.0
 10
11.2120231049
 20
10.4529139133
 30
0.0
 10
11.2139228735
 20
10.4573238227
 30
0.0
 10
11.2148193431
 20
10.4593652069
 30
0.0
  0
SPLINE
  5
437
100
AcDbEntity
  8
0
100
AcDbSpline
 62
9
  6
CONTINUOUS
 70
0
 71
3
 72
9
 73
5
 74
0
 42
0.0000001
 43
0.0000001
 44
0.0000000001
 40
0.0
 40
0.0
 40
0.0
 40
0.0
 40
0.5467926746
 40
1.0
 40
1.0
 40
1.0
 40
1.0
 10
11.2151090725
 20
10.4255657589
 30
0.0
 10
11.217276758
 20
10.4308272845
 30
0.0
 10
11.221293755
 20
10.4404281511
 30
0.0
 10
11.2254423699
 20
10.4499735288
 30
0.0
 10
11.227379754
 20
10.4542738665
 30
0.0
  0
SPLINE
  5
438
100
AcDbEntity
  8
0
100
AcDbSpline
 62
9
  6
CONTINUOUS
 70
0
 71
3
 72
9
 73
5
 74
0
 42
0.0000001
 43
0.0000001
 44
0.0000000001
 40
0.0
 40
0.0
 40
0.0
 40
0.0
 40
0.5463377777
 40
1.0
 40
1.0
 40
1.0
 40
1.0
 10
11.2242793909
 20
10.4222625151
 30
0.0
 10
11.22645747
 20
10.4274215545
 30
0.0
 10
11.2304950261
 20
10.4368430573
 30
0.0
 10
11.2346600906
 20
10.4462094983
 30
0.0
 10
11.2366045376
 20
10.4504334862
 30
0.0
  0
SPLINE
  5
439
100
AcDbEntity
  8
0
100
AcDbSpline
 62
9
  6
CONTINUOUS
 70
0
 71
3
 72
9
 73
5
 74
0
 42
0.0000001
 43
0.0000001
 44
0.0000000001
 40
0.0
 40
0.0
 40
0.0
 40
0.0
 40
0.5140144115
 40
1.0
 40
1.0
 40
1.0
 40
1.0
 10
11.5760569785
 20
10.117411088
 30
0.0
 10
11.5876929148
 20
10.1220093385
 30
0.0
 10
11.6099570884
 20
10.131915389
 30
0.0
 10
11.6315491042
 20
10.1431696709
 30
0.0
 10
11.6419413696
 20
10.1488206263
 30
0.0
  0
SPLINE
  5
43A
100
AcDbEntity
  8
0
100
AcDbSpline
 62
9
  6
CONTINUOUS
 70
0
 71
3
 72
11
 73
7
 74
0
 42
0.0000001
 43
0.0000001
 44
0.0000000001
 40
0.0
 40
0.0
 40
0.0
 40
0.0
 40
0.2493640211
 40
0.499176506
 40
0.7494026758
 40
1.0
 40
1.0
 40
1.0
 40
1.0
 10
11.6441260057
 20
10.1465406217
 30
0.0
 10
11.6731817526
 20
10.1161249384
 30
0.0
 10
11.7279808319
 20
10.0519207235
 30
0.0
 10
11.7988714177
 20
9.9469390228
 30
0.0
 10
11.8573908877
 20
9.834349737
 30
0.0
 10
11.8875268614
 20
9.7551845778
 30
0.0
 10
11.9002128363
 20
9.7148613683
 30
0.0
  0
LINE
  5
43B
100
AcDbEntity
  8
0
100
AcDbLine
 62
9
  6
CONTINUOUS
 10
11.5719833519
 20
10.1137681431
 11
11.5760569785
 21
10.117411088
  0
SPLINE
  5
43C
100
AcDbEntity
  8
0
100
AcDbSpline
 62
9
  6
CONTINUOUS
 70
0
 71
3
 72
11
 73
7
 74
0
 42
0.0000001
 43
0.0000001
 44
0.0000000001
 40
0.0
 40
0.0
 40
0.0
 40
0.0
 40
0.2501689153
 40
0.5002812867
 40
0.7502553197
 40
1.0
 40
1.0
 40
1.0
 40
1.0
 10
11.5760569785
 20
10.117411088
 30
0.0
 10
11.6031766328
 20
10.0887996962
 30
0.0
 10
11.6543928764
 20
10.0286325854
 30
0.0
 10
11.7209407614
 20
9.9306350092
 30
0.0
 10
11.7761524663
 20
9.8258967585
 30
0.0
 10
11.8047772736
 20
9.7523135484
 30
0.0
 10
11.8168624784
 20
9.7148599924
 30
0.0
  0
SPLINE
  5
43D
100
AcDbEntity
  8
0
100
AcDbSpline
 62
9
  6
CONTINUOUS
 70
0
 71
3
 72
13
 73
9
 74
0
 42
0.0000001
 43
0.0000001
 44
0.0000000001
 40
0.0
 40
0.0
 40
0.0
 40
0.0
 40
0.2499224968
 40
0.499872474
 40
0.6249096449
 40
0.749945695
 40
0.8749724566
 40
1.0
 40
1.0
 40
1.0
 40
1.0
 10
11.5719833519
 20
10.1137681431
 30
0.0
 10
11.5993623917
 20
10.0855642816
 30
0.0
 10
11.6511496595
 20
10.0261804087
 30
0.0
 10
11.7074455487
 20
9.9453610769
 30
0.0
 10
11.7468461341
 20
9.8772589862
 30
0.0
 10
11.7734723439
 20
9.8245768762
 30
0.0
 10
11.7970363085
 20
9.7704602128
 30
0.0
 10
11.8106205189
 20
9.7335239278
 30
0.0
 10
11.8168574225
 20
9.7148751103
 30
0.0
  0
LINE
  5
43E
100
AcDbEntity
  8
0
100
AcDbLine
 62
7
  6
CONTINUOUS
 10
11.8168585751
 20
9.7148664952
 11
11.7380434509
 21
9.714866296
  0
SPLINE
  5
43F
100
AcDbEntity
  8
0
100
AcDbSpline
 62
9
  6
CONTINUOUS
 70
0
 71
3
 72
10
 73
6
 74
0
 42
0.0000001
 43
0.0000001
 44
0.0000000001
 40
0.0
 40
0.0
 40
0.0
 40
0.0
 40
0.2620728446
 40
0.6403619423
 40
1.0
 40
1.0
 40
1.0
 40
1.0
 10
11.5024620178
 20
10.1018149847
 30
0.0
 10
11.5082482911
 20
10.1035081198
 30
0.0
 10
11.522453612
 20
10.1074211806
 30
0.0
 10
11.5449160921
 20
10.1124553359
 30
0.0
 10
11.5617238214
 20
10.1149808937
 30
0.0
 10
11.5699506966
 20
10.1158566777
 30
0.0
  0
LINE
  5
440
100
AcDbEntity
  8
0
100
AcDbLine
 62
9
  6
CONTINUOUS
 10
11.5699506966
 20
10.1158566777
 11
11.574040258
 21
10.1195328493
  0
SPLINE
  5
441
100
AcDbEntity
  8
0
100
AcDbSpline
 62
9
  6
CONTINUOUS
 70
0
 71
3
 72
9
 73
5
 74
0
 42
0.0000001
 43
0.0000001
 44
0.0000000001
 40
0.0
 40
0.0
 40
0.0
 40
0.0
 40
0.4979540571
 40
1.0
 40
1.0
 40
1.0
 40
1.0
 10
11.1794234007
 20
10.3858070914
 30
0.0
 10
11.1858019912
 20
10.3919735293
 30
0.0
 10
11.1980615833
 20
10.4049296992
 30
0.0
 10
11.2095008159
 20
10.4185973328
 30
0.0
 10
11.2151090348
 20
10.4255657024
 30
0.0
  0
SPLINE
  5
442
100
AcDbEntity
  8
0
100
AcDbSpline
 62
9
  6
CONTINUOUS
 70
0
 71
3
 72
11
 73
7
 74
0
 42
0.0000001
 43
0.0000001
 44
0.0000000001
 40
0.0
 40
0.0
 40
0.0
 40
0.0
 40
0.2489855288
 40
0.4987080962
 40
0.7490724215
 40
1.0
 40
1.0
 40
1.0
 40
1.0
 10
11.224863222
 20
10.4220243692
 30
0.0
 10
11.2639975707
 20
10.4075923186
 30
0.0
 10
11.3407823001
 20
10.3741326518
 30
0.0
 10
11.4496666483
 20
10.3112471278
 30
0.0
 10
11.5511165807
 20
10.2364117019
 30
0.0
 10
11.6128224992
 20
10.1791359569
 30
0.0
 10
11.6419443012
 20
10.1488218036
 30
0.0
  0
SPLINE
  5
443
100
AcDbEntity
  8
0
100
AcDbSpline
 62
9
  6
CONTINUOUS
 70
0
 71
3
 72
11
 73
7
 74
0
 42
0.0000001
 43
0.0000001
 44
0.0000000001
 40
0.0
 40
0.0
 40
0.0
 40
0.0
 40
0.2500493259
 40
0.5000896987
 40
0.7500862131
 40
1.0
 40
1.0
 40
1.0
 40
1.0
 10
11.1794234007
 20
10.3858070914
 30
0.0
 10
11.2165158931
 20
10.3709333873
 30
0.0
 10
11.2891928396
 20
10.337259762
 30
0.0
 10
11.3922423328
 20
10.2755806891
 30
0.0
 10
11.4881207472
 20
10.2032853803
 30
0.0
 10
11.5464873773
 20
10.1484497633
 30
0.0
 10
11.5740402579
 20
10.1195328494
 30
0.0
  0
SPLINE
  5
444
100
AcDbEntity
  8
0
100
AcDbSpline
 62
9
  6
CONTINUOUS
 70
0
 71
3
 72
12
 73
8
 74
0
 42
0.0000001
 43
0.0000001
 44
0.0000000001
 40
0.0
 40
0.0
 40
0.0
 40
0.0
 40
0.0738910854
 40
0.1695744653
 40
0.414375528
 40
0.7062299019
 40
1.0
 40
1.0
 40
1.0
 40
1.0
 10
11.1752390617
 20
10.3761075996
 30
0.0
 10
11.1753642961
 20
10.3763358039
 30
0.0
 10
11.1756369553
 20
10.3768675459
 30
0.0
 10
11.1762694049
 20
10.3781832742
 30
0.0
 10
11.1771751833
 20
10.3802189941
 30
0.0
 10
11.1782966721
 20
10.3829211294
 30
0.0
 10
11.1790538478
 20
10.3848404057
 30
0.0
 10
11.1794234007
 20
10.3858070914
 30
0.0
  0
SPLINE
  5
445
100
AcDbEntity
  8
0
100
AcDbSpline
 62
9
  6
CONTINUOUS
 70
0
 71
3
 72
13
 73
9
 74
0
 42
0.0000001
 43
0.0000001
 44
0.0000000001
 40
0.0
 40
0.0
 40
0.0
 40
0.0
 40
0.2498862119
 40
0.4998447545
 40
0.6248690064
 40
0.7498929679
 40
0.8749281781
 40
1.0
 40
1.0
 40
1.0
 40
1.0
 10
11.1752430148
 20
10.3761060559
 30
0.0
 10
11.2121914755
 20
10.3616774421
 30
0.0
 10
11.2846385804
 20
10.3289177536
 30
0.0
 10
11.3704237011
 20
10.2787485726
 30
0.0
 10
11.4355839439
 20
10.2333771646
 30
0.0
 10
11.4825896144
 20
10.1967859431
 30
0.0
 10
11.5275621624
 20
10.1577152287
 30
0.0
 10
11.556084402
 20
10.130065131
 30
0.0
 10
11.5699506955
 20
10.1158566767
 30
0.0
  0
SPLINE
  5
446
100
AcDbEntity
  8
0
100
AcDbSpline
 62
9
  6
CONTINUOUS
 70
0
 71
3
 72
10
 73
6
 74
0
 42
0.0000001
 43
0.0000001
 44
0.0000000001
 40
0.0
 40
0.0
 40
0.0
 40
0.0
 40
0.2732467461
 40
0.5308754021
 40
1.0
 40
1.0
 40
1.0
 40
1.0
 10
11.1232860443
 20
10.3564626187
 30
0.0
 10
11.1270575738
 20
10.3590617801
 30
0.0
 10
11.1345215477
 20
10.3639236474
 30
0.0
 10
11.1491540958
 20
10.3721041533
 30
0.0
 10
11.1605168603
 20
10.3767774213
 30
0.0
 10
11.1680970956
 20
10.3788704093
 30
0.0
  0
SPLINE
  5
447
100
AcDbEntity
  8
0
100
AcDbSpline
 62
9
  6
CONTINUOUS
 70
0
 71
3
 72
12
 73
8
 74
0
 42
0.0000001
 43
0.0000001
 44
0.0000000001
 40
0.0
 40
0.0
 40
0.0
 40
0.0
 40
0.0733940992
 40
0.1688056651
 40
0.4136293431
 40
0.705977807
 40
1.0
 40
1.0
 40
1.0
 40
1.0
 10
11.1680970892
 20
10.37887041
 30
0.0
 10
11.1682213395
 20
10.3790989583
 30
0.0
 10
11.1684917936
 20
10.3796328785
 30
0.0
 10
11.169119725
 20
10.3809577233
 30
0.0
 10
11.170019031
 20
10.3830121617
 30
0.0
 10
11.171131032
 20
10.3857404906
 30
0.0
 10
11.1718810759
 20
10.387678943
 30
0.0
 10
11.1722466272
 20
10.3886548644
 30
0.0
  0
SPLINE
  5
448
100
AcDbEntity
  8
0
100
AcDbSpline
 62
9
  6
CONTINUOUS
 70
0
 71
3
 72
9
 73
5
 74
0
 42
0.0000001
 43
0.0000001
 44
0.0000000001
 40
0.0
 40
0.0
 40
0.0
 40
0.0
 40
0.4973588077
 40
1.0
 40
1.0
 40
1.0
 40
1.0
 10
11.1587853345
 20
10.3938590306
 30
0.0
 10
11.1649060346
 20
10.3999901969
 30
0.0
 10
11.1766748579
 20
10.4128576871
 30
0.0
 10
11.1876452879
 20
10.4263954166
 30
0.0
 10
11.1930273974
 20
10.4333011978
 30
0.0
  0
SPLINE
  5
449
100
AcDbEntity
  8
0
100
AcDbSpline
 62
9
  6
CONTINUOUS
 70
0
 71
3
 72
12
 73
8
 74
0
 42
0.0000001
 43
0.0000001
 44
0.0000000001
 40
0.0
 40
0.0
 40
0.0
 40
0.0
 40
0.0724675179
 40
0.1673810468
 40
0.4122742082
 40
0.7055561286
 40
1.0
 40
1.0
 40
1.0
 40
1.0
 10
11.1547100937
 20
10.3839089805
 30
0.0
 10
11.1548318438
 20
10.3841385545
 30
0.0
 10
11.1550969302
 20
10.3846772843
 30
0.0
 10
11.1557140547
 20
10.3860207329
 30
0.0
 10
11.156598821
 20
10.3881119791
 30
0.0
 10
11.1576912568
 20
10.3908907663
 30
0.0
 10
11.1584273769
 20
10.3928657186
 30
0.0
 10
11.1587853464
 20
10.393859026
 30
0.0
  0
SPLINE
  5
44A
100
AcDbEntity
  8
0
100
AcDbSpline
 62
9
  6
CONTINUOUS
 70
0
 71
3
 72
11
 73
7
 74
0
 42
0.0000001
 43
0.0000001
 44
0.0000000001
 40
0.0
 40
0.0
 40
0.0
 40
0.0
 40
0.2738613626
 40
0.5315799652
 40
0.7732752887
 40
1.0
 40
1.0
 40
1.0
 40
1.0
 10
11.1036983613
 20
10.3640833039
 30
0.0
 10
11.1073670143
 20
10.3666944792
 30
0.0
 10
11.1146242167
 20
10.3715770233
 30
0.0
 10
11.1256463426
 20
10.3779403927
 30
0.0
 10
11.1364664182
 20
10.3830250639
 30
0.0
 10
11.1437489242
 20
10.3855891347
 30
0.0
 10
11.1473342271
 20
10.3866105934
 30
0.0
  0
SPLINE
  5
44B
100
AcDbEntity
  8
0
100
AcDbSpline
 62
9
  6
CONTINUOUS
 70
0
 71
3
 72
12
 73
8
 74
0
 42
0.0000001
 43
0.0000001
 44
0.0000000001
 40
0.0
 40
0.0
 40
0.0
 40
0.0
 40
0.0719843
 40
0.166636825
 40
0.4115647844
 40
0.7053368501
 40
1.0
 40
1.0
 40
1.0
 40
1.0
 10
11.147334226
 20
10.3866105926
 30
0.0
 10
11.1474551506
 20
10.3868404041
 30
0.0
 10
11.1477183252
 20
10.3873811264
 30
0.0
 10
11.1483315291
 20
10.388733353
 30
0.0
 10
11.1492105187
 20
10.390842937
 30
0.0
 10
11.1502942116
 20
10.3936473464
 30
0.0
 10
11.1510236556
 20
10.3956410517
 30
0.0
 10
11.1513778263
 20
10.3966433174
 30
0.0
  0
SPLINE
  5
44C
100
AcDbEntity
  8
0
100
AcDbSpline
 62
9
  6
CONTINUOUS
 70
0
 71
3
 72
9
 73
5
 74
0
 42
0.0000001
 43
0.0000001
 44
0.0000000001
 40
0.0
 40
0.0
 40
0.0
 40
0.0
 40
0.4948175726
 40
1.0
 40
1.0
 40
1.0
 40
1.0
 10
9.2056709333
 20
10.6469628311
 30
0.0
 10
9.2027538845
 20
10.6515421723
 30
0.0
 10
9.1970739841
 20
10.6609346283
 30
0.0
 10
9.1917235885
 20
10.6705163411
 30
0.0
 10
9.1890831071
 20
10.6753902859
 30
0.0
  0
SPLINE
  5
44D
100
AcDbEntity
  8
0
100
AcDbSpline
 62
9
  6
CONTINUOUS
 70
0
 71
3
 72
15
 73
11
 74
0
 42
0.0000001
 43
0.0000001
 44
0.0000000001
 40
0.0
 40
0.0
 40
0.0
 40
0.0
 40
0.1250420612
 40
0.2499400961
 40
0.3747797667
 40
0.4996133087
 40
0.624483794
 40
0.7494651669
 40
0.8746273297
 40
1.0
 40
1.0
 40
1.0
 40
1.0
 10
9.1890831053
 20
10.6753903083
 30
0.0
 10
9.2735486684
 20
10.6819307668
 30
0.0
 10
9.442706018
 20
10.6911356073
 30
0.0
 10
9.6967057305
 20
10.6933806436
 30
0.0
 10
9.9503890452
 20
10.6831782749
 30
0.0
 10
10.2032014499
 20
10.6599915823
 30
0.0
 10
10.4545677832
 20
10.6237111719
 30
0.0
 10
10.7039208551
 20
10.5743304145
 30
0.0
 10
10.950670893
 20
10.5118615955
 30
0.0
 10
11.1127543048
 20
10.4610761019
 30
0.0
 10
11.1930273746
 20
10.433301181
 30
0.0
  0
SPLINE
  5
44E
100
AcDbEntity
  8
0
100
AcDbSpline
 62
9
  6
CONTINUOUS
 70
0
 71
3
 72
15
 73
11
 74
0
 42
0.0000001
 43
0.0000001
 44
0.0000000001
 40
0.0
 40
0.0
 40
0.0
 40
0.0
 40
0.1248827682
 40
0.2498164998
 40
0.3747872799
 40
0.4997892862
 40
0.6248145282
 40
0.7498585746
 40
0.8749219065
 40
1.0
 40
1.0
 40
1.0
 40
1.0
 10
11.1513782409
 20
10.3966431605
 30
0.0
 10
11.0745810936
 20
10.4252665416
 30
0.0
 10
10.9192693409
 20
10.47811265
 30
0.0
 10
10.6821249268
 20
10.5438739539
 30
0.0
 10
10.4415202271
 20
10.5959634799
 30
0.0
 10
10.1982917415
 20
10.6343177232
 30
0.0
 10
9.9532464533
 20
10.6589444651
 30
0.0
 10
9.7071674315
 20
10.6698580808
 30
0.0
 10
9.4608341971
 20
10.6669968285
 30
0.0
 10
9.2969494256
 20
10.6558130408
 30
0.0
 10
9.2152437511
 20
10.6479193097
 30
0.0
  0
LINE
  5
44F
100
AcDbEntity
  8
0
100
AcDbLine
 62
9
  6
CONTINUOUS
 10
9.2068048124
 20
10.6350452898
 11
9.2056709328
 21
10.6469628311
  0
LINE
  5
450
100
AcDbEntity
  8
0
100
AcDbLine
 62
9
  6
CONTINUOUS
 10
9.2163142472
 20
10.6359170916
 11
9.2152436195
 21
10.6479192969
  0
SPLINE
  5
451
100
AcDbEntity
  8
0
100
AcDbSpline
 62
9
  6
CONTINUOUS
 70
0
 71
3
 72
13
 73
9
 74
0
 42
0.0000001
 43
0.0000001
 44
0.0000000001
 40
0.0
 40
0.0
 40
0.0
 40
0.0
 40
0.1251124712
 40
0.2501941334
 40
0.5001964584
 40
0.7501030192
 40
0.8750647333
 40
1.0
 40
1.0
 40
1.0
 40
1.0
 10
9.2163142472
 20
10.6359170916
 30
0.0
 10
9.2978203093
 20
10.6432174625
 30
0.0
 10
9.4612386722
 20
10.6534889482
 30
0.0
 10
9.788513363
 20
10.6564662423
 30
0.0
 10
10.1970986056
 20
10.6268335953
 30
0.0
 10
10.5998882359
 20
10.5523933526
 30
0.0
 10
10.9153900439
 20
10.4662887762
 30
0.0
 10
11.0705503799
 20
10.41457161
 30
0.0
 10
11.1473342278
 20
10.3866105963
 30
0.0
  0
SPLINE
  5
452
100
AcDbEntity
  8
0
100
AcDbSpline
 62
9
  6
CONTINUOUS
 70
0
 71
3
 72
11
 73
7
 74
0
 42
0.0000001
 43
0.0000001
 44
0.0000000001
 40
0.0
 40
0.0
 40
0.0
 40
0.0
 40
0.2809983803
 40
0.5415936597
 40
0.781162712
 40
1.0
 40
1.0
 40
1.0
 40
1.0
 10
9.2438605948
 20
10.6105052715
 30
0.0
 10
9.2415696496
 20
10.6131802077
 30
0.0
 10
9.2370434184
 20
10.6182431659
 30
0.0
 10
9.230113931
 20
10.6251691609
 30
0.0
 10
9.2232971158
 20
10.6310761732
 30
0.0
 10
9.2186280163
 20
10.6344442017
 30
0.0
 10
9.2163142473
 20
10.6359170895
 30
0.0
  0
SPLINE
  5
453
100
AcDbEntity
  8
0
100
AcDbSpline
 62
9
  6
CONTINUOUS
 70
0
 71
3
 72
21
 73
17
 74
0
 42
0.0000001
 43
0.0000001
 44
0.0000000001
 40
0.0
 40
0.0
 40
0.0
 40
0.0
 40
0.0436720223
 40
0.0917636761
 40
0.1442945236
 40
0.2010865464
 40
0.2617863584
 40
0.3259028271
 40
0.3928423575
 40
0.4619222319
 40
0.6035020083
 40
0.7443391549
 40
0.8125212202
 40
0.8782806846
 40
0.9409745155
 40
1.0
 40
1.0
 40
1.0
 40
1.0
 10
9.3717599574
 20
10.4444336147
 30
0.0
 10
9.3691646589
 20
10.4460646159
 30
0.0
 10
9.3639263116
 20
10.4498382397
 30
0.0
 10
9.3563046671
 20
10.456523738
 30
0.0
 10
9.3485568919
 20
10.4644120316
 30
0.0
 10
9.3407001812
 20
10.4734009951
 30
0.0
 10
9.3327484355
 20
10.4833674913
 30
0.0
 10
9.3247179304
 20
10.4941705509
 30
0.0
 10
9.3166278635
 20
10.5056554246
 30
0.0
 10
9.3056988796
 20
10.521786701
 30
0.0
 10
9.2922178609
 20
10.5424490459
 30
0.0
 10
9.2787432268
 20
10.5630408157
 30
0.0
 10
9.267867802
 20
10.5789692208
 30
0.0
 10
9.2598645233
 20
10.5902147442
 30
0.0
 10
9.2519457151
 20
10.6007263322
 30
0.0
 10
9.2465554819
 20
10.6073586877
 30
0.0
 10
9.2438605948
 20
10.6105052715
 30
0.0
  0
SPLINE
  5
454
100
AcDbEntity
  8
0
100
AcDbSpline
 62
9
  6
CONTINUOUS
 70
0
 71
3
 72
16
 73
12
 74
0
 42
0.0000001
 43
0.0000001
 44
0.0000000001
 40
0.0
 40
0.0
 40
0.0
 40
0.0
 40
0.1201533307
 40
0.2407050431
 40
0.3622345685
 40
0.4853206807
 40
0.6109204222
 40
0.7391713448
 40
0.8040192322
 40
0.8691887803
 40
1.0
 40
1.0
 40
1.0
 40
1.0
 10
9.2438605948
 20
10.6105052715
 30
0.0
 10
9.3192989586
 20
10.6178262682
 30
0.0
 10
9.4708624575
 20
10.6283313374
 30
0.0
 10
9.6994452509
 20
10.6316157136
 30
0.0
 10
9.9297213378
 20
10.6222710277
 30
0.0
 10
10.1622983
 20
10.5998621037
 30
0.0
 10
10.3974285269
 20
10.5636640067
 30
0.0
 10
10.5941176444
 20
10.5214699186
 30
0.0
 10
10.7517359177
 20
10.480174594
 30
0.0
 10
10.9095809138
 20
10.4336852779
 30
0.0
 10
11.0265448992
 20
10.3933441408
 30
0.0
 10
11.1036983508
 20
10.3640832965
 30
0.0
  0
LINE
  5
455
100
AcDbEntity
  8
0
100
AcDbLine
 62
9
  6
CONTINUOUS
 10
9.3726068391
 20
10.4324344931
 11
9.3717885586
 21
10.4444156492
  0
SPLINE
  5
456
100
AcDbEntity
  8
0
100
AcDbSpline
 62
9
  6
CONTINUOUS
 70
0
 71
3
 72
13
 73
9
 74
0
 42
0.0000001
 43
0.0000001
 44
0.0000000001
 40
0.0
 40
0.0
 40
0.0
 40
0.0
 40
0.2501698972
 40
0.5002460249
 40
0.6252734845
 40
0.750256761
 40
0.8751881065
 40
1.0
 40
1.0
 40
1.0
 40
1.0
 10
9.382141077
 20
10.4450989067
 30
0.0
 10
9.5109099921
 20
10.4533407863
 30
0.0
 10
9.7694912164
 20
10.4557277693
 30
0.0
 10
10.0911023398
 20
10.4244047404
 30
0.0
 10
10.3450980475
 20
10.3788862068
 30
0.0
 10
10.5333950303
 20
10.3343472699
 30
0.0
 10
10.7187581657
 20
10.2792627729
 30
0.0
 10
10.8400032406
 20
10.2355090348
 30
0.0
 10
10.8998894734
 20
10.2118906723
 30
0.0
  0
LINE
  5
457
100
AcDbEntity
  8
0
100
AcDbLine
 62
9
  6
CONTINUOUS
 10
9.382924272
 20
10.4330262197
 11
9.382141077
 21
10.4450989067
  0
LINE
  5
458
100
AcDbEntity
  8
0
100
AcDbLine
 62
9
  6
CONTINUOUS
 10
10.8998844568
 20
10.2118670857
 11
10.9082244999
 21
10.2086246556
  0
SPLINE
  5
459
100
AcDbEntity
  8
0
100
AcDbSpline
 62
9
  6
CONTINUOUS
 70
0
 71
3
 72
12
 73
8
 74
0
 42
0.0000001
 43
0.0000001
 44
0.0000000001
 40
0.0
 40
0.0
 40
0.0
 40
0.0
 40
0.2873307503
 40
0.5777023047
 40
0.8252137337
 40
0.9233100671
 40
1.0
 40
1.0
 40
1.0
 40
1.0
 10
10.8962846814
 20
10.2015214062
 30
0.0
 10
10.896685316
 20
10.2024944142
 30
0.0
 10
10.8974620252
 20
10.2044626407
 30
0.0
 10
10.8985055056
 20
10.2072991499
 30
0.0
 10
10.8992374729
 20
10.2095110672
 30
0.0
 10
10.8996693256
 20
10.2109961723
 30
0.0
 10
10.8998286421
 20
10.2116164187
 30
0.0
 10
10.8998894593
 20
10.2118906082
 30
0.0
  0
SPLINE
  5
45A
100
AcDbEntity
  8
0
100
AcDbSpline
 62
9
  6
CONTINUOUS
 70
0
 71
3
 72
12
 73
8
 74
0
 42
0.0000001
 43
0.0000001
 44
0.0000000001
 40
0.0
 40
0.0
 40
0.0
 40
0.0
 40
0.2871301799
 40
0.5769631462
 40
0.8244036531
 40
0.9227752244
 40
1.0
 40
1.0
 40
1.0
 40
1.0
 10
10.9046318486
 20
10.1983038339
 30
0.0
 10
10.9050311141
 20
10.1992687996
 30
0.0
 10
10.9058044504
 20
10.2012198516
 30
0.0
 10
10.9068426211
 20
10.2040330703
 30
0.0
 10
10.9075701447
 20
10.2062283438
 30
0.0
 10
10.9079997317
 20
10.2077058516
 30
0.0
 10
10.9081584536
 20
10.208324754
 30
0.0
 10
10.9082192065
 20
10.2085989745
 30
0.0
  0
SPLINE
  5
45B
100
AcDbEntity
  8
0
100
AcDbSpline
 62
9
  6
CONTINUOUS
 70
0
 71
3
 72
19
 73
15
 74
0
 42
0.0000001
 43
0.0000001
 44
0.0000000001
 40
0.0
 40
0.0
 40
0.0
 40
0.0
 40
0.0994050405
 40
0.1539766089
 40
0.2118103656
 40
0.2727379449
 40
0.336433756
 40
0.4024553254
 40
0.470245504
 40
0.7463752814
 40
0.8133455108
 40
0.8782746015
 40
0.9406454927
 40
1.0
 40
1.0
 40
1.0
 40
1.0
 10
10.908219167
 20
10.2085989904
 30
0.0
 10
10.9162526425
 20
10.2108183289
 30
0.0
 10
10.9282774097
 20
10.2158321339
 30
0.0
 10
10.9436986374
 20
10.2246426635
 30
0.0
 10
10.9557955808
 20
10.2327199198
 30
0.0
 10
10.9680231382
 20
10.2419214955
 30
0.0
 10
10.9803634672
 20
10.2520874409
 30
0.0
 10
10.9927820503
 20
10.2630451638
 30
0.0
 10
11.0179842669
 20
10.2864199667
 30
0.0
 10
11.0422544409
 20
10.3108866541
 30
0.0
 10
11.0672876688
 20
10.3342070011
 30
0.0
 10
11.0794675108
 20
10.3450249493
 30
0.0
 10
11.0915075738
 20
10.3550274963
 30
0.0
 10
11.0996440076
 20
10.361197605
 30
0.0
 10
11.1036983613
 20
10.3640833039
 30
0.0
  0
SPLINE
  5
45C
100
AcDbEntity
  8
0
100
AcDbSpline
 62
9
  6
CONTINUOUS
 70
0
 71
3
 72
19
 73
15
 74
0
 42
0.0000001
 43
0.0000001
 44
0.0000000001
 40
0.0
 40
0.0
 40
0.0
 40
0.0
 40
0.1002406635
 40
0.1550793927
 40
0.2130739677
 40
0.2740611905
 40
0.3377264282
 40
0.4036418252
 40
0.4712670916
 40
0.7465506944
 40
0.8133685771
 40
0.8782070263
 40
0.9405652794
 40
1.0
 40
1.0
 40
1.0
 40
1.0
 10
10.9231393393
 20
10.2025326129
 30
0.0
 10
10.931344906
 20
10.2047295432
 30
0.0
 10
10.943640042
 20
10.2096839693
 30
0.0
 10
10.9594476225
 20
10.2184149684
 30
0.0
 10
10.9718345489
 20
10.2264091324
 30
0.0
 10
10.9843562077
 20
10.2355160219
 30
0.0
 10
10.9969936042
 20
10.245577041
 30
0.0
 10
11.0097113589
 20
10.2564218342
 30
0.0
 10
11.0355112209
 20
10.2795476596
 30
0.0
 10
11.0603882844
 20
10.3037866868
 30
0.0
 10
11.086011635
 20
10.326869212
 30
0.0
 10
11.0984844568
 20
10.3375842714
 30
0.0
 10
11.110814104
 20
10.347494494
 30
0.0
 10
11.1191388726
 20
10.3536045823
 30
0.0
 10
11.1232860443
 20
10.3564626187
 30
0.0
  0
SPLINE
  5
45D
100
AcDbEntity
  8
0
100
AcDbSpline
 62
9
  6
CONTINUOUS
 70
0
 71
3
 72
11
 73
7
 74
0
 42
0.0000001
 43
0.0000001
 44
0.0000000001
 40
0.0
 40
0.0
 40
0.0
 40
0.0
 40
0.250790936
 40
0.5002274106
 40
0.7495527809
 40
1.0
 40
1.0
 40
1.0
 40
1.0
 10
11.1232860443
 20
10.3564626187
 30
0.0
 10
11.1590039853
 20
10.3422162775
 30
0.0
 10
11.2287965578
 20
10.309998934
 30
0.0
 10
11.3276675634
 20
10.2510015621
 30
0.0
 10
11.419724711
 20
10.1819350468
 30
0.0
 10
11.4758687427
 20
10.1295183542
 30
0.0
 10
11.5024620198
 20
10.1018149853
 30
0.0
  0
SPLINE
  5
45E
100
AcDbEntity
  8
0
100
AcDbSpline
 62
9
  6
CONTINUOUS
 70
0
 71
3
 72
12
 73
8
 74
0
 42
0.0000001
 43
0.0000001
 44
0.0000000001
 40
0.0
 40
0.0
 40
0.0
 40
0.0
 40
0.2867341072
 40
0.5753377851
 40
0.8225929525
 40
0.9215758308
 40
1.0
 40
1.0
 40
1.0
 40
1.0
 10
10.9194756777
 20
10.1924643966
 30
0.0
 10
10.9198785842
 20
10.1934066733
 30
0.0
 10
10.9206599875
 20
10.195308987
 30
0.0
 10
10.9217137751
 20
10.1980539083
 30
0.0
 10
10.9224582559
 20
10.2001980255
 30
0.0
 10
10.9229050283
 20
10.2016486347
 30
0.0
 10
10.923073254
 20
10.2022602229
 30
0.0
 10
10.9231393393
 20
10.2025326128
 30
0.0
  0
LINE
  5
45F
100
AcDbEntity
  8
0
100
AcDbLine
 62
9
  6
CONTINUOUS
 10
11.2084208261
 20
10.0081425484
 11
11.2120746486
 21
10.0122851527
  0
LINE
  5
460
100
AcDbEntity
  8
0
100
AcDbLine
 62
9
  6
CONTINUOUS
 10
11.2111291246
 20
10.0055727073
 11
11.2147590757
 21
10.0096529309
  0
SPLINE
  5
461
100
AcDbEntity
  8
0
100
AcDbSpline
 62
9
  6
CONTINUOUS
 70
0
 71
3
 72
12
 73
8
 74
0
 42
0.0000001
 43
0.0000001
 44
0.0000000001
 40
0.0
 40
0.0
 40
0.0
 40
0.0
 40
0.2502008202
 40
0.5003478806
 40
0.6253866079
 40
0.7504003353
 40
1.0
 40
1.0
 40
1.0
 40
1.0
 10
11.2147590757
 20
10.0096529309
 30
0.0
 10
11.235872391
 20
9.9888617955
 30
0.0
 10
11.2759693318
 20
9.9450632047
 30
0.0
 10
11.3200646138
 20
9.8853746024
 30
0.0
 10
11.3513355913
 20
9.8350287871
 30
0.0
 10
11.3797960671
 20
9.7831249054
 30
0.0
 10
11.3979138872
 20
9.7424948895
 30
0.0
 10
11.408408902
 20
9.7148600602
 30
0.0
  0
SPLINE
  5
462
100
AcDbEntity
  8
0
100
AcDbSpline
 62
9
  6
CONTINUOUS
 70
0
 71
3
 72
12
 73
8
 74
0
 42
0.0000001
 43
0.0000001
 44
0.0000000001
 40
0.0
 40
0.0
 40
0.0
 40
0.0
 40
0.2498600779
 40
0.4998620929
 40
0.6249413325
 40
0.7500183039
 40
1.0
 40
1.0
 40
1.0
 40
1.0
 10
11.2111291599
 20
10.0055726737
 30
0.0
 10
11.2324692165
 20
9.9852357552
 30
0.0
 10
11.2730751487
 20
9.9422974621
 30
0.0
 10
11.3179010015
 20
9.8835745676
 30
0.0
 10
11.3497984091
 20
9.8338968509
 30
0.0
 10
11.3789338243
 20
9.7825620937
 30
0.0
 10
11.3975676515
 20
9.7422924512
 30
0.0
 10
11.4084074418
 20
9.714863755
 30
0.0
  0
ENDSEC
  0
SECTION
  2
OBJECTS
  0
DICTIONARY
  5
C
100
AcDbDictionary
280
0
281
1
  3
ACAD_GROUP
350
D
  3
ACAD_MLINESTYLE
350
17
  3
ACAD_LAYOUT
350
1A
  3
ACAD_PLOTSETTINGS
350
19
  3
ACAD_PLOTSTYLENAME
350
E
  0
DICTIONARY
  5
D
102
{ACAD_REACTORS
330
C
102
}
100
AcDbDictionary
280
0
281
1
  0
ACDBDICTIONARYWDFLT
  5
E
102
{ACAD_REACTORS
330
C
102
}
100
AcDbDictionary
281
1
  3
Normal
350
F
100
AcDbDictionaryWithDefault
340
F
  0
DICTIONARY
  5
17
102
{ACAD_REACTORS
330
C
102
}
100
AcDbDictionary
280
0
281
1
  3
Standard
350
18
  0
DICTIONARY
  5
19
102
{ACAD_REACTORS
330
C
102
}
100
AcDbDictionary
281
1
  0
DICTIONARY
  5
1A
102
{ACAD_REACTORS
330
C
102
}
100
AcDbDictionary
281
1
  3
Model
350
463
  3
Layout1
350
464
  0
ACDBPLACEHOLDER
  5
F
102
{ACAD_REACTORS
330
E
102
}
  0
MLINESTYLE
  5
18
102
{ACAD_REACTORS
330
17
102
}
100
AcDbMlineStyle
  2
STANDARD
 70
0
  3

 62
256
 51
90.0
 52
90.0
 71
2
 49
0.5
 62
256
  6
BYLAYER
 49
-0.5
 62
256
  6
BYLAYER
  0
LAYOUT
  5
463
102
{ACAD_REACTORS
330
1A
102
}
100
AcDbPlotSettings
  1

  2
none_device
  4
ANSI_C_(22.00_x_17.00_Inches)
  6

 40
0.0
 41
0.0
 42
0.0
 43
0.0
 44
558.8
 45
431.8
 46
0.0
 47
0.0
 48
0.0
 49
0.0
140
0.0
141
0.0
142
1.0
143
1.0
 70
1024
 72
0
 73
0
 74
0
  7

 75
0
147
1.0
148
0.0
149
0.0
100
AcDbLayout
  1
Model
 70
0
 71
0
 10
0.0
 20
0.0
 11
22.0
 21
17.0
 12
0.0
 22
0.0
 32
0.0
 14
0.0
 24
0.0
 34
0.0
 15
0.0
 25
0.0
 35
0.0
146
0.0
 13
0.0
 23
0.0
 33
0.0
 16
1.0
 26
0.0
 36
0.0
 17
0.0
 27
1.0
 37
0.0
 76
0
330
202
345
0
346
0
  0
LAYOUT
  5
464
102
{ACAD_REACTORS
330
1A
102
}
100
AcDbPlotSettings
  1

  2
none_device
  4
ANSI_C_(22.00_x_17.00_Inches)
  6

 40
0.0
 41
0.0
 42
0.0
 43
0.0
 44
558.8
 45
431.8
 46
0.0
 47
0.0
 48
0.0
 49
0.0
140
0.0
141
0.0
142
1.0
143
1.0
 70
0
 72
0
 73
0
 74
0
  7

 75
0
147
1.0
148
0.0
149
0.0
100
AcDbLayout
  1
Layout1
 70
0
 71
1
 10
0.0
 20
0.0
 11
22.0
 21
17.0
 12
0.0
 22
0.0
 32
0.0
 14
0.0
 24
0.0
 34
0.0
 15
0.0
 25
0.0
 35
0.0
146
0.0
 13
0.0
 23
0.0
 33
0.0
 16
1.0
 26
0.0
 36
0.0
 17
0.0
 27
1.0
 37
0.0
 76
0
330
203
345
0
346
0
  0
ENDSEC
  0
EOF
