999
DXF file: 3-1603tr_RIGHT.dxf
999
Pro/ENGINEER 2013150 by Parametric Technology Corporation
  0
SECTION
  2
HEADER
  9
$ACADVER
  1
AC1021
  9
$DWGCODEPAGE
  3
ANSI_1252
  9
$EXTMAX
 10
11.0
 20
8.5
 30
0.0
  9
$EXTMIN
 10
0.0
 20
0.0
 30
0.0
  9
$LIMMIN
 10
0.0
 20
0.0
  9
$LIMMAX
 10
11.0
 20
8.5
  9
$VIEWCTR
 10
5.5
 20
4.25
  9
$VIEWSIZE
 40
8.5
  9
$CLAYER
  8
0
  9
$LTSCALE
 40
0.605
  9
$CELTYPE
  6
BYLAYER
  9
$DIMSCALE
 40
1.0
  9
$DIMASZ
 40
0.1
  9
$DIMEXO
 40
0.0625
  9
$DIMDLI
 40
0.418
  9
$DIMEXE
 40
0.125
  9
$DIMCEN
 40
0.099
  9
$DIMLFAC
 40
1.0
  9
$DIMBLK
  1
_FILLED
  9
$DIMTXT
 40
0.08
  9
$DIMTOL
 70
1
  9
$DIMLIM
 70
0
  9
$DIMTFAC
 40
1.0
  9
$DIMTP
 40
0.001
  9
$DIMTM
 40
0.001
  9
$DIMGAP
 40
0.09
  9
$DIMDSEP
 70
46
  9
$PDMODE
 70
3
  9
$PDSIZE
 40
0.06
  9
$HANDSEED
  5
38F
  9
$TILEMODE
 70
1
  9
$MEASUREMENT
 70
0
  9
$INSUNITS
 70
1
  0
ENDSEC
  0
SECTION
  2
CLASSES
  0
CLASS
  1
ACDBDICTIONARYWDFLT
  2
AcDbDictionaryWithDefault
  3
AutoCAD 2000
 90
0
 91
1
280
0
281
0
  0
CLASS
  1
ACDBPLACEHOLDER
  2
AcDbPlaceHolder
  3
AutoCAD 2000
 90
0
 91
1
280
0
281
0
  0
CLASS
  1
LAYOUT
  2
AcDbLayout
  3
AutoCAD 2000
 90
0
 91
0
280
0
281
0
  0
ENDSEC
  0
SECTION
  2
TABLES
  0
TABLE
  2
VPORT
  5
8
100
AcDbSymbolTable
 70
2
  0
VPORT
  5
1F4
100
AcDbSymbolTableRecord
100
AcDbViewportTableRecord
  2
*ACTIVE
 70
0
 10
0.0
 20
0.0
 11
1.0
 21
1.0
 12
5.5
 22
4.25
 13
0.0
 23
0.0
 14
1.0
 24
1.0
 15
0.0
 25
0.0
 16
0.0
 26
0.0
 36
1.0
 17
0.0
 27
0.0
 37
0.0
 40
8.5
 41
1.2941176471
 42
50.0
 43
0.0
 44
0.0
 50
0.0
 51
0.0
 71
0
 72
100
 73
1
 74
1
 75
0
 76
0
 77
0
 78
0
  0
ENDTAB
  0
TABLE
  2
LTYPE
  5
5
100
AcDbSymbolTable
 70
6
  0
LTYPE
  5
14
100
AcDbSymbolTableRecord
100
AcDbLinetypeTableRecord
  2
BYBLOCK
 70
0
  3

 72
65
 73
0
 40
0.0
  0
LTYPE
  5
15
100
AcDbSymbolTableRecord
100
AcDbLinetypeTableRecord
  2
BYLAYER
 70
0
  3

 72
65
 73
0
 40
0.0
  0
LTYPE
  5
16
100
AcDbSymbolTableRecord
100
AcDbLinetypeTableRecord
  2
CONTINUOUS
 70
64
  3
Solid line
 72
65
 73
0
 40
0.0
  0
LTYPE
  5
1F5
100
AcDbSymbolTableRecord
100
AcDbLinetypeTableRecord
  2
CENTER
 70
64
  3
____ _ ____ _ ____ _ ____ _ ____ _ ____ _ ____
 72
65
 73
4
 40
0.6
 49
0.375
 74
0
 49
-0.075
 74
0
 49
0.075
 74
0
 49
-0.075
 74
0
  0
LTYPE
  5
1F6
100
AcDbSymbolTableRecord
100
AcDbLinetypeTableRecord
  2
HIDDEN
 70
64
  3
- - - - - - - - - - - - - - - - - - - -
 72
65
 73
2
 40
0.2
 49
0.1
 74
0
 49
-0.1
 74
0
  0
LTYPE
  5
1F7
100
AcDbSymbolTableRecord
100
AcDbLinetypeTableRecord
  2
PHANTOM
 70
64
  3
_____ _ _ _____ _ _ _____ _ _ _____
 72
65
 73
6
 40
0.8
 49
0.45
 74
0
 49
-0.05
 74
0
 49
0.1
 74
0
 49
-0.05
 74
0
 49
0.1
 74
0
 49
-0.05
 74
0
  0
LTYPE
  5
1F8
100
AcDbSymbolTableRecord
100
AcDbLinetypeTableRecord
  2
DOT
 70
64
  3
. . . . . . . . . . . . . . . . . . . .
 72
65
 73
2
 40
0.2
 49
0.1
 74
0
 49
-0.1
 74
0
  0
LTYPE
  5
1F9
100
AcDbSymbolTableRecord
100
AcDbLinetypeTableRecord
  2
DASHED
 70
64
  3
- - - - - - - - - - - - - - - - - - - -
 72
65
 73
2
 40
0.2
 49
0.1
 74
0
 49
-0.1
 74
0
  0
ENDTAB
  0
TABLE
  2
LAYER
  5
2
100
AcDbSymbolTable
 70
36
  0
LAYER
  5
10
100
AcDbSymbolTableRecord
100
AcDbLayerTableRecord
  2
0
 70
0
 62
7
  6
CONTINUOUS
370
-3
390
F
  0
LAYER
  5
1FA
100
AcDbSymbolTableRecord
100
AcDbLayerTableRecord
  2
DEFAULT_1
 70
0
 62
7
  6
CENTER
370
-3
390
F
  0
LAYER
  5
1FB
100
AcDbSymbolTableRecord
100
AcDbLayerTableRecord
  2
DEFAULT_2
 70
0
 62
8
  6
HIDDEN
370
-3
390
F
  0
LAYER
  5
1FC
100
AcDbSymbolTableRecord
100
AcDbLayerTableRecord
  2
DEFAULT_3
 70
0
 62
7
  6
PHANTOM
370
-3
390
F
  0
LAYER
  5
1FD
100
AcDbSymbolTableRecord
100
AcDbLayerTableRecord
  2
ALL_ASSEMBLY_MEMBERS
 70
0
 62
7
  6
CONTINUOUS
370
-3
390
F
  0
LAYER
  5
1FE
100
AcDbSymbolTableRecord
100
AcDbLayerTableRecord
  2
ALL_FEATURES
 70
0
 62
7
  6
CONTINUOUS
370
-3
390
F
  0
LAYER
  5
1FF
100
AcDbSymbolTableRecord
100
AcDbLayerTableRecord
  2
AXES_FEATURES
 70
0
 62
7
  6
CONTINUOUS
370
-3
390
F
  0
LAYER
  5
200
100
AcDbSymbolTableRecord
100
AcDbLayerTableRecord
  2
CHAMFER_FEATURES
 70
0
 62
7
  6
CONTINUOUS
370
-3
390
F
  0
LAYER
  5
201
100
AcDbSymbolTableRecord
100
AcDbLayerTableRecord
  2
CURVES
 70
0
 62
7
  6
CONTINUOUS
370
-3
390
F
  0
LAYER
  5
202
100
AcDbSymbolTableRecord
100
AcDbLayerTableRecord
  2
CUT_FEATURES
 70
0
 62
7
  6
CONTINUOUS
370
-3
390
F
  0
LAYER
  5
203
100
AcDbSymbolTableRecord
100
AcDbLayerTableRecord
  2
DATUM_CURVES
 70
0
 62
7
  6
CONTINUOUS
370
-3
390
F
  0
LAYER
  5
204
100
AcDbSymbolTableRecord
100
AcDbLayerTableRecord
  2
DATUM_PLANES
 70
0
 62
7
  6
CONTINUOUS
370
-3
390
F
  0
LAYER
  5
205
100
AcDbSymbolTableRecord
100
AcDbLayerTableRecord
  2
DATUM_POINTS
 70
0
 62
7
  6
CONTINUOUS
370
-3
390
F
  0
LAYER
  5
206
100
AcDbSymbolTableRecord
100
AcDbLayerTableRecord
  2
DEFAULT_COORDINATE_SYSTEM
 70
0
 62
7
  6
CONTINUOUS
370
-3
390
F
  0
LAYER
  5
207
100
AcDbSymbolTableRecord
100
AcDbLayerTableRecord
  2
DEFAULT_DATUM_AXES
 70
0
 62
7
  6
CONTINUOUS
370
-3
390
F
  0
LAYER
  5
208
100
AcDbSymbolTableRecord
100
AcDbLayerTableRecord
  2
DEFAULT_DATUM_CURVES
 70
0
 62
7
  6
CONTINUOUS
370
-3
390
F
  0
LAYER
  5
209
100
AcDbSymbolTableRecord
100
AcDbLayerTableRecord
  2
DEFAULT_DATUM_PLANES
 70
0
 62
7
  6
CONTINUOUS
370
-3
390
F
  0
LAYER
  5
20A
100
AcDbSymbolTableRecord
100
AcDbLayerTableRecord
  2
DEFAULT_SURFACES
 70
0
 62
7
  6
CONTINUOUS
370
-3
390
F
  0
LAYER
  5
20B
100
AcDbSymbolTableRecord
100
AcDbLayerTableRecord
  2
DIMENSIONS
 70
0
 62
7
  6
CONTINUOUS
370
-3
390
F
  0
LAYER
  5
20C
100
AcDbSymbolTableRecord
100
AcDbLayerTableRecord
  2
HOLE_FEATURES
 70
0
 62
7
  6
CONTINUOUS
370
-3
390
F
  0
LAYER
  5
20D
100
AcDbSymbolTableRecord
100
AcDbLayerTableRecord
  2
INTFCLR_1
 70
0
 62
7
  6
CONTINUOUS
370
-3
390
F
  0
LAYER
  5
20E
100
AcDbSymbolTableRecord
100
AcDbLayerTableRecord
  2
NOTES
 70
0
 62
7
  6
CONTINUOUS
370
-3
390
F
  0
LAYER
  5
20F
100
AcDbSymbolTableRecord
100
AcDbLayerTableRecord
  2
PART_REFERENCE_DIMENSIONS
 70
0
 62
7
  6
CONTINUOUS
370
-3
390
F
  0
LAYER
  5
210
100
AcDbSymbolTableRecord
100
AcDbLayerTableRecord
  2
PLATED_SURFACE_AREA
 70
0
 62
7
  6
CONTINUOUS
370
-3
390
F
  0
LAYER
  5
211
100
AcDbSymbolTableRecord
100
AcDbLayerTableRecord
  2
POINTS
 70
0
 62
7
  6
CONTINUOUS
370
-3
390
F
  0
LAYER
  5
212
100
AcDbSymbolTableRecord
100
AcDbLayerTableRecord
  2
PROTRUSION
 70
0
 62
7
  6
CONTINUOUS
370
-3
390
F
  0
LAYER
  5
213
100
AcDbSymbolTableRecord
100
AcDbLayerTableRecord
  2
PROTRUSION_FEATURES
 70
0
 62
7
  6
CONTINUOUS
370
-3
390
F
  0
LAYER
  5
214
100
AcDbSymbolTableRecord
100
AcDbLayerTableRecord
  2
QUILTS
 70
0
 62
7
  6
CONTINUOUS
370
-3
390
F
  0
LAYER
  5
215
100
AcDbSymbolTableRecord
100
AcDbLayerTableRecord
  2
REFERENCE_DIMENSIONS
 70
0
 62
7
  6
CONTINUOUS
370
-3
390
F
  0
LAYER
  5
216
100
AcDbSymbolTableRecord
100
AcDbLayerTableRecord
  2
ROUND_FEATURES
 70
0
 62
7
  6
CONTINUOUS
370
-3
390
F
  0
LAYER
  5
217
100
AcDbSymbolTableRecord
100
AcDbLayerTableRecord
  2
SIZE_REF
 70
0
 62
7
  6
CONTINUOUS
370
-3
390
F
  0
LAYER
  5
218
100
AcDbSymbolTableRecord
100
AcDbLayerTableRecord
  2
SURFACE_FEATURES
 70
0
 62
7
  6
CONTINUOUS
370
-3
390
F
  0
ENDTAB
  0
TABLE
  2
STYLE
  5
3
100
AcDbSymbolTable
 70
1
  0
STYLE
  5
11
100
AcDbSymbolTableRecord
100
AcDbTextStyleTableRecord
  2
STANDARD
 70
0
 40
0.0
 41
0.8
 50
0.0
 71
0
 42
0.2
  3
txt
  4

  0
STYLE
  5
219
100
AcDbSymbolTableRecord
100
AcDbTextStyleTableRecord
  2
TEXTSTYLE_1
 70
0
 40
0.0
 41
0.8
 50
0.0
 71
0
 42
0.2
  3
gdt
  4

  0
ENDTAB
  0
TABLE
  2
VIEW
  5
6
100
AcDbSymbolTable
 70
0
  0
ENDTAB
  0
TABLE
  2
UCS
  5
7
100
AcDbSymbolTable
 70
0
  0
ENDTAB
  0
TABLE
  2
APPID
  5
9
100
AcDbSymbolTable
 70
1
  0
APPID
  5
21A
100
AcDbSymbolTableRecord
100
AcDbRegAppTableRecord
  2
ACAD
 70
0
  0
ENDTAB
  0
TABLE
  2
BLOCK_RECORD
  5
1
100
AcDbSymbolTable
 70
0
  0
BLOCK_RECORD
  5
21B
100
AcDbSymbolTableRecord
100
AcDbBlockTableRecord
  2
*Model_Space
  0
BLOCK_RECORD
  5
21C
100
AcDbSymbolTableRecord
100
AcDbBlockTableRecord
  2
*Paper_Space
  0
ENDTAB
  0
TABLE
  2
DIMSTYLE
  5
A
100
AcDbSymbolTable
 70
1
100
AcDbDimStyleTable
 71
0
  0
DIMSTYLE
105
21D
100
AcDbSymbolTableRecord
100
AcDbDimStyleTableRecord
  2
STANDARD
 70
0
  3

  4

 40
1.0
 41
0.1
 42
0.0625
 43
0.38
 44
0.125
 45
0.0
 46
0.0
 47
0.001
 48
0.001
140
0.08
141
0.09
142
0.0
143
25.4
144
1.0
145
0.0
146
1.0
147
0.09
 71
1.0
 72
0.0
 73
1
 74
1
 75
0
 76
0
 77
0
 78
4
170
0
171
2
172
0
173
0
174
0
175
0
176
0
177
0
178
0
270
2
271
3
272
3
273
2
274
2
275
0
280
0
281
0
282
0
283
1
284
4
285
0
286
0
287
3
288
0
340
11
278
46
  0
ENDTAB
  0
ENDSEC
  0
SECTION
  2
BLOCKS
  0
BLOCK
  5
20
100
AcDbEntity
  8
0
100
AcDbBlockBegin
  2
*Model_Space
 70
0
 10
0.0
 20
0.0
 30
0.0
  3
*Model_Space
  1

  0
ENDBLK
  5
21
100
AcDbEntity
  8
0
100
AcDbBlockEnd
  0
BLOCK
  5
1C
100
AcDbEntity
  8
0
100
AcDbBlockBegin
  2
*Paper_Space
 70
0
 10
0.0
 20
0.0
 30
0.0
  3
*Paper_Space
  1

  0
ENDBLK
  5
1D
100
AcDbEntity
  8
0
100
AcDbBlockEnd
  0
ENDSEC
  0
SECTION
  2
ENTITIES
  0
LINE
  5
21E
100
AcDbEntity
  8
0
100
AcDbLine
 62
7
  6
CONTINUOUS
 10
0.0
 20
0.0
 11
0.0
 21
8.5
  0
LINE
  5
21F
100
AcDbEntity
  8
0
100
AcDbLine
 62
7
  6
CONTINUOUS
 10
0.0
 20
0.0
 11
11.0
 21
0.0
  0
LINE
  5
220
100
AcDbEntity
  8
0
100
AcDbLine
 62
7
  6
CONTINUOUS
 10
0.0
 20
8.5
 11
11.0
 21
8.5
  0
LINE
  5
221
100
AcDbEntity
  8
0
100
AcDbLine
 62
7
  6
CONTINUOUS
 10
11.0
 20
0.0
 11
11.0
 21
8.5
  0
LINE
  5
222
100
AcDbEntity
  8
0
100
AcDbLine
 62
7
  6
CONTINUOUS
 10
5.4395702861
 20
1.2227636476
 11
5.2235702861
 21
1.2227636476
  0
LINE
  5
223
100
AcDbEntity
  8
0
100
AcDbLine
 62
7
  6
CONTINUOUS
 10
5.5145702861
 20
1.2264851785
 11
5.4395702861
 21
1.2264851785
  0
LINE
  5
224
100
AcDbEntity
  8
0
100
AcDbLine
 62
7
  6
CONTINUOUS
 10
3.3432528855
 20
2.0280891627
 11
3.1259402606
 21
2.0280891627
  0
LINE
  5
225
100
AcDbEntity
  8
0
100
AcDbLine
 62
9
  6
CONTINUOUS
 10
3.3432528963
 20
2.0388479796
 11
3.1259402502
 21
2.0388479796
  0
LINE
  5
226
100
AcDbEntity
  8
0
100
AcDbLine
 62
7
  6
CONTINUOUS
 10
5.013546664
 20
2.0801849075
 11
3.885546664
 21
2.0801849075
  0
LINE
  5
227
100
AcDbEntity
  8
ALL_FEATURES
100
AcDbLine
 62
7
  6
CONTINUOUS
 10
3.885546664
 20
2.0801849075
 11
5.013546664
 21
2.0801849075
  0
LINE
  5
228
100
AcDbEntity
  8
0
100
AcDbLine
 62
7
  6
CONTINUOUS
 10
5.0580742231
 20
2.0801849075
 11
5.1860702861
 21
2.0801849075
  0
LINE
  5
229
100
AcDbEntity
  8
ALL_FEATURES
100
AcDbLine
 62
7
  6
CONTINUOUS
 10
3.885546664
 20
2.2090136476
 11
3.698046664
 21
2.2090136476
  0
LINE
  5
22A
100
AcDbEntity
  8
0
100
AcDbLine
 62
7
  6
CONTINUOUS
 10
3.0923258365
 20
2.0802111434
 11
3.0963513068
 21
2.0531399158
  0
LWPOLYLINE
  5
22B
100
AcDbEntity
  8
ALL_FEATURES
100
AcDbPolyline
 62
7
  6
CONTINUOUS
 90
10
 70
0
 10
3.0849353304
 20
3.7004100545
 10
3.0873616753
 20
3.6372433983
 10
3.0902815656
 20
3.5668402126
 10
3.0935013233
 20
3.4940245561
 10
3.0969966835
 20
3.4187982022
 10
3.1007353924
 20
3.3411593775
 10
3.104676513
 20
3.2611027619
 10
3.1087693209
 20
3.1786265819
 10
3.1129525117
 20
3.093732611
 10
3.1159522669
 20
3.0316959924
  0
LINE
  5
22C
100
AcDbEntity
  8
ALL_FEATURES
100
AcDbLine
 62
7
  6
CONTINUOUS
 10
2.978046664
 20
2.5015225779
 11
2.978046664
 21
2.8990047174
  0
LINE
  5
22D
100
AcDbEntity
  8
ALL_FEATURES
100
AcDbLine
 62
9
  6
CONTINUOUS
 10
2.998296664
 20
2.8990136476
 11
2.998296664
 21
2.5015136476
  0
LINE
  5
22E
100
AcDbEntity
  8
ALL_FEATURES
100
AcDbLine
 62
7
  6
CONTINUOUS
 10
3.013296664
 20
2.4640136476
 11
3.013296664
 21
2.9365136476
  0
LINE
  5
22F
100
AcDbEntity
  8
ALL_FEATURES
100
AcDbLine
 62
7
  6
CONTINUOUS
 10
3.069546664
 20
2.4002660913
 11
3.069546664
 21
3.000261204
  0
LINE
  5
230
100
AcDbEntity
  8
ALL_ASSEMBLY_MEMBERS
100
AcDbLine
 62
7
  6
CONTINUOUS
 10
3.7769558487
 20
5.2732078208
 11
3.7744647227
 21
5.2714463287
  0
LINE
  5
231
100
AcDbEntity
  8
ALL_ASSEMBLY_MEMBERS
100
AcDbLine
 62
7
  6
CONTINUOUS
 10
3.821046664
 20
5.2745339222
 11
3.791749789
 21
5.2660766428
  0
LINE
  5
232
100
AcDbEntity
  8
ALL_ASSEMBLY_MEMBERS
100
AcDbLine
 62
7
  6
CONTINUOUS
 10
3.821046664
 20
5.2407048048
 11
3.850343539
 21
5.2491620842
  0
LINE
  5
233
100
AcDbEntity
  8
0
100
AcDbLine
 62
9
  6
CONTINUOUS
 10
3.1259402496
 20
2.345767565
 11
3.3432528957
 21
2.345767565
  0
LINE
  5
234
100
AcDbEntity
  8
0
100
AcDbLine
 62
9
  6
CONTINUOUS
 10
3.1259402592
 20
2.383312279
 11
3.3432528843
 21
2.383312279
  0
LINE
  5
235
100
AcDbEntity
  8
ALL_FEATURES
100
AcDbLine
 62
7
  6
CONTINUOUS
 10
3.069546664
 20
2.4002636476
 11
3.098214652
 21
2.4002636476
  0
LINE
  5
236
100
AcDbEntity
  8
ALL_FEATURES
100
AcDbLine
 62
7
  6
CONTINUOUS
 10
3.3803614901
 20
2.4002636476
 11
3.425796664
 21
2.4002636476
  0
LINE
  5
237
100
AcDbEntity
  8
ALL_FEATURES
100
AcDbLine
 62
9
  6
CONTINUOUS
 10
3.3942901902
 20
2.4281218986
 11
3.3795950941
 21
2.4281218986
  0
LINE
  5
238
100
AcDbEntity
  8
ALL_FEATURES
100
AcDbLine
 62
9
  6
CONTINUOUS
 10
3.1008155701
 20
2.4281218986
 11
3.1000018355
 21
2.4281218986
  0
LINE
  5
239
100
AcDbEntity
  8
ALL_FEATURES
100
AcDbLine
 62
7
  6
CONTINUOUS
 10
3.440796664
 20
2.4640136476
 11
3.660546664
 21
2.4640136476
  0
LINE
  5
23A
100
AcDbEntity
  8
ALL_FEATURES
100
AcDbLine
 62
7
  6
CONTINUOUS
 10
3.5198188706
 20
2.4933518027
 11
3.5525645956
 21
2.4891054313
  0
LINE
  5
23B
100
AcDbEntity
  8
ALL_FEATURES
100
AcDbLine
 62
7
  6
CONTINUOUS
 10
3.5672744575
 20
2.5174640609
 11
3.5345287325
 21
2.5217104323
  0
LINE
  5
23C
100
AcDbEntity
  8
ALL_FEATURES
100
AcDbLine
 62
7
  6
CONTINUOUS
 10
3.5108009391
 20
2.5096543032
 11
3.5198188706
 21
2.4933518027
  0
LINE
  5
23D
100
AcDbEntity
  8
ALL_FEATURES
100
AcDbLine
 62
7
  6
CONTINUOUS
 10
3.576292389
 20
2.5011615604
 11
3.5672744575
 21
2.5174640609
  0
LINE
  5
23E
100
AcDbEntity
  8
0
100
AcDbLine
 62
7
  6
CONTINUOUS
 10
3.0888388465
 20
2.1115616911
 11
3.0923586861
 21
2.079958465
  0
LWPOLYLINE
  5
23F
100
AcDbEntity
  8
ALL_FEATURES
100
AcDbPolyline
 62
7
  6
CONTINUOUS
 90
18
 70
0
 10
3.1159522697
 20
3.0316959923
 10
3.1159763418
 20
3.0310436212
 10
3.1158984894
 20
3.027967587
 10
3.1155059577
 20
3.0249156883
 10
3.1148028695
 20
3.02192003
 10
3.113796616
 20
3.0190121312
 10
3.1124977813
 20
3.0162225931
 10
3.1109200268
 20
3.013580765
 10
3.1090799481
 20
3.0111144421
 10
3.1069969055
 20
3.0088495781
 10
3.1046928126
 20
3.0068100023
 10
3.1021919092
 20
3.0050171741
 10
3.0995205113
 20
3.0034899598
 10
3.096706724
 20
3.002244427
 10
3.0937801509
 20
3.0012936798
 10
3.0907715879
 20
3.0006477218
 10
3.08771269
 20
3.0003133471
 10
3.0859864845
 20
3.0002636429
  0
LINE
  5
240
100
AcDbEntity
  8
0
100
AcDbLine
 62
9
  6
CONTINUOUS
 10
3.1259402606
 20
3.7161753983
 11
3.1259402606
 21
3.6839055296
  0
LINE
  5
241
100
AcDbEntity
  8
0
100
AcDbLine
 62
9
  6
CONTINUOUS
 10
3.1259402592
 20
2.383312279
 11
3.1259402592
 21
2.345767565
  0
LINE
  5
242
100
AcDbEntity
  8
0
100
AcDbLine
 62
9
  6
CONTINUOUS
 10
3.1259402606
 20
2.0280892276
 11
3.1259402606
 21
2.0388479796
  0
LINE
  5
243
100
AcDbEntity
  8
ALL_ASSEMBLY_MEMBERS
100
AcDbLine
 62
7
  6
CONTINUOUS
 10
3.253296664
 20
4.8658886476
 11
3.253296664
 21
5.2596386476
  0
LINE
  5
244
100
AcDbEntity
  8
ALL_ASSEMBLY_MEMBERS
100
AcDbLine
 62
9
  6
CONTINUOUS
 10
3.275796664
 20
5.2596386476
 11
3.275796664
 21
4.8658886476
  0
LWPOLYLINE
  5
245
100
AcDbEntity
  8
0
100
AcDbPolyline
 62
7
  6
CONTINUOUS
 90
6
 70
0
 10
3.0878035317
 20
2.2793928379
 10
3.0858488674
 20
2.244585811
 10
3.0849687914
 20
2.2103168417
 10
3.0851686916
 20
2.1766798054
 10
3.0864558406
 20
2.1437402598
 10
3.0888576726
 20
2.1113539555
  0
LINE
  5
246
100
AcDbEntity
  8
0
100
AcDbLine
 62
7
  6
CONTINUOUS
 10
3.0885440321
 20
2.2892489558
 11
3.0884803399
 21
2.2884421897
  0
LINE
  5
247
100
AcDbEntity
  8
ALL_FEATURES
100
AcDbLine
 62
7
  6
CONTINUOUS
 10
3.0919188899
 20
2.3301310157
 11
3.088544118
 21
2.2892500391
  0
LWPOLYLINE
  5
248
100
AcDbEntity
  8
0
100
AcDbPolyline
 62
7
  6
CONTINUOUS
 90
6
 70
0
 10
3.0908327595
 20
2.3147247083
 10
3.0878029693
 20
2.2793862784
 10
3.0858462973
 20
2.2445279152
 10
3.0849677076
 20
2.2102264675
 10
3.0851718217
 20
2.1765523863
 10
3.0864652937
 20
2.1435736096
  0
LINE
  5
249
100
AcDbEntity
  8
ALL_FEATURES
100
AcDbLine
 62
7
  6
CONTINUOUS
 10
3.1210700141
 20
2.6428962947
 11
3.1210651294
 21
2.6428399433
  0
LINE
  5
24A
100
AcDbEntity
  8
ALL_FEATURES
100
AcDbLine
 62
7
  6
CONTINUOUS
 10
3.0958598768
 20
2.3747943789
 11
3.0919188899
 21
2.3301310157
  0
LINE
  5
24B
100
AcDbEntity
  8
0
100
AcDbLine
 62
7
  6
CONTINUOUS
 10
3.1208934647
 20
2.6409437812
 11
3.1190931493
 21
2.6211280074
  0
LWPOLYLINE
  5
24C
100
AcDbEntity
  8
ALL_FEATURES
100
AcDbPolyline
 62
7
  6
CONTINUOUS
 90
8
 70
0
 10
3.1190914757
 20
2.6211142185
 10
3.1185281719
 20
2.6149366388
 10
3.1151169046
 20
2.5780846228
 10
3.1115123439
 20
2.5399623075
 10
3.107743792
 20
2.5006222976
 10
3.1038475031
 20
2.4600435449
 10
3.0998650597
 20
2.4181144693
 10
3.095859887
 20
2.3747944909
  0
LINE
  5
24D
100
AcDbEntity
  8
0
100
AcDbLine
 62
7
  6
CONTINUOUS
 10
3.0949297599
 20
2.3504528111
 11
3.0908327595
 21
2.3147247083
  0
LINE
  5
24E
100
AcDbEntity
  8
ALL_FEATURES
100
AcDbLine
 62
7
  6
CONTINUOUS
 10
2.978046664
 20
2.5015136476
 11
2.998296664
 21
2.5015136476
  0
LINE
  5
24F
100
AcDbEntity
  8
0
100
AcDbLine
 62
7
  6
CONTINUOUS
 10
3.698046664
 20
2.5615136476
 11
3.660546664
 21
2.5615136476
  0
LINE
  5
250
100
AcDbEntity
  8
ALL_FEATURES
100
AcDbLine
 62
9
  6
CONTINUOUS
 10
3.1507828722
 20
2.6656031872
 11
3.3419352957
 21
2.6656031872
  0
LWPOLYLINE
  5
251
100
AcDbEntity
  8
0
100
AcDbPolyline
 62
7
  6
CONTINUOUS
 90
17
 70
0
 10
3.3837465112
 20
3.7014642151
 10
3.3836931003
 20
3.7033036425
 10
3.3833429968
 20
3.7064177299
 10
3.3826699588
 20
3.7094783105
 10
3.381681329
 20
3.7124519887
 10
3.3803878944
 20
3.7153063166
 10
3.3788037678
 20
3.7180101492
 10
3.3769462336
 20
3.7205339844
 10
3.3748355601
 20
3.7228502829
 10
3.3724947773
 20
3.7249337708
 10
3.369949426
 20
3.7267617143
 10
3.3672272799
 20
3.7283141677
 10
3.3643580414
 20
3.7295741915
 10
3.3613730174
 20
3.7305280374
 10
3.3583047794
 20
3.7311652974
 10
3.3551868062
 20
3.7314790185
 10
3.3537465457
 20
3.731513611
  0
LWPOLYLINE
  5
252
100
AcDbEntity
  8
ALL_FEATURES
100
AcDbPolyline
 62
7
  6
CONTINUOUS
 90
5
 70
0
 10
3.3812424421
 20
2.3665123806
 10
3.3801564821
 20
2.4081179636
 10
3.3789881251
 20
2.4497500218
 10
3.3777936497
 20
2.491401941
 10
3.3766257528
 20
2.5332965194
  0
LINE
  5
253
100
AcDbEntity
  8
ALL_FEATURES
100
AcDbLine
 62
7
  6
CONTINUOUS
 10
3.3758123432
 20
2.5645957299
 11
3.3766257528
 21
2.5332965194
  0
LWPOLYLINE
  5
254
100
AcDbEntity
  8
ALL_FEATURES
100
AcDbPolyline
 62
7
  6
CONTINUOUS
 90
5
 70
0
 10
3.3837404202
 20
2.2033022788
 10
3.3834704886
 20
2.2436111896
 10
3.382941273
 20
2.2843015334
 10
3.3821864537
 20
2.3252139065
 10
3.3812424371
 20
2.3665125823
  0
LINE
  5
255
100
AcDbEntity
  8
0
100
AcDbLine
 62
7
  6
CONTINUOUS
 10
3.3837399745
 20
2.2034348523
 11
3.3837404224
 21
2.2033016064
  0
LINE
  5
256
100
AcDbEntity
  8
ALL_ASSEMBLY_MEMBERS
100
AcDbLine
 62
7
  6
CONTINUOUS
 10
3.290796664
 20
4.8283886476
 11
3.290796664
 21
5.2971386476
  0
LINE
  5
257
100
AcDbEntity
  8
0
100
AcDbLine
 62
9
  6
CONTINUOUS
 10
3.3432528855
 20
3.7161753983
 11
3.3432528854
 21
3.6839055296
  0
LINE
  5
258
100
AcDbEntity
  8
0
100
AcDbLine
 62
9
  6
CONTINUOUS
 10
3.3432528843
 20
2.383312279
 11
3.3432528843
 21
2.345767565
  0
LINE
  5
259
100
AcDbEntity
  8
0
100
AcDbLine
 62
9
  6
CONTINUOUS
 10
3.3432528855
 20
2.0280892261
 11
3.3432528855
 21
2.0388479796
  0
LINE
  5
25A
100
AcDbEntity
  8
ALL_ASSEMBLY_MEMBERS
100
AcDbLine
 62
7
  6
CONTINUOUS
 10
3.347046664
 20
4.7627636476
 11
3.347046664
 21
5.3627636476
  0
LINE
  5
25B
100
AcDbEntity
  8
ALL_ASSEMBLY_MEMBERS
100
AcDbLine
 62
9
  6
CONTINUOUS
 10
3.4074726526
 20
4.0625656318
 11
3.4074726526
 21
4.0315136476
  0
LINE
  5
25C
100
AcDbEntity
  8
ALL_FEATURES
100
AcDbLine
 62
7
  6
CONTINUOUS
 10
3.425796664
 20
2.4002660913
 11
3.425796664
 21
3.000261204
  0
LINE
  5
25D
100
AcDbEntity
  8
ALL_FEATURES
100
AcDbLine
 62
9
  6
CONTINUOUS
 10
3.440796664
 20
2.9365136476
 11
3.440796664
 21
2.4640136476
  0
LWPOLYLINE
  5
25E
100
AcDbEntity
  8
ALL_FEATURES
100
AcDbPolyline
 62
7
  6
CONTINUOUS
 90
10
 70
0
 10
3.376191326
 20
3.0306437312
 10
3.3770161194
 20
3.0929786177
 10
3.3782221036
 20
3.178133614
 10
3.3794230365
 20
3.26086245
 10
3.3805571064
 20
3.3411648198
 10
3.3815730139
 20
3.4190410294
 10
3.3824291919
 20
3.4944919968
 10
3.3830930331
 20
3.5675180282
 10
3.383540167
 20
3.6381188174
 10
3.3837464344
 20
3.7014642157
  0
LWPOLYLINE
  5
25F
100
AcDbEntity
  8
0
100
AcDbPolyline
 62
7
  6
CONTINUOUS
 90
3
 70
0
 10
3.3830319351
 20
2.1604048826
 10
3.3836994943
 20
2.1894782998
 10
3.3837399733
 20
2.2034354894
  0
LINE
  5
260
100
AcDbEntity
  8
0
100
AcDbLine
 62
7
  6
CONTINUOUS
 10
3.3830252488
 20
2.1602243149
 11
3.3830273603
 21
2.1603156553
  0
LWPOLYLINE
  5
261
100
AcDbEntity
  8
ALL_ASSEMBLY_MEMBERS
100
AcDbPolyline
 62
7
  6
CONTINUOUS
 90
10
 70
0
 10
3.3902803028
 20
4.7318731815
 10
3.389213025
 20
4.6961255148
 10
3.3870575874
 20
4.6249497969
 10
3.384789196
 20
4.5513287526
 10
3.382408766
 20
4.4752624563
 10
3.3799180447
 20
4.3967508338
 10
3.3773196897
 20
4.3157936615
 10
3.3746173607
 20
4.2323908652
 10
3.3718158033
 20
4.1465425192
 10
3.3690604505
 20
4.0624980435
  0
LINE
  5
262
100
AcDbEntity
  8
0
100
AcDbLine
 62
7
  6
CONTINUOUS
 10
3.3815551864
 20
2.1316640685
 11
3.3830319351
 21
2.1604048826
  0
LINE
  5
263
100
AcDbEntity
  8
ALL_FEATURES
100
AcDbLine
 62
9
  6
CONTINUOUS
 10
3.0999994443
 20
2.7269994806
 11
3.394292581
 21
2.7269994806
  0
LINE
  5
264
100
AcDbEntity
  8
0
100
AcDbLine
 62
7
  6
CONTINUOUS
 10
3.698046664
 20
2.8390136476
 11
3.660546664
 21
2.8390136476
  0
LWPOLYLINE
  5
265
100
AcDbEntity
  8
ALL_ASSEMBLY_MEMBERS
100
AcDbPolyline
 62
7
  6
CONTINUOUS
 90
10
 70
0
 10
3.6663251867
 20
4.0617112938
 10
3.6657740908
 20
4.1459544493
 10
3.6652241929
 20
4.2319929202
 10
3.6647094377
 20
4.3155798047
 10
3.6642346061
 20
4.3967151006
 10
3.6638033899
 20
4.4753988101
 10
3.6634184768
 20
4.5516309407
 10
3.6630816322
 20
4.6254114948
 10
3.6627937793
 20
4.69674047
 10
3.6626642371
 20
4.7326602984
  0
LINE
  5
266
100
AcDbEntity
  8
ALL_FEATURES
100
AcDbLine
 62
7
  6
CONTINUOUS
 10
3.5198188706
 20
2.4933518027
 11
3.5198188706
 21
2.5142363283
  0
LINE
  5
267
100
AcDbEntity
  8
ALL_FEATURES
100
AcDbLine
 62
9
  6
CONTINUOUS
 10
3.5435467133
 20
2.4685896884
 11
3.5435467305
 21
2.481001467
  0
LINE
  5
268
100
AcDbEntity
  8
ALL_FEATURES
100
AcDbLine
 62
7
  6
CONTINUOUS
 10
3.5525645956
 20
2.4891054313
 11
3.5525645956
 21
2.5193715935
  0
LINE
  5
269
100
AcDbEntity
  8
ALL_ASSEMBLY_MEMBERS
100
AcDbLine
 62
9
  6
CONTINUOUS
 10
3.6278961921
 20
4.0625656318
 11
3.6278961921
 21
4.0315136476
  0
LINE
  5
26A
100
AcDbEntity
  8
ALL_FEATURES
100
AcDbLine
 62
7
  6
CONTINUOUS
 10
3.660546664
 20
2.4640136476
 11
3.660546664
 21
2.9365136476
  0
LINE
  5
26B
100
AcDbEntity
  8
0
100
AcDbLine
 62
7
  6
CONTINUOUS
 10
3.3792805446
 20
2.1036937635
 11
3.3815693058
 21
2.1318778079
  0
LINE
  5
26C
100
AcDbEntity
  8
0
100
AcDbLine
 62
7
  6
CONTINUOUS
 10
3.3761928782
 20
2.0763539542
 11
3.3793043032
 21
2.1039393201
  0
LINE
  5
26D
100
AcDbEntity
  8
0
100
AcDbLine
 62
7
  6
CONTINUOUS
 10
3.3728794608
 20
2.0533703365
 11
3.3762284958
 21
2.0766295064
  0
LINE
  5
26E
100
AcDbEntity
  8
0
100
AcDbLine
 62
7
  6
CONTINUOUS
 10
3.3728780992
 20
2.0533620594
 11
3.3728758961
 21
2.0533481791
  0
LINE
  5
26F
100
AcDbEntity
  8
ALL_FEATURES
100
AcDbLine
 62
7
  6
CONTINUOUS
 10
2.978046664
 20
2.8990136476
 11
2.998296664
 21
2.8990136476
  0
LINE
  5
270
100
AcDbEntity
  8
ALL_FEATURES
100
AcDbLine
 62
7
  6
CONTINUOUS
 10
3.440796664
 20
2.9365136476
 11
3.660546664
 21
2.9365136476
  0
LINE
  5
271
100
AcDbEntity
  8
ALL_FEATURES
100
AcDbLine
 62
9
  6
CONTINUOUS
 10
3.3942931135
 20
2.9456695637
 11
3.0999991524
 21
2.9456695637
  0
LINE
  5
272
100
AcDbEntity
  8
ALL_FEATURES
100
AcDbLine
 62
7
  6
CONTINUOUS
 10
3.069546664
 20
3.0002636476
 11
3.0861807698
 21
3.0002636476
  0
LINE
  5
273
100
AcDbEntity
  8
ALL_FEATURES
100
AcDbLine
 62
7
  6
CONTINUOUS
 10
3.406022239
 20
3.0002636476
 11
3.425796664
 21
3.0002636476
  0
LINE
  5
274
100
AcDbEntity
  8
ALL_FEATURES
100
AcDbLine
 62
9
  6
CONTINUOUS
 10
3.3419352957
 20
3.0138112237
 11
3.1507828722
 21
3.0138112237
  0
LWPOLYLINE
  5
275
100
AcDbEntity
  8
ALL_FEATURES
100
AcDbPolyline
 62
7
  6
CONTINUOUS
 90
18
 70
0
 10
3.4061889133
 20
3.0002636425
 10
3.4045795847
 20
3.0003068393
 10
3.4015772281
 20
3.0006202224
 10
3.3986215539
 20
3.001233743
 10
3.3957424912
 20
3.0021411914
 10
3.3929691981
 20
3.0033333786
 10
3.3903297541
 20
3.0047982337
 10
3.3878508835
 20
3.0065209251
 10
3.3855576904
 20
3.0084840051
 10
3.3834733918
 20
3.010667596
 10
3.3816190891
 20
3.0130495876
 10
3.3800135586
 20
3.0156058547
 10
3.3786730516
 20
3.018310514
 10
3.3776111364
 20
3.0211361792
 10
3.376838562
 20
3.0240542309
 10
3.3763631433
 20
3.0270351206
 10
3.3761896851
 20
3.0300486712
 10
3.3761913227
 20
3.030643731
  0
LINE
  5
276
100
AcDbEntity
  8
ALL_FEATURES
100
AcDbLine
 62
7
  6
CONTINUOUS
 10
3.698046664
 20
3.1915136476
 11
3.698046664
 21
2.2090136476
  0
LINE
  5
277
100
AcDbEntity
  8
ALL_ASSEMBLY_MEMBERS
100
AcDbLine
 62
7
  6
CONTINUOUS
 10
3.703296664
 20
4.7627636476
 11
3.703296664
 21
5.3627636476
  0
LINE
  5
278
100
AcDbEntity
  8
ALL_ASSEMBLY_MEMBERS
100
AcDbLine
 62
9
  6
CONTINUOUS
 10
3.718296664
 20
5.2971386476
 11
3.718296664
 21
4.8283886476
  0
LINE
  5
279
100
AcDbEntity
  8
ALL_ASSEMBLY_MEMBERS
100
AcDbLine
 62
7
  6
CONTINUOUS
 10
3.791749789
 20
5.2660766428
 11
3.791749789
 21
5.2491620842
  0
LINE
  5
27A
100
AcDbEntity
  8
ALL_ASSEMBLY_MEMBERS
100
AcDbLine
 62
7
  6
CONTINUOUS
 10
3.821046664
 20
5.2745339222
 11
3.821046664
 21
5.2407048048
  0
LINE
  5
27B
100
AcDbEntity
  8
ALL_ASSEMBLY_MEMBERS
100
AcDbLine
 62
7
  6
CONTINUOUS
 10
3.850343539
 20
5.2491620842
 11
3.850343539
 21
5.2660766428
  0
LINE
  5
27C
100
AcDbEntity
  8
ALL_FEATURES
100
AcDbLine
 62
7
  6
CONTINUOUS
 10
3.885546664
 20
3.3203423878
 11
3.885546664
 21
2.0801849075
  0
LINE
  5
27D
100
AcDbEntity
  8
ALL_FEATURES
100
AcDbLine
 62
7
  6
CONTINUOUS
 10
3.885546664
 20
3.1915136476
 11
3.698046664
 21
3.1915136476
  0
LINE
  5
27E
100
AcDbEntity
  8
ALL_ASSEMBLY_MEMBERS
100
AcDbLine
 62
7
  6
CONTINUOUS
 10
3.938046664
 20
4.8283886476
 11
3.938046664
 21
5.2971386476
  0
LINE
  5
27F
100
AcDbEntity
  8
ALL_FEATURES
100
AcDbLine
 62
7
  6
CONTINUOUS
 10
3.975546664
 20
4.5771414822
 11
3.975546664
 21
5.5483858131
  0
LINE
  5
280
100
AcDbEntity
  8
0
100
AcDbLine
 62
7
  6
CONTINUOUS
 10
4.089171664
 20
3.3184365996
 11
4.089171664
 21
3.4178423878
  0
LINE
  5
281
100
AcDbEntity
  8
0
100
AcDbLine
 62
7
  6
CONTINUOUS
 10
5.1860702861
 20
3.3199468032
 11
5.1041846279
 21
3.3199468032
  0
LINE
  5
282
100
AcDbEntity
  8
ALL_FEATURES
100
AcDbLine
 62
7
  6
CONTINUOUS
 10
4.081202914
 20
3.3203423878
 11
3.885546664
 21
3.3203423878
  0
LINE
  5
283
100
AcDbEntity
  8
0
100
AcDbLine
 62
7
  6
CONTINUOUS
 10
4.385890414
 20
3.3203423878
 11
5.013546664
 21
3.3203423878
  0
LINE
  5
284
100
AcDbEntity
  8
ALL_FEATURES
100
AcDbLine
 62
7
  6
CONTINUOUS
 10
4.385890414
 20
3.3203423878
 11
5.013546664
 21
3.3203423878
  0
LINE
  5
285
100
AcDbEntity
  8
0
100
AcDbLine
 62
7
  6
CONTINUOUS
 10
5.0580742231
 20
3.3203423878
 11
5.0816889497
 21
3.3203423878
  0
LINE
  5
286
100
AcDbEntity
  8
0
100
AcDbLine
 62
9
  6
CONTINUOUS
 10
4.089171664
 20
3.4178423878
 11
4.377921664
 21
3.4178423878
  0
LINE
  5
287
100
AcDbEntity
  8
0
100
AcDbLine
 62
7
  6
CONTINUOUS
 10
4.0966732682
 20
3.4253423878
 11
4.3704200599
 21
3.4253423878
  0
LINE
  5
288
100
AcDbEntity
  8
0
100
AcDbLine
 62
7
  6
CONTINUOUS
 10
4.2020702861
 20
4.4426897669
 11
4.2020702861
 21
5.6828375283
  0
LINE
  5
289
100
AcDbEntity
  8
0
100
AcDbLine
 62
9
  6
CONTINUOUS
 10
3.1259402606
 20
3.6839055296
 11
3.3432528855
 21
3.6839055296
  0
LINE
  5
28A
100
AcDbEntity
  8
0
100
AcDbLine
 62
7
  6
CONTINUOUS
 10
4.377921664
 20
3.3184366341
 11
4.377921664
 21
3.4178423878
  0
LWPOLYLINE
  5
28B
100
AcDbEntity
  8
0
100
AcDbPolyline
 62
7
  6
CONTINUOUS
 90
17
 70
0
 10
3.1149149626
 20
3.7315136052
 10
3.1133576591
 20
3.7314731581
 10
3.1101830831
 20
3.7311380769
 10
3.1070620826
 20
3.7304675737
 10
3.1040299951
 20
3.7294692399
 10
3.1011211523
 20
3.7281543792
 10
3.0983684895
 20
3.7265378792
 10
3.0958031736
 20
3.7246380425
 10
3.0934542508
 20
3.7224763807
 10
3.0913483166
 20
3.7200773691
 10
3.0895092151
 20
3.7174681707
 10
3.0879577697
 20
3.7146783287
 10
3.0867115459
 20
3.7117394312
 10
3.0857846538
 20
3.7086847539
 10
3.0851875877
 20
3.7055488846
 10
3.0849271069
 20
3.7023673296
 10
3.0849352607
 20
3.7004100514
  0
LINE
  5
28C
100
AcDbEntity
  8
0
100
AcDbLine
 62
9
  6
CONTINUOUS
 10
3.1259402503
 20
3.7161753983
 11
3.3432528963
 21
3.7161753983
  0
LINE
  5
28D
100
AcDbEntity
  8
0
100
AcDbLine
 62
7
  6
CONTINUOUS
 10
3.3534529407
 20
3.7315136476
 11
3.1152181003
 21
3.7315136476
  0
LINE
  5
28E
100
AcDbEntity
  8
ALL_ASSEMBLY_MEMBERS
100
AcDbLine
 62
9
  6
CONTINUOUS
 10
3.6577185511
 20
4.0616645376
 11
3.6663256649
 21
4.0617112774
  0
LINE
  5
28F
100
AcDbEntity
  8
ALL_ASSEMBLY_MEMBERS
100
AcDbLine
 62
7
  6
CONTINUOUS
 10
3.3990469874
 20
4.0315136476
 11
3.6363231563
 21
4.0315136476
  0
LINE
  5
290
100
AcDbEntity
  8
ALL_ASSEMBLY_MEMBERS
100
AcDbLine
 62
9
  6
CONTINUOUS
 10
3.4074729775
 20
4.0625656318
 11
3.6278958689
 21
4.0625656318
  0
LINE
  5
291
100
AcDbEntity
  8
ALL_ASSEMBLY_MEMBERS
100
AcDbLine
 62
9
  6
CONTINUOUS
 10
3.3690599723
 20
4.0624980417
 11
3.3776642904
 21
4.0624466951
  0
LINE
  5
292
100
AcDbEntity
  8
0
100
AcDbLine
 62
7
  6
CONTINUOUS
 10
5.013546664
 20
3.3203423878
 11
5.013546664
 21
2.0801849075
  0
LINE
  5
293
100
AcDbEntity
  8
0
100
AcDbLine
 62
7
  6
CONTINUOUS
 10
5.0433104436
 20
3.3055786083
 11
5.0433104436
 21
2.094948687
  0
LINE
  5
294
100
AcDbEntity
  8
0
100
AcDbLine
 62
9
  6
CONTINUOUS
 10
5.0580742231
 20
2.0801849229
 11
5.0580742231
 21
3.3203423878
  0
LINE
  5
295
100
AcDbEntity
  8
0
100
AcDbLine
 62
7
  6
CONTINUOUS
 10
5.1860702861
 20
4.4426861476
 11
4.2020702861
 21
4.4426861476
  0
LINE
  5
296
100
AcDbEntity
  8
0
100
AcDbLine
 62
7
  6
CONTINUOUS
 10
5.1860702861
 20
1.2602850093
 11
5.1860702861
 21
6.502742286
  0
LINE
  5
297
100
AcDbEntity
  8
0
100
AcDbLine
 62
9
  6
CONTINUOUS
 10
5.2235702861
 20
1.2227636476
 11
5.2235702861
 21
6.5402636476
  0
LINE
  5
298
100
AcDbEntity
  8
ALL_FEATURES
100
AcDbLine
 62
7
  6
CONTINUOUS
 10
3.5345287325
 20
2.5217104323
 11
3.5108009391
 21
2.5096543032
  0
LINE
  5
299
100
AcDbEntity
  8
ALL_FEATURES
100
AcDbLine
 62
7
  6
CONTINUOUS
 10
3.5525645956
 20
2.4891054313
 11
3.576292389
 21
2.5011615604
  0
LINE
  5
29A
100
AcDbEntity
  8
ALL_FEATURES
100
AcDbLine
 62
7
  6
CONTINUOUS
 10
3.975546664
 20
4.5771386476
 11
4.2020702861
 21
4.5771386476
  0
LINE
  5
29B
100
AcDbEntity
  8
0
100
AcDbLine
 62
7
  6
CONTINUOUS
 10
5.4395702861
 20
1.2227636476
 11
5.4395702861
 21
1.2264851785
  0
LINE
  5
29C
100
AcDbEntity
  8
0
100
AcDbLine
 62
7
  6
CONTINUOUS
 10
5.5145702861
 20
1.2264851785
 11
5.5145702861
 21
6.5402636476
  0
LINE
  5
29D
100
AcDbEntity
  8
ALL_ASSEMBLY_MEMBERS
100
AcDbLine
 62
7
  6
CONTINUOUS
 10
3.703296664
 20
4.7627636476
 11
3.6926640591
 21
4.7627636476
  0
LINE
  5
29E
100
AcDbEntity
  8
ALL_ASSEMBLY_MEMBERS
100
AcDbLine
 62
7
  6
CONTINUOUS
 10
3.3602935212
 20
4.7627636476
 11
3.347046664
 21
4.7627636476
  0
LINE
  5
29F
100
AcDbEntity
  8
ALL_ASSEMBLY_MEMBERS
100
AcDbLine
 62
9
  6
CONTINUOUS
 10
3.4204273143
 20
4.7915441251
 11
3.6334280072
 21
4.7915441251
  0
LINE
  5
2A0
100
AcDbEntity
  8
ALL_ASSEMBLY_MEMBERS
100
AcDbLine
 62
9
  6
CONTINUOUS
 10
3.3730560794
 20
4.8171567946
 11
3.6814716186
 21
4.8171567946
  0
LINE
  5
2A1
100
AcDbEntity
  8
ALL_ASSEMBLY_MEMBERS
100
AcDbLine
 62
7
  6
CONTINUOUS
 10
3.938046664
 20
4.8283886476
 11
3.718296664
 21
4.8283886476
  0
LINE
  5
2A2
100
AcDbEntity
  8
ALL_ASSEMBLY_MEMBERS
100
AcDbLine
 62
7
  6
CONTINUOUS
 10
3.275796664
 20
4.8658886476
 11
3.253296664
 21
4.8658886476
  0
LINE
  5
2A3
100
AcDbEntity
  8
0
100
AcDbLine
 62
7
  6
CONTINUOUS
 10
3.975546664
 20
4.9240136476
 11
3.938046664
 21
4.9240136476
  0
LINE
  5
2A4
100
AcDbEntity
  8
ALL_ASSEMBLY_MEMBERS
100
AcDbLine
 62
7
  6
CONTINUOUS
 10
3.791749789
 20
5.2491620842
 11
3.821046664
 21
5.2407048048
  0
LINE
  5
2A5
100
AcDbEntity
  8
ALL_ASSEMBLY_MEMBERS
100
AcDbLine
 62
7
  6
CONTINUOUS
 10
3.850343539
 20
5.2660766428
 11
3.821046664
 21
5.2745339222
  0
LINE
  5
2A6
100
AcDbEntity
  8
0
100
AcDbLine
 62
7
  6
CONTINUOUS
 10
3.975546664
 20
5.2015136476
 11
3.938046664
 21
5.2015136476
  0
LINE
  5
2A7
100
AcDbEntity
  8
ALL_ASSEMBLY_MEMBERS
100
AcDbLine
 62
7
  6
CONTINUOUS
 10
3.275796664
 20
5.2596386476
 11
3.253296664
 21
5.2596386476
  0
LINE
  5
2A8
100
AcDbEntity
  8
ALL_ASSEMBLY_MEMBERS
100
AcDbLine
 62
7
  6
CONTINUOUS
 10
3.938046664
 20
5.2971386476
 11
3.718296664
 21
5.2971386476
  0
LINE
  5
2A9
100
AcDbEntity
  8
ALL_ASSEMBLY_MEMBERS
100
AcDbLine
 62
7
  6
CONTINUOUS
 10
3.703296664
 20
5.3627636476
 11
3.347046664
 21
5.3627636476
  0
LINE
  5
2AA
100
AcDbEntity
  8
ALL_FEATURES
100
AcDbLine
 62
7
  6
CONTINUOUS
 10
3.975546664
 20
5.5483886476
 11
4.2020702861
 21
5.5483886476
  0
LINE
  5
2AB
100
AcDbEntity
  8
0
100
AcDbLine
 62
7
  6
CONTINUOUS
 10
5.1860702861
 20
5.6828411476
 11
4.2020702861
 21
5.6828411476
  0
LINE
  5
2AC
100
AcDbEntity
  8
0
100
AcDbLine
 62
7
  6
CONTINUOUS
 10
5.5145702861
 20
6.5402636476
 11
5.2235702861
 21
6.5402636476
  0
ARC
  5
2AD
100
AcDbEntity
  8
ALL_FEATURES
100
AcDbCircle
 62
9
  6
CONTINUOUS
 10
-0.2088949779
 20
2.3298324113
 40
3.6250106618
100
AcDbArc
 50
5.8651577272
 51
6.2901254726
  0
ARC
  5
2AE
100
AcDbEntity
  8
ALL_FEATURES
100
AcDbCircle
 62
9
  6
CONTINUOUS
 10
1.9543109369
 20
3.0203108332
 40
1.4175479877
100
AcDbArc
 50
359.5762457491
 51
359.8352372902
  0
ARC
  5
2AF
100
AcDbEntity
  8
0
100
AcDbCircle
 62
9
  6
CONTINUOUS
 10
2.2705702929
 20
2.1996187955
 40
1.1131762234
100
AcDbArc
 50
0.1964479022
 51
0.4833401633
  0
ARC
  5
2B0
100
AcDbEntity
  8
ALL_FEATURES
100
AcDbCircle
 62
9
  6
CONTINUOUS
 10
2.6011654794
 20
3.0170520718
 40
0.7407769056
100
AcDbArc
 50
359.3951644349
 51
359.7493340981
  0
ARC
  5
2B1
100
AcDbEntity
  8
0
100
AcDbCircle
 62
7
  6
CONTINUOUS
 10
5.2235702861
 20
1.2602636476
 40
0.0375
100
AcDbArc
 50
180.0
 51
270.0
  0
ARC
  5
2B2
100
AcDbEntity
  8
0
100
AcDbCircle
 62
7
  6
CONTINUOUS
 10
3.343254635
 20
2.0580870807
 40
0.0299970727
100
AcDbArc
 50
269.9964636742
 51
350.980219457
  0
ARC
  5
2B3
100
AcDbEntity
  8
0
100
AcDbCircle
 62
7
  6
CONTINUOUS
 10
3.1259380683
 20
2.0580863243
 40
0.029996359
100
AcDbArc
 50
189.451931347
 51
270.0042960498
  0
ARC
  5
2B4
100
AcDbEntity
  8
0
100
AcDbCircle
 62
7
  6
CONTINUOUS
 10
5.0580742231
 20
2.094948687
 40
0.0147637795
100
AcDbArc
 50
180.0000000785
 51
270.0
  0
ARC
  5
2B5
100
AcDbEntity
  8
0
100
AcDbCircle
 62
9
  6
CONTINUOUS
 10
3.3608095098
 20
2.0553027198
 40
0.0122225971
100
AcDbArc
 50
348.6015462209
 51
350.9045472899
  0
ARC
  5
2B6
100
AcDbEntity
  8
ALL_FEATURES
100
AcDbCircle
 62
9
  6
CONTINUOUS
 10
5.5757995744
 20
2.3981301121
 40
2.4975470725
100
AcDbArc
 50
172.4334926903
 51
173.0517909684
  0
ARC
  5
2B7
100
AcDbEntity
  8
0
100
AcDbCircle
 62
9
  6
CONTINUOUS
 10
4.3749204886
 20
2.1851436688
 40
1.2906152324
100
AcDbArc
 50
172.21762761
 51
172.6437292527
  0
ARC
  5
2B8
100
AcDbEntity
  8
0
100
AcDbCircle
 62
9
  6
CONTINUOUS
 10
4.3647392445
 20
2.1864510684
 40
1.2803503906
100
AcDbArc
 50
172.6434180344
 51
173.0771208556
  0
ARC
  5
2B9
100
AcDbEntity
  8
0
100
AcDbCircle
 62
9
  6
CONTINUOUS
 10
4.3460651089
 20
2.1886713139
 40
1.2615447901
100
AcDbArc
 50
173.0749955124
 51
174.0044047176
  0
ARC
  5
2BA
100
AcDbEntity
  8
0
100
AcDbCircle
 62
9
  6
CONTINUOUS
 10
4.3251549901
 20
2.1908613081
 40
1.240520302
100
AcDbArc
 50
174.0041234806
 51
174.6065239673
  0
ARC
  5
2BB
100
AcDbEntity
  8
0
100
AcDbCircle
 62
9
  6
CONTINUOUS
 10
4.3020040346
 20
2.1930039249
 40
1.2172704488
100
AcDbArc
 50
174.6045027149
 51
175.4650497497
  0
ARC
  5
2BC
100
AcDbEntity
  8
ALL_FEATURES
100
AcDbCircle
 62
9
  6
CONTINUOUS
 10
3.0352455085
 20
2.6379717436
 40
0.3366164877
100
AcDbArc
 50
0.4171721995
 51
0.9032297777
  0
ARC
  5
2BD
100
AcDbEntity
  8
ALL_FEATURES
100
AcDbCircle
 62
9
  6
CONTINUOUS
 10
3.1647129632
 20
2.6636653969
 40
0.1772329263
100
AcDbArc
 50
0.6264604464
 51
1.2895987837
  0
ARC
  5
2BE
100
AcDbEntity
  8
ALL_FEATURES
100
AcDbCircle
 62
9
  6
CONTINUOUS
 10
3.2408401135
 20
2.3287788827
 40
0.1723513091
100
AcDbArc
 50
144.2638589781
 51
144.8026466986
  0
ARC
  5
2BF
100
AcDbEntity
  8
ALL_FEATURES
100
AcDbCircle
 62
7
  6
CONTINUOUS
 10
3.5499812922
 20
2.4228412946
 40
0.114490126
100
AcDbArc
 50
86.8312547515
 51
93.2218604483
  0
ARC
  5
2C0
100
AcDbEntity
  8
ALL_FEATURES
100
AcDbCircle
 62
9
  6
CONTINUOUS
 10
3.142433273
 20
2.321811562
 40
0.1144653421
100
AcDbArc
 50
111.304650742
 51
111.7583285132
  0
ARC
  5
2C1
100
AcDbEntity
  8
ALL_FEATURES
100
AcDbCircle
 62
7
  6
CONTINUOUS
 10
3.5499760219
 20
2.4408778624
 40
0.0964867887
100
AcDbArc
 50
86.2741325381
 51
93.8206994778
  0
ARC
  5
2C2
100
AcDbEntity
  8
0
100
AcDbCircle
 62
7
  6
CONTINUOUS
 10
3.5433761171
 20
2.4627041927
 40
0.0815681598
100
AcDbArc
 50
114.418615105
 51
117.2452267852
  0
ARC
  5
2C3
100
AcDbEntity
  8
ALL_FEATURES
100
AcDbCircle
 62
7
  6
CONTINUOUS
 10
3.537938971
 20
2.5622378525
 40
0.0812176451
100
AcDbArc
 50
246.3295584045
 51
247.3431175339
  0
ARC
  5
2C4
100
AcDbEntity
  8
0
100
AcDbCircle
 62
7
  6
CONTINUOUS
 10
3.5441209329
 20
2.4634614974
 40
0.0807094274
100
AcDbArc
 50
54.8481457671
 51
62.7605402002
  0
ARC
  5
2C5
100
AcDbEntity
  8
0
100
AcDbCircle
 62
7
  6
CONTINUOUS
 10
3.5424693156
 20
2.4643039693
 40
0.0797307705
100
AcDbArc
 50
117.1921791439
 51
126.0494119019
  0
ARC
  5
2C6
100
AcDbEntity
  8
0
100
AcDbCircle
 62
7
  6
CONTINUOUS
 10
3.5459014263
 20
2.4661110839
 40
0.0775179691
100
AcDbArc
 50
53.8948403294
 51
54.7966251705
  0
ARC
  5
2C7
100
AcDbEntity
  8
ALL_FEATURES
100
AcDbCircle
 62
7
  6
CONTINUOUS
 10
3.5361563821
 20
2.5581893851
 40
0.0767941109
100
AcDbArc
 50
243.7078549617
 51
246.3349747227
  0
ARC
  5
2C8
100
AcDbEntity
  8
0
100
AcDbCircle
 62
7
  6
CONTINUOUS
 10
3.5472763244
 20
2.4679761652
 40
0.0752009171
100
AcDbArc
 50
49.7081157746
 51
53.9038276893
  0
ARC
  5
2C9
100
AcDbEntity
  8
0
100
AcDbCircle
 62
7
  6
CONTINUOUS
 10
3.5396872041
 20
2.4681383446
 40
0.0749934164
100
AcDbArc
 50
126.0548358826
 51
129.5595262679
  0
ARC
  5
2CA
100
AcDbEntity
  8
ALL_FEATURES
100
AcDbCircle
 62
7
  6
CONTINUOUS
 10
3.591099587
 20
2.5082060905
 40
0.0739150637
100
AcDbArc
 50
199.4020060467
 51
200.4021291203
  0
ARC
  5
2CB
100
AcDbEntity
  8
0
100
AcDbCircle
 62
7
  6
CONTINUOUS
 10
3.5505892872
 20
2.4719195637
 40
0.0700506219
100
AcDbArc
 50
45.3467630554
 51
49.689198519
  0
ARC
  5
2CC
100
AcDbEntity
  8
0
100
AcDbCircle
 62
7
  6
CONTINUOUS
 10
3.5550826263
 20
2.4765086664
 40
0.0636280801
100
AcDbArc
 50
40.6475630606
 51
45.3207882307
  0
ARC
  5
2CD
100
AcDbEntity
  8
ALL_FEATURES
100
AcDbCircle
 62
7
  6
CONTINUOUS
 10
3.013296664
 20
2.4077636476
 40
0.05625
100
AcDbArc
 50
0.0
 51
90.0
  0
ARC
  5
2CE
100
AcDbEntity
  8
ALL_FEATURES
100
AcDbCircle
 62
7
  6
CONTINUOUS
 10
3.013296664
 20
2.9927636476
 40
0.05625
100
AcDbArc
 50
270.0
 51
360.0
  0
ARC
  5
2CF
100
AcDbEntity
  8
ALL_FEATURES
100
AcDbCircle
 62
7
  6
CONTINUOUS
 10
3.5341185092
 20
2.492414182
 40
0.0507304307
100
AcDbArc
 50
130.9886099175
 51
135.695643595
  0
ARC
  5
2D0
100
AcDbEntity
  8
ALL_FEATURES
100
AcDbCircle
 62
7
  6
CONTINUOUS
 10
3.5650260859
 20
2.4890109538
 40
0.0391706999
100
AcDbArc
 50
55.1062307953
 51
55.9358790348
  0
ARC
  5
2D1
100
AcDbEntity
  8
ALL_FEATURES
100
AcDbCircle
 62
7
  6
CONTINUOUS
 10
3.5745913656
 20
2.4963849233
 40
0.0333661701
100
AcDbArc
 50
24.6585937071
 51
25.176912898
  0
ARC
  5
2D2
100
AcDbEntity
  8
ALL_FEATURES
100
AcDbCircle
 62
9
  6
CONTINUOUS
 10
3.1452558051
 20
2.6388654787
 40
0.0244508276
100
AcDbArc
 50
170.5363530238
 51
175.124017166
  0
ARC
  5
2D3
100
AcDbEntity
  8
ALL_FEATURES
100
AcDbCircle
 62
7
  6
CONTINUOUS
 10
3.5763399376
 20
2.5015660841
 40
0.022208087
100
AcDbArc
 50
36.0929203449
 51
40.3724706456
  0
ARC
  5
2D4
100
AcDbEntity
  8
ALL_FEATURES
100
AcDbCircle
 62
7
  6
CONTINUOUS
 10
3.5774160224
 20
2.5023584294
 40
0.0208717761
100
AcDbArc
 50
35.0408283774
 51
36.0754974522
  0
ARC
  5
2D5
100
AcDbEntity
  8
ALL_FEATURES
100
AcDbCircle
 62
7
  6
CONTINUOUS
 10
3.440796664
 20
2.4490136476
 40
0.015
100
AcDbArc
 50
90.0
 51
179.9999764566
  0
ARC
  5
2D6
100
AcDbEntity
  8
ALL_FEATURES
100
AcDbCircle
 62
7
  6
CONTINUOUS
 10
3.440796664
 20
2.9515136476
 40
0.015
100
AcDbArc
 50
180.0000235434
 51
270.0
  0
ARC
  5
2D7
100
AcDbEntity
  8
ALL_FEATURES
100
AcDbCircle
 62
7
  6
CONTINUOUS
 10
2.998296664
 20
2.9140136476
 40
0.015
100
AcDbArc
 50
270.0
 51
359.999998729
  0
ARC
  5
2D8
100
AcDbEntity
  8
ALL_FEATURES
100
AcDbCircle
 62
7
  6
CONTINUOUS
 10
2.998296664
 20
2.4865136476
 40
0.015
100
AcDbArc
 50
0.000001271
 51
90.0
  0
ARC
  5
2D9
100
AcDbEntity
  8
ALL_FEATURES
100
AcDbCircle
 62
9
  6
CONTINUOUS
 10
4.5327105581
 20
3.0687830452
 40
1.4128340783
100
AcDbArc
 50
182.1740868435
 51
182.3502486679
  0
ARC
  5
2DA
100
AcDbEntity
  8
ALL_FEATURES
100
AcDbCircle
 62
9
  6
CONTINUOUS
 10
3.8917439947
 20
3.0534500451
 40
0.7420206339
100
AcDbArc
 50
183.0622042752
 51
183.3020747916
  0
ARC
  5
2DB
100
AcDbEntity
  8
0
100
AcDbCircle
 62
7
  6
CONTINUOUS
 10
5.1041890186
 20
3.959638963
 40
0.6396921648
100
AcDbArc
 50
267.9855100187
 51
269.9996067106
  0
ARC
  5
2DC
100
AcDbEntity
  8
ALL_ASSEMBLY_MEMBERS
100
AcDbCircle
 62
7
  6
CONTINUOUS
 10
3.8146404279
 20
5.3308586897
 40
0.0975573781
100
AcDbArc
 50
266.2960974712
 51
271.0714324341
  0
ARC
  5
2DD
100
AcDbEntity
  8
ALL_ASSEMBLY_MEMBERS
100
AcDbCircle
 62
7
  6
CONTINUOUS
 10
3.8145889759
 20
5.3286222137
 40
0.0953223009
100
AcDbArc
 50
266.2456296799
 51
271.1274902739
  0
ARC
  5
2DE
100
AcDbEntity
  8
ALL_ASSEMBLY_MEMBERS
100
AcDbCircle
 62
7
  6
CONTINUOUS
 10
3.8106621319
 20
5.3080101706
 40
0.0789179073
100
AcDbArc
 50
239.0535042613
 51
241.809665556
  0
ARC
  5
2DF
100
AcDbEntity
  8
ALL_ASSEMBLY_MEMBERS
100
AcDbCircle
 62
7
  6
CONTINUOUS
 10
3.8345987564
 20
5.3027907136
 40
0.0728122028
100
AcDbArc
 50
302.0464873478
 51
303.1522472913
  0
ARC
  5
2E0
100
AcDbEntity
  8
ALL_ASSEMBLY_MEMBERS
100
AcDbCircle
 62
7
  6
CONTINUOUS
 10
3.8063456653
 20
5.3009644481
 40
0.0706555137
100
AcDbArc
 50
234.6481916324
 51
239.1174324003
  0
ARC
  5
2E1
100
AcDbEntity
  8
ALL_ASSEMBLY_MEMBERS
100
AcDbCircle
 62
7
  6
CONTINUOUS
 10
3.8364497886
 20
5.2999608721
 40
0.069430736
100
AcDbArc
 50
303.1504492917
 51
305.3584209955
  0
ARC
  5
2E2
100
AcDbEntity
  8
ALL_ASSEMBLY_MEMBERS
100
AcDbCircle
 62
7
  6
CONTINUOUS
 10
3.8295263105
 20
5.2213140612
 40
0.0629311937
100
AcDbArc
 50
54.7981670874
 51
58.8478711268
  0
ARC
  5
2E3
100
AcDbEntity
  8
ALL_ASSEMBLY_MEMBERS
100
AcDbCircle
 62
7
  6
CONTINUOUS
 10
3.290796664
 20
5.3533886476
 40
0.05625
100
AcDbArc
 50
270.0
 51
354.4450090179
  0
ARC
  5
2E4
100
AcDbEntity
  8
ALL_ASSEMBLY_MEMBERS
100
AcDbCircle
 62
7
  6
CONTINUOUS
 10
3.290796664
 20
4.7721386476
 40
0.05625
100
AcDbArc
 50
0.0
 51
90.0
  0
ARC
  5
2E5
100
AcDbEntity
  8
0
100
AcDbCircle
 62
7
  6
CONTINUOUS
 10
5.2235702861
 20
6.5027636476
 40
0.0375
100
AcDbArc
 50
90.0
 51
180.0
  0
ARC
  5
2E6
100
AcDbEntity
  8
ALL_ASSEMBLY_MEMBERS
100
AcDbCircle
 62
7
  6
CONTINUOUS
 10
3.3990438453
 20
4.0615136476
 40
0.03
100
AcDbArc
 50
178.1195765724
 51
270.0
  0
ARC
  5
2E7
100
AcDbEntity
  8
ALL_ASSEMBLY_MEMBERS
100
AcDbCircle
 62
7
  6
CONTINUOUS
 10
3.6363262881
 20
4.0615136476
 40
0.03
100
AcDbArc
 50
270.0
 51
0.3774846694
  0
ARC
  5
2E8
100
AcDbEntity
  8
ALL_ASSEMBLY_MEMBERS
100
AcDbCircle
 62
7
  6
CONTINUOUS
 10
3.6926639506
 20
4.7327639554
 40
0.029999972
100
AcDbArc
 50
89.9997928381
 51
180.198559689
  0
ARC
  5
2E9
100
AcDbEntity
  8
ALL_ASSEMBLY_MEMBERS
100
AcDbCircle
 62
7
  6
CONTINUOUS
 10
3.3602936493
 20
4.7327639825
 40
0.0299999696
100
AcDbArc
 50
358.2978490404
 51
90.0002445469
  0
ARC
  5
2EA
100
AcDbEntity
  8
ALL_ASSEMBLY_MEMBERS
100
AcDbCircle
 62
7
  6
CONTINUOUS
 10
3.7891342653
 20
5.2524473865
 40
0.0183399011
100
AcDbArc
 50
221.2510856457
 51
225.3981302459
  0
ARC
  5
2EB
100
AcDbEntity
  8
ALL_ASSEMBLY_MEMBERS
100
AcDbCircle
 62
7
  6
CONTINUOUS
 10
3.275796664
 20
5.2746386476
 40
0.015
100
AcDbArc
 50
270.0
 51
359.9999999975
  0
ARC
  5
2EC
100
AcDbEntity
  8
ALL_ASSEMBLY_MEMBERS
100
AcDbCircle
 62
7
  6
CONTINUOUS
 10
3.275796664
 20
4.8508886476
 40
0.015
100
AcDbArc
 50
0.0000000032
 51
90.0
  0
ARC
  5
2ED
100
AcDbEntity
  8
ALL_ASSEMBLY_MEMBERS
100
AcDbCircle
 62
7
  6
CONTINUOUS
 10
3.718296664
 20
5.3121386476
 40
0.015
100
AcDbArc
 50
180.0000000055
 51
270.0
  0
ARC
  5
2EE
100
AcDbEntity
  8
ALL_ASSEMBLY_MEMBERS
100
AcDbCircle
 62
7
  6
CONTINUOUS
 10
3.718296664
 20
4.8133886476
 40
0.015
100
AcDbArc
 50
90.0
 51
179.999999998
  0
ARC
  5
2EF
100
AcDbEntity
  8
0
100
AcDbCircle
 62
7
  6
CONTINUOUS
 10
5.0580742231
 20
3.3055786083
 40
0.0147637795
100
AcDbArc
 50
90.0
 51
179.9999999215
  0
ARC
  5
2F0
100
AcDbEntity
  8
0
100
AcDbCircle
 62
7
  6
CONTINUOUS
 10
4.096671664
 20
3.4178423878
 40
0.0075
100
AcDbArc
 50
90.0
 51
180.0
  0
ARC
  5
2F1
100
AcDbEntity
  8
0
100
AcDbCircle
 62
7
  6
CONTINUOUS
 10
4.370421664
 20
3.4178423878
 40
0.0075
100
AcDbArc
 50
0.0
 51
90.0
  0
ARC
  5
2F2
100
AcDbEntity
  8
ALL_FEATURES
100
AcDbCircle
 62
9
  6
CONTINUOUS
 10
13.2811560976
 20
-0.4047567524
 40
10.3710157287
100
AcDbArc
 50
162.4239161616
 51
162.5850377832
  0
SPLINE
  5
2F3
100
AcDbEntity
  8
ALL_FEATURES
100
AcDbSpline
 62
7
  6
CONTINUOUS
 70
0
 71
3
 72
24
 73
20
 74
0
 42
0.0000001
 43
0.0000001
 44
0.0000000001
 40
0.0
 40
0.0
 40
0.0
 40
0.0
 40
0.0254922139
 40
0.0517217692
 40
0.1062804686
 40
0.1634831085
 40
0.2230994687
 40
0.2848420121
 40
0.3483901249
 40
0.4133950168
 40
0.4794847093
 40
0.5462698242
 40
0.6133498572
 40
0.6803224007
 40
0.7467889108
 40
0.8123583922
 40
0.8766527415
 40
0.9393126147
 40
1.0
 40
1.0
 40
1.0
 40
1.0
 10
3.5061912479
 20
2.4896939159
 30
0.0
 10
3.5066663327
 20
2.4894115726
 30
0.0
 10
3.5076419338
 20
2.4888581674
 30
0.0
 10
3.5096876653
 20
2.4877971759
 30
0.0
 10
3.5124160306
 20
2.4865640569
 30
0.0
 10
3.515894805
 20
2.4852532083
 30
0.0
 10
3.5195930363
 20
2.4841023775
 30
0.0
 10
3.5234815323
 20
2.4831207686
 30
0.0
 10
3.5275294888
 20
2.4823161097
 30
0.0
 10
3.5317048009
 20
2.4816947917
 30
0.0
 10
3.5359742893
 20
2.481261799
 30
0.0
 10
3.5403039059
 20
2.4810206188
 30
0.0
 10
3.5446590954
 20
2.4809731059
 30
0.0
 10
3.5490051734
 20
2.4811196376
 30
0.0
 10
3.5533076448
 20
2.4814590116
 30
0.0
 10
3.5575324179
 20
2.4819885025
 30
0.0
 10
3.5616461041
 20
2.4827039126
 30
0.0
 10
3.5656159128
 20
2.4835995192
 30
0.0
 10
3.5681913721
 20
2.4843248788
 30
0.0
 10
3.5694469766
 20
2.4847178232
 30
0.0
  0
LINE
  5
2F4
100
AcDbEntity
  8
ALL_FEATURES
100
AcDbLine
 62
7
  6
CONTINUOUS
 10
3.5694469766
 20
2.4847178232
 11
3.5749559145
 21
2.4867223271
  0
SPLINE
  5
2F5
100
AcDbEntity
  8
ALL_FEATURES
100
AcDbSpline
 62
7
  6
CONTINUOUS
 70
0
 71
3
 72
23
 73
19
 74
0
 42
0.0000001
 43
0.0000001
 44
0.0000000001
 40
0.0
 40
0.0
 40
0.0
 40
0.0
 40
0.0501450134
 40
0.1007781503
 40
0.1522229499
 40
0.2048006866
 40
0.2588174832
 40
0.314545849
 40
0.3722175296
 40
0.4320314861
 40
0.4941479418
 40
0.5586959254
 40
0.6257636006
 40
0.6954090012
 40
0.7676657748
 40
0.8425451488
 40
0.9200195321
 40
1.0
 40
1.0
 40
1.0
 40
1.0
 10
3.4898311824
 20
2.5081759197
 30
0.0
 10
3.4898453905
 20
2.5077422935
 30
0.0
 10
3.4899164337
 20
2.5068716358
 30
0.0
 10
3.4901496985
 20
2.5055734724
 30
0.0
 10
3.4905102577
 20
2.5042828291
 30
0.0
 10
3.4909977287
 20
2.5030033497
 30
0.0
 10
3.4916114543
 20
2.5017382106
 30
0.0
 10
3.4923505171
 20
2.5004906118
 30
0.0
 10
3.4932135909
 20
2.4992636666
 30
0.0
 10
3.4941992767
 20
2.4980606811
 30
0.0
 10
3.4953055923
 20
2.4968846697
 30
0.0
 10
3.4965305017
 20
2.4957389141
 30
0.0
 10
3.4978713751
 20
2.494626436
 30
0.0
 10
3.4993254274
 20
2.4935504157
 30
0.0
 10
3.5008895594
 20
2.4925139063
 30
0.0
 10
3.5025603145
 20
2.4915199263
 30
0.0
 10
3.5043335071
 20
2.4905717097
 30
0.0
 10
3.5055617028
 20
2.4899812029
 30
0.0
 10
3.5061912479
 20
2.4896939159
 30
0.0
  0
SPLINE
  5
2F6
100
AcDbEntity
  8
ALL_FEATURES
100
AcDbSpline
 62
7
  6
CONTINUOUS
 70
0
 71
3
 72
15
 73
11
 74
0
 42
0.0000001
 43
0.0000001
 44
0.0000000001
 40
0.0
 40
0.0
 40
0.0
 40
0.0
 40
0.1152184218
 40
0.2320984106
 40
0.3512685099
 40
0.4733132911
 40
0.5987797778
 40
0.7281421984
 40
0.8617864399
 40
1.0
 40
1.0
 40
1.0
 40
1.0
 10
3.4898311824
 20
2.5081759197
 30
0.0
 10
3.4898862421
 20
2.5086779381
 30
0.0
 10
3.4900459699
 20
2.5096844833
 30
0.0
 10
3.490428339
 20
2.5111780459
 30
0.0
 10
3.490953295
 20
2.5126594581
 30
0.0
 10
3.491619199
 20
2.5141243241
 30
0.0
 10
3.4924233719
 20
2.5155692437
 30
0.0
 10
3.493363389
 20
2.5169909003
 30
0.0
 10
3.4944363892
 20
2.5183859577
 30
0.0
 10
3.495224621
 20
2.5192808982
 30
0.0
 10
3.4956386884
 20
2.5197231291
 30
0.0
  0
SPLINE
  5
2F7
100
AcDbEntity
  8
ALL_FEATURES
100
AcDbSpline
 62
7
  6
CONTINUOUS
 70
0
 71
3
 72
23
 73
19
 74
0
 42
0.0000001
 43
0.0000001
 44
0.0000000001
 40
0.0
 40
0.0
 40
0.0
 40
0.0
 40
0.0483874341
 40
0.0990003637
 40
0.1518696208
 40
0.2069829865
 40
0.2642880318
 40
0.3237023035
 40
0.3851125857
 40
0.4483849068
 40
0.5133623549
 40
0.5798733235
 40
0.647730589
 40
0.7167361436
 40
0.7866827525
 40
0.8573556406
 40
0.928535696
 40
1.0
 40
1.0
 40
1.0
 40
1.0
 10
3.4956386884
 20
2.5197231291
 30
0.0
 10
3.4962127185
 20
2.5203362029
 30
0.0
 10
3.4974405876
 20
2.5215413551
 30
0.0
 10
3.4994563132
 20
2.5232432305
 30
0.0
 10
3.5016772449
 20
2.5248729622
 30
0.0
 10
3.5040927251
 20
2.5264239989
 30
0.0
 10
3.5066914109
 20
2.5278906581
 30
0.0
 10
3.5094614159
 20
2.529267058
 30
0.0
 10
3.5123899192
 20
2.5305484063
 30
0.0
 10
3.5154637951
 20
2.5317295774
 30
0.0
 10
3.5186690943
 20
2.5328067054
 30
0.0
 10
3.5219916497
 20
2.5337756122
 30
0.0
 10
3.5254166869
 20
2.5346333132
 30
0.0
 10
3.5289292547
 20
2.5353767552
 30
0.0
 10
3.5325140363
 20
2.5360037817
 30
0.0
 10
3.5361555946
 20
2.5365125655
 30
0.0
 10
3.5398382922
 20
2.5369017492
 30
0.0
 10
3.5423082077
 20
2.5370809339
 30
0.0
 10
3.5435466629
 20
2.5371505359
 30
0.0
  0
SPLINE
  5
2F8
100
AcDbEntity
  8
ALL_FEATURES
100
AcDbSpline
 62
7
  6
CONTINUOUS
 70
0
 71
3
 72
15
 73
11
 74
0
 42
0.0000001
 43
0.0000001
 44
0.0000000001
 40
0.0
 40
0.0
 40
0.0
 40
0.0
 40
0.1087782219
 40
0.2222628694
 40
0.3404490847
 40
0.4633092516
 40
0.5907958483
 40
0.7228293241
 40
0.8592797809
 40
1.0
 40
1.0
 40
1.0
 40
1.0
 10
3.591567649
 20
2.4925985682
 30
0.0
 10
3.5912137777
 20
2.4923484114
 30
0.0
 10
3.5904778014
 20
2.4918553592
 30
0.0
 10
3.5893177258
 20
2.491151867
 30
0.0
 10
3.5880802514
 20
2.4904701977
 30
0.0
 10
3.586767659
 20
2.4898116378
 30
0.0
 10
3.5853822097
 20
2.489177518
 30
0.0
 10
3.5839264134
 20
2.4885691822
 30
0.0
 10
3.5824031106
 20
2.4879878162
 30
0.0
 10
3.5813601724
 20
2.4876245258
 30
0.0
 10
3.5808282757
 20
2.4874473897
 30
0.0
  0
SPLINE
  5
2F9
100
AcDbEntity
  8
ALL_FEATURES
100
AcDbSpline
 62
7
  6
CONTINUOUS
 70
0
 71
3
 72
13
 73
9
 74
0
 42
0.0000001
 43
0.0000001
 44
0.0000000001
 40
0.0
 40
0.0
 40
0.0
 40
0.0
 40
0.2603186569
 40
0.3884312136
 40
0.51488236
 40
0.6394606658
 40
0.7619695051
 40
1.0
 40
1.0
 40
1.0
 40
1.0
 10
3.5563099462
 20
2.5371563842
 30
0.0
 10
3.5581536909
 20
2.5370537022
 30
0.0
 10
3.5609017404
 20
2.5368324593
 30
0.0
 10
3.5645286007
 20
2.5363990398
 30
0.0
 10
3.5671901781
 20
2.5360103036
 30
0.0
 10
3.569801267
 20
2.5355572915
 30
0.0
 10
3.5731747103
 20
2.5348762662
 30
0.0
 10
3.5756601194
 20
2.5342650816
 30
0.0
 10
3.5772864964
 20
2.5338112939
 30
0.0
  0
LINE
  5
2FA
100
AcDbEntity
  8
ALL_FEATURES
100
AcDbLine
 62
7
  6
CONTINUOUS
 10
3.5772864964
 20
2.5338112939
 11
3.5841900812
 21
2.5315249103
  0
SPLINE
  5
2FB
100
AcDbEntity
  8
ALL_FEATURES
100
AcDbSpline
 62
7
  6
CONTINUOUS
 70
0
 71
3
 72
11
 73
7
 74
0
 42
0.0000001
 43
0.0000001
 44
0.0000000001
 40
0.0
 40
0.0
 40
0.0
 40
0.0
 40
0.2590299428
 40
0.5124045555
 40
0.7595859349
 40
1.0
 40
1.0
 40
1.0
 40
1.0
 10
3.5694505774
 20
2.4847133138
 30
0.0
 10
3.5704466068
 20
2.4848869095
 30
0.0
 10
3.5724118899
 20
2.4852600385
 30
0.0
 10
3.5753061919
 20
2.4859050955
 30
0.0
 10
3.5781073222
 20
2.4866270422
 30
0.0
 10
3.5799332645
 20
2.4871654017
 30
0.0
 10
3.5808282757
 20
2.4874473897
 30
0.0
  0
SPLINE
  5
2FC
100
AcDbEntity
  8
ALL_FEATURES
100
AcDbSpline
 62
7
  6
CONTINUOUS
 70
0
 71
3
 72
12
 73
8
 74
0
 42
0.0000001
 43
0.0000001
 44
0.0000000001
 40
0.0
 40
0.0
 40
0.0
 40
0.0
 40
0.248060758
 40
0.4957883624
 40
0.6203316276
 40
0.7456948244
 40
1.0
 40
1.0
 40
1.0
 40
1.0
 10
3.5974154427
 20
2.503526796
 30
0.0
 10
3.5974888862
 20
2.5040525834
 30
0.0
 10
3.5975747144
 20
2.5051130026
 30
0.0
 10
3.5975250783
 20
2.5064428603
 30
0.0
 10
3.5973921524
 20
2.5075001091
 30
0.0
 10
3.5971956829
 20
2.5085616274
 30
0.0
 10
3.596979115
 20
2.5093471008
 30
0.0
 10
3.5968064171
 20
2.5098632308
 30
0.0
  0
LINE
  5
2FD
100
AcDbEntity
  8
ALL_FEATURES
100
AcDbLine
 62
7
  6
CONTINUOUS
 10
3.5968064171
 20
2.5098632308
 11
3.5957331951
 21
2.5123462044
  0
LINE
  5
2FE
100
AcDbEntity
  8
ALL_FEATURES
100
AcDbLine
 62
7
  6
CONTINUOUS
 10
3.5957331951
 20
2.5123462044
 11
3.5945046453
 21
2.5143421685
  0
LINE
  5
2FF
100
AcDbEntity
  8
ALL_FEATURES
100
AcDbLine
 62
7
  6
CONTINUOUS
 10
3.5932591604
 20
2.5159514596
 11
3.5910546433
 21
2.5182433506
  0
LINE
  5
300
100
AcDbEntity
  8
ALL_FEATURES
100
AcDbLine
 62
7
  6
CONTINUOUS
 10
3.5910546433
 20
2.5182433506
 11
3.5874339465
 21
2.5211393138
  0
SPLINE
  5
301
100
AcDbEntity
  8
ALL_FEATURES
100
AcDbSpline
 62
7
  6
CONTINUOUS
 70
0
 71
3
 72
44
 73
40
 74
0
 42
0.0000001
 43
0.0000001
 44
0.0000000001
 40
0.0
 40
0.0
 40
0.0
 40
0.0
 40
0.0276399194
 40
0.0566626157
 40
0.0870202153
 40
0.1186409494
 40
0.1514360598
 40
0.185299572
 40
0.2201133243
 40
0.255747201
 40
0.2920625739
 40
0.3289131649
 40
0.3661474086
 40
0.4036096979
 40
0.4411423158
 40
0.4785866292
 40
0.5157852122
 40
0.5525826049
 40
0.5888280547
 40
0.6243757331
 40
0.6590881862
 40
0.6928363263
 40
0.7255033393
 40
0.7569851741
 40
0.7871945401
 40
0.8018013724
 40
0.8160663848
 40
0.8435471984
 40
0.8567623735
 40
0.8696261029
 40
0.8943042991
 40
0.9061365465
 40
0.9176409988
 40
0.9397100939
 40
0.9606580741
 40
0.9707742225
 40
0.9806837472
 40
0.9904153165
 40
1.0
 40
1.0
 40
1.0
 40
1.0
 10
3.586966392
 20
2.5214604022
 30
0.0
 10
3.5861422805
 20
2.5220176802
 30
0.0
 10
3.5844097619
 20
2.5230973704
 30
0.0
 10
3.5816470705
 20
2.5245771151
 30
0.0
 10
3.578670822
 20
2.5259490458
 30
0.0
 10
3.5754978946
 20
2.5272057984
 30
0.0
 10
3.5721458288
 20
2.5283401454
 30
0.0
 10
3.5686334213
 20
2.5293459817
 30
0.0
 10
3.5649802776
 20
2.5302175143
 30
0.0
 10
3.5612068717
 20
2.5309499581
 30
0.0
 10
3.5573343512
 20
2.5315391623
 30
0.0
 10
3.5533844295
 20
2.5319817855
 30
0.0
 10
3.5493792835
 20
2.5322754273
 30
0.0
 10
3.5453413841
 20
2.5324182853
 30
0.0
 10
3.5412934108
 20
2.5324097571
 30
0.0
 10
3.5372580894
 20
2.5322496422
 30
0.0
 10
3.5332580704
 20
2.5319391288
 30
0.0
 10
3.529315823
 20
2.5314796504
 30
0.0
 10
3.5254534414
 20
2.5308741237
 30
0.0
 10
3.5216926266
 20
2.530125619
 30
0.0
 10
3.5180544054
 20
2.5292386639
 30
0.0
 10
3.5145592127
 20
2.5282179312
 30
0.0
 10
3.511226507
 20
2.5270693919
 30
0.0
 10
3.5080750494
 20
2.5257992457
 30
0.0
 10
3.50558707
 20
2.5246326883
 30
0.0
 10
3.503704818
 20
2.5236424356
 30
0.0
 10
3.5019403712
 20
2.522641579
 30
0.0
 10
3.5002681611
 20
2.5215810798
 30
0.0
 10
3.4987000367
 20
2.5204590359
 30
0.0
 10
3.4972564291
 20
2.5193388817
 30
0.0
 10
3.4959190255
 20
2.5181645672
 30
0.0
 10
3.4947025054
 20
2.5169362441
 30
0.0
 10
3.4936097494
 20
2.5157202789
 30
0.0
 10
3.4924101316
 20
2.5141622817
 30
0.0
 10
3.4914214795
 20
2.5125192735
 30
0.0
 10
3.4907854818
 20
2.5111876796
 30
0.0
 10
3.490388365
 20
2.5101920573
 30
0.0
 10
3.4900662643
 20
2.509189816
 30
0.0
 10
3.4899008268
 20
2.5085137991
 30
0.0
 10
3.4898311824
 20
2.5081759197
 30
0.0
  0
SPLINE
  5
302
100
AcDbEntity
  8
ALL_FEATURES
100
AcDbSpline
 62
7
  6
CONTINUOUS
 70
0
 71
3
 72
23
 73
19
 74
0
 42
0.0000001
 43
0.0000001
 44
0.0000000001
 40
0.0
 40
0.0
 40
0.0
 40
0.0
 40
0.0540498793
 40
0.1075731549
 40
0.1609889664
 40
0.2147122966
 40
0.2691525677
 40
0.3247004165
 40
0.3817120322
 40
0.4405049657
 40
0.5013531591
 40
0.5644892285
 40
0.6301085924
 40
0.6983716431
 40
0.7694053657
 40
0.8433088519
 40
0.9201571177
 40
1.0
 40
1.0
 40
1.0
 40
1.0
 10
3.5974154427
 20
2.503526796
 30
0.0
 10
3.5974747082
 20
2.5032964281
 30
0.0
 10
3.5975706195
 20
2.5028319075
 30
0.0
 10
3.5976445869
 20
2.502126155
 30
0.0
 10
3.5976479105
 20
2.5014179181
 30
0.0
 10
3.5975808175
 20
2.500708851
 30
0.0
 10
3.5974438181
 20
2.5000004125
 30
0.0
 10
3.5972376756
 20
2.4992939145
 30
0.0
 10
3.5969631123
 20
2.4985905732
 30
0.0
 10
3.5966208675
 20
2.497891593
 30
0.0
 10
3.5962118841
 20
2.4971980701
 30
0.0
 10
3.5957370826
 20
2.4965110846
 30
0.0
 10
3.5951973468
 20
2.4958317394
 30
0.0
 10
3.5945936476
 20
2.4951610901
 30
0.0
 10
3.5939270851
 20
2.4945000871
 30
0.0
 10
3.5931987223
 20
2.4938497094
 30
0.0
 10
3.592409654
 20
2.4932109901
 30
0.0
 10
3.5918545774
 20
2.4928014019
 30
0.0
 10
3.591567649
 20
2.4925985682
 30
0.0
  0
SPLINE
  5
303
100
AcDbEntity
  8
ALL_FEATURES
100
AcDbSpline
 62
7
  6
CONTINUOUS
 70
0
 71
3
 72
23
 73
19
 74
0
 42
0.0000001
 43
0.0000001
 44
0.0000000001
 40
0.0
 40
0.0
 40
0.0
 40
0.0
 40
0.0785054322
 40
0.1550535966
 40
0.2295328822
 40
0.3018664071
 40
0.3719869223
 40
0.4398468797
 40
0.5054194637
 40
0.5686989473
 40
0.6297026341
 40
0.6884724485
 40
0.7450763232
 40
0.7996091643
 40
0.8521952541
 40
0.9029967786
 40
0.952198985
 40
1.0
 40
1.0
 40
1.0
 40
1.0
 10
3.5749559145
 20
2.4867223271
 30
0.0
 10
3.5756773369
 20
2.4869521855
 30
0.0
 10
3.5770946558
 20
2.4874303087
 30
0.0
 10
3.5791661654
 20
2.4882123947
 30
0.0
 10
3.581152237
 20
2.4890481758
 30
0.0
 10
3.5830478898
 20
2.4899349316
 30
0.0
 10
3.5848486221
 20
2.4908699494
 30
0.0
 10
3.5865502224
 20
2.4918504104
 30
0.0
 10
3.5881488406
 20
2.4928734504
 30
0.0
 10
3.5896409669
 20
2.4939361727
 30
0.0
 10
3.591023439
 20
2.4950356278
 30
0.0
 10
3.5922934198
 20
2.4961688509
 30
0.0
 10
3.5934483458
 20
2.4973328837
 30
0.0
 10
3.5944860487
 20
2.4985246616
 30
0.0
 10
3.59540458
 20
2.4997412458
 30
0.0
 10
3.5962023557
 20
2.5009796761
 30
0.0
 10
3.5968778233
 20
2.5022366932
 30
0.0
 10
3.5972508634
 20
2.5030961499
 30
0.0
 10
3.5974154427
 20
2.503526796
 30
0.0
  0
SPLINE
  5
304
100
AcDbEntity
  8
ALL_FEATURES
100
AcDbSpline
 62
7
  6
CONTINUOUS
 70
0
 71
3
 72
15
 73
11
 74
0
 42
0.0000001
 43
0.0000001
 44
0.0000000001
 40
0.0
 40
0.0
 40
0.0
 40
0.0
 40
0.1104517845
 40
0.2246324071
 40
0.3428589659
 40
0.465355081
 40
0.5922730198
 40
0.7236910317
 40
0.8596148213
 40
1.0
 40
1.0
 40
1.0
 40
1.0
 10
3.4969957916
 20
2.5210796329
 30
0.0
 10
3.4972824094
 20
2.5215963079
 30
0.0
 10
3.4979104453
 20
2.5226226239
 30
0.0
 10
3.4989886857
 20
2.52410834
 30
0.0
 10
3.5002144799
 20
2.5255601985
 30
0.0
 10
3.5015832916
 20
2.5269742593
 30
0.0
 10
3.5030907445
 20
2.5283464738
 30
0.0
 10
3.504731833
 20
2.5296730017
 30
0.0
 10
3.5065009451
 20
2.5309503436
 30
0.0
 10
3.5077423591
 20
2.5317538903
 30
0.0
 10
3.5083821515
 20
2.5321471186
 30
0.0
  0
LINE
  5
305
100
AcDbEntity
  8
ALL_FEATURES
100
AcDbLine
 62
7
  6
CONTINUOUS
 10
3.5083821515
 20
2.5321471186
 11
3.5138110247
 21
2.5350567983
  0
SPLINE
  5
306
100
AcDbEntity
  8
ALL_FEATURES
100
AcDbSpline
 62
7
  6
CONTINUOUS
 70
0
 71
3
 72
23
 73
19
 74
0
 42
0.0000001
 43
0.0000001
 44
0.0000000001
 40
0.0
 40
0.0
 40
0.0
 40
0.0
 40
0.05774313
 40
0.1171394749
 40
0.1780123877
 40
0.2401658079
 40
0.3033872996
 40
0.3674503564
 40
0.4321182411
 40
0.4971450555
 40
0.5622799178
 40
0.6272676511
 40
0.6918526798
 40
0.7557802083
 40
0.8187991895
 40
0.880664817
 40
0.9411400215
 40
1.0
 40
1.0
 40
1.0
 40
1.0
 10
3.5138110247
 20
2.5350567983
 30
0.0
 10
3.5147610636
 20
2.5355008876
 30
0.0
 10
3.5167119366
 20
2.5363520562
 30
0.0
 10
3.5197344774
 20
2.5375024799
 30
0.0
 10
3.5228816189
 20
2.5385413085
 30
0.0
 10
3.5261368577
 20
2.539464178
 30
0.0
 10
3.5294831738
 20
2.5402675862
 30
0.0
 10
3.5329030677
 20
2.5409485144
 30
0.0
 10
3.5363786302
 20
2.5415046319
 30
0.0
 10
3.5398916648
 20
2.5419342838
 30
0.0
 10
3.5434237693
 20
2.5422363867
 30
0.0
 10
3.5469564402
 20
2.5424106831
 30
0.0
 10
3.5504711696
 20
2.5424573671
 30
0.0
 10
3.553949549
 20
2.5423775847
 30
0.0
 10
3.5573733486
 20
2.5421728053
 30
0.0
 10
3.5607246745
 20
2.5418455544
 30
0.0
 10
3.5639858897
 20
2.541398546
 30
0.0
 10
3.5661202276
 20
2.5410176522
 30
0.0
 10
3.567168288
 20
2.5408071448
 30
0.0
  0
SPLINE
  5
307
100
AcDbEntity
  8
ALL_ASSEMBLY_MEMBERS
100
AcDbSpline
 62
7
  6
CONTINUOUS
 70
0
 71
3
 72
15
 73
11
 74
0
 42
0.0000001
 43
0.0000001
 44
0.0000000001
 40
0.0
 40
0.0
 40
0.0
 40
0.0
 40
0.1111785909
 40
0.2271587919
 40
0.347574096
 40
0.4720422439
 40
0.6000844108
 40
0.7311635317
 40
0.864685766
 40
1.0
 40
1.0
 40
1.0
 40
1.0
 10
3.7788771317
 20
5.2407542327
 30
0.0
 10
3.7798922554
 20
5.2402550724
 30
0.0
 10
3.7819988834
 20
5.2393003114
 30
0.0
 10
3.7852991958
 20
5.2380250646
 30
0.0
 10
3.7887909632
 20
5.2368844898
 30
0.0
 10
3.7924534851
 20
5.2358871259
 30
0.0
 10
3.7962649589
 20
5.2350407857
 30
0.0
 10
3.8002016424
 20
5.2343526157
 30
0.0
 10
3.804238058
 20
5.2338288871
 30
0.0
 10
3.8069642895
 20
5.2335940792
 30
0.0
 10
3.8083381941
 20
5.2335050875
 30
0.0
  0
SPLINE
  5
308
100
AcDbEntity
  8
ALL_ASSEMBLY_MEMBERS
100
AcDbSpline
 62
7
  6
CONTINUOUS
 70
0
 71
3
 72
37
 73
33
 74
0
 42
0.0000001
 43
0.0000001
 44
0.0000000001
 40
0.0
 40
0.0
 40
0.0
 40
0.0
 40
0.0265002495
 40
0.053957385
 40
0.0823241717
 40
0.1115543826
 40
0.1416029891
 40
0.172419475
 40
0.2039426889
 40
0.2361070295
 40
0.2688430551
 40
0.3020778218
 40
0.3357361801
 40
0.3697392824
 40
0.4040067449
 40
0.4384566793
 40
0.5075639825
 40
0.5764002204
 40
0.6105127489
 40
0.6443106833
 40
0.6777145288
 40
0.7106478615
 40
0.743036126
 40
0.7748090418
 40
0.8059000755
 40
0.8362466883
 40
0.8657930331
 40
0.8944876405
 40
0.9222871998
 40
0.9491557903
 40
0.9750654708
 40
1.0
 40
1.0
 40
1.0
 40
1.0
 10
3.8620813826
 20
5.275170374
 30
0.0
 10
3.8614044837
 20
5.2755660258
 30
0.0
 10
3.860005475
 20
5.276336519
 30
0.0
 10
3.8578190216
 20
5.2774115536
 30
0.0
 10
3.8555139141
 20
5.2784229071
 30
0.0
 10
3.8530980399
 20
5.279367019
 30
0.0
 10
3.8505791567
 20
5.2802410923
 30
0.0
 10
3.8479651358
 20
5.2810422041
 30
0.0
 10
3.845264391
 20
5.281768048
 30
0.0
 10
3.8424856059
 20
5.2824160692
 30
0.0
 10
3.839637766
 20
5.2829841949
 30
0.0
 10
3.836730051
 20
5.2834707237
 30
0.0
 10
3.8337717843
 20
5.2838738703
 30
0.0
 10
3.8307725263
 20
5.28419258
 30
0.0
 10
3.827741897
 20
5.2844256456
 30
0.0
 10
3.8236683882
 20
5.2846214524
 30
0.0
 10
3.8185650383
 20
5.284648671
 30
0.0
 10
3.8134782489
 20
5.2843873068
 30
0.0
 10
3.8094500845
 20
5.2840042424
 30
0.0
 10
3.8064751834
 20
5.2836328781
 30
0.0
 10
3.803547271
 20
5.2831776134
 30
0.0
 10
3.8006757206
 20
5.2826401601
 30
0.0
 10
3.7978698096
 20
5.2820220555
 30
0.0
 10
3.7951385609
 20
5.2813253635
 30
0.0
 10
3.7924907375
 20
5.2805524105
 30
0.0
 10
3.7899349098
 20
5.2797054662
 30
0.0
 10
3.7874792179
 20
5.2787875188
 30
0.0
 10
3.7851316068
 20
5.277801288
 30
0.0
 10
3.782899592
 20
5.2767500269
 30
0.0
 10
3.7807902625
 20
5.2756371435
 30
0.0
 10
3.7788105653
 20
5.2744660167
 30
0.0
 10
3.7775569717
 20
5.2736328867
 30
0.0
 10
3.7769546304
 20
5.2732069493
 30
0.0
  0
SPLINE
  5
309
100
AcDbEntity
  8
ALL_ASSEMBLY_MEMBERS
100
AcDbSpline
 62
7
  6
CONTINUOUS
 70
0
 71
3
 72
23
 73
19
 74
0
 42
0.0000001
 43
0.0000001
 44
0.0000000001
 40
0.0
 40
0.0
 40
0.0
 40
0.0
 40
0.0809938866
 40
0.159110653
 40
0.2342975264
 40
0.306536075
 40
0.3758780443
 40
0.4424102263
 40
0.5062518342
 40
0.567561991
 40
0.6265372561
 40
0.6834201695
 40
0.7385071046
 40
0.7921350847
 40
0.8446806208
 40
0.8965539617
 40
0.9481824244
 40
1.0
 40
1.0
 40
1.0
 40
1.0
 10
3.7788771317
 20
5.2407542327
 30
0.0
 10
3.7782955982
 20
5.2410533302
 30
0.0
 10
3.7771654785
 20
5.2416652536
 30
0.0
 10
3.7755445808
 20
5.2426419079
 30
0.0
 10
3.7740324263
 20
5.243658
 30
0.0
 10
3.7726331578
 20
5.2447107478
 30
0.0
 10
3.7713499205
 20
5.2457970487
 30
0.0
 10
3.7701854562
 20
5.2469141005
 30
0.0
 10
3.7691424104
 20
5.248059172
 30
0.0
 10
3.7682229251
 20
5.2492291446
 30
0.0
 10
3.7674291332
 20
5.2504210476
 30
0.0
 10
3.7667631172
 20
5.2516319371
 30
0.0
 10
3.7662261715
 20
5.2528585129
 30
0.0
 10
3.7658196015
 20
5.2540976178
 30
0.0
 10
3.7655446109
 20
5.2553459552
 30
0.0
 10
3.7654014918
 20
5.2566000439
 30
0.0
 10
3.765390494
 20
5.2578562488
 30
0.0
 10
3.7654709407
 20
5.2586893704
 30
0.0
 10
3.7655323784
 20
5.2591032084
 30
0.0
  0
SPLINE
  5
30A
100
AcDbEntity
  8
ALL_ASSEMBLY_MEMBERS
100
AcDbSpline
 62
7
  6
CONTINUOUS
 70
0
 71
3
 72
17
 73
13
 74
0
 42
0.0000001
 43
0.0000001
 44
0.0000000001
 40
0.0
 40
0.0
 40
0.0
 40
0.0
 40
0.053424443
 40
0.1074442751
 40
0.1622321791
 40
0.2179505432
 40
0.332712126
 40
0.4528171014
 40
0.5790862993
 40
0.7121217962
 40
0.8523459653
 40
1.0
 40
1.0
 40
1.0
 40
1.0
 10
3.7655323784
 20
5.2591032084
 30
0.0
 10
3.765573304
 20
5.2593788789
 30
0.0
 10
3.7656745135
 20
5.2599306632
 30
0.0
 10
3.7658822605
 20
5.2607516514
 30
0.0
 10
3.7661464012
 20
5.2615688949
 30
0.0
 10
3.7665774791
 20
5.2626627899
 30
0.0
 10
3.7672614488
 20
5.2640197831
 30
0.0
 10
3.7682921682
 20
5.2656007258
 30
0.0
 10
3.7695358734
 20
5.2671442428
 30
0.0
 10
3.7709863712
 20
5.2686443986
 30
0.0
 10
3.7726375274
 20
5.2700949483
 30
0.0
 10
3.7738362296
 20
5.2710018947
 30
0.0
 10
3.7744651286
 20
5.2714466027
 30
0.0
  0
SPLINE
  5
30B
100
AcDbEntity
  8
ALL_ASSEMBLY_MEMBERS
100
AcDbSpline
 62
7
  6
CONTINUOUS
 70
0
 71
3
 72
35
 73
31
 74
0
 42
0.0000001
 43
0.0000001
 44
0.0000000001
 40
0.0
 40
0.0
 40
0.0
 40
0.0
 40
0.0779669845
 40
0.1559191713
 40
0.2332778664
 40
0.309502663
 40
0.3470241784
 40
0.3840642494
 40
0.4205612654
 40
0.4564565217
 40
0.4916932705
 40
0.5262188296
 40
0.5599836943
 40
0.5929422442
 40
0.6250543433
 40
0.6562838793
 40
0.6866021232
 40
0.7159862395
 40
0.7444210016
 40
0.7718990011
 40
0.7984217091
 40
0.8240002917
 40
0.8486569306
 40
0.8724257245
 40
0.8953533427
 40
0.9174997642
 40
0.9389404774
 40
0.959767494
 40
0.9800840335
 40
1.0
 40
1.0
 40
1.0
 40
1.0
 10
3.8164646468
 20
5.2333183686
 30
0.0
 10
3.8180581058
 20
5.2332432558
 30
0.0
 10
3.8212489732
 20
5.2331718158
 30
0.0
 10
3.8260220643
 20
5.2332984629
 30
0.0
 10
3.8307476489
 20
5.2336576272
 30
0.0
 10
3.8346284672
 20
5.2341501973
 30
0.0
 10
3.8376716264
 20
5.2346592454
 30
0.0
 10
3.8399021971
 20
5.2350942106
 30
0.0
 10
3.8420874285
 20
5.235583363
 30
0.0
 10
3.8442221146
 20
5.2361254134
 30
0.0
 10
3.8463010977
 20
5.2367191789
 30
0.0
 10
3.8483193927
 20
5.2373631587
 30
0.0
 10
3.8502721471
 20
5.2380557983
 30
0.0
 10
3.8521546299
 20
5.2387955132
 30
0.0
 10
3.8539623544
 20
5.2395803897
 30
0.0
 10
3.8556909334
 20
5.2404086705
 30
0.0
 10
3.8573362654
 20
5.2412782796
 30
0.0
 10
3.8588944118
 20
5.2421872007
 30
0.0
 10
3.8603616741
 20
5.2431332574
 30
0.0
 10
3.8617345579
 20
5.2441142296
 30
0.0
 10
3.8630097922
 20
5.2451278115
 30
0.0
 10
3.8641843319
 20
5.2461716348
 30
0.0
 10
3.8652553583
 20
5.2472432747
 30
0.0
 10
3.8662202672
 20
5.2483402586
 30
0.0
 10
3.8670766812
 20
5.2494600289
 30
0.0
 10
3.8678224856
 20
5.2505999599
 30
0.0
 10
3.8684557165
 20
5.2517574461
 30
0.0
 10
3.8689747379
 20
5.2529298006
 30
0.0
 10
3.8693779361
 20
5.2541139543
 30
0.0
 10
3.8695704502
 20
5.2549157832
 30
0.0
 10
3.8696463446
 20
5.2553161399
 30
0.0
  0
SPLINE
  5
30C
100
AcDbEntity
  8
ALL_ASSEMBLY_MEMBERS
100
AcDbSpline
 62
7
  6
CONTINUOUS
 70
0
 71
3
 72
20
 73
16
 74
0
 42
0.0000001
 43
0.0000001
 44
0.0000000001
 40
0.0
 40
0.0
 40
0.0
 40
0.0
 40
0.1448195684
 40
0.2832698627
 40
0.3501446888
 40
0.415475697
 40
0.5416390403
 40
0.6026416819
 40
0.6623535821
 40
0.7208752891
 40
0.7783186886
 40
0.8348075629
 40
0.8904833966
 40
0.9454965617
 40
1.0
 40
1.0
 40
1.0
 40
1.0
 10
3.8658035293
 20
5.2727368046
 30
0.0
 10
3.8669416855
 20
5.2719319775
 30
0.0
 10
3.8691126686
 20
5.2702774132
 30
0.0
 10
3.8716251691
 20
5.2680247193
 30
0.0
 10
3.8734459897
 20
5.26616025
 30
0.0
 10
3.875100835
 20
5.26430299
 30
0.0
 10
3.8765876606
 20
5.2623742424
 30
0.0
 10
3.877885349
 20
5.2603824064
 30
0.0
 10
3.8787472848
 20
5.258886829
 30
0.0
 10
3.8795076935
 20
5.2573754204
 30
0.0
 10
3.8801658136
 20
5.2558504113
 30
0.0
 10
3.8807208471
 20
5.2543139925
 30
0.0
 10
3.8811724886
 20
5.2527683655
 30
0.0
 10
3.8815204555
 20
5.2512157665
 30
0.0
 10
3.8816838136
 20
5.2501734448
 30
0.0
 10
3.881747957
 20
5.2496527554
 30
0.0
  0
SPLINE
  5
30D
100
AcDbEntity
  8
ALL_ASSEMBLY_MEMBERS
100
AcDbSpline
 62
7
  6
CONTINUOUS
 70
0
 71
3
 72
15
 73
11
 74
0
 42
0.0000001
 43
0.0000001
 44
0.0000000001
 40
0.0
 40
0.0
 40
0.0
 40
0.0
 40
0.1428460791
 40
0.2801610445
 40
0.4120534819
 40
0.538706556
 40
0.6604038481
 40
0.7775162866
 40
0.8905204894
 40
1.0
 40
1.0
 40
1.0
 40
1.0
 10
3.7769546304
 20
5.2732069493
 30
0.0
 10
3.7764034995
 20
5.2728172247
 30
0.0
 10
3.7753425671
 20
5.2720239921
 30
0.0
 10
3.7738529088
 20
5.2707683494
 30
0.0
 10
3.7725005828
 20
5.2694739595
 30
0.0
 10
3.7712898408
 20
5.2681442718
 30
0.0
 10
3.7702240522
 20
5.2667832509
 30
0.0
 10
3.7693065739
 20
5.2653945202
 30
0.0
 10
3.7685404497
 20
5.2639821752
 30
0.0
 10
3.768126234
 20
5.2630138098
 30
0.0
 10
3.7679467835
 20
5.2625285966
 30
0.0
  0
SPLINE
  5
30E
100
AcDbEntity
  8
ALL_ASSEMBLY_MEMBERS
100
AcDbSpline
 62
7
  6
CONTINUOUS
 70
0
 71
3
 72
23
 73
19
 74
0
 42
0.0000001
 43
0.0000001
 44
0.0000000001
 40
0.0
 40
0.0
 40
0.0
 40
0.0
 40
0.0565097141
 40
0.1119270146
 40
0.1666896891
 40
0.2212593468
 40
0.2761044928
 40
0.3316836862
 40
0.3884300726
 40
0.4467367862
 40
0.506952282
 40
0.5693664251
 40
0.6342163126
 40
0.7016927694
 40
0.7719408973
 40
0.84506484
 40
0.9210943887
 40
1.0
 40
1.0
 40
1.0
 40
1.0
 10
3.7679467835
 20
5.2625285966
 30
0.0
 10
3.7677735358
 20
5.2620601552
 30
0.0
 10
3.7674749971
 20
5.2611149915
 30
0.0
 10
3.7671765704
 20
5.2596696707
 30
0.0
 10
3.767033883
 20
5.2582177503
 30
0.0
 10
3.7670478471
 20
5.2567639706
 30
0.0
 10
3.7672179702
 20
5.255312884
 30
0.0
 10
3.7675439018
 20
5.2538690547
 30
0.0
 10
3.7680243571
 20
5.2524369183
 30
0.0
 10
3.7686574355
 20
5.2510206051
 30
0.0
 10
3.7694413455
 20
5.2496243703
 30
0.0
 10
3.7703732158
 20
5.2482519969
 30
0.0
 10
3.771450236
 20
5.2469073128
 30
0.0
 10
3.7726693753
 20
5.2455940952
 30
0.0
 10
3.7740270396
 20
5.2443156657
 30
0.0
 10
3.7755195315
 20
5.2430758053
 30
0.0
 10
3.7771419682
 20
5.2418780866
 30
0.0
 10
3.778285769
 20
5.2411238932
 30
0.0
 10
3.7788771317
 20
5.2407542327
 30
0.0
  0
SPLINE
  5
30F
100
AcDbEntity
  8
ALL_ASSEMBLY_MEMBERS
100
AcDbSpline
 62
7
  6
CONTINUOUS
 70
0
 71
3
 72
51
 73
47
 74
0
 42
0.0000001
 43
0.0000001
 44
0.0000000001
 40
0.0
 40
0.0
 40
0.0
 40
0.0
 40
0.0108658178
 40
0.0218674721
 40
0.0330370762
 40
0.0444044686
 40
0.055998177
 40
0.0678452496
 40
0.0923832431
 40
0.1051206729
 40
0.1181852045
 40
0.1453255071
 40
0.159418745
 40
0.1738608954
 40
0.2037816422
 40
0.235056954
 40
0.2676199658
 40
0.3013751405
 40
0.3362058262
 40
0.3719745524
 40
0.4085291565
 40
0.4457035533
 40
0.4833219726
 40
0.5212005359
 40
0.5591503192
 40
0.5969791679
 40
0.6344946274
 40
0.6715053801
 40
0.7078246007
 40
0.7432712127
 40
0.7776732444
 40
0.7944329876
 40
0.8108726663
 40
0.8427175169
 40
0.8580936434
 40
0.8730853796
 40
0.8876794632
 40
0.9018650196
 40
0.9156331324
 40
0.9289761488
 40
0.9418884345
 40
0.9543677979
 40
0.9664143144
 40
0.9780303622
 40
0.9892221127
 40
1.0
 40
1.0
 40
1.0
 40
1.0
 10
3.8696463446
 20
5.2553161399
 30
0.0
 10
3.8695827932
 20
5.2549363271
 30
0.0
 10
3.869427335
 20
5.2541762959
 30
0.0
 10
3.869112936
 20
5.2530475271
 30
0.0
 10
3.8687167629
 20
5.2519259021
 30
0.0
 10
3.8682394544
 20
5.2508135335
 30
0.0
 10
3.8676817962
 20
5.2497122233
 30
0.0
 10
3.8668228666
 20
5.2482437454
 30
0.0
 10
3.8658131852
 20
5.24682033
 30
0.0
 10
3.8646711748
 20
5.2454489775
 30
0.0
 10
3.863400164
 20
5.2440678003
 30
0.0
 10
3.8619972025
 20
5.2427462213
 30
0.0
 10
3.8604789072
 20
5.2414853881
 30
0.0
 10
3.8588329376
 20
5.2402264225
 30
0.0
 10
3.8566110173
 20
5.2387221068
 30
0.0
 10
3.8537359192
 20
5.2370515627
 30
0.0
 10
3.8506401117
 20
5.235504372
 30
0.0
 10
3.8473447049
 20
5.2340886774
 30
0.0
 10
3.8438716917
 20
5.2328125039
 30
0.0
 10
3.8402445822
 20
5.2316823054
 30
0.0
 10
3.8364877825
 20
5.230704117
 30
0.0
 10
3.8326266876
 20
5.2298826201
 30
0.0
 10
3.8286873945
 20
5.2292215625
 30
0.0
 10
3.8246965228
 20
5.2287237228
 30
0.0
 10
3.820681098
 20
5.2283904516
 30
0.0
 10
3.8166682642
 20
5.2282224819
 30
0.0
 10
3.8126851937
 20
5.2282188044
 30
0.0
 10
3.8087588313
 20
5.2283779677
 30
0.0
 10
3.8049157123
 20
5.2286967564
 30
0.0
 10
3.8011818887
 20
5.2291714489
 30
0.0
 10
3.7981565073
 20
5.2296970524
 30
0.0
 10
3.7958123342
 20
5.2301930627
 30
0.0
 10
3.7935694647
 20
5.2307263073
 30
0.0
 10
3.791394785
 20
5.2313321154
 30
0.0
 10
3.789297498
 20
5.232013217
 30
0.0
 10
3.7877967085
 20
5.2325495169
 30
0.0
 10
3.7863523529
 20
5.2331161962
 30
0.0
 10
3.7849668453
 20
5.2337120464
 30
0.0
 10
3.7836424853
 20
5.234335766
 30
0.0
 10
3.7823815282
 20
5.2349861064
 30
0.0
 10
3.7811861647
 20
5.235661849
 30
0.0
 10
3.7800583482
 20
5.2363615393
 30
0.0
 10
3.7789999508
 20
5.2370837546
 30
0.0
 10
3.7780128129
 20
5.2378271573
 30
0.0
 10
3.7770986721
 20
5.2385902812
 30
0.0
 10
3.7765282807
 20
5.2391209937
 30
0.0
 10
3.7762564216
 20
5.2393893195
 30
0.0
  0
SPLINE
  5
310
100
AcDbEntity
  8
ALL_ASSEMBLY_MEMBERS
100
AcDbSpline
 62
7
  6
CONTINUOUS
 70
0
 71
3
 72
11
 73
7
 74
0
 42
0.0000001
 43
0.0000001
 44
0.0000000001
 40
0.0
 40
0.0
 40
0.0
 40
0.0
 40
0.2662876188
 40
0.5207528537
 40
0.764767231
 40
1.0
 40
1.0
 40
1.0
 40
1.0
 10
3.7753458267
 20
5.2403547882
 30
0.0
 10
3.7750536418
 20
5.2406887933
 30
0.0
 10
3.7745075524
 20
5.2413648027
 30
0.0
 10
3.7737957629
 20
5.2424241158
 30
0.0
 10
3.7732130489
 20
5.2435012619
 30
0.0
 10
3.7729072213
 20
5.2442410287
 30
0.0
 10
3.7727779993
 20
5.244611135
 30
0.0
  0
SPLINE
  5
311
100
AcDbEntity
  8
ALL_ASSEMBLY_MEMBERS
100
AcDbSpline
 62
7
  6
CONTINUOUS
 70
0
 71
3
 72
8
 73
4
 74
0
 42
0.0000001
 43
0.0000001
 44
0.0000000001
 40
0.0
 40
0.0
 40
0.0
 40
0.0
 40
1.0
 40
1.0
 40
1.0
 40
1.0
 10
3.8696463446
 20
5.2553161399
 30
0.0
 10
3.869648643
 20
5.2553211435
 30
0.0
 10
3.8696509415
 20
5.2553261471
 30
0.0
 10
3.86965324
 20
5.2553311507
 30
0.0
  0
SPLINE
  5
312
100
AcDbEntity
  8
ALL_ASSEMBLY_MEMBERS
100
AcDbSpline
 62
7
  6
CONTINUOUS
 70
0
 71
3
 72
23
 73
19
 74
0
 42
0.0000001
 43
0.0000001
 44
0.0000000001
 40
0.0
 40
0.0
 40
0.0
 40
0.0
 40
0.0593003977
 40
0.117157936
 40
0.173985127
 40
0.2302331433
 40
0.2863581665
 40
0.3428123605
 40
0.4000286215
 40
0.4584069292
 40
0.5183046231
 40
0.5800314914
 40
0.6438473726
 40
0.7099590265
 40
0.7785286541
 40
0.8496841632
 40
0.9235042767
 40
1.0
 40
1.0
 40
1.0
 40
1.0
 10
3.86965324
 20
5.2553311507
 30
0.0
 10
3.8698438176
 20
5.2557466311
 30
0.0
 10
3.8701828114
 20
5.2565854261
 30
0.0
 10
3.8705617713
 20
5.2578741316
 30
0.0
 10
3.870803609
 20
5.2591717411
 30
0.0
 10
3.8709083827
 20
5.2604741432
 30
0.0
 10
3.8708766705
 20
5.2617774837
 30
0.0
 10
3.8707095358
 20
5.263077901
 30
0.0
 10
3.8704084899
 20
5.2643717
 30
0.0
 10
3.8699754187
 20
5.2656553637
 30
0.0
 10
3.8694125601
 20
5.2669255833
 30
0.0
 10
3.8687223933
 20
5.2681792355
 30
0.0
 10
3.8679075983
 20
5.2694133117
 30
0.0
 10
3.8669711744
 20
5.2706250134
 30
0.0
 10
3.8659161429
 20
5.2718116111
 30
0.0
 10
3.8647457651
 20
5.2729705506
 30
0.0
 10
3.8634636794
 20
5.2740990984
 30
0.0
 10
3.8625533051
 20
5.2748168544
 30
0.0
 10
3.8620813826
 20
5.275170374
 30
0.0
  0
LINE
  5
313
100
AcDbEntity
  8
0
100
AcDbLine
 62
7
  6
CONTINUOUS
 10
5.0816987726
 20
3.3203422915
 11
5.0837608332
 21
3.3202730816
  0
SPLINE
  5
314
100
AcDbEntity
  8
ALL_ASSEMBLY_MEMBERS
100
AcDbSpline
 62
7
  6
CONTINUOUS
 70
0
 71
3
 72
12
 73
8
 74
0
 42
0.0000001
 43
0.0000001
 44
0.0000000001
 40
0.0
 40
0.0
 40
0.0
 40
0.0
 40
0.2568701286
 40
0.5113676093
 40
0.6366582066
 40
0.760121636
 40
1.0
 40
1.0
 40
1.0
 40
1.0
 10
3.821046664
 20
5.2269860037
 30
0.0
 10
3.8248066217
 20
5.2269860037
 30
0.0
 10
3.8322970392
 20
5.2273801492
 30
0.0
 10
3.8415204263
 20
5.2288309151
 30
0.0
 10
3.8486857149
 20
5.2305548893
 30
0.0
 10
3.8555431025
 20
5.2325954049
 30
0.0
 10
3.860516148
 20
5.2345209698
 30
0.0
 10
3.8637110048
 20
5.2359775725
 30
0.0
  0
SPLINE
  5
315
100
AcDbEntity
  8
ALL_ASSEMBLY_MEMBERS
100
AcDbSpline
 62
7
  6
CONTINUOUS
 70
0
 71
3
 72
9
 73
5
 74
0
 42
0.0000001
 43
0.0000001
 44
0.0000000001
 40
0.0
 40
0.0
 40
0.0
 40
0.0
 40
0.5086687583
 40
1.0
 40
1.0
 40
1.0
 40
1.0
 10
3.8637110048
 20
5.2359775725
 30
0.0
 10
3.8653781641
 20
5.2367376657
 30
0.0
 10
3.8686109524
 20
5.2383323708
 30
0.0
 10
3.871733338
 20
5.2401346803
 30
0.0
 10
3.8732334325
 20
5.2410737899
 30
0.0
  0
SPLINE
  5
316
100
AcDbEntity
  8
ALL_ASSEMBLY_MEMBERS
100
AcDbSpline
 62
7
  6
CONTINUOUS
 70
0
 71
3
 72
9
 73
5
 74
0
 42
0.0000001
 43
0.0000001
 44
0.0000000001
 40
0.0
 40
0.0
 40
0.0
 40
0.0
 40
0.4945995525
 40
1.0
 40
1.0
 40
1.0
 40
1.0
 10
3.8847291481
 20
5.259184704
 30
0.0
 10
3.884729121
 20
5.2582783821
 30
0.0
 10
3.8845713287
 20
5.2564426876
 30
0.0
 10
3.8841084191
 20
5.2546602705
 30
0.0
 10
3.883806684
 20
5.2537846891
 30
0.0
  0
SPLINE
  5
317
100
AcDbEntity
  8
ALL_ASSEMBLY_MEMBERS
100
AcDbSpline
 62
7
  6
CONTINUOUS
 70
0
 71
3
 72
9
 73
5
 74
0
 42
0.0000001
 43
0.0000001
 44
0.0000000001
 40
0.0
 40
0.0
 40
0.0
 40
0.0
 40
0.4864677193
 40
1.0
 40
1.0
 40
1.0
 40
1.0
 10
3.883806684
 20
5.2537846891
 30
0.0
 10
3.8834799148
 20
5.2528364629
 30
0.0
 10
3.8826430153
 20
5.2509416465
 30
0.0
 10
3.8815378118
 20
5.2491927181
 30
0.0
 10
3.8809167856
 20
5.2483352343
 30
0.0
  0
LINE
  5
318
100
AcDbEntity
  8
ALL_ASSEMBLY_MEMBERS
100
AcDbLine
 62
7
  6
CONTINUOUS
 10
3.8809167856
 20
5.2483352343
 11
3.8787370614
 21
5.2457006504
  0
SPLINE
  5
319
100
AcDbEntity
  8
ALL_ASSEMBLY_MEMBERS
100
AcDbSpline
 62
7
  6
CONTINUOUS
 70
0
 71
3
 72
15
 73
11
 74
0
 42
0.0000001
 43
0.0000001
 44
0.0000000001
 40
0.0
 40
0.0
 40
0.0
 40
0.0
 40
0.1165485989
 40
0.2366142112
 40
0.3595595973
 40
0.4848868992
 40
0.6121274442
 40
0.7407929847
 40
0.8702903632
 40
1.0
 40
1.0
 40
1.0
 40
1.0
 10
3.7733811479
 20
5.2384532564
 30
0.0
 10
3.7750757924
 20
5.2375439688
 30
0.0
 10
3.7785815646
 20
5.2358174841
 30
0.0
 10
3.7840664553
 20
5.2335452725
 30
0.0
 10
3.7898204135
 20
5.2315750115
 30
0.0
 10
3.7957978279
 20
5.2299280967
 30
0.0
 10
3.8019560249
 20
5.2286248206
 30
0.0
 10
3.808249648
 20
5.2276849087
 30
0.0
 10
3.8146280459
 20
5.2271147204
 30
0.0
 10
3.8189063117
 20
5.2269860037
 30
0.0
 10
3.821046664
 20
5.2269860037
 30
0.0
  0
LINE
  5
31A
100
AcDbEntity
  8
ALL_ASSEMBLY_MEMBERS
100
AcDbLine
 62
7
  6
CONTINUOUS
 10
3.7700792468
 20
5.2403388642
 11
3.7684424887
 21
5.2419442704
  0
LINE
  5
31B
100
AcDbEntity
  8
ALL_ASSEMBLY_MEMBERS
100
AcDbLine
 62
7
  6
CONTINUOUS
 10
3.7684424887
 20
5.2419442704
 11
3.7665990895
 21
5.2441945699
  0
SPLINE
  5
31C
100
AcDbEntity
  8
ALL_ASSEMBLY_MEMBERS
100
AcDbSpline
 62
7
  6
CONTINUOUS
 70
0
 71
3
 72
9
 73
5
 74
0
 42
0.0000001
 43
0.0000001
 44
0.0000000001
 40
0.0
 40
0.0
 40
0.0
 40
0.0
 40
0.5147358399
 40
1.0
 40
1.0
 40
1.0
 40
1.0
 10
3.7665990895
 20
5.2441945699
 30
0.0
 10
3.7660833228
 20
5.2449212435
 30
0.0
 10
3.7651755513
 20
5.2464038147
 30
0.0
 10
3.7645194207
 20
5.2480164753
 30
0.0
 10
3.7642753779
 20
5.2488203321
 30
0.0
  0
SPLINE
  5
31D
100
AcDbEntity
  8
ALL_ASSEMBLY_MEMBERS
100
AcDbSpline
 62
7
  6
CONTINUOUS
 70
0
 71
3
 72
11
 73
7
 74
0
 42
0.0000001
 43
0.0000001
 44
0.0000000001
 40
0.0
 40
0.0
 40
0.0
 40
0.0
 40
0.2474887268
 40
0.4912852719
 40
0.739577672
 40
1.0
 40
1.0
 40
1.0
 40
1.0
 10
3.7642753779
 20
5.2488203321
 30
0.0
 10
3.7640204285
 20
5.2496601141
 30
0.0
 10
3.7636735766
 20
5.2513817841
 30
0.0
 10
3.7637053112
 20
5.254023553
 30
0.0
 10
3.764301551
 20
5.256643451
 30
0.0
 10
3.7650427188
 20
5.2583013452
 30
0.0
 10
3.765489526
 20
5.2591095554
 30
0.0
  0
SPLINE
  5
31E
100
AcDbEntity
  8
ALL_ASSEMBLY_MEMBERS
100
AcDbSpline
 62
7
  6
CONTINUOUS
 70
0
 71
3
 72
9
 73
5
 74
0
 42
0.0000001
 43
0.0000001
 44
0.0000000001
 40
0.0
 40
0.0
 40
0.0
 40
0.0
 40
0.2414566059
 40
1.0
 40
1.0
 40
1.0
 40
1.0
 10
3.8787370614
 20
5.2457006504
 30
0.0
 10
3.8784141964
 20
5.2453635662
 30
0.0
 10
3.8770486674
 20
5.2439947977
 30
0.0
 10
3.8755770845
 20
5.2427333403
 30
0.0
 10
3.8744193146
 20
5.2418334788
 30
0.0
  0
SPLINE
  5
31F
100
AcDbEntity
  8
ALL_ASSEMBLY_MEMBERS
100
AcDbSpline
 62
9
  6
CONTINUOUS
 70
0
 71
3
 72
20
 73
16
 74
0
 42
0.0000001
 43
0.0000001
 44
0.0000000001
 40
0.0
 40
0.0
 40
0.0
 40
0.0
 40
0.0062218054
 40
0.0144726458
 40
0.0370287881
 40
0.0675363758
 40
0.1057957039
 40
0.15147859
 40
0.2041994597
 40
0.2635628683
 40
0.3290697244
 40
0.4761951934
 40
0.6407565884
 40
0.8174795241
 40
1.0
 40
1.0
 40
1.0
 40
1.0
 10
3.3776641295
 20
4.062446668
 30
0.0
 10
3.3777235265
 20
4.0624639606
 30
0.0
 10
3.3778642623
 20
4.0624950772
 30
0.0
 10
3.3782277959
 20
4.0625536181
 30
0.0
 10
3.378834681
 20
4.0626157213
 30
0.0
 10
3.3797405027
 20
4.0626787083
 30
0.0
 10
3.3808773019
 20
4.0627324919
 30
0.0
 10
3.3822354231
 20
4.0627770016
 30
0.0
 10
3.3838037446
 20
4.0628113973
 30
0.0
 10
3.3855693767
 20
4.0628352554
 30
0.0
 10
3.3882737709
 20
4.0628533506
 30
0.0
 10
3.3920242481
 20
4.0628457906
 30
0.0
 10
3.3968802529
 20
4.0627946016
 30
0.0
 10
3.4020876304
 20
4.0627020183
 30
0.0
 10
3.4056585447
 20
4.0626153985
 30
0.0
 10
3.4074726526
 20
4.0625656318
 30
0.0
  0
SPLINE
  5
320
100
AcDbEntity
  8
ALL_ASSEMBLY_MEMBERS
100
AcDbSpline
 62
9
  6
CONTINUOUS
 70
0
 71
3
 72
20
 73
16
 74
0
 42
0.0000001
 43
0.0000001
 44
0.0000000001
 40
0.0
 40
0.0
 40
0.0
 40
0.0
 40
0.1824734743
 40
0.3591748726
 40
0.5237337209
 40
0.6708694975
 40
0.7363844543
 40
0.7957569427
 40
0.8484872165
 40
0.8941792855
 40
0.9324470367
 40
0.962961816
 40
0.9855235935
 40
0.9937765696
 40
1.0
 40
1.0
 40
1.0
 40
1.0
 10
3.6278961921
 20
4.0625656318
 30
0.0
 10
3.6297121798
 20
4.0625678525
 30
0.0
 10
3.6332867354
 20
4.0625608666
 30
0.0
 10
3.6384988255
 20
4.0625169101
 30
0.0
 10
3.6433588252
 20
4.0624407332
 30
0.0
 10
3.6471118124
 20
4.0623498921
 30
0.0
 10
3.6498175583
 20
4.0622608205
 30
0.0
 10
3.6515838427
 20
4.0621906121
 30
0.0
 10
3.6531524375
 20
4.0621150347
 30
0.0
 10
3.6545104393
 20
4.0620348511
 30
0.0
 10
3.6556467264
 20
4.0619511947
 30
0.0
 10
3.6565516267
 20
4.0618643899
 30
0.0
 10
3.6571573794
 20
4.0617863159
 30
0.0
 10
3.6575196795
 20
4.0617181951
 30
0.0
 10
3.6576597173
 20
4.0616833646
 30
0.0
 10
3.6577187112
 20
4.061664502
 30
0.0
  0
SPLINE
  5
321
100
AcDbEntity
  8
ALL_ASSEMBLY_MEMBERS
100
AcDbSpline
 62
9
  6
CONTINUOUS
 70
0
 71
3
 72
36
 73
32
 74
0
 42
0.0000001
 43
0.0000001
 44
0.0000000001
 40
0.0
 40
0.0
 40
0.0
 40
0.0
 40
0.0000647401
 40
0.0002565268
 40
0.0005753196
 40
0.0010210763
 40
0.0015937548
 40
0.0022933128
 40
0.0040728977
 40
0.0063594924
 40
0.0091527584
 40
0.0124523568
 40
0.0162579492
 40
0.020569197
 40
0.0253857615
 40
0.0365334871
 40
0.0496981258
 40
0.0648729789
 40
0.0820488148
 40
0.1012163578
 40
0.1223663378
 40
0.145489491
 40
0.1976163339
 40
0.2574959238
 40
0.3250101564
 40
0.4000404609
 40
0.4824576124
 40
0.5721201475
 40
0.6688861787
 40
0.7725929196
 40
1.0
 40
1.0
 40
1.0
 40
1.0
 10
3.6926640591
 20
4.7627636476
 30
0.0
 10
3.6926632525
 20
4.7627645341
 30
0.0
 10
3.6926634391
 20
4.762769831
 30
0.0
 10
3.6926598687
 20
4.7627795724
 30
0.0
 10
3.6926566363
 20
4.7627972023
 30
0.0
 10
3.6926508737
 20
4.7628211859
 30
0.0
 10
3.6926439863
 20
4.7628522705
 30
0.0
 10
3.6926315043
 20
4.762907352
 30
0.0
 10
3.6926121656
 20
4.7629934399
 30
0.0
 10
3.6925843002
 20
4.7631173205
 30
0.0
 10
3.6925503243
 20
4.7632686746
 30
0.0
 10
3.692510221
 20
4.7634474699
 30
0.0
 10
3.6924640136
 20
4.7636536957
 30
0.0
 10
3.6924117115
 20
4.7638873336
 30
0.0
 10
3.6923297873
 20
4.7642536205
 30
0.0
 10
3.6922122428
 20
4.764779882
 30
0.0
 10
3.6920531355
 20
4.7654933355
 30
0.0
 10
3.6918701206
 20
4.7663157897
 30
0.0
 10
3.6916635347
 20
4.7672468413
 30
0.0
 10
3.6914337111
 20
4.7682860371
 30
0.0
 10
3.691180987
 20
4.7694329237
 30
0.0
 10
3.6907983893
 20
4.7711759649
 30
0.0
 10
3.6902652697
 20
4.7736199889
 30
0.0
 10
3.689563577
 20
4.7768683178
 30
0.0
 10
3.6887809804
 20
4.7805329246
 30
0.0
 10
3.6879216596
 20
4.7846077521
 30
0.0
 10
3.6869903412
 20
4.7890864026
 30
0.0
 10
3.6859923394
 20
4.7939621383
 30
0.0
 10
3.684932955
 20
4.7992275623
 30
0.0
 10
3.6833984314
 20
4.8069983351
 30
0.0
 10
3.6822469259
 20
4.8130188085
 30
0.0
 10
3.6814731247
 20
4.8171567946
 30
0.0
  0
LINE
  5
322
100
AcDbEntity
  8
ALL_ASSEMBLY_MEMBERS
100
AcDbLine
 62
9
  6
CONTINUOUS
 10
3.6626641751
 20
4.7326599901
 11
3.6570677771
 21
4.7617652127
  0
SPLINE
  5
323
100
AcDbEntity
  8
ALL_ASSEMBLY_MEMBERS
100
AcDbSpline
 62
7
  6
CONTINUOUS
 70
0
 71
3
 72
18
 73
14
 74
0
 42
0.0000001
 43
0.0000001
 44
0.0000000001
 40
0.0
 40
0.0
 40
0.0
 40
0.0
 40
0.1564070259
 40
0.3051974435
 40
0.4446630104
 40
0.5740412284
 40
0.693188129
 40
0.7491232535
 40
0.8027828182
 40
0.8543773851
 40
0.9042017863
 40
0.9526081963
 40
1.0
 40
1.0
 40
1.0
 40
1.0
 10
3.8480437977
 20
5.2880231138
 30
0.0
 10
3.8505237822
 20
5.2873038008
 30
0.0
 10
3.8553121705
 20
5.2857152702
 30
0.0
 10
3.8620691115
 20
5.2828211194
 30
0.0
 10
3.8681255318
 20
5.2794993268
 30
0.0
 10
3.8733761111
 20
5.2758046046
 30
0.0
 10
3.8770831491
 20
5.2723806059
 30
0.0
 10
3.8795318757
 20
5.2695005893
 30
0.0
 10
3.8810764735
 20
5.2673290318
 30
0.0
 10
3.882358746
 20
5.265108306
 30
0.0
 10
3.8833738335
 20
5.2628475893
 30
0.0
 10
3.8841172381
 20
5.260556315
 30
0.0
 10
3.8844311848
 20
5.2590018497
 30
0.0
 10
3.8845398601
 20
5.2582270208
 30
0.0
  0
LINE
  5
324
100
AcDbEntity
  8
ALL_ASSEMBLY_MEMBERS
100
AcDbLine
 62
7
  6
CONTINUOUS
 10
3.8766286257
 20
5.2433367771
 11
3.8808652264
 21
5.2466257877
  0
LINE
  5
325
100
AcDbEntity
  8
ALL_ASSEMBLY_MEMBERS
100
AcDbLine
 62
7
  6
CONTINUOUS
 10
3.8808652264
 20
5.2466257877
 11
3.883944533
 21
5.2494696062
  0
SPLINE
  5
326
100
AcDbEntity
  8
ALL_ASSEMBLY_MEMBERS
100
AcDbSpline
 62
7
  6
CONTINUOUS
 70
0
 71
3
 72
9
 73
5
 74
0
 42
0.0000001
 43
0.0000001
 44
0.0000000001
 40
0.0
 40
0.0
 40
0.0
 40
0.0
 40
0.5162848163
 40
1.0
 40
1.0
 40
1.0
 40
1.0
 10
3.883944533
 20
5.2494696062
 30
0.0
 10
3.8848354935
 20
5.2503659545
 30
0.0
 10
3.8864910423
 20
5.2521738952
 30
0.0
 10
3.8879660772
 20
5.2541340249
 30
0.0
 10
3.8886217692
 20
5.2551200023
 30
0.0
  0
SPLINE
  5
327
100
AcDbEntity
  8
ALL_ASSEMBLY_MEMBERS
100
AcDbSpline
 62
7
  6
CONTINUOUS
 70
0
 71
3
 72
30
 73
26
 74
0
 42
0.0000001
 43
0.0000001
 44
0.0000000001
 40
0.0
 40
0.0
 40
0.0
 40
0.0
 40
0.0519065708
 40
0.075865564
 40
0.0986602449
 40
0.1205003343
 40
0.1416641761
 40
0.1625062942
 40
0.1833957878
 40
0.2046834181
 40
0.2266890618
 40
0.2496828195
 40
0.2738596883
 40
0.3261749053
 40
0.3544714016
 40
0.3841950738
 40
0.4477669543
 40
0.5164841598
 40
0.5526046974
 40
0.5897859458
 40
0.6669714439
 40
0.747366181
 40
0.8302572534
 40
0.9147932049
 40
1.0
 40
1.0
 40
1.0
 40
1.0
 10
3.8886217692
 20
5.2551200023
 30
0.0
 10
3.8895041177
 20
5.2564468076
 30
0.0
 10
3.8906478313
 20
5.2584973912
 30
0.0
 10
3.891674621
 20
5.2613524209
 30
0.0
 10
3.8921490986
 20
5.2634097047
 30
0.0
 10
3.8923411532
 20
5.2654269108
 30
0.0
 10
3.892242253
 20
5.2673916146
 30
0.0
 10
3.8918553165
 20
5.2692906846
 30
0.0
 10
3.8911869915
 20
5.2711136887
 30
0.0
 10
3.8902440472
 20
5.2728512402
 30
0.0
 10
3.8890342174
 20
5.2744945065
 30
0.0
 10
3.8875730313
 20
5.2760418482
 30
0.0
 10
3.8852472752
 20
5.2780284092
 30
0.0
 10
3.8825140867
 20
5.279757124
 30
0.0
 10
3.8794824828
 20
5.2812693187
 30
0.0
 10
3.8760463479
 20
5.2827328906
 30
0.0
 10
3.8713244372
 20
5.2843179531
 30
0.0
 10
3.8663068781
 20
5.2855790558
 30
0.0
 10
3.8620351801
 20
5.2864524639
 30
0.0
 10
3.8574854071
 20
5.2872555082
 30
0.0
 10
3.8515619672
 20
5.2880818329
 30
0.0
 10
3.8442151983
 20
5.2888158791
 30
0.0
 10
3.8366235999
 20
5.2893259446
 30
0.0
 10
3.8288732746
 20
5.2896267116
 30
0.0
 10
3.8236623106
 20
5.2896919303
 30
0.0
 10
3.821046664
 20
5.2896919303
 30
0.0
  0
SPLINE
  5
328
100
AcDbEntity
  8
ALL_ASSEMBLY_MEMBERS
100
AcDbSpline
 62
7
  6
CONTINUOUS
 70
0
 71
3
 72
18
 73
14
 74
0
 42
0.0000001
 43
0.0000001
 44
0.0000000001
 40
0.0
 40
0.0
 40
0.0
 40
0.0
 40
0.163728737
 40
0.3177773084
 40
0.4600981165
 40
0.5898186976
 40
0.6499458886
 40
0.7069889177
 40
0.8123885409
 40
0.8615037379
 40
0.9087656016
 40
0.9547204483
 40
1.0
 40
1.0
 40
1.0
 40
1.0
 10
3.8480437977
 20
5.2880231138
 30
0.0
 10
3.8506937671
 20
5.2874029204
 30
0.0
 10
3.8557919931
 20
5.2859928165
 30
0.0
 10
3.8629617286
 20
5.2832973268
 30
0.0
 10
3.8693078087
 20
5.280120419
 30
0.0
 10
3.8739205301
 20
5.2770508882
 30
0.0
 10
3.8770541724
 20
5.2743935376
 30
0.0
 10
3.8796675987
 20
5.2717715618
 30
0.0
 10
3.8818061769
 20
5.2689412601
 30
0.0
 10
3.8833306212
 20
5.2659455937
 30
0.0
 10
3.884135407
 20
5.2637134904
 30
0.0
 10
3.8846210962
 20
5.2614560779
 30
0.0
 10
3.8847291706
 20
5.2599373621
 30
0.0
 10
3.8847291481
 20
5.259184704
 30
0.0
  0
SPLINE
  5
329
100
AcDbEntity
  8
ALL_ASSEMBLY_MEMBERS
100
AcDbSpline
 62
7
  6
CONTINUOUS
 70
0
 71
3
 72
19
 73
15
 74
0
 42
0.0000001
 43
0.0000001
 44
0.0000000001
 40
0.0
 40
0.0
 40
0.0
 40
0.0
 40
0.0539986815
 40
0.1074471319
 40
0.1608715237
 40
0.2147777867
 40
0.2696219608
 40
0.3258020165
 40
0.3836493367
 40
0.4434146512
 40
0.5692559623
 40
0.7041973963
 40
0.8481540772
 40
1.0
 40
1.0
 40
1.0
 40
1.0
 10
3.8749183232
 20
5.2513198601
 30
0.0
 10
3.8751071733
 20
5.25218366
 30
0.0
 10
3.8753837948
 20
5.2539260349
 30
0.0
 10
3.8754853539
 20
5.256564269
 30
0.0
 10
3.8752720209
 20
5.2591945357
 30
0.0
 10
3.8747500911
 20
5.2618041339
 30
0.0
 10
3.8739269984
 20
5.2643819387
 30
0.0
 10
3.8728094418
 20
5.2669165427
 30
0.0
 10
3.8714073626
 20
5.2693979476
 30
0.0
 10
3.8691363871
 20
5.2726799432
 30
0.0
 10
3.8656084615
 20
5.2765977431
 30
0.0
 10
3.8605160192
 20
5.2808660629
 30
0.0
 10
3.8546025865
 20
5.2847354395
 30
0.0
 10
3.8502974356
 20
5.2869727206
 30
0.0
 10
3.8480437977
 20
5.2880231138
 30
0.0
  0
LINE
  5
32A
100
AcDbEntity
  8
ALL_ASSEMBLY_MEMBERS
100
AcDbLine
 62
9
  6
CONTINUOUS
 10
3.3966458782
 20
4.7610051592
 11
3.3902803544
 21
4.7318728712
  0
SPLINE
  5
32B
100
AcDbEntity
  8
ALL_ASSEMBLY_MEMBERS
100
AcDbSpline
 62
9
  6
CONTINUOUS
 70
0
 71
3
 72
36
 73
32
 74
0
 42
0.0000001
 43
0.0000001
 44
0.0000000001
 40
0.0
 40
0.0
 40
0.0
 40
0.0
 40
0.2270576403
 40
0.3306888482
 40
0.4274384809
 40
0.5171047793
 40
0.5995375808
 40
0.6746014623
 40
0.7421606487
 40
0.8020842298
 40
0.8542665135
 40
0.8774240343
 40
0.8986094482
 40
0.9178104765
 40
0.9350148325
 40
0.9502112598
 40
0.9633941469
 40
0.9745597952
 40
0.9793849993
 40
0.9837045068
 40
0.9875178554
 40
0.9908245827
 40
0.9936242262
 40
0.9959163233
 40
0.9977004114
 40
0.9984018076
 40
0.9989760281
 40
0.9994230151
 40
0.9997427108
 40
0.9999350578
 40
1.0
 40
1.0
 40
1.0
 40
1.0
 10
3.3730545315
 20
4.8171567946
 30
0.0
 10
3.3721622763
 20
4.8130232055
 30
0.0
 10
3.370838397
 20
4.8070082324
 30
0.0
 10
3.3690812345
 20
4.799243824
 30
0.0
 10
3.3678700442
 20
4.7939794186
 30
0.0
 10
3.3667313556
 20
4.7891034841
 30
0.0
 10
3.3656706909
 20
4.7846241015
 30
0.0
 10
3.3646932597
 20
4.7805481443
 30
0.0
 10
3.363804155
 20
4.7768821246
 30
0.0
 10
3.3630084301
 20
4.773631975
 30
0.0
 10
3.3624044651
 20
4.7711862567
 30
0.0
 10
3.3619710245
 20
4.7694415761
 30
0.0
 10
3.3616847386
 20
4.7682932626
 30
0.0
 10
3.3614245143
 20
4.7672527194
 30
0.0
 10
3.3611907804
 20
4.7663205274
 30
0.0
 10
3.3609839563
 20
4.7654971415
 30
0.0
 10
3.3608042413
 20
4.7647829068
 30
0.0
 10
3.360671438
 20
4.7642560459
 30
0.0
 10
3.3605788571
 20
4.763889284
 30
0.0
 10
3.3605197374
 20
4.7636553025
 30
0.0
 10
3.3604674984
 20
4.7634487514
 30
0.0
 10
3.3604221536
 20
4.7632696553
 30
0.0
 10
3.3603837302
 20
4.7631180306
 30
0.0
 10
3.360352216
 20
4.7629939164
 30
0.0
 10
3.3603303365
 20
4.7629076577
 30
0.0
 10
3.360316225
 20
4.7628524652
 30
0.0
 10
3.3603084179
 20
4.7628213105
 30
0.0
 10
3.3603019409
 20
4.7627972841
 30
0.0
 10
3.3602981913
 20
4.7627795932
 30
0.0
 10
3.360294319
 20
4.7627698679
 30
0.0
 10
3.36029436
 20
4.762764519
 30
0.0
 10
3.3602935212
 20
4.7627636476
 30
0.0
  0
SPLINE
  5
32C
100
AcDbEntity
  8
ALL_ASSEMBLY_MEMBERS
100
AcDbSpline
 62
7
  6
CONTINUOUS
 70
0
 71
3
 72
35
 73
31
 74
0
 42
0.0000001
 43
0.0000001
 44
0.0000000001
 40
0.0
 40
0.0
 40
0.0
 40
0.0
 40
0.0851070844
 40
0.1692092179
 40
0.2509799019
 40
0.3293307465
 40
0.3669275525
 40
0.4033087259
 40
0.4383525751
 40
0.471951955
 40
0.5040177186
 40
0.5344683781
 40
0.5632442828
 40
0.5903322748
 40
0.6157790302
 40
0.6396912667
 40
0.6622644468
 40
0.6838114694
 40
0.704753185
 40
0.7255696846
 40
0.7467748168
 40
0.768851045
 40
0.7921580495
 40
0.8169504539
 40
0.8433893787
 40
0.871525799
 40
0.9013354881
 40
0.9327476455
 40
0.9656718319
 40
1.0
 40
1.0
 40
1.0
 40
1.0
 10
3.821046664
 20
5.2896919303
 30
0.0
 10
3.8179545204
 20
5.2896919303
 30
0.0
 10
3.8118063122
 20
5.2896010744
 30
0.0
 10
3.8026957329
 20
5.2891804378
 30
0.0
 10
3.7938495194
 20
5.2884636204
 30
0.0
 10
3.7867172668
 20
5.287580943
 30
0.0
 10
3.7812559355
 20
5.286679942
 30
0.0
 10
3.7773684855
 20
5.2859163387
 30
0.0
 10
3.7736515312
 20
5.2850495165
 30
0.0
 10
3.7701238828
 20
5.2840735034
 30
0.0
 10
3.766804965
 20
5.2829824341
 30
0.0
 10
3.7637149897
 20
5.2817711673
 30
0.0
 10
3.7608750195
 20
5.2804347041
 30
0.0
 10
3.7583064881
 20
5.2789678085
 30
0.0
 10
3.756032039
 20
5.2773650909
 30
0.0
 10
3.75407237
 20
5.2756263801
 30
0.0
 10
3.7524488742
 20
5.2737514513
 30
0.0
 10
3.7511878927
 20
5.2717396175
 30
0.0
 10
3.7503099704
 20
5.2696010578
 30
0.0
 10
3.7498262194
 20
5.2673526524
 30
0.0
 10
3.7497490381
 20
5.2650130953
 30
0.0
 10
3.7500791563
 20
5.2626060059
 30
0.0
 10
3.750800645
 20
5.2601518977
 30
0.0
 10
3.7519022999
 20
5.2576703892
 30
0.0
 10
3.7533712281
 20
5.2551825839
 30
0.0
 10
3.7551855425
 20
5.2527058095
 30
0.0
 10
3.7573245896
 20
5.2502587931
 30
0.0
 10
3.7597682578
 20
5.2478610455
 30
0.0
 10
3.7624946162
 20
5.2455298355
 30
0.0
 10
3.7644477921
 20
5.2440588781
 30
0.0
 10
3.7654647128
 20
5.2433367695
 30
0.0
  0
LINE
  5
32D
100
AcDbEntity
  8
ALL_ASSEMBLY_MEMBERS
100
AcDbLine
 62
9
  6
CONTINUOUS
 10
3.3966456823
 20
4.7610051943
 11
3.3776645935
 21
4.0624466548
  0
SPLINE
  5
32E
100
AcDbEntity
  8
ALL_ASSEMBLY_MEMBERS
100
AcDbSpline
 62
9
  6
CONTINUOUS
 70
0
 71
3
 72
23
 73
19
 74
0
 42
0.0000001
 43
0.0000001
 44
0.0000000001
 40
0.0
 40
0.0
 40
0.0
 40
0.0
 40
0.1852290179
 40
0.364365189
 40
0.5307265727
 40
0.6073713254
 40
0.678790346
 40
0.7443788258
 40
0.8035356745
 40
0.8557453673
 40
0.9006038734
 40
0.9377181872
 40
0.9532616831
 40
0.9667609429
 40
0.9781960564
 40
0.9875504796
 40
0.9948150224
 40
1.0
 40
1.0
 40
1.0
 40
1.0
 10
3.42653013
 20
4.7611706858
 30
0.0
 10
3.4246841191
 20
4.7612200155
 30
0.0
 10
3.4210524936
 20
4.7613053145
 30
0.0
 10
3.4157620482
 20
4.7613946301
 30
0.0
 10
3.4115535714
 20
4.7614346791
 30
0.0
 10
3.4084188604
 20
4.7614430207
 30
0.0
 10
3.4062888165
 20
4.7614377768
 30
0.0
 10
3.4043331796
 20
4.7614214314
 30
0.0
 10
3.4025691933
 20
4.7613940945
 30
0.0
 10
3.4010121177
 20
4.7613560575
 30
0.0
 10
3.3996752053
 20
4.7613078217
 30
0.0
 10
3.3987042286
 20
4.7612573495
 30
0.0
 10
3.3980463424
 20
4.7612100835
 30
0.0
 10
3.3976443277
 20
4.7611745473
 30
0.0
 10
3.3973045392
 20
4.7611369658
 30
0.0
 10
3.3970274936
 20
4.7610976794
 30
0.0
 10
3.396814027
 20
4.7610568021
 30
0.0
 10
3.3966938168
 20
4.7610240404
 30
0.0
 10
3.3966456823
 20
4.7610051943
 30
0.0
  0
LINE
  5
32F
100
AcDbEntity
  8
ALL_ASSEMBLY_MEMBERS
100
AcDbLine
 62
9
  6
CONTINUOUS
 10
3.42653013
 20
4.761170686
 11
3.4074729775
 21
4.0625656318
  0
SPLINE
  5
330
100
AcDbEntity
  8
ALL_ASSEMBLY_MEMBERS
100
AcDbSpline
 62
9
  6
CONTINUOUS
 70
0
 71
3
 72
9
 73
5
 74
0
 42
0.0000001
 43
0.0000001
 44
0.0000000001
 40
0.0
 40
0.0
 40
0.0
 40
0.0
 40
0.4999372241
 40
1.0
 40
1.0
 40
1.0
 40
1.0
 10
3.4204273143
 20
4.7915441251
 30
0.0
 10
3.4225836659
 20
4.7868165551
 30
0.0
 10
3.4257892017
 20
4.7768196525
 30
0.0
 10
3.4266697297
 20
4.7663662461
 30
0.0
 10
3.42653013
 20
4.761170686
 30
0.0
  0
SPLINE
  5
331
100
AcDbEntity
  8
ALL_ASSEMBLY_MEMBERS
100
AcDbSpline
 62
9
  6
CONTINUOUS
 70
0
 71
3
 72
9
 73
5
 74
0
 42
0.0000001
 43
0.0000001
 44
0.0000000001
 40
0.0
 40
0.0
 40
0.0
 40
0.0
 40
0.5002007917
 40
1.0
 40
1.0
 40
1.0
 40
1.0
 10
3.3941492515
 20
4.7788069512
 30
0.0
 10
3.3951513418
 20
4.7759671584
 30
0.0
 10
3.3965535646
 20
4.7700645604
 30
0.0
 10
3.3968039227
 20
4.7640100274
 30
0.0
 10
3.3966458367
 20
4.7610051878
 30
0.0
  0
SPLINE
  5
332
100
AcDbEntity
  8
ALL_ASSEMBLY_MEMBERS
100
AcDbSpline
 62
9
  6
CONTINUOUS
 70
0
 71
3
 72
15
 73
11
 74
0
 42
0.0000001
 43
0.0000001
 44
0.0000000001
 40
0.0
 40
0.0
 40
0.0
 40
0.0
 40
0.3278661222
 40
0.4816828934
 40
0.6231796736
 40
0.7487538691
 40
0.855236786
 40
0.9397327804
 40
0.9730238546
 40
1.0
 40
1.0
 40
1.0
 40
1.0
 10
3.4204273143
 20
4.791544122
 30
0.0
 10
3.4175223057
 20
4.790220847
 30
0.0
 10
3.4132639463
 20
4.7882557176
 30
0.0
 10
3.4077765246
 20
4.7856667856
 30
0.0
 10
3.4040816428
 20
4.7838945691
 30
0.0
 10
3.4008145353
 20
4.7822963215
 30
0.0
 10
3.3980598533
 20
4.7809139316
 30
0.0
 10
3.3961222936
 20
4.7799066613
 30
0.0
 10
3.3948850656
 20
4.7792314321
 30
0.0
 10
3.3943752142
 20
4.7789408338
 30
0.0
 10
3.3941492515
 20
4.7788069512
 30
0.0
  0
SPLINE
  5
333
100
AcDbEntity
  8
ALL_ASSEMBLY_MEMBERS
100
AcDbSpline
 62
9
  6
CONTINUOUS
 70
0
 71
3
 72
15
 73
11
 74
0
 42
0.0000001
 43
0.0000001
 44
0.0000000001
 40
0.0
 40
0.0
 40
0.0
 40
0.0
 40
0.1205188282
 40
0.2424092187
 40
0.365595438
 40
0.490049721
 40
0.6157754564
 40
0.7427551473
 40
0.8709586776
 40
1.0
 40
1.0
 40
1.0
 40
1.0
 10
3.3730560794
 20
4.8171567946
 30
0.0
 10
3.3751538998
 20
4.8165411988
 30
0.0
 10
3.3793480092
 20
4.8152145952
 30
0.0
 10
3.3855851509
 20
4.812954698
 30
0.0
 10
3.391785716
 20
4.8104012625
 30
0.0
 10
3.3979218853
 20
4.8075270609
 30
0.0
 10
3.4039543055
 20
4.8042908432
 30
0.0
 10
3.4098235143
 20
4.8006316778
 30
0.0
 10
3.415421292
 20
4.796465421
 30
0.0
 10
3.4188510579
 20
4.7932747709
 30
0.0
 10
3.4204273143
 20
4.7915441251
 30
0.0
  0
SPLINE
  5
334
100
AcDbEntity
  8
ALL_ASSEMBLY_MEMBERS
100
AcDbSpline
 62
9
  6
CONTINUOUS
 70
0
 71
3
 72
15
 73
11
 74
0
 42
0.0000001
 43
0.0000001
 44
0.0000000001
 40
0.0
 40
0.0
 40
0.0
 40
0.0
 40
0.2176337633
 40
0.3327039491
 40
0.4524945977
 40
0.5778099643
 40
0.7097550366
 40
0.7786770659
 40
0.8499298859
 40
1.0
 40
1.0
 40
1.0
 40
1.0
 10
3.3730545368
 20
4.8171575087
 30
0.0
 10
3.3749122025
 20
4.8145710069
 30
0.0
 10
3.3776559881
 20
4.8105466822
 30
0.0
 10
3.3811866379
 20
4.8049450584
 30
0.0
 10
3.3838863519
 20
4.8004181024
 30
0.0
 10
3.3865787974
 20
4.7956016593
 30
0.0
 10
3.3887677324
 20
4.791359078
 30
0.0
 10
3.3904842043
 20
4.7877658839
 30
0.0
 10
3.3922199783
 20
4.7838897184
 30
0.0
 10
3.3934188684
 20
4.7808777625
 30
0.0
 10
3.3941489298
 20
4.7788068082
 30
0.0
  0
LINE
  5
335
100
AcDbEntity
  8
ALL_ASSEMBLY_MEMBERS
100
AcDbLine
 62
9
  6
CONTINUOUS
 10
3.627170575
 20
4.7627150338
 11
3.6278958689
 21
4.0625656318
  0
SPLINE
  5
336
100
AcDbEntity
  8
ALL_ASSEMBLY_MEMBERS
100
AcDbSpline
 62
9
  6
CONTINUOUS
 70
0
 71
3
 72
23
 73
19
 74
0
 42
0.0000001
 43
0.0000001
 44
0.0000000001
 40
0.0
 40
0.0
 40
0.0
 40
0.0
 40
0.0051843942
 40
0.0124489771
 40
0.0218040571
 40
0.0332404194
 40
0.0467414901
 40
0.062287328
 40
0.0994077642
 40
0.1442738848
 40
0.1964921178
 40
0.2556578562
 40
0.3212548657
 40
0.3926812436
 40
0.4693313662
 40
0.6356941531
 40
0.8148134832
 40
1.0
 40
1.0
 40
1.0
 40
1.0
 10
3.6570679936
 20
4.7617652384
 30
0.0
 10
3.6570203336
 20
4.7617853623
 30
0.0
 10
3.6569009197
 20
4.7618213014
 30
0.0
 10
3.6566884022
 20
4.761867809
 30
0.0
 10
3.6564122081
 20
4.7619143941
 30
0.0
 10
3.6560731724
 20
4.761960921
 30
0.0
 10
3.6556718037
 20
4.7620070348
 30
0.0
 10
3.6550146747
 20
4.7620716036
 30
0.0
 10
3.6540442998
 20
4.7621475989
 30
0.0
 10
3.6527076565
 20
4.7622309608
 30
0.0
 10
3.651150427
 20
4.7623098943
 30
0.0
 10
3.6493858769
 20
4.7623835488
 30
0.0
 10
3.6474292884
 20
4.7624512314
 30
0.0
 10
3.6452979354
 20
4.762512379
 30
0.0
 10
3.6421610476
 20
4.7625862911
 30
0.0
 10
3.6379491808
 20
4.7626566413
 30
0.0
 10
3.632653903
 20
4.7627060646
 30
0.0
 10
3.6290185262
 20
4.7627159755
 30
0.0
 10
3.627170575
 20
4.7627150337
 30
0.0
  0
LINE
  5
337
100
AcDbEntity
  8
ALL_ASSEMBLY_MEMBERS
100
AcDbLine
 62
9
  6
CONTINUOUS
 10
3.6570679936
 20
4.7617652384
 11
3.6577182495
 21
4.061664501
  0
SPLINE
  5
338
100
AcDbEntity
  8
ALL_ASSEMBLY_MEMBERS
100
AcDbSpline
 62
9
  6
CONTINUOUS
 70
0
 71
3
 72
9
 73
5
 74
0
 42
0.0000001
 43
0.0000001
 44
0.0000000001
 40
0.0
 40
0.0
 40
0.0
 40
0.0
 40
0.500179338
 40
1.0
 40
1.0
 40
1.0
 40
1.0
 10
3.6597359893
 20
4.7786560773
 30
0.0
 10
3.6587645079
 20
4.775962613
 30
0.0
 10
3.6573579187
 20
4.7703727371
 30
0.0
 10
3.6569929167
 20
4.7646255031
 30
0.0
 10
3.6570680809
 20
4.761765237
 30
0.0
  0
SPLINE
  5
339
100
AcDbEntity
  8
ALL_ASSEMBLY_MEMBERS
100
AcDbSpline
 62
9
  6
CONTINUOUS
 70
0
 71
3
 72
9
 73
5
 74
0
 42
0.0000001
 43
0.0000001
 44
0.0000000001
 40
0.0
 40
0.0
 40
0.0
 40
0.0
 40
0.4999977992
 40
1.0
 40
1.0
 40
1.0
 40
1.0
 10
3.6334280072
 20
4.7915441251
 30
0.0
 10
3.6313583612
 20
4.7870525579
 30
0.0
 10
3.6282129825
 20
4.7775804135
 30
0.0
 10
3.6271677328
 20
4.7676605401
 30
0.0
 10
3.627170575
 20
4.7627150338
 30
0.0
  0
SPLINE
  5
33A
100
AcDbEntity
  8
ALL_ASSEMBLY_MEMBERS
100
AcDbSpline
 62
9
  6
CONTINUOUS
 70
0
 71
3
 72
15
 73
11
 74
0
 42
0.0000001
 43
0.0000001
 44
0.0000000001
 40
0.0
 40
0.0
 40
0.0
 40
0.0
 40
0.0263050176
 40
0.0590304034
 40
0.1427137108
 40
0.2488022931
 40
0.3743611717
 40
0.5161698425
 40
0.670557346
 40
1.0
 40
1.0
 40
1.0
 40
1.0
 10
3.6597359893
 20
4.7786560773
 30
0.0
 10
3.6595160055
 20
4.7787888204
 30
0.0
 10
3.6590169292
 20
4.7790777045
 30
0.0
 10
3.6577971255
 20
4.7797524258
 30
0.0
 10
3.6558735368
 20
4.7807641292
 30
0.0
 10
3.6531268732
 20
4.7821577532
 30
0.0
 10
3.6498569977
 20
4.7837745344
 30
0.0
 10
3.6461500657
 20
4.7855713965
 30
0.0
 10
3.6406340396
 20
4.7882012879
 30
0.0
 10
3.6363509869
 20
4.7901986217
 30
0.0
 10
3.6334280072
 20
4.7915441227
 30
0.0
  0
SPLINE
  5
33B
100
AcDbEntity
  8
ALL_ASSEMBLY_MEMBERS
100
AcDbSpline
 62
9
  6
CONTINUOUS
 70
0
 71
3
 72
15
 73
11
 74
0
 42
0.0000001
 43
0.0000001
 44
0.0000000001
 40
0.0
 40
0.0
 40
0.0
 40
0.0
 40
0.2182502714
 40
0.3334362689
 40
0.4532300316
 40
0.5784455669
 40
0.7102062623
 40
0.7790141805
 40
0.8501478583
 40
1.0
 40
1.0
 40
1.0
 40
1.0
 10
3.6814731527
 20
4.8171575162
 30
0.0
 10
3.6795600862
 20
4.8145596126
 30
0.0
 10
3.6767312687
 20
4.8105201463
 30
0.0
 10
3.6730894996
 20
4.8048959152
 30
0.0
 10
3.6703073319
 20
4.8003552299
 30
0.0
 10
3.6675331572
 20
4.7955247297
 30
0.0
 10
3.6652779144
 20
4.7912680987
 30
0.0
 10
3.6635096449
 20
4.787661391
 30
0.0
 10
3.6617217014
 20
4.783768326
 30
0.0
 10
3.6604873645
 20
4.7807399239
 30
0.0
 10
3.6597362287
 20
4.7786559696
 30
0.0
  0
SPLINE
  5
33C
100
AcDbEntity
  8
ALL_ASSEMBLY_MEMBERS
100
AcDbSpline
 62
9
  6
CONTINUOUS
 70
0
 71
3
 72
15
 73
11
 74
0
 42
0.0000001
 43
0.0000001
 44
0.0000000001
 40
0.0
 40
0.0
 40
0.0
 40
0.0
 40
0.1206595232
 40
0.242639125
 40
0.3658686655
 40
0.4903254553
 40
0.6160173515
 40
0.7429341495
 40
0.8710524734
 40
1.0
 40
1.0
 40
1.0
 40
1.0
 10
3.6814716186
 20
4.8171567946
 30
0.0
 10
3.6793455813
 20
4.8165432772
 30
0.0
 10
3.6750952061
 20
4.8152211761
 30
0.0
 10
3.6687734314
 20
4.8129673436
 30
0.0
 10
3.6624883289
 20
4.8104203076
 30
0.0
 10
3.6562676592
 20
4.8075514875
 30
0.0
 10
3.6501505792
 20
4.8043185583
 30
0.0
 10
3.6441962882
 20
4.8006594783
 30
0.0
 10
3.6385131325
 20
4.7964874811
 30
0.0
 10
3.6350301638
 20
4.7932834639
 30
0.0
 10
3.6334280072
 20
4.7915441251
 30
0.0
  0
SPLINE
  5
33D
100
AcDbEntity
  8
ALL_ASSEMBLY_MEMBERS
100
AcDbSpline
 62
9
  6
CONTINUOUS
 70
0
 71
3
 72
19
 73
15
 74
0
 42
0.0000001
 43
0.0000001
 44
0.0000000001
 40
0.0
 40
0.0
 40
0.0
 40
0.0
 40
0.1251812745
 40
0.1879666578
 40
0.2506893207
 40
0.313342749
 40
0.37594796
 40
0.5009341717
 40
0.6257779589
 40
0.6882105511
 40
0.7506318507
 40
0.8130716153
 40
0.8755341623
 40
1.0
 40
1.0
 40
1.0
 40
1.0
 10
3.6577187112
 20
4.061664502
 30
0.0
 10
3.6577286756
 20
4.0596996747
 30
0.0
 10
3.6574500597
 20
4.056737666
 30
0.0
 10
3.656517619
 20
4.0529106078
 30
0.0
 10
3.6555375686
 20
4.050119064
 30
0.0
 10
3.6542892569
 20
4.0474402809
 30
0.0
 10
3.6522880212
 20
4.0440542301
 30
0.0
 10
3.6491761221
 20
4.0402206278
 30
0.0
 10
3.6453791133
 20
4.037068129
 30
0.0
 10
3.642021153
 20
4.0350365241
 30
0.0
 10
3.6393642502
 20
4.0337670207
 30
0.0
 10
3.6365937753
 20
4.0327667798
 30
0.0
 10
3.6327942287
 20
4.0318092888
 30
0.0
 10
3.6298498151
 20
4.0315136476
 30
0.0
 10
3.6278961921
 20
4.0315136476
 30
0.0
  0
SPLINE
  5
33E
100
AcDbEntity
  8
ALL_ASSEMBLY_MEMBERS
100
AcDbSpline
 62
9
  6
CONTINUOUS
 70
0
 71
3
 72
17
 73
13
 74
0
 42
0.0000001
 43
0.0000001
 44
0.0000000001
 40
0.0
 40
0.0
 40
0.0
 40
0.0
 40
0.1251969768
 40
0.2506384782
 40
0.3757800154
 40
0.4383752344
 40
0.5009595349
 40
0.6258407439
 40
0.7505608769
 40
0.8130494576
 40
0.8755925777
 40
1.0
 40
1.0
 40
1.0
 40
1.0
 10
3.3776641295
 20
4.062446668
 30
0.0
 10
3.3775963234
 20
4.0604507773
 30
0.0
 10
3.3778766561
 20
4.0564300774
 30
0.0
 10
3.3794733228
 20
4.0506149049
 30
0.0
 10
3.3817377059
 20
4.0461209562
 30
0.0
 10
3.3840518141
 20
4.0428599083
 30
0.0
 10
3.3866774171
 20
4.0398495113
 30
0.0
 10
3.3904979935
 20
4.0366007214
 30
0.0
 10
3.3948909083
 20
4.0341835476
 30
0.0
 10
3.3986363605
 20
4.0328078513
 30
0.0
 10
3.4024955181
 20
4.0318201204
 30
0.0
 10
3.4054882049
 20
4.0315136476
 30
0.0
 10
3.4074726526
 20
4.0315136476
 30
0.0
  0
SPLINE
  5
33F
100
AcDbEntity
  8
0
100
AcDbSpline
 62
7
  6
CONTINUOUS
 70
0
 71
3
 72
11
 73
7
 74
0
 42
0.0000001
 43
0.0000001
 44
0.0000000001
 40
0.0
 40
0.0
 40
0.0
 40
0.0
 40
0.2570089332
 40
0.5115181612
 40
0.7599270179
 40
1.0
 40
1.0
 40
1.0
 40
1.0
 10
3.543546664
 20
2.5443526195
 30
0.0
 10
3.5468838172
 20
2.5443685842
 30
0.0
 10
3.5535345225
 20
2.5439493009
 30
0.0
 10
3.5632537251
 20
2.5421201135
 30
0.0
 10
3.5724799955
 20
2.5392293116
 30
0.0
 10
3.578291169
 20
2.5366477054
 30
0.0
 10
3.5810624742
 20
2.5352203588
 30
0.0
  0
SPLINE
  5
340
100
AcDbEntity
  8
0
100
AcDbSpline
 62
7
  6
CONTINUOUS
 70
0
 71
3
 72
10
 73
6
 74
0
 42
0.0000001
 43
0.0000001
 44
0.0000000001
 40
0.0
 40
0.0
 40
0.0
 40
0.0
 40
0.4904886774
 40
0.7443676907
 40
1.0
 40
1.0
 40
1.0
 40
1.0
 10
3.5096558166
 20
2.5369760314
 30
0.0
 10
3.5148530087
 20
2.539335593
 30
0.0
 10
3.5231469247
 20
2.5421009844
 30
0.0
 10
3.5346340539
 20
2.5440449886
 30
0.0
 10
3.540571995
 20
2.5443752446
 30
0.0
 10
3.543546664
 20
2.5443526195
 30
0.0
  0
SPLINE
  5
341
100
AcDbEntity
  8
0
100
AcDbSpline
 62
7
  6
CONTINUOUS
 70
0
 71
3
 72
11
 73
7
 74
0
 42
0.0000001
 43
0.0000001
 44
0.0000000001
 40
0.0
 40
0.0
 40
0.0
 40
0.0
 40
0.2493367071
 40
0.4989100127
 40
0.7490470716
 40
1.0
 40
1.0
 40
1.0
 40
1.0
 10
3.1190916464
 20
2.6211115692
 30
0.0
 10
3.1171173481
 20
2.599408523
 30
0.0
 10
3.1131545057
 20
2.5559829618
 30
0.0
 10
3.1073054972
 20
2.4907760964
 30
0.0
 10
3.1016174126
 20
2.425413155
 30
0.0
 10
3.0979726497
 20
2.3817684114
 30
0.0
 10
3.0961924256
 20
2.3599068522
 30
0.0
  0
SPLINE
  5
342
100
AcDbEntity
  8
ALL_FEATURES
100
AcDbSpline
 62
7
  6
CONTINUOUS
 70
0
 71
3
 72
11
 73
7
 74
0
 42
0.0000001
 43
0.0000001
 44
0.0000000001
 40
0.0
 40
0.0
 40
0.0
 40
0.0
 40
0.2500388292
 40
0.4972617642
 40
0.7458329251
 40
1.0
 40
1.0
 40
1.0
 40
1.0
 10
3.6071592263
 20
2.5024385252
 30
0.0
 10
3.6071525995
 20
2.5015326449
 30
0.0
 10
3.6070160346
 20
2.4997291373
 30
0.0
 10
3.6064224931
 20
2.4970832553
 30
0.0
 10
3.6054408414
 20
2.4945395038
 30
0.0
 10
3.6045444822
 20
2.4929458608
 30
0.0
 10
3.6040404101
 20
2.4921752135
 30
0.0
  0
SPLINE
  5
343
100
AcDbEntity
  8
ALL_FEATURES
100
AcDbSpline
 62
7
  6
CONTINUOUS
 70
0
 71
3
 72
10
 73
6
 74
0
 42
0.0000001
 43
0.0000001
 44
0.0000000001
 40
0.0
 40
0.0
 40
0.0
 40
0.0
 40
0.5251776916
 40
0.7692795348
 40
1.0
 40
1.0
 40
1.0
 40
1.0
 10
3.597690543
 20
2.5211421664
 30
0.0
 10
3.5991591591
 20
2.5194590758
 30
0.0
 10
3.6011771693
 20
2.5168685179
 30
0.0
 10
3.6034312796
 20
2.5132585426
 30
0.0
 10
3.6043702431
 20
2.5114674872
 30
0.0
 10
3.604787701
 20
2.5105793813
 30
0.0
  0
SPLINE
  5
344
100
AcDbEntity
  8
ALL_FEATURES
100
AcDbSpline
 62
7
  6
CONTINUOUS
 70
0
 71
3
 72
9
 73
5
 74
0
 42
0.0000001
 43
0.0000001
 44
0.0000000001
 40
0.0
 40
0.0
 40
0.0
 40
0.0
 40
0.519223772
 40
1.0
 40
1.0
 40
1.0
 40
1.0
 10
3.6049148721
 20
2.5103056368
 30
0.0
 10
3.6053718477
 20
2.5093101675
 30
0.0
 10
3.6061579377
 20
2.5073475776
 30
0.0
 10
3.6067044508
 20
2.5053028144
 30
0.0
 10
3.6068945789
 20
2.5043065554
 30
0.0
  0
LINE
  5
345
100
AcDbEntity
  8
ALL_FEATURES
100
AcDbLine
 62
7
  6
CONTINUOUS
 10
3.6068945789
 20
2.5043065554
 11
3.6071592263
 21
2.5024385252
  0
SPLINE
  5
346
100
AcDbEntity
  8
ALL_FEATURES
100
AcDbSpline
 62
7
  6
CONTINUOUS
 70
0
 71
3
 72
9
 73
5
 74
0
 42
0.0000001
 43
0.0000001
 44
0.0000000001
 40
0.0
 40
0.0
 40
0.0
 40
0.0
 40
0.2364246614
 40
1.0
 40
1.0
 40
1.0
 40
1.0
 10
3.5841919703
 20
2.5315251224
 30
0.0
 10
3.5836468461
 20
2.5320528784
 30
0.0
 10
3.5812745571
 20
2.5342158783
 30
0.0
 10
3.5786522609
 20
2.5360996225
 30
0.0
 10
3.5765629434
 20
2.5373801048
 30
0.0
  0
SPLINE
  5
347
100
AcDbEntity
  8
ALL_FEATURES
100
AcDbSpline
 62
7
  6
CONTINUOUS
 70
0
 71
3
 72
20
 73
16
 74
0
 42
0.0000001
 43
0.0000001
 44
0.0000000001
 40
0.0
 40
0.0
 40
0.0
 40
0.0
 40
0.1467267071
 40
0.2147894191
 40
0.2796460261
 40
0.3416782177
 40
0.4014001302
 40
0.4593918662
 40
0.516280279
 40
0.5727058673
 40
0.6292726758
 40
0.6865610931
 40
0.7451185259
 40
0.867710733
 40
1.0
 40
1.0
 40
1.0
 40
1.0
 10
3.502730307
 20
2.4839787239
 30
0.0
 10
3.5009615517
 20
2.4849455116
 30
0.0
 10
3.4984514344
 20
2.4865222244
 30
0.0
 10
3.4954620504
 20
2.4889408743
 30
0.0
 10
3.4935295633
 20
2.4908006308
 30
0.0
 10
3.4918555634
 20
2.4927476904
 30
0.0
 10
3.4904417987
 20
2.4947778375
 30
0.0
 10
3.4892895538
 20
2.4968872624
 30
0.0
 10
3.4884001323
 20
2.4990717136
 30
0.0
 10
3.4877745091
 20
2.5013255673
 30
0.0
 10
3.4874123659
 20
2.503641858
 30
0.0
 10
3.487313555
 20
2.5060134171
 30
0.0
 10
3.4875352187
 20
2.5092872622
 30
0.0
 10
3.4885056143
 20
2.5135131905
 30
0.0
 10
3.489910677
 20
2.5167417261
 30
0.0
 10
3.4907626852
 20
2.5183470262
 30
0.0
  0
SPLINE
  5
348
100
AcDbEntity
  8
ALL_FEATURES
100
AcDbSpline
 62
7
  6
CONTINUOUS
 70
0
 71
3
 72
9
 73
5
 74
0
 42
0.0000001
 43
0.0000001
 44
0.0000000001
 40
0.0
 40
0.0
 40
0.0
 40
0.0
 40
0.2353206383
 40
1.0
 40
1.0
 40
1.0
 40
1.0
 10
3.4907626852
 20
2.5183470262
 30
0.0
 10
3.4911986071
 20
2.5191683629
 30
0.0
 10
3.4931899451
 20
2.5225844128
 30
0.0
 10
3.4957039463
 20
2.5256848937
 30
0.0
 10
3.4978138026
 20
2.5278478507
 30
0.0
  0
SPLINE
  5
349
100
AcDbEntity
  8
ALL_FEATURES
100
AcDbSpline
 62
7
  6
CONTINUOUS
 70
0
 71
3
 72
9
 73
5
 74
0
 42
0.0000001
 43
0.0000001
 44
0.0000000001
 40
0.0
 40
0.0
 40
0.0
 40
0.0
 40
0.2401281678
 40
1.0
 40
1.0
 40
1.0
 40
1.0
 10
3.5008439639
 20
2.5307075396
 30
0.0
 10
3.5014964495
 20
2.5312754393
 30
0.0
 10
3.5042711315
 20
2.5335738761
 30
0.0
 10
3.5072693211
 20
2.5356001975
 30
0.0
 10
3.5096339707
 20
2.5369790215
 30
0.0
  0
LINE
  5
34A
100
AcDbEntity
  8
ALL_FEATURES
100
AcDbLine
 62
7
  6
CONTINUOUS
 10
3.1210649229
 20
2.642840121
 11
3.1208934798
 21
2.6409437799
  0
SPLINE
  5
34B
100
AcDbEntity
  8
0
100
AcDbSpline
 62
9
  6
CONTINUOUS
 70
0
 71
3
 72
15
 73
11
 74
0
 42
0.0000001
 43
0.0000001
 44
0.0000000001
 40
0.0
 40
0.0
 40
0.0
 40
0.0
 40
0.1351028716
 40
0.2677659165
 40
0.3977390375
 40
0.5247900389
 40
0.6487081887
 40
0.769309916
 40
0.8864440741
 40
1.0
 40
1.0
 40
1.0
 40
1.0
 10
3.3432528957
 20
2.345767565
 30
0.0
 10
3.3449905923
 20
2.3320121724
 30
0.0
 10
3.3480328821
 20
2.3046971483
 30
0.0
 10
3.3513191632
 20
2.2640061729
 30
0.0
 10
3.3532950169
 20
2.2240572108
 30
0.0
 10
3.3539640933
 20
2.1849622525
 30
0.0
 10
3.3533277357
 20
2.1468280861
 30
0.0
 10
3.3513842977
 20
2.1097562952
 30
0.0
 10
3.3481298916
 20
2.0738439876
 30
0.0
 10
3.3450336102
 20
2.0503646221
 30
0.0
 10
3.3432528963
 20
2.0388479796
 30
0.0
  0
SPLINE
  5
34C
100
AcDbEntity
  8
0
100
AcDbSpline
 62
9
  6
CONTINUOUS
 70
0
 71
3
 72
15
 73
11
 74
0
 42
0.0000001
 43
0.0000001
 44
0.0000000001
 40
0.0
 40
0.0
 40
0.0
 40
0.0
 40
0.113560091
 40
0.2307042138
 40
0.3512945576
 40
0.4751885535
 40
0.6022232045
 40
0.7322107358
 40
0.8649117439
 40
1.0
 40
1.0
 40
1.0
 40
1.0
 10
3.1259402502
 20
2.0388479796
 30
0.0
 10
3.1240718764
 20
2.0503549267
 30
0.0
 10
3.1208209121
 20
2.073823272
 30
0.0
 10
3.1173994372
 20
2.1097327716
 30
0.0
 10
3.1153557419
 20
2.1468093065
 30
0.0
 10
3.1146862238
 20
2.1849505391
 30
0.0
 10
3.1153888261
 20
2.2240554621
 30
0.0
 10
3.117467225
 20
2.264016425
 30
0.0
 10
3.1209219436
 20
2.3047110191
 30
0.0
 10
3.1241165581
 20
2.3320203596
 30
0.0
 10
3.1259402496
 20
2.345767565
 30
0.0
  0
LINE
  5
34D
100
AcDbEntity
  8
0
100
AcDbLine
 62
9
  6
CONTINUOUS
 10
3.3432528963
 20
3.7161753983
 11
3.3537465081
 21
3.7315135533
  0
LINE
  5
34E
100
AcDbEntity
  8
ALL_FEATURES
100
AcDbLine
 62
9
  6
CONTINUOUS
 10
3.376190233
 20
3.030641875
 11
3.3718201505
 21
3.0098268735
  0
SPLINE
  5
34F
100
AcDbEntity
  8
ALL_FEATURES
100
AcDbSpline
 62
9
  6
CONTINUOUS
 70
0
 71
3
 72
29
 73
25
 74
0
 42
0.0000001
 43
0.0000001
 44
0.0000000001
 40
0.0
 40
0.0
 40
0.0
 40
0.0
 40
0.0002550089
 40
0.0010189949
 40
0.0022919575
 40
0.0040738964
 40
0.0063648112
 40
0.0091647016
 40
0.0162912514
 40
0.0254498063
 40
0.0366330603
 40
0.0498335581
 40
0.0650438517
 40
0.0822565002
 40
0.1014640701
 40
0.1458304317
 40
0.1980457492
 40
0.2579953457
 40
0.3255647708
 40
0.4006314104
 40
0.4830543829
 40
0.57269112
 40
0.7729894406
 40
1.0
 40
1.0
 40
1.0
 40
1.0
 10
3.4061876729
 20
3.0002632933
 30
0.0
 10
3.4061872228
 20
3.0002585646
 30
0.0
 10
3.406181056
 20
3.0002404079
 30
0.0
 10
3.4061724866
 20
3.0001986737
 30
0.0
 10
3.4061546441
 20
3.000129738
 30
0.0
 10
3.4061313385
 20
3.0000329571
 30
0.0
 10
3.4061007033
 20
2.9999086464
 30
0.0
 10
3.4060465951
 20
2.9996876058
 30
0.0
 10
3.4059618911
 20
2.9993423453
 30
0.0
 10
3.4058402
 20
2.9988453769
 30
0.0
 10
3.4056919295
 20
2.9982384331
 30
0.0
 10
3.4055174515
 20
2.9975218522
 30
0.0
 10
3.4053171006
 20
2.9966959804
 30
0.0
 10
3.4050912245
 20
2.9957611623
 30
0.0
 10
3.4047392127
 20
2.9942981049
 30
0.0
 10
3.4042378901
 20
2.9922003731
 30
0.0
 10
3.4035674962
 20
2.9893627835
 30
0.0
 10
3.4028078099
 20
2.9861022033
 30
0.0
 10
3.4019640533
 20
2.98242418
 30
0.0
 10
3.4010419357
 20
2.9783346754
 30
0.0
 10
3.4000484851
 20
2.9738399258
 30
0.0
 10
3.3985829341
 20
2.9670606064
 30
0.0
 10
3.396620682
 20
2.9576333531
 30
0.0
 10
3.3950849136
 20
2.9498232388
 30
0.0
 10
3.3942928651
 20
2.9456695637
 30
0.0
  0
SPLINE
  5
350
100
AcDbEntity
  8
0
100
AcDbSpline
 62
9
  6
CONTINUOUS
 70
0
 71
3
 72
19
 73
15
 74
0
 42
0.0000001
 43
0.0000001
 44
0.0000000001
 40
0.0
 40
0.0
 40
0.0
 40
0.0
 40
0.0487552325
 40
0.0982639801
 40
0.1489941676
 40
0.2013874931
 40
0.3123455568
 40
0.3715088217
 40
0.4331613074
 40
0.563635316
 40
0.6323222699
 40
0.7030319516
 40
0.8494540296
 40
1.0
 40
1.0
 40
1.0
 40
1.0
 10
3.3727910346
 20
2.0528871571
 30
0.0
 10
3.3726770477
 20
2.0523217299
 30
0.0
 10
3.3723660934
 20
2.0511969116
 30
0.0
 10
3.3716639939
 20
2.0495743809
 30
0.0
 10
3.370727367
 20
2.048024249
 30
0.0
 10
3.3691515458
 20
2.0460345158
 30
0.0
 10
3.3671575871
 20
2.0442780278
 30
0.0
 10
3.3648553385
 20
2.0427842636
 30
0.0
 10
3.3622220847
 20
2.0413963356
 30
0.0
 10
3.3593168663
 20
2.0403130713
 30
0.0
 10
3.3562215603
 20
2.0395238936
 30
0.0
 10
3.3528930769
 20
2.0389136138
 30
0.0
 10
3.3485461872
 20
2.0385552746
 30
0.0
 10
3.3450261561
 20
2.0386817473
 30
0.0
 10
3.3432528855
 20
2.0388479796
 30
0.0
  0
LINE
  5
351
100
AcDbEntity
  8
0
100
AcDbLine
 62
9
  6
CONTINUOUS
 10
3.084935262
 20
3.7004100378
 11
3.0961924061
 21
3.6852715037
  0
LINE
  5
352
100
AcDbEntity
  8
0
100
AcDbLine
 62
9
  6
CONTINUOUS
 10
3.3730297036
 20
3.686316279
 11
3.3837465101
 21
3.7014642011
  0
LINE
  5
353
100
AcDbEntity
  8
0
100
AcDbLine
 62
9
  6
CONTINUOUS
 10
3.114914954
 20
3.7315136093
 11
3.1259402503
 21
3.7161753983
  0
SPLINE
  5
354
100
AcDbEntity
  8
0
100
AcDbSpline
 62
7
  6
CONTINUOUS
 70
0
 71
3
 72
34
 73
30
 74
0
 42
0.0000001
 43
0.0000001
 44
0.0000000001
 40
0.0
 40
0.0
 40
0.0
 40
0.0
 40
0.0899126059
 40
0.1341411894
 40
0.1773939838
 40
0.2600376828
 40
0.3363546974
 40
0.3718528535
 40
0.4054903458
 40
0.4372359738
 40
0.4671147192
 40
0.4951952857
 40
0.5215873758
 40
0.5464511931
 40
0.5699990339
 40
0.5924983017
 40
0.6142742086
 40
0.6356927025
 40
0.6571212095
 40
0.6789214407
 40
0.7014347113
 40
0.7249439132
 40
0.7496527247
 40
0.8031920291
 40
0.8322514301
 40
0.8628432047
 40
0.8949560379
 40
0.9285647042
 40
1.0
 40
1.0
 40
1.0
 40
1.0
 10
3.543546664
 20
2.4685896885
 30
0.0
 10
3.540009398
 20
2.4685858523
 30
0.0
 10
3.5347313215
 20
2.4686747226
 30
0.0
 10
3.5277591074
 20
2.4689872916
 30
0.0
 10
3.521079731
 20
2.4694187277
 30
0.0
 10
3.5131586075
 20
2.4701873718
 30
0.0
 10
3.505591996
 20
2.4713588953
 30
0.0
 10
3.4999970233
 20
2.4725666911
 30
0.0
 10
3.4961578022
 20
2.4735787629
 30
0.0
 10
3.4925876275
 20
2.4747252466
 30
0.0
 10
3.4892979587
 20
2.476010104
 30
0.0
 10
3.486298292
 20
2.4774370452
 30
0.0
 10
3.4835978631
 20
2.479010558
 30
0.0
 10
3.4812066534
 20
2.4807349553
 30
0.0
 10
3.4791321825
 20
2.4826096077
 30
0.0
 10
3.4773825376
 20
2.4846339745
 30
0.0
 10
3.4759674082
 20
2.4868067271
 30
0.0
 10
3.4748958976
 20
2.4891221131
 30
0.0
 10
3.4741709679
 20
2.4915691365
 30
0.0
 10
3.4737953467
 20
2.4941366257
 30
0.0
 10
3.4737710468
 20
2.4968123804
 30
0.0
 10
3.4740961409
 20
2.4995828262
 30
0.0
 10
3.4750134007
 20
2.503486779
 30
0.0
 10
3.4766243136
 20
2.5074210149
 30
0.0
 10
3.4788037255
 20
2.5113069097
 30
0.0
 10
3.4808089162
 20
2.5143134993
 30
0.0
 10
3.4831325774
 20
2.5173102622
 30
0.0
 10
3.4867183637
 20
2.5213462488
 30
0.0
 10
3.4897589963
 20
2.5241653733
 30
0.0
 10
3.4919254316
 20
2.5259555184
 30
0.0
  0
SPLINE
  5
355
100
AcDbEntity
  8
0
100
AcDbSpline
 62
9
  6
CONTINUOUS
 70
0
 71
3
 72
19
 73
15
 74
0
 42
0.0000001
 43
0.0000001
 44
0.0000000001
 40
0.0
 40
0.0
 40
0.0
 40
0.0
 40
0.0488635527
 40
0.0983364945
 40
0.1489253085
 40
0.201112706
 40
0.3115974774
 40
0.3705591472
 40
0.4320554405
 40
0.5624018931
 40
0.6311359613
 40
0.7019662591
 40
0.8488292689
 40
1.0
 40
1.0
 40
1.0
 40
1.0
 10
3.0963529246
 20
2.0531401005
 30
0.0
 10
3.0964494917
 20
2.0525646673
 30
0.0
 10
3.0967274487
 20
2.0514189569
 30
0.0
 10
3.0973891342
 20
2.0497623105
 30
0.0
 10
3.098293872
 20
2.0481787811
 30
0.0
 10
3.0998367678
 20
2.046145517
 30
0.0
 10
3.1018163711
 20
2.0443492081
 30
0.0
 10
3.1041165802
 20
2.0428235017
 30
0.0
 10
3.1067589433
 20
2.0414053881
 30
0.0
 10
3.1096852148
 20
2.0403016549
 30
0.0
 10
3.1128088107
 20
2.0395006184
 30
0.0
 10
3.1161756634
 20
2.0388834738
 30
0.0
 10
3.1205784263
 20
2.0385294216
 30
0.0
 10
3.1241438141
 20
2.038671135
 30
0.0
 10
3.1259402606
 20
2.0388479796
 30
0.0
  0
SPLINE
  5
356
100
AcDbEntity
  8
ALL_FEATURES
100
AcDbSpline
 62
9
  6
CONTINUOUS
 70
0
 71
3
 72
30
 73
26
 74
0
 42
0.0000001
 43
0.0000001
 44
0.0000000001
 40
0.0
 40
0.0
 40
0.0
 40
0.0
 40
0.2265490044
 40
0.4266428618
 40
0.516255615
 40
0.5986955633
 40
0.6738116103
 40
0.7414544172
 40
0.8014931004
 40
0.8538049743
 40
0.8982671604
 40
0.917520102
 40
0.9347755617
 40
0.9500254864
 40
0.9632618159
 40
0.9744764828
 40
0.983661413
 40
0.990808697
 40
0.9936167306
 40
0.9959143036
 40
0.9977014165
 40
0.9989780698
 40
0.9994249743
 40
0.9997442641
 40
1.0
 40
1.0
 40
1.0
 40
1.0
 10
3.099999196
 20
2.9456695637
 30
0.0
 10
3.0990473185
 20
2.9498185716
 30
0.0
 10
3.0972105196
 20
2.9576220291
 30
0.0
 10
3.0948853481
 20
2.9670397282
 30
0.0
 10
3.0931579991
 20
2.9738155822
 30
0.0
 10
3.0919902997
 20
2.9783106435
 30
0.0
 10
3.0909093028
 20
2.9824016736
 30
0.0
 10
3.0899223299
 20
2.9860821582
 30
0.0
 10
3.0890354054
 20
2.9893458268
 30
0.0
 10
3.0882540619
 20
2.9921868165
 30
0.0
 10
3.0876706091
 20
2.9942874133
 30
0.0
 10
3.0872612355
 20
2.9957527199
 30
0.0
 10
3.0869986601
 20
2.9966891286
 30
0.0
 10
3.0867658648
 20
2.9975164764
 30
0.0
 10
3.086563213
 20
2.9982343929
 30
0.0
 10
3.086391079
 20
2.9988425106
 30
0.0
 10
3.0862498051
 20
2.9993404574
 30
0.0
 10
3.0861515761
 20
2.9996864219
 30
0.0
 10
3.0860886717
 20
2.9999078923
 30
0.0
 10
3.0860533458
 20
3.00003249
 30
0.0
 10
3.0860257102
 20
3.0001293737
 30
0.0
 10
3.0860079491
 20
3.0001928817
 30
0.0
 10
3.0859971259
 20
3.0002297389
 30
0.0
 10
3.0859924817
 20
3.0002483312
 30
0.0
 10
3.085988374
 20
3.000258493
 30
0.0
 10
3.0859877988
 20
3.0002632636
 30
0.0
  0
SPLINE
  5
357
100
AcDbEntity
  8
0
100
AcDbSpline
 62
9
  6
CONTINUOUS
 70
0
 71
3
 72
17
 73
13
 74
0
 42
0.0000001
 43
0.0000001
 44
0.0000000001
 40
0.0
 40
0.0
 40
0.0
 40
0.0
 40
0.1247509471
 40
0.1874893686
 40
0.2502658286
 40
0.3757160894
 40
0.5011989501
 40
0.6265037493
 40
0.7514390187
 40
0.8138514533
 40
0.8761721469
 40
1.0
 40
1.0
 40
1.0
 40
1.0
 10
3.3432528855
 20
3.7161753983
 30
0.0
 10
3.3451876053
 20
3.7161347806
 30
0.0
 10
3.3480987976
 20
3.7157873025
 30
0.0
 10
3.3518534804
 20
3.7147844263
 30
0.0
 10
3.3555056295
 20
3.7134207974
 30
0.0
 10
3.3598029953
 20
3.7110698107
 30
0.0
 10
3.3643237694
 20
3.7073240091
 30
0.0
 10
3.3680526178
 20
3.7027993859
 30
0.0
 10
3.3703796966
 20
3.6985071645
 30
0.0
 10
3.3717169136
 20
3.6948665586
 30
0.0
 10
3.3726885196
 20
3.691130904
 30
0.0
 10
3.3730087432
 20
3.6882369851
 30
0.0
 10
3.3730296822
 20
3.6863162722
 30
0.0
  0
LINE
  5
358
100
AcDbEntity
  8
ALL_FEATURES
100
AcDbLine
 62
9
  6
CONTINUOUS
 10
3.1210649365
 20
3.0108454292
 11
3.1159534153
 21
3.0316940516
  0
SPLINE
  5
359
100
AcDbEntity
  8
0
100
AcDbSpline
 62
9
  6
CONTINUOUS
 70
0
 71
3
 72
17
 73
13
 74
0
 42
0.0000001
 43
0.0000001
 44
0.0000000001
 40
0.0
 40
0.0
 40
0.0
 40
0.0
 40
0.124705878
 40
0.1874444934
 40
0.2502274995
 40
0.3756993518
 40
0.5012162076
 40
0.6265510774
 40
0.7514973623
 40
0.8139098197
 40
0.8762244398
 40
1.0
 40
1.0
 40
1.0
 40
1.0
 10
3.1259402606
 20
3.7161753983
 30
0.0
 10
3.1239643831
 20
3.7161318359
 30
0.0
 10
3.1209909587
 20
3.7157668794
 30
0.0
 10
3.117161963
 20
3.7147179009
 30
0.0
 10
3.11344204
 20
3.7132927419
 30
0.0
 10
3.1090776428
 20
3.7108388236
 30
0.0
 10
3.1045173807
 20
3.7069379603
 30
0.0
 10
3.1007976331
 20
3.7022391981
 30
0.0
 10
3.0985241827
 20
3.6977967754
 30
0.0
 10
3.0972585909
 20
3.6940415197
 30
0.0
 10
3.0963776545
 20
3.6901983609
 30
0.0
 10
3.0961460073
 20
3.6872325555
 30
0.0
 10
3.096192427
 20
3.685271491
 30
0.0
  0
LINE
  5
35A
100
AcDbEntity
  8
ALL_FEATURES
100
AcDbLine
 62
7
  6
CONTINUOUS
 10
3.6070093733
 20
2.503800252
 11
3.6060786759
 21
2.5007606746
  0
LINE
  5
35B
100
AcDbEntity
  8
ALL_FEATURES
100
AcDbLine
 62
7
  6
CONTINUOUS
 10
3.6060786759
 20
2.5007606746
 11
3.6048680511
 21
2.4984643226
  0
LINE
  5
35C
100
AcDbEntity
  8
ALL_FEATURES
100
AcDbLine
 62
7
  6
CONTINUOUS
 10
3.6048680511
 20
2.4984643226
 11
3.6032382542
 21
2.4962266983
  0
SPLINE
  5
35D
100
AcDbEntity
  8
ALL_FEATURES
100
AcDbSpline
 62
7
  6
CONTINUOUS
 70
0
 71
3
 72
13
 73
9
 74
0
 42
0.0000001
 43
0.0000001
 44
0.0000000001
 40
0.0
 40
0.0
 40
0.0
 40
0.0
 40
0.2085328066
 40
0.3231531455
 40
0.4448582689
 40
0.5736872446
 40
0.7094605882
 40
1.0
 40
1.0
 40
1.0
 40
1.0
 10
3.6032382542
 20
2.4962266983
 30
0.0
 10
3.6020991232
 20
2.4948598116
 30
0.0
 10
3.6000837899
 20
2.4929443387
 30
0.0
 10
3.5970272136
 20
2.4906916088
 30
0.0
 10
3.5943824343
 20
2.489038219
 30
0.0
 10
3.5914718885
 20
2.4874862667
 30
0.0
 10
3.5871601071
 20
2.4855198094
 30
0.0
 10
3.5837257654
 20
2.4842946704
 30
0.0
 10
3.5813551223
 20
2.4835695765
 30
0.0
  0
SPLINE
  5
35E
100
AcDbEntity
  8
0
100
AcDbSpline
 62
9
  6
CONTINUOUS
 70
0
 71
3
 72
21
 73
17
 74
0
 42
0.0000001
 43
0.0000001
 44
0.0000000001
 40
0.0
 40
0.0
 40
0.0
 40
0.0
 40
0.0299025558
 40
0.0624208069
 40
0.0990108904
 40
0.1406129806
 40
0.1876969676
 40
0.240407438
 40
0.2987022479
 40
0.3623197903
 40
0.4308395095
 40
0.5037881312
 40
0.5806276062
 40
0.6607525487
 40
0.8282473441
 40
1.0
 40
1.0
 40
1.0
 40
1.0
 10
3.0961924257
 20
2.3599068524
 30
0.0
 10
3.0961688522
 20
2.3595619939
 30
0.0
 10
3.0962307032
 20
2.3588315497
 30
0.0
 10
3.0966263718
 20
2.3577468711
 30
0.0
 10
3.0973106608
 20
2.3566565125
 30
0.0
 10
3.0982752625
 20
2.3555697489
 30
0.0
 10
3.0995082919
 20
2.3544917262
 30
0.0
 10
3.1009986204
 20
2.3534299578
 30
0.0
 10
3.1027336809
 20
2.352394805
 30
0.0
 10
3.1046965564
 20
2.3513953065
 30
0.0
 10
3.106867729
 20
2.350440538
 30
0.0
 10
3.1092265416
 20
2.3495410395
 30
0.0
 10
3.1117504843
 20
2.3487058866
 30
0.0
 10
3.1153568676
 20
2.3476725295
 30
0.0
 10
3.1200905564
 20
2.3466066011
 30
0.0
 10
3.1239691138
 20
2.3460050652
 30
0.0
 10
3.1259402592
 20
2.345767565
 30
0.0
  0
SPLINE
  5
35F
100
AcDbEntity
  8
0
100
AcDbSpline
 62
9
  6
CONTINUOUS
 70
0
 71
3
 72
19
 73
15
 74
0
 42
0.0000001
 43
0.0000001
 44
0.0000000001
 40
0.0
 40
0.0
 40
0.0
 40
0.0
 40
0.0302036899
 40
0.0634419783
 40
0.1009324467
 40
0.1434336582
 40
0.1913008066
 40
0.2446145676
 40
0.3032979468
 40
0.3670789172
 40
0.5081879584
 40
0.6640664573
 40
0.829998706
 40
1.0
 40
1.0
 40
1.0
 40
1.0
 10
3.373029681
 20
2.3593851251
 30
0.0
 10
3.3730189372
 20
2.3590401072
 30
0.0
 10
3.3728885455
 20
2.3583165061
 30
0.0
 10
3.3724120207
 20
2.3572568593
 30
0.0
 10
3.3716622554
 20
2.3561943541
 30
0.0
 10
3.370646484
 20
2.3551380486
 30
0.0
 10
3.3693758394
 20
2.3540933312
 30
0.0
 10
3.3678613322
 20
2.3530676455
 30
0.0
 10
3.3661154037
 20
2.3520706654
 30
0.0
 10
3.3634081807
 20
2.3507461153
 30
0.0
 10
3.3595598511
 20
2.3492460926
 30
0.0
 10
3.3544808564
 20
2.3477475181
 30
0.0
 10
3.3489838918
 20
2.3465536679
 30
0.0
 10
3.3451830931
 20
2.3459890341
 30
0.0
 10
3.3432528843
 20
2.3457675649
 30
0.0
  0
LINE
  5
360
100
AcDbEntity
  8
ALL_FEATURES
100
AcDbLine
 62
9
  6
CONTINUOUS
 10
3.394292581
 20
2.7269994806
 11
3.3739194578
 21
2.7082755819
  0
SPLINE
  5
361
100
AcDbEntity
  8
0
100
AcDbSpline
 62
9
  6
CONTINUOUS
 70
0
 71
3
 72
11
 73
7
 74
0
 42
0.0000001
 43
0.0000001
 44
0.0000000001
 40
0.0
 40
0.0
 40
0.0
 40
0.0
 40
0.2568798197
 40
0.5094535441
 40
0.7572931125
 40
1.0
 40
1.0
 40
1.0
 40
1.0
 10
3.3730297035
 20
2.3593851216
 30
0.0
 10
3.3746968734
 20
2.3465772444
 30
0.0
 10
3.3776411089
 20
2.3211274196
 30
0.0
 10
3.3809074081
 20
2.2831856165
 30
0.0
 10
3.3829926366
 20
2.2458741908
 30
0.0
 10
3.3836039898
 20
2.2212121796
 30
0.0
 10
3.3837069074
 20
2.2090093021
 30
0.0
  0
SPLINE
  5
362
100
AcDbEntity
  8
ALL_FEATURES
100
AcDbSpline
 62
9
  6
CONTINUOUS
 70
0
 71
3
 72
19
 73
15
 74
0
 42
0.0000001
 43
0.0000001
 44
0.0000000001
 40
0.0
 40
0.0
 40
0.0
 40
0.0
 40
0.1491296654
 40
0.295269365
 40
0.437254416
 40
0.5734252239
 40
0.6386197308
 40
0.7013777494
 40
0.7612417298
 40
0.817685431
 40
0.870150644
 40
0.9181328445
 40
0.9613463133
 40
1.0
 40
1.0
 40
1.0
 40
1.0
 10
3.3739194578
 20
2.7082755819
 30
0.0
 10
3.3720098572
 20
2.7064909984
 30
0.0
 10
3.3682465408
 20
2.7029386659
 30
0.0
 10
3.3627573575
 20
2.6975903508
 30
0.0
 10
3.3575543274
 20
2.6922763137
 30
0.0
 10
3.3534928498
 20
2.6878331143
 30
0.0
 10
3.35050624
 20
2.6842955508
 30
0.0
 10
3.3484657396
 20
2.6817116498
 30
0.0
 10
3.3466229488
 20
2.6791699453
 30
0.0
 10
3.3450148559
 20
2.6766851615
 30
0.0
 10
3.3436835016
 20
2.6742760418
 30
0.0
 10
3.3426747139
 20
2.6719634638
 30
0.0
 10
3.3420363862
 20
2.6697713386
 30
0.0
 10
3.3418859874
 20
2.6683314599
 30
0.0
 10
3.3419009985
 20
2.6676541736
 30
0.0
  0
SPLINE
  5
363
100
AcDbEntity
  8
ALL_FEATURES
100
AcDbSpline
 62
9
  6
CONTINUOUS
 70
0
 71
3
 72
17
 73
13
 74
0
 42
0.0000001
 43
0.0000001
 44
0.0000000001
 40
0.0
 40
0.0
 40
0.0
 40
0.0
 40
0.2670324068
 40
0.3990622769
 40
0.5294266782
 40
0.6571700194
 40
0.7195781455
 40
0.780608683
 40
0.8398304344
 40
0.8966634056
 40
0.950352821
 40
1.0
 40
1.0
 40
1.0
 40
1.0
 10
3.38552627
 20
2.6991830488
 30
0.0
 10
3.3839927833
 20
2.6942788401
 30
0.0
 10
3.3817193963
 20
2.6869439515
 30
0.0
 10
3.3788092644
 20
2.6771807948
 30
0.0
 10
3.376748511
 20
2.6699617555
 30
0.0
 10
3.3751633902
 20
2.6640006902
 30
0.0
 10
3.3740285522
 20
2.659302194
 30
0.0
 10
3.3732728072
 20
2.655869228
 30
0.0
 10
3.3726305011
 20
2.6525222252
 30
0.0
 10
3.3721345481
 20
2.6492926182
 30
0.0
 10
3.3718277801
 20
2.6462243223
 30
0.0
 10
3.3717827205
 20
2.6442324735
 30
0.0
 10
3.3718199694
 20
2.6432778643
 30
0.0
  0
SPLINE
  5
364
100
AcDbEntity
  8
0
100
AcDbSpline
 62
7
  6
CONTINUOUS
 70
0
 71
3
 72
9
 73
5
 74
0
 42
0.0000001
 43
0.0000001
 44
0.0000000001
 40
0.0
 40
0.0
 40
0.0
 40
0.0
 40
0.5241859693
 40
1.0
 40
1.0
 40
1.0
 40
1.0
 10
3.6033592115
 20
2.5179562707
 30
0.0
 10
3.6049173013
 20
2.516137069
 30
0.0
 10
3.6076853661
 20
2.5124835422
 30
0.0
 10
3.6099088001
 20
2.5084665751
 30
0.0
 10
3.6107879146
 20
2.506478032
 30
0.0
  0
SPLINE
  5
365
100
AcDbEntity
  8
0
100
AcDbSpline
 62
7
  6
CONTINUOUS
 70
0
 71
3
 72
27
 73
23
 74
0
 42
0.0000001
 43
0.0000001
 44
0.0000000001
 40
0.0
 40
0.0
 40
0.0
 40
0.0
 40
0.0529224159
 40
0.1015896305
 40
0.1246241634
 40
0.1469770786
 40
0.168852594
 40
0.1904728396
 40
0.2120688197
 40
0.2338738184
 40
0.2561229808
 40
0.2790425421
 40
0.3276115142
 40
0.3808868848
 40
0.4396835957
 40
0.5044357186
 40
0.5752096884
 40
0.6517462696
 40
0.7335414038
 40
0.8197143726
 40
0.9091251597
 40
1.0
 40
1.0
 40
1.0
 40
1.0
 10
3.6107879146
 20
2.506478032
 30
0.0
 10
3.6114501671
 20
2.5049800274
 30
0.0
 10
3.6125291908
 20
2.5020125652
 30
0.0
 10
3.6132326203
 20
2.4981970045
 30
0.0
 10
3.6133299564
 20
2.4952831559
 30
0.0
 10
3.6131810676
 20
2.4932027096
 30
0.0
 10
3.6128125047
 20
2.4911940868
 30
0.0
 10
3.6122253192
 20
2.4892624624
 30
0.0
 10
3.6114209494
 20
2.4874130622
 30
0.0
 10
3.6104007214
 20
2.4856510098
 30
0.0
 10
3.6091672013
 20
2.4839801932
 30
0.0
 10
3.6072075239
 20
2.4818350192
 30
0.0
 10
3.6041947453
 20
2.4793837625
 30
0.0
 10
3.59987329
 20
2.4768940483
 30
0.0
 10
3.5948152662
 20
2.4747752839
 30
0.0
 10
3.589058855
 20
2.4730083672
 30
0.0
 10
3.5826497536
 20
2.4715721247
 30
0.0
 10
3.5756465412
 20
2.4704419127
 30
0.0
 10
3.5681245551
 20
2.4695966906
 30
0.0
 10
3.5601792217
 20
2.4690096989
 30
0.0
 10
3.5519391463
 20
2.4686573537
 30
0.0
 10
3.5463590879
 20
2.468584032
 30
0.0
 10
3.543546664
 20
2.4685896885
 30
0.0
  0
SPLINE
  5
366
100
AcDbEntity
  8
ALL_FEATURES
100
AcDbSpline
 62
9
  6
CONTINUOUS
 70
0
 71
3
 72
23
 73
19
 74
0
 42
0.0000001
 43
0.0000001
 44
0.0000000001
 40
0.0
 40
0.0
 40
0.0
 40
0.0
 40
0.0364177056
 40
0.0773655369
 40
0.1226915969
 40
0.1722309881
 40
0.2258068599
 40
0.2831980935
 40
0.3441593831
 40
0.4084103553
 40
0.4756487861
 40
0.5455431726
 40
0.6177420604
 40
0.6918726265
 40
0.7675489192
 40
0.8443923169
 40
0.9220191394
 40
1.0
 40
1.0
 40
1.0
 40
1.0
 10
3.0999994115
 20
2.4281218986
 30
0.0
 10
3.0990049966
 20
2.4312935649
 30
0.0
 10
3.0970963445
 20
2.438096022
 30
0.0
 10
3.0945852516
 20
2.4490124888
 30
0.0
 10
3.0923114572
 20
2.4612013938
 30
0.0
 10
3.0903214574
 20
2.4746057484
 30
0.0
 10
3.0886627128
 20
2.4891638092
 30
0.0
 10
3.0873687653
 20
2.5048048798
 30
0.0
 10
3.0864739663
 20
2.5214494849
 30
0.0
 10
3.0859954499
 20
2.539010164
 30
0.0
 10
3.0859492587
 20
2.557392446
 30
0.0
 10
3.0863321369
 20
2.5764961385
 30
0.0
 10
3.0871370924
 20
2.596216101
 30
0.0
 10
3.0883452054
 20
2.6164439879
 30
0.0
 10
3.0899371618
 20
2.6370702988
 30
0.0
 10
3.0918665599
 20
2.6579879716
 30
0.0
 10
3.0940695609
 20
2.6790899079
 30
0.0
 10
3.0957050519
 20
2.6931983576
 30
0.0
 10
3.0965650567
 20
2.7002636476
 30
0.0
  0
SPLINE
  5
367
100
AcDbEntity
  8
ALL_FEATURES
100
AcDbSpline
 62
9
  6
CONTINUOUS
 70
0
 71
3
 72
15
 73
11
 74
0
 42
0.0000001
 43
0.0000001
 44
0.0000000001
 40
0.0
 40
0.0
 40
0.0
 40
0.0
 40
0.1168809611
 40
0.2356484123
 40
0.3566210478
 40
0.4803167601
 40
0.6069482433
 40
0.7363250939
 40
0.8678551481
 40
1.0
 40
1.0
 40
1.0
 40
1.0
 10
3.3718201701
 20
2.6432780584
 30
0.0
 10
3.3716835204
 20
2.6449206571
 30
0.0
 10
3.3710460058
 20
2.6482116247
 30
0.0
 10
3.3690839672
 20
2.6528791225
 30
0.0
 10
3.3661576874
 20
2.6571288704
 30
0.0
 10
3.3623955173
 20
2.6608150817
 30
0.0
 10
3.3579219944
 20
2.6638101399
 30
0.0
 10
3.3528948134
 20
2.666023683
 30
0.0
 10
3.3474906406
 20
2.6673628261
 30
0.0
 10
3.3437645132
 20
2.6676608292
 30
0.0
 10
3.3419009985
 20
2.6676541653
 30
0.0
  0
SPLINE
  5
368
100
AcDbEntity
  8
0
100
AcDbSpline
 62
9
  6
CONTINUOUS
 70
0
 71
3
 72
12
 73
8
 74
0
 42
0.0000001
 43
0.0000001
 44
0.0000000001
 40
0.0
 40
0.0
 40
0.0
 40
0.0
 40
0.2493309966
 40
0.374032421
 40
0.4988398403
 40
0.7489564555
 40
1.0
 40
1.0
 40
1.0
 40
1.0
 10
3.371853097
 20
2.6404226377
 30
0.0
 10
3.3720130124
 20
2.617065776
 30
0.0
 10
3.3722729177
 20
2.582027258
 30
0.0
 10
3.3725810444
 20
2.5352967891
 30
0.0
 10
3.372842596
 20
2.488492437
 30
0.0
 10
3.3730600071
 20
2.429851911
 30
0.0
 10
3.3730720499
 20
2.3829029279
 30
0.0
 10
3.373029681
 20
2.3593851249
 30
0.0
  0
SPLINE
  5
369
100
AcDbEntity
  8
ALL_FEATURES
100
AcDbSpline
 62
9
  6
CONTINUOUS
 70
0
 71
3
 72
15
 73
11
 74
0
 42
0.0000001
 43
0.0000001
 44
0.0000000001
 40
0.0
 40
0.0
 40
0.0
 40
0.0
 40
0.1187603847
 40
0.2390784612
 40
0.3610408374
 40
0.4850446367
 40
0.6112796285
 40
0.7396283179
 40
0.8696429073
 40
1.0
 40
1.0
 40
1.0
 40
1.0
 10
3.371853097
 20
2.6404226377
 30
0.0
 10
3.3717149509
 20
2.6421144591
 30
0.0
 10
3.3710765794
 20
2.6455000119
 30
0.0
 10
3.3691157591
 20
2.6503092512
 30
0.0
 10
3.3661919343
 20
2.6546933147
 30
0.0
 10
3.3624320348
 20
2.6585010083
 30
0.0
 10
3.3579596889
 20
2.6615996557
 30
0.0
 10
3.3529326046
 20
2.663894587
 30
0.0
 10
3.3475274655
 20
2.6652890435
 30
0.0
 10
3.3437984991
 20
2.665605603
 30
0.0
 10
3.3419352957
 20
2.6656031872
 30
0.0
  0
SPLINE
  5
36A
100
AcDbEntity
  8
0
100
AcDbSpline
 62
9
  6
CONTINUOUS
 70
0
 71
3
 72
12
 73
8
 74
0
 42
0.0000001
 43
0.0000001
 44
0.0000000001
 40
0.0
 40
0.0
 40
0.0
 40
0.0
 40
0.2500029254
 40
0.3750040537
 40
0.5000045015
 40
0.7500031037
 40
1.0
 40
1.0
 40
1.0
 40
1.0
 10
3.3419352957
 20
2.6656031872
 30
0.0
 10
3.3421085237
 20
2.642078952
 30
0.0
 10
3.3423932701
 20
2.6067928195
 30
0.0
 10
3.3427371559
 20
2.5597444519
 30
0.0
 10
3.3430331469
 20
2.5126961638
 30
0.0
 10
3.343284167
 20
2.4538854872
 30
0.0
 10
3.3433008178
 20
2.4068365358
 30
0.0
 10
3.3432528843
 20
2.383312279
 30
0.0
  0
SPLINE
  5
36B
100
AcDbEntity
  8
0
100
AcDbSpline
 62
9
  6
CONTINUOUS
 70
0
 71
3
 72
17
 73
13
 74
0
 42
0.0000001
 43
0.0000001
 44
0.0000000001
 40
0.0
 40
0.0
 40
0.0
 40
0.0
 40
0.1302039232
 40
0.259885553
 40
0.3242432339
 40
0.3881709052
 40
0.514478194
 40
0.6386560802
 40
0.7606946249
 40
0.8211088761
 40
0.8811555674
 40
1.0
 40
1.0
 40
1.0
 40
1.0
 10
3.3432528842
 20
2.383312279
 30
0.0
 10
3.345058812
 20
2.3833116313
 30
0.0
 10
3.3486696297
 20
2.3830120241
 30
0.0
 10
3.3530516086
 20
2.3819082619
 30
0.0
 10
3.3563862886
 20
2.3806005577
 30
0.0
 10
3.3595563337
 20
2.3790367615
 30
0.0
 10
3.3632058627
 20
2.376605698
 30
0.0
 10
3.3669539453
 20
2.3730100971
 30
0.0
 10
3.3694448167
 20
2.3695290654
 30
0.0
 10
3.3709927148
 20
2.366537496
 30
0.0
 10
3.3722261405
 20
2.3634521372
 30
0.0
 10
3.3728089452
 20
2.3610186506
 30
0.0
 10
3.373029681
 20
2.3593851251
 30
0.0
  0
LINE
  5
36C
100
AcDbEntity
  8
ALL_FEATURES
100
AcDbLine
 62
9
  6
CONTINUOUS
 10
3.0999994399
 20
2.7269994806
 11
3.1083774066
 21
2.6989609791
  0
LINE
  5
36D
100
AcDbEntity
  8
ALL_FEATURES
100
AcDbLine
 62
9
  6
CONTINUOUS
 10
3.0999994443
 20
2.7269994806
 11
3.1201512739
 21
2.7079566921
  0
LINE
  5
36E
100
AcDbEntity
  8
ALL_FEATURES
100
AcDbLine
 62
7
  6
CONTINUOUS
 10
3.5813551223
 20
2.4835695765
 11
3.5834175231
 21
2.4883376609
  0
SPLINE
  5
36F
100
AcDbEntity
  8
ALL_FEATURES
100
AcDbSpline
 62
7
  6
CONTINUOUS
 70
0
 71
3
 72
15
 73
11
 74
0
 42
0.0000001
 43
0.0000001
 44
0.0000000001
 40
0.0
 40
0.0
 40
0.0
 40
0.0
 40
0.0977593928
 40
0.2014368533
 40
0.3124494745
 40
0.4317760413
 40
0.5600715348
 40
0.6976294968
 40
0.8443829605
 40
1.0
 40
1.0
 40
1.0
 40
1.0
 10
3.6040404101
 20
2.4921752135
 30
0.0
 10
3.6035109284
 20
2.4915663533
 30
0.0
 10
3.6023081193
 20
2.4904061653
 30
0.0
 10
3.6002009793
 20
2.4889065491
 30
0.0
 10
3.5977672853
 20
2.4875982931
 30
0.0
 10
3.595024699
 20
2.4864733301
 30
0.0
 10
3.5919892436
 20
2.4855179935
 30
0.0
 10
3.588676098
 20
2.4847207767
 30
0.0
 10
3.5851030761
 20
2.484066308
 30
0.0
 10
3.5826302171
 20
2.4837241354
 30
0.0
 10
3.5813551223
 20
2.4835695765
 30
0.0
  0
SPLINE
  5
370
100
AcDbEntity
  8
ALL_FEATURES
100
AcDbSpline
 62
9
  6
CONTINUOUS
 70
0
 71
3
 72
20
 73
16
 74
0
 42
0.0000001
 43
0.0000001
 44
0.0000000001
 40
0.0
 40
0.0
 40
0.0
 40
0.0
 40
0.155723369
 40
0.2326321708
 40
0.3083638754
 40
0.4547946464
 40
0.5920363161
 40
0.6563456491
 40
0.7173545169
 40
0.7747828771
 40
0.8283632824
 40
0.8778716623
 40
0.9231073318
 40
0.9638774928
 40
1.0
 40
1.0
 40
1.0
 40
1.0
 10
3.397165971
 20
2.7002636476
 30
0.0
 10
3.3986105419
 20
2.6861488712
 30
0.0
 10
3.4005917537
 20
2.6650441185
 30
0.0
 10
3.4027896373
 20
2.6370335814
 30
0.0
 10
3.4045906719
 20
2.6098431205
 30
0.0
 10
3.4060470631
 20
2.5771232334
 30
0.0
 10
3.4063289293
 20
2.5454096432
 30
0.0
 10
3.4057710655
 20
2.5214915986
 30
0.0
 10
3.4049981317
 20
2.5048572659
 30
0.0
 10
3.4038886259
 20
2.48922177
 30
0.0
 10
3.4024663392
 20
2.4746639402
 30
0.0
 10
3.4007691462
 20
2.4612546026
 30
0.0
 10
3.3988393246
 20
2.4490568725
 30
0.0
 10
3.396722001
 20
2.4381303637
 30
0.0
 10
3.3951226267
 20
2.4313067765
 30
0.0
 10
3.3942926426
 20
2.4281218986
 30
0.0
  0
SPLINE
  5
371
100
AcDbEntity
  8
ALL_FEATURES
100
AcDbSpline
 62
9
  6
CONTINUOUS
 70
0
 71
3
 72
9
 73
5
 74
0
 42
0.0000001
 43
0.0000001
 44
0.0000000001
 40
0.0
 40
0.0
 40
0.0
 40
0.0
 40
0.5096146919
 40
1.0
 40
1.0
 40
1.0
 40
1.0
 10
3.3718199639
 20
2.6432778039
 30
0.0
 10
3.3727885647
 20
2.6299288616
 30
0.0
 10
3.3744512273
 20
2.6037164977
 30
0.0
 10
3.375491982
 20
2.5774704599
 30
0.0
 10
3.3758125991
 20
2.5645954365
 30
0.0
  0
SPLINE
  5
372
100
AcDbEntity
  8
ALL_FEATURES
100
AcDbSpline
 62
7
  6
CONTINUOUS
 70
0
 71
3
 72
11
 73
7
 74
0
 42
0.0000001
 43
0.0000001
 44
0.0000000001
 40
0.0
 40
0.0
 40
0.0
 40
0.0
 40
0.2687041617
 40
0.5258011301
 40
0.7698925902
 40
1.0
 40
1.0
 40
1.0
 40
1.0
 10
3.5218212865
 20
2.4824387911
 30
0.0
 10
3.5201060041
 20
2.48249937
 30
0.0
 10
3.5167503948
 20
2.4826446807
 30
0.0
 10
3.5118420004
 20
2.4829540491
 30
0.0
 10
3.5071890809
 20
2.4833742587
 30
0.0
 10
3.5041834097
 20
2.4837577095
 30
0.0
 10
3.502730307
 20
2.4839787239
 30
0.0
  0
SPLINE
  5
373
100
AcDbEntity
  8
ALL_FEATURES
100
AcDbSpline
 62
9
  6
CONTINUOUS
 70
0
 71
3
 72
18
 73
14
 74
0
 42
0.0000001
 43
0.0000001
 44
0.0000000001
 40
0.0
 40
0.0
 40
0.0
 40
0.0
 40
0.1345729216
 40
0.2683266475
 40
0.4008916251
 40
0.5316637171
 40
0.6596110478
 40
0.7220011856
 40
0.7829056089
 40
0.8418558433
 40
0.8982313091
 40
0.9512449637
 40
1.0
 40
1.0
 40
1.0
 40
1.0
 10
3.1083760521
 20
2.6989598403
 30
0.0
 10
3.109112347
 20
2.6964795949
 30
0.0
 10
3.1105736351
 20
2.6915321696
 30
0.0
 10
3.1127232934
 20
2.6841306526
 30
0.0
 10
3.1147976174
 20
2.676783474
 30
0.0
 10
3.1167547654
 20
2.6695196966
 30
0.0
 10
3.1182472494
 20
2.6635285321
 30
0.0
 10
3.119299734
 20
2.6588140721
 30
0.0
 10
3.1199885664
 20
2.6553783245
 30
0.0
 10
3.1205568916
 20
2.6520376105
 30
0.0
 10
3.1209694482
 20
2.6488262023
 30
0.0
 10
3.1211811194
 20
2.6457913392
 30
0.0
 10
3.1211496352
 20
2.6438302581
 30
0.0
 10
3.1210700158
 20
2.6428963072
 30
0.0
  0
SPLINE
  5
374
100
AcDbEntity
  8
ALL_FEATURES
100
AcDbSpline
 62
7
  6
CONTINUOUS
 70
0
 71
3
 72
9
 73
5
 74
0
 42
0.0000001
 43
0.0000001
 44
0.0000000001
 40
0.0
 40
0.0
 40
0.0
 40
0.0
 40
0.510645356
 40
1.0
 40
1.0
 40
1.0
 40
1.0
 10
3.5218212865
 20
2.4824387911
 30
0.0
 10
3.5191806267
 20
2.4830604729
 30
0.0
 10
3.5140523222
 20
2.484469394
 30
0.0
 10
3.5090520785
 20
2.4862864065
 30
0.0
 10
3.5066529852
 20
2.4872879161
 30
0.0
  0
SPLINE
  5
375
100
AcDbEntity
  8
ALL_FEATURES
100
AcDbSpline
 62
7
  6
CONTINUOUS
 70
0
 71
3
 72
10
 73
6
 74
0
 42
0.0000001
 43
0.0000001
 44
0.0000000001
 40
0.0
 40
0.0
 40
0.0
 40
0.0
 40
0.2681300696
 40
0.5244412653
 40
1.0
 40
1.0
 40
1.0
 40
1.0
 10
3.5021405626
 20
2.4893398428
 30
0.0
 10
3.5008292229
 20
2.4899885851
 30
0.0
 10
3.4983011691
 20
2.4913353278
 30
0.0
 10
3.4936671547
 20
2.4942188798
 30
0.0
 10
3.4905061458
 20
2.4966982947
 30
0.0
 10
3.4886266636
 20
2.4984873864
 30
0.0
  0
SPLINE
  5
376
100
AcDbEntity
  8
ALL_FEATURES
100
AcDbSpline
 62
9
  6
CONTINUOUS
 70
0
 71
3
 72
20
 73
16
 74
0
 42
0.0000001
 43
0.0000001
 44
0.0000000001
 40
0.0
 40
0.0
 40
0.0
 40
0.0
 40
0.1508867948
 40
0.2985362138
 40
0.441684771
 40
0.5785182882
 40
0.6437894538
 40
0.7064199896
 40
0.7659130294
 40
0.8217203301
 40
0.8732880609
 40
0.9201659364
 40
0.9418000328
 40
0.9622597487
 40
1.0
 40
1.0
 40
1.0
 40
1.0
 10
3.1201512739
 20
2.7079566921
 30
0.0
 10
3.122048565
 20
2.7061349385
 30
0.0
 10
3.1257845579
 20
2.7025117781
 30
0.0
 10
3.1312240257
 20
2.6970616209
 30
0.0
 10
3.1363593411
 20
2.6916567449
 30
0.0
 10
3.1403457381
 20
2.6871444133
 30
0.0
 10
3.1432523269
 20
2.6835588675
 30
0.0
 10
3.1452189337
 20
2.6809493503
 30
0.0
 10
3.1469731948
 20
2.6783897761
 30
0.0
 10
3.1484760306
 20
2.6758965347
 30
0.0
 10
3.1496831166
 20
2.6734901381
 30
0.0
 10
3.1504226687
 20
2.6715252877
 30
0.0
 10
3.1508027579
 20
2.6700195594
 30
0.0
 10
3.1510255217
 20
2.6686451953
 30
0.0
 10
3.1510377403
 20
2.6676186815
 30
0.0
 10
3.1509554388
 20
2.6669659502
 30
0.0
  0
SPLINE
  5
377
100
AcDbEntity
  8
ALL_FEATURES
100
AcDbSpline
 62
9
  6
CONTINUOUS
 70
0
 71
3
 72
18
 73
14
 74
0
 42
0.0000001
 43
0.0000001
 44
0.0000000001
 40
0.0
 40
0.0
 40
0.0
 40
0.0
 40
0.1319708566
 40
0.2630908013
 40
0.3279068408
 40
0.392078589
 40
0.4555738905
 40
0.5183717803
 40
0.6417913428
 40
0.7628137757
 40
0.8227036034
 40
0.8822087499
 40
1.0
 40
1.0
 40
1.0
 40
1.0
 10
3.1509554388
 20
2.6669659446
 30
0.0
 10
3.1490980024
 20
2.6670008778
 30
0.0
 10
3.1453828644
 20
2.6667581367
 30
0.0
 10
3.1408666327
 20
2.6656967152
 30
0.0
 10
3.1374391463
 20
2.6643966026
 30
0.0
 10
3.1349970175
 20
2.6632144404
 30
0.0
 10
3.1326943761
 20
2.661833494
 30
0.0
 10
3.1298539393
 20
2.6597555423
 30
0.0
 10
3.12673539
 20
2.6567188345
 30
0.0
 10
3.1242860265
 20
2.6531664902
 30
0.0
 10
3.1228169706
 20
2.6501111982
 30
0.0
 10
3.1216842011
 20
2.6469661305
 30
0.0
 10
3.121204556
 20
2.6444923887
 30
0.0
 10
3.1210649229
 20
2.642840121
 30
0.0
  0
LINE
  5
378
100
AcDbEntity
  8
ALL_FEATURES
100
AcDbLine
 62
9
  6
CONTINUOUS
 10
3.1509554388
 20
2.6669659502
 11
3.1507828722
 21
2.6656031872
  0
SPLINE
  5
379
100
AcDbEntity
  8
0
100
AcDbSpline
 62
9
  6
CONTINUOUS
 70
0
 71
3
 72
12
 73
8
 74
0
 42
0.0000001
 43
0.0000001
 44
0.0000000001
 40
0.0
 40
0.0
 40
0.0
 40
0.0
 40
0.2500534407
 40
0.375076202
 40
0.5000899507
 40
0.7500784715
 40
1.0
 40
1.0
 40
1.0
 40
1.0
 10
3.1507828722
 20
2.6656031872
 30
0.0
 10
3.1486501208
 20
2.6420793658
 30
0.0
 10
3.1454258698
 20
2.6067962929
 30
0.0
 10
3.1411618864
 20
2.5597501133
 30
0.0
 10
3.1369456767
 20
2.5127057834
 30
0.0
 10
3.1317936135
 20
2.4539000012
 30
0.0
 10
3.1278540907
 20
2.4068424205
 30
0.0
 10
3.1259402592
 20
2.383312279
 30
0.0
  0
SPLINE
  5
37A
100
AcDbEntity
  8
ALL_FEATURES
100
AcDbSpline
 62
9
  6
CONTINUOUS
 70
0
 71
3
 72
17
 73
13
 74
0
 42
0.0000001
 43
0.0000001
 44
0.0000000001
 40
0.0
 40
0.0
 40
0.0
 40
0.0
 40
0.1304215164
 40
0.195573924
 40
0.2604137792
 40
0.3885509156
 40
0.5145627191
 40
0.6383962867
 40
0.7602848275
 40
0.8207047151
 40
0.8808152791
 40
1.0
 40
1.0
 40
1.0
 40
1.0
 10
3.1507828722
 20
2.6656031872
 30
0.0
 10
3.1490165802
 20
2.6656313755
 30
0.0
 10
3.1463581086
 20
2.6654564858
 30
0.0
 10
3.1428892574
 20
2.6648026312
 30
0.0
 10
3.1395141352
 20
2.6638765319
 30
0.0
 10
3.1355038707
 20
2.662209891
 30
0.0
 10
3.1311560688
 20
2.6594587205
 30
0.0
 10
3.1274240712
 20
2.6560391417
 30
0.0
 10
3.1249106052
 20
2.652708397
 30
0.0
 10
3.1233251593
 20
2.6498276275
 30
0.0
 10
3.1220399074
 20
2.6468421621
 30
0.0
 10
3.1214030689
 20
2.6444780936
 30
0.0
 10
3.1211377503
 20
2.6428857277
 30
0.0
  0
SPLINE
  5
37B
100
AcDbEntity
  8
0
100
AcDbSpline
 62
9
  6
CONTINUOUS
 70
0
 71
3
 72
17
 73
13
 74
0
 42
0.0000001
 43
0.0000001
 44
0.0000000001
 40
0.0
 40
0.0
 40
0.0
 40
0.0
 40
0.1190730919
 40
0.1791296614
 40
0.2394965821
 40
0.3613173533
 40
0.4852113721
 40
0.6112851581
 40
0.6751499967
 40
0.73949532
 40
0.8693397433
 40
1.0
 40
1.0
 40
1.0
 40
1.0
 10
3.0961924257
 20
2.3599068524
 30
0.0
 10
3.0964179105
 20
2.3615307329
 30
0.0
 10
3.0970061019
 20
2.3639476625
 30
0.0
 10
3.0982458187
 20
2.3670072173
 30
0.0
 10
3.0997970175
 20
2.3699653955
 30
0.0
 10
3.1022893394
 20
2.3733981605
 30
0.0
 10
3.1060357689
 20
2.3769265902
 30
0.0
 10
3.1096795798
 20
2.3792943524
 30
0.0
 10
3.1128421185
 20
2.380804789
 30
0.0
 10
3.1161707664
 20
2.3820587225
 30
0.0
 10
3.1205444569
 20
2.3830935458
 30
0.0
 10
3.1241414447
 20
2.3833380311
 30
0.0
 10
3.1259402592
 20
2.383312279
 30
0.0
  0
SPLINE
  5
37C
100
AcDbEntity
  8
ALL_FEATURES
100
AcDbSpline
 62
9
  6
CONTINUOUS
 70
0
 71
3
 72
13
 73
9
 74
0
 42
0.0000001
 43
0.0000001
 44
0.0000000001
 40
0.0
 40
0.0
 40
0.0
 40
0.0
 40
0.2745324562
 40
0.5355172573
 40
0.6599816333
 40
0.7795649903
 40
0.8933221935
 40
1.0
 40
1.0
 40
1.0
 40
1.0
 10
3.3942925102
 20
2.4281213415
 30
0.0
 10
3.3930268124
 20
2.4298186456
 30
0.0
 10
3.390501082
 20
2.4330875028
 30
0.0
 10
3.3872505096
 20
2.4370060306
 30
0.0
 10
3.3846695337
 20
2.4399234796
 30
0.0
 10
3.38279168
 20
2.441945928
 30
0.0
 10
3.3809524837
 20
2.443815655
 30
0.0
 10
3.3797168193
 20
2.4449841766
 30
0.0
 10
3.3791049472
 20
2.445534172
 30
0.0
  0
SPLINE
  5
37D
100
AcDbEntity
  8
ALL_FEATURES
100
AcDbSpline
 62
9
  6
CONTINUOUS
 70
0
 71
3
 72
9
 73
5
 74
0
 42
0.0000001
 43
0.0000001
 44
0.0000000001
 40
0.0
 40
0.0
 40
0.0
 40
0.0
 40
0.5074982118
 40
1.0
 40
1.0
 40
1.0
 40
1.0
 10
3.3942901902
 20
2.4281218986
 30
0.0
 10
3.3918386807
 20
2.4290720209
 30
0.0
 10
3.3869458593
 20
2.4307877478
 30
0.0
 10
3.3819473063
 20
2.4321677368
 30
0.0
 10
3.3794643884
 20
2.4327553196
 30
0.0
  0
SPLINE
  5
37E
100
AcDbEntity
  8
ALL_FEATURES
100
AcDbSpline
 62
9
  6
CONTINUOUS
 70
0
 71
3
 72
16
 73
12
 74
0
 42
0.0000001
 43
0.0000001
 44
0.0000000001
 40
0.0
 40
0.0
 40
0.0
 40
0.0
 40
0.2163789497
 40
0.3298718154
 40
0.4477487362
 40
0.5712712658
 40
0.7024486858
 40
0.7718253214
 40
0.8443167649
 40
0.9203356191
 40
1.0
 40
1.0
 40
1.0
 40
1.0
 10
3.3942928688
 20
2.9456692243
 30
0.0
 10
3.3919198813
 20
2.9500166771
 30
0.0
 10
3.3884048758
 20
2.9567019659
 30
0.0
 10
3.3839303359
 20
2.9659235698
 30
0.0
 10
3.3806007918
 20
2.9733352759
 30
0.0
 10
3.3774292817
 20
2.9812550355
 30
0.0
 10
3.3750857194
 20
2.9883014138
 30
0.0
 10
3.373511953
 20
2.9943525853
 30
0.0
 10
3.3725330577
 20
2.9992466369
 30
0.0
 10
3.3718812737
 20
3.0044339038
 30
0.0
 10
3.3717690718
 20
3.0080040716
 30
0.0
 10
3.3718201545
 20
3.0098268757
 30
0.0
  0
SPLINE
  5
37F
100
AcDbEntity
  8
ALL_FEATURES
100
AcDbSpline
 62
9
  6
CONTINUOUS
 70
0
 71
3
 72
17
 73
13
 74
0
 42
0.0000001
 43
0.0000001
 44
0.0000000001
 40
0.0
 40
0.0
 40
0.0
 40
0.0
 40
0.1142571406
 40
0.2318180791
 40
0.3524317221
 40
0.4760019441
 40
0.6025801335
 40
0.732281333
 40
0.7983679822
 40
0.8651585308
 40
0.9324680517
 40
1.0
 40
1.0
 40
1.0
 40
1.0
 10
3.3942931135
 20
2.9456695637
 30
0.0
 10
3.3913942035
 20
2.9472047261
 30
0.0
 10
3.3856096921
 20
2.9505066927
 30
0.0
 10
3.3771564847
 20
2.9560808158
 30
0.0
 10
3.3689131064
 20
2.9624152216
 30
0.0
 10
3.3610449671
 20
2.9696083662
 30
0.0
 10
3.3538000062
 20
2.9777903754
 30
0.0
 10
3.3486379004
 20
2.9855253733
 30
0.0
 10
3.3453441342
 20
2.9923191026
 30
0.0
 10
3.3434054955
 20
2.9977440026
 30
0.0
 10
3.3421563007
 20
3.0034134658
 30
0.0
 10
3.3418806039
 20
3.0072935768
 30
0.0
 10
3.3419011104
 20
3.0092323004
 30
0.0
  0
SPLINE
  5
380
100
AcDbEntity
  8
ALL_FEATURES
100
AcDbSpline
 62
9
  6
CONTINUOUS
 70
0
 71
3
 72
23
 73
19
 74
0
 42
0.0000001
 43
0.0000001
 44
0.0000000001
 40
0.0
 40
0.0
 40
0.0
 40
0.0
 40
0.1861192923
 40
0.3664208364
 40
0.5336361069
 40
0.6105377588
 40
0.6820891648
 40
0.7476581958
 40
0.806721661
 40
0.8587842385
 40
0.9033520066
 40
0.9399800409
 40
0.9552341805
 40
0.9684146334
 40
0.9794977943
 40
0.9884628813
 40
0.995295566
 40
1.0
 40
1.0
 40
1.0
 40
1.0
 10
3.3419011104
 20
3.0092323008
 30
0.0
 10
3.3437587355
 20
3.0092183105
 30
0.0
 10
3.347416004
 20
3.0092008818
 30
0.0
 10
3.3527423117
 20
3.0092049701
 30
0.0
 10
3.3569784136
 20
3.0092348929
 30
0.0
 10
3.3601288819
 20
3.0092754339
 30
0.0
 10
3.3622647523
 20
3.0093121854
 30
0.0
 10
3.364222409
 20
3.0093558714
 30
0.0
 10
3.3659853226
 20
3.0094059932
 30
0.0
 10
3.3675383335
 20
3.0094619762
 30
0.0
 10
3.3688670085
 20
3.0095232823
 30
0.0
 10
3.3698280089
 20
3.0095811832
 30
0.0
 10
3.3704754654
 20
3.0096315127
 30
0.0
 10
3.370868252
 20
3.0096678109
 30
0.0
 10
3.3711978334
 20
3.0097048653
 30
0.0
 10
3.3714636483
 20
3.0097422735
 30
0.0
 10
3.3716646793
 20
3.0097800454
 30
0.0
 10
3.3717764847
 20
3.0098096217
 30
0.0
 10
3.3718201552
 20
3.0098268759
 30
0.0
  0
SPLINE
  5
381
100
AcDbEntity
  8
0
100
AcDbSpline
 62
9
  6
CONTINUOUS
 70
0
 71
3
 72
12
 73
8
 74
0
 42
0.0000001
 43
0.0000001
 44
0.0000000001
 40
0.0
 40
0.0
 40
0.0
 40
0.0
 40
0.249999991
 40
0.3749999899
 40
0.499999992
 40
0.7500000015
 40
1.0
 40
1.0
 40
1.0
 40
1.0
 10
3.3419352957
 20
3.0138112237
 30
0.0
 10
3.3421085107
 20
3.0696522949
 30
0.0
 10
3.3423932676
 20
3.1534138228
 30
0.0
 10
3.3427371683
 20
3.2650959775
 30
0.0
 10
3.3430331605
 20
3.3767782743
 30
0.0
 10
3.3432841707
 20
3.5163814475
 30
0.0
 10
3.3433008182
 20
3.6280642086
 30
0.0
 10
3.3432528855
 20
3.6839055296
 30
0.0
  0
SPLINE
  5
382
100
AcDbEntity
  8
ALL_FEATURES
100
AcDbSpline
 62
9
  6
CONTINUOUS
 70
0
 71
3
 72
22
 73
18
 74
0
 42
0.0000001
 43
0.0000001
 44
0.0000000001
 40
0.0
 40
0.0
 40
0.0
 40
0.0
 40
0.184591667
 40
0.3634664449
 40
0.5294768903
 40
0.6058958906
 40
0.6770641572
 40
0.7423674369
 40
0.801302105
 40
0.8533979001
 40
0.898197042
 40
0.9353105942
 40
0.9645744189
 40
0.9762585805
 40
0.9860005714
 40
0.9938639917
 40
1.0
 40
1.0
 40
1.0
 40
1.0
 10
3.3419352957
 20
3.0138112237
 30
0.0
 10
3.3437919399
 20
3.0138055092
 30
0.0
 10
3.3474478994
 20
3.0138252912
 30
0.0
 10
3.352772382
 20
3.0139445238
 30
0.0
 10
3.3570066096
 20
3.01412117
 30
0.0
 10
3.3601553261
 20
3.0143085817
 30
0.0
 10
3.3622910327
 20
3.0144641201
 30
0.0
 10
3.3642488974
 20
3.0146373978
 30
0.0
 10
3.3660125114
 20
3.0148265282
 30
0.0
 10
3.3675668049
 20
3.0150296351
 30
0.0
 10
3.3688978134
 20
3.0152444369
 30
0.0
 10
3.3699933982
 20
3.0154697002
 30
0.0
 10
3.370752501
 20
3.0156747391
 30
0.0
 10
3.3712318853
 20
3.0158491971
 30
0.0
 10
3.3715006279
 20
3.0159711058
 30
0.0
 10
3.3717061854
 20
3.0160934721
 30
0.0
 10
3.3718139435
 20
3.0161867563
 30
0.0
 10
3.3718530963
 20
3.0162344642
 30
0.0
  0
SPLINE
  5
383
100
AcDbEntity
  8
0
100
AcDbSpline
 62
9
  6
CONTINUOUS
 70
0
 71
3
 72
12
 73
8
 74
0
 42
0.0000001
 43
0.0000001
 44
0.0000000001
 40
0.0
 40
0.0
 40
0.0
 40
0.0
 40
0.249971257
 40
0.3749584629
 40
0.4999502768
 40
0.7499555152
 40
1.0
 40
1.0
 40
1.0
 40
1.0
 10
3.3718530963
 20
3.0162344642
 30
0.0
 10
3.3720130596
 20
3.072068086
 30
0.0
 10
3.3722728609
 20
3.1558188128
 30
0.0
 10
3.372580966
 20
3.2674878259
 30
0.0
 10
3.3728423248
 20
3.3791645488
 30
0.0
 10
3.3730597153
 20
3.5187743687
 30
0.0
 10
3.3730721394
 20
3.6304660741
 30
0.0
 10
3.3730296822
 20
3.6863162652
 30
0.0
  0
SPLINE
  5
384
100
AcDbEntity
  8
0
100
AcDbSpline
 62
9
  6
CONTINUOUS
 70
0
 71
3
 72
21
 73
17
 74
0
 42
0.0000001
 43
0.0000001
 44
0.0000000001
 40
0.0
 40
0.0
 40
0.0
 40
0.0
 40
0.1800278212
 40
0.3545092791
 40
0.5173138451
 40
0.6633686935
 40
0.7286590368
 40
0.7880516685
 40
0.8410745696
 40
0.8873616127
 40
0.926569312
 40
0.9584329955
 40
0.9715801076
 40
0.9828699221
 40
0.9923239393
 40
1.0
 40
1.0
 40
1.0
 40
1.0
 10
3.3432528854
 20
3.6839055296
 30
0.0
 10
3.3450527101
 20
3.6839070618
 30
0.0
 10
3.3485969521
 20
3.6839389403
 30
0.0
 10
3.3537673563
 20
3.6840711742
 30
0.0
 10
3.3585951526
 20
3.6842838672
 30
0.0
 10
3.3623280866
 20
3.6845294385
 30
0.0
 10
3.3650245065
 20
3.6847662366
 30
0.0
 10
3.3667915098
 20
3.6849518049
 30
0.0
 10
3.368365776
 20
3.685150508
 30
0.0
 10
3.3697348876
 20
3.6853601621
 30
0.0
 10
3.3708878307
 20
3.6855789982
 30
0.0
 10
3.3717068242
 20
3.6857775019
 30
0.0
 10
3.3722444183
 20
3.6859448889
 30
0.0
 10
3.3725621708
 20
3.6860632647
 30
0.0
 10
3.3728204822
 20
3.6861822094
 30
0.0
 10
3.3729679623
 20
3.6862706665
 30
0.0
 10
3.3730296822
 20
3.6863162722
 30
0.0
  0
SPLINE
  5
385
100
AcDbEntity
  8
ALL_FEATURES
100
AcDbSpline
 62
9
  6
CONTINUOUS
 70
0
 71
3
 72
17
 73
13
 74
0
 42
0.0000001
 43
0.0000001
 44
0.0000000001
 40
0.0
 40
0.0
 40
0.0
 40
0.0
 40
0.1136671527
 40
0.2308707739
 40
0.3513316028
 40
0.4749337949
 40
0.6017153593
 40
0.731753
 40
0.7980359627
 40
0.8650043131
 40
0.932437168
 40
1.0
 40
1.0
 40
1.0
 40
1.0
 10
3.0999991524
 20
2.9456695637
 30
0.0
 10
3.1028820214
 20
2.9472410443
 30
0.0
 10
3.1086341501
 20
2.9506262698
 30
0.0
 10
3.1170293858
 20
2.9563418806
 30
0.0
 10
3.1252054355
 20
2.9628443362
 30
0.0
 10
3.1329848937
 20
2.970233364
 30
0.0
 10
3.140100559
 20
2.9786398383
 30
0.0
 10
3.1450940922
 20
2.9865815076
 30
0.0
 10
3.1481929194
 20
2.9935405974
 30
0.0
 10
3.1499463155
 20
2.9990814376
 30
0.0
 10
3.1509683665
 20
3.0048433493
 30
0.0
 10
3.1510677022
 20
3.0087611573
 30
0.0
 10
3.1509553142
 20
3.0107095239
 30
0.0
  0
SPLINE
  5
386
100
AcDbEntity
  8
ALL_FEATURES
100
AcDbSpline
 62
9
  6
CONTINUOUS
 70
0
 71
3
 72
17
 73
13
 74
0
 42
0.0000001
 43
0.0000001
 44
0.0000000001
 40
0.0
 40
0.0
 40
0.0
 40
0.0
 40
0.1056289145
 40
0.2147996123
 40
0.3278432993
 40
0.4455096335
 40
0.5691009256
 40
0.7006894663
 40
0.7704220912
 40
0.8433642046
 40
0.9198901668
 40
1.0
 40
1.0
 40
1.0
 40
1.0
 10
3.0999991822
 20
2.945669111
 30
0.0
 10
3.1011176251
 20
2.9478344203
 30
0.0
 10
3.1033572675
 20
2.9522557031
 30
0.0
 10
3.1066564847
 20
2.9590628825
 30
0.0
 10
3.1099233363
 20
2.9661926869
 30
0.0
 10
3.1131102478
 20
2.9737222732
 30
0.0
 10
3.1161338637
 20
2.9817789379
 30
0.0
 10
3.118342216
 20
2.9889512272
 30
0.0
 10
3.1197899867
 20
2.9951139481
 30
0.0
 10
3.1206575092
 20
3.0001003224
 30
0.0
 10
3.121174355
 20
3.0053775105
 30
0.0
 10
3.1211773792
 20
3.0090005415
 30
0.0
 10
3.1210649297
 20
3.0108454378
 30
0.0
  0
SPLINE
  5
387
100
AcDbEntity
  8
ALL_FEATURES
100
AcDbSpline
 62
9
  6
CONTINUOUS
 70
0
 71
3
 72
23
 73
19
 74
0
 42
0.0000001
 43
0.0000001
 44
0.0000000001
 40
0.0
 40
0.0
 40
0.0
 40
0.0
 40
0.0050428446
 40
0.0121052344
 40
0.0212374205
 40
0.0324461004
 40
0.0457216757
 40
0.0610471836
 40
0.0977618096
 40
0.1423587773
 40
0.1944066982
 40
0.2534208336
 40
0.3189125952
 40
0.3903643698
 40
0.4671494337
 40
0.6340997823
 40
0.8141260219
 40
1.0
 40
1.0
 40
1.0
 40
1.0
 10
3.1210649344
 20
3.0108454391
 30
0.0
 10
3.1211078231
 20
3.0108191038
 30
0.0
 10
3.1212204662
 20
3.0107726289
 30
0.0
 10
3.121424477
 20
3.0107153479
 30
0.0
 10
3.1216926695
 20
3.0106604182
 30
0.0
 10
3.122024104
 20
3.0106081585
 30
0.0
 10
3.1224184211
 20
3.0105589413
 30
0.0
 10
3.1230670566
 20
3.0104937385
 30
0.0
 10
3.1240292269
 20
3.0104248193
 30
0.0
 10
3.125358703
 20
3.0103607286
 30
0.0
 10
3.1269115079
 20
3.0103118926
 30
0.0
 10
3.1286732788
 20
3.0102787947
 30
0.0
 10
3.130628937
 20
3.01026195
 30
0.0
 10
3.1327620189
 20
3.0102617154
 30
0.0
 10
3.1359076008
 20
3.0102840961
 30
0.0
 10
3.1401363506
 20
3.0103550768
 30
0.0
 10
3.1454524174
 20
3.0105000969
 30
0.0
 10
3.1491018155
 20
3.0106333178
 30
0.0
 10
3.1509553142
 20
3.0107095242
 30
0.0
  0
SPLINE
  5
388
100
AcDbEntity
  8
0
100
AcDbSpline
 62
9
  6
CONTINUOUS
 70
0
 71
3
 72
12
 73
8
 74
0
 42
0.0000001
 43
0.0000001
 44
0.0000000001
 40
0.0
 40
0.0
 40
0.0
 40
0.0
 40
0.2499715884
 40
0.3749588955
 40
0.4999507554
 40
0.7499558942
 40
1.0
 40
1.0
 40
1.0
 40
1.0
 10
3.1208934633
 20
3.0151859568
 30
0.0
 10
3.1187741669
 20
3.0710178201
 30
0.0
 10
3.1155750563
 20
3.1547651866
 30
0.0
 10
3.1113472638
 20
3.26643102
 30
0.0
 10
3.107165595
 20
3.378106095
 30
0.0
 10
3.1020465452
 20
3.5177175535
 30
0.0
 10
3.098111646
 20
3.6294161739
 30
0.0
 10
3.096192427
 20
3.685271491
 30
0.0
  0
SPLINE
  5
389
100
AcDbEntity
  8
ALL_FEATURES
100
AcDbSpline
 62
9
  6
CONTINUOUS
 70
0
 71
3
 72
22
 73
18
 74
0
 42
0.0000001
 43
0.0000001
 44
0.0000000001
 40
0.0
 40
0.0
 40
0.0
 40
0.0
 40
0.0061352245
 40
0.0139955835
 40
0.0237323792
 40
0.0354094013
 40
0.0646538223
 40
0.1017422311
 40
0.1465118887
 40
0.1985760113
 40
0.2574791522
 40
0.3227533686
 40
0.3938974339
 40
0.4702998456
 40
0.6363112978
 40
0.8152520638
 40
1.0
 40
1.0
 40
1.0
 40
1.0
 10
3.1208934633
 20
3.0151859568
 30
0.0
 10
3.1209341101
 20
3.0151397848
 30
0.0
 10
3.1210446413
 20
3.0150505812
 30
0.0
 10
3.1212535628
 20
3.0149357943
 30
0.0
 10
3.1215253591
 20
3.0148236703
 30
0.0
 10
3.1220086683
 20
3.0146665245
 30
0.0
 10
3.1227715132
 20
3.0144886462
 30
0.0
 10
3.1238700585
 20
3.0143023292
 30
0.0
 10
3.1252026589
 20
3.0141346213
 30
0.0
 10
3.126757236
 20
3.0139863265
 30
0.0
 10
3.1285198659
 20
3.013859227
 30
0.0
 10
3.13047554
 20
3.0137546629
 30
0.0
 10
3.1326079206
 20
3.0136739386
 30
0.0
 10
3.1357509106
 20
3.0135966422
 30
0.0
 10
3.1399758601
 20
3.0135677622
 30
0.0
 10
3.1452867044
 20
3.0136338922
 30
0.0
 10
3.1489318367
 20
3.0137410997
 30
0.0
 10
3.1507828722
 20
3.0138112237
 30
0.0
  0
SPLINE
  5
38A
100
AcDbEntity
  8
0
100
AcDbSpline
 62
9
  6
CONTINUOUS
 70
0
 71
3
 72
12
 73
8
 74
0
 42
0.0000001
 43
0.0000001
 44
0.0000000001
 40
0.0
 40
0.0
 40
0.0
 40
0.0
 40
0.250000081
 40
0.3750001184
 40
0.500000144
 40
0.7500001355
 40
1.0
 40
1.0
 40
1.0
 40
1.0
 10
3.1507828722
 20
3.0138112237
 30
0.0
 10
3.1486501589
 20
3.0696501232
 30
0.0
 10
3.1454257855
 20
3.1534075029
 30
0.0
 10
3.1411617808
 20
3.2650853544
 30
0.0
 10
3.136945305
 20
3.3767649911
 30
0.0
 10
3.1317927987
 20
3.5163689415
 30
0.0
 10
3.1278538036
 20
3.6280587382
 30
0.0
 10
3.1259402606
 20
3.6839055296
 30
0.0
  0
SPLINE
  5
38B
100
AcDbEntity
  8
0
100
AcDbSpline
 62
9
  6
CONTINUOUS
 70
0
 71
3
 72
21
 73
17
 74
0
 42
0.0000001
 43
0.0000001
 44
0.0000000001
 40
0.0
 40
0.0
 40
0.0
 40
0.0
 40
0.0076797688
 40
0.0171353654
 40
0.0284245822
 40
0.0415689808
 40
0.0734213062
 40
0.112610602
 40
0.1588738336
 40
0.2118694273
 40
0.2712331993
 40
0.3364954938
 40
0.4825074307
 40
0.6453049309
 40
0.8198378419
 40
1.0
 40
1.0
 40
1.0
 40
1.0
 10
3.096192427
 20
3.685271491
 30
0.0
 10
3.0962555464
 20
3.6852282081
 30
0.0
 10
3.0964056032
 20
3.6851452184
 30
0.0
 10
3.0966671216
 20
3.6850357045
 30
0.0
 10
3.0969877702
 20
3.6849288342
 30
0.0
 10
3.0975290043
 20
3.6847808059
 30
0.0
 10
3.098351475
 20
3.6846115772
 30
0.0
 10
3.0995071275
 20
3.6844337201
 30
0.0
 10
3.1008776513
 20
3.6842725349
 30
0.0
 10
3.1024520672
 20
3.6841293956
 30
0.0
 10
3.1042179904
 20
3.6840060391
 30
0.0
 10
3.1069114339
 20
3.6838639722
 30
0.0
 10
3.1106379849
 20
3.6837491955
 30
0.0
 10
3.1154548963
 20
3.683705189
 30
0.0
 10
3.1206120867
 20
3.683753175
 30
0.0
 10
3.1241458604
 20
3.68384455
 30
0.0
 10
3.1259402602
 20
3.6839055296
 30
0.0
  0
SPLINE
  5
38C
100
AcDbEntity
  8
ALL_FEATURES
100
AcDbSpline
 62
7
  6
CONTINUOUS
 70
0
 71
3
 72
25
 73
21
 74
0
 42
0.0000001
 43
0.0000001
 44
0.0000000001
 40
0.0
 40
0.0
 40
0.0
 40
0.0
 40
0.0389135029
 40
0.14820226
 40
0.2238461621
 40
0.2657430664
 40
0.3098501358
 40
0.3557685748
 40
0.4030655375
 40
0.4512975063
 40
0.4999994331
 40
0.5487015184
 40
0.5969337411
 40
0.6442308738
 40
0.6901493874
 40
0.7342564735
 40
0.7761533172
 40
0.8517970282
 40
0.9610864101
 40
1.0
 40
1.0
 40
1.0
 40
1.0
 10
4.385890414
 20
3.3203423878
 30
0.0
 10
4.3820135694
 20
3.3193898196
 30
0.0
 10
4.3672171739
 20
3.315884837
 30
0.0
 10
4.3446994316
 20
3.3113175838
 30
0.0
 10
4.3217088834
 20
3.3076788988
 30
0.0
 10
4.3052601739
 20
3.3055534968
 30
0.0
 10
4.2918025416
 20
3.3041009053
 30
0.0
 10
4.2777633593
 20
3.3029058588
 30
0.0
 10
4.2632776275
 20
3.3020115207
 30
0.0
 10
4.2484888395
 20
3.3014622356
 30
0.0
 10
4.2335468223
 20
3.3012738914
 30
0.0
 10
4.2186047794
 20
3.3014622396
 30
0.0
 10
4.2038159308
 20
3.3020115051
 30
0.0
 10
4.189330148
 20
3.302905848
 30
0.0
 10
4.1752909383
 20
3.3041008882
 30
0.0
 10
4.1618333029
 20
3.3055534809
 30
0.0
 10
4.1453846163
 20
3.3076788718
 30
0.0
 10
4.1223940295
 20
3.3113175579
 30
0.0
 10
4.099876234
 20
3.315884818
 30
0.0
 10
4.0850797673
 20
3.3193898174
 30
0.0
 10
4.081202914
 20
3.3203423878
 30
0.0
  0
ENDSEC
  0
SECTION
  2
OBJECTS
  0
DICTIONARY
  5
C
100
AcDbDictionary
280
0
281
1
  3
ACAD_GROUP
350
D
  3
ACAD_MLINESTYLE
350
17
  3
ACAD_LAYOUT
350
1A
  3
ACAD_PLOTSETTINGS
350
19
  3
ACAD_PLOTSTYLENAME
350
E
  0
DICTIONARY
  5
D
102
{ACAD_REACTORS
330
C
102
}
100
AcDbDictionary
280
0
281
1
  0
ACDBDICTIONARYWDFLT
  5
E
102
{ACAD_REACTORS
330
C
102
}
100
AcDbDictionary
281
1
  3
Normal
350
F
100
AcDbDictionaryWithDefault
340
F
  0
DICTIONARY
  5
17
102
{ACAD_REACTORS
330
C
102
}
100
AcDbDictionary
280
0
281
1
  3
Standard
350
18
  0
DICTIONARY
  5
19
102
{ACAD_REACTORS
330
C
102
}
100
AcDbDictionary
281
1
  0
DICTIONARY
  5
1A
102
{ACAD_REACTORS
330
C
102
}
100
AcDbDictionary
281
1
  3
Model
350
38D
  3
Layout1
350
38E
  0
ACDBPLACEHOLDER
  5
F
102
{ACAD_REACTORS
330
E
102
}
  0
MLINESTYLE
  5
18
102
{ACAD_REACTORS
330
17
102
}
100
AcDbMlineStyle
  2
STANDARD
 70
0
  3

 62
256
 51
90.0
 52
90.0
 71
2
 49
0.5
 62
256
  6
BYLAYER
 49
-0.5
 62
256
  6
BYLAYER
  0
LAYOUT
  5
38D
102
{ACAD_REACTORS
330
1A
102
}
100
AcDbPlotSettings
  1

  2
none_device
  4
ANSI_A_(11.00_x_8.50_Inches)
  6

 40
0.0
 41
0.0
 42
0.0
 43
0.0
 44
279.4
 45
215.9
 46
0.0
 47
0.0
 48
0.0
 49
0.0
140
0.0
141
0.0
142
1.0
143
1.0
 70
1024
 72
0
 73
0
 74
0
  7

 75
0
147
1.0
148
0.0
149
0.0
100
AcDbLayout
  1
Model
 70
0
 71
0
 10
0.0
 20
0.0
 11
11.0
 21
8.5
 12
0.0
 22
0.0
 32
0.0
 14
0.0
 24
0.0
 34
0.0
 15
0.0
 25
0.0
 35
0.0
146
0.0
 13
0.0
 23
0.0
 33
0.0
 16
1.0
 26
0.0
 36
0.0
 17
0.0
 27
1.0
 37
0.0
 76
0
330
21B
345
0
346
0
  0
LAYOUT
  5
38E
102
{ACAD_REACTORS
330
1A
102
}
100
AcDbPlotSettings
  1

  2
none_device
  4
ANSI_A_(11.00_x_8.50_Inches)
  6

 40
0.0
 41
0.0
 42
0.0
 43
0.0
 44
279.4
 45
215.9
 46
0.0
 47
0.0
 48
0.0
 49
0.0
140
0.0
141
0.0
142
1.0
143
1.0
 70
0
 72
0
 73
0
 74
0
  7

 75
0
147
1.0
148
0.0
149
0.0
100
AcDbLayout
  1
Layout1
 70
0
 71
1
 10
0.0
 20
0.0
 11
11.0
 21
8.5
 12
0.0
 22
0.0
 32
0.0
 14
0.0
 24
0.0
 34
0.0
 15
0.0
 25
0.0
 35
0.0
146
0.0
 13
0.0
 23
0.0
 33
0.0
 16
1.0
 26
0.0
 36
0.0
 17
0.0
 27
1.0
 37
0.0
 76
0
330
21C
345
0
346
0
  0
ENDSEC
  0
EOF
