999
DXF file: 3-1603ts_FRONT.dxf
999
Pro/ENGINEER 2013150 by Parametric Technology Corporation
  0
SECTION
  2
HEADER
  9
$ACADVER
  1
AC1021
  9
$DWGCODEPAGE
  3
ANSI_1252
  9
$EXTMAX
 10
11.0
 20
8.5
 30
0.0
  9
$EXTMIN
 10
0.0
 20
0.0
 30
0.0
  9
$LIMMIN
 10
0.0
 20
0.0
  9
$LIMMAX
 10
11.0
 20
8.5
  9
$VIEWCTR
 10
5.5
 20
4.25
  9
$VIEWSIZE
 40
8.5
  9
$CLAYER
  8
0
  9
$LTSCALE
 40
0.605
  9
$CELTYPE
  6
BYLAYER
  9
$DIMSCALE
 40
1.0
  9
$DIMASZ
 40
0.1
  9
$DIMEXO
 40
0.0625
  9
$DIMDLI
 40
0.418
  9
$DIMEXE
 40
0.125
  9
$DIMCEN
 40
0.099
  9
$DIMLFAC
 40
1.0
  9
$DIMBLK
  1
_FILLED
  9
$DIMTXT
 40
0.08
  9
$DIMTOL
 70
1
  9
$DIMLIM
 70
0
  9
$DIMTFAC
 40
1.0
  9
$DIMTP
 40
0.001
  9
$DIMTM
 40
0.001
  9
$DIMGAP
 40
0.09
  9
$DIMDSEP
 70
46
  9
$PDMODE
 70
3
  9
$PDSIZE
 40
0.06
  9
$HANDSEED
  5
331
  9
$TILEMODE
 70
1
  9
$MEASUREMENT
 70
0
  9
$INSUNITS
 70
1
  0
ENDSEC
  0
SECTION
  2
CLASSES
  0
CLASS
  1
ACDBDICTIONARYWDFLT
  2
AcDbDictionaryWithDefault
  3
AutoCAD 2000
 90
0
 91
1
280
0
281
0
  0
CLASS
  1
ACDBPLACEHOLDER
  2
AcDbPlaceHolder
  3
AutoCAD 2000
 90
0
 91
1
280
0
281
0
  0
CLASS
  1
LAYOUT
  2
AcDbLayout
  3
AutoCAD 2000
 90
0
 91
0
280
0
281
0
  0
ENDSEC
  0
SECTION
  2
TABLES
  0
TABLE
  2
VPORT
  5
8
100
AcDbSymbolTable
 70
2
  0
VPORT
  5
1F4
100
AcDbSymbolTableRecord
100
AcDbViewportTableRecord
  2
*ACTIVE
 70
0
 10
0.0
 20
0.0
 11
1.0
 21
1.0
 12
5.5
 22
4.25
 13
0.0
 23
0.0
 14
1.0
 24
1.0
 15
0.0
 25
0.0
 16
0.0
 26
0.0
 36
1.0
 17
0.0
 27
0.0
 37
0.0
 40
8.5
 41
1.2941176471
 42
50.0
 43
0.0
 44
0.0
 50
0.0
 51
0.0
 71
0
 72
100
 73
1
 74
1
 75
0
 76
0
 77
0
 78
0
  0
ENDTAB
  0
TABLE
  2
LTYPE
  5
5
100
AcDbSymbolTable
 70
6
  0
LTYPE
  5
14
100
AcDbSymbolTableRecord
100
AcDbLinetypeTableRecord
  2
BYBLOCK
 70
0
  3

 72
65
 73
0
 40
0.0
  0
LTYPE
  5
15
100
AcDbSymbolTableRecord
100
AcDbLinetypeTableRecord
  2
BYLAYER
 70
0
  3

 72
65
 73
0
 40
0.0
  0
LTYPE
  5
16
100
AcDbSymbolTableRecord
100
AcDbLinetypeTableRecord
  2
CONTINUOUS
 70
64
  3
Solid line
 72
65
 73
0
 40
0.0
  0
LTYPE
  5
1F5
100
AcDbSymbolTableRecord
100
AcDbLinetypeTableRecord
  2
CENTER
 70
64
  3
____ _ ____ _ ____ _ ____ _ ____ _ ____ _ ____
 72
65
 73
4
 40
0.6
 49
0.375
 74
0
 49
-0.075
 74
0
 49
0.075
 74
0
 49
-0.075
 74
0
  0
LTYPE
  5
1F6
100
AcDbSymbolTableRecord
100
AcDbLinetypeTableRecord
  2
HIDDEN
 70
64
  3
- - - - - - - - - - - - - - - - - - - -
 72
65
 73
2
 40
0.2
 49
0.1
 74
0
 49
-0.1
 74
0
  0
LTYPE
  5
1F7
100
AcDbSymbolTableRecord
100
AcDbLinetypeTableRecord
  2
PHANTOM
 70
64
  3
_____ _ _ _____ _ _ _____ _ _ _____
 72
65
 73
6
 40
0.8
 49
0.45
 74
0
 49
-0.05
 74
0
 49
0.1
 74
0
 49
-0.05
 74
0
 49
0.1
 74
0
 49
-0.05
 74
0
  0
LTYPE
  5
1F8
100
AcDbSymbolTableRecord
100
AcDbLinetypeTableRecord
  2
DOT
 70
64
  3
. . . . . . . . . . . . . . . . . . . .
 72
65
 73
2
 40
0.2
 49
0.1
 74
0
 49
-0.1
 74
0
  0
LTYPE
  5
1F9
100
AcDbSymbolTableRecord
100
AcDbLinetypeTableRecord
  2
DASHED
 70
64
  3
- - - - - - - - - - - - - - - - - - - -
 72
65
 73
2
 40
0.2
 49
0.1
 74
0
 49
-0.1
 74
0
  0
ENDTAB
  0
TABLE
  2
LAYER
  5
2
100
AcDbSymbolTable
 70
36
  0
LAYER
  5
10
100
AcDbSymbolTableRecord
100
AcDbLayerTableRecord
  2
0
 70
0
 62
7
  6
CONTINUOUS
370
-3
390
F
  0
LAYER
  5
1FA
100
AcDbSymbolTableRecord
100
AcDbLayerTableRecord
  2
DEFAULT_1
 70
0
 62
7
  6
CENTER
370
-3
390
F
  0
LAYER
  5
1FB
100
AcDbSymbolTableRecord
100
AcDbLayerTableRecord
  2
DEFAULT_2
 70
0
 62
8
  6
HIDDEN
370
-3
390
F
  0
LAYER
  5
1FC
100
AcDbSymbolTableRecord
100
AcDbLayerTableRecord
  2
DEFAULT_3
 70
0
 62
7
  6
PHANTOM
370
-3
390
F
  0
LAYER
  5
1FD
100
AcDbSymbolTableRecord
100
AcDbLayerTableRecord
  2
ALL_ASSEMBLY_MEMBERS
 70
0
 62
7
  6
CONTINUOUS
370
-3
390
F
  0
LAYER
  5
1FE
100
AcDbSymbolTableRecord
100
AcDbLayerTableRecord
  2
ALL_FEATURES
 70
0
 62
7
  6
CONTINUOUS
370
-3
390
F
  0
LAYER
  5
1FF
100
AcDbSymbolTableRecord
100
AcDbLayerTableRecord
  2
AXES_FEATURES
 70
0
 62
7
  6
CONTINUOUS
370
-3
390
F
  0
LAYER
  5
200
100
AcDbSymbolTableRecord
100
AcDbLayerTableRecord
  2
CHAMFER_FEATURES
 70
0
 62
7
  6
CONTINUOUS
370
-3
390
F
  0
LAYER
  5
201
100
AcDbSymbolTableRecord
100
AcDbLayerTableRecord
  2
CURVES
 70
0
 62
7
  6
CONTINUOUS
370
-3
390
F
  0
LAYER
  5
202
100
AcDbSymbolTableRecord
100
AcDbLayerTableRecord
  2
CUT_FEATURES
 70
0
 62
7
  6
CONTINUOUS
370
-3
390
F
  0
LAYER
  5
203
100
AcDbSymbolTableRecord
100
AcDbLayerTableRecord
  2
DATUM_CURVES
 70
0
 62
7
  6
CONTINUOUS
370
-3
390
F
  0
LAYER
  5
204
100
AcDbSymbolTableRecord
100
AcDbLayerTableRecord
  2
DATUM_PLANES
 70
0
 62
7
  6
CONTINUOUS
370
-3
390
F
  0
LAYER
  5
205
100
AcDbSymbolTableRecord
100
AcDbLayerTableRecord
  2
DATUM_POINTS
 70
0
 62
7
  6
CONTINUOUS
370
-3
390
F
  0
LAYER
  5
206
100
AcDbSymbolTableRecord
100
AcDbLayerTableRecord
  2
DEFAULT_COORDINATE_SYSTEM
 70
0
 62
7
  6
CONTINUOUS
370
-3
390
F
  0
LAYER
  5
207
100
AcDbSymbolTableRecord
100
AcDbLayerTableRecord
  2
DEFAULT_DATUM_AXES
 70
0
 62
7
  6
CONTINUOUS
370
-3
390
F
  0
LAYER
  5
208
100
AcDbSymbolTableRecord
100
AcDbLayerTableRecord
  2
DEFAULT_DATUM_CURVES
 70
0
 62
7
  6
CONTINUOUS
370
-3
390
F
  0
LAYER
  5
209
100
AcDbSymbolTableRecord
100
AcDbLayerTableRecord
  2
DEFAULT_DATUM_PLANES
 70
0
 62
7
  6
CONTINUOUS
370
-3
390
F
  0
LAYER
  5
20A
100
AcDbSymbolTableRecord
100
AcDbLayerTableRecord
  2
DEFAULT_SURFACES
 70
0
 62
7
  6
CONTINUOUS
370
-3
390
F
  0
LAYER
  5
20B
100
AcDbSymbolTableRecord
100
AcDbLayerTableRecord
  2
DIMENSIONS
 70
0
 62
7
  6
CONTINUOUS
370
-3
390
F
  0
LAYER
  5
20C
100
AcDbSymbolTableRecord
100
AcDbLayerTableRecord
  2
HOLE_FEATURES
 70
0
 62
7
  6
CONTINUOUS
370
-3
390
F
  0
LAYER
  5
20D
100
AcDbSymbolTableRecord
100
AcDbLayerTableRecord
  2
INTFCLR_1
 70
0
 62
7
  6
CONTINUOUS
370
-3
390
F
  0
LAYER
  5
20E
100
AcDbSymbolTableRecord
100
AcDbLayerTableRecord
  2
NOTES
 70
0
 62
7
  6
CONTINUOUS
370
-3
390
F
  0
LAYER
  5
20F
100
AcDbSymbolTableRecord
100
AcDbLayerTableRecord
  2
PART_REFERENCE_DIMENSIONS
 70
0
 62
7
  6
CONTINUOUS
370
-3
390
F
  0
LAYER
  5
210
100
AcDbSymbolTableRecord
100
AcDbLayerTableRecord
  2
PLATED_SURFACE_AREA
 70
0
 62
7
  6
CONTINUOUS
370
-3
390
F
  0
LAYER
  5
211
100
AcDbSymbolTableRecord
100
AcDbLayerTableRecord
  2
POINTS
 70
0
 62
7
  6
CONTINUOUS
370
-3
390
F
  0
LAYER
  5
212
100
AcDbSymbolTableRecord
100
AcDbLayerTableRecord
  2
PROTRUSION
 70
0
 62
7
  6
CONTINUOUS
370
-3
390
F
  0
LAYER
  5
213
100
AcDbSymbolTableRecord
100
AcDbLayerTableRecord
  2
PROTRUSION_FEATURES
 70
0
 62
7
  6
CONTINUOUS
370
-3
390
F
  0
LAYER
  5
214
100
AcDbSymbolTableRecord
100
AcDbLayerTableRecord
  2
QUILTS
 70
0
 62
7
  6
CONTINUOUS
370
-3
390
F
  0
LAYER
  5
215
100
AcDbSymbolTableRecord
100
AcDbLayerTableRecord
  2
REFERENCE_DIMENSIONS
 70
0
 62
7
  6
CONTINUOUS
370
-3
390
F
  0
LAYER
  5
216
100
AcDbSymbolTableRecord
100
AcDbLayerTableRecord
  2
ROUND_FEATURES
 70
0
 62
7
  6
CONTINUOUS
370
-3
390
F
  0
LAYER
  5
217
100
AcDbSymbolTableRecord
100
AcDbLayerTableRecord
  2
SIZE_REF
 70
0
 62
7
  6
CONTINUOUS
370
-3
390
F
  0
LAYER
  5
218
100
AcDbSymbolTableRecord
100
AcDbLayerTableRecord
  2
SURFACE_FEATURES
 70
0
 62
7
  6
CONTINUOUS
370
-3
390
F
  0
ENDTAB
  0
TABLE
  2
STYLE
  5
3
100
AcDbSymbolTable
 70
1
  0
STYLE
  5
11
100
AcDbSymbolTableRecord
100
AcDbTextStyleTableRecord
  2
STANDARD
 70
0
 40
0.0
 41
0.8
 50
0.0
 71
0
 42
0.2
  3
txt
  4

  0
STYLE
  5
219
100
AcDbSymbolTableRecord
100
AcDbTextStyleTableRecord
  2
TEXTSTYLE_1
 70
0
 40
0.0
 41
0.8
 50
0.0
 71
0
 42
0.2
  3
gdt
  4

  0
ENDTAB
  0
TABLE
  2
VIEW
  5
6
100
AcDbSymbolTable
 70
0
  0
ENDTAB
  0
TABLE
  2
UCS
  5
7
100
AcDbSymbolTable
 70
0
  0
ENDTAB
  0
TABLE
  2
APPID
  5
9
100
AcDbSymbolTable
 70
1
  0
APPID
  5
21A
100
AcDbSymbolTableRecord
100
AcDbRegAppTableRecord
  2
ACAD
 70
0
  0
ENDTAB
  0
TABLE
  2
BLOCK_RECORD
  5
1
100
AcDbSymbolTable
 70
0
  0
BLOCK_RECORD
  5
21B
100
AcDbSymbolTableRecord
100
AcDbBlockTableRecord
  2
*Model_Space
  0
BLOCK_RECORD
  5
21C
100
AcDbSymbolTableRecord
100
AcDbBlockTableRecord
  2
*Paper_Space
  0
ENDTAB
  0
TABLE
  2
DIMSTYLE
  5
A
100
AcDbSymbolTable
 70
1
100
AcDbDimStyleTable
 71
0
  0
DIMSTYLE
105
21D
100
AcDbSymbolTableRecord
100
AcDbDimStyleTableRecord
  2
STANDARD
 70
0
  3

  4

 40
1.0
 41
0.1
 42
0.0625
 43
0.38
 44
0.125
 45
0.0
 46
0.0
 47
0.001
 48
0.001
140
0.08
141
0.09
142
0.0
143
25.4
144
1.0
145
0.0
146
1.0
147
0.09
 71
1.0
 72
0.0
 73
1
 74
1
 75
0
 76
0
 77
0
 78
4
170
0
171
2
172
0
173
0
174
0
175
0
176
0
177
0
178
0
270
2
271
3
272
3
273
2
274
2
275
0
280
0
281
0
282
0
283
1
284
4
285
0
286
0
287
3
288
0
340
11
278
46
  0
ENDTAB
  0
ENDSEC
  0
SECTION
  2
BLOCKS
  0
BLOCK
  5
20
100
AcDbEntity
  8
0
100
AcDbBlockBegin
  2
*Model_Space
 70
0
 10
0.0
 20
0.0
 30
0.0
  3
*Model_Space
  1

  0
ENDBLK
  5
21
100
AcDbEntity
  8
0
100
AcDbBlockEnd
  0
BLOCK
  5
1C
100
AcDbEntity
  8
0
100
AcDbBlockBegin
  2
*Paper_Space
 70
0
 10
0.0
 20
0.0
 30
0.0
  3
*Paper_Space
  1

  0
ENDBLK
  5
1D
100
AcDbEntity
  8
0
100
AcDbBlockEnd
  0
ENDSEC
  0
SECTION
  2
ENTITIES
  0
LINE
  5
21E
100
AcDbEntity
  8
0
100
AcDbLine
 62
7
  6
CONTINUOUS
 10
0.0
 20
0.0
 11
0.0
 21
8.5
  0
LINE
  5
21F
100
AcDbEntity
  8
0
100
AcDbLine
 62
7
  6
CONTINUOUS
 10
0.0
 20
0.0
 11
11.0
 21
0.0
  0
LINE
  5
220
100
AcDbEntity
  8
0
100
AcDbLine
 62
7
  6
CONTINUOUS
 10
0.0
 20
8.5
 11
11.0
 21
8.5
  0
LINE
  5
221
100
AcDbEntity
  8
0
100
AcDbLine
 62
7
  6
CONTINUOUS
 10
11.0
 20
0.0
 11
11.0
 21
8.5
  0
LINE
  5
222
100
AcDbEntity
  8
0
100
AcDbLine
 62
7
  6
CONTINUOUS
 10
2.0378729839
 20
0.9835220223
 11
6.1178729839
 21
0.9835220223
  0
LINE
  5
223
100
AcDbEntity
  8
0
100
AcDbLine
 62
9
  6
CONTINUOUS
 10
2.0153729839
 20
1.0060220223
 11
6.1403729839
 21
1.0060220223
  0
LINE
  5
224
100
AcDbEntity
  8
0
100
AcDbLine
 62
7
  6
CONTINUOUS
 10
2.0153729839
 20
7.1485220223
 11
2.0153729839
 21
1.0060220223
  0
LINE
  5
225
100
AcDbEntity
  8
0
100
AcDbLine
 62
9
  6
CONTINUOUS
 10
2.0378729839
 20
0.9835220223
 11
2.0378729839
 21
7.1710220223
  0
LINE
  5
226
100
AcDbEntity
  8
0
100
AcDbLine
 62
7
  6
CONTINUOUS
 10
4.0853012048
 20
1.9135606635
 11
4.1051511363
 21
1.9135606635
  0
LINE
  5
227
100
AcDbEntity
  8
0
100
AcDbLine
 62
7
  6
CONTINUOUS
 10
4.1051511363
 20
1.9817052725
 11
4.1755467669
 21
1.9817052725
  0
LINE
  5
228
100
AcDbEntity
  8
0
100
AcDbLine
 62
7
  6
CONTINUOUS
 10
4.1755467669
 20
1.9994065064
 11
4.1051511363
 21
1.9994065064
  0
LINE
  5
229
100
AcDbEntity
  8
0
100
AcDbLine
 62
7
  6
CONTINUOUS
 10
4.1051511363
 20
2.045859434
 11
4.1864949272
 21
2.045859434
  0
LINE
  5
22A
100
AcDbEntity
  8
0
100
AcDbLine
 62
7
  6
CONTINUOUS
 10
4.1864949272
 20
2.0635606635
 11
4.0853012048
 21
2.0635606635
  0
LINE
  5
22B
100
AcDbEntity
  8
0
100
AcDbLine
 62
7
  6
CONTINUOUS
 10
5.0095774405
 20
3.038178965
 11
5.0265766842
 21
3.0427338987
  0
LINE
  5
22C
100
AcDbEntity
  8
0
100
AcDbLine
 62
7
  6
CONTINUOUS
 10
3.1215885512
 20
3.0338487017
 11
3.1385207304
 21
3.0283471032
  0
LINE
  5
22D
100
AcDbEntity
  8
0
100
AcDbLine
 62
7
  6
CONTINUOUS
 10
3.1287867808
 20
3.0702403862
 11
3.2404029283
 21
3.0339741014
  0
LINE
  5
22E
100
AcDbEntity
  8
0
100
AcDbLine
 62
7
  6
CONTINUOUS
 10
3.2460942363
 20
3.0514901465
 11
3.1028518845
 21
3.098032408
  0
LINE
  5
22F
100
AcDbEntity
  8
0
100
AcDbLine
 62
7
  6
CONTINUOUS
 10
3.1759125472
 20
2.7230447309
 11
3.2497731286
 21
2.7360683442
  0
LINE
  5
230
100
AcDbEntity
  8
0
100
AcDbLine
 62
7
  6
CONTINUOUS
 10
3.2465172253
 20
2.7545334896
 11
3.1726566438
 21
2.7415098762
  0
LINE
  5
231
100
AcDbEntity
  8
0
100
AcDbLine
 62
7
  6
CONTINUOUS
 10
5.0072711872
 20
3.1147829946
 11
4.9290896228
 21
3.1088761855
  0
LINE
  5
232
100
AcDbEntity
  8
0
100
AcDbLine
 62
7
  6
CONTINUOUS
 10
4.9530531608
 20
3.0933699625
 11
4.994085374
 21
3.0959961444
  0
LINE
  5
233
100
AcDbEntity
  8
0
100
AcDbLine
 62
7
  6
CONTINUOUS
 10
4.881655114
 20
2.8073178504
 11
4.9563697164
 21
2.8007811697
  0
LINE
  5
234
100
AcDbEntity
  8
0
100
AcDbLine
 62
7
  6
CONTINUOUS
 10
4.9580038866
 20
2.8194598203
 11
4.8832892842
 21
2.825996501
  0
LINE
  5
235
100
AcDbEntity
  8
0
100
AcDbLine
 62
7
  6
CONTINUOUS
 10
3.1649971558
 20
3.1806639228
 11
3.2765396739
 21
3.1451915686
  0
LINE
  5
236
100
AcDbEntity
  8
0
100
AcDbLine
 62
7
  6
CONTINUOUS
 10
3.1576018894
 20
3.1446863599
 11
3.1745340686
 21
3.1391847614
  0
LINE
  5
237
100
AcDbEntity
  8
0
100
AcDbLine
 62
7
  6
CONTINUOUS
 10
3.2821075732
 20
3.1623278005
 11
3.1388652214
 21
3.2088700619
  0
LINE
  5
238
100
AcDbEntity
  8
0
100
AcDbLine
 62
7
  6
CONTINUOUS
 10
3.20126036
 20
3.3353423514
 11
3.1845227999
 21
3.3407807143
  0
LINE
  5
239
100
AcDbEntity
  8
0
100
AcDbLine
 62
7
  6
CONTINUOUS
 10
4.4199153126
 20
2.8613615619
 11
5.0306928365
 21
2.5790706537
  0
LINE
  5
23A
100
AcDbEntity
  8
0
100
AcDbLine
 62
7
  6
CONTINUOUS
 10
3.1614729965
 20
3.2698407138
 11
3.2302586551
 21
3.2322138574
  0
LINE
  5
23B
100
AcDbEntity
  8
0
100
AcDbLine
 62
7
  6
CONTINUOUS
 10
3.2186064354
 20
3.2582699486
 11
3.1827636019
 21
3.2784151836
  0
LINE
  5
23C
100
AcDbEntity
  8
0
100
AcDbLine
 62
7
  6
CONTINUOUS
 10
4.7852093432
 20
2.2577834245
 11
4.7996255281
 21
2.2476891032
  0
LINE
  5
23D
100
AcDbEntity
  8
0
100
AcDbLine
 62
7
  6
CONTINUOUS
 10
4.2789109875
 20
2.6171349067
 11
4.8287708472
 21
2.2293315091
  0
LINE
  5
23E
100
AcDbEntity
  8
0
100
AcDbLine
 62
7
  6
CONTINUOUS
 10
3.1726566438
 20
2.7415098762
 11
3.1759125472
 21
2.7230447309
  0
LINE
  5
23F
100
AcDbEntity
  8
0
100
AcDbLine
 62
7
  6
CONTINUOUS
 10
3.2497731286
 20
2.7360683442
 11
3.2465172253
 21
2.7545334896
  0
LINE
  5
240
100
AcDbEntity
  8
0
100
AcDbLine
 62
7
  6
CONTINUOUS
 10
3.5719292766
 20
3.5533240576
 11
3.5261858317
 21
3.6127640738
  0
LINE
  5
241
100
AcDbEntity
  8
0
100
AcDbLine
 62
7
  6
CONTINUOUS
 10
3.5114908445
 20
3.6016906067
 11
3.5566269712
 21
3.5417929434
  0
LINE
  5
242
100
AcDbEntity
  8
0
100
AcDbLine
 62
7
  6
CONTINUOUS
 10
3.2637349773
 20
3.2382275619
 11
3.2593160808
 21
3.2193298023
  0
LINE
  5
243
100
AcDbEntity
  8
0
100
AcDbLine
 62
7
  6
CONTINUOUS
 10
3.1388652214
 20
3.2088700619
 11
3.1351974909
 21
3.1975819482
  0
LINE
  5
244
100
AcDbEntity
  8
0
100
AcDbLine
 62
7
  6
CONTINUOUS
 10
3.1028518845
 20
3.098032408
 11
3.0991841526
 21
3.0867442899
  0
LINE
  5
245
100
AcDbEntity
  8
0
100
AcDbLine
 62
7
  6
CONTINUOUS
 10
3.1845227999
 20
3.3407807143
 11
3.1614729965
 21
3.2698407138
  0
LINE
  5
246
100
AcDbEntity
  8
0
100
AcDbLine
 62
7
  6
CONTINUOUS
 10
3.1827636019
 20
3.2784151836
 11
3.20126036
 21
3.3353423514
  0
LINE
  5
247
100
AcDbEntity
  8
0
100
AcDbLine
 62
7
  6
CONTINUOUS
 10
3.2404029283
 20
3.0339741014
 11
3.2460942363
 21
3.0514901465
  0
LINE
  5
248
100
AcDbEntity
  8
0
100
AcDbLine
 62
7
  6
CONTINUOUS
 10
3.2765396739
 20
3.1451915686
 11
3.2821075732
 21
3.1623278005
  0
LINE
  5
249
100
AcDbEntity
  8
0
100
AcDbLine
 62
7
  6
CONTINUOUS
 10
3.9368686588
 20
3.2095695984
 11
3.8759509946
 21
3.8796639043
  0
LINE
  5
24A
100
AcDbEntity
  8
0
100
AcDbLine
 62
7
  6
CONTINUOUS
 10
3.2302586551
 20
3.2322138574
 11
3.2377430106
 21
3.2479638763
  0
LINE
  5
24B
100
AcDbEntity
  8
0
100
AcDbLine
 62
7
  6
CONTINUOUS
 10
4.0853012048
 20
2.0635606635
 11
4.0853012048
 21
1.9135606635
  0
LINE
  5
24C
100
AcDbEntity
  8
0
100
AcDbLine
 62
7
  6
CONTINUOUS
 10
4.1051511363
 20
1.9135606635
 11
4.1051511363
 21
1.9817052725
  0
LINE
  5
24D
100
AcDbEntity
  8
0
100
AcDbLine
 62
7
  6
CONTINUOUS
 10
4.1051511363
 20
1.9994065064
 11
4.1051511363
 21
2.045859434
  0
LINE
  5
24E
100
AcDbEntity
  8
ALL_ASSEMBLY_MEMBERS
100
AcDbLine
 62
7
  6
CONTINUOUS
 10
3.9183565094
 20
4.9873024998
 11
3.8927783167
 21
4.2583240065
  0
LINE
  5
24F
100
AcDbEntity
  8
0
100
AcDbLine
 62
7
  6
CONTINUOUS
 10
4.5837296845
 20
3.5265734629
 11
4.5980930178
 21
3.5145211952
  0
LINE
  5
250
100
AcDbEntity
  8
0
100
AcDbLine
 62
7
  6
CONTINUOUS
 10
4.6463020886
 20
3.5719745284
 11
4.6319387553
 21
3.5840267961
  0
LINE
  5
251
100
AcDbEntity
  8
ALL_ASSEMBLY_MEMBERS
100
AcDbLine
 62
7
  6
CONTINUOUS
 10
4.2373894583
 20
4.9873024998
 11
4.2629676511
 21
4.2583240065
  0
LINE
  5
252
100
AcDbEntity
  8
0
100
AcDbLine
 62
7
  6
CONTINUOUS
 10
4.1755467669
 20
1.9817052725
 11
4.1755467669
 21
1.9994065064
  0
LINE
  5
253
100
AcDbEntity
  8
0
100
AcDbLine
 62
7
  6
CONTINUOUS
 10
4.1864949272
 20
2.045859434
 11
4.1864949272
 21
2.0635606635
  0
LINE
  5
254
100
AcDbEntity
  8
0
100
AcDbLine
 62
7
  6
CONTINUOUS
 10
4.218877309
 20
3.2095695984
 11
4.2797949731
 21
3.8796639043
  0
LINE
  5
255
100
AcDbEntity
  8
0
100
AcDbLine
 62
7
  6
CONTINUOUS
 10
3.5261858317
 20
3.6127640738
 11
3.5114908445
 21
3.6016906067
  0
LINE
  5
256
100
AcDbEntity
  8
0
100
AcDbLine
 62
7
  6
CONTINUOUS
 10
3.5566269712
 20
3.5417929434
 11
3.5719292766
 21
3.5533240576
  0
LINE
  5
257
100
AcDbEntity
  8
ALL_ASSEMBLY_MEMBERS
100
AcDbLine
 62
7
  6
CONTINUOUS
 10
4.2329861013
 20
4.2272720223
 11
3.9227598665
 21
4.2272720223
  0
LINE
  5
258
100
AcDbEntity
  8
ALL_ASSEMBLY_MEMBERS
100
AcDbLine
 62
9
  6
CONTINUOUS
 10
3.9195069759
 20
4.2582050741
 11
4.2362389929
 21
4.2582050698
  0
LINE
  5
259
100
AcDbEntity
  8
0
100
AcDbLine
 62
7
  6
CONTINUOUS
 10
4.9042893149
 20
3.0856001568
 11
4.897702858
 21
3.1038558464
  0
LINE
  5
25A
100
AcDbEntity
  8
0
100
AcDbLine
 62
7
  6
CONTINUOUS
 10
4.6319387553
 20
3.5840267961
 11
4.5837296845
 21
3.5265734629
  0
LINE
  5
25B
100
AcDbEntity
  8
0
100
AcDbLine
 62
7
  6
CONTINUOUS
 10
4.5980930178
 20
3.5145211952
 11
4.6463020886
 21
3.5719745284
  0
LINE
  5
25C
100
AcDbEntity
  8
0
100
AcDbLine
 62
7
  6
CONTINUOUS
 10
4.994085374
 20
3.0959961444
 11
5.0095774405
 21
3.038178965
  0
LINE
  5
25D
100
AcDbEntity
  8
0
100
AcDbLine
 62
7
  6
CONTINUOUS
 10
5.0265766842
 20
3.0427338987
 11
5.0072711872
 21
3.1147829946
  0
LINE
  5
25E
100
AcDbEntity
  8
0
100
AcDbLine
 62
7
  6
CONTINUOUS
 10
4.9290896228
 20
3.1088761855
 11
4.9313907892
 21
3.0915908361
  0
LINE
  5
25F
100
AcDbEntity
  8
0
100
AcDbLine
 62
7
  6
CONTINUOUS
 10
4.8832892842
 20
2.825996501
 11
4.881655114
 21
2.8073178504
  0
LINE
  5
260
100
AcDbEntity
  8
0
100
AcDbLine
 62
7
  6
CONTINUOUS
 10
4.9563697164
 20
2.8007811697
 11
4.9580038866
 21
2.8194598203
  0
LINE
  5
261
100
AcDbEntity
  8
0
100
AcDbLine
 62
7
  6
CONTINUOUS
 10
3.7358306552
 20
2.8613615619
 11
3.1250531313
 21
2.5790706537
  0
LINE
  5
262
100
AcDbEntity
  8
0
100
AcDbLine
 62
7
  6
CONTINUOUS
 10
3.8768349803
 20
2.6171349067
 11
3.3269751205
 21
2.2293315091
  0
LINE
  5
263
100
AcDbEntity
  8
0
100
AcDbLine
 62
7
  6
CONTINUOUS
 10
4.7862738299
 20
2.2593036691
 11
4.7852093432
 21
2.2577834245
  0
LINE
  5
264
100
AcDbEntity
  8
0
100
AcDbLine
 62
7
  6
CONTINUOUS
 10
4.7996255281
 20
2.2476891032
 11
4.8006557603
 21
2.2491604274
  0
LINE
  5
265
100
AcDbEntity
  8
0
100
AcDbLine
 62
9
  6
CONTINUOUS
 10
6.1178729839
 20
0.9835220223
 11
6.1178729839
 21
7.1710220223
  0
LINE
  5
266
100
AcDbEntity
  8
0
100
AcDbLine
 62
7
  6
CONTINUOUS
 10
6.1403729839
 20
1.0060220223
 11
6.1403729839
 21
7.1485220223
  0
LINE
  5
267
100
AcDbEntity
  8
0
100
AcDbLine
 62
9
  6
CONTINUOUS
 10
2.0153729839
 20
7.1485220223
 11
6.1403729839
 21
7.1485220223
  0
LINE
  5
268
100
AcDbEntity
  8
0
100
AcDbLine
 62
7
  6
CONTINUOUS
 10
6.1178729839
 20
7.1710220223
 11
2.0378729839
 21
7.1710220223
  0
ARC
  5
269
100
AcDbEntity
  8
0
100
AcDbCircle
 62
7
  6
CONTINUOUS
 10
2.0378729839
 20
1.0060220223
 40
0.0225
100
AcDbArc
 50
180.0
 51
270.0
  0
ARC
  5
26A
100
AcDbEntity
  8
0
100
AcDbCircle
 62
7
  6
CONTINUOUS
 10
3.3096845347
 20
2.2538475374
 40
0.03
100
AcDbArc
 50
219.8942597541
 51
305.1944289077
  0
CIRCLE
  5
26B
100
AcDbEntity
  8
0
100
AcDbCircle
 62
7
  6
CONTINUOUS
 10
4.0231115732
 20
2.0399356635
 40
0.023625
  0
CIRCLE
  5
26C
100
AcDbEntity
  8
0
100
AcDbCircle
 62
7
  6
CONTINUOUS
 10
4.0231115732
 20
2.0399356635
 40
0.01171875
  0
ARC
  5
26D
100
AcDbEntity
  8
ALL_FEATURES
100
AcDbCircle
 62
9
  6
CONTINUOUS
 10
3.4768955491
 20
2.9466163053
 40
0.3030139722
100
AcDbArc
 50
350.4581084738
 51
351.2653254076
  0
ARC
  5
26E
100
AcDbEntity
  8
ALL_FEATURES
100
AcDbCircle
 62
9
  6
CONTINUOUS
 10
3.491221632
 20
2.9442291592
 40
0.2884903822
100
AcDbArc
 50
350.1181796836
 51
350.4539979959
  0
ARC
  5
26F
100
AcDbEntity
  8
ALL_FEATURES
100
AcDbCircle
 62
9
  6
CONTINUOUS
 10
3.5049928659
 20
2.9417839389
 40
0.2745048237
100
AcDbArc
 50
349.4929290249
 51
350.1274726929
  0
ARC
  5
270
100
AcDbEntity
  8
0
100
AcDbCircle
 62
7
  6
CONTINUOUS
 10
3.1376393417
 20
2.551838553
 40
0.03
100
AcDbArc
 50
114.8055710923
 51
200.1057402459
  0
ARC
  5
271
100
AcDbEntity
  8
ALL_FEATURES
100
AcDbCircle
 62
9
  6
CONTINUOUS
 10
3.8620952489
 20
3.2013019407
 40
0.1029066814
100
AcDbArc
 50
2.953221488
 51
5.3765214043
  0
ARC
  5
272
100
AcDbEntity
  8
ALL_FEATURES
100
AcDbCircle
 62
9
  6
CONTINUOUS
 10
3.705613381
 20
2.9302485169
 40
0.1029004376
100
AcDbArc
 50
294.6192966623
 51
297.0426067651
  0
ARC
  5
273
100
AcDbEntity
  8
ALL_FEATURES
100
AcDbCircle
 62
7
  6
CONTINUOUS
 10
3.7043651291
 20
2.9294418136
 40
0.075
100
AcDbArc
 50
294.8055710923
 51
354.8870486542
  0
ARC
  5
274
100
AcDbEntity
  8
ALL_FEATURES
100
AcDbCircle
 62
7
  6
CONTINUOUS
 10
3.8621766683
 20
3.2027794174
 40
0.075
100
AcDbArc
 50
305.1129513458
 51
5.1944289077
  0
ARC
  5
275
100
AcDbEntity
  8
ALL_FEATURES
100
AcDbCircle
 62
9
  6
CONTINUOUS
 10
3.9213804781
 20
2.5565122358
 40
0.1029066562
100
AcDbArc
 50
122.9523457678
 51
125.3757060234
  0
ARC
  5
276
100
AcDbEntity
  8
ALL_FEATURES
100
AcDbCircle
 62
7
  6
CONTINUOUS
 10
3.9200614447
 20
2.555844836
 40
0.075
100
AcDbArc
 50
65.1129513458
 51
125.1944289077
  0
ARC
  5
277
100
AcDbEntity
  8
0
100
AcDbCircle
 62
7
  6
CONTINUOUS
 10
4.0778729839
 20
2.8960220223
 40
1.03125
100
AcDbArc
 50
320.1057402459
 51
339.8942597541
  0
ARC
  5
278
100
AcDbEntity
  8
0
100
AcDbCircle
 62
7
  6
CONTINUOUS
 10
4.0778729839
 20
2.8960220223
 40
1.03125
100
AcDbArc
 50
80.1057402459
 51
99.8942597541
  0
ARC
  5
279
100
AcDbEntity
  8
0
100
AcDbCircle
 62
7
  6
CONTINUOUS
 10
4.0778729839
 20
2.8960220223
 40
1.03125
100
AcDbArc
 50
200.1057402459
 51
219.8942597541
  0
ARC
  5
27A
100
AcDbEntity
  8
0
100
AcDbCircle
 62
7
  6
CONTINUOUS
 10
4.0778729839
 20
2.8960220223
 40
0.6274606299
100
AcDbArc
 50
225.4908385338
 51
314.5091614662
  0
ARC
  5
27B
100
AcDbEntity
  8
0
100
AcDbCircle
 62
7
  6
CONTINUOUS
 10
4.0778729839
 20
2.8960220223
 40
0.6274606299
100
AcDbArc
 50
105.4908385338
 51
194.5091614662
  0
ARC
  5
27C
100
AcDbEntity
  8
0
100
AcDbCircle
 62
7
  6
CONTINUOUS
 10
4.0778729839
 20
2.8960220223
 40
0.6274606299
100
AcDbArc
 50
345.4908385338
 51
74.5091614662
  0
ARC
  5
27D
100
AcDbEntity
  8
ALL_FEATURES
100
AcDbCircle
 62
7
  6
CONTINUOUS
 10
4.0778729839
 20
2.8960220223
 40
0.6200787402
100
AcDbArc
 50
345.6063649697
 51
74.3947172531
  0
ARC
  5
27E
100
AcDbEntity
  8
ALL_FEATURES
100
AcDbCircle
 62
7
  6
CONTINUOUS
 10
4.0778729839
 20
2.8960220223
 40
0.6200787402
100
AcDbArc
 50
105.6052827469
 51
194.3936350303
  0
ARC
  5
27F
100
AcDbEntity
  8
ALL_FEATURES
100
AcDbCircle
 62
7
  6
CONTINUOUS
 10
4.0778729839
 20
2.8960220223
 40
0.6200787402
100
AcDbArc
 50
225.6073824429
 51
314.3926175571
  0
ARC
  5
280
100
AcDbEntity
  8
ALL_FEATURES
100
AcDbCircle
 62
7
  6
CONTINUOUS
 10
4.0778729839
 20
2.8960220223
 40
0.49125
100
AcDbArc
 50
108.3784268926
 51
191.621897824
  0
ARC
  5
281
100
AcDbEntity
  8
ALL_FEATURES
100
AcDbCircle
 62
7
  6
CONTINUOUS
 10
4.0778729839
 20
2.8960220223
 40
0.49125
100
AcDbArc
 50
348.378102176
 51
71.6215731074
  0
ARC
  5
282
100
AcDbEntity
  8
ALL_FEATURES
100
AcDbCircle
 62
7
  6
CONTINUOUS
 10
4.0778729839
 20
2.8960220223
 40
0.49125
100
AcDbArc
 50
228.3786330016
 51
311.6213669984
  0
CIRCLE
  5
283
100
AcDbEntity
  8
ALL_FEATURES
100
AcDbCircle
 62
7
  6
CONTINUOUS
 10
4.0778729839
 20
2.8960220223
 40
0.3
  0
CIRCLE
  5
284
100
AcDbEntity
  8
ALL_FEATURES
100
AcDbCircle
 62
9
  6
CONTINUOUS
 10
4.0778729839
 20
2.8960220223
 40
0.2925
  0
CIRCLE
  5
285
100
AcDbEntity
  8
ALL_FEATURES
100
AcDbCircle
 62
7
  6
CONTINUOUS
 10
4.0778729839
 20
2.8960220223
 40
0.23625
  0
CIRCLE
  5
286
100
AcDbEntity
  8
ALL_FEATURES
100
AcDbCircle
 62
9
  6
CONTINUOUS
 10
4.0778729839
 20
2.8960220223
 40
0.2137499835
  0
CIRCLE
  5
287
100
AcDbEntity
  8
ALL_FEATURES
100
AcDbCircle
 62
7
  6
CONTINUOUS
 10
4.0778729839
 20
2.8960220223
 40
0.19875
  0
ARC
  5
288
100
AcDbEntity
  8
0
100
AcDbCircle
 62
7
  6
CONTINUOUS
 10
3.9058277908
 20
3.8823799766
 40
0.03
100
AcDbArc
 50
99.8942597541
 51
185.1944288883
  0
ARC
  5
289
100
AcDbEntity
  8
ALL_ASSEMBLY_MEMBERS
100
AcDbCircle
 62
9
  6
CONTINUOUS
 10
1.1521116827
 20
4.182562882
 40
2.8980104495
100
AcDbArc
 50
15.4946877883
 51
15.8602385488
  0
ARC
  5
28A
100
AcDbEntity
  8
0
100
AcDbCircle
 62
7
  6
CONTINUOUS
 10
4.0778729839
 20
5.2585220223
 40
0.6200775
100
AcDbArc
 50
286.0021638257
 51
253.9978361743
  0
ARC
  5
28B
100
AcDbEntity
  8
0
100
AcDbCircle
 62
7
  6
CONTINUOUS
 10
4.0778729839
 20
5.2585220223
 40
0.50325
100
AcDbArc
 50
289.3417123195
 51
250.6582876805
  0
ARC
  5
28C
100
AcDbEntity
  8
ALL_FEATURES
100
AcDbCircle
 62
7
  6
CONTINUOUS
 10
4.0778729839
 20
5.2585220223
 40
0.4886988938
100
AcDbArc
 50
289.8748313745
 51
250.1260687715
  0
ARC
  5
28D
100
AcDbEntity
  8
ALL_FEATURES
100
AcDbCircle
 62
7
  6
CONTINUOUS
 10
4.0778729839
 20
5.2585220223
 40
0.485625
100
AcDbArc
 50
289.9916492741
 51
250.0083507259
  0
CIRCLE
  5
28E
100
AcDbEntity
  8
ALL_ASSEMBLY_MEMBERS
100
AcDbCircle
 62
7
  6
CONTINUOUS
 10
4.0778729839
 20
5.2585220223
 40
0.3
  0
CIRCLE
  5
28F
100
AcDbEntity
  8
ALL_ASSEMBLY_MEMBERS
100
AcDbCircle
 62
9
  6
CONTINUOUS
 10
4.0778729839
 20
5.2585220223
 40
0.290625
  0
CIRCLE
  5
290
100
AcDbEntity
  8
ALL_ASSEMBLY_MEMBERS
100
AcDbCircle
 62
7
  6
CONTINUOUS
 10
4.0778729839
 20
5.2585220223
 40
0.234375
  0
CIRCLE
  5
291
100
AcDbEntity
  8
ALL_ASSEMBLY_MEMBERS
100
AcDbCircle
 62
9
  6
CONTINUOUS
 10
4.0778729839
 20
5.2585220223
 40
0.2118749883
  0
CIRCLE
  5
292
100
AcDbEntity
  8
ALL_ASSEMBLY_MEMBERS
100
AcDbCircle
 62
7
  6
CONTINUOUS
 10
4.0778729839
 20
5.2585220223
 40
0.196875
  0
ARC
  5
293
100
AcDbEntity
  8
ALL_ASSEMBLY_MEMBERS
100
AcDbCircle
 62
7
  6
CONTINUOUS
 10
3.8883749596
 20
4.988354484
 40
0.03
100
AcDbArc
 50
357.990446187
 51
54.9538230503
  0
ARC
  5
294
100
AcDbEntity
  8
ALL_ASSEMBLY_MEMBERS
100
AcDbCircle
 62
7
  6
CONTINUOUS
 10
3.9227598665
 20
4.2572720223
 40
0.03
100
AcDbArc
 50
177.990446187
 51
270.0
  0
ARC
  5
295
100
AcDbEntity
  8
0
100
AcDbCircle
 62
7
  6
CONTINUOUS
 10
2.0378729839
 20
7.1485220223
 40
0.0225
100
AcDbArc
 50
90.0
 51
180.0
  0
ARC
  5
296
100
AcDbEntity
  8
0
100
AcDbCircle
 62
7
  6
CONTINUOUS
 10
4.846061433
 20
2.2538475374
 40
0.03
100
AcDbArc
 50
234.8055710923
 51
320.1057402459
  0
ARC
  5
297
100
AcDbEntity
  8
ALL_FEATURES
100
AcDbCircle
 62
9
  6
CONTINUOUS
 10
4.6784913765
 20
2.9465600885
 40
0.3026506614
100
AcDbArc
 50
188.7347285459
 51
189.5426644552
  0
ARC
  5
298
100
AcDbEntity
  8
ALL_FEATURES
100
AcDbCircle
 62
9
  6
CONTINUOUS
 10
4.663996735
 20
2.9441446633
 40
0.2879561575
100
AcDbArc
 50
189.5468327319
 51
189.8832897721
  0
ARC
  5
299
100
AcDbEntity
  8
ALL_FEATURES
100
AcDbCircle
 62
9
  6
CONTINUOUS
 10
4.6512509077
 20
2.9418857084
 40
0.2750123061
100
AcDbArc
 50
189.8756533347
 51
190.5054042692
  0
ARC
  5
29A
100
AcDbEntity
  8
ALL_FEATURES
100
AcDbCircle
 62
9
  6
CONTINUOUS
 10
4.4501362362
 20
2.9302541789
 40
0.1029071059
100
AcDbArc
 50
242.9568388005
 51
245.3801695343
  0
ARC
  5
29B
100
AcDbEntity
  8
ALL_FEATURES
100
AcDbCircle
 62
9
  6
CONTINUOUS
 10
4.2936439572
 20
3.2013011146
 40
0.1029000263
100
AcDbArc
 50
174.6226680202
 51
177.0460948274
  0
ARC
  5
29C
100
AcDbEntity
  8
ALL_FEATURES
100
AcDbCircle
 62
9
  6
CONTINUOUS
 10
4.2343699537
 20
2.5565174566
 40
0.1028998143
100
AcDbArc
 50
54.6246379039
 51
57.048496037
  0
ARC
  5
29D
100
AcDbEntity
  8
ALL_FEATURES
100
AcDbCircle
 62
7
  6
CONTINUOUS
 10
4.4513808386
 20
2.9294418136
 40
0.075
100
AcDbArc
 50
185.1129513458
 51
245.1944289077
  0
ARC
  5
29E
100
AcDbEntity
  8
ALL_FEATURES
100
AcDbCircle
 62
7
  6
CONTINUOUS
 10
4.235684523
 20
2.555844836
 40
0.075
100
AcDbArc
 50
54.8055710923
 51
114.8870486542
  0
ARC
  5
29F
100
AcDbEntity
  8
ALL_FEATURES
100
AcDbCircle
 62
7
  6
CONTINUOUS
 10
4.2935692995
 20
3.2027794174
 40
0.075
100
AcDbArc
 50
174.8055710923
 51
234.8870486542
  0
ARC
  5
2A0
100
AcDbEntity
  8
0
100
AcDbCircle
 62
7
  6
CONTINUOUS
 10
4.2499181769
 20
3.8823799766
 40
0.03
100
AcDbArc
 50
354.8055710923
 51
80.1057402459
  0
ARC
  5
2A1
100
AcDbEntity
  8
0
100
AcDbCircle
 62
7
  6
CONTINUOUS
 10
5.0181066261
 20
2.551838553
 40
0.03
100
AcDbArc
 50
339.8942597541
 51
65.1944289077
  0
ARC
  5
2A2
100
AcDbEntity
  8
0
100
AcDbCircle
 62
7
  6
CONTINUOUS
 10
6.1178729839
 20
1.0060220223
 40
0.0225
100
AcDbArc
 50
270.0
 51
360.0
  0
ARC
  5
2A3
100
AcDbEntity
  8
ALL_ASSEMBLY_MEMBERS
100
AcDbCircle
 62
9
  6
CONTINUOUS
 10
7.0409633667
 20
4.1721042445
 40
2.9367768594
100
AcDbArc
 50
164.1425149262
 51
164.5032426055
  0
ARC
  5
2A4
100
AcDbEntity
  8
ALL_ASSEMBLY_MEMBERS
100
AcDbCircle
 62
7
  6
CONTINUOUS
 10
4.2673710082
 20
4.988354484
 40
0.03
100
AcDbArc
 50
125.0461769497
 51
182.009553813
  0
ARC
  5
2A5
100
AcDbEntity
  8
ALL_ASSEMBLY_MEMBERS
100
AcDbCircle
 62
7
  6
CONTINUOUS
 10
4.2329861013
 20
4.2572720223
 40
0.03
100
AcDbArc
 50
270.0
 51
2.009553813
  0
ARC
  5
2A6
100
AcDbEntity
  8
0
100
AcDbCircle
 62
7
  6
CONTINUOUS
 10
6.1178729839
 20
7.1485220223
 40
0.0225
100
AcDbArc
 50
0.0
 51
90.0
  0
SPLINE
  5
2A7
100
AcDbEntity
  8
ALL_ASSEMBLY_MEMBERS
100
AcDbSpline
 62
9
  6
CONTINUOUS
 70
0
 71
3
 72
27
 73
23
 74
0
 42
0.0000001
 43
0.0000001
 44
0.0000000001
 40
0.0
 40
0.0
 40
0.0
 40
0.0
 40
0.1989176209
 40
0.3881937382
 40
0.4769293769
 40
0.5607488055
 40
0.6389416085
 40
0.7108566873
 40
0.7758887688
 40
0.8334368278
 40
0.8829961718
 40
0.9241877667
 40
0.9415310679
 40
0.9566460234
 40
0.969501596
 40
0.9800849992
 40
0.9883884744
 40
0.9916856971
 40
0.9944156948
 40
0.9965844184
 40
0.9982062335
 40
1.0
 40
1.0
 40
1.0
 40
1.0
 10
3.9447945655
 20
4.9567635593
 30
0.0
 10
3.9429695826
 20
4.956823499
 30
0.0
 10
3.939407779
 20
4.9569316849
 30
0.0
 10
3.9350311601
 20
4.9570418351
 30
0.0
 10
3.9317104176
 20
4.9571098661
 30
0.0
 10
3.929409006
 20
4.9571492384
 30
0.0
 10
3.9272618499
 20
4.9571777103
 30
0.0
 10
3.9252870385
 20
4.9571950916
 30
0.0
 10
3.9235016686
 20
4.9572013481
 30
0.0
 10
3.9219215029
 20
4.9571964597
 30
0.0
 10
3.9205602678
 20
4.9571804531
 30
0.0
 10
3.9195682429
 20
4.9571572316
 30
0.0
 10
3.9188926413
 20
4.9571318033
 30
0.0
 10
3.9184771769
 20
4.9571111847
 30
0.0
 10
3.9181240191
 20
4.9570880605
 30
0.0
 10
3.9178336943
 20
4.9570624888
 30
0.0
 10
3.9176315511
 20
4.9570381024
 30
0.0
 10
3.9175016298
 20
4.9570161893
 30
0.0
 10
3.9174283617
 20
4.9570007734
 30
0.0
 10
3.9173696624
 20
4.9569842638
 30
0.0
 10
3.9173244597
 20
4.956966951
 30
0.0
 10
3.9172913549
 20
4.9569455087
 30
0.0
 10
3.9172907795
 20
4.9569290528
 30
0.0
  0
LINE
  5
2A8
100
AcDbEntity
  8
ALL_ASSEMBLY_MEMBERS
100
AcDbLine
 62
9
  6
CONTINUOUS
 10
3.9447945655
 20
4.9567635593
 11
3.9195069709
 21
4.2582050298
  0
SPLINE
  5
2A9
100
AcDbEntity
  8
ALL_ASSEMBLY_MEMBERS
100
AcDbSpline
 62
9
  6
CONTINUOUS
 70
0
 71
3
 72
20
 73
16
 74
0
 42
0.0000001
 43
0.0000001
 44
0.0000000001
 40
0.0
 40
0.0
 40
0.0
 40
0.0
 40
0.1728084274
 40
0.335982852
 40
0.4857103972
 40
0.5548050636
 40
0.6197520811
 40
0.680411664
 40
0.7367670505
 40
0.7888995273
 40
0.837010327
 40
0.881478182
 40
0.9229056359
 40
0.9620863873
 40
1.0
 40
1.0
 40
1.0
 40
1.0
 10
3.9397983432
 20
4.9745651854
 30
0.0
 10
3.9382824167
 20
4.9747962143
 30
0.0
 10
3.9353495284
 20
4.9753494376
 30
0.0
 10
3.9311838664
 20
4.9764724719
 30
0.0
 10
3.927997931
 20
4.9776486673
 30
0.0
 10
3.9257159873
 20
4.9787162928
 30
0.0
 10
3.9241982003
 20
4.9795443479
 30
0.0
 10
3.9228377276
 20
4.9804167957
 30
0.0
 10
3.9216425246
 20
4.9813278517
 30
0.0
 10
3.9206198269
 20
4.9822721515
 30
0.0
 10
3.9197767588
 20
4.983244926
 30
0.0
 10
3.9191212691
 20
4.9842418404
 30
0.0
 10
3.9186575435
 20
4.9852556651
 30
0.0
 10
3.9183898309
 20
4.9862784479
 30
0.0
 10
3.9183449948
 20
4.9869662672
 30
0.0
 10
3.9183568154
 20
4.987302489
 30
0.0
  0
SPLINE
  5
2AA
100
AcDbEntity
  8
ALL_ASSEMBLY_MEMBERS
100
AcDbSpline
 62
9
  6
CONTINUOUS
 70
0
 71
3
 72
17
 73
13
 74
0
 42
0.0000001
 43
0.0000001
 44
0.0000000001
 40
0.0
 40
0.0
 40
0.0
 40
0.0
 40
0.1245938328
 40
0.2491528456
 40
0.3737104968
 40
0.498290237
 40
0.560612366
 40
0.6229798577
 40
0.6854031239
 40
0.74791484
 40
0.8733636504
 40
1.0
 40
1.0
 40
1.0
 40
1.0
 10
3.9056015873
 20
5.0129158905
 30
0.0
 10
3.9073764107
 20
5.0116708412
 30
0.0
 10
3.910876906
 20
5.0091108552
 30
0.0
 10
3.9159666027
 20
5.0050606145
 30
0.0
 10
3.920873825
 20
5.0007910062
 30
0.0
 10
3.9247822256
 20
4.9970320815
 30
0.0
 10
3.9277661104
 20
4.9938832092
 30
0.0
 10
3.9299236574
 20
4.9914439028
 30
0.0
 10
3.9319844979
 20
4.9889176698
 30
0.0
 10
3.9345817687
 20
4.9854180201
 30
0.0
 10
3.9374870992
 20
4.9807637725
 30
0.0
 10
3.9391976007
 20
4.9766852299
 30
0.0
 10
3.9397983364
 20
4.9745651761
 30
0.0
  0
LINE
  5
2AB
100
AcDbEntity
  8
ALL_ASSEMBLY_MEMBERS
100
AcDbLine
 62
9
  6
CONTINUOUS
 10
4.2109514064
 20
4.956763569
 11
4.2362389965
 21
4.2582050295
  0
SPLINE
  5
2AC
100
AcDbEntity
  8
ALL_ASSEMBLY_MEMBERS
100
AcDbSpline
 62
9
  6
CONTINUOUS
 70
0
 71
3
 72
27
 73
23
 74
0
 42
0.0000001
 43
0.0000001
 44
0.0000000001
 40
0.0
 40
0.0
 40
0.0
 40
0.0
 40
0.0017937713
 40
0.0034155888
 40
0.0055843148
 40
0.0083143146
 40
0.0116115393
 40
0.0199150182
 40
0.0304984246
 40
0.043354
 40
0.0584689579
 40
0.0758122609
 40
0.1170038584
 40
0.1665632033
 40
0.2241112618
 40
0.2891433416
 40
0.3610584176
 40
0.4392512171
 40
0.5230706416
 40
0.6118062759
 40
0.8010823848
 40
1.0
 40
1.0
 40
1.0
 40
1.0
 10
4.2384551873
 20
4.9569290605
 30
0.0
 10
4.2384546119
 20
4.9569455163
 30
0.0
 10
4.238421507
 20
4.9569669587
 30
0.0
 10
4.2383763043
 20
4.9569842715
 30
0.0
 10
4.2383176049
 20
4.9570007811
 30
0.0
 10
4.2382443368
 20
4.9570161971
 30
0.0
 10
4.2381144154
 20
4.9570381102
 30
0.0
 10
4.2379122722
 20
4.9570624967
 30
0.0
 10
4.2376219474
 20
4.9570880684
 30
0.0
 10
4.2372687895
 20
4.9571111927
 30
0.0
 10
4.2368533252
 20
4.9571318113
 30
0.0
 10
4.2361777236
 20
4.9571572397
 30
0.0
 10
4.2351856988
 20
4.9571804613
 30
0.0
 10
4.233824464
 20
4.9571964681
 30
0.0
 10
4.2322442986
 20
4.9572013565
 30
0.0
 10
4.230458929
 20
4.9571951002
 30
0.0
 10
4.228484118
 20
4.957177719
 30
0.0
 10
4.2263369625
 20
4.9571492472
 30
0.0
 10
4.2240355514
 20
4.957109875
 30
0.0
 10
4.2207148096
 20
4.9570418442
 30
0.0
 10
4.2163381917
 20
4.9569316943
 30
0.0
 10
4.2127763888
 20
4.9568235085
 30
0.0
 10
4.2109514064
 20
4.956763569
 30
0.0
  0
SPLINE
  5
2AD
100
AcDbEntity
  8
ALL_ASSEMBLY_MEMBERS
100
AcDbSpline
 62
9
  6
CONTINUOUS
 70
0
 71
3
 72
20
 73
16
 74
0
 42
0.0000001
 43
0.0000001
 44
0.0000000001
 40
0.0
 40
0.0
 40
0.0
 40
0.0
 40
0.0379136635
 40
0.0770946844
 40
0.1185225323
 40
0.1629908219
 40
0.2111020311
 40
0.2632348479
 40
0.3195904802
 40
0.380250204
 40
0.4451972559
 40
0.5142918513
 40
0.6640189604
 40
0.8271926122
 40
1.0
 40
1.0
 40
1.0
 40
1.0
 10
4.2373893722
 20
4.9873024967
 30
0.0
 10
4.2374011745
 20
4.9869662723
 30
0.0
 10
4.2373563024
 20
4.9862784498
 30
0.0
 10
4.2370885424
 20
4.9852556686
 30
0.0
 10
4.2366247752
 20
4.9842418472
 30
0.0
 10
4.2359692495
 20
4.9832449375
 30
0.0
 10
4.2351261504
 20
4.9822721688
 30
0.0
 10
4.2341034262
 20
4.9813278759
 30
0.0
 10
4.2329082007
 20
4.9804168278
 30
0.0
 10
4.2315477095
 20
4.9795443889
 30
0.0
 10
4.2300299075
 20
4.9787163436
 30
0.0
 10
4.2277479489
 20
4.9776487335
 30
0.0
 10
4.2245620023
 20
4.9764725584
 30
0.0
 10
4.2203963342
 20
4.9753495503
 30
0.0
 10
4.2174634454
 20
4.9747963451
 30
0.0
 10
4.2159475199
 20
4.9745653258
 30
0.0
  0
SPLINE
  5
2AE
100
AcDbEntity
  8
ALL_ASSEMBLY_MEMBERS
100
AcDbSpline
 62
9
  6
CONTINUOUS
 70
0
 71
3
 72
16
 73
12
 74
0
 42
0.0000001
 43
0.0000001
 44
0.0000000001
 40
0.0
 40
0.0
 40
0.0
 40
0.0
 40
0.1245940096
 40
0.2491590131
 40
0.3737219184
 40
0.4983077164
 40
0.5606326591
 40
0.6230028857
 40
0.7479097386
 40
0.873361853
 40
1.0
 40
1.0
 40
1.0
 40
1.0
 10
4.2501443635
 20
5.0129158834
 30
0.0
 10
4.2483695564
 20
5.0116709286
 30
0.0
 10
4.2448691821
 20
5.0091108326
 30
0.0
 10
4.2397793886
 20
5.0050607439
 30
0.0
 10
4.2348721827
 20
5.000790955
 30
0.0
 10
4.2309636749
 20
4.9970321197
 30
0.0
 10
4.227979655
 20
4.9938831472
 30
0.0
 10
4.2251021297
 20
4.9906294408
 30
0.0
 10
4.2217403067
 20
4.9863400935
 30
0.0
 10
4.2182585158
 20
4.980764059
 30
0.0
 10
4.2165483234
 20
4.9766852049
 30
0.0
 10
4.2159476244
 20
4.9745651829
 30
0.0
  0
SPLINE
  5
2AF
100
AcDbEntity
  8
ALL_ASSEMBLY_MEMBERS
100
AcDbSpline
 62
9
  6
CONTINUOUS
 70
0
 71
3
 72
27
 73
23
 74
0
 42
0.0000001
 43
0.0000001
 44
0.0000000001
 40
0.0
 40
0.0
 40
0.0
 40
0.0
 40
0.0950871363
 40
0.1898008488
 40
0.2830156402
 40
0.3736455461
 40
0.4608101518
 40
0.5437037459
 40
0.6215140833
 40
0.6935005914
 40
0.7589941828
 40
0.8173476403
 40
0.868014853
 40
0.9105627163
 40
0.9286621911
 40
0.9445775715
 40
0.9582965424
 40
0.9698815522
 40
0.9794597639
 40
0.9872824329
 40
0.9938439711
 40
1.0
 40
1.0
 40
1.0
 40
1.0
 10
3.9195069573
 20
4.2582050427
 30
0.0
 10
3.9195313944
 20
4.2572070789
 30
0.0
 10
3.9195616894
 20
4.2552146325
 30
0.0
 10
3.9195868828
 20
4.252243557
 30
0.0
 10
3.9196242919
 20
4.2493193035
 30
0.0
 10
3.9197120703
 20
4.246475308
 30
0.0
 10
3.9198472026
 20
4.243741702
 30
0.0
 10
3.9200168138
 20
4.2411449232
 30
0.0
 10
3.9202086388
 20
4.2387095175
 30
0.0
 10
3.9204191761
 20
4.2364590314
 30
0.0
 10
3.9206514599
 20
4.2344160774
 30
0.0
 10
3.9209086464
 20
4.232601759
 30
0.0
 10
3.9211887318
 20
4.2310350266
 30
0.0
 10
3.9214406913
 20
4.2298933917
 30
0.0
 10
3.9216462554
 20
4.2291162268
 30
0.0
 10
3.9217894176
 20
4.2286358829
 30
0.0
 10
3.9219299981
 20
4.228226422
 30
0.0
 10
3.9220720638
 20
4.2278884347
 30
0.0
 10
3.9222198395
 20
4.2276214197
 30
0.0
 10
3.9223791253
 20
4.2274241469
 30
0.0
 10
3.9225599003
 20
4.2272987364
 30
0.0
 10
3.9226952381
 20
4.2272720223
 30
0.0
 10
3.9227598665
 20
4.2272720223
 30
0.0
  0
SPLINE
  5
2B0
100
AcDbEntity
  8
ALL_ASSEMBLY_MEMBERS
100
AcDbSpline
 62
9
  6
CONTINUOUS
 70
0
 71
3
 72
27
 73
23
 74
0
 42
0.0000001
 43
0.0000001
 44
0.0000000001
 40
0.0
 40
0.0
 40
0.0
 40
0.0
 40
0.0950871628
 40
0.1898009032
 40
0.2830157234
 40
0.3736456579
 40
0.4608102912
 40
0.5437039111
 40
0.6215142723
 40
0.6935008013
 40
0.7589944097
 40
0.8173478791
 40
0.8680150968
 40
0.9105629563
 40
0.9286624252
 40
0.9445777966
 40
0.9582967543
 40
0.9698817453
 40
0.9794599296
 40
0.987282559
 40
0.9938440413
 40
1.0
 40
1.0
 40
1.0
 40
1.0
 10
4.2362390105
 20
4.2582050427
 30
0.0
 10
4.2362145718
 20
4.2572070789
 30
0.0
 10
4.2361842738
 20
4.2552146326
 30
0.0
 10
4.2361590765
 20
4.252243557
 30
0.0
 10
4.236121664
 20
4.2493193035
 30
0.0
 10
4.2360338828
 20
4.2464753079
 30
0.0
 10
4.2358987483
 20
4.243741702
 30
0.0
 10
4.2357291355
 20
4.2411449232
 30
0.0
 10
4.2355373095
 20
4.2387095175
 30
0.0
 10
4.2353267718
 20
4.2364590315
 30
0.0
 10
4.2350944883
 20
4.2344160775
 30
0.0
 10
4.2348373028
 20
4.2326017591
 30
0.0
 10
4.2345572189
 20
4.2310350267
 30
0.0
 10
4.2343052612
 20
4.2298933918
 30
0.0
 10
4.234099699
 20
4.2291162269
 30
0.0
 10
4.2339565383
 20
4.228635883
 30
0.0
 10
4.2338159594
 20
4.2282264221
 30
0.0
 10
4.2336738954
 20
4.2278884349
 30
0.0
 10
4.2335261217
 20
4.22762142
 30
0.0
 10
4.2333668381
 20
4.2274241472
 30
0.0
 10
4.2331860653
 20
4.2272987365
 30
0.0
 10
4.2330507289
 20
4.2272720223
 30
0.0
 10
4.2329861012
 20
4.2272720223
 30
0.0
  0
SPLINE
  5
2B1
100
AcDbEntity
  8
ALL_ASSEMBLY_MEMBERS
100
AcDbSpline
 62
9
  6
CONTINUOUS
 70
0
 71
3
 72
11
 73
7
 74
0
 42
0.0000001
 43
0.0000001
 44
0.0000000001
 40
0.0
 40
0.0
 40
0.0
 40
0.0
 40
0.2503246684
 40
0.5005054202
 40
0.7504238736
 40
1.0
 40
1.0
 40
1.0
 40
1.0
 10
4.0778729839
 20
4.9276312457
 30
0.0
 10
4.0664230663
 20
4.9276321921
 30
0.0
 10
4.043510869
 20
4.9288719901
 30
0.0
 10
4.0095723432
 20
4.9344186721
 30
0.0
 10
3.9764598234
 20
4.9435717345
 30
0.0
 10
3.9551698866
 20
4.9520019927
 30
0.0
 10
3.9447946485
 20
4.9567635222
 30
0.0
  0
SPLINE
  5
2B2
100
AcDbEntity
  8
ALL_ASSEMBLY_MEMBERS
100
AcDbSpline
 62
9
  6
CONTINUOUS
 70
0
 71
3
 72
27
 73
23
 74
0
 42
0.0000001
 43
0.0000001
 44
0.0000000001
 40
0.0
 40
0.0
 40
0.0
 40
0.0
 40
0.2001718931
 40
0.3899465408
 40
0.478718722
 40
0.5624670416
 40
0.6405063271
 40
0.712209492
 40
0.7769943446
 40
0.8342828849
 40
0.8835902924
 40
0.9245533643
 40
0.9417961497
 40
0.9568224522
 40
0.9696028492
 40
0.9801256609
 40
0.9883845106
 40
0.9916660683
 40
0.994385352
 40
0.9965489973
 40
0.9981725846
 40
1.0
 40
1.0
 40
1.0
 40
1.0
 10
4.2362390105
 20
4.2582050427
 30
0.0
 10
4.2380239346
 20
4.2582622725
 30
0.0
 10
4.2415013556
 20
4.2583650768
 30
0.0
 10
4.2457710352
 20
4.2584685777
 30
0.0
 10
4.2490026614
 20
4.2585313499
 30
0.0
 10
4.2512377616
 20
4.258566975
 30
0.0
 10
4.2533207159
 20
4.2585918906
 30
0.0
 10
4.2552345862
 20
4.2586059432
 30
0.0
 10
4.2569633784
 20
4.2586091299
 30
0.0
 10
4.258492357
 20
4.258601462
 30
0.0
 10
4.2598086985
 20
4.2585829895
 30
0.0
 10
4.2607676
 20
4.258557891
 30
0.0
 10
4.2614204058
 20
4.2585311134
 30
0.0
 10
4.2618217585
 20
4.2585096293
 30
0.0
 10
4.2621628916
 20
4.2584857258
 30
0.0
 10
4.26244331
 20
4.2584594607
 30
0.0
 10
4.2626385506
 20
4.2584345339
 30
0.0
 10
4.2627639889
 20
4.2584122268
 30
0.0
 10
4.2628347976
 20
4.2583965531
 30
0.0
 10
4.2628914309
 20
4.2583798003
 30
0.0
 10
4.2629355535
 20
4.2583621516
 30
0.0
 10
4.2629670794
 20
4.2583402999
 30
0.0
 10
4.2629676511
 20
4.2583240065
 30
0.0
  0
SPLINE
  5
2B3
100
AcDbEntity
  8
ALL_ASSEMBLY_MEMBERS
100
AcDbSpline
 62
9
  6
CONTINUOUS
 70
0
 71
3
 72
11
 73
7
 74
0
 42
0.0000001
 43
0.0000001
 44
0.0000000001
 40
0.0
 40
0.0
 40
0.0
 40
0.0
 40
0.2495759313
 40
0.499494293
 40
0.7496751909
 40
1.0
 40
1.0
 40
1.0
 40
1.0
 10
4.210951328
 20
4.9567635339
 30
0.0
 10
4.2005761057
 20
4.9520019892
 30
0.0
 10
4.179286175
 20
4.9435717476
 30
0.0
 10
4.1461736661
 20
4.9344186474
 30
0.0
 10
4.1122351151
 20
4.9288720719
 30
0.0
 10
4.0893229088
 20
4.9276321718
 30
0.0
 10
4.0778729839
 20
4.9276312458
 30
0.0
  0
SPLINE
  5
2B4
100
AcDbEntity
  8
ALL_ASSEMBLY_MEMBERS
100
AcDbSpline
 62
9
  6
CONTINUOUS
 70
0
 71
3
 72
27
 73
23
 74
0
 42
0.0000001
 43
0.0000001
 44
0.0000000001
 40
0.0
 40
0.0
 40
0.0
 40
0.0
 40
0.0018274163
 40
0.0034510036
 40
0.005614649
 40
0.0083339326
 40
0.0116154903
 40
0.0198743398
 40
0.0303971514
 40
0.0431775484
 40
0.0582038508
 40
0.0754466361
 40
0.116409708
 40
0.1657171156
 40
0.2230056559
 40
0.2877905085
 40
0.3594936733
 40
0.4375329589
 40
0.5212812785
 40
0.6100534596
 40
0.7998281071
 40
1.0
 40
1.0
 40
1.0
 40
1.0
 10
3.8927783167
 20
4.2583240065
 30
0.0
 10
3.8927788883
 20
4.2583402999
 30
0.0
 10
3.8928104142
 20
4.2583621516
 30
0.0
 10
3.8928545368
 20
4.2583798003
 30
0.0
 10
3.8929111702
 20
4.2583965532
 30
0.0
 10
3.8929819789
 20
4.2584122269
 30
0.0
 10
3.8931074172
 20
4.258434534
 30
0.0
 10
3.8933026578
 20
4.2584594607
 30
0.0
 10
3.8935830762
 20
4.2584857258
 30
0.0
 10
3.8939242092
 20
4.2585096293
 30
0.0
 10
3.894325562
 20
4.2585311133
 30
0.0
 10
3.8949783677
 20
4.2585578909
 30
0.0
 10
3.8959372693
 20
4.2585829894
 30
0.0
 10
3.8972536108
 20
4.2586014619
 30
0.0
 10
3.8987825894
 20
4.2586091298
 30
0.0
 10
3.9005113815
 20
4.2586059431
 30
0.0
 10
3.9024252518
 20
4.2585918905
 30
0.0
 10
3.9045082061
 20
4.2585669749
 30
0.0
 10
3.9067433064
 20
4.2585313498
 30
0.0
 10
3.9099749326
 20
4.2584685776
 30
0.0
 10
3.9142446122
 20
4.2583650767
 30
0.0
 10
3.9177220331
 20
4.2582622725
 30
0.0
 10
3.9195069573
 20
4.2582050427
 30
0.0
  0
SPLINE
  5
2B5
100
AcDbEntity
  8
0
100
AcDbSpline
 62
9
  6
CONTINUOUS
 70
0
 71
3
 72
11
 73
7
 74
0
 42
0.0000001
 43
0.0000001
 44
0.0000000001
 40
0.0
 40
0.0
 40
0.0
 40
0.0
 40
0.2499892147
 40
0.4999823209
 40
0.7499848788
 40
1.0
 40
1.0
 40
1.0
 40
1.0
 10
4.2939418046
 20
2.6404195795
 30
0.0
 10
4.3396663895
 20
2.6079517698
 30
0.0
 10
4.4310940973
 20
2.5429844293
 30
0.0
 10
4.5682736038
 20
2.4455823969
 30
0.0
 10
4.7055698344
 20
2.3483348458
 30
0.0
 10
4.7972144029
 20
2.2836598667
 30
0.0
 10
4.8430726149
 20
2.2513709745
 30
0.0
  0
SPLINE
  5
2B6
100
AcDbEntity
  8
ALL_FEATURES
100
AcDbSpline
 62
9
  6
CONTINUOUS
 70
0
 71
3
 72
20
 73
16
 74
0
 42
0.0000001
 43
0.0000001
 44
0.0000000001
 40
0.0
 40
0.0
 40
0.0
 40
0.0
 40
0.1836258299
 40
0.3601720934
 40
0.5235562422
 40
0.6690517553
 40
0.7337964989
 40
0.7925646397
 40
0.8449760776
 40
0.8906617293
 40
0.9292555494
 40
0.9604284305
 40
0.984027883
 40
0.992967556
 40
1.0
 40
1.0
 40
1.0
 40
1.0
 10
4.2939418046
 20
2.6404195795
 30
0.0
 10
4.2929758864
 20
2.6390414534
 30
0.0
 10
4.2910901267
 20
2.6363321284
 30
0.0
 10
4.2883753755
 20
2.6323755038
 30
0.0
 10
4.2858867618
 20
2.6286876866
 30
0.0
 10
4.2839972415
 20
2.6258318654
 30
0.0
 10
4.2826561526
 20
2.6237630457
 30
0.0
 10
4.2817891107
 20
2.6224036607
 30
0.0
 10
4.2810268357
 20
2.6211846893
 30
0.0
 10
4.2803747887
 20
2.6201149614
 30
0.0
 10
4.2798378231
 20
2.6192031152
 30
0.0
 10
4.2794204831
 20
2.618456062
 30
0.0
 10
4.2791527397
 20
2.6179367729
 30
0.0
 10
4.2790039919
 20
2.6176059439
 30
0.0
 10
4.2789508393
 20
2.6174693855
 30
0.0
 10
4.2789305074
 20
2.6174082244
 30
0.0
  0
LINE
  5
2B7
100
AcDbEntity
  8
ALL_FEATURES
100
AcDbLine
 62
9
  6
CONTINUOUS
 10
4.2789305074
 20
2.6174082244
 11
4.2789109875
 21
2.6171349067
  0
SPLINE
  5
2B8
100
AcDbEntity
  8
0
100
AcDbSpline
 62
9
  6
CONTINUOUS
 70
0
 71
3
 72
25
 73
21
 74
0
 42
0.0000001
 43
0.0000001
 44
0.0000000001
 40
0.0
 40
0.0
 40
0.0
 40
0.0
 40
0.0021046595
 40
0.0038049375
 40
0.0060221734
 40
0.0087794718
 40
0.0120876423
 40
0.0203742756
 40
0.0436607572
 40
0.0758489501
 40
0.1166860475
 40
0.1658364755
 40
0.2229493706
 40
0.2875537101
 40
0.3590866549
 40
0.4369808576
 40
0.5206245109
 40
0.609348417
 40
0.7992600975
 40
1.0
 40
1.0
 40
1.0
 40
1.0
 10
4.8287708472
 20
2.2293315091
 30
0.0
 10
4.8287557546
 20
2.2293421536
 30
0.0
 10
4.8287483519
 20
2.2293811559
 30
0.0
 10
4.82875398
 20
2.2294320532
 30
0.0
 10
4.8287666583
 20
2.2294899338
 30
0.0
 10
4.8287880938
 20
2.2295592137
 30
0.0
 10
4.8288314705
 20
2.2296775933
 30
0.0
 10
4.8289541137
 20
2.2299581711
 30
0.0
 10
4.8292115252
 20
2.2304554294
 30
0.0
 10
4.8296270259
 20
2.2311913916
 30
0.0
 10
4.8301757853
 20
2.2321125328
 30
0.0
 10
4.8308532258
 20
2.2332113316
 30
0.0
 10
4.8316544786
 20
2.234478709
 30
0.0
 10
4.8325729499
 20
2.2359042577
 30
0.0
 10
4.8336010212
 20
2.2374760686
 30
0.0
 10
4.8347303993
 20
2.2391812098
 30
0.0
 10
4.8359521461
 20
2.241006079
 30
0.0
 10
4.8377322022
 20
2.2436400537
 30
0.0
 10
4.8401084726
 20
2.2471112284
 30
0.0
 10
4.8420635454
 20
2.249927113
 30
0.0
 10
4.8430726148
 20
2.2513709743
 30
0.0
  0
SPLINE
  5
2B9
100
AcDbEntity
  8
ALL_FEATURES
100
AcDbSpline
 62
9
  6
CONTINUOUS
 70
0
 71
3
 72
19
 73
15
 74
0
 42
0.0000001
 43
0.0000001
 44
0.0000000001
 40
0.0
 40
0.0
 40
0.0
 40
0.0
 40
0.1234890874
 40
0.2470123959
 40
0.3706666498
 40
0.4946058477
 40
0.5567615554
 40
0.6190945294
 40
0.6816612025
 40
0.7445308458
 40
0.8077826319
 40
0.8714858565
 40
0.9356381169
 40
1.0
 40
1.0
 40
1.0
 40
1.0
 10
3.951624369
 20
2.6238806526
 30
0.0
 10
3.9482665563
 20
2.6254381884
 30
0.0
 10
3.9415033519
 20
2.6284542322
 30
0.0
 10
3.9312206737
 20
2.6326671555
 30
0.0
 10
3.9207842189
 20
2.6365240211
 30
0.0
 10
3.9119403175
 20
2.6393645368
 30
0.0
 10
3.9047569039
 20
2.6413303384
 30
0.0
 10
3.8992995873
 20
2.6426222407
 30
0.0
 10
3.8937716107
 20
2.6436899545
 30
0.0
 10
3.8881682084
 20
2.6444792939
 30
0.0
 10
3.8824907245
 20
2.6449174564
 30
0.0
 10
3.8767547914
 20
2.6449062944
 30
0.0
 10
3.8710122117
 20
2.6443199158
 30
0.0
 10
3.8672448917
 20
2.6434447744
 30
0.0
 10
3.8654053616
 20
2.6428635022
 30
0.0
  0
LINE
  5
2BA
100
AcDbEntity
  8
ALL_FEATURES
100
AcDbLine
 62
9
  6
CONTINUOUS
 10
3.8794125758
 20
2.6188739594
 11
3.8791642281
 21
2.6198207006
  0
SPLINE
  5
2BB
100
AcDbEntity
  8
ALL_FEATURES
100
AcDbSpline
 62
9
  6
CONTINUOUS
 70
0
 71
3
 72
15
 73
11
 74
0
 42
0.0000001
 43
0.0000001
 44
0.0000000001
 40
0.0
 40
0.0
 40
0.0
 40
0.0
 40
0.0249593138
 40
0.0563070514
 40
0.1374143871
 40
0.2412180209
 40
0.3653565962
 40
0.5068874182
 40
0.6625901486
 40
1.0
 40
1.0
 40
1.0
 40
1.0
 10
3.8791642281
 20
2.6198207006
 30
0.0
 10
3.8790747232
 20
2.6200253704
 30
0.0
 10
3.8788603102
 20
2.6204816048
 30
0.0
 10
3.8783050834
 20
2.6215790756
 30
0.0
 10
3.8773785277
 20
2.6232788107
 30
0.0
 10
3.8760064782
 20
2.6256805612
 30
0.0
 10
3.8743248969
 20
2.6285279697
 30
0.0
 10
3.8723733574
 20
2.6317550879
 30
0.0
 10
3.8693920785
 20
2.6365898955
 30
0.0
 10
3.8670341328
 20
2.6403207478
 30
0.0
 10
3.8654052972
 20
2.6428636054
 30
0.0
  0
LINE
  5
2BC
100
AcDbEntity
  8
ALL_FEATURES
100
AcDbLine
 62
9
  6
CONTINUOUS
 10
3.8768349803
 20
2.6171349067
 11
3.8765298924
 21
2.6180549599
  0
SPLINE
  5
2BD
100
AcDbEntity
  8
ALL_FEATURES
100
AcDbSpline
 62
9
  6
CONTINUOUS
 70
0
 71
3
 72
15
 73
11
 74
0
 42
0.0000001
 43
0.0000001
 44
0.0000000001
 40
0.0
 40
0.0
 40
0.0
 40
0.0
 40
0.0249164654
 40
0.0562280898
 40
0.1372765353
 40
0.2410363837
 40
0.3651488419
 40
0.5066769708
 40
0.6624076567
 40
1.0
 40
1.0
 40
1.0
 40
1.0
 10
3.8765298924
 20
2.6180549599
 30
0.0
 10
3.8764300281
 20
2.6182537699
 30
0.0
 10
3.8761933933
 20
2.6186967297
 30
0.0
 10
3.8755869098
 20
2.6197620061
 30
0.0
 10
3.8745846516
 20
2.6214114491
 30
0.0
 10
3.8731089838
 20
2.6237419747
 30
0.0
 10
3.8713073474
 20
2.6265049987
 30
0.0
 10
3.8692219462
 20
2.6296367108
 30
0.0
 10
3.8660423244
 20
2.6343297094
 30
0.0
 10
3.8635342878
 20
2.6379511199
 30
0.0
 10
3.861804163
 20
2.6404195795
 30
0.0
  0
SPLINE
  5
2BE
100
AcDbEntity
  8
0
100
AcDbSpline
 62
9
  6
CONTINUOUS
 70
0
 71
3
 72
11
 73
7
 74
0
 42
0.0000001
 43
0.0000001
 44
0.0000000001
 40
0.0
 40
0.0
 40
0.0
 40
0.0
 40
0.2499892146
 40
0.4999823204
 40
0.7499848786
 40
1.0
 40
1.0
 40
1.0
 40
1.0
 10
3.861804163
 20
2.6404195795
 30
0.0
 10
3.8160795785
 20
2.6079517696
 30
0.0
 10
3.7246518702
 20
2.5429844298
 30
0.0
 10
3.5874723642
 20
2.445582397
 30
0.0
 10
3.4501761337
 20
2.3483348459
 30
0.0
 10
3.358531565
 20
2.2836598668
 30
0.0
 10
3.312673353
 20
2.2513709746
 30
0.0
  0
SPLINE
  5
2BF
100
AcDbEntity
  8
0
100
AcDbSpline
 62
9
  6
CONTINUOUS
 70
0
 71
3
 72
25
 73
21
 74
0
 42
0.0000001
 43
0.0000001
 44
0.0000000001
 40
0.0
 40
0.0
 40
0.0
 40
0.0
 40
0.2007399015
 40
0.3906515811
 40
0.4793754869
 40
0.5630191399
 40
0.6409133424
 40
0.7124462871
 40
0.7770506266
 40
0.8341635217
 40
0.8833139499
 40
0.9241510475
 40
0.9563392408
 40
0.9796257228
 40
0.9879123565
 40
0.9912205272
 40
0.9939778258
 40
0.9961950618
 40
0.99789534
 40
1.0
 40
1.0
 40
1.0
 40
1.0
 10
3.3126733531
 20
2.2513709744
 30
0.0
 10
3.3136824225
 20
2.2499271132
 30
0.0
 10
3.3156374954
 20
2.2471112286
 30
0.0
 10
3.3180137657
 20
2.2436400539
 30
0.0
 10
3.3197938218
 20
2.2410060792
 30
0.0
 10
3.3210155686
 20
2.23918121
 30
0.0
 10
3.3221449467
 20
2.2374760688
 30
0.0
 10
3.323173018
 20
2.2359042579
 30
0.0
 10
3.3240914893
 20
2.2344787092
 30
0.0
 10
3.3248927421
 20
2.2332113317
 30
0.0
 10
3.3255701825
 20
2.232112533
 30
0.0
 10
3.3261189419
 20
2.2311913917
 30
0.0
 10
3.3265344426
 20
2.2304554295
 30
0.0
 10
3.3267918541
 20
2.2299581712
 30
0.0
 10
3.3269144973
 20
2.2296775933
 30
0.0
 10
3.326957874
 20
2.2295592137
 30
0.0
 10
3.3269793095
 20
2.2294899338
 30
0.0
 10
3.3269919878
 20
2.2294320532
 30
0.0
 10
3.3269976158
 20
2.2293811559
 30
0.0
 10
3.3269902131
 20
2.2293421536
 30
0.0
 10
3.3269751205
 20
2.2293315091
 30
0.0
  0
SPLINE
  5
2C0
100
AcDbEntity
  8
ALL_FEATURES
100
AcDbSpline
 62
9
  6
CONTINUOUS
 70
0
 71
3
 72
17
 73
13
 74
0
 42
0.0000001
 43
0.0000001
 44
0.0000000001
 40
0.0
 40
0.0
 40
0.0
 40
0.0
 40
0.1230286201
 40
0.2463040112
 40
0.3699467002
 40
0.4941172751
 40
0.6190298887
 40
0.7449367572
 40
0.8083578629
 40
0.8720761737
 40
0.9360181606
 40
1.0
 40
1.0
 40
1.0
 40
1.0
 10
3.7748949053
 20
2.8917260986
 30
0.0
 10
3.7744564716
 20
2.8893630561
 30
0.0
 10
3.7735144973
 20
2.8846437879
 30
0.0
 10
3.7718725433
 20
2.8776043594
 30
0.0
 10
3.7699494673
 20
2.8706125074
 30
0.0
 10
3.7676742837
 20
2.8636918521
 30
0.0
 10
3.7649492202
 20
2.8568859734
 30
0.0
 10
3.7621962638
 20
2.8513868574
 30
0.0
 10
3.7596187215
 20
2.8471654847
 30
0.0
 10
3.75746616
 20
2.8441119088
 30
0.0
 10
3.7550792771
 20
2.841222641
 30
0.0
 10
3.753319543
 20
2.8394419281
 30
0.0
 10
3.7523974621
 20
2.8385981333
 30
0.0
  0
SPLINE
  5
2C1
100
AcDbEntity
  8
ALL_FEATURES
100
AcDbSpline
 62
9
  6
CONTINUOUS
 70
0
 71
3
 72
27
 73
23
 74
0
 42
0.0000001
 43
0.0000001
 44
0.0000000001
 40
0.0
 40
0.0
 40
0.0
 40
0.0
 40
0.1978743118
 40
0.3867983515
 40
0.4754348711
 40
0.559144717
 40
0.6372601723
 40
0.7091140976
 40
0.7740715023
 40
0.831623568
 40
0.8812950659
 40
0.9226155121
 40
0.9400068489
 40
0.9551793975
 40
0.9681195528
 40
0.9788178803
 40
0.9872736517
 40
0.9906665798
 40
0.9935106144
 40
0.9958196567
 40
0.9976224876
 40
1.0
 40
1.0
 40
1.0
 40
1.0
 10
3.7523973688
 20
2.8385983202
 30
0.0
 10
3.7515531096
 20
2.8402299949
 30
0.0
 10
3.7498904788
 20
2.8434131908
 30
0.0
 10
3.7478158402
 20
2.8473094889
 30
0.0
 10
3.7462180388
 20
2.8502586848
 30
0.0
 10
3.7450996377
 20
2.8522974887
 30
0.0
 10
3.7440450624
 20
2.8541935432
 30
0.0
 10
3.7430632845
 20
2.8559308158
 30
0.0
 10
3.7421625459
 20
2.857494523
 30
0.0
 10
3.7413506582
 20
2.8588716583
 30
0.0
 10
3.7406346986
 20
2.8600504556
 30
0.0
 10
3.7400970705
 20
2.8609011978
 30
0.0
 10
3.7397179274
 20
2.8614729087
 30
0.0
 10
3.7394780277
 20
2.8618207029
 30
0.0
 10
3.7392663988
 20
2.8621124125
 30
0.0
 10
3.739083382
 20
2.8623476422
 30
0.0
 10
3.7389469303
 20
2.8625065916
 30
0.0
 10
3.7388511325
 20
2.8626038825
 30
0.0
 10
3.7387923285
 20
2.8626570189
 30
0.0
 10
3.7387401342
 20
2.8626960215
 30
0.0
 10
3.7386890588
 20
2.862725569
 30
0.0
 10
3.738644997
 20
2.8627343032
 30
0.0
 10
3.7386253611
 20
2.8627242191
 30
0.0
  0
SPLINE
  5
2C2
100
AcDbEntity
  8
0
100
AcDbSpline
 62
9
  6
CONTINUOUS
 70
0
 71
3
 72
11
 73
7
 74
0
 42
0.0000001
 43
0.0000001
 44
0.0000000001
 40
0.0
 40
0.0
 40
0.0
 40
0.0
 40
0.2499892147
 40
0.4999823209
 40
0.7499848788
 40
1.0
 40
1.0
 40
1.0
 40
1.0
 10
3.7484803647
 20
2.836702156
 30
0.0
 10
3.6975001243
 20
2.8133374088
 30
0.0
 10
3.595522903
 20
2.7666423615
 30
0.0
 10
3.4425805154
 20
2.6965424401
 30
0.0
 10
3.2897135504
 20
2.6262641922
 30
0.0
 10
3.1878810912
 20
2.5792351572
 30
0.0
 10
3.1369889843
 20
2.5556652268
 30
0.0
  0
SPLINE
  5
2C3
100
AcDbEntity
  8
ALL_FEATURES
100
AcDbSpline
 62
9
  6
CONTINUOUS
 70
0
 71
3
 72
20
 73
16
 74
0
 42
0.0000001
 43
0.0000001
 44
0.0000000001
 40
0.0
 40
0.0
 40
0.0
 40
0.0
 40
0.1836258299
 40
0.3601720934
 40
0.5235562422
 40
0.6690517553
 40
0.7337964989
 40
0.7925646397
 40
0.8449760776
 40
0.8906617293
 40
0.9292555494
 40
0.9604284305
 40
0.984027883
 40
0.992967556
 40
1.0
 40
1.0
 40
1.0
 40
1.0
 10
3.7484803647
 20
2.836702156
 30
0.0
 10
3.7477698316
 20
2.8382277288
 30
0.0
 10
3.7463663672
 20
2.8412155071
 30
0.0
 10
3.7442972054
 20
2.8455448629
 30
0.0
 10
3.7423477689
 20
2.8495439742
 30
0.0
 10
3.7408193153
 20
2.8526082573
 30
0.0
 10
3.7396982093
 20
2.8548040842
 30
0.0
 10
3.7389544683
 20
2.8562346571
 30
0.0
 10
3.7382799456
 20
2.8575042923
 30
0.0
 10
3.7376795575
 20
2.8586038455
 30
0.0
 10
3.7371583585
 20
2.8595247945
 30
0.0
 10
3.7367200614
 20
2.860259748
 30
0.0
 10
3.7364042155
 20
2.8607512653
 30
0.0
 10
3.7361920831
 20
2.8610454991
 30
0.0
 10
3.7361003964
 20
2.8611598098
 30
0.0
 10
3.7360575952
 20
2.8612079983
 30
0.0
  0
LINE
  5
2C4
100
AcDbEntity
  8
ALL_FEATURES
100
AcDbLine
 62
9
  6
CONTINUOUS
 10
3.7360575952
 20
2.8612079983
 11
3.7358306552
 21
2.8613615619
  0
SPLINE
  5
2C5
100
AcDbEntity
  8
0
100
AcDbSpline
 62
9
  6
CONTINUOUS
 70
0
 71
3
 72
25
 73
21
 74
0
 42
0.0000001
 43
0.0000001
 44
0.0000000001
 40
0.0
 40
0.0
 40
0.0
 40
0.0
 40
0.0021046595
 40
0.0038049375
 40
0.0060221734
 40
0.0087794718
 40
0.0120876423
 40
0.0203742756
 40
0.0436607572
 40
0.0758489501
 40
0.1166860475
 40
0.1658364755
 40
0.2229493706
 40
0.2875537101
 40
0.3590866549
 40
0.4369808576
 40
0.5206245109
 40
0.609348417
 40
0.7992600975
 40
1.0
 40
1.0
 40
1.0
 40
1.0
 10
3.1250531312
 20
2.5790706537
 30
0.0
 10
3.125069896
 20
2.579078402
 30
0.0
 10
3.1251073743
 20
2.5790653118
 30
0.0
 10
3.1251486386
 20
2.579034989
 30
0.0
 10
3.1251924255
 20
2.578995069
 30
0.0
 10
3.125241706
 20
2.5789418654
 30
0.0
 10
3.1253225373
 20
2.5788451102
 30
0.0
 10
3.1255042033
 20
2.5785986092
 30
0.0
 10
3.1258061358
 20
2.5781270551
 30
0.0
 10
3.1262357474
 20
2.5773992399
 30
0.0
 10
3.1267590994
 20
2.5764634297
 30
0.0
 10
3.1273719668
 20
2.5753273497
 30
0.0
 10
3.1280689215
 20
2.5739997557
 30
0.0
 10
3.1288442472
 20
2.5724915618
 30
0.0
 10
3.1296914397
 20
2.5708153205
 30
0.0
 10
3.1306034463
 20
2.5689846797
 30
0.0
 10
3.131572956
 20
2.5670141814
 30
0.0
 10
3.1329640169
 20
2.5641556203
 30
0.0
 10
3.1347820072
 20
2.5603621224
 30
0.0
 10
3.1362430984
 20
2.5572610374
 30
0.0
 10
3.1369889842
 20
2.555665227
 30
0.0
  0
SPLINE
  5
2C6
100
AcDbEntity
  8
ALL_FEATURES
100
AcDbSpline
 62
9
  6
CONTINUOUS
 70
0
 71
3
 72
17
 73
13
 74
0
 42
0.0000001
 43
0.0000001
 44
0.0000000001
 40
0.0
 40
0.0
 40
0.0
 40
0.0
 40
0.1247732146
 40
0.1872675123
 40
0.2497897056
 40
0.3748605248
 40
0.5000000645
 40
0.6251395414
 40
0.7502102636
 40
0.8127324648
 40
0.8752267995
 40
1.0
 40
1.0
 40
1.0
 40
1.0
 10
4.1908806779
 20
3.2066038038
 30
0.0
 10
4.1819015897
 20
3.2100262678
 30
0.0
 10
4.1681822925
 20
3.214556708
 30
0.0
 10
4.1495439551
 20
3.2193383851
 30
0.0
 10
4.130683557
 20
3.2232713136
 30
0.0
 10
4.1067894505
 20
3.2265712172
 30
0.0
 10
4.0778729228
 20
3.2278931712
 30
0.0
 10
4.0489564039
 20
3.2265711405
 30
0.0
 10
4.0250623248
 20
3.223271145
 30
0.0
 10
4.0062019237
 20
3.2193382564
 30
0.0
 10
3.9875635541
 20
3.2145567032
 30
0.0
 10
3.9738442323
 20
3.2100263002
 30
0.0
 10
3.964865187
 20
3.2066037269
 30
0.0
  0
SPLINE
  5
2C7
100
AcDbEntity
  8
0
100
AcDbSpline
 62
9
  6
CONTINUOUS
 70
0
 71
3
 72
12
 73
8
 74
0
 42
0.0000001
 43
0.0000001
 44
0.0000000001
 40
0.0
 40
0.0
 40
0.0
 40
0.0
 40
0.2494619575
 40
0.4999368212
 40
0.7504410563
 40
0.8754354063
 40
1.0
 40
1.0
 40
1.0
 40
1.0
 10
3.9021886117
 20
3.8810298792
 30
0.0
 10
3.9311118454
 20
3.8860443352
 30
0.0
 10
3.9895355856
 20
3.8936279551
 30
0.0
 10
4.0778607955
 20
3.897441075
 30
0.0
 10
4.1515531887
 20
3.8942609868
 30
0.0
 10
4.2100691752
 20
3.8879332993
 30
0.0
 10
4.2391150308
 20
3.8835337643
 30
0.0
 10
4.2535573561
 20
3.8810298784
 30
0.0
  0
SPLINE
  5
2C8
100
AcDbEntity
  8
0
100
AcDbSpline
 62
9
  6
CONTINUOUS
 70
0
 71
3
 72
25
 73
21
 74
0
 42
0.0000001
 43
0.0000001
 44
0.0000000001
 40
0.0
 40
0.0
 40
0.0
 40
0.0
 40
0.1892542767
 40
0.3723761156
 40
0.4591604082
 40
0.5416762339
 40
0.6191401332
 40
0.6908371017
 40
0.7561052855
 40
0.814298796
 40
0.8648990821
 40
0.9075556957
 40
0.9258201935
 40
0.9420094517
 40
0.9561319328
 40
0.9682372353
 40
0.9784186667
 40
0.986849086
 40
0.9938513367
 40
1.0
 40
1.0
 40
1.0
 40
1.0
 10
3.3126733531
 20
2.2513709744
 30
0.0
 10
3.3111564319
 20
2.2500951846
 30
0.0
 10
3.3081398661
 20
2.2476226117
 30
0.0
 10
3.3043439396
 20
2.2446692681
 30
0.0
 10
3.30138128
 20
2.2424677008
 30
0.0
 10
3.2992827295
 20
2.240959109
 30
0.0
 10
3.2972875629
 20
2.239578031
 30
0.0
 10
3.2954152441
 20
2.2383376106
 30
0.0
 10
3.2936846848
 20
2.2372496203
 30
0.0
 10
3.2921132052
 20
2.236324938
 30
0.0
 10
3.2907162602
 20
2.2355727974
 30
0.0
 10
3.2896606127
 20
2.2350709237
 30
0.0
 10
3.2889119532
 20
2.2347674591
 30
0.0
 10
3.2884315934
 20
2.2345991445
 30
0.0
 10
3.2880037386
 20
2.2344782662
 30
0.0
 10
3.2876290263
 20
2.2344046571
 30
0.0
 10
3.2873074977
 20
2.2343780907
 30
0.0
 10
3.2870384357
 20
2.2343990209
 30
0.0
 10
3.2868205654
 20
2.234469616
 30
0.0
 10
3.2867089542
 20
2.2345569478
 30
0.0
 10
3.2866676524
 20
2.2346063543
 30
0.0
  0
SPLINE
  5
2C9
100
AcDbEntity
  8
0
100
AcDbSpline
 62
9
  6
CONTINUOUS
 70
0
 71
3
 72
25
 73
21
 74
0
 42
0.0000001
 43
0.0000001
 44
0.0000000001
 40
0.0
 40
0.0
 40
0.0
 40
0.0
 40
0.1892543099
 40
0.37237618
 40
0.4591604874
 40
0.5416763282
 40
0.6191402436
 40
0.690837229
 40
0.7561054309
 40
0.8142989619
 40
0.8648992686
 40
0.9075558952
 40
0.9258203918
 40
0.9420096397
 40
0.9561320993
 40
0.9682373697
 40
0.9784187608
 40
0.9868491365
 40
0.9938513503
 40
1.0
 40
1.0
 40
1.0
 40
1.0
 10
3.1369889842
 20
2.555665227
 30
0.0
 10
3.1351256573
 20
2.5549894293
 30
0.0
 10
3.1314760632
 20
2.5536132936
 30
0.0
 10
3.1270204295
 20
2.5518025965
 30
0.0
 10
3.1236324871
 20
2.55033764
 30
0.0
 10
3.1212767336
 20
2.5492745366
 30
0.0
 10
3.1190831022
 20
2.5482372095
 30
0.0
 10
3.1170727074
 20
2.5472359432
 30
0.0
 10
3.1152652009
 20
2.5462812289
 30
0.0
 10
3.1136786632
 20
2.5453826271
 30
0.0
 10
3.1123288189
 20
2.5445489055
 30
0.0
 10
3.1113663603
 20
2.5438856238
 30
0.0
 10
3.1107292224
 20
2.5433889982
 30
0.0
 10
3.1103432775
 20
2.5430571528
 30
0.0
 10
3.1100246658
 20
2.5427470605
 30
0.0
 10
3.1097735615
 20
2.5424593568
 30
0.0
 10
3.1095897892
 20
2.5421941902
 30
0.0
 10
3.1094733835
 20
2.5419507124
 30
0.0
 10
3.1094255849
 20
2.5417267347
 30
0.0
 10
3.1094454108
 20
2.5415864112
 30
0.0
 10
3.1094675471
 20
2.5415259397
 30
0.0
  0
SPLINE
  5
2CA
100
AcDbEntity
  8
ALL_FEATURES
100
AcDbSpline
 62
9
  6
CONTINUOUS
 70
0
 71
3
 72
16
 73
12
 74
0
 42
0.0000001
 43
0.0000001
 44
0.0000000001
 40
0.0
 40
0.0
 40
0.0
 40
0.0
 40
0.1247778044
 40
0.1872744098
 40
0.2497987157
 40
0.3748732077
 40
0.5000161719
 40
0.6251588504
 40
0.7502333045
 40
0.8752223097
 40
1.0
 40
1.0
 40
1.0
 40
1.0
 10
3.7523974038
 20
2.8385980792
 30
0.0
 10
3.7539230197
 20
2.8291107043
 30
0.0
 10
3.7568590352
 20
2.8149641568
 30
0.0
 10
3.7620370209
 20
2.7964319635
 30
0.0
 10
3.7680612945
 20
2.7781319789
 30
0.0
 10
3.7771510788
 20
2.7557894163
 30
0.0
 10
3.7904642297
 20
2.7300862985
 30
0.0
 10
3.8060678681
 20
2.7057045366
 30
0.0
 10
3.823827637
 20
2.68286013
 30
0.0
 10
3.843572534
 20
2.6617503608
 30
0.0
 10
3.8579517477
 20
2.648928217
 30
0.0
 10
3.8654054068
 20
2.6428635172
 30
0.0
  0
SPLINE
  5
2CB
100
AcDbEntity
  8
0
100
AcDbSpline
 62
9
  6
CONTINUOUS
 70
0
 71
3
 72
25
 73
21
 74
0
 42
0.0000001
 43
0.0000001
 44
0.0000000001
 40
0.0
 40
0.0
 40
0.0
 40
0.0
 40
0.006148663
 40
0.0131509121
 40
0.0215813293
 40
0.0317627588
 40
0.0438680598
 40
0.05799054
 40
0.0741797979
 40
0.0924442958
 40
0.1351009106
 40
0.1857011978
 40
0.243894709
 40
0.3091628931
 40
0.3808598619
 40
0.458323762
 40
0.5408395886
 40
0.6276238822
 40
0.8107457221
 40
1.0
 40
1.0
 40
1.0
 40
1.0
 10
4.2550730891
 20
3.911933773
 30
0.0
 10
4.2551365273
 20
3.9119227078
 30
0.0
 10
4.2552679644
 20
3.9118697156
 30
0.0
 10
4.2554380367
 20
3.9117163319
 30
0.0
 10
4.2555906937
 20
3.9114937825
 30
0.0
 10
4.2557284507
 20
3.9112020474
 30
0.0
 10
4.2558520594
 20
3.9108407326
 30
0.0
 10
4.2559613031
 20
3.9104097603
 30
0.0
 10
4.2560557181
 20
3.9099095991
 30
0.0
 10
4.2561672399
 20
3.9091095087
 30
0.0
 10
4.2562604283
 20
3.9079443543
 30
0.0
 10
4.2563075281
 20
3.9063584942
 30
0.0
 10
4.2562924696
 20
3.9045352118
 30
0.0
 10
4.2562155221
 20
3.9024925083
 30
0.0
 10
4.256077446
 20
3.9002508224
 30
0.0
 10
4.2558789808
 20
3.8978324185
 30
0.0
 10
4.2556217773
 20
3.8952607246
 30
0.0
 10
4.255196494
 20
3.8915942025
 30
0.0
 10
4.2545367866
 20
3.886830162
 30
0.0
 10
4.2539037584
 20
3.8829814529
 30
0.0
 10
4.2535573526
 20
3.8810298657
 30
0.0
  0
SPLINE
  5
2CC
100
AcDbEntity
  8
0
100
AcDbSpline
 62
9
  6
CONTINUOUS
 70
0
 71
3
 72
25
 73
21
 74
0
 42
0.0000001
 43
0.0000001
 44
0.0000000001
 40
0.0
 40
0.0
 40
0.0
 40
0.0
 40
0.0061486517
 40
0.0131508678
 40
0.0215812458
 40
0.0317626387
 40
0.0438679103
 40
0.0579903704
 40
0.0741796183
 40
0.0924441144
 40
0.1351007387
 40
0.1857010424
 40
0.2438945701
 40
0.3091627689
 40
0.3808597515
 40
0.4583236647
 40
0.5408395038
 40
0.6276238102
 40
0.8107456812
 40
1.0
 40
1.0
 40
1.0
 40
1.0
 10
3.9006728786
 20
3.911933773
 30
0.0
 10
3.9006094406
 20
3.9119227079
 30
0.0
 10
3.9004780039
 20
3.9118697158
 30
0.0
 10
3.9003079328
 20
3.9117163323
 30
0.0
 10
3.9001552776
 20
3.9114937831
 30
0.0
 10
3.9000175226
 20
3.9112020484
 30
0.0
 10
3.8998939159
 20
3.910840734
 30
0.0
 10
3.8997846738
 20
3.9104097621
 30
0.0
 10
3.8996902597
 20
3.9099096013
 30
0.0
 10
3.8995787382
 20
3.9091095112
 30
0.0
 10
3.8994855486
 20
3.9079443571
 30
0.0
 10
3.8994384467
 20
3.9063584973
 30
0.0
 10
3.8994535035
 20
3.9045352149
 30
0.0
 10
3.8995304499
 20
3.9024925117
 30
0.0
 10
3.899668525
 20
3.9002508262
 30
0.0
 10
3.899866989
 20
3.8978324226
 30
0.0
 10
3.9001241908
 20
3.8952607291
 30
0.0
 10
3.9005494722
 20
3.8915942075
 30
0.0
 10
3.9012091801
 20
3.886830168
 30
0.0
 10
3.9018422094
 20
3.8829814598
 30
0.0
 10
3.9021886145
 20
3.8810298728
 30
0.0
  0
SPLINE
  5
2CD
100
AcDbEntity
  8
ALL_FEATURES
100
AcDbSpline
 62
9
  6
CONTINUOUS
 70
0
 71
3
 72
19
 73
15
 74
0
 42
0.0000001
 43
0.0000001
 44
0.0000000001
 40
0.0
 40
0.0
 40
0.0
 40
0.0
 40
0.1234893424
 40
0.2470126208
 40
0.3706664164
 40
0.4946051711
 40
0.5567610723
 40
0.6190943827
 40
0.6816614809
 40
0.7445315906
 40
0.8077837437
 40
0.8714869597
 40
0.9356387655
 40
1.0
 40
1.0
 40
1.0
 40
1.0
 10
4.2504296833
 20
3.1414274857
 30
0.0
 10
4.2474019196
 20
3.1435566775
 30
0.0
 10
4.241408377
 20
3.1479057834
 30
0.0
 10
4.2326185498
 20
3.1547043333
 30
0.0
 10
4.2240600993
 20
3.1618139565
 30
0.0
 10
4.2171783863
 20
3.1680528968
 30
0.0
 10
4.2118843482
 20
3.1732910936
 30
0.0
 10
4.2080369065
 20
3.1773713713
 30
0.0
 10
4.2043482609
 20
3.1816249198
 30
0.0
 10
4.200862945
 20
3.1860829467
 30
0.0
 10
4.1976446875
 20
3.1907806818
 30
0.0
 10
4.1947862991
 20
3.1957536605
 30
0.0
 10
4.1924228
 20
3.2010199892
 30
0.0
 10
4.1912968766
 20
3.2047200843
 30
0.0
 10
4.1908806764
 20
3.2066038124
 30
0.0
  0
SPLINE
  5
2CE
100
AcDbEntity
  8
ALL_FEATURES
100
AcDbSpline
 62
9
  6
CONTINUOUS
 70
0
 71
3
 72
27
 73
23
 74
0
 42
0.0000001
 43
0.0000001
 44
0.0000000001
 40
0.0
 40
0.0
 40
0.0
 40
0.0
 40
0.1978745237
 40
0.3867985483
 40
0.4754350065
 40
0.5591447693
 40
0.6372601299
 40
0.7091139586
 40
0.7740712743
 40
0.8316232664
 40
0.8812947136
 40
0.9226151398
 40
0.9400064805
 40
0.9551790434
 40
0.9681192237
 40
0.9788175879
 40
0.9872734088
 40
0.9906663671
 40
0.9935104359
 40
0.995819517
 40
0.9976223917
 40
1.0
 40
1.0
 40
1.0
 40
1.0
 10
4.1908806525
 20
3.2066038138
 30
0.0
 10
4.1927158397
 20
3.2065191346
 30
0.0
 10
4.196303854
 20
3.2063674328
 30
0.0
 10
4.2007154289
 20
3.2062159921
 30
0.0
 10
4.2040683771
 20
3.2061251446
 30
0.0
 10
4.2063932108
 20
3.206074316
 30
0.0
 10
4.208562508
 20
3.2060395867
 30
0.0
 10
4.2105578989
 20
3.2060212033
 30
0.0
 10
4.2123624598
 20
3.2060194198
 30
0.0
 10
4.2139610215
 20
3.2060339743
 30
0.0
 10
4.2153398559
 20
3.2060646211
 30
0.0
 10
4.2163454245
 20
3.2061048545
 30
0.0
 10
4.2170301059
 20
3.2061473502
 30
0.0
 10
4.2174512508
 20
3.2061812146
 30
0.0
 10
4.2178096904
 20
3.2062186381
 30
0.0
 10
4.2181049118
 20
3.2062595225
 30
0.0
 10
4.2183107907
 20
3.2062982202
 30
0.0
 10
4.2184429455
 20
3.2063325394
 30
0.0
 10
4.218518365
 20
3.2063568978
 30
0.0
 10
4.2185782395
 20
3.2063825989
 30
0.0
 10
4.2186293668
 20
3.206412059
 30
0.0
 10
4.218658962
 20
3.2064458511
 30
0.0
 10
4.2186600477
 20
3.2064678989
 30
0.0
  0
SPLINE
  5
2CF
100
AcDbEntity
  8
0
100
AcDbSpline
 62
9
  6
CONTINUOUS
 70
0
 71
3
 72
25
 73
21
 74
0
 42
0.0000001
 43
0.0000001
 44
0.0000000001
 40
0.0
 40
0.0
 40
0.0
 40
0.0
 40
0.1892542764
 40
0.3723761148
 40
0.4591604073
 40
0.5416762329
 40
0.6191401321
 40
0.6908371005
 40
0.7561052842
 40
0.8142987945
 40
0.8648990805
 40
0.9075556941
 40
0.9258201919
 40
0.9420094502
 40
0.9561319314
 40
0.9682372342
 40
0.9784186659
 40
0.9868490855
 40
0.9938513365
 40
1.0
 40
1.0
 40
1.0
 40
1.0
 10
5.0187569833
 20
2.5556652271
 30
0.0
 10
5.0206203103
 20
2.5549894297
 30
0.0
 10
5.0242699042
 20
2.5536132935
 30
0.0
 10
5.028725538
 20
2.5518025966
 30
0.0
 10
5.0321134811
 20
2.5503376418
 30
0.0
 10
5.0344692351
 20
2.5492745397
 30
0.0
 10
5.036662867
 20
2.5482372137
 30
0.0
 10
5.038673262
 20
2.5472359483
 30
0.0
 10
5.0404807689
 20
2.546281235
 30
0.0
 10
5.0420673071
 20
2.545382635
 30
0.0
 10
5.0434171524
 20
2.5445489154
 30
0.0
 10
5.0443796116
 20
2.5438856348
 30
0.0
 10
5.0450167493
 20
2.5433890089
 30
0.0
 10
5.045402694
 20
2.5430571624
 30
0.0
 10
5.0457213051
 20
2.5427470684
 30
0.0
 10
5.0459724086
 20
2.5424593626
 30
0.0
 10
5.04615618
 20
2.5421941938
 30
0.0
 10
5.0462725849
 20
2.5419507142
 30
0.0
 10
5.0463203829
 20
2.5417267354
 30
0.0
 10
5.046300557
 20
2.5415864114
 30
0.0
 10
5.0462784206
 20
2.5415259397
 30
0.0
  0
SPLINE
  5
2D0
100
AcDbEntity
  8
0
100
AcDbSpline
 62
9
  6
CONTINUOUS
 70
0
 71
3
 72
11
 73
7
 74
0
 42
0.0000001
 43
0.0000001
 44
0.0000000001
 40
0.0
 40
0.0
 40
0.0
 40
0.0
 40
0.2499892147
 40
0.4999823209
 40
0.7499848788
 40
1.0
 40
1.0
 40
1.0
 40
1.0
 10
4.1911967823
 20
3.2109443315
 30
0.0
 10
4.1964524378
 20
3.2667768884
 30
0.0
 10
4.2070019512
 20
3.3784392763
 30
0.0
 10
4.2227648323
 20
3.54594123
 30
0.0
 10
4.2383355668
 20
3.713467029
 30
0.0
 10
4.2485234574
 20
3.8251710431
 30
0.0
 10
4.2535573524
 20
3.8810298657
 30
0.0
  0
SPLINE
  5
2D1
100
AcDbEntity
  8
0
100
AcDbSpline
 62
9
  6
CONTINUOUS
 70
0
 71
3
 72
25
 73
21
 74
0
 42
0.0000001
 43
0.0000001
 44
0.0000000001
 40
0.0
 40
0.0
 40
0.0
 40
0.0
 40
0.1892543099
 40
0.37237618
 40
0.4591604874
 40
0.5416763282
 40
0.6191402436
 40
0.690837229
 40
0.7561054309
 40
0.8142989619
 40
0.8648992685
 40
0.907555895
 40
0.9258203916
 40
0.9420096396
 40
0.9561320991
 40
0.9682373696
 40
0.9784187608
 40
0.9868491365
 40
0.9938513503
 40
1.0
 40
1.0
 40
1.0
 40
1.0
 10
4.8430726148
 20
2.2513709743
 30
0.0
 10
4.8445895362
 20
2.2500951847
 30
0.0
 10
4.8476061017
 20
2.2476226114
 30
0.0
 10
4.8514020284
 20
2.2446692679
 30
0.0
 10
4.8543646891
 20
2.242467702
 30
0.0
 10
4.8564632404
 20
2.2409591114
 30
0.0
 10
4.8584584077
 20
2.2395780343
 30
0.0
 10
4.8603307271
 20
2.2383376145
 30
0.0
 10
4.8620612873
 20
2.2372496251
 30
0.0
 10
4.863632768
 20
2.2363249441
 30
0.0
 10
4.8650297143
 20
2.2355728054
 30
0.0
 10
4.8660853624
 20
2.2350709326
 30
0.0
 10
4.8668340217
 20
2.2347674679
 30
0.0
 10
4.8673143807
 20
2.2345991524
 30
0.0
 10
4.8677422344
 20
2.2344782728
 30
0.0
 10
4.8681169453
 20
2.234404662
 30
0.0
 10
4.8684384724
 20
2.2343780938
 30
0.0
 10
4.8687075332
 20
2.2343990224
 30
0.0
 10
4.8689254028
 20
2.2344696164
 30
0.0
 10
4.8690370136
 20
2.2345569479
 30
0.0
 10
4.8690783154
 20
2.2346063543
 30
0.0
  0
SPLINE
  5
2D2
100
AcDbEntity
  8
ALL_FEATURES
100
AcDbSpline
 62
9
  6
CONTINUOUS
 70
0
 71
3
 72
20
 73
16
 74
0
 42
0.0000001
 43
0.0000001
 44
0.0000000001
 40
0.0
 40
0.0
 40
0.0
 40
0.0
 40
0.1836258299
 40
0.3601720934
 40
0.5235562422
 40
0.6690517553
 40
0.7337964989
 40
0.7925646397
 40
0.8449760776
 40
0.8906617293
 40
0.9292555494
 40
0.9604284305
 40
0.984027883
 40
0.992967556
 40
1.0
 40
1.0
 40
1.0
 40
1.0
 10
4.1911967823
 20
3.2109443315
 30
0.0
 10
4.1928732336
 20
3.2107968849
 30
0.0
 10
4.1961624577
 20
3.2105184315
 30
0.0
 10
4.2009463707
 20
3.2101457003
 30
0.0
 10
4.205384421
 20
3.2098344062
 30
0.0
 10
4.2088023948
 20
3.2096259443
 30
0.0
 10
4.2112645897
 20
3.2094989371
 30
0.0
 10
4.2128753726
 20
3.2094277493
 30
0.0
 10
4.2143121703
 20
3.2093770854
 30
0.0
 10
4.2155646053
 20
3.2093472602
 30
0.0
 10
4.2166227701
 20
3.2093381573
 30
0.0
 10
4.2174784071
 20
3.2093502569
 30
0.0
 10
4.2180619964
 20
3.2093780289
 30
0.0
 10
4.2184228766
 20
3.209414624
 30
0.0
 10
4.2185677159
 20
3.2094368716
 30
0.0
 10
4.2186308489
 20
3.2094498443
 30
0.0
  0
LINE
  5
2D3
100
AcDbEntity
  8
ALL_FEATURES
100
AcDbLine
 62
9
  6
CONTINUOUS
 10
4.2186308489
 20
3.2094498443
 11
4.218877309
 21
3.2095695984
  0
SPLINE
  5
2D4
100
AcDbEntity
  8
0
100
AcDbSpline
 62
9
  6
CONTINUOUS
 70
0
 71
3
 72
12
 73
8
 74
0
 42
0.0000001
 43
0.0000001
 44
0.0000000001
 40
0.0
 40
0.0
 40
0.0
 40
0.0
 40
0.2494618812
 40
0.4999362262
 40
0.7504405192
 40
0.8754352458
 40
1.0
 40
1.0
 40
1.0
 40
1.0
 10
3.1369889708
 20
2.5556652234
 30
0.0
 10
3.1471079385
 20
2.5281097489
 30
0.0
 10
3.1697521728
 20
2.4737215603
 30
0.0
 10
3.2106124777
 20
2.3953231753
 30
0.0
 10
3.2502127073
 20
2.3330937435
 30
0.0
 10
3.2849506803
 20
2.2855812011
 30
0.0
 10
3.3032837398
 20
2.2626264569
 30
0.0
 10
3.3126733436
 20
2.251370965
 30
0.0
  0
SPLINE
  5
2D5
100
AcDbEntity
  8
0
100
AcDbSpline
 62
9
  6
CONTINUOUS
 70
0
 71
3
 72
25
 73
21
 74
0
 42
0.0000001
 43
0.0000001
 44
0.0000000001
 40
0.0
 40
0.0
 40
0.0
 40
0.0
 40
0.2007399003
 40
0.3906515786
 40
0.4793754839
 40
0.5630191366
 40
0.6409133388
 40
0.7124462835
 40
0.7770506231
 40
0.8341635183
 40
0.8833139468
 40
0.9241510449
 40
0.9563392389
 40
0.979625722
 40
0.987912356
 40
0.991220527
 40
0.9939778257
 40
0.996195062
 40
0.9978953402
 40
1.0
 40
1.0
 40
1.0
 40
1.0
 10
4.2535573526
 20
3.8810298657
 30
0.0
 10
4.2553123079
 20
3.8808779166
 30
0.0
 10
4.2587284718
 20
3.8805927162
 30
0.0
 10
4.2629227324
 20
3.880270393
 30
0.0
 10
4.2660938494
 20
3.8800458066
 30
0.0
 10
4.2682851059
 20
3.8799001774
 30
0.0
 10
4.2703264905
 20
3.8797746779
 30
0.0
 10
4.2722017544
 20
3.8796702475
 30
0.0
 10
4.2738955514
 20
3.8795876023
 30
0.0
 10
4.2753937589
 20
3.8795273857
 30
0.0
 10
4.2766840667
 20
3.8794901045
 30
0.0
 10
4.2777561781
 20
3.8794754355
 30
0.0
 10
4.2786012905
 20
3.8794835825
 30
0.0
 10
4.2791606346
 20
3.8795092866
 30
0.0
 10
4.2794649437
 20
3.8795433635
 30
0.0
 10
4.2795891519
 20
3.8795649879
 30
0.0
 10
4.2796598678
 20
3.8795810642
 30
0.0
 10
4.279716333
 20
3.8795990248
 30
0.0
 10
4.2797632254
 20
3.8796195994
 30
0.0
 10
4.2797933011
 20
3.8796455114
 30
0.0
 10
4.2797949731
 20
3.8796639043
 30
0.0
  0
SPLINE
  5
2D6
100
AcDbEntity
  8
ALL_FEATURES
100
AcDbSpline
 62
9
  6
CONTINUOUS
 70
0
 71
3
 72
19
 73
15
 74
0
 42
0.0000001
 43
0.0000001
 44
0.0000000001
 40
0.0
 40
0.0
 40
0.0
 40
0.0
 40
0.1234893595
 40
0.2470124606
 40
0.3706664944
 40
0.4946055026
 40
0.5567612811
 40
0.6190943681
 40
0.6816611516
 40
0.7445308782
 40
0.8077826998
 40
0.8714859169
 40
0.9356381543
 40
1.0
 40
1.0
 40
1.0
 40
1.0
 10
3.905315971
 20
3.1414272688
 30
0.0
 10
3.9083437539
 20
3.143556456
 30
0.0
 10
3.9143373425
 20
3.1479055331
 30
0.0
 10
3.9231271852
 20
3.1547041317
 30
0.0
 10
3.9316855827
 20
3.1618138894
 30
0.0
 10
3.9385674162
 20
3.1680527567
 30
0.0
 10
3.9438615211
 20
3.1732909187
 30
0.0
 10
3.9477089895
 20
3.1773711701
 30
0.0
 10
3.9513976495
 20
3.1816246954
 30
0.0
 10
3.9548829613
 20
3.1860827104
 30
0.0
 10
3.9581012071
 20
3.1907804545
 30
0.0
 10
3.9609595531
 20
3.1957534754
 30
0.0
 10
3.9633231224
 20
3.2010198488
 30
0.0
 10
3.9644488246
 20
3.2047200368
 30
0.0
 10
3.9648651922
 20
3.2066037534
 30
0.0
  0
SPLINE
  5
2D7
100
AcDbEntity
  8
ALL_FEATURES
100
AcDbSpline
 62
9
  6
CONTINUOUS
 70
0
 71
3
 72
16
 73
12
 74
0
 42
0.0000001
 43
0.0000001
 44
0.0000000001
 40
0.0
 40
0.0
 40
0.0
 40
0.0
 40
0.1247783216
 40
0.2497693339
 40
0.3748459099
 40
0.499990941
 40
0.6251385231
 40
0.7502152988
 40
0.8127366839
 40
0.8752283428
 40
1.0
 40
1.0
 40
1.0
 40
1.0
 10
4.290340037
 20
2.6428638163
 30
0.0
 10
4.2977937493
 20
2.6489285525
 30
0.0
 10
4.3121731852
 20
2.6617507904
 30
0.0
 10
4.3319185988
 20
2.6828606425
 30
0.0
 10
4.3496788893
 20
2.7057053372
 30
0.0
 10
4.3652832275
 20
2.7300875316
 30
0.0
 10
4.3785968006
 20
2.7557913328
 30
0.0
 10
4.387685641
 20
2.7781346588
 30
0.0
 10
4.3937095168
 20
2.7964343451
 30
0.0
 10
4.3988868558
 20
2.8149656411
 30
0.0
 10
4.4018223752
 20
2.8291114078
 30
0.0
 10
4.4033483001
 20
2.8385982693
 30
0.0
  0
SPLINE
  5
2D8
100
AcDbEntity
  8
ALL_FEATURES
100
AcDbSpline
 62
9
  6
CONTINUOUS
 70
0
 71
3
 72
27
 73
23
 74
0
 42
0.0000001
 43
0.0000001
 44
0.0000000001
 40
0.0
 40
0.0
 40
0.0
 40
0.0
 40
0.0023776177
 40
0.0041804927
 40
0.0064895726
 40
0.0093336392
 40
0.0127265944
 40
0.0211824076
 40
0.0318807627
 40
0.0448209329
 40
0.0599934849
 40
0.0773848143
 40
0.1187052167
 40
0.1683766401
 40
0.2259286099
 40
0.2908859063
 40
0.36273972
 40
0.4408550714
 40
0.5245648326
 40
0.6132012982
 40
0.8021253712
 40
1.0
 40
1.0
 40
1.0
 40
1.0
 10
3.9370859217
 20
3.2064678724
 30
0.0
 10
3.9370870072
 20
3.2064458245
 30
0.0
 10
3.9371166021
 20
3.2064120321
 30
0.0
 10
3.9371677292
 20
3.2063825717
 30
0.0
 10
3.9372276035
 20
3.2063568704
 30
0.0
 10
3.9373030227
 20
3.2063325118
 30
0.0
 10
3.937435177
 20
3.2062981922
 30
0.0
 10
3.9376410553
 20
3.2062594941
 30
0.0
 10
3.9379362758
 20
3.2062186092
 30
0.0
 10
3.9382947143
 20
3.2061811852
 30
0.0
 10
3.9387158581
 20
3.2061473201
 30
0.0
 10
3.9394005376
 20
3.2061048235
 30
0.0
 10
3.9404061037
 20
3.206064589
 30
0.0
 10
3.9417849349
 20
3.2060339406
 30
0.0
 10
3.9433834928
 20
3.2060193843
 30
0.0
 10
3.9451880498
 20
3.2060211659
 30
0.0
 10
3.9471834365
 20
3.2060395474
 30
0.0
 10
3.9493527294
 20
3.2060742745
 30
0.0
 10
3.9516775588
 20
3.2061251007
 30
0.0
 10
3.9550305011
 20
3.2062159449
 30
0.0
 10
3.9594420693
 20
3.2063673811
 30
0.0
 10
3.9630300784
 20
3.2065190793
 30
0.0
 10
3.9648652632
 20
3.2066037566
 30
0.0
  0
SPLINE
  5
2D9
100
AcDbEntity
  8
ALL_FEATURES
100
AcDbSpline
 62
9
  6
CONTINUOUS
 70
0
 71
3
 72
15
 73
11
 74
0
 42
0.0000001
 43
0.0000001
 44
0.0000000001
 40
0.0
 40
0.0
 40
0.0
 40
0.0
 40
0.0291644559
 40
0.0520209152
 40
0.0815753102
 40
0.1181599792
 40
0.1619305602
 40
0.2712770786
 40
0.5775652906
 40
1.0
 40
1.0
 40
1.0
 40
1.0
 10
3.9368686588
 20
3.2095695984
 30
0.0
 10
3.9368705416
 20
3.2095488894
 30
0.0
 10
3.936902122
 20
3.2095189421
 30
0.0
 10
3.9369532627
 20
3.2094945425
 30
0.0
 10
3.937013817
 20
3.2094735097
 30
0.0
 10
3.9370897011
 20
3.2094544769
 30
0.0
 10
3.9372226223
 20
3.2094287306
 30
0.0
 10
3.9375477294
 20
3.2093873168
 30
0.0
 10
3.9381448146
 20
3.2093535097
 30
0.0
 10
3.9386643178
 20
3.2093443356
 30
0.0
 10
3.9389655098
 20
3.2093424736
 30
0.0
  0
SPLINE
  5
2DA
100
AcDbEntity
  8
ALL_FEATURES
100
AcDbSpline
 62
9
  6
CONTINUOUS
 70
0
 71
3
 72
13
 73
9
 74
0
 42
0.0000001
 43
0.0000001
 44
0.0000000001
 40
0.0
 40
0.0
 40
0.0
 40
0.0
 40
0.0705401389
 40
0.1608851852
 40
0.2692978129
 40
0.3937753875
 40
0.6812235491
 40
1.0
 40
1.0
 40
1.0
 40
1.0
 10
3.9389655098
 20
3.2093424736
 30
0.0
 10
3.9395683655
 20
3.2093387466
 30
0.0
 10
3.9409434494
 20
3.2093593996
 30
0.0
 10
3.9432436396
 20
3.2094393799
 30
0.0
 10
3.9460029745
 20
3.2095735492
 30
0.0
 10
3.9504423912
 20
3.209834675
 30
0.0
 10
3.9566717344
 20
3.2102784379
 30
0.0
 10
3.9618352574
 20
3.2107056371
 30
0.0
 10
3.9645491856
 20
3.2109443316
 30
0.0
  0
SPLINE
  5
2DB
100
AcDbEntity
  8
0
100
AcDbSpline
 62
9
  6
CONTINUOUS
 70
0
 71
3
 72
11
 73
7
 74
0
 42
0.0000001
 43
0.0000001
 44
0.0000000001
 40
0.0
 40
0.0
 40
0.0
 40
0.0
 40
0.2499892146
 40
0.4999823204
 40
0.7499848786
 40
1.0
 40
1.0
 40
1.0
 40
1.0
 10
3.9645491856
 20
3.2109443316
 30
0.0
 10
3.9592935296
 20
3.2667768883
 30
0.0
 10
3.9487440171
 20
3.3784392762
 30
0.0
 10
3.9329811353
 20
3.5459412297
 30
0.0
 10
3.9174104008
 20
3.7134670287
 30
0.0
 10
3.9072225103
 20
3.8251710428
 30
0.0
 10
3.9021886154
 20
3.8810298655
 30
0.0
  0
SPLINE
  5
2DC
100
AcDbEntity
  8
0
100
AcDbSpline
 62
9
  6
CONTINUOUS
 70
0
 71
3
 72
25
 73
21
 74
0
 42
0.0000001
 43
0.0000001
 44
0.0000000001
 40
0.0
 40
0.0
 40
0.0
 40
0.0
 40
0.0021046599
 40
0.0038049379
 40
0.0060221738
 40
0.0087794723
 40
0.0120876429
 40
0.0203742762
 40
0.0436607579
 40
0.0758489511
 40
0.1166860487
 40
0.1658364767
 40
0.2229493716
 40
0.2875537109
 40
0.3590866559
 40
0.4369808591
 40
0.5206245131
 40
0.6093484196
 40
0.7992600984
 40
1.0
 40
1.0
 40
1.0
 40
1.0
 10
3.8759509946
 20
3.8796639043
 30
0.0
 10
3.8759526667
 20
3.8796455114
 30
0.0
 10
3.8759827423
 20
3.8796195994
 30
0.0
 10
3.8760296347
 20
3.8795990248
 30
0.0
 10
3.8760861
 20
3.8795810642
 30
0.0
 10
3.8761568158
 20
3.8795649879
 30
0.0
 10
3.876281024
 20
3.8795433634
 30
0.0
 10
3.8765853331
 20
3.8795092866
 30
0.0
 10
3.8771446772
 20
3.8794835824
 30
0.0
 10
3.8779897895
 20
3.8794754354
 30
0.0
 10
3.8790619009
 20
3.8794901043
 30
0.0
 10
3.8803522087
 20
3.8795273855
 30
0.0
 10
3.8818504162
 20
3.8795876022
 30
0.0
 10
3.8835442132
 20
3.8796702475
 30
0.0
 10
3.8854194771
 20
3.879774678
 30
0.0
 10
3.8874608618
 20
3.879900177
 30
0.0
 10
3.8896521183
 20
3.8800458054
 30
0.0
 10
3.8928232354
 20
3.8802703915
 30
0.0
 10
3.8970174957
 20
3.8805927189
 30
0.0
 10
3.9004336593
 20
3.8808779235
 30
0.0
 10
3.9021886145
 20
3.8810298728
 30
0.0
  0
SPLINE
  5
2DD
100
AcDbEntity
  8
ALL_FEATURES
100
AcDbSpline
 62
9
  6
CONTINUOUS
 70
0
 71
3
 72
17
 73
13
 74
0
 42
0.0000001
 43
0.0000001
 44
0.0000000001
 40
0.0
 40
0.0
 40
0.0
 40
0.0
 40
0.1230300221
 40
0.2463064331
 40
0.3699495633
 40
0.4941197173
 40
0.6190309229
 40
0.7449361013
 40
0.8083565948
 40
0.8720748655
 40
0.9360174282
 40
1.0
 40
1.0
 40
1.0
 40
1.0
 10
4.3808484365
 20
2.8917431911
 30
0.0
 10
4.3812869333
 20
2.8893794199
 30
0.0
 10
4.3822289624
 20
2.8846586853
 30
0.0
 10
4.3838709721
 20
2.8776170506
 30
0.0
 10
4.385793944
 20
2.8706229612
 30
0.0
 10
4.3880689098
 20
2.8637000299
 30
0.0
 10
4.3907937687
 20
2.856891849
 30
0.0
 10
4.3935466291
 20
2.8513907509
 30
0.0
 10
4.3961245781
 20
2.8471679809
 30
0.0
 10
4.398277776
 20
2.8441135182
 30
0.0
 10
4.40066548
 20
2.8412234706
 30
0.0
 10
4.4024258882
 20
2.8394423686
 30
0.0
 10
4.4033482481
 20
2.838598318
 30
0.0
  0
SPLINE
  5
2DE
100
AcDbEntity
  8
ALL_FEATURES
100
AcDbSpline
 62
9
  6
CONTINUOUS
 70
0
 71
3
 72
27
 73
23
 74
0
 42
0.0000001
 43
0.0000001
 44
0.0000000001
 40
0.0
 40
0.0
 40
0.0
 40
0.0
 40
0.002377469
 40
0.0041802574
 40
0.0064892531
 40
0.0093332397
 40
0.0127261199
 40
0.0211817975
 40
0.0318800366
 40
0.0448201099
 40
0.0599925839
 40
0.0773838538
 40
0.1187041905
 40
0.1683756116
 40
0.2259276331
 40
0.2908850258
 40
0.3627389707
 40
0.4408544756
 40
0.5245643994
 40
0.6132010234
 40
0.8021253413
 40
1.0
 40
1.0
 40
1.0
 40
1.0
 10
4.417120411
 20
2.8627243193
 30
0.0
 10
4.4171007761
 20
2.8627344044
 30
0.0
 10
4.4170567144
 20
2.8627256729
 30
0.0
 10
4.4170056394
 20
2.8626961271
 30
0.0
 10
4.4169534455
 20
2.8626571263
 30
0.0
 10
4.4168946419
 20
2.8626039914
 30
0.0
 10
4.4167988443
 20
2.862506703
 30
0.0
 10
4.4166623928
 20
2.8623477564
 30
0.0
 10
4.4164793762
 20
2.86211253
 30
0.0
 10
4.4162677471
 20
2.8618208238
 30
0.0
 10
4.4160278471
 20
2.8614730328
 30
0.0
 10
4.415648703
 20
2.8609013261
 30
0.0
 10
4.415111073
 20
2.860050589
 30
0.0
 10
4.4143951104
 20
2.8588717974
 30
0.0
 10
4.4135832189
 20
2.8574946675
 30
0.0
 10
4.4126824756
 20
2.8559309653
 30
0.0
 10
4.4117006922
 20
2.8541936972
 30
0.0
 10
4.4106461105
 20
2.852297647
 30
0.0
 10
4.4095277024
 20
2.8502588469
 30
0.0
 10
4.4079298904
 20
2.8473096553
 30
0.0
 10
4.4058552375
 20
2.8434133618
 30
0.0
 10
4.4041925951
 20
2.840230169
 30
0.0
 10
4.4033483298
 20
2.8385984957
 30
0.0
  0
SPLINE
  5
2DF
100
AcDbEntity
  8
0
100
AcDbSpline
 62
9
  6
CONTINUOUS
 70
0
 71
3
 72
12
 73
8
 74
0
 42
0.0000001
 43
0.0000001
 44
0.0000000001
 40
0.0
 40
0.0
 40
0.0
 40
0.0
 40
0.2494620531
 40
0.4999364697
 40
0.7504406292
 40
0.8754352708
 40
1.0
 40
1.0
 40
1.0
 40
1.0
 10
4.8430726246
 20
2.2513709644
 30
0.0
 10
4.8618768947
 20
2.2739120004
 30
0.0
 10
4.8976563473
 20
2.3207166004
 30
0.0
 10
4.9451211891
 20
2.3953018698
 30
0.0
 10
4.9792133332
 20
2.4607113759
 30
0.0
 10
5.002991404
 20
2.5145515881
 30
0.0
 10
5.0137042572
 20
2.5419058449
 30
0.0
 10
5.0187569962
 20
2.5556652236
 30
0.0
  0
LINE
  5
2E0
100
AcDbEntity
  8
ALL_FEATURES
100
AcDbLine
 62
9
  6
CONTINUOUS
 10
4.4199153126
 20
2.8613615619
 11
4.4192710671
 21
2.8606373215
  0
SPLINE
  5
2E1
100
AcDbEntity
  8
ALL_FEATURES
100
AcDbSpline
 62
9
  6
CONTINUOUS
 70
0
 71
3
 72
15
 73
11
 74
0
 42
0.0000001
 43
0.0000001
 44
0.0000000001
 40
0.0
 40
0.0
 40
0.0
 40
0.0
 40
0.0249164654
 40
0.0562280898
 40
0.1372765353
 40
0.2410363837
 40
0.3651488419
 40
0.5066769708
 40
0.6624076567
 40
1.0
 40
1.0
 40
1.0
 40
1.0
 10
4.4192710671
 20
2.8606373215
 30
0.0
 10
4.4191488247
 20
2.8604514314
 30
0.0
 10
4.4188835277
 20
2.8600250198
 30
0.0
 10
4.418264213
 20
2.8589671515
 30
0.0
 10
4.4173368825
 20
2.8572744489
 30
0.0
 10
4.4160564221
 20
2.8548312204
 30
0.0
 10
4.4145643913
 20
2.8518894455
 30
0.0
 10
4.4128949497
 20
2.848517579
 30
0.0
 10
4.4104205045
 20
2.8434174464
 30
0.0
 10
4.4085382894
 20
2.8394347177
 30
0.0
 10
4.407265603
 20
2.8367021559
 30
0.0
  0
SPLINE
  5
2E2
100
AcDbEntity
  8
0
100
AcDbSpline
 62
9
  6
CONTINUOUS
 70
0
 71
3
 72
11
 73
7
 74
0
 42
0.0000001
 43
0.0000001
 44
0.0000000001
 40
0.0
 40
0.0
 40
0.0
 40
0.0
 40
0.2499892146
 40
0.4999823204
 40
0.7499848786
 40
1.0
 40
1.0
 40
1.0
 40
1.0
 10
4.407265603
 20
2.8367021559
 30
0.0
 10
4.4582458435
 20
2.8133374091
 30
0.0
 10
4.5602230643
 20
2.766642361
 30
0.0
 10
4.7131654521
 20
2.6965424404
 30
0.0
 10
4.8660324171
 20
2.6262641924
 30
0.0
 10
4.9678648763
 20
2.5792351574
 30
0.0
 10
5.0187569832
 20
2.5556652269
 30
0.0
  0
SPLINE
  5
2E3
100
AcDbEntity
  8
0
100
AcDbSpline
 62
9
  6
CONTINUOUS
 70
0
 71
3
 72
25
 73
21
 74
0
 42
0.0000001
 43
0.0000001
 44
0.0000000001
 40
0.0
 40
0.0
 40
0.0
 40
0.0
 40
0.2007399015
 40
0.3906515811
 40
0.4793754869
 40
0.5630191399
 40
0.6409133424
 40
0.7124462871
 40
0.7770506266
 40
0.8341635217
 40
0.8833139499
 40
0.9241510475
 40
0.9563392408
 40
0.9796257228
 40
0.9879123565
 40
0.9912205272
 40
0.9939778258
 40
0.9961950618
 40
0.99789534
 40
1.0
 40
1.0
 40
1.0
 40
1.0
 10
5.0187569833
 20
2.5556652271
 30
0.0
 10
5.0195028692
 20
2.5572610375
 30
0.0
 10
5.0209639603
 20
2.5603621225
 30
0.0
 10
5.0227819506
 20
2.5641556203
 30
0.0
 10
5.0241730115
 20
2.5670141814
 30
0.0
 10
5.0251425212
 20
2.5689846798
 30
0.0
 10
5.0260545278
 20
2.5708153205
 30
0.0
 10
5.0269017203
 20
2.5724915619
 30
0.0
 10
5.0276770461
 20
2.5739997557
 30
0.0
 10
5.0283740007
 20
2.5753273497
 30
0.0
 10
5.0289868682
 20
2.5764634297
 30
0.0
 10
5.0295102202
 20
2.5773992399
 30
0.0
 10
5.0299398319
 20
2.5781270552
 30
0.0
 10
5.0302417644
 20
2.5785986092
 30
0.0
 10
5.0304234304
 20
2.5788451102
 30
0.0
 10
5.0305042617
 20
2.5789418654
 30
0.0
 10
5.0305535422
 20
2.578995069
 30
0.0
 10
5.0305973291
 20
2.579034989
 30
0.0
 10
5.0306385934
 20
2.5790653118
 30
0.0
 10
5.0306760718
 20
2.579078402
 30
0.0
 10
5.0306928365
 20
2.5790706536
 30
0.0
  0
SPLINE
  5
2E4
100
AcDbEntity
  8
ALL_FEATURES
100
AcDbSpline
 62
9
  6
CONTINUOUS
 70
0
 71
3
 72
19
 73
15
 74
0
 42
0.0000001
 43
0.0000001
 44
0.0000000001
 40
0.0
 40
0.0
 40
0.0
 40
0.0
 40
0.1234911714
 40
0.2470121567
 40
0.3706657403
 40
0.4946076518
 40
0.5567648164
 40
0.6190981838
 40
0.6816645267
 40
0.7445336029
 40
0.8077848063
 40
0.8714873752
 40
0.9356388612
 40
1.0
 40
1.0
 40
1.0
 40
1.0
 10
4.2041201245
 20
2.6238796158
 30
0.0
 10
4.2074779766
 20
2.6254373556
 30
0.0
 10
4.2142411261
 20
2.6284537955
 30
0.0
 10
4.2245238617
 20
2.6326669933
 30
0.0
 10
4.234960702
 20
2.6365233346
 30
0.0
 10
4.2438049616
 20
2.6393634991
 30
0.0
 10
4.2509884533
 20
2.6413299653
 30
0.0
 10
4.2564457932
 20
2.642622362
 30
0.0
 10
4.2619737738
 20
2.6436904558
 30
0.0
 10
4.2675771905
 20
2.6444800491
 30
0.0
 10
4.2732547067
 20
2.6449182826
 30
0.0
 10
4.2789906862
 20
2.6449070441
 30
0.0
 10
4.2847332314
 20
2.6443202758
 30
0.0
 10
4.2885006216
 20
2.6434452933
 30
0.0
 10
4.2903400905
 20
2.6428637991
 30
0.0
  0
SPLINE
  5
2E5
100
AcDbEntity
  8
ALL_FEATURES
100
AcDbSpline
 62
9
  6
CONTINUOUS
 70
0
 71
3
 72
27
 73
23
 74
0
 42
0.0000001
 43
0.0000001
 44
0.0000000001
 40
0.0
 40
0.0
 40
0.0
 40
0.0
 40
0.1978753674
 40
0.3868000169
 40
0.4754366938
 40
0.5591466095
 40
0.6372620558
 40
0.7091159018
 40
0.7740731656
 40
0.8316250372
 40
0.8812962968
 40
0.9226164698
 40
0.9400076604
 40
0.9551800585
 40
0.9681200606
 40
0.9788182351
 40
0.9872738578
 40
0.9906667159
 40
0.9935106858
 40
0.9958196723
 40
0.997622463
 40
1.0
 40
1.0
 40
1.0
 40
1.0
 10
4.2903401443
 20
2.6428639073
 30
0.0
 10
4.2893492298
 20
2.6413169202
 30
0.0
 10
4.2874238722
 20
2.6382854456
 30
0.0
 10
4.2850869678
 20
2.6345406139
 30
0.0
 10
4.2833318455
 20
2.6316822893
 30
0.0
 10
4.2821254305
 20
2.6296943334
 30
0.0
 10
4.281010726
 20
2.627833028
 30
0.0
 10
4.27999713
 20
2.6261141589
 30
0.0
 10
4.2790933244
 20
2.6245522549
 30
0.0
 10
4.278306667
 20
2.6231605843
 30
0.0
 10
4.2776438085
 20
2.6219511586
 30
0.0
 10
4.2771758818
 20
2.6210601978
 30
0.0
 10
4.2768703547
 20
2.6204460023
 30
0.0
 10
4.2766891175
 20
2.6200643514
 30
0.0
 10
4.2765423148
 20
2.6197352258
 30
0.0
 10
4.2764301182
 20
2.6194591186
 30
0.0
 10
4.2763606978
 20
2.6192614771
 30
0.0
 10
4.2763243464
 20
2.6191298713
 30
0.0
 10
4.2763077347
 20
2.6190523793
 30
0.0
 10
4.2763000585
 20
2.6189876784
 30
0.0
 10
4.2763000112
 20
2.6189286733
 30
0.0
 10
4.2763144834
 20
2.61888615
 30
0.0
 10
4.2763330356
 20
2.6188741889
 30
0.0
  0
SPLINE
  5
2E6
100
AcDbEntity
  8
0
100
AcDbSpline
 62
7
  6
CONTINUOUS
 70
0
 71
3
 72
8
 73
4
 74
0
 42
0.0000001
 43
0.0000001
 44
0.0000000001
 40
0.0
 40
0.0
 40
0.0
 40
0.0
 40
1.0
 40
1.0
 40
1.0
 40
1.0
 10
4.8965276275
 20
3.122078459
 30
0.0
 10
4.8840746962
 20
3.1187417061
 30
0.0
 10
4.8725055577
 20
3.1204085495
 30
0.0
 10
4.8617736963
 20
3.1268537837
 30
0.0
  0
SPLINE
  5
2E7
100
AcDbEntity
  8
0
100
AcDbSpline
 62
7
  6
CONTINUOUS
 70
0
 71
3
 72
8
 73
4
 74
0
 42
0.0000001
 43
0.0000001
 44
0.0000000001
 40
0.0
 40
0.0
 40
0.0
 40
0.0
 40
1.0
 40
1.0
 40
1.0
 40
1.0
 10
4.9177511674
 20
3.1353112782
 30
0.0
 10
4.9124959671
 20
3.1288994497
 30
0.0
 10
4.9054225819
 20
3.1244618548
 30
0.0
 10
4.8965276275
 20
3.122078459
 30
0.0
  0
SPLINE
  5
2E8
100
AcDbEntity
  8
0
100
AcDbSpline
 62
7
  6
CONTINUOUS
 70
0
 71
3
 72
8
 73
4
 74
0
 42
0.0000001
 43
0.0000001
 44
0.0000000001
 40
0.0
 40
0.0
 40
0.0
 40
0.0
 40
1.0
 40
1.0
 40
1.0
 40
1.0
 10
4.926379681
 20
3.1593135981
 30
0.0
 10
4.9257980952
 20
3.1496241839
 30
0.0
 10
4.9229537402
 20
3.1416588963
 30
0.0
 10
4.9177511674
 20
3.1353112782
 30
0.0
  0
SPLINE
  5
2E9
100
AcDbEntity
  8
0
100
AcDbSpline
 62
7
  6
CONTINUOUS
 70
0
 71
3
 72
8
 73
4
 74
0
 42
0.0000001
 43
0.0000001
 44
0.0000000001
 40
0.0
 40
0.0
 40
0.0
 40
0.0
 40
1.0
 40
1.0
 40
1.0
 40
1.0
 10
4.9421343976
 20
3.1463746219
 30
0.0
 10
4.9362393961
 20
3.1486084962
 30
0.0
 10
4.9309548839
 20
3.1529126589
 30
0.0
 10
4.926379681
 20
3.1593135981
 30
0.0
  0
SPLINE
  5
2EA
100
AcDbEntity
  8
0
100
AcDbSpline
 62
7
  6
CONTINUOUS
 70
0
 71
3
 72
8
 73
4
 74
0
 42
0.0000001
 43
0.0000001
 44
0.0000000001
 40
0.0
 40
0.0
 40
0.0
 40
0.0
 40
1.0
 40
1.0
 40
1.0
 40
1.0
 10
4.9611566716
 20
3.1457514813
 30
0.0
 10
4.9544360371
 20
3.1439506927
 30
0.0
 10
4.9480293991
 20
3.1441407476
 30
0.0
 10
4.9421343976
 20
3.1463746219
 30
0.0
  0
SPLINE
  5
2EB
100
AcDbEntity
  8
0
100
AcDbSpline
 62
7
  6
CONTINUOUS
 70
0
 71
3
 72
8
 73
4
 74
0
 42
0.0000001
 43
0.0000001
 44
0.0000000001
 40
0.0
 40
0.0
 40
0.0
 40
0.0
 40
1.0
 40
1.0
 40
1.0
 40
1.0
 10
4.9848419412
 20
3.1644915759
 30
0.0
 10
4.9795939285
 20
3.1548229447
 30
0.0
 10
4.9716329427
 20
3.1485585897
 30
0.0
 10
4.9611566716
 20
3.1457514813
 30
0.0
  0
SPLINE
  5
2EC
100
AcDbEntity
  8
0
100
AcDbSpline
 62
7
  6
CONTINUOUS
 70
0
 71
3
 72
8
 73
4
 74
0
 42
0.0000001
 43
0.0000001
 44
0.0000000001
 40
0.0
 40
0.0
 40
0.0
 40
0.0
 40
1.0
 40
1.0
 40
1.0
 40
1.0
 10
4.9877282337
 20
3.1979969163
 30
0.0
 10
4.9911179506
 20
3.185346321
 30
0.0
 10
4.9900899599
 20
3.1741602182
 30
0.0
 10
4.9848419412
 20
3.1644915759
 30
0.0
  0
SPLINE
  5
2ED
100
AcDbEntity
  8
0
100
AcDbSpline
 62
7
  6
CONTINUOUS
 70
0
 71
3
 72
8
 73
4
 74
0
 42
0.0000001
 43
0.0000001
 44
0.0000000001
 40
0.0
 40
0.0
 40
0.0
 40
0.0
 40
1.0
 40
1.0
 40
1.0
 40
1.0
 10
4.9688508944
 20
3.2253515403
 30
0.0
 10
4.9779805116
 20
3.2197486184
 30
0.0
 10
4.9843385158
 20
3.210647516
 30
0.0
 10
4.9877282337
 20
3.1979969163
 30
0.0
  0
SPLINE
  5
2EE
100
AcDbEntity
  8
0
100
AcDbSpline
 62
7
  6
CONTINUOUS
 70
0
 71
3
 72
8
 73
4
 74
0
 42
0.0000001
 43
0.0000001
 44
0.0000000001
 40
0.0
 40
0.0
 40
0.0
 40
0.0
 40
1.0
 40
1.0
 40
1.0
 40
1.0
 10
4.9392204407
 20
3.2295952629
 30
0.0
 10
4.9496967119
 20
3.2324023713
 30
0.0
 10
4.9595979927
 20
3.2310301229
 30
0.0
 10
4.9688508944
 20
3.2253515403
 30
0.0
  0
SPLINE
  5
2EF
100
AcDbEntity
  8
0
100
AcDbSpline
 62
7
  6
CONTINUOUS
 70
0
 71
3
 72
8
 73
4
 74
0
 42
0.0000001
 43
0.0000001
 44
0.0000000001
 40
0.0
 40
0.0
 40
0.0
 40
0.0
 40
1.0
 40
1.0
 40
1.0
 40
1.0
 10
4.922640042
 20
3.2194574859
 30
0.0
 10
4.9266511917
 20
3.2243206275
 30
0.0
 10
4.9322033134
 20
3.2277150293
 30
0.0
 10
4.9392204407
 20
3.2295952629
 30
0.0
  0
SPLINE
  5
2F0
100
AcDbEntity
  8
0
100
AcDbSpline
 62
7
  6
CONTINUOUS
 70
0
 71
3
 72
8
 73
4
 74
0
 42
0.0000001
 43
0.0000001
 44
0.0000000001
 40
0.0
 40
0.0
 40
0.0
 40
0.0
 40
1.0
 40
1.0
 40
1.0
 40
1.0
 10
4.9154955092
 20
3.1999338804
 30
0.0
 10
4.9161778341
 20
3.2080613593
 30
0.0
 10
4.9185757917
 20
3.2145299649
 30
0.0
 10
4.922640042
 20
3.2194574859
 30
0.0
  0
SPLINE
  5
2F1
100
AcDbEntity
  8
0
100
AcDbSpline
 62
7
  6
CONTINUOUS
 70
0
 71
3
 72
8
 73
4
 74
0
 42
0.0000001
 43
0.0000001
 44
0.0000000001
 40
0.0
 40
0.0
 40
0.0
 40
0.0
 40
1.0
 40
1.0
 40
1.0
 40
1.0
 10
4.8969677729
 20
3.2168966222
 30
0.0
 10
4.9045642147
 20
3.2138475062
 30
0.0
 10
4.9107401284
 20
3.2081932586
 30
0.0
 10
4.9154955092
 20
3.1999338804
 30
0.0
  0
SPLINE
  5
2F2
100
AcDbEntity
  8
0
100
AcDbSpline
 62
7
  6
CONTINUOUS
 70
0
 71
3
 72
8
 73
4
 74
0
 42
0.0000001
 43
0.0000001
 44
0.0000000001
 40
0.0
 40
0.0
 40
0.0
 40
0.0
 40
1.0
 40
1.0
 40
1.0
 40
1.0
 10
4.8714400183
 20
3.2176833449
 30
0.0
 10
4.880829136
 20
3.2201991514
 30
0.0
 10
4.8893713311
 20
3.2199457381
 30
0.0
 10
4.8969677729
 20
3.2168966222
 30
0.0
  0
SPLINE
  5
2F3
100
AcDbEntity
  8
0
100
AcDbSpline
 62
7
  6
CONTINUOUS
 70
0
 71
3
 72
8
 73
4
 74
0
 42
0.0000001
 43
0.0000001
 44
0.0000000001
 40
0.0
 40
0.0
 40
0.0
 40
0.0
 40
1.0
 40
1.0
 40
1.0
 40
1.0
 10
4.8432057177
 20
3.1960552348
 30
0.0
 10
4.8493795295
 20
3.2071113939
 30
0.0
 10
4.8587894229
 20
3.2142936281
 30
0.0
 10
4.8714400183
 20
3.2176833449
 30
0.0
  0
SPLINE
  5
2F4
100
AcDbEntity
  8
0
100
AcDbSpline
 62
7
  6
CONTINUOUS
 70
0
 71
3
 72
8
 73
4
 74
0
 42
0.0000001
 43
0.0000001
 44
0.0000000001
 40
0.0
 40
0.0
 40
0.0
 40
0.0
 40
1.0
 40
1.0
 40
1.0
 40
1.0
 10
4.8398549832
 20
3.1580566135
 30
0.0
 10
4.8360150687
 20
3.1723873697
 30
0.0
 10
4.8370676328
 20
3.1850630561
 30
0.0
 10
4.8432057177
 20
3.1960552348
 30
0.0
  0
SPLINE
  5
2F5
100
AcDbEntity
  8
0
100
AcDbSpline
 62
7
  6
CONTINUOUS
 70
0
 71
3
 72
8
 73
4
 74
0
 42
0.0000001
 43
0.0000001
 44
0.0000000001
 40
0.0
 40
0.0
 40
0.0
 40
0.0
 40
1.0
 40
1.0
 40
1.0
 40
1.0
 10
4.8617736963
 20
3.1268537837
 30
0.0
 10
4.850917806
 20
3.1333735061
 30
0.0
 10
4.8436684149
 20
3.1438246927
 30
0.0
 10
4.8398549832
 20
3.1580566135
 30
0.0
  0
SPLINE
  5
2F6
100
AcDbEntity
  8
0
100
AcDbSpline
 62
7
  6
CONTINUOUS
 70
0
 71
3
 72
8
 73
4
 74
0
 42
0.0000001
 43
0.0000001
 44
0.0000000001
 40
0.0
 40
0.0
 40
0.0
 40
0.0
 40
1.0
 40
1.0
 40
1.0
 40
1.0
 10
4.8991932941
 20
3.1967309313
 30
0.0
 10
4.8921756586
 20
3.2007825659
 30
0.0
 10
4.8845423437
 20
3.2015972994
 30
0.0
 10
4.8762403881
 20
3.1993727971
 30
0.0
  0
SPLINE
  5
2F7
100
AcDbEntity
  8
0
100
AcDbSpline
 62
7
  6
CONTINUOUS
 70
0
 71
3
 72
8
 73
4
 74
0
 42
0.0000001
 43
0.0000001
 44
0.0000000001
 40
0.0
 40
0.0
 40
0.0
 40
0.0
 40
1.0
 40
1.0
 40
1.0
 40
1.0
 10
4.9130829854
 20
3.1781017136
 30
0.0
 10
4.9108320015
 20
3.1865025002
 30
0.0
 10
4.906210931
 20
3.1926792958
 30
0.0
 10
4.8991932941
 20
3.1967309313
 30
0.0
  0
SPLINE
  5
2F8
100
AcDbEntity
  8
0
100
AcDbSpline
 62
7
  6
CONTINUOUS
 70
0
 71
3
 72
8
 73
4
 74
0
 42
0.0000001
 43
0.0000001
 44
0.0000000001
 40
0.0
 40
0.0
 40
0.0
 40
0.0
 40
1.0
 40
1.0
 40
1.0
 40
1.0
 10
4.9103704117
 20
3.1545208192
 30
0.0
 10
4.914401018
 20
3.1617181511
 30
0.0
 10
4.9153604523
 20
3.1696020918
 30
0.0
 10
4.9130829854
 20
3.1781017136
 30
0.0
  0
SPLINE
  5
2F9
100
AcDbEntity
  8
0
100
AcDbSpline
 62
7
  6
CONTINUOUS
 70
0
 71
3
 72
8
 73
4
 74
0
 42
0.0000001
 43
0.0000001
 44
0.0000000001
 40
0.0
 40
0.0
 40
0.0
 40
0.0
 40
1.0
 40
1.0
 40
1.0
 40
1.0
 10
4.891457243
 20
3.1402107269
 30
0.0
 10
4.8999568648
 20
3.1424881937
 30
0.0
 10
4.906304845
 20
3.1472610597
 30
0.0
 10
4.9103704117
 20
3.1545208192
 30
0.0
  0
SPLINE
  5
2FA
100
AcDbEntity
  8
0
100
AcDbSpline
 62
7
  6
CONTINUOUS
 70
0
 71
3
 72
8
 73
4
 74
0
 42
0.0000001
 43
0.0000001
 44
0.0000000001
 40
0.0
 40
0.0
 40
0.0
 40
0.0
 40
1.0
 40
1.0
 40
1.0
 40
1.0
 10
4.868360783
 20
3.1428935164
 30
0.0
 10
4.8752978283
 20
3.1388468279
 30
0.0
 10
4.8829576254
 20
3.1379332613
 30
0.0
 10
4.891457243
 20
3.1402107269
 30
0.0
  0
SPLINE
  5
2FB
100
AcDbEntity
  8
0
100
AcDbSpline
 62
7
  6
CONTINUOUS
 70
0
 71
3
 72
8
 73
4
 74
0
 42
0.0000001
 43
0.0000001
 44
0.0000000001
 40
0.0
 40
0.0
 40
0.0
 40
0.0
 40
1.0
 40
1.0
 40
1.0
 40
1.0
 10
4.8545352005
 20
3.1617783079
 30
0.0
 10
4.8568126662
 20
3.1532786903
 30
0.0
 10
4.8613613864
 20
3.1469765772
 30
0.0
 10
4.868360783
 20
3.1428935164
 30
0.0
  0
SPLINE
  5
2FC
100
AcDbEntity
  8
0
100
AcDbSpline
 62
7
  6
CONTINUOUS
 70
0
 71
3
 72
8
 73
4
 74
0
 42
0.0000001
 43
0.0000001
 44
0.0000000001
 40
0.0
 40
0.0
 40
0.0
 40
0.0
 40
1.0
 40
1.0
 40
1.0
 40
1.0
 10
4.8542849437
 20
3.1781301956
 30
0.0
 10
4.8529864354
 20
3.1726976871
 30
0.0
 10
4.853052199
 20
3.167312945
 30
0.0
 10
4.8545352005
 20
3.1617783079
 30
0.0
  0
SPLINE
  5
2FD
100
AcDbEntity
  8
0
100
AcDbSpline
 62
7
  6
CONTINUOUS
 70
0
 71
3
 72
8
 73
4
 74
0
 42
0.0000001
 43
0.0000001
 44
0.0000000001
 40
0.0
 40
0.0
 40
0.0
 40
0.0
 40
1.0
 40
1.0
 40
1.0
 40
1.0
 10
4.8624676592
 20
3.1918689736
 30
0.0
 10
4.8583592573
 20
3.1882258427
 30
0.0
 10
4.8555834524
 20
3.1835627061
 30
0.0
 10
4.8542849437
 20
3.1781301956
 30
0.0
  0
SPLINE
  5
2FE
100
AcDbEntity
  8
0
100
AcDbSpline
 62
7
  6
CONTINUOUS
 70
0
 71
3
 72
8
 73
4
 74
0
 42
0.0000001
 43
0.0000001
 44
0.0000000001
 40
0.0
 40
0.0
 40
0.0
 40
0.0
 40
1.0
 40
1.0
 40
1.0
 40
1.0
 10
4.8762403881
 20
3.1993727971
 30
0.0
 10
4.8711010835
 20
3.1979957246
 30
0.0
 10
4.8665760619
 20
3.1955121052
 30
0.0
 10
4.8624676592
 20
3.1918689736
 30
0.0
  0
SPLINE
  5
2FF
100
AcDbEntity
  8
0
100
AcDbSpline
 62
7
  6
CONTINUOUS
 70
0
 71
3
 72
8
 73
4
 74
0
 42
0.0000001
 43
0.0000001
 44
0.0000000001
 40
0.0
 40
0.0
 40
0.0
 40
0.0
 40
1.0
 40
1.0
 40
1.0
 40
1.0
 10
4.944686154
 20
3.2115689207
 30
0.0
 10
4.9377678577
 20
3.2097151687
 30
0.0
 10
4.9328158278
 20
3.2060578473
 30
0.0
 10
4.9296275839
 20
3.2004628791
 30
0.0
  0
SPLINE
  5
300
100
AcDbEntity
  8
0
100
AcDbSpline
 62
7
  6
CONTINUOUS
 70
0
 71
3
 72
8
 73
4
 74
0
 42
0.0000001
 43
0.0000001
 44
0.0000000001
 40
0.0
 40
0.0
 40
0.0
 40
0.0
 40
1.0
 40
1.0
 40
1.0
 40
1.0
 10
4.9621207361
 20
3.2090630193
 30
0.0
 10
4.9565356974
 20
3.2124135672
 30
0.0
 10
4.9507149545
 20
3.2131843329
 30
0.0
 10
4.944686154
 20
3.2115689207
 30
0.0
  0
SPLINE
  5
301
100
AcDbEntity
  8
0
100
AcDbSpline
 62
7
  6
CONTINUOUS
 70
0
 71
3
 72
8
 73
4
 74
0
 42
0.0000001
 43
0.0000001
 44
0.0000000001
 40
0.0
 40
0.0
 40
0.0
 40
0.0
 40
1.0
 40
1.0
 40
1.0
 40
1.0
 10
4.9731539395
 20
3.1938798925
 30
0.0
 10
4.9713266704
 20
3.2006993536
 30
0.0
 10
4.967642863
 20
3.2057502133
 30
0.0
 10
4.9621207361
 20
3.2090630193
 30
0.0
  0
SPLINE
  5
302
100
AcDbEntity
  8
0
100
AcDbSpline
 62
7
  6
CONTINUOUS
 70
0
 71
3
 72
8
 73
4
 74
0
 42
0.0000001
 43
0.0000001
 44
0.0000000001
 40
0.0
 40
0.0
 40
0.0
 40
0.0
 40
1.0
 40
1.0
 40
1.0
 40
1.0
 10
4.9709352771
 20
3.1752775284
 30
0.0
 10
4.9741645733
 20
3.1810155352
 30
0.0
 10
4.9749547269
 20
3.1871592624
 30
0.0
 10
4.9731539395
 20
3.1938798925
 30
0.0
  0
SPLINE
  5
303
100
AcDbEntity
  8
0
100
AcDbSpline
 62
7
  6
CONTINUOUS
 70
0
 71
3
 72
8
 73
4
 74
0
 42
0.0000001
 43
0.0000001
 44
0.0000000001
 40
0.0
 40
0.0
 40
0.0
 40
0.0
 40
1.0
 40
1.0
 40
1.0
 40
1.0
 10
4.9563563025
 20
3.1640620264
 30
0.0
 10
4.9628792664
 20
3.1658098493
 30
0.0
 10
4.9677059824
 20
3.1695395243
 30
0.0
 10
4.9709352771
 20
3.1752775284
 30
0.0
  0
SPLINE
  5
304
100
AcDbEntity
  8
0
100
AcDbSpline
 62
7
  6
CONTINUOUS
 70
0
 71
3
 72
8
 73
4
 74
0
 42
0.0000001
 43
0.0000001
 44
0.0000000001
 40
0.0
 40
0.0
 40
0.0
 40
0.0
 40
1.0
 40
1.0
 40
1.0
 40
1.0
 10
4.9386699198
 20
3.1664201916
 30
0.0
 10
4.9441837748
 20
3.1632367678
 30
0.0
 10
4.9500310005
 20
3.1623671668
 30
0.0
 10
4.9563563025
 20
3.1640620264
 30
0.0
  0
SPLINE
  5
305
100
AcDbEntity
  8
0
100
AcDbSpline
 62
7
  6
CONTINUOUS
 70
0
 71
3
 72
8
 73
4
 74
0
 42
0.0000001
 43
0.0000001
 44
0.0000000001
 40
0.0
 40
0.0
 40
0.0
 40
0.0
 40
1.0
 40
1.0
 40
1.0
 40
1.0
 10
4.9277438185
 20
3.1815004293
 30
0.0
 10
4.9295710887
 20
3.1746809639
 30
0.0
 10
4.9331560565
 20
3.1696036202
 30
0.0
 10
4.9386699198
 20
3.1664201916
 30
0.0
  0
SPLINE
  5
306
100
AcDbEntity
  8
0
100
AcDbSpline
 62
7
  6
CONTINUOUS
 70
0
 71
3
 72
8
 73
4
 74
0
 42
0.0000001
 43
0.0000001
 44
0.0000000001
 40
0.0
 40
0.0
 40
0.0
 40
0.0
 40
1.0
 40
1.0
 40
1.0
 40
1.0
 10
4.9296275839
 20
3.2004628791
 30
0.0
 10
4.9264754614
 20
3.1949312993
 30
0.0
 10
4.9258371032
 20
3.1886163875
 30
0.0
 10
4.9277438185
 20
3.1815004293
 30
0.0
  0
SPLINE
  5
307
100
AcDbEntity
  8
0
100
AcDbSpline
 62
7
  6
CONTINUOUS
 70
0
 71
3
 72
8
 73
4
 74
0
 42
0.0000001
 43
0.0000001
 44
0.0000000001
 40
0.0
 40
0.0
 40
0.0
 40
0.0
 40
1.0
 40
1.0
 40
1.0
 40
1.0
 10
4.897702858
 20
3.1038558464
 30
0.0
 10
4.88576538
 20
3.0993860607
 30
0.0
 10
4.8772520776
 20
3.0920203541
 30
0.0
 10
4.8721287491
 20
3.0817758949
 30
0.0
  0
SPLINE
  5
308
100
AcDbEntity
  8
0
100
AcDbSpline
 62
7
  6
CONTINUOUS
 70
0
 71
3
 72
8
 73
4
 74
0
 42
0.0000001
 43
0.0000001
 44
0.0000000001
 40
0.0
 40
0.0
 40
0.0
 40
0.0
 40
1.0
 40
1.0
 40
1.0
 40
1.0
 10
4.8721287491
 20
3.0817758949
 30
0.0
 10
4.8669749962
 20
3.0714706
 30
0.0
 10
4.8662047388
 20
3.0597179872
 30
0.0
 10
4.8697533479
 20
3.0464743974
 30
0.0
  0
SPLINE
  5
309
100
AcDbEntity
  8
0
100
AcDbSpline
 62
7
  6
CONTINUOUS
 70
0
 71
3
 72
8
 73
4
 74
0
 42
0.0000001
 43
0.0000001
 44
0.0000000001
 40
0.0
 40
0.0
 40
0.0
 40
0.0
 40
1.0
 40
1.0
 40
1.0
 40
1.0
 10
4.8697533479
 20
3.0464743974
 30
0.0
 10
4.8740434625
 20
3.0304634719
 30
0.0
 10
4.8832907935
 20
3.0192765021
 30
0.0
 10
4.8975204773
 20
3.0130901551
 30
0.0
  0
SPLINE
  5
30A
100
AcDbEntity
  8
0
100
AcDbSpline
 62
7
  6
CONTINUOUS
 70
0
 71
3
 72
8
 73
4
 74
0
 42
0.0000001
 43
0.0000001
 44
0.0000000001
 40
0.0
 40
0.0
 40
0.0
 40
0.0
 40
1.0
 40
1.0
 40
1.0
 40
1.0
 10
4.8975204773
 20
3.0130901551
 30
0.0
 10
4.9090682981
 20
3.0080697465
 30
0.0
 10
4.9214668733
 20
3.0072607195
 30
0.0
 10
4.9346116364
 20
3.0107828481
 30
0.0
  0
SPLINE
  5
30B
100
AcDbEntity
  8
0
100
AcDbSpline
 62
7
  6
CONTINUOUS
 70
0
 71
3
 72
8
 73
4
 74
0
 42
0.0000001
 43
0.0000001
 44
0.0000000001
 40
0.0
 40
0.0
 40
0.0
 40
0.0
 40
1.0
 40
1.0
 40
1.0
 40
1.0
 10
4.9346116364
 20
3.0107828481
 30
0.0
 10
4.9483493938
 20
3.0144638691
 30
0.0
 10
4.9584511174
 20
3.0218314851
 30
0.0
 10
4.9648855855
 20
3.0329037625
 30
0.0
  0
SPLINE
  5
30C
100
AcDbEntity
  8
0
100
AcDbSpline
 62
7
  6
CONTINUOUS
 70
0
 71
3
 72
8
 73
4
 74
0
 42
0.0000001
 43
0.0000001
 44
0.0000000001
 40
0.0
 40
0.0
 40
0.0
 40
0.0
 40
1.0
 40
1.0
 40
1.0
 40
1.0
 10
4.9648855855
 20
3.0329037625
 30
0.0
 10
4.9712836533
 20
3.0439134033
 30
0.0
 10
4.9728710609
 20
3.0557790349
 30
0.0
 10
4.9694813417
 20
3.0684296389
 30
0.0
  0
SPLINE
  5
30D
100
AcDbEntity
  8
0
100
AcDbSpline
 62
7
  6
CONTINUOUS
 70
0
 71
3
 72
8
 73
4
 74
0
 42
0.0000001
 43
0.0000001
 44
0.0000000001
 40
0.0
 40
0.0
 40
0.0
 40
0.0
 40
1.0
 40
1.0
 40
1.0
 40
1.0
 10
4.9694813417
 20
3.0684296389
 30
0.0
 10
4.966912573
 20
3.0780164142
 30
0.0
 10
4.9614123927
 20
3.0862880866
 30
0.0
 10
4.9530531608
 20
3.0933699625
 30
0.0
  0
SPLINE
  5
30E
100
AcDbEntity
  8
0
100
AcDbSpline
 62
7
  6
CONTINUOUS
 70
0
 71
3
 72
8
 73
4
 74
0
 42
0.0000001
 43
0.0000001
 44
0.0000000001
 40
0.0
 40
0.0
 40
0.0
 40
0.0
 40
1.0
 40
1.0
 40
1.0
 40
1.0
 10
4.9313907892
 20
3.0915908361
 30
0.0
 10
4.9362303001
 20
3.0901334294
 30
0.0
 10
4.9405704555
 20
3.0873770179
 30
0.0
 10
4.9444026267
 20
3.0834378624
 30
0.0
  0
SPLINE
  5
30F
100
AcDbEntity
  8
0
100
AcDbSpline
 62
7
  6
CONTINUOUS
 70
0
 71
3
 72
8
 73
4
 74
0
 42
0.0000001
 43
0.0000001
 44
0.0000000001
 40
0.0
 40
0.0
 40
0.0
 40
0.0
 40
1.0
 40
1.0
 40
1.0
 40
1.0
 10
4.9444026267
 20
3.0834378624
 30
0.0
 10
4.9481726021
 20
3.079562639
 30
0.0
 10
4.9509598179
 20
3.0746952451
 30
0.0
 10
4.9524957828
 20
3.0689629461
 30
0.0
  0
SPLINE
  5
310
100
AcDbEntity
  8
0
100
AcDbSpline
 62
7
  6
CONTINUOUS
 70
0
 71
3
 72
8
 73
4
 74
0
 42
0.0000001
 43
0.0000001
 44
0.0000000001
 40
0.0
 40
0.0
 40
0.0
 40
0.0
 40
1.0
 40
1.0
 40
1.0
 40
1.0
 10
4.9524957828
 20
3.0689629461
 30
0.0
 10
4.9549586248
 20
3.0597714946
 30
0.0
 10
4.953979807
 20
3.0515645707
 30
0.0
 10
4.9496539775
 20
3.0442881345
 30
0.0
  0
SPLINE
  5
311
100
AcDbEntity
  8
0
100
AcDbSpline
 62
7
  6
CONTINUOUS
 70
0
 71
3
 72
8
 73
4
 74
0
 42
0.0000001
 43
0.0000001
 44
0.0000000001
 40
0.0
 40
0.0
 40
0.0
 40
0.0
 40
1.0
 40
1.0
 40
1.0
 40
1.0
 10
4.9496539775
 20
3.0442881345
 30
0.0
 10
4.9452906329
 20
3.0369485945
 30
0.0
 10
4.9380531569
 20
3.0319373888
 30
0.0
 10
4.9279722139
 20
3.0292362083
 30
0.0
  0
SPLINE
  5
312
100
AcDbEntity
  8
0
100
AcDbSpline
 62
7
  6
CONTINUOUS
 70
0
 71
3
 72
8
 73
4
 74
0
 42
0.0000001
 43
0.0000001
 44
0.0000000001
 40
0.0
 40
0.0
 40
0.0
 40
0.0
 40
1.0
 40
1.0
 40
1.0
 40
1.0
 10
4.9279722139
 20
3.0292362083
 30
0.0
 10
4.9172982721
 20
3.0263761342
 30
0.0
 10
4.907905353
 20
3.0270371656
 30
0.0
 10
4.8998764035
 20
3.0312151066
 30
0.0
  0
SPLINE
  5
313
100
AcDbEntity
  8
0
100
AcDbSpline
 62
7
  6
CONTINUOUS
 70
0
 71
3
 72
8
 73
4
 74
0
 42
0.0000001
 43
0.0000001
 44
0.0000000001
 40
0.0
 40
0.0
 40
0.0
 40
0.0
 40
1.0
 40
1.0
 40
1.0
 40
1.0
 10
4.8998764035
 20
3.0312151066
 30
0.0
 10
4.8917803972
 20
3.0354279411
 30
0.0
 10
4.886658071
 20
3.0418941232
 30
0.0
 10
4.8843806007
 20
3.050393758
 30
0.0
  0
SPLINE
  5
314
100
AcDbEntity
  8
0
100
AcDbSpline
 62
7
  6
CONTINUOUS
 70
0
 71
3
 72
8
 73
4
 74
0
 42
0.0000001
 43
0.0000001
 44
0.0000000001
 40
0.0
 40
0.0
 40
0.0
 40
0.0
 40
1.0
 40
1.0
 40
1.0
 40
1.0
 10
4.8843806007
 20
3.050393758
 30
0.0
 10
4.8824738878
 20
3.0575097076
 30
0.0
 10
4.8831051467
 20
3.0642464378
 30
0.0
 10
4.8863008636
 20
3.0705050829
 30
0.0
  0
SPLINE
  5
315
100
AcDbEntity
  8
0
100
AcDbSpline
 62
7
  6
CONTINUOUS
 70
0
 71
3
 72
8
 73
4
 74
0
 42
0.0000001
 43
0.0000001
 44
0.0000000001
 40
0.0
 40
0.0
 40
0.0
 40
0.0
 40
1.0
 40
1.0
 40
1.0
 40
1.0
 10
4.8863008636
 20
3.0705050829
 30
0.0
 10
4.8894965846
 20
3.076763736
 30
0.0
 10
4.895567449
 20
3.0817801383
 30
0.0
 10
4.9042893149
 20
3.0856001568
 30
0.0
  0
SPLINE
  5
316
100
AcDbEntity
  8
0
100
AcDbSpline
 62
7
  6
CONTINUOUS
 70
0
 71
3
 72
8
 73
4
 74
0
 42
0.0000001
 43
0.0000001
 44
0.0000000001
 40
0.0
 40
0.0
 40
0.0
 40
0.0
 40
1.0
 40
1.0
 40
1.0
 40
1.0
 10
4.7160356101
 20
2.2976006777
 30
0.0
 10
4.7061622573
 20
2.3045140737
 30
0.0
 10
4.6992679688
 20
2.3131630551
 30
0.0
 10
4.6953356947
 20
2.3234384708
 30
0.0
  0
SPLINE
  5
317
100
AcDbEntity
  8
0
100
AcDbSpline
 62
7
  6
CONTINUOUS
 70
0
 71
3
 72
8
 73
4
 74
0
 42
0.0000001
 43
0.0000001
 44
0.0000000001
 40
0.0
 40
0.0
 40
0.0
 40
0.0
 40
1.0
 40
1.0
 40
1.0
 40
1.0
 10
4.7455893243
 20
2.2879492141
 30
0.0
 10
4.7354147765
 20
2.2877063149
 30
0.0
 10
4.725562403
 20
2.2909299454
 30
0.0
 10
4.7160356101
 20
2.2976006777
 30
0.0
  0
SPLINE
  5
318
100
AcDbEntity
  8
0
100
AcDbSpline
 62
7
  6
CONTINUOUS
 70
0
 71
3
 72
8
 73
4
 74
0
 42
0.0000001
 43
0.0000001
 44
0.0000000001
 40
0.0
 40
0.0
 40
0.0
 40
0.0
 40
1.0
 40
1.0
 40
1.0
 40
1.0
 10
3.0991841526
 20
3.0867442899
 30
0.0
 10
3.1044002965
 20
3.081606751
 30
0.0
 10
3.1090497625
 20
3.0743940508
 30
0.0
 10
3.113201944
 20
3.0649788991
 30
0.0
  0
SPLINE
  5
319
100
AcDbEntity
  8
0
100
AcDbSpline
 62
7
  6
CONTINUOUS
 70
0
 71
3
 72
8
 73
4
 74
0
 42
0.0000001
 43
0.0000001
 44
0.0000000001
 40
0.0
 40
0.0
 40
0.0
 40
0.0
 40
1.0
 40
1.0
 40
1.0
 40
1.0
 10
3.113201944
 20
3.0649788991
 30
0.0
 10
3.1174124251
 20
3.0554315518
 30
0.0
 10
3.1201767547
 20
3.045065903
 30
0.0
 10
3.1215885512
 20
3.0338487017
 30
0.0
  0
SPLINE
  5
31A
100
AcDbEntity
  8
0
100
AcDbSpline
 62
7
  6
CONTINUOUS
 70
0
 71
3
 72
8
 73
4
 74
0
 42
0.0000001
 43
0.0000001
 44
0.0000000001
 40
0.0
 40
0.0
 40
0.0
 40
0.0
 40
1.0
 40
1.0
 40
1.0
 40
1.0
 10
3.1385207304
 20
3.0283471032
 30
0.0
 10
3.1383451347
 20
3.0344289079
 30
0.0
 10
3.1373204363
 20
3.0415396942
 30
0.0
 10
3.1354896103
 20
3.0496889947
 30
0.0
  0
SPLINE
  5
31B
100
AcDbEntity
  8
0
100
AcDbSpline
 62
7
  6
CONTINUOUS
 70
0
 71
3
 72
8
 73
4
 74
0
 42
0.0000001
 43
0.0000001
 44
0.0000000001
 40
0.0
 40
0.0
 40
0.0
 40
0.0
 40
1.0
 40
1.0
 40
1.0
 40
1.0
 10
3.1354896103
 20
3.0496889947
 30
0.0
 10
3.1336701712
 20
3.0577876104
 30
0.0
 10
3.1314826499
 20
3.0646307122
 30
0.0
 10
3.1287867808
 20
3.0702403862
 30
0.0
  0
SPLINE
  5
31C
100
AcDbEntity
  8
0
100
AcDbSpline
 62
7
  6
CONTINUOUS
 70
0
 71
3
 72
8
 73
4
 74
0
 42
0.0000001
 43
0.0000001
 44
0.0000000001
 40
0.0
 40
0.0
 40
0.0
 40
0.0
 40
1.0
 40
1.0
 40
1.0
 40
1.0
 10
3.1351974909
 20
3.1975819482
 30
0.0
 10
3.1404136361
 20
3.1924444135
 30
0.0
 10
3.1450631007
 20
3.1852317091
 30
0.0
 10
3.1492152822
 20
3.1758165573
 30
0.0
  0
SPLINE
  5
31D
100
AcDbEntity
  8
0
100
AcDbSpline
 62
7
  6
CONTINUOUS
 70
0
 71
3
 72
8
 73
4
 74
0
 42
0.0000001
 43
0.0000001
 44
0.0000000001
 40
0.0
 40
0.0
 40
0.0
 40
0.0
 40
1.0
 40
1.0
 40
1.0
 40
1.0
 10
3.1492152822
 20
3.1758165573
 30
0.0
 10
3.1534257634
 20
3.16626921
 30
0.0
 10
3.1561900923
 20
3.1559035591
 30
0.0
 10
3.1576018894
 20
3.1446863599
 30
0.0
  0
SPLINE
  5
31E
100
AcDbEntity
  8
0
100
AcDbSpline
 62
7
  6
CONTINUOUS
 70
0
 71
3
 72
8
 73
4
 74
0
 42
0.0000001
 43
0.0000001
 44
0.0000000001
 40
0.0
 40
0.0
 40
0.0
 40
0.0
 40
1.0
 40
1.0
 40
1.0
 40
1.0
 10
3.1745340686
 20
3.1391847614
 30
0.0
 10
3.1743584729
 20
3.1452665661
 30
0.0
 10
3.1733337766
 20
3.1523773588
 30
0.0
 10
3.171502948
 20
3.1605266528
 30
0.0
  0
SPLINE
  5
31F
100
AcDbEntity
  8
0
100
AcDbSpline
 62
7
  6
CONTINUOUS
 70
0
 71
3
 72
8
 73
4
 74
0
 42
0.0000001
 43
0.0000001
 44
0.0000000001
 40
0.0
 40
0.0
 40
0.0
 40
0.0
 40
1.0
 40
1.0
 40
1.0
 40
1.0
 10
3.171502948
 20
3.1605266528
 30
0.0
 10
3.1697280387
 20
3.1684270415
 30
0.0
 10
3.1676028521
 20
3.1751326473
 30
0.0
 10
3.1649971558
 20
3.1806639228
 30
0.0
  0
SPLINE
  5
320
100
AcDbEntity
  8
0
100
AcDbSpline
 62
7
  6
CONTINUOUS
 70
0
 71
3
 72
8
 73
4
 74
0
 42
0.0000001
 43
0.0000001
 44
0.0000000001
 40
0.0
 40
0.0
 40
0.0
 40
0.0
 40
1.0
 40
1.0
 40
1.0
 40
1.0
 10
3.2377430106
 20
3.2479638763
 30
0.0
 10
3.2344780158
 20
3.251821947
 30
0.0
 10
3.2323393073
 20
3.2564974947
 30
0.0
 10
3.2312707916
 20
3.2618882976
 30
0.0
  0
SPLINE
  5
321
100
AcDbEntity
  8
0
100
AcDbSpline
 62
7
  6
CONTINUOUS
 70
0
 71
3
 72
8
 73
4
 74
0
 42
0.0000001
 43
0.0000001
 44
0.0000000001
 40
0.0
 40
0.0
 40
0.0
 40
0.0
 40
1.0
 40
1.0
 40
1.0
 40
1.0
 10
3.2312707916
 20
3.2618882976
 30
0.0
 10
3.2302196209
 20
3.2671915931
 30
0.0
 10
3.2305330378
 20
3.2727917596
 30
0.0
 10
3.232366903
 20
3.2784358165
 30
0.0
  0
SPLINE
  5
322
100
AcDbEntity
  8
0
100
AcDbSpline
 62
7
  6
CONTINUOUS
 70
0
 71
3
 72
8
 73
4
 74
0
 42
0.0000001
 43
0.0000001
 44
0.0000000001
 40
0.0
 40
0.0
 40
0.0
 40
0.0
 40
1.0
 40
1.0
 40
1.0
 40
1.0
 10
3.232366903
 20
3.2784358165
 30
0.0
 10
3.2353074132
 20
3.2874857763
 30
0.0
 10
3.2405981355
 20
3.2938355964
 30
0.0
 10
3.2481891126
 20
3.2975821137
 30
0.0
  0
SPLINE
  5
323
100
AcDbEntity
  8
0
100
AcDbSpline
 62
7
  6
CONTINUOUS
 70
0
 71
3
 72
8
 73
4
 74
0
 42
0.0000001
 43
0.0000001
 44
0.0000000001
 40
0.0
 40
0.0
 40
0.0
 40
0.0
 40
1.0
 40
1.0
 40
1.0
 40
1.0
 10
3.2481891126
 20
3.2975821137
 30
0.0
 10
3.2558459213
 20
3.3013611221
 30
0.0
 10
3.2646450721
 20
3.3016220438
 30
0.0
 10
3.2745708307
 20
3.2983969694
 30
0.0
  0
SPLINE
  5
324
100
AcDbEntity
  8
0
100
AcDbSpline
 62
7
  6
CONTINUOUS
 70
0
 71
3
 72
8
 73
4
 74
0
 42
0.0000001
 43
0.0000001
 44
0.0000000001
 40
0.0
 40
0.0
 40
0.0
 40
0.0
 40
1.0
 40
1.0
 40
1.0
 40
1.0
 10
3.2745708307
 20
3.2983969694
 30
0.0
 10
3.2850804594
 20
3.294982184
 30
0.0
 10
3.2925980062
 20
3.289312063
 30
0.0
 10
3.2970561864
 20
3.2814352434
 30
0.0
  0
SPLINE
  5
325
100
AcDbEntity
  8
0
100
AcDbSpline
 62
7
  6
CONTINUOUS
 70
0
 71
3
 72
8
 73
4
 74
0
 42
0.0000001
 43
0.0000001
 44
0.0000000001
 40
0.0
 40
0.0
 40
0.0
 40
0.0
 40
1.0
 40
1.0
 40
1.0
 40
1.0
 10
3.2970561864
 20
3.2814352434
 30
0.0
 10
3.3015515827
 20
3.2734926692
 30
0.0
 10
3.3023257918
 20
3.2652798538
 30
0.0
 10
3.2996066117
 20
3.256911078
 30
0.0
  0
SPLINE
  5
326
100
AcDbEntity
  8
0
100
AcDbSpline
 62
7
  6
CONTINUOUS
 70
0
 71
3
 72
8
 73
4
 74
0
 42
0.0000001
 43
0.0000001
 44
0.0000000001
 40
0.0
 40
0.0
 40
0.0
 40
0.0
 40
1.0
 40
1.0
 40
1.0
 40
1.0
 10
3.2996066117
 20
3.256911078
 30
0.0
 10
3.2973300863
 20
3.2499046532
 30
0.0
 10
3.2931315818
 20
3.2445985641
 30
0.0
 10
3.2870427271
 20
3.2410901322
 30
0.0
  0
SPLINE
  5
327
100
AcDbEntity
  8
0
100
AcDbSpline
 62
7
  6
CONTINUOUS
 70
0
 71
3
 72
8
 73
4
 74
0
 42
0.0000001
 43
0.0000001
 44
0.0000000001
 40
0.0
 40
0.0
 40
0.0
 40
0.0
 40
1.0
 40
1.0
 40
1.0
 40
1.0
 10
3.2870427271
 20
3.2410901322
 30
0.0
 10
3.2809538589
 20
3.2375816926
 30
0.0
 10
3.2731302778
 20
3.2366810218
 30
0.0
 10
3.2637349773
 20
3.2382275619
 30
0.0
  0
SPLINE
  5
328
100
AcDbEntity
  8
0
100
AcDbSpline
 62
7
  6
CONTINUOUS
 70
0
 71
3
 72
8
 73
4
 74
0
 42
0.0000001
 43
0.0000001
 44
0.0000000001
 40
0.0
 40
0.0
 40
0.0
 40
0.0
 40
1.0
 40
1.0
 40
1.0
 40
1.0
 10
3.2593160808
 20
3.2193298023
 30
0.0
 10
3.2717621149
 20
3.2165768721
 30
0.0
 10
3.2829136223
 20
3.2181175966
 30
0.0
 10
3.2927899395
 20
3.2239189583
 30
0.0
  0
SPLINE
  5
329
100
AcDbEntity
  8
0
100
AcDbSpline
 62
7
  6
CONTINUOUS
 70
0
 71
3
 72
8
 73
4
 74
0
 42
0.0000001
 43
0.0000001
 44
0.0000000001
 40
0.0
 40
0.0
 40
0.0
 40
0.0
 40
1.0
 40
1.0
 40
1.0
 40
1.0
 10
3.2927899395
 20
3.2239189583
 30
0.0
 10
3.3027249063
 20
3.2297547708
 30
0.0
 10
3.3097718275
 20
3.2391918205
 30
0.0
 10
3.3140086948
 20
3.2522315575
 30
0.0
  0
SPLINE
  5
32A
100
AcDbEntity
  8
0
100
AcDbSpline
 62
7
  6
CONTINUOUS
 70
0
 71
3
 72
8
 73
4
 74
0
 42
0.0000001
 43
0.0000001
 44
0.0000000001
 40
0.0
 40
0.0
 40
0.0
 40
0.0
 40
1.0
 40
1.0
 40
1.0
 40
1.0
 10
3.3140086948
 20
3.2522315575
 30
0.0
 10
3.319130866
 20
3.2679959794
 30
0.0
 10
3.3174682677
 20
3.2824146362
 30
0.0
 10
3.3089035702
 20
3.2953529803
 30
0.0
  0
SPLINE
  5
32B
100
AcDbEntity
  8
0
100
AcDbSpline
 62
7
  6
CONTINUOUS
 70
0
 71
3
 72
8
 73
4
 74
0
 42
0.0000001
 43
0.0000001
 44
0.0000000001
 40
0.0
 40
0.0
 40
0.0
 40
0.0
 40
1.0
 40
1.0
 40
1.0
 40
1.0
 10
3.3089035702
 20
3.2953529803
 30
0.0
 10
3.3019530642
 20
3.3058528304
 30
0.0
 10
3.2919953718
 20
3.3132840856
 30
0.0
 10
3.2790529572
 20
3.3174893311
 30
0.0
  0
SPLINE
  5
32C
100
AcDbEntity
  8
0
100
AcDbSpline
 62
7
  6
CONTINUOUS
 70
0
 71
3
 72
8
 73
4
 74
0
 42
0.0000001
 43
0.0000001
 44
0.0000000001
 40
0.0
 40
0.0
 40
0.0
 40
0.0
 40
1.0
 40
1.0
 40
1.0
 40
1.0
 10
3.2790529572
 20
3.3174893311
 30
0.0
 10
3.2655266766
 20
3.3218842861
 30
0.0
 10
3.2530419726
 20
3.3212070934
 30
0.0
 10
3.2416151649
 20
3.3154255626
 30
0.0
  0
SPLINE
  5
32D
100
AcDbEntity
  8
0
100
AcDbSpline
 62
7
  6
CONTINUOUS
 70
0
 71
3
 72
8
 73
4
 74
0
 42
0.0000001
 43
0.0000001
 44
0.0000000001
 40
0.0
 40
0.0
 40
0.0
 40
0.0
 40
1.0
 40
1.0
 40
1.0
 40
1.0
 10
3.2416151649
 20
3.3154255626
 30
0.0
 10
3.2302530334
 20
3.3096767555
 30
0.0
 10
3.2224592297
 20
3.3005899466
 30
0.0
 10
3.2184120746
 20
3.288134084
 30
0.0
  0
SPLINE
  5
32E
100
AcDbEntity
  8
0
100
AcDbSpline
 62
7
  6
CONTINUOUS
 70
0
 71
3
 72
8
 73
4
 74
0
 42
0.0000001
 43
0.0000001
 44
0.0000000001
 40
0.0
 40
0.0
 40
0.0
 40
0.0
 40
1.0
 40
1.0
 40
1.0
 40
1.0
 10
3.2184120746
 20
3.288134084
 30
0.0
 10
3.2153450933
 20
3.278694886
 30
0.0
 10
3.215452857
 20
3.2687620649
 30
0.0
 10
3.2186064354
 20
3.2582699486
 30
0.0
  0
ENDSEC
  0
SECTION
  2
OBJECTS
  0
DICTIONARY
  5
C
100
AcDbDictionary
280
0
281
1
  3
ACAD_GROUP
350
D
  3
ACAD_MLINESTYLE
350
17
  3
ACAD_LAYOUT
350
1A
  3
ACAD_PLOTSETTINGS
350
19
  3
ACAD_PLOTSTYLENAME
350
E
  0
DICTIONARY
  5
D
102
{ACAD_REACTORS
330
C
102
}
100
AcDbDictionary
280
0
281
1
  0
ACDBDICTIONARYWDFLT
  5
E
102
{ACAD_REACTORS
330
C
102
}
100
AcDbDictionary
281
1
  3
Normal
350
F
100
AcDbDictionaryWithDefault
340
F
  0
DICTIONARY
  5
17
102
{ACAD_REACTORS
330
C
102
}
100
AcDbDictionary
280
0
281
1
  3
Standard
350
18
  0
DICTIONARY
  5
19
102
{ACAD_REACTORS
330
C
102
}
100
AcDbDictionary
281
1
  0
DICTIONARY
  5
1A
102
{ACAD_REACTORS
330
C
102
}
100
AcDbDictionary
281
1
  3
Model
350
32F
  3
Layout1
350
330
  0
ACDBPLACEHOLDER
  5
F
102
{ACAD_REACTORS
330
E
102
}
  0
MLINESTYLE
  5
18
102
{ACAD_REACTORS
330
17
102
}
100
AcDbMlineStyle
  2
STANDARD
 70
0
  3

 62
256
 51
90.0
 52
90.0
 71
2
 49
0.5
 62
256
  6
BYLAYER
 49
-0.5
 62
256
  6
BYLAYER
  0
LAYOUT
  5
32F
102
{ACAD_REACTORS
330
1A
102
}
100
AcDbPlotSettings
  1

  2
none_device
  4
ANSI_A_(11.00_x_8.50_Inches)
  6

 40
0.0
 41
0.0
 42
0.0
 43
0.0
 44
279.4
 45
215.9
 46
0.0
 47
0.0
 48
0.0
 49
0.0
140
0.0
141
0.0
142
1.0
143
1.0
 70
1024
 72
0
 73
0
 74
0
  7

 75
0
147
1.0
148
0.0
149
0.0
100
AcDbLayout
  1
Model
 70
0
 71
0
 10
0.0
 20
0.0
 11
11.0
 21
8.5
 12
0.0
 22
0.0
 32
0.0
 14
0.0
 24
0.0
 34
0.0
 15
0.0
 25
0.0
 35
0.0
146
0.0
 13
0.0
 23
0.0
 33
0.0
 16
1.0
 26
0.0
 36
0.0
 17
0.0
 27
1.0
 37
0.0
 76
0
330
21B
345
0
346
0
  0
LAYOUT
  5
330
102
{ACAD_REACTORS
330
1A
102
}
100
AcDbPlotSettings
  1

  2
none_device
  4
ANSI_A_(11.00_x_8.50_Inches)
  6

 40
0.0
 41
0.0
 42
0.0
 43
0.0
 44
279.4
 45
215.9
 46
0.0
 47
0.0
 48
0.0
 49
0.0
140
0.0
141
0.0
142
1.0
143
1.0
 70
0
 72
0
 73
0
 74
0
  7

 75
0
147
1.0
148
0.0
149
0.0
100
AcDbLayout
  1
Layout1
 70
0
 71
1
 10
0.0
 20
0.0
 11
11.0
 21
8.5
 12
0.0
 22
0.0
 32
0.0
 14
0.0
 24
0.0
 34
0.0
 15
0.0
 25
0.0
 35
0.0
146
0.0
 13
0.0
 23
0.0
 33
0.0
 16
1.0
 26
0.0
 36
0.0
 17
0.0
 27
1.0
 37
0.0
 76
0
330
21C
345
0
346
0
  0
ENDSEC
  0
EOF
