999
DXF file: 3-1604tr_FRONT.dxf
999
Pro/ENGINEER 2018400 by Parametric Technology Corporation
  0
SECTION
  2
HEADER
  9
$ACADVER
  1
AC1027
  9
$DWGCODEPAGE
  3
ANSI_1252
  9
$EXTMAX
 10
11.0
 20
8.5
 30
0.0
  9
$EXTMIN
 10
0.0
 20
0.0
 30
0.0
  9
$LIMMIN
 10
0.0
 20
0.0
  9
$LIMMAX
 10
11.0
 20
8.5
  9
$VIEWCTR
 10
5.5
 20
4.25
  9
$VIEWSIZE
 40
8.5
  9
$CLAYER
  8
0
  9
$LTSCALE
 40
0.605
  9
$CELTYPE
  6
BYLAYER
  9
$DIMSCALE
 40
1.0
  9
$DIMASZ
 40
0.1
  9
$DIMEXO
 40
0.0625
  9
$DIMDLI
 40
0.418
  9
$DIMEXE
 40
0.125
  9
$DIMCEN
 40
0.099
  9
$DIMLFAC
 40
1.0
  9
$DIMBLK
  1
_FILLED
  9
$DIMALT
 70
1
  9
$DIMALTD
 70
2
  9
$DIMALTTD
 70
2
  9
$DIMALTF
 40
25.4
  9
$DIMTXT
 40
0.08
  9
$DIMTOL
 70
1
  9
$DIMLIM
 70
0
  9
$DIMTFAC
 40
1.0
  9
$DIMTP
 40
0.001
  9
$DIMTM
 40
0.001
  9
$DIMGAP
 40
0.09
  9
$DIMDSEP
 70
46
  9
$AUNITS
 70
0
  9
$PDMODE
 70
3
  9
$PDSIZE
 40
0.3125
  9
$HANDSEED
  5
29D
  9
$TILEMODE
 70
1
  9
$MEASUREMENT
 70
0
  9
$INSUNITS
 70
1
  0
ENDSEC
  0
SECTION
  2
CLASSES
  0
CLASS
  1
ACDBDICTIONARYWDFLT
  2
AcDbDictionaryWithDefault
  3
AutoCAD 2000
 90
0
 91
1
280
0
281
0
  0
CLASS
  1
ACDBPLACEHOLDER
  2
AcDbPlaceHolder
  3
AutoCAD 2000
 90
0
 91
1
280
0
281
0
  0
CLASS
  1
LAYOUT
  2
AcDbLayout
  3
AutoCAD 2000
 90
0
 91
0
280
0
281
0
  0
ENDSEC
  0
SECTION
  2
TABLES
  0
TABLE
  2
VPORT
  5
8
100
AcDbSymbolTable
 70
2
  0
VPORT
  5
1F4
100
AcDbSymbolTableRecord
100
AcDbViewportTableRecord
  2
*ACTIVE
 70
0
 10
0.0
 20
0.0
 11
1.0
 21
1.0
 12
5.5
 22
4.25
 13
0.0
 23
0.0
 14
1.0
 24
1.0
 15
0.0
 25
0.0
 16
0.0
 26
0.0
 36
1.0
 17
0.0
 27
0.0
 37
0.0
 40
8.5
 41
1.2941176471
 42
50.0
 43
0.0
 44
0.0
 50
0.0
 51
0.0
 71
0
 72
100
 73
1
 74
1
 75
0
 76
0
 77
0
 78
0
  0
ENDTAB
  0
TABLE
  2
LTYPE
  5
5
100
AcDbSymbolTable
 70
6
  0
LTYPE
  5
14
100
AcDbSymbolTableRecord
100
AcDbLinetypeTableRecord
  2
BYBLOCK
 70
0
  3

 72
65
 73
0
 40
0.0
  0
LTYPE
  5
15
100
AcDbSymbolTableRecord
100
AcDbLinetypeTableRecord
  2
BYLAYER
 70
0
  3

 72
65
 73
0
 40
0.0
  0
LTYPE
  5
16
100
AcDbSymbolTableRecord
100
AcDbLinetypeTableRecord
  2
CONTINUOUS
 70
64
  3
Solid line
 72
65
 73
0
 40
0.0
  0
LTYPE
  5
1F5
100
AcDbSymbolTableRecord
100
AcDbLinetypeTableRecord
  2
CENTER
 70
64
  3
____ _ ____ _ ____ _ ____ _ ____ _ ____ _ ____
 72
65
 73
4
 40
0.6
 49
0.375
 74
0
 49
-0.075
 74
0
 49
0.075
 74
0
 49
-0.075
 74
0
  0
LTYPE
  5
1F6
100
AcDbSymbolTableRecord
100
AcDbLinetypeTableRecord
  2
HIDDEN
 70
64
  3
- - - - - - - - - - - - - - - - - - - -
 72
65
 73
2
 40
0.2
 49
0.1
 74
0
 49
-0.1
 74
0
  0
LTYPE
  5
1F7
100
AcDbSymbolTableRecord
100
AcDbLinetypeTableRecord
  2
PHANTOM
 70
64
  3
_____ _ _ _____ _ _ _____ _ _ _____
 72
65
 73
6
 40
0.8
 49
0.45
 74
0
 49
-0.05
 74
0
 49
0.1
 74
0
 49
-0.05
 74
0
 49
0.1
 74
0
 49
-0.05
 74
0
  0
LTYPE
  5
1F8
100
AcDbSymbolTableRecord
100
AcDbLinetypeTableRecord
  2
DOT
 70
64
  3
. . . . . . . . . . . . . . . . . . . .
 72
65
 73
2
 40
0.2
 49
0.1
 74
0
 49
-0.1
 74
0
  0
LTYPE
  5
1F9
100
AcDbSymbolTableRecord
100
AcDbLinetypeTableRecord
  2
DASHED
 70
64
  3
- - - - - - - - - - - - - - - - - - - -
 72
65
 73
2
 40
0.2
 49
0.1
 74
0
 49
-0.1
 74
0
  0
ENDTAB
  0
TABLE
  2
LAYER
  5
2
100
AcDbSymbolTable
 70
36
  0
LAYER
  5
10
100
AcDbSymbolTableRecord
100
AcDbLayerTableRecord
  2
0
 70
0
 62
7
  6
CONTINUOUS
370
-3
390
F
  0
LAYER
  5
1FA
100
AcDbSymbolTableRecord
100
AcDbLayerTableRecord
  2
DEFAULT_1
 70
0
 62
7
  6
CENTER
370
-3
390
F
  0
LAYER
  5
1FB
100
AcDbSymbolTableRecord
100
AcDbLayerTableRecord
  2
DEFAULT_2
 70
0
 62
8
  6
HIDDEN
370
-3
390
F
  0
LAYER
  5
1FC
100
AcDbSymbolTableRecord
100
AcDbLayerTableRecord
  2
DEFAULT_3
 70
0
 62
7
  6
PHANTOM
370
-3
390
F
  0
LAYER
  5
1FD
100
AcDbSymbolTableRecord
100
AcDbLayerTableRecord
  2
ALL_ASSEMBLY_MEMBERS
 70
0
 62
7
  6
CONTINUOUS
370
-3
390
F
  0
LAYER
  5
1FE
100
AcDbSymbolTableRecord
100
AcDbLayerTableRecord
  2
ALL_FEATURES
 70
0
 62
7
  6
CONTINUOUS
370
-3
390
F
  0
LAYER
  5
1FF
100
AcDbSymbolTableRecord
100
AcDbLayerTableRecord
  2
AXES_FEATURES
 70
0
 62
7
  6
CONTINUOUS
370
-3
390
F
  0
LAYER
  5
200
100
AcDbSymbolTableRecord
100
AcDbLayerTableRecord
  2
CHAMFER_FEATURES
 70
0
 62
7
  6
CONTINUOUS
370
-3
390
F
  0
LAYER
  5
201
100
AcDbSymbolTableRecord
100
AcDbLayerTableRecord
  2
COORDINATE_SYSTEMS
 70
0
 62
7
  6
CONTINUOUS
370
-3
390
F
  0
LAYER
  5
202
100
AcDbSymbolTableRecord
100
AcDbLayerTableRecord
  2
CUT_FEATURES
 70
0
 62
7
  6
CONTINUOUS
370
-3
390
F
  0
LAYER
  5
203
100
AcDbSymbolTableRecord
100
AcDbLayerTableRecord
  2
DATUM_CURVES
 70
0
 62
7
  6
CONTINUOUS
370
-3
390
F
  0
LAYER
  5
204
100
AcDbSymbolTableRecord
100
AcDbLayerTableRecord
  2
DATUM_PLANES
 70
0
 62
7
  6
CONTINUOUS
370
-3
390
F
  0
LAYER
  5
205
100
AcDbSymbolTableRecord
100
AcDbLayerTableRecord
  2
DEFAULT_COORDINATE_SYSTEM
 70
0
 62
7
  6
CONTINUOUS
370
-3
390
F
  0
LAYER
  5
206
100
AcDbSymbolTableRecord
100
AcDbLayerTableRecord
  2
DEFAULT_DATUM_AXES
 70
0
 62
7
  6
CONTINUOUS
370
-3
390
F
  0
LAYER
  5
207
100
AcDbSymbolTableRecord
100
AcDbLayerTableRecord
  2
DEFAULT_DATUM_CURVES
 70
0
 62
7
  6
CONTINUOUS
370
-3
390
F
  0
LAYER
  5
208
100
AcDbSymbolTableRecord
100
AcDbLayerTableRecord
  2
DEFAULT_DATUM_PLANES
 70
0
 62
7
  6
CONTINUOUS
370
-3
390
F
  0
LAYER
  5
209
100
AcDbSymbolTableRecord
100
AcDbLayerTableRecord
  2
DEFAULT_SURFACES
 70
0
 62
7
  6
CONTINUOUS
370
-3
390
F
  0
LAYER
  5
20A
100
AcDbSymbolTableRecord
100
AcDbLayerTableRecord
  2
DIMENSIONS
 70
0
 62
7
  6
CONTINUOUS
370
-3
390
F
  0
LAYER
  5
20B
100
AcDbSymbolTableRecord
100
AcDbLayerTableRecord
  2
HOLE_FEATURES
 70
0
 62
7
  6
CONTINUOUS
370
-3
390
F
  0
LAYER
  5
20C
100
AcDbSymbolTableRecord
100
AcDbLayerTableRecord
  2
NOTES
 70
0
 62
7
  6
CONTINUOUS
370
-3
390
F
  0
LAYER
  5
20D
100
AcDbSymbolTableRecord
100
AcDbLayerTableRecord
  2
PART_REFERENCE_DIMENSIONS
 70
0
 62
7
  6
CONTINUOUS
370
-3
390
F
  0
LAYER
  5
20E
100
AcDbSymbolTableRecord
100
AcDbLayerTableRecord
  2
PLATED_SURFACE_AREA
 70
0
 62
7
  6
CONTINUOUS
370
-3
390
F
  0
LAYER
  5
20F
100
AcDbSymbolTableRecord
100
AcDbLayerTableRecord
  2
PROTRUSION
 70
0
 62
7
  6
CONTINUOUS
370
-3
390
F
  0
LAYER
  5
210
100
AcDbSymbolTableRecord
100
AcDbLayerTableRecord
  2
PROTRUSION_FEATURES
 70
0
 62
7
  6
CONTINUOUS
370
-3
390
F
  0
LAYER
  5
211
100
AcDbSymbolTableRecord
100
AcDbLayerTableRecord
  2
QUILT
 70
0
 62
7
  6
CONTINUOUS
370
-3
390
F
  0
LAYER
  5
212
100
AcDbSymbolTableRecord
100
AcDbLayerTableRecord
  2
QUILTS
 70
0
 62
7
  6
CONTINUOUS
370
-3
390
F
  0
LAYER
  5
213
100
AcDbSymbolTableRecord
100
AcDbLayerTableRecord
  2
REFERENCE_DIMENSIONS
 70
0
 62
7
  6
CONTINUOUS
370
-3
390
F
  0
LAYER
  5
214
100
AcDbSymbolTableRecord
100
AcDbLayerTableRecord
  2
ROUND_FEATURES
 70
0
 62
7
  6
CONTINUOUS
370
-3
390
F
  0
LAYER
  5
215
100
AcDbSymbolTableRecord
100
AcDbLayerTableRecord
  2
SHELL_FEATURES
 70
0
 62
7
  6
CONTINUOUS
370
-3
390
F
  0
LAYER
  5
216
100
AcDbSymbolTableRecord
100
AcDbLayerTableRecord
  2
SURFACE_FEATURES
 70
0
 62
7
  6
CONTINUOUS
370
-3
390
F
  0
LAYER
  5
217
100
AcDbSymbolTableRecord
100
AcDbLayerTableRecord
  2
XSEC_DATUMS
 70
0
 62
7
  6
CONTINUOUS
370
-3
390
F
  0
ENDTAB
  0
TABLE
  2
STYLE
  5
3
100
AcDbSymbolTable
 70
1
  0
STYLE
  5
11
100
AcDbSymbolTableRecord
100
AcDbTextStyleTableRecord
  2
STANDARD
 70
0
 40
0.0
 41
0.8
 50
0.0
 71
0
 42
0.2
  3
txt
  4

  0
STYLE
  5
218
100
AcDbSymbolTableRecord
100
AcDbTextStyleTableRecord
  2
TEXTSTYLE_1
 70
0
 40
0.0
 41
0.8
 50
0.0
 71
0
 42
0.2
  3
gdt
  4

  0
ENDTAB
  0
TABLE
  2
VIEW
  5
6
100
AcDbSymbolTable
 70
0
  0
ENDTAB
  0
TABLE
  2
UCS
  5
7
100
AcDbSymbolTable
 70
0
  0
ENDTAB
  0
TABLE
  2
APPID
  5
9
100
AcDbSymbolTable
 70
1
  0
APPID
  5
219
100
AcDbSymbolTableRecord
100
AcDbRegAppTableRecord
  2
ACAD
 70
0
  0
ENDTAB
  0
TABLE
  2
BLOCK_RECORD
  5
1
100
AcDbSymbolTable
 70
0
  0
BLOCK_RECORD
  5
21A
100
AcDbSymbolTableRecord
100
AcDbBlockTableRecord
  2
*Model_Space
  0
BLOCK_RECORD
  5
21B
100
AcDbSymbolTableRecord
100
AcDbBlockTableRecord
  2
*Paper_Space
  0
BLOCK_RECORD
  5
21C
100
AcDbSymbolTableRecord
100
AcDbBlockTableRecord
  2
_FILLED
  0
ENDTAB
  0
TABLE
  2
DIMSTYLE
  5
A
100
AcDbSymbolTable
 70
1
100
AcDbDimStyleTable
 71
0
  0
DIMSTYLE
105
21D
100
AcDbSymbolTableRecord
100
AcDbDimStyleTableRecord
  2
STANDARD
 70
0
  3

  4

 40
1.0
 41
0.1
 42
0.0625
 43
0.38
 44
0.125
 45
0.0
 46
0.0
 47
0.001
 48
0.001
140
0.08
141
0.09
142
0.0
143
25.4
144
1.0
145
0.0
146
1.0
147
0.09
 71
1.0
 72
0.0
 73
1
 74
1
 75
0
 76
0
 77
0
 78
4
 79
1
170
1
171
2
172
0
173
0
174
0
175
0
176
0
177
0
178
0
270
2
179
3
271
3
272
3
273
2
274
2
275
0
280
0
281
0
282
0
283
1
284
4
285
0
286
0
287
3
288
0
340
11
278
46
341
21C
342
21C
343
21C
344
21C
  0
ENDTAB
  0
ENDSEC
  0
SECTION
  2
BLOCKS
  0
BLOCK
  5
20
100
AcDbEntity
  8
0
100
AcDbBlockBegin
  2
*Model_Space
 70
0
 10
0.0
 20
0.0
 30
0.0
  3
*Model_Space
  1

  0
ENDBLK
  5
21
100
AcDbEntity
  8
0
100
AcDbBlockEnd
  0
BLOCK
  5
1C
100
AcDbEntity
  8
0
100
AcDbBlockBegin
  2
*Paper_Space
 70
0
 10
0.0
 20
0.0
 30
0.0
  3
*Paper_Space
  1

  0
ENDBLK
  5
1D
100
AcDbEntity
  8
0
100
AcDbBlockEnd
  0
BLOCK
  5
21E
100
AcDbEntity
  8
0
100
AcDbBlockBegin
  2
_FILLED
 70
64
 10
0.0
 20
0.0
  3
_FILLED
  1

  0
SOLID
  5
21F
100
AcDbEntity
  8
0
  6
BYBLOCK
 62
0
100
AcDbTrace
 10
0.0
 20
0.0
 11
-1.0
 21
0.2
 12
-1.0
 22
-0.2
 13
-1.0
 23
-0.2
  0
ENDBLK
  5
220
100
AcDbEntity
  8
0
  6
BYBLOCK
 62
0
100
AcDbBlockEnd
  0
ENDSEC
  0
SECTION
  2
ENTITIES
  0
MTEXT
  5
221
100
AcDbEntity
  8
0
100
AcDbMText
 62
2
  6
CONTINUOUS
  7
STANDARD
 71
3
 72
1
 10
5.2405861801
 20
2.6741187888
 30
0.0
 11
1.0
 21
0.0
 31
0.0
 73
2
 44
0.9
  1
SCALE  .500
 40
0.08
 41
0.704
  0
LINE
  5
222
100
AcDbEntity
  8
0
100
AcDbLine
 62
7
  6
CONTINUOUS
 10
0.0
 20
0.0
 11
0.0
 21
8.5
  0
LINE
  5
223
100
AcDbEntity
  8
0
100
AcDbLine
 62
7
  6
CONTINUOUS
 10
0.0
 20
0.0
 11
11.0
 21
0.0
  0
LINE
  5
224
100
AcDbEntity
  8
0
100
AcDbLine
 62
7
  6
CONTINUOUS
 10
0.0
 20
8.5
 11
11.0
 21
8.5
  0
LINE
  5
225
100
AcDbEntity
  8
0
100
AcDbLine
 62
7
  6
CONTINUOUS
 10
11.0
 20
0.0
 11
11.0
 21
8.5
  0
LINE
  5
226
100
AcDbEntity
  8
ALL_ASSEMBLY_MEMBERS
100
AcDbLine
 62
7
  6
CONTINUOUS
 10
4.5331851228
 20
4.1193733615
 11
4.6489491318
 21
3.9188642162
  0
LINE
  5
227
100
AcDbEntity
  8
ALL_ASSEMBLY_MEMBERS
100
AcDbLine
 62
7
  6
CONTINUOUS
 10
4.6681882386
 20
3.9271817803
 11
4.5500078915
 21
4.1318761326
  0
LINE
  5
228
100
AcDbEntity
  8
ALL_ASSEMBLY_MEMBERS
100
AcDbLine
 62
7
  6
CONTINUOUS
 10
5.1481111435
 20
4.6038192285
 11
5.1048912559
 21
5.1224578792
  0
LINE
  5
229
100
AcDbEntity
  8
ALL_ASSEMBLY_MEMBERS
100
AcDbLine
 62
7
  6
CONTINUOUS
 10
5.0127427538
 20
4.3693542999
 11
4.5419785632
 21
4.1474644951
  0
LINE
  5
22A
100
AcDbEntity
  8
ALL_ASSEMBLY_MEMBERS
100
AcDbLine
 62
7
  6
CONTINUOUS
 10
5.3759545698
 20
4.209182838
 11
5.8034988729
 21
3.9124339921
  0
LINE
  5
22B
100
AcDbEntity
  8
ALL_ASSEMBLY_MEMBERS
100
AcDbLine
 62
7
  6
CONTINUOUS
 10
5.3330612168
 20
4.6038192285
 11
5.3762811043
 21
5.1224578792
  0
LINE
  5
22C
100
AcDbEntity
  8
ALL_ASSEMBLY_MEMBERS
100
AcDbLine
 62
7
  6
CONTINUOUS
 10
5.1052177905
 20
4.209182838
 11
4.6776734874
 21
3.9124339921
  0
LINE
  5
22D
100
AcDbEntity
  8
ALL_ASSEMBLY_MEMBERS
100
AcDbLine
 62
7
  6
CONTINUOUS
 10
5.4684296064
 20
4.3693542999
 11
5.9391937971
 21
4.1474644951
  0
LINE
  5
22E
100
AcDbEntity
  8
ALL_ASSEMBLY_MEMBERS
100
AcDbLine
 62
7
  6
CONTINUOUS
 10
5.9311644622
 20
4.1318761347
 11
5.8129841267
 21
3.9271817756
  0
LINE
  5
22F
100
AcDbEntity
  8
ALL_ASSEMBLY_MEMBERS
100
AcDbLine
 62
7
  6
CONTINUOUS
 10
5.9479872375
 20
4.1193733615
 11
5.8322232284
 21
3.9188642162
  0
LINE
  5
230
100
AcDbEntity
  8
ALL_ASSEMBLY_MEMBERS
100
AcDbLine
 62
7
  6
CONTINUOUS
 10
4.6718508874
 20
5.0691187888
 11
4.8248214728
 21
5.0691187888
  0
LINE
  5
231
100
AcDbEntity
  8
ALL_ASSEMBLY_MEMBERS
100
AcDbLine
 62
7
  6
CONTINUOUS
 10
5.6563508874
 20
5.0691187888
 11
5.8093214728
 21
5.0691187888
  0
LINE
  5
232
100
AcDbEntity
  8
ALL_ASSEMBLY_MEMBERS
100
AcDbLine
 62
7
  6
CONTINUOUS
 10
5.8093214728
 20
5.0941187888
 11
5.6563508874
 21
5.0941187888
  0
LINE
  5
233
100
AcDbEntity
  8
ALL_ASSEMBLY_MEMBERS
100
AcDbLine
 62
7
  6
CONTINUOUS
 10
4.8248214728
 20
5.0941187888
 11
4.6718508874
 21
5.0941187888
  0
LINE
  5
234
100
AcDbEntity
  8
ALL_ASSEMBLY_MEMBERS
100
AcDbLine
 62
7
  6
CONTINUOUS
 10
5.1224058395
 20
5.1232984697
 11
5.3587665222
 21
5.1232984407
  0
LINE
  5
235
100
AcDbEntity
  8
ALL_ASSEMBLY_MEMBERS
100
AcDbLine
 62
7
  6
CONTINUOUS
 10
5.3563501892
 20
5.1441187888
 11
5.1248221711
 21
5.1441187888
  0
ARC
  5
236
100
AcDbEntity
  8
ALL_ASSEMBLY_MEMBERS
100
AcDbCircle
 62
7
  6
CONTINUOUS
 10
4.8280685886
 20
4.4265418207
 40
0.2137552725
100
AcDbArc
 50
351.3261028396
 51
352.3139763544
  0
ARC
  5
237
100
AcDbEntity
  8
ALL_ASSEMBLY_MEMBERS
100
AcDbCircle
 62
7
  6
CONTINUOUS
 10
4.8398857976
 20
4.4247632578
 40
0.2018049961
100
AcDbArc
 50
351.0434651871
 51
351.3193064768
  0
ARC
  5
238
100
AcDbEntity
  8
ALL_ASSEMBLY_MEMBERS
100
AcDbCircle
 62
7
  6
CONTINUOUS
 10
4.8484292456
 20
4.4233848087
 40
0.1931517283
100
AcDbArc
 50
350.4217045622
 51
351.0526203799
  0
ARC
  5
239
100
AcDbEntity
  8
ALL_ASSEMBLY_MEMBERS
100
AcDbCircle
 62
7
  6
CONTINUOUS
 10
5.1345051469
 20
4.168537129
 40
0.0686164818
100
AcDbArc
 50
122.4325817723
 51
124.9228056524
  0
ARC
  5
23A
100
AcDbEntity
  8
ALL_ASSEMBLY_MEMBERS
100
AcDbCircle
 62
7
  6
CONTINUOUS
 10
4.992193511
 20
4.4150404471
 40
0.068613116
100
AcDbArc
 50
295.0717835283
 51
297.561850933
  0
ARC
  5
23B
100
AcDbEntity
  8
ALL_ASSEMBLY_MEMBERS
100
AcDbCircle
 62
7
  6
CONTINUOUS
 10
4.9914250846
 20
4.414582134
 40
0.05
100
AcDbArc
 50
295.2363583093
 51
355.3048938984
  0
ARC
  5
23C
100
AcDbEntity
  8
ALL_ASSEMBLY_MEMBERS
100
AcDbCircle
 62
7
  6
CONTINUOUS
 10
5.1337274092
 20
4.1681072779
 40
0.05
100
AcDbArc
 50
64.6951061016
 51
124.7636416907
  0
ARC
  5
23D
100
AcDbEntity
  8
ALL_ASSEMBLY_MEMBERS
100
AcDbCircle
 62
7
  6
CONTINUOUS
 10
4.5505056308
 20
4.1293733615
 40
0.02
100
AcDbArc
 50
115.2363583093
 51
210.0
  0
ARC
  5
23E
100
AcDbEntity
  8
ALL_ASSEMBLY_MEMBERS
100
AcDbCircle
 62
7
  6
CONTINUOUS
 10
4.6662696399
 20
3.9288642162
 40
0.02
100
AcDbArc
 50
210.0
 51
304.7636416907
  0
CIRCLE
  5
23F
100
AcDbEntity
  8
ALL_ASSEMBLY_MEMBERS
100
AcDbCircle
 62
7
  6
CONTINUOUS
 10
4.7483361801
 20
5.0816187888
 40
0.07825
  0
ARC
  5
240
100
AcDbEntity
  8
ALL_ASSEMBLY_MEMBERS
100
AcDbCircle
 62
7
  6
CONTINUOUS
 10
4.7483361801
 20
5.0816187888
 40
0.0775
100
AcDbArc
 50
189.2817990867
 51
350.7182009133
  0
ARC
  5
241
100
AcDbEntity
  8
ALL_ASSEMBLY_MEMBERS
100
AcDbCircle
 62
7
  6
CONTINUOUS
 10
4.7483361801
 20
5.0816187888
 40
0.0775
100
AcDbArc
 50
9.2817990867
 51
170.7182009133
  0
ARC
  5
242
100
AcDbEntity
  8
ALL_ASSEMBLY_MEMBERS
100
AcDbCircle
 62
7
  6
CONTINUOUS
 10
4.7483361801
 20
5.0816187888
 40
0.0709803495
100
AcDbArc
 50
349.8570267564
 51
10.1429732436
  0
ARC
  5
243
100
AcDbEntity
  8
ALL_ASSEMBLY_MEMBERS
100
AcDbCircle
 62
7
  6
CONTINUOUS
 10
4.7483361801
 20
5.0816187888
 40
0.0709803495
100
AcDbArc
 50
169.8570267564
 51
190.1429732436
  0
ARC
  5
244
100
AcDbEntity
  8
ALL_ASSEMBLY_MEMBERS
100
AcDbCircle
 62
7
  6
CONTINUOUS
 10
5.0982672831
 20
4.5987760289
 40
0.0686166586
100
AcDbArc
 50
2.4348093701
 51
4.924854234
  0
ARC
  5
245
100
AcDbEntity
  8
ALL_ASSEMBLY_MEMBERS
100
AcDbCircle
 62
7
  6
CONTINUOUS
 10
5.0982838556
 20
4.5996669545
 40
0.05
100
AcDbArc
 50
304.6951061016
 51
4.7636416907
  0
ARC
  5
246
100
AcDbEntity
  8
ALL_ASSEMBLY_MEMBERS
100
AcDbCircle
 62
7
  6
CONTINUOUS
 10
5.1248221711
 20
5.1241187888
 40
0.02
100
AcDbArc
 50
90.0
 51
184.7636416907
  0
ARC
  5
247
100
AcDbEntity
  8
ALL_ASSEMBLY_MEMBERS
100
AcDbCircle
 62
7
  6
CONTINUOUS
 10
5.3466687502
 20
4.1685405827
 40
0.0686127698
100
AcDbArc
 50
55.0765957288
 51
57.5668695062
  0
ARC
  5
248
100
AcDbEntity
  8
ALL_ASSEMBLY_MEMBERS
100
AcDbCircle
 62
7
  6
CONTINUOUS
 10
5.3474449511
 20
4.1681072779
 40
0.05
100
AcDbArc
 50
55.2363583093
 51
115.3048938984
  0
CIRCLE
  5
249
100
AcDbEntity
  8
ALL_ASSEMBLY_MEMBERS
100
AcDbCircle
 62
7
  6
CONTINUOUS
 10
5.2405861801
 20
4.3941187888
 40
1.625
  0
CIRCLE
  5
24A
100
AcDbEntity
  8
ALL_ASSEMBLY_MEMBERS
100
AcDbCircle
 62
7
  6
CONTINUOUS
 10
5.2405861801
 20
4.3941187888
 40
1.6057758339
  0
CIRCLE
  5
24B
100
AcDbEntity
  8
ALL_ASSEMBLY_MEMBERS
100
AcDbCircle
 62
7
  6
CONTINUOUS
 10
5.2405861801
 20
4.3941187888
 40
1.5711090757
  0
CIRCLE
  5
24C
100
AcDbEntity
  8
ALL_ASSEMBLY_MEMBERS
100
AcDbCircle
 62
7
  6
CONTINUOUS
 10
5.2405861801
 20
4.3941187888
 40
1.5414217454
  0
ARC
  5
24D
100
AcDbEntity
  8
ALL_ASSEMBLY_MEMBERS
100
AcDbCircle
 62
7
  6
CONTINUOUS
 10
5.2405861801
 20
4.3941187888
 40
0.56
100
AcDbArc
 50
342.4357748323
 51
77.5642251677
  0
ARC
  5
24E
100
AcDbEntity
  8
ALL_ASSEMBLY_MEMBERS
100
AcDbCircle
 62
7
  6
CONTINUOUS
 10
5.2405861801
 20
4.3941187888
 40
0.56
100
AcDbArc
 50
102.4357748323
 51
197.5642251677
  0
ARC
  5
24F
100
AcDbEntity
  8
ALL_ASSEMBLY_MEMBERS
100
AcDbCircle
 62
7
  6
CONTINUOUS
 10
5.2405861801
 20
4.3941187888
 40
0.56
100
AcDbArc
 50
222.4357748323
 51
317.5642251677
  0
ARC
  5
250
100
AcDbEntity
  8
ALL_ASSEMBLY_MEMBERS
100
AcDbCircle
 62
7
  6
CONTINUOUS
 10
5.2405861801
 20
4.3941187888
 40
0.5225
100
AcDbArc
 50
342.9892493147
 51
77.0107506853
  0
ARC
  5
251
100
AcDbEntity
  8
ALL_ASSEMBLY_MEMBERS
100
AcDbCircle
 62
7
  6
CONTINUOUS
 10
5.2405861801
 20
4.3941187888
 40
0.5225
100
AcDbArc
 50
102.9892493147
 51
197.0107506853
  0
ARC
  5
252
100
AcDbEntity
  8
ALL_ASSEMBLY_MEMBERS
100
AcDbCircle
 62
7
  6
CONTINUOUS
 10
5.2405861801
 20
4.3941187888
 40
0.5225
100
AcDbArc
 50
222.9892493147
 51
317.0107506853
  0
ARC
  5
253
100
AcDbEntity
  8
ALL_ASSEMBLY_MEMBERS
100
AcDbCircle
 62
7
  6
CONTINUOUS
 10
5.2405861801
 20
4.3941187888
 40
0.4725
100
AcDbArc
 50
343.8657189826
 51
76.1328504129
  0
ARC
  5
254
100
AcDbEntity
  8
ALL_ASSEMBLY_MEMBERS
100
AcDbCircle
 62
7
  6
CONTINUOUS
 10
5.2405861801
 20
4.3941187888
 40
0.4725
100
AcDbArc
 50
103.8671495871
 51
196.1342810174
  0
ARC
  5
255
100
AcDbEntity
  8
ALL_ASSEMBLY_MEMBERS
100
AcDbCircle
 62
7
  6
CONTINUOUS
 10
5.2405861801
 20
4.3941187888
 40
0.4725
100
AcDbArc
 50
223.8664621232
 51
316.1335378768
  0
ARC
  5
256
100
AcDbEntity
  8
ALL_ASSEMBLY_MEMBERS
100
AcDbCircle
 62
7
  6
CONTINUOUS
 10
5.2405861801
 20
4.3941187888
 40
0.4225
100
AcDbArc
 50
104.9532494055
 51
195.0467505945
  0
ARC
  5
257
100
AcDbEntity
  8
ALL_ASSEMBLY_MEMBERS
100
AcDbCircle
 62
7
  6
CONTINUOUS
 10
5.2405861801
 20
4.3941187888
 40
0.4225
100
AcDbArc
 50
344.9532494055
 51
75.0467505945
  0
ARC
  5
258
100
AcDbEntity
  8
ALL_ASSEMBLY_MEMBERS
100
AcDbCircle
 62
7
  6
CONTINUOUS
 10
5.2405861801
 20
4.3941187888
 40
0.4225
100
AcDbArc
 50
224.9532494055
 51
315.0467505945
  0
CIRCLE
  5
259
100
AcDbEntity
  8
ALL_ASSEMBLY_MEMBERS
100
AcDbCircle
 62
7
  6
CONTINUOUS
 10
5.2405861801
 20
4.3941187888
 40
0.2
  0
CIRCLE
  5
25A
100
AcDbEntity
  8
ALL_ASSEMBLY_MEMBERS
100
AcDbCircle
 62
7
  6
CONTINUOUS
 10
5.2405861801
 20
4.3941187888
 40
0.19375
  0
CIRCLE
  5
25B
100
AcDbEntity
  8
ALL_ASSEMBLY_MEMBERS
100
AcDbCircle
 62
7
  6
CONTINUOUS
 10
5.2405861801
 20
4.3941187888
 40
0.15625
  0
CIRCLE
  5
25C
100
AcDbEntity
  8
ALL_ASSEMBLY_MEMBERS
100
AcDbCircle
 62
7
  6
CONTINUOUS
 10
5.2405861801
 20
4.3941187888
 40
0.1412499892
  0
CIRCLE
  5
25D
100
AcDbEntity
  8
ALL_ASSEMBLY_MEMBERS
100
AcDbCircle
 62
7
  6
CONTINUOUS
 10
5.2405861801
 20
4.3941187888
 40
0.13125
  0
ARC
  5
25E
100
AcDbEntity
  8
ALL_ASSEMBLY_MEMBERS
100
AcDbCircle
 62
7
  6
CONTINUOUS
 10
5.4889806231
 20
4.4150437334
 40
0.0686168448
100
AcDbArc
 50
242.4380995998
 51
244.9280378671
  0
ARC
  5
25F
100
AcDbEntity
  8
ALL_ASSEMBLY_MEMBERS
100
AcDbCircle
 62
7
  6
CONTINUOUS
 10
5.4897472756
 20
4.414582134
 40
0.05
100
AcDbArc
 50
184.6951061016
 51
244.7636416907
  0
ARC
  5
260
100
AcDbEntity
  8
ALL_ASSEMBLY_MEMBERS
100
AcDbCircle
 62
7
  6
CONTINUOUS
 10
5.8149027204
 20
3.9288642162
 40
0.02
100
AcDbArc
 50
235.2363583093
 51
330.0
  0
ARC
  5
261
100
AcDbEntity
  8
ALL_ASSEMBLY_MEMBERS
100
AcDbCircle
 62
7
  6
CONTINUOUS
 10
5.9306667294
 20
4.1293733615
 40
0.02
100
AcDbArc
 50
330.0
 51
64.7636416907
  0
ARC
  5
262
100
AcDbEntity
  8
ALL_ASSEMBLY_MEMBERS
100
AcDbCircle
 62
7
  6
CONTINUOUS
 10
5.6529862353
 20
4.4265263677
 40
0.2136367828
100
AcDbArc
 50
187.6845586113
 51
188.6745514271
  0
ARC
  5
263
100
AcDbEntity
  8
ALL_ASSEMBLY_MEMBERS
100
AcDbCircle
 62
7
  6
CONTINUOUS
 10
5.6413081023
 20
4.4247687723
 40
0.2018271541
100
AcDbArc
 50
188.6813153513
 51
188.9570823842
  0
ARC
  5
264
100
AcDbEntity
  8
ALL_ASSEMBLY_MEMBERS
100
AcDbCircle
 62
7
  6
CONTINUOUS
 10
5.6297659185
 20
4.4228884664
 40
0.1901335848
100
AcDbArc
 50
188.9391601651
 51
189.9338702362
  0
CIRCLE
  5
265
100
AcDbEntity
  8
ALL_ASSEMBLY_MEMBERS
100
AcDbCircle
 62
7
  6
CONTINUOUS
 10
5.7328361801
 20
5.0816187888
 40
0.07825
  0
ARC
  5
266
100
AcDbEntity
  8
ALL_ASSEMBLY_MEMBERS
100
AcDbCircle
 62
7
  6
CONTINUOUS
 10
5.7328361801
 20
5.0816187888
 40
0.0775
100
AcDbArc
 50
189.2817990867
 51
350.7182009133
  0
ARC
  5
267
100
AcDbEntity
  8
ALL_ASSEMBLY_MEMBERS
100
AcDbCircle
 62
7
  6
CONTINUOUS
 10
5.7328361801
 20
5.0816187888
 40
0.0775
100
AcDbArc
 50
9.2817990867
 51
170.7182009133
  0
ARC
  5
268
100
AcDbEntity
  8
ALL_ASSEMBLY_MEMBERS
100
AcDbCircle
 62
7
  6
CONTINUOUS
 10
5.7328361801
 20
5.0816187888
 40
0.0709803495
100
AcDbArc
 50
349.8570267564
 51
10.1429732436
  0
ARC
  5
269
100
AcDbEntity
  8
ALL_ASSEMBLY_MEMBERS
100
AcDbCircle
 62
7
  6
CONTINUOUS
 10
5.7328361801
 20
5.0816187888
 40
0.0709803495
100
AcDbArc
 50
169.8570267564
 51
190.1429732436
  0
ARC
  5
26A
100
AcDbEntity
  8
ALL_ASSEMBLY_MEMBERS
100
AcDbCircle
 62
7
  6
CONTINUOUS
 10
5.3829012949
 20
4.5987752066
 40
0.0686129606
100
AcDbArc
 50
175.074190683
 51
177.5643547579
  0
ARC
  5
26B
100
AcDbEntity
  8
ALL_ASSEMBLY_MEMBERS
100
AcDbCircle
 62
7
  6
CONTINUOUS
 10
5.3828885047
 20
4.5996669545
 40
0.05
100
AcDbArc
 50
175.2363583093
 51
235.3048938984
  0
ARC
  5
26C
100
AcDbEntity
  8
ALL_ASSEMBLY_MEMBERS
100
AcDbCircle
 62
7
  6
CONTINUOUS
 10
5.3563501892
 20
5.1241187888
 40
0.02
100
AcDbArc
 50
355.2363583093
 51
90.0
  0
SPLINE
  5
26D
100
AcDbEntity
  8
ALL_ASSEMBLY_MEMBERS
100
AcDbSpline
 62
7
  6
CONTINUOUS
 70
0
 71
3
 72
15
 73
11
 74
0
 42
0.0000001
 43
0.0000001
 44
0.0000000001
 40
0.0
 40
0.0
 40
0.0
 40
0.0
 40
0.1248012109
 40
0.2497967204
 40
0.374867566
 40
0.4999999547
 40
0.6251323138
 40
0.7502031851
 40
0.8751988248
 40
1.0
 40
1.0
 40
1.0
 40
1.0
 10
5.3143502838
 20
4.6016910812
 30
0.0
 10
5.3084759238
 20
4.6038746291
 30
0.0
 10
5.2965182317
 20
4.6077277732
 30
0.0
 10
5.2781376175
 20
4.6118994189
 30
0.0
 10
5.259440338
 20
4.6144205908
 30
0.0
 10
5.2405861461
 20
4.6152628681
 30
0.0
 10
5.2217319529
 20
4.6144205369
 30
0.0
 10
5.2030346839
 20
4.6118992668
 30
0.0
 10
5.1846540345
 20
4.6077277825
 30
0.0
 10
5.1726963091
 20
4.6038746901
 30
0.0
 10
5.1668219876
 20
4.6016910436
 30
0.0
  0
SPLINE
  5
26E
100
AcDbEntity
  8
ALL_ASSEMBLY_MEMBERS
100
AcDbSpline
 62
7
  6
CONTINUOUS
 70
0
 71
3
 72
15
 73
11
 74
0
 42
0.0000001
 43
0.0000001
 44
0.0000000001
 40
0.0
 40
0.0
 40
0.0
 40
0.0
 40
0.1248011446
 40
0.2497963913
 40
0.3748673144
 40
0.4999998538
 40
0.6251320634
 40
0.7502028697
 40
0.8751988486
 40
1.0
 40
1.0
 40
1.0
 40
1.0
 10
5.023941229
 20
4.3542139282
 30
0.0
 10
5.0249874361
 20
4.3480348185
 30
0.0
 10
5.0276292348
 20
4.3357525778
 30
0.0
 10
5.0332066882
 20
4.317748647
 30
0.0
 10
5.0403721053
 20
4.3002958148
 30
0.0
 10
5.0490697894
 20
4.2835464797
 30
0.0
 10
5.0592264661
 20
4.2676394891
 30
0.0
 10
5.070758924
 20
4.2527080756
 30
0.0
 10
5.0835616803
 20
4.2388755541
 30
0.0
 10
5.0928773503
 20
4.230446274
 30
0.0
 10
5.0977057424
 20
4.2264509544
 30
0.0
  0
SPLINE
  5
26F
100
AcDbEntity
  8
ALL_ASSEMBLY_MEMBERS
100
AcDbSpline
 62
7
  6
CONTINUOUS
 70
0
 71
3
 72
29
 73
25
 74
0
 42
0.0000001
 43
0.0000001
 44
0.0000000001
 40
0.0
 40
0.0
 40
0.0
 40
0.0
 40
0.1012695402
 40
0.2008202995
 40
0.2976818371
 40
0.3908822518
 40
0.4796602407
 40
0.563351273
 40
0.6412972283
 40
0.7128897394
 40
0.777552348
 40
0.8347059567
 40
0.8838645307
 40
0.9246918407
 40
0.9418860053
 40
0.9568887002
 40
0.9696769337
 40
0.9802351623
 40
0.9885465691
 40
0.9945946869
 40
0.9967677866
 40
0.9983757865
 40
0.9994316113
 40
1.0
 40
1.0
 40
1.0
 40
1.0
 10
4.550008044
 20
4.1318762402
 30
0.0
 10
4.5497665494
 20
4.1324175741
 30
0.0
 10
4.549271073
 20
4.1334836738
 30
0.0
 10
4.5485058599
 20
4.135049107
 30
0.0
 10
4.5477479249
 20
4.1365654146
 30
0.0
 10
4.5470251335
 20
4.1380287764
 30
0.0
 10
4.5463414535
 20
4.1394254554
 30
0.0
 10
4.5456945285
 20
4.14074072
 30
0.0
 10
4.5450813032
 20
4.1419604222
 30
0.0
 10
4.5445062508
 20
4.1430745671
 30
0.0
 10
4.5439795945
 20
4.1440766812
 30
0.0
 10
4.5435108639
 20
4.1449608887
 30
0.0
 10
4.5431058085
 20
4.1457209312
 30
0.0
 10
4.5428039665
 20
4.1462709661
 30
0.0
 10
4.5425896097
 20
4.1466407863
 30
0.0
 10
4.5424522626
 20
4.146865483
 30
0.0
 10
4.5423290621
 20
4.1470531585
 30
0.0
 10
4.5422219643
 20
4.1472044663
 30
0.0
 10
4.5421328106
 20
4.1473198652
 30
0.0
 10
4.5420694613
 20
4.1473933167
 30
0.0
 10
4.542028905
 20
4.1474339223
 30
0.0
 10
4.5420070524
 20
4.1474524818
 30
0.0
 10
4.5419919494
 20
4.1474628309
 30
0.0
 10
4.5419815726
 20
4.1474659136
 30
0.0
 10
4.5419785632
 20
4.1474644951
 30
0.0
  0
SPLINE
  5
270
100
AcDbEntity
  8
ALL_ASSEMBLY_MEMBERS
100
AcDbSpline
 62
7
  6
CONTINUOUS
 70
0
 71
3
 72
11
 73
7
 74
0
 42
0.0000001
 43
0.0000001
 44
0.0000000001
 40
0.0
 40
0.0
 40
0.0
 40
0.0
 40
0.2499908359
 40
0.4999845323
 40
0.7499865904
 40
1.0
 40
1.0
 40
1.0
 40
1.0
 10
5.0212685526
 20
4.3528922244
 30
0.0
 10
4.9819818778
 20
4.3345098509
 30
0.0
 10
4.9033924462
 20
4.2977783188
 30
0.0
 10
4.7855222173
 20
4.2426472237
 30
0.0
 10
4.6677095929
 20
4.1873838431
 30
0.0
 10
4.5892292744
 20
4.1504070082
 30
0.0
 10
4.5500080596
 20
4.1318762079
 30
0.0
  0
SPLINE
  5
271
100
AcDbEntity
  8
ALL_ASSEMBLY_MEMBERS
100
AcDbSpline
 62
7
  6
CONTINUOUS
 70
0
 71
3
 72
18
 73
14
 74
0
 42
0.0000001
 43
0.0000001
 44
0.0000000001
 40
0.0
 40
0.0
 40
0.0
 40
0.0
 40
0.1835139463
 40
0.3600294908
 40
0.5234380935
 40
0.6689898729
 40
0.7925673607
 40
0.8450081107
 40
0.8907172098
 40
0.9293253319
 40
0.9604992531
 40
0.9840811851
 40
1.0
 40
1.0
 40
1.0
 40
1.0
 10
5.0212685526
 20
4.3528922244
 30
0.0
 10
5.0207863186
 20
4.3539085588
 30
0.0
 10
5.0198342642
 20
4.3558996401
 30
0.0
 10
5.0184323611
 20
4.3587858751
 30
0.0
 10
5.0171132843
 20
4.3614535648
 30
0.0
 10
5.0159181319
 20
4.3638204105
 30
0.0
 10
5.0150107325
 20
4.3655704456
 30
0.0
 10
5.014369881
 20
4.3667690814
 30
0.0
 10
5.0139669173
 20
4.3675042446
 30
0.0
 10
5.0136178986
 20
4.3681201827
 30
0.0
 10
5.0133257826
 20
4.3686125298
 30
0.0
 10
5.0130924992
 20
4.3689774359
 30
0.0
 10
5.012951545
 20
4.3691750414
 30
0.0
 10
5.0128879825
 20
4.3692490824
 30
0.0
  0
LINE
  5
272
100
AcDbEntity
  8
ALL_ASSEMBLY_MEMBERS
100
AcDbLine
 62
7
  6
CONTINUOUS
 10
5.0128879825
 20
4.3692490824
 11
5.012742754
 21
4.3693542995
  0
SPLINE
  5
273
100
AcDbEntity
  8
ALL_ASSEMBLY_MEMBERS
100
AcDbSpline
 62
7
  6
CONTINUOUS
 70
0
 71
3
 72
25
 73
21
 74
0
 42
0.0000001
 43
0.0000001
 44
0.0000000001
 40
0.0
 40
0.0
 40
0.0
 40
0.0
 40
0.1978196408
 40
0.386775001
 40
0.4754485343
 40
0.5592044591
 40
0.6373713813
 40
0.709278394
 40
0.7742867321
 40
0.8318841505
 40
0.8815917635
 40
0.9229346982
 40
0.9555004005
 40
0.9684324962
 40
0.9791143009
 40
0.9875421013
 40
0.9937306636
 40
0.9960062968
 40
0.9977644962
 40
1.0
 40
1.0
 40
1.0
 40
1.0
 10
5.0239412028
 20
4.3542141061
 30
0.0
 10
5.023367886
 20
4.355299955
 30
0.0
 10
5.0222393972
 20
4.3574190206
 30
0.0
 10
5.0208331839
 20
4.3600137092
 30
0.0
 10
5.0197512565
 20
4.3619787485
 30
0.0
 10
5.0189944686
 20
4.3633377517
 30
0.0
 10
5.0182815037
 20
4.3646020139
 30
0.0
 10
5.0176184477
 20
4.3657607949
 30
0.0
 10
5.0170109059
 20
4.3668042029
 30
0.0
 10
5.0164641245
 20
4.3677234854
 30
0.0
 10
5.0159829803
 20
4.368510837
 30
0.0
 10
5.015571999
 20
4.3691588423
 30
0.0
 10
5.0152722513
 20
4.369606997
 30
0.0
 10
5.0150685013
 20
4.3698900579
 30
0.0
 10
5.0149474687
 20
4.3700479072
 30
0.0
 10
5.0148460008
 20
4.3701679538
 30
0.0
 10
5.0147730236
 20
4.370243194
 30
0.0
 10
5.0147227111
 20
4.370282838
 30
0.0
 10
5.0146905086
 20
4.3703028182
 30
0.0
 10
5.0146622406
 20
4.3703098505
 30
0.0
 10
5.0146499526
 20
4.3703034041
 30
0.0
  0
SPLINE
  5
274
100
AcDbEntity
  8
ALL_ASSEMBLY_MEMBERS
100
AcDbSpline
 62
7
  6
CONTINUOUS
 70
0
 71
3
 72
15
 73
11
 74
0
 42
0.0000001
 43
0.0000001
 44
0.0000000001
 40
0.0
 40
0.0
 40
0.0
 40
0.0
 40
0.1230512198
 40
0.2463321124
 40
0.3699639489
 40
0.4941109324
 40
0.6189974738
 40
0.7448995743
 40
0.872031757
 40
1.0
 40
1.0
 40
1.0
 40
1.0
 10
5.0388882729
 20
4.3912452836
 30
0.0
 10
5.0386113047
 20
4.3896046465
 30
0.0
 10
5.038013006
 20
4.3863274718
 30
0.0
 10
5.0369596118
 20
4.3814361389
 30
0.0
 10
5.0357144753
 20
4.3765741843
 30
0.0
 10
5.0342280273
 20
4.3717567388
 30
0.0
 10
5.0324308404
 20
4.3670117552
 30
0.0
 10
5.0302250085
 20
4.3623931184
 30
0.0
 10
5.0274867364
 20
4.3580138612
 30
0.0
 10
5.025207328
 20
4.3553934461
 30
0.0
 10
5.0239412713
 20
4.3542139681
 30
0.0
  0
SPLINE
  5
275
100
AcDbEntity
  8
ALL_ASSEMBLY_MEMBERS
100
AcDbSpline
 62
7
  6
CONTINUOUS
 70
0
 71
3
 72
26
 73
22
 74
0
 42
0.0000001
 43
0.0000001
 44
0.0000000001
 40
0.0
 40
0.0
 40
0.0
 40
0.0
 40
0.0067808272
 40
0.0138300908
 40
0.0220028027
 40
0.0318329471
 40
0.0436086856
 40
0.0574821834
 40
0.0917436878
 40
0.1344788637
 40
0.1852670871
 40
0.2436724998
 40
0.3091519072
 40
0.3810613703
 40
0.4587315079
 40
0.5414175019
 40
0.6283010585
 40
0.7185715176
 40
0.8113452851
 40
0.9055324984
 40
1.0
 40
1.0
 40
1.0
 40
1.0
 10
4.6489491318
 20
3.9188642162
 30
0.0
 10
4.6489731668
 20
3.9188225862
 30
0.0
 10
4.6490378379
 20
3.9187453262
 30
0.0
 10
4.6491778602
 20
3.9186702346
 30
0.0
 10
4.6493531472
 20
3.9186333672
 30
0.0
 10
4.649564853
 20
3.9186279257
 30
0.0
 10
4.6498157214
 20
3.9186502335
 30
0.0
 10
4.6502351055
 20
3.9187185864
 30
0.0
 10
4.6508629949
 20
3.9188652641
 30
0.0
 10
4.6517329251
 20
3.9191189147
 30
0.0
 10
4.652752646
 20
3.9194666905
 30
0.0
 10
4.653908201
 20
3.9199123904
 30
0.0
 10
4.6551875152
 20
3.9204512454
 30
0.0
 10
4.6565791974
 20
3.9210740109
 30
0.0
 10
4.6580709278
 20
3.9217712249
 30
0.0
 10
4.6596475864
 20
3.9225370008
 30
0.0
 10
4.6612904371
 20
3.9233703986
 30
0.0
 10
4.6629794054
 20
3.9242701925
 30
0.0
 10
4.6646956228
 20
3.9252279834
 30
0.0
 10
4.6664324318
 20
3.9262097017
 30
0.0
 10
4.6676005761
 20
3.926860999
 30
0.0
 10
4.668188403
 20
3.9271818539
 30
0.0
  0
SPLINE
  5
276
100
AcDbEntity
  8
ALL_ASSEMBLY_MEMBERS
100
AcDbSpline
 62
7
  6
CONTINUOUS
 70
0
 71
3
 72
26
 73
22
 74
0
 42
0.0000001
 43
0.0000001
 44
0.0000000001
 40
0.0
 40
0.0
 40
0.0
 40
0.0
 40
0.0067806866
 40
0.0138298354
 40
0.0220024635
 40
0.031832549
 40
0.0436082463
 40
0.0574817152
 40
0.0917431864
 40
0.1344783531
 40
0.185266586
 40
0.2436720232
 40
0.3091514663
 40
0.3810609734
 40
0.4587311611
 40
0.5414172098
 40
0.6283008245
 40
0.7185713438
 40
0.8113451717
 40
0.9055324434
 40
1.0
 40
1.0
 40
1.0
 40
1.0
 10
4.5331851228
 20
4.1193733614
 30
0.0
 10
4.5331610882
 20
4.1194149905
 30
0.0
 10
4.5331265156
 20
4.1195096258
 30
0.0
 10
4.5331314972
 20
4.1196684319
 30
0.0
 10
4.5331872141
 20
4.1198386661
 30
0.0
 10
4.5332883558
 20
4.120024727
 30
0.0
 10
4.5334331103
 20
4.1202308295
 30
0.0
 10
4.5337019993
 20
4.1205598477
 30
0.0
 10
4.5341429721
 20
4.1210302743
 30
0.0
 10
4.5347976066
 20
4.1216568281
 30
0.0
 10
4.5356086507
 20
4.1223660425
 30
0.0
 10
4.5365724162
 20
4.1231439314
 30
0.0
 10
4.5376787356
 20
4.1239824222
 30
0.0
 10
4.5389139072
 20
4.124876272
 30
0.0
 10
4.5402635768
 20
4.1258195425
 30
0.0
 10
4.5417150863
 20
4.1268020829
 30
0.0
 10
4.5432582538
 20
4.1278081369
 30
0.0
 10
4.5448819804
 20
4.1288209329
 30
0.0
 10
4.5465695581
 20
4.1298283292
 30
0.0
 10
4.548288153
 20
4.1308415954
 30
0.0
 10
4.5494362631
 20
4.1315275928
 30
0.0
 10
4.550008044
 20
4.1318762402
 30
0.0
  0
SPLINE
  5
277
100
AcDbEntity
  8
ALL_ASSEMBLY_MEMBERS
100
AcDbSpline
 62
7
  6
CONTINUOUS
 70
0
 71
3
 72
15
 73
11
 74
0
 42
0.0000001
 43
0.0000001
 44
0.0000000001
 40
0.0
 40
0.0
 40
0.0
 40
0.0
 40
0.1248007655
 40
0.249796114
 40
0.3748669883
 40
0.4999994995
 40
0.6251323164
 40
0.750203594
 40
0.8751989284
 40
1.0
 40
1.0
 40
1.0
 40
1.0
 10
5.3834667366
 20
4.226450938
 30
0.0
 10
5.3882950744
 20
4.2304462883
 30
0.0
 10
5.3976107112
 20
4.2388755138
 30
0.0
 10
5.4104134382
 20
4.2527079899
 30
0.0
 10
5.4219458363
 20
4.2676394237
 30
0.0
 10
5.432102459
 20
4.2835464764
 30
0.0
 10
5.440800148
 20
4.3002958486
 30
0.0
 10
5.4479656491
 20
4.3177486742
 30
0.0
 10
5.4535431804
 20
4.3357525929
 30
0.0
 10
5.4561849575
 20
4.3480348365
 30
0.0
 10
5.4572311276
 20
4.3542139457
 30
0.0
  0
SPLINE
  5
278
100
AcDbEntity
  8
ALL_ASSEMBLY_MEMBERS
100
AcDbSpline
 62
7
  6
CONTINUOUS
 70
0
 71
3
 72
29
 73
25
 74
0
 42
0.0000001
 43
0.0000001
 44
0.0000000001
 40
0.0
 40
0.0
 40
0.0
 40
0.0
 40
0.1012695402
 40
0.2008202995
 40
0.2976818371
 40
0.3908822518
 40
0.4796602407
 40
0.563351273
 40
0.6412972283
 40
0.7128897394
 40
0.777552348
 40
0.8347059567
 40
0.8838645307
 40
0.9246918407
 40
0.9418860053
 40
0.9568887002
 40
0.9696769337
 40
0.9802351623
 40
0.9885465691
 40
0.9945946869
 40
0.9967677866
 40
0.9983757865
 40
0.9994316113
 40
1.0
 40
1.0
 40
1.0
 40
1.0
 10
5.8129839573
 20
3.9271818539
 30
0.0
 10
5.8126358956
 20
3.9267020465
 30
0.0
 10
5.8119603644
 20
3.9257399015
 30
0.0
 10
5.8109872661
 20
3.924294491
 30
0.0
 10
5.8100530726
 20
3.9228799462
 30
0.0
 10
5.8091471599
 20
3.9215223096
 30
0.0
 10
5.8082794404
 20
3.9202318859
 30
0.0
 10
5.8074638503
 20
3.9190140001
 30
0.0
 10
5.8067141699
 20
3.9178730802
 30
0.0
 10
5.8060368182
 20
3.9168179978
 30
0.0
 10
5.8054322901
 20
3.915860843
 30
0.0
 10
5.8049009093
 20
3.9150128067
 30
0.0
 10
5.8044452208
 20
3.9142819972
 30
0.0
 10
5.8041197977
 20
3.9137455768
 30
0.0
 10
5.8039067024
 20
3.9133750283
 30
0.0
 10
5.8037807829
 20
3.9131437339
 30
0.0
 10
5.8036798514
 20
3.9129432014
 30
0.0
 10
5.8036023639
 20
3.9127747981
 30
0.0
 10
5.8035470024
 20
3.9126398892
 30
0.0
 10
5.8035150661
 20
3.9125483013
 30
0.0
 10
5.8035001788
 20
3.9124928758
 30
0.0
 10
5.8034950321
 20
3.9124646712
 30
0.0
 10
5.803493621
 20
3.912446417
 30
0.0
 10
5.8034961398
 20
3.9124358891
 30
0.0
 10
5.8034988729
 20
3.9124339921
 30
0.0
  0
SPLINE
  5
279
100
AcDbEntity
  8
ALL_ASSEMBLY_MEMBERS
100
AcDbSpline
 62
7
  6
CONTINUOUS
 70
0
 71
3
 72
11
 73
7
 74
0
 42
0.0000001
 43
0.0000001
 44
0.0000000001
 40
0.0
 40
0.0
 40
0.0
 40
0.0
 40
0.2499908359
 40
0.4999845323
 40
0.7499865904
 40
1.0
 40
1.0
 40
1.0
 40
1.0
 10
5.385948246
 20
4.2247974341
 30
0.0
 10
5.4215111858
 20
4.1999653624
 30
0.0
 10
5.4926163416
 20
4.1502706843
 30
0.0
 10
5.5992963849
 20
4.0757576192
 30
0.0
 10
5.7060621886
 20
4.0013605839
 30
0.0
 10
5.7773252262
 20
3.9518830518
 30
0.0
 10
5.8129839774
 20
3.9271818836
 30
0.0
  0
SPLINE
  5
27A
100
AcDbEntity
  8
ALL_ASSEMBLY_MEMBERS
100
AcDbSpline
 62
7
  6
CONTINUOUS
 70
0
 71
3
 72
29
 73
25
 74
0
 42
0.0000001
 43
0.0000001
 44
0.0000000001
 40
0.0
 40
0.0
 40
0.0
 40
0.0
 40
0.0005683884
 40
0.001624213
 40
0.0032322128
 40
0.0054053123
 40
0.0114534299
 40
0.0197648366
 40
0.0303230652
 40
0.0431112986
 40
0.0581139935
 40
0.0753081581
 40
0.116135468
 40
0.1652940421
 40
0.2224476508
 40
0.2871102596
 40
0.3587027707
 40
0.4366487262
 40
0.5203397586
 40
0.6091177476
 40
0.7023181625
 40
0.7991797002
 40
0.8987304596
 40
1.0
 40
1.0
 40
1.0
 40
1.0
 10
4.6776734874
 20
3.9124339921
 30
0.0
 10
4.6776762205
 20
3.9124358891
 30
0.0
 10
4.6776787392
 20
3.912446417
 30
0.0
 10
4.6776773281
 20
3.9124646712
 30
0.0
 10
4.6776721814
 20
3.9124928758
 30
0.0
 10
4.6776572941
 20
3.9125483013
 30
0.0
 10
4.6776253578
 20
3.9126398892
 30
0.0
 10
4.6775699963
 20
3.9127747981
 30
0.0
 10
4.6774925088
 20
3.9129432014
 30
0.0
 10
4.6773915773
 20
3.9131437338
 30
0.0
 10
4.6772656578
 20
3.9133750283
 30
0.0
 10
4.6770525625
 20
3.9137455768
 30
0.0
 10
4.6767271393
 20
3.9142819971
 30
0.0
 10
4.6762714508
 20
3.9150128067
 30
0.0
 10
4.6757400701
 20
3.915860843
 30
0.0
 10
4.6751355419
 20
3.9168179977
 30
0.0
 10
4.6744581903
 20
3.9178730802
 30
0.0
 10
4.6737085098
 20
3.919014
 30
0.0
 10
4.6728929198
 20
3.9202318858
 30
0.0
 10
4.6720252003
 20
3.9215223095
 30
0.0
 10
4.6711192876
 20
3.9228799462
 30
0.0
 10
4.6701850942
 20
3.924294491
 30
0.0
 10
4.6692119958
 20
3.9257399015
 30
0.0
 10
4.6685364646
 20
3.9267020465
 30
0.0
 10
4.668188403
 20
3.9271818539
 30
0.0
  0
SPLINE
  5
27B
100
AcDbEntity
  8
ALL_ASSEMBLY_MEMBERS
100
AcDbSpline
 62
7
  6
CONTINUOUS
 70
0
 71
3
 72
18
 73
14
 74
0
 42
0.0000001
 43
0.0000001
 44
0.0000000001
 40
0.0
 40
0.0
 40
0.0
 40
0.0
 40
0.1835139463
 40
0.3600294908
 40
0.5234380935
 40
0.6689898729
 40
0.7925673607
 40
0.8450081107
 40
0.8907172098
 40
0.9293253319
 40
0.9604992531
 40
0.9840811851
 40
1.0
 40
1.0
 40
1.0
 40
1.0
 10
5.385948246
 20
4.2247974341
 30
0.0
 10
5.3853091916
 20
4.22387164
 30
0.0
 10
5.3840608918
 20
4.2220515961
 30
0.0
 10
5.3822622905
 20
4.2193943949
 30
0.0
 10
5.3806115418
 20
4.216918196
 30
0.0
 10
5.3791593696
 20
4.2146997408
 30
0.0
 10
5.3780974944
 20
4.2130388923
 30
0.0
 10
5.3773798711
 20
4.2118845807
 30
0.0
 10
5.376944683
 20
4.2111680223
 30
0.0
 10
5.3765857743
 20
4.2105577943
 30
0.0
 10
5.3763054472
 20
4.2100586408
 30
0.0
 10
5.3761060709
 20
4.2096741584
 30
0.0
 10
5.3760054167
 20
4.2094532858
 30
0.0
 10
5.3759730765
 20
4.2093612185
 30
0.0
  0
LINE
  5
27C
100
AcDbEntity
  8
ALL_ASSEMBLY_MEMBERS
100
AcDbLine
 62
7
  6
CONTINUOUS
 10
5.3759730765
 20
4.2093612185
 11
5.37595457
 21
4.2091828384
  0
LINE
  5
27D
100
AcDbEntity
  8
ALL_ASSEMBLY_MEMBERS
100
AcDbLine
 62
7
  6
CONTINUOUS
 10
5.1052177902
 20
4.2091828385
 11
5.1050046333
 21
4.2097910183
  0
SPLINE
  5
27E
100
AcDbEntity
  8
ALL_ASSEMBLY_MEMBERS
100
AcDbSpline
 62
7
  6
CONTINUOUS
 70
0
 71
3
 72
15
 73
11
 74
0
 42
0.0000001
 43
0.0000001
 44
0.0000000001
 40
0.0
 40
0.0
 40
0.0
 40
0.0
 40
0.0249062588
 40
0.0562211111
 40
0.1373027882
 40
0.241113512
 40
0.3652778936
 40
0.5068420092
 40
0.6625755751
 40
1.0
 40
1.0
 40
1.0
 40
1.0
 10
5.1050046333
 20
4.2097910183
 30
0.0
 10
5.1049371543
 20
4.209923589
 30
0.0
 10
5.1047779446
 20
4.2102193221
 30
0.0
 10
5.1043715475
 20
4.210931641
 30
0.0
 10
5.1037025871
 20
4.2120363926
 30
0.0
 10
5.1027199867
 20
4.2135990443
 30
0.0
 10
5.1015223776
 20
4.2154530599
 30
0.0
 10
5.1001379177
 20
4.2175554164
 30
0.0
 10
5.0980297913
 20
4.2207062025
 30
0.0
 10
5.0963689751
 20
4.2231388814
 30
0.0
 10
5.0952241142
 20
4.2247974341
 30
0.0
  0
SPLINE
  5
27F
100
AcDbEntity
  8
ALL_ASSEMBLY_MEMBERS
100
AcDbSpline
 62
7
  6
CONTINUOUS
 70
0
 71
3
 72
11
 73
7
 74
0
 42
0.0000001
 43
0.0000001
 44
0.0000000001
 40
0.0
 40
0.0
 40
0.0
 40
0.0
 40
0.2499908359
 40
0.499984532
 40
0.7499865903
 40
1.0
 40
1.0
 40
1.0
 40
1.0
 10
5.0952241142
 20
4.2247974341
 30
0.0
 10
5.0596611745
 20
4.1999653622
 30
0.0
 10
4.9885560186
 20
4.1502706843
 30
0.0
 10
4.8818759753
 20
4.0757576193
 30
0.0
 10
4.7751101718
 20
4.0013605838
 30
0.0
 10
4.7038471344
 20
3.9518830512
 30
0.0
 10
4.6681883832
 20
3.927181883
 30
0.0
  0
LINE
  5
280
100
AcDbEntity
  8
ALL_ASSEMBLY_MEMBERS
100
AcDbLine
 62
7
  6
CONTINUOUS
 10
5.1069934906
 20
4.2103600655
 11
5.1068186028
 21
4.210986325
  0
SPLINE
  5
281
100
AcDbEntity
  8
ALL_ASSEMBLY_MEMBERS
100
AcDbSpline
 62
7
  6
CONTINUOUS
 70
0
 71
3
 72
15
 73
11
 74
0
 42
0.0000001
 43
0.0000001
 44
0.0000000001
 40
0.0
 40
0.0
 40
0.0
 40
0.0
 40
0.0249452897
 40
0.0562931623
 40
0.1374290096
 40
0.2412803258
 40
0.3654691824
 40
0.5070361909
 40
0.6627442578
 40
1.0
 40
1.0
 40
1.0
 40
1.0
 10
5.1068186028
 20
4.210986325
 30
0.0
 10
5.1067581876
 20
4.2111228676
 30
0.0
 10
5.1066141654
 20
4.2114275827
 30
0.0
 10
5.106242903
 20
4.2121616701
 30
0.0
 10
5.1056260092
 20
4.2133004001
 30
0.0
 10
5.1047148432
 20
4.2149111646
 30
0.0
 10
5.1036001334
 20
4.2168221818
 30
0.0
 10
5.1023082037
 20
4.2189889878
 30
0.0
 10
5.1003372261
 20
4.2222355896
 30
0.0
 10
5.0987803401
 20
4.2247422053
 30
0.0
 10
5.0977056582
 20
4.2264510237
 30
0.0
  0
SPLINE
  5
282
100
AcDbEntity
  8
ALL_ASSEMBLY_MEMBERS
100
AcDbSpline
 62
7
  6
CONTINUOUS
 70
0
 71
3
 72
17
 73
13
 74
0
 42
0.0000001
 43
0.0000001
 44
0.0000000001
 40
0.0
 40
0.0
 40
0.0
 40
0.0
 40
0.1234552315
 40
0.2469371339
 40
0.3705531548
 40
0.4944562376
 40
0.6188980635
 40
0.7442889212
 40
0.8075593446
 40
0.8712944482
 40
0.935529665
 40
1.0
 40
1.0
 40
1.0
 40
1.0
 10
5.1551000705
 20
4.213309538
 30
0.0
 10
5.1528692524
 20
4.2143641742
 30
0.0
 10
5.1483759667
 20
4.2164084868
 30
0.0
 10
5.1415431133
 20
4.2192694131
 30
0.0
 10
5.1346066189
 20
4.2218957991
 30
0.0
 10
5.127544225
 20
4.2242285623
 30
0.0
 10
5.1203234404
 20
4.2261604709
 30
0.0
 10
5.1141536893
 20
4.2272806156
 30
0.0
 10
5.1091239737
 20
4.2277169984
 30
0.0
 10
5.1052963697
 20
4.22774409
 30
0.0
 10
5.1014595938
 20
4.2273875612
 30
0.0
 10
5.0989372039
 20
4.2268302798
 30
0.0
 10
5.0977057088
 20
4.2264509416
 30
0.0
  0
SPLINE
  5
283
100
AcDbEntity
  8
ALL_ASSEMBLY_MEMBERS
100
AcDbSpline
 62
7
  6
CONTINUOUS
 70
0
 71
3
 72
28
 73
24
 74
0
 42
0.0000001
 43
0.0000001
 44
0.0000000001
 40
0.0
 40
0.0
 40
0.0
 40
0.0
 40
0.0013764841
 40
0.002848208
 40
0.0046379365
 40
0.0068703476
 40
0.0128723619
 40
0.0210681308
 40
0.0315083726
 40
0.0442038484
 40
0.0591522169
 40
0.0763250912
 40
0.0956742956
 40
0.1171514834
 40
0.1662995838
 40
0.223392951
 40
0.2879674398
 40
0.3594693897
 40
0.4373347674
 40
0.6096363048
 40
0.7027067607
 40
0.799415277
 40
1.0
 40
1.0
 40
1.0
 40
1.0
 10
5.1048912559
 20
5.1224578792
 30
0.0
 10
5.1048919258
 20
5.1224498411
 30
0.0
 10
5.1048969482
 20
5.1224332169
 30
0.0
 10
5.1049160209
 20
5.1224129066
 30
0.0
 10
5.1049444323
 20
5.1223971593
 30
0.0
 10
5.1050003874
 20
5.1223786625
 30
0.0
 10
5.1050961833
 20
5.12236502
 30
0.0
 10
5.1052402545
 20
5.1223566494
 30
0.0
 10
5.1054238969
 20
5.1223536076
 30
0.0
 10
5.1056470441
 20
5.1223533698
 30
0.0
 10
5.1059096687
 20
5.1223533023
 30
0.0
 10
5.1062112744
 20
5.1223530993
 30
0.0
 10
5.1065511406
 20
5.1223540559
 30
0.0
 10
5.1070783601
 20
5.1223582204
 30
0.0
 10
5.1078266831
 20
5.1223717445
 30
0.0
 10
5.1088270204
 20
5.1224081996
 30
0.0
 10
5.1099575655
 20
5.1224647106
 30
0.0
 10
5.111209269
 20
5.122534779
 30
0.0
 10
5.1130911526
 20
5.1226417067
 30
0.0
 10
5.1150992204
 20
5.1227564057
 30
0.0
 10
5.1172159874
 20
5.1229019778
 30
0.0
 10
5.1194965339
 20
5.1230797273
 30
0.0
 10
5.1212331581
 20
5.1232182329
 30
0.0
 10
5.1224058211
 20
5.1232982724
 30
0.0
  0
SPLINE
  5
284
100
AcDbEntity
  8
ALL_ASSEMBLY_MEMBERS
100
AcDbSpline
 62
7
  6
CONTINUOUS
 70
0
 71
3
 72
25
 73
21
 74
0
 42
0.0000001
 43
0.0000001
 44
0.0000000001
 40
0.0
 40
0.0
 40
0.0
 40
0.0
 40
0.1978199488
 40
0.3867752837
 40
0.4754487254
 40
0.5592045272
 40
0.6373713095
 40
0.7092781799
 40
0.7742863873
 40
0.8318836979
 40
0.8815912373
 40
0.9229341438
 40
0.9554998743
 40
0.9684320076
 40
0.9791138668
 40
0.9875417404
 40
0.9937303977
 40
0.9960060881
 40
0.9977643522
 40
1.0
 40
1.0
 40
1.0
 40
1.0
 10
5.3834668028
 20
4.226450992
 30
0.0
 10
5.3828131029
 20
4.2254115683
 30
0.0
 10
5.3815422115
 20
4.2233747524
 30
0.0
 10
5.3799982874
 20
4.2208596137
 30
0.0
 10
5.3788375052
 20
4.2189401364
 30
0.0
 10
5.3780389879
 20
4.2176052515
 30
0.0
 10
5.3773006061
 20
4.2163556884
 30
0.0
 10
5.3766286179
 20
4.2152020875
 30
0.0
 10
5.376028787
 20
4.2141542485
 30
0.0
 10
5.3755060702
 20
4.2132210908
 30
0.0
 10
5.3750647882
 20
4.2124107403
 30
0.0
 10
5.3747091004
 20
4.2117308237
 30
0.0
 10
5.3744708684
 20
4.2112471611
 30
0.0
 10
5.3743276105
 20
4.21092918
 30
0.0
 10
5.3742514281
 20
4.2107454385
 30
0.0
 10
5.3741982009
 20
4.2105975413
 30
0.0
 10
5.3741695313
 20
4.2104967205
 30
0.0
 10
5.3741603559
 20
4.210433326
 30
0.0
 10
5.3741591545
 20
4.2103954464
 30
0.0
 10
5.3741671987
 20
4.210367449
 30
0.0
 10
5.3741789256
 20
4.2103600295
 30
0.0
  0
LINE
  5
285
100
AcDbEntity
  8
ALL_ASSEMBLY_MEMBERS
100
AcDbLine
 62
7
  6
CONTINUOUS
 10
5.148111144
 20
4.6038192286
 11
5.1495118741
 21
4.603680888
  0
SPLINE
  5
286
100
AcDbEntity
  8
ALL_ASSEMBLY_MEMBERS
100
AcDbSpline
 62
7
  6
CONTINUOUS
 70
0
 71
3
 72
13
 73
9
 74
0
 42
0.0000001
 43
0.0000001
 44
0.0000000001
 40
0.0
 40
0.0
 40
0.0
 40
0.0
 40
0.0705635984
 40
0.1609516765
 40
0.26941353
 40
0.3939340785
 40
0.6813970494
 40
1.0
 40
1.0
 40
1.0
 40
1.0
 10
5.1495118741
 20
4.603680888
 30
0.0
 10
5.149915262
 20
4.6036787653
 30
0.0
 10
5.1508354244
 20
4.603691758
 30
0.0
 10
5.152374818
 20
4.6037412633
 30
0.0
 10
5.1542216351
 20
4.6038240211
 30
0.0
 10
5.1571925627
 20
4.603984815
 30
0.0
 10
5.1613603379
 20
4.6042576514
 30
0.0
 10
5.1648151582
 20
4.6045201156
 30
0.0
 10
5.1666306185
 20
4.604666708
 30
0.0
  0
SPLINE
  5
287
100
AcDbEntity
  8
ALL_ASSEMBLY_MEMBERS
100
AcDbSpline
 62
7
  6
CONTINUOUS
 70
0
 71
3
 72
11
 73
7
 74
0
 42
0.0000001
 43
0.0000001
 44
0.0000000001
 40
0.0
 40
0.0
 40
0.0
 40
0.0
 40
0.2499908359
 40
0.499984532
 40
0.7499865903
 40
1.0
 40
1.0
 40
1.0
 40
1.0
 10
5.1666306185
 20
4.604666708
 30
0.0
 10
5.1629068832
 20
4.6478811531
 30
0.0
 10
5.1554226077
 20
4.7343073634
 30
0.0
 10
5.1442324221
 20
4.8639515236
 30
0.0
 10
5.1331856012
 20
4.9936119394
 30
0.0
 10
5.1259683197
 20
5.0800663064
 30
0.0
 10
5.1224058561
 20
5.123298275
 30
0.0
  0
SPLINE
  5
288
100
AcDbEntity
  8
ALL_ASSEMBLY_MEMBERS
100
AcDbSpline
 62
7
  6
CONTINUOUS
 70
0
 71
3
 72
25
 73
21
 74
0
 42
0.0000001
 43
0.0000001
 44
0.0000000001
 40
0.0
 40
0.0
 40
0.0
 40
0.0
 40
0.0022356362
 40
0.0039939061
 40
0.006269606
 40
0.0124582882
 40
0.0208861906
 40
0.0315680806
 40
0.0445002458
 40
0.077066041
 40
0.1184090105
 40
0.1681166083
 40
0.2257139698
 40
0.2907222177
 40
0.3626291157
 40
0.4407959095
 40
0.5245517038
 40
0.613225116
 40
0.8021803137
 40
1.0
 40
1.0
 40
1.0
 40
1.0
 10
5.1482427973
 20
4.6016929383
 30
0.0
 10
5.1482433596
 20
4.6016790728
 30
0.0
 10
5.1482635846
 20
4.6016581082
 30
0.0
 10
5.1482969903
 20
4.6016402092
 30
0.0
 10
5.1483564801
 20
4.6016164586
 30
0.0
 10
5.1484581292
 20
4.6015908775
 30
0.0
 10
5.1486128269
 20
4.6015630258
 30
0.0
 10
5.1488100443
 20
4.6015371318
 30
0.0
 10
5.1491570554
 20
4.6015022076
 30
0.0
 10
5.1496950387
 20
4.601466693
 30
0.0
 10
5.1504617121
 20
4.6014347718
 30
0.0
 10
5.1513841421
 20
4.6014117606
 30
0.0
 10
5.152453644
 20
4.6013978707
 30
0.0
 10
5.1536610203
 20
4.6013934232
 30
0.0
 10
5.1549960679
 20
4.601398585
 30
0.0
 10
5.1564474182
 20
4.6014132646
 30
0.0
 10
5.1580027271
 20
4.6014373624
 30
0.0
 10
5.1602454423
 20
4.6014828963
 30
0.0
 10
5.1631955874
 20
4.6015624119
 30
0.0
 10
5.1655949744
 20
4.6016446344
 30
0.0
 10
5.1668219949
 20
4.6016910464
 30
0.0
  0
SPLINE
  5
289
100
AcDbEntity
  8
ALL_ASSEMBLY_MEMBERS
100
AcDbSpline
 62
7
  6
CONTINUOUS
 70
0
 71
3
 72
17
 73
13
 74
0
 42
0.0000001
 43
0.0000001
 44
0.0000000001
 40
0.0
 40
0.0
 40
0.0
 40
0.0
 40
0.1234546755
 40
0.2469373923
 40
0.3705525165
 40
0.4944537457
 40
0.6188959001
 40
0.744288026
 40
0.8075588912
 40
0.8712943045
 40
0.9355295644
 40
1.0
 40
1.0
 40
1.0
 40
1.0
 10
5.1267446626
 20
4.558557098
 30
0.0
 10
5.1287733681
 20
4.5599617145
 30
0.0
 10
5.1327902759
 20
4.5628309824
 30
0.0
 10
5.138684321
 20
4.5673177753
 30
0.0
 10
5.1444271674
 20
4.5720114551
 30
0.0
 10
5.1499782928
 20
4.5769614183
 30
0.0
 10
5.1552614541
 20
4.5822490102
 30
0.0
 10
5.1593162949
 20
4.5870321269
 30
0.0
 10
5.1622091051
 20
4.5911697389
 30
0.0
 10
5.1641464787
 20
4.5944708886
 30
0.0
 10
5.1657562098
 20
4.5979718106
 30
0.0
 10
5.166534749
 20
4.6004348857
 30
0.0
 10
5.1668219853
 20
4.6016910445
 30
0.0
  0
SPLINE
  5
28A
100
AcDbEntity
  8
ALL_ASSEMBLY_MEMBERS
100
AcDbSpline
 62
7
  6
CONTINUOUS
 70
0
 71
3
 72
26
 73
22
 74
0
 42
0.0000001
 43
0.0000001
 44
0.0000000001
 40
0.0
 40
0.0
 40
0.0
 40
0.0
 40
0.0067806867
 40
0.0138298355
 40
0.0220024636
 40
0.0318325492
 40
0.0436082466
 40
0.0574817155
 40
0.0917431867
 40
0.1344783534
 40
0.1852665863
 40
0.2436720234
 40
0.3091514666
 40
0.3810609736
 40
0.4587311613
 40
0.54141721
 40
0.6283008246
 40
0.7185713439
 40
0.8113451717
 40
0.9055324434
 40
1.0
 40
1.0
 40
1.0
 40
1.0
 10
5.3563501891
 20
5.1441187888
 30
0.0
 10
5.3563982582
 20
5.1441187888
 30
0.0
 10
5.3564975011
 20
5.1441014119
 30
0.0
 10
5.3566325404
 20
5.1440176947
 30
0.0
 10
5.3567521091
 20
5.1438843254
 30
0.0
 10
5.3568626718
 20
5.1437037036
 30
0.0
 10
5.3569687845
 20
5.1434752913
 30
0.0
 10
5.3571192781
 20
5.1430779175
 30
0.0
 10
5.357306193
 20
5.1424608105
 30
0.0
 10
5.3575214873
 20
5.1415806036
 30
0.0
 10
5.357730163
 20
5.1405236116
 30
0.0
 10
5.3579219518
 20
5.1393000217
 30
0.0
 10
5.3580949464
 20
5.1379226756
 30
0.0
 10
5.3582514573
 20
5.1364060608
 30
0.0
 10
5.3583935187
 20
5.1347655773
 30
0.0
 10
5.3585186688
 20
5.133017263
 30
0.0
 10
5.3586183535
 20
5.1311778137
 30
0.0
 10
5.3586835971
 20
5.1292652273
 30
0.0
 10
5.3587122391
 20
5.127300044
 30
0.0
 10
5.358730456
 20
5.125305064
 30
0.0
 10
5.3587504921
 20
5.1239677728
 30
0.0
 10
5.3587665391
 20
5.1232982724
 30
0.0
  0
SPLINE
  5
28B
100
AcDbEntity
  8
ALL_ASSEMBLY_MEMBERS
100
AcDbSpline
 62
7
  6
CONTINUOUS
 70
0
 71
3
 72
25
 73
21
 74
0
 42
0.0000001
 43
0.0000001
 44
0.0000000001
 40
0.0
 40
0.0
 40
0.0
 40
0.0
 40
0.0057860649
 40
0.0124847476
 40
0.0206864652
 40
0.0307059656
 40
0.0427045989
 40
0.0567662711
 40
0.0729334647
 40
0.0912082931
 40
0.1339635696
 40
0.1847409893
 40
0.2431665532
 40
0.3086962212
 40
0.3806605075
 40
0.4583754936
 40
0.5411039314
 40
0.6280426061
 40
0.8112162048
 40
1.0
 40
1.0
 40
1.0
 40
1.0
 10
5.1248221712
 20
5.1441187888
 30
0.0
 10
5.1247811809
 20
5.1441187888
 30
0.0
 10
5.1246921918
 20
5.1440981494
 30
0.0
 10
5.1245692893
 20
5.1440146179
 30
0.0
 10
5.1244499166
 20
5.1438831723
 30
0.0
 10
5.1243322149
 20
5.1437036491
 30
0.0
 10
5.124215658
 20
5.1434757919
 30
0.0
 10
5.1241004065
 20
5.1431994923
 30
0.0
 10
5.1239868195
 20
5.1428750366
 30
0.0
 10
5.123829653
 20
5.1423510695
 30
0.0
 10
5.1236441544
 20
5.1415804689
 30
0.0
 10
5.1234415778
 20
5.1405229439
 30
0.0
 10
5.1232520293
 20
5.1392994626
 30
0.0
 10
5.123077341
 20
5.137922412
 30
0.0
 10
5.1229193202
 20
5.1364059074
 30
0.0
 10
5.1227799845
 20
5.1347652794
 30
0.0
 10
5.122660861
 20
5.1330167283
 30
0.0
 10
5.1225279649
 20
5.130520554
 30
0.0
 10
5.1224225605
 20
5.127270922
 30
0.0
 10
5.1224005931
 20
5.1246356648
 30
0.0
 10
5.1224058211
 20
5.1232982724
 30
0.0
  0
SPLINE
  5
28C
100
AcDbEntity
  8
ALL_ASSEMBLY_MEMBERS
100
AcDbSpline
 62
7
  6
CONTINUOUS
 70
0
 71
3
 72
29
 73
25
 74
0
 42
0.0000001
 43
0.0000001
 44
0.0000000001
 40
0.0
 40
0.0
 40
0.0
 40
0.0
 40
0.1012695402
 40
0.2008202995
 40
0.2976818371
 40
0.3908822518
 40
0.4796602407
 40
0.563351273
 40
0.6412972283
 40
0.7128897394
 40
0.7775523481
 40
0.8347059567
 40
0.8838645307
 40
0.9246918407
 40
0.9418860053
 40
0.9568887002
 40
0.9696769337
 40
0.9802351623
 40
0.9885465691
 40
0.9945946869
 40
0.9967677866
 40
0.9983757865
 40
0.9994316113
 40
1.0
 40
1.0
 40
1.0
 40
1.0
 10
5.3587665391
 20
5.1232982724
 30
0.0
 10
5.3593560954
 20
5.1232367458
 30
0.0
 10
5.360527103
 20
5.1231327911
 30
0.0
 10
5.3622654144
 20
5.1230127685
 30
0.0
 10
5.3639575428
 20
5.1229110057
 30
0.0
 10
5.365586247
 20
5.1228052805
 30
0.0
 10
5.3671376465
 20
5.1226990253
 30
0.0
 10
5.3686001615
 20
5.1226016464
 30
0.0
 10
5.3699630673
 20
5.122522864
 30
0.0
 10
5.3712154714
 20
5.1224638015
 30
0.0
 10
5.3723466557
 20
5.1224188422
 30
0.0
 10
5.3733467671
 20
5.1223826711
 30
0.0
 10
5.374207511
 20
5.1223534381
 30
0.0
 10
5.3748347762
 20
5.1223398235
 30
0.0
 10
5.3752622283
 20
5.1223405518
 30
0.0
 10
5.3755254949
 20
5.1223471496
 30
0.0
 10
5.3757496269
 20
5.1223600066
 30
0.0
 10
5.3759342121
 20
5.1223771021
 30
0.0
 10
5.3760787274
 20
5.122396612
 30
0.0
 10
5.376174013
 20
5.1224147484
 30
0.0
 10
5.3762294565
 20
5.1224295683
 30
0.0
 10
5.3762564559
 20
5.1224392135
 30
0.0
 10
5.37627297
 20
5.1224471185
 30
0.0
 10
5.376280828
 20
5.1224545638
 30
0.0
 10
5.3762811043
 20
5.1224578792
 30
0.0
  0
SPLINE
  5
28D
100
AcDbEntity
  8
ALL_ASSEMBLY_MEMBERS
100
AcDbSpline
 62
7
  6
CONTINUOUS
 70
0
 71
3
 72
11
 73
7
 74
0
 42
0.0000001
 43
0.0000001
 44
0.0000000001
 40
0.0
 40
0.0
 40
0.0
 40
0.0
 40
0.2499908359
 40
0.4999845323
 40
0.7499865904
 40
1.0
 40
1.0
 40
1.0
 40
1.0
 10
5.3145417418
 20
4.604666708
 30
0.0
 10
5.3182654768
 20
4.6478811531
 30
0.0
 10
5.3257497526
 20
4.7343073634
 30
0.0
 10
5.3369399382
 20
4.8639515236
 30
0.0
 10
5.3479867589
 20
4.9936119395
 30
0.0
 10
5.3552040398
 20
5.0800663064
 30
0.0
 10
5.3587665034
 20
5.123298275
 30
0.0
  0
SPLINE
  5
28E
100
AcDbEntity
  8
ALL_ASSEMBLY_MEMBERS
100
AcDbSpline
 62
7
  6
CONTINUOUS
 70
0
 71
3
 72
17
 73
13
 74
0
 42
0.0000001
 43
0.0000001
 44
0.0000000001
 40
0.0
 40
0.0
 40
0.0
 40
0.0
 40
0.1788615402
 40
0.3513265634
 40
0.5117865687
 40
0.6558175181
 40
0.779639563
 40
0.879985867
 40
0.9205006059
 40
0.9541330911
 40
0.9806627267
 40
1.0
 40
1.0
 40
1.0
 40
1.0
 10
5.3145417418
 20
4.604666708
 30
0.0
 10
5.3156264507
 20
4.6045791213
 30
0.0
 10
5.3177575809
 20
4.6044132622
 30
0.0
 10
5.3208634299
 20
4.6041900369
 30
0.0
 10
5.3237592497
 20
4.6040015852
 30
0.0
 10
5.3263610152
 20
4.6038529688
 30
0.0
 10
5.3285988024
 20
4.6037479823
 30
0.0
 10
5.3302084434
 20
4.6036947623
 30
0.0
 10
5.3312700138
 20
4.6036793582
 30
0.0
 10
5.3318826263
 20
4.6036806803
 30
0.0
 10
5.3323661375
 20
4.6036939821
 30
0.0
 10
5.3326448357
 20
4.6037124534
 30
0.0
 10
5.3327616949
 20
4.603726096
 30
0.0
  0
LINE
  5
28F
100
AcDbEntity
  8
ALL_ASSEMBLY_MEMBERS
100
AcDbLine
 62
7
  6
CONTINUOUS
 10
5.3327616949
 20
4.603726096
 11
5.3330612163
 21
4.6038192286
  0
SPLINE
  5
290
100
AcDbEntity
  8
ALL_ASSEMBLY_MEMBERS
100
AcDbSpline
 62
7
  6
CONTINUOUS
 70
0
 71
3
 72
18
 73
14
 74
0
 42
0.0000001
 43
0.0000001
 44
0.0000000001
 40
0.0
 40
0.0
 40
0.0
 40
0.0
 40
0.123479313
 40
0.246989782
 40
0.3706292637
 40
0.4945530072
 40
0.6190083952
 40
0.6815699704
 40
0.744437662
 40
0.8076928371
 40
0.8714083241
 40
0.9355877093
 40
1.0
 40
1.0
 40
1.0
 40
1.0
 10
5.3260725467
 20
4.2133096998
 30
0.0
 10
5.3283038827
 20
4.2143645808
 30
0.0
 10
5.3327984648
 20
4.2164090518
 30
0.0
 10
5.3396329266
 20
4.2192706639
 30
0.0
 10
5.3465711651
 20
4.2218977598
 30
0.0
 10
5.353634499
 20
4.2242304551
 30
0.0
 10
5.3596440056
 20
4.2258381102
 30
0.0
 10
5.3645410626
 20
4.2268292795
 30
0.0
 10
5.3682727404
 20
4.2273892371
 30
0.0
 10
5.3720561828
 20
4.2277161483
 30
0.0
 10
5.3758819438
 20
4.2277442248
 30
0.0
 10
5.379716637
 20
4.2273886985
 30
0.0
 10
5.3822357075
 20
4.2268279055
 30
0.0
 10
5.3834667643
 20
4.2264509292
 30
0.0
  0
SPLINE
  5
291
100
AcDbEntity
  8
ALL_ASSEMBLY_MEMBERS
100
AcDbSpline
 62
7
  6
CONTINUOUS
 70
0
 71
3
 72
25
 73
21
 74
0
 42
0.0000001
 43
0.0000001
 44
0.0000000001
 40
0.0
 40
0.0
 40
0.0
 40
0.0
 40
0.1978195916
 40
0.3867747616
 40
0.475448178
 40
0.5592039851
 40
0.6373707979
 40
0.7092777187
 40
0.7742859909
 40
0.8318833763
 40
0.8815909955
 40
0.9229339822
 40
0.9554997881
 40
0.9684319557
 40
0.979113846
 40
0.9875417462
 40
0.9937304227
 40
0.9960061181
 40
0.997764382
 40
1.0
 40
1.0
 40
1.0
 40
1.0
 10
5.3143503203
 20
4.6016910672
 30
0.0
 10
5.3155773432
 20
4.601644654
 30
0.0
 10
5.3179767352
 20
4.6015624293
 30
0.0
 10
5.3209268867
 20
4.6014829112
 30
0.0
 10
5.3231696071
 20
4.6014373754
 30
0.0
 10
5.32472492
 20
4.6014132764
 30
0.0
 10
5.3261762741
 20
4.6013985956
 30
0.0
 10
5.3275113255
 20
4.6013934326
 30
0.0
 10
5.3287187051
 20
4.6013978791
 30
0.0
 10
5.3297882101
 20
4.601411768
 30
0.0
 10
5.3307106426
 20
4.6014347784
 30
0.0
 10
5.3314773182
 20
4.6014666988
 30
0.0
 10
5.3320153031
 20
4.6015022127
 30
0.0
 10
5.3323623152
 20
4.6015371364
 30
0.0
 10
5.3325595331
 20
4.6015630302
 30
0.0
 10
5.3327142312
 20
4.6015908815
 30
0.0
 10
5.3328158806
 20
4.6016164624
 30
0.0
 10
5.3328753705
 20
4.6016402127
 30
0.0
 10
5.3329087762
 20
4.6016581116
 30
0.0
 10
5.3329290013
 20
4.601679076
 30
0.0
 10
5.3329295636
 20
4.6016929415
 30
0.0
  0
SPLINE
  5
292
100
AcDbEntity
  8
ALL_ASSEMBLY_MEMBERS
100
AcDbSpline
 62
7
  6
CONTINUOUS
 70
0
 71
3
 72
18
 73
14
 74
0
 42
0.0000001
 43
0.0000001
 44
0.0000000001
 40
0.0
 40
0.0
 40
0.0
 40
0.0
 40
0.1234797009
 40
0.2469901437
 40
0.3706281034
 40
0.4945503617
 40
0.6190064903
 40
0.6815686593
 40
0.7444369054
 40
0.8076924788
 40
0.8714081869
 40
0.9355876813
 40
1.0
 40
1.0
 40
1.0
 40
1.0
 10
5.3544274949
 20
4.5585572518
 30
0.0
 10
5.3523983139
 20
4.5599622218
 30
0.0
 10
5.3483805593
 20
4.5628324527
 30
0.0
 10
5.3424851568
 20
4.567320336
 30
0.0
 10
5.336740811
 20
4.5720151245
 30
0.0
 10
5.3311893312
 20
4.5769660064
 30
0.0
 10
5.3267925101
 20
4.5813666418
 30
0.0
 10
5.323485684
 20
4.5851120683
 30
0.0
 10
5.3211349142
 20
4.5880637977
 30
0.0
 10
5.3189600281
 20
4.5911768328
 30
0.0
 10
5.317022756
 20
4.5944759093
 30
0.0
 10
5.3154131067
 20
4.597974487
 30
0.0
 10
5.3146393472
 20
4.6004364707
 30
0.0
 10
5.3143502871
 20
4.6016910683
 30
0.0
  0
SPLINE
  5
293
100
AcDbEntity
  8
ALL_ASSEMBLY_MEMBERS
100
AcDbSpline
 62
7
  6
CONTINUOUS
 70
0
 71
3
 72
26
 73
22
 74
0
 42
0.0000001
 43
0.0000001
 44
0.0000000001
 40
0.0
 40
0.0
 40
0.0
 40
0.0
 40
0.0067808271
 40
0.0138300904
 40
0.0220028023
 40
0.0318329466
 40
0.043608685
 40
0.0574821829
 40
0.0917436872
 40
0.1344788631
 40
0.1852670864
 40
0.2436724992
 40
0.3091519067
 40
0.3810613698
 40
0.4587315075
 40
0.5414175016
 40
0.6283010582
 40
0.7185715174
 40
0.8113452849
 40
0.9055324984
 40
1.0
 40
1.0
 40
1.0
 40
1.0
 10
5.9479872374
 20
4.1193733614
 30
0.0
 10
5.9480112725
 20
4.1194149914
 30
0.0
 10
5.9480458461
 20
4.1195096282
 30
0.0
 10
5.9480408663
 20
4.1196684368
 30
0.0
 10
5.9479851509
 20
4.1198386736
 30
0.0
 10
5.9478840104
 20
4.1200247369
 30
0.0
 10
5.947739257
 20
4.1202308414
 30
0.0
 10
5.9474703696
 20
4.1205598623
 30
0.0
 10
5.9470293984
 20
4.1210302915
 30
0.0
 10
5.9463747654
 20
4.1216568479
 30
0.0
 10
5.9455637223
 20
4.1223660642
 30
0.0
 10
5.9445999573
 20
4.1231439542
 30
0.0
 10
5.9434936381
 20
4.1239824453
 30
0.0
 10
5.9422584663
 20
4.1248762948
 30
0.0
 10
5.940908796
 20
4.1258195641
 30
0.0
 10
5.9394572854
 20
4.1268021026
 30
0.0
 10
5.9379141163
 20
4.1278081541
 30
0.0
 10
5.9362903878
 20
4.1288209467
 30
0.0
 10
5.9346028079
 20
4.129828339
 30
0.0
 10
5.9328842104
 20
4.1308416007
 30
0.0
 10
5.9317360983
 20
4.1315275947
 30
0.0
 10
5.9311643163
 20
4.1318762402
 30
0.0
  0
SPLINE
  5
294
100
AcDbEntity
  8
ALL_ASSEMBLY_MEMBERS
100
AcDbSpline
 62
7
  6
CONTINUOUS
 70
0
 71
3
 72
26
 73
22
 74
0
 42
0.0000001
 43
0.0000001
 44
0.0000000001
 40
0.0
 40
0.0
 40
0.0
 40
0.0
 40
0.0067806868
 40
0.0138298356
 40
0.0220024637
 40
0.0318325493
 40
0.0436082467
 40
0.0574817156
 40
0.0917431868
 40
0.1344783535
 40
0.1852665864
 40
0.2436720236
 40
0.3091514667
 40
0.3810609737
 40
0.4587311614
 40
0.5414172101
 40
0.6283008247
 40
0.7185713439
 40
0.8113451718
 40
0.9055324434
 40
1.0
 40
1.0
 40
1.0
 40
1.0
 10
5.8322232285
 20
3.9188642162
 30
0.0
 10
5.8321991939
 20
3.9188225871
 30
0.0
 10
5.8321345237
 20
3.9187453287
 30
0.0
 10
5.8319945028
 20
3.9186702399
 30
0.0
 10
5.8318192172
 20
3.918633375
 30
0.0
 10
5.8316075128
 20
3.9186279358
 30
0.0
 10
5.8313566456
 20
3.9186502457
 30
0.0
 10
5.8309372629
 20
3.9187186012
 30
0.0
 10
5.8303093752
 20
3.9188652816
 30
0.0
 10
5.8294394465
 20
3.9191189348
 30
0.0
 10
5.8284197267
 20
3.9194667123
 30
0.0
 10
5.8272641724
 20
3.9199124134
 30
0.0
 10
5.8259848584
 20
3.9204512687
 30
0.0
 10
5.824593176
 20
3.9210740337
 30
0.0
 10
5.8231014449
 20
3.9217712466
 30
0.0
 10
5.8215247852
 20
3.9225370205
 30
0.0
 10
5.8198819331
 20
3.9233704158
 30
0.0
 10
5.8181929628
 20
3.9242702063
 30
0.0
 10
5.8164767432
 20
3.9252279933
 30
0.0
 10
5.8147399315
 20
3.926209707
 30
0.0
 10
5.8135717852
 20
3.9268610008
 30
0.0
 10
5.8129839573
 20
3.9271818539
 30
0.0
  0
SPLINE
  5
295
100
AcDbEntity
  8
ALL_ASSEMBLY_MEMBERS
100
AcDbSpline
 62
7
  6
CONTINUOUS
 70
0
 71
3
 72
29
 73
25
 74
0
 42
0.0000001
 43
0.0000001
 44
0.0000000001
 40
0.0
 40
0.0
 40
0.0
 40
0.0
 40
0.0005683884
 40
0.001624213
 40
0.0032322128
 40
0.0054053123
 40
0.0114534299
 40
0.0197648366
 40
0.0303230652
 40
0.0431112986
 40
0.0581139935
 40
0.0753081581
 40
0.116135468
 40
0.1652940421
 40
0.2224476508
 40
0.2871102596
 40
0.3587027707
 40
0.4366487262
 40
0.5203397586
 40
0.6091177476
 40
0.7023181625
 40
0.7991797002
 40
0.8987304596
 40
1.0
 40
1.0
 40
1.0
 40
1.0
 10
5.9391937971
 20
4.1474644951
 30
0.0
 10
5.9391907877
 20
4.1474659136
 30
0.0
 10
5.9391804108
 20
4.1474628309
 30
0.0
 10
5.9391653079
 20
4.1474524818
 30
0.0
 10
5.9391434553
 20
4.1474339223
 30
0.0
 10
5.939102899
 20
4.1473933167
 30
0.0
 10
5.9390395497
 20
4.1473198652
 30
0.0
 10
5.9389503959
 20
4.1472044663
 30
0.0
 10
5.9388432982
 20
4.1470531584
 30
0.0
 10
5.9387200977
 20
4.146865483
 30
0.0
 10
5.9385827506
 20
4.1466407863
 30
0.0
 10
5.9383683939
 20
4.1462709661
 30
0.0
 10
5.9380665518
 20
4.1457209312
 30
0.0
 10
5.9376614964
 20
4.1449608886
 30
0.0
 10
5.9371927658
 20
4.1440766812
 30
0.0
 10
5.9366661096
 20
4.1430745671
 30
0.0
 10
5.9360910572
 20
4.1419604222
 30
0.0
 10
5.9354778318
 20
4.1407407199
 30
0.0
 10
5.9348309068
 20
4.1394254553
 30
0.0
 10
5.9341472268
 20
4.1380287764
 30
0.0
 10
5.9334244354
 20
4.1365654146
 30
0.0
 10
5.9326665004
 20
4.1350491069
 30
0.0
 10
5.9319012873
 20
4.1334836738
 30
0.0
 10
5.9314058109
 20
4.1324175741
 30
0.0
 10
5.9311643163
 20
4.1318762402
 30
0.0
  0
LINE
  5
296
100
AcDbEntity
  8
ALL_ASSEMBLY_MEMBERS
100
AcDbLine
 62
7
  6
CONTINUOUS
 10
5.4684296062
 20
4.3693542994
 11
5.4680094854
 21
4.3688656103
  0
SPLINE
  5
297
100
AcDbEntity
  8
ALL_ASSEMBLY_MEMBERS
100
AcDbSpline
 62
7
  6
CONTINUOUS
 70
0
 71
3
 72
15
 73
11
 74
0
 42
0.0000001
 43
0.0000001
 44
0.0000000001
 40
0.0
 40
0.0
 40
0.0
 40
0.0
 40
0.0249062588
 40
0.0562211111
 40
0.1373027882
 40
0.241113512
 40
0.3652778936
 40
0.5068420092
 40
0.6625755751
 40
1.0
 40
1.0
 40
1.0
 40
1.0
 10
5.4680094854
 20
4.3688656103
 30
0.0
 10
5.4679284153
 20
4.3687408863
 30
0.0
 10
5.4677519078
 20
4.3684551401
 30
0.0
 10
5.4673382201
 20
4.3677470305
 30
0.0
 10
5.4667159573
 20
4.366615318
 30
0.0
 10
5.4658539615
 20
4.3649830353
 30
0.0
 10
5.4648471414
 20
4.3630188675
 30
0.0
 10
5.4637186772
 20
4.3607687118
 30
0.0
 10
5.4620440796
 20
4.3573676277
 30
0.0
 10
5.460767726
 20
4.3547129793
 30
0.0
 10
5.4599038077
 20
4.3528922243
 30
0.0
  0
SPLINE
  5
298
100
AcDbEntity
  8
ALL_ASSEMBLY_MEMBERS
100
AcDbSpline
 62
7
  6
CONTINUOUS
 70
0
 71
3
 72
11
 73
7
 74
0
 42
0.0000001
 43
0.0000001
 44
0.0000000001
 40
0.0
 40
0.0
 40
0.0
 40
0.0
 40
0.2499908359
 40
0.499984532
 40
0.7499865903
 40
1.0
 40
1.0
 40
1.0
 40
1.0
 10
5.4599038077
 20
4.3528922243
 30
0.0
 10
5.4991904826
 20
4.3345098511
 30
0.0
 10
5.577779914
 20
4.2977783187
 30
0.0
 10
5.6956501429
 20
4.2426472236
 30
0.0
 10
5.8134627674
 20
4.1873838433
 30
0.0
 10
5.8919430862
 20
4.1504070088
 30
0.0
 10
5.931164301
 20
4.1318762086
 30
0.0
  0
SPLINE
  5
299
100
AcDbEntity
  8
ALL_ASSEMBLY_MEMBERS
100
AcDbSpline
 62
7
  6
CONTINUOUS
 70
0
 71
3
 72
25
 73
21
 74
0
 42
0.0000001
 43
0.0000001
 44
0.0000000001
 40
0.0
 40
0.0
 40
0.0
 40
0.0
 40
0.0022355246
 40
0.0039937388
 40
0.0062693871
 40
0.0124579791
 40
0.0208858071
 40
0.0315676369
 40
0.0444997552
 40
0.0770654947
 40
0.1184084556
 40
0.1681160842
 40
0.2257135083
 40
0.2907218429
 40
0.3626288435
 40
0.4407957461
 40
0.524551645
 40
0.6132251471
 40
0.8021804344
 40
1.0
 40
1.0
 40
1.0
 40
1.0
 10
5.4665224037
 20
4.3703034056
 30
0.0
 10
5.4665101154
 20
4.3703098518
 30
0.0
 10
5.4664818475
 20
4.3703028192
 30
0.0
 10
5.4664496447
 20
4.3702828387
 30
0.0
 10
5.466399332
 20
4.3702431944
 30
0.0
 10
5.4663263546
 20
4.3701679538
 30
0.0
 10
5.4662248865
 20
4.3700479068
 30
0.0
 10
5.4661038536
 20
4.3698900572
 30
0.0
 10
5.4659001034
 20
4.3696069959
 30
0.0
 10
5.4656003555
 20
4.369158841
 30
0.0
 10
5.4651893739
 20
4.3685108356
 30
0.0
 10
5.4647082296
 20
4.367723484
 30
0.0
 10
5.4641614481
 20
4.3668042019
 30
0.0
 10
5.4635539064
 20
4.3657607943
 30
0.0
 10
5.4628908506
 20
4.364602014
 30
0.0
 10
5.4621778859
 20
4.3633377526
 30
0.0
 10
5.4614210982
 20
4.3619787505
 30
0.0
 10
5.4603391712
 20
4.3600137127
 30
0.0
 10
5.4589329584
 20
4.3574190262
 30
0.0
 10
5.4578044701
 20
4.3552999623
 30
0.0
 10
5.4572311534
 20
4.3542141143
 30
0.0
  0
SPLINE
  5
29A
100
AcDbEntity
  8
ALL_ASSEMBLY_MEMBERS
100
AcDbSpline
 62
7
  6
CONTINUOUS
 70
0
 71
3
 72
16
 73
12
 74
0
 42
0.0000001
 43
0.0000001
 44
0.0000000001
 40
0.0
 40
0.0
 40
0.0
 40
0.0
 40
0.1229794505
 40
0.2462089329
 40
0.369799268
 40
0.4939303154
 40
0.5562727253
 40
0.6188543454
 40
0.7447761323
 40
0.8719529788
 40
1.0
 40
1.0
 40
1.0
 40
1.0
 10
5.442482908
 20
4.3900882527
 30
0.0
 10
5.4427617777
 20
4.3884976883
 30
0.0
 10
5.4433635919
 20
4.3853207402
 30
0.0
 10
5.4444172527
 20
4.380579634
 30
0.0
 10
5.44566077
 20
4.3758686855
 30
0.0
 10
5.4468892968
 20
4.3719845882
 30
0.0
 10
5.4480239578
 20
4.3689167252
 30
0.0
 10
5.4492762564
 20
4.3658697511
 30
0.0
 10
5.4510941109
 20
4.3621364686
 30
0.0
 10
5.4537813399
 20
4.3579005046
 30
0.0
 10
5.4559986524
 20
4.3553577058
 30
0.0
 10
5.4572310876
 20
4.3542139835
 30
0.0
  0
ENDSEC
  0
SECTION
  2
OBJECTS
  0
DICTIONARY
  5
C
100
AcDbDictionary
280
0
281
1
  3
ACAD_GROUP
350
D
  3
ACAD_MLINESTYLE
350
17
  3
ACAD_LAYOUT
350
1A
  3
ACAD_PLOTSETTINGS
350
19
  3
ACAD_PLOTSTYLENAME
350
E
  0
DICTIONARY
  5
D
102
{ACAD_REACTORS
330
C
102
}
100
AcDbDictionary
280
0
281
1
  0
ACDBDICTIONARYWDFLT
  5
E
102
{ACAD_REACTORS
330
C
102
}
100
AcDbDictionary
281
1
  3
Normal
350
F
100
AcDbDictionaryWithDefault
340
F
  0
DICTIONARY
  5
17
102
{ACAD_REACTORS
330
C
102
}
100
AcDbDictionary
280
0
281
1
  3
Standard
350
18
  0
DICTIONARY
  5
19
102
{ACAD_REACTORS
330
C
102
}
100
AcDbDictionary
281
1
  0
DICTIONARY
  5
1A
102
{ACAD_REACTORS
330
C
102
}
100
AcDbDictionary
281
1
  3
Model
350
29B
  3
Layout1
350
29C
  0
ACDBPLACEHOLDER
  5
F
102
{ACAD_REACTORS
330
E
102
}
  0
MLINESTYLE
  5
18
102
{ACAD_REACTORS
330
17
102
}
100
AcDbMlineStyle
  2
STANDARD
 70
0
  3

 62
256
 51
90.0
 52
90.0
 71
2
 49
0.5
 62
256
  6
BYLAYER
 49
-0.5
 62
256
  6
BYLAYER
  0
LAYOUT
  5
29B
102
{ACAD_REACTORS
330
1A
102
}
100
AcDbPlotSettings
  1

  2
none_device
  4
ANSI_A_(11.00_x_8.50_Inches)
  6

 40
0.0
 41
0.0
 42
0.0
 43
0.0
 44
279.4
 45
215.9
 46
0.0
 47
0.0
 48
0.0
 49
0.0
140
0.0
141
0.0
142
1.0
143
1.0
 70
1024
 72
0
 73
0
 74
0
  7

 75
0
147
1.0
148
0.0
149
0.0
100
AcDbLayout
  1
Model
 70
0
 71
0
 10
0.0
 20
0.0
 11
11.0
 21
8.5
 12
0.0
 22
0.0
 32
0.0
 14
0.0
 24
0.0
 34
0.0
 15
0.0
 25
0.0
 35
0.0
146
0.0
 13
0.0
 23
0.0
 33
0.0
 16
1.0
 26
0.0
 36
0.0
 17
0.0
 27
1.0
 37
0.0
 76
0
330
21A
345
0
346
0
  0
LAYOUT
  5
29C
102
{ACAD_REACTORS
330
1A
102
}
100
AcDbPlotSettings
  1

  2
none_device
  4
ANSI_A_(11.00_x_8.50_Inches)
  6

 40
0.0
 41
0.0
 42
0.0
 43
0.0
 44
279.4
 45
215.9
 46
0.0
 47
0.0
 48
0.0
 49
0.0
140
0.0
141
0.0
142
1.0
143
1.0
 70
0
 72
0
 73
0
 74
0
  7

 75
0
147
1.0
148
0.0
149
0.0
100
AcDbLayout
  1
Layout1
 70
0
 71
1
 10
0.0
 20
0.0
 11
11.0
 21
8.5
 12
0.0
 22
0.0
 32
0.0
 14
0.0
 24
0.0
 34
0.0
 15
0.0
 25
0.0
 35
0.0
146
0.0
 13
0.0
 23
0.0
 33
0.0
 16
1.0
 26
0.0
 36
0.0
 17
0.0
 27
1.0
 37
0.0
 76
0
330
21B
345
0
346
0
  0
ENDSEC
  0
EOF
