999
DXF file: 3-1623tr_TOP.dxf
999
Pro/ENGINEER 2013150 by Parametric Technology Corporation
  0
SECTION
  2
HEADER
  9
$ACADVER
  1
AC1021
  9
$DWGCODEPAGE
  3
ANSI_1252
  9
$EXTMAX
 10
11.0
 20
8.5
 30
0.0
  9
$EXTMIN
 10
0.0
 20
0.0
 30
0.0
  9
$LIMMIN
 10
0.0
 20
0.0
  9
$LIMMAX
 10
11.0
 20
8.5
  9
$VIEWCTR
 10
5.5
 20
4.25
  9
$VIEWSIZE
 40
8.5
  9
$CLAYER
  8
0
  9
$LTSCALE
 40
0.605
  9
$CELTYPE
  6
BYLAYER
  9
$DIMSCALE
 40
1.0
  9
$DIMASZ
 40
0.1
  9
$DIMEXO
 40
0.0625
  9
$DIMDLI
 40
0.418
  9
$DIMEXE
 40
0.125
  9
$DIMCEN
 40
0.099
  9
$DIMLFAC
 40
1.0
  9
$DIMBLK
  1
_FILLED
  9
$DIMTXT
 40
0.08
  9
$DIMTOL
 70
1
  9
$DIMLIM
 70
0
  9
$DIMTFAC
 40
1.0
  9
$DIMTP
 40
0.001
  9
$DIMTM
 40
0.001
  9
$DIMGAP
 40
0.09
  9
$DIMDSEP
 70
46
  9
$PDMODE
 70
3
  9
$PDSIZE
 40
0.06
  9
$HANDSEED
  5
2D3
  9
$TILEMODE
 70
1
  9
$MEASUREMENT
 70
0
  9
$INSUNITS
 70
1
  0
ENDSEC
  0
SECTION
  2
CLASSES
  0
CLASS
  1
ACDBDICTIONARYWDFLT
  2
AcDbDictionaryWithDefault
  3
AutoCAD 2000
 90
0
 91
1
280
0
281
0
  0
CLASS
  1
ACDBPLACEHOLDER
  2
AcDbPlaceHolder
  3
AutoCAD 2000
 90
0
 91
1
280
0
281
0
  0
CLASS
  1
LAYOUT
  2
AcDbLayout
  3
AutoCAD 2000
 90
0
 91
0
280
0
281
0
  0
ENDSEC
  0
SECTION
  2
TABLES
  0
TABLE
  2
VPORT
  5
8
100
AcDbSymbolTable
 70
2
  0
VPORT
  5
1F4
100
AcDbSymbolTableRecord
100
AcDbViewportTableRecord
  2
*ACTIVE
 70
0
 10
0.0
 20
0.0
 11
1.0
 21
1.0
 12
5.5
 22
4.25
 13
0.0
 23
0.0
 14
1.0
 24
1.0
 15
0.0
 25
0.0
 16
0.0
 26
0.0
 36
1.0
 17
0.0
 27
0.0
 37
0.0
 40
8.5
 41
1.2941176471
 42
50.0
 43
0.0
 44
0.0
 50
0.0
 51
0.0
 71
0
 72
100
 73
1
 74
1
 75
0
 76
0
 77
0
 78
0
  0
ENDTAB
  0
TABLE
  2
LTYPE
  5
5
100
AcDbSymbolTable
 70
6
  0
LTYPE
  5
14
100
AcDbSymbolTableRecord
100
AcDbLinetypeTableRecord
  2
BYBLOCK
 70
0
  3

 72
65
 73
0
 40
0.0
  0
LTYPE
  5
15
100
AcDbSymbolTableRecord
100
AcDbLinetypeTableRecord
  2
BYLAYER
 70
0
  3

 72
65
 73
0
 40
0.0
  0
LTYPE
  5
16
100
AcDbSymbolTableRecord
100
AcDbLinetypeTableRecord
  2
CONTINUOUS
 70
64
  3
Solid line
 72
65
 73
0
 40
0.0
  0
LTYPE
  5
1F5
100
AcDbSymbolTableRecord
100
AcDbLinetypeTableRecord
  2
CENTER
 70
64
  3
____ _ ____ _ ____ _ ____ _ ____ _ ____ _ ____
 72
65
 73
4
 40
0.6
 49
0.375
 74
0
 49
-0.075
 74
0
 49
0.075
 74
0
 49
-0.075
 74
0
  0
LTYPE
  5
1F6
100
AcDbSymbolTableRecord
100
AcDbLinetypeTableRecord
  2
HIDDEN
 70
64
  3
- - - - - - - - - - - - - - - - - - - -
 72
65
 73
2
 40
0.2
 49
0.1
 74
0
 49
-0.1
 74
0
  0
LTYPE
  5
1F7
100
AcDbSymbolTableRecord
100
AcDbLinetypeTableRecord
  2
PHANTOM
 70
64
  3
_____ _ _ _____ _ _ _____ _ _ _____
 72
65
 73
6
 40
0.8
 49
0.45
 74
0
 49
-0.05
 74
0
 49
0.1
 74
0
 49
-0.05
 74
0
 49
0.1
 74
0
 49
-0.05
 74
0
  0
LTYPE
  5
1F8
100
AcDbSymbolTableRecord
100
AcDbLinetypeTableRecord
  2
DOT
 70
64
  3
. . . . . . . . . . . . . . . . . . . .
 72
65
 73
2
 40
0.2
 49
0.1
 74
0
 49
-0.1
 74
0
  0
LTYPE
  5
1F9
100
AcDbSymbolTableRecord
100
AcDbLinetypeTableRecord
  2
DASHED
 70
64
  3
- - - - - - - - - - - - - - - - - - - -
 72
65
 73
2
 40
0.2
 49
0.1
 74
0
 49
-0.1
 74
0
  0
ENDTAB
  0
TABLE
  2
LAYER
  5
2
100
AcDbSymbolTable
 70
36
  0
LAYER
  5
10
100
AcDbSymbolTableRecord
100
AcDbLayerTableRecord
  2
0
 70
0
 62
7
  6
CONTINUOUS
370
-3
390
F
  0
LAYER
  5
1FA
100
AcDbSymbolTableRecord
100
AcDbLayerTableRecord
  2
DEFAULT_1
 70
0
 62
7
  6
CENTER
370
-3
390
F
  0
LAYER
  5
1FB
100
AcDbSymbolTableRecord
100
AcDbLayerTableRecord
  2
DEFAULT_2
 70
0
 62
8
  6
HIDDEN
370
-3
390
F
  0
LAYER
  5
1FC
100
AcDbSymbolTableRecord
100
AcDbLayerTableRecord
  2
DEFAULT_3
 70
0
 62
7
  6
PHANTOM
370
-3
390
F
  0
LAYER
  5
1FD
100
AcDbSymbolTableRecord
100
AcDbLayerTableRecord
  2
ALL_ASSEMBLY_MEMBERS
 70
0
 62
7
  6
CONTINUOUS
370
-3
390
F
  0
LAYER
  5
1FE
100
AcDbSymbolTableRecord
100
AcDbLayerTableRecord
  2
ALL_FEATURES
 70
0
 62
7
  6
CONTINUOUS
370
-3
390
F
  0
LAYER
  5
1FF
100
AcDbSymbolTableRecord
100
AcDbLayerTableRecord
  2
AXES_FEATURES
 70
0
 62
7
  6
CONTINUOUS
370
-3
390
F
  0
LAYER
  5
200
100
AcDbSymbolTableRecord
100
AcDbLayerTableRecord
  2
CHAMFER_FEATURES
 70
0
 62
7
  6
CONTINUOUS
370
-3
390
F
  0
LAYER
  5
201
100
AcDbSymbolTableRecord
100
AcDbLayerTableRecord
  2
CURVES
 70
0
 62
7
  6
CONTINUOUS
370
-3
390
F
  0
LAYER
  5
202
100
AcDbSymbolTableRecord
100
AcDbLayerTableRecord
  2
CUT_FEATURES
 70
0
 62
7
  6
CONTINUOUS
370
-3
390
F
  0
LAYER
  5
203
100
AcDbSymbolTableRecord
100
AcDbLayerTableRecord
  2
DATUM_CURVES
 70
0
 62
7
  6
CONTINUOUS
370
-3
390
F
  0
LAYER
  5
204
100
AcDbSymbolTableRecord
100
AcDbLayerTableRecord
  2
DATUM_PLANES
 70
0
 62
7
  6
CONTINUOUS
370
-3
390
F
  0
LAYER
  5
205
100
AcDbSymbolTableRecord
100
AcDbLayerTableRecord
  2
DATUM_POINTS
 70
0
 62
7
  6
CONTINUOUS
370
-3
390
F
  0
LAYER
  5
206
100
AcDbSymbolTableRecord
100
AcDbLayerTableRecord
  2
DEFAULT_COORDINATE_SYSTEM
 70
0
 62
7
  6
CONTINUOUS
370
-3
390
F
  0
LAYER
  5
207
100
AcDbSymbolTableRecord
100
AcDbLayerTableRecord
  2
DEFAULT_DATUM_AXES
 70
0
 62
7
  6
CONTINUOUS
370
-3
390
F
  0
LAYER
  5
208
100
AcDbSymbolTableRecord
100
AcDbLayerTableRecord
  2
DEFAULT_DATUM_CURVES
 70
0
 62
7
  6
CONTINUOUS
370
-3
390
F
  0
LAYER
  5
209
100
AcDbSymbolTableRecord
100
AcDbLayerTableRecord
  2
DEFAULT_DATUM_PLANES
 70
0
 62
7
  6
CONTINUOUS
370
-3
390
F
  0
LAYER
  5
20A
100
AcDbSymbolTableRecord
100
AcDbLayerTableRecord
  2
DEFAULT_SURFACES
 70
0
 62
7
  6
CONTINUOUS
370
-3
390
F
  0
LAYER
  5
20B
100
AcDbSymbolTableRecord
100
AcDbLayerTableRecord
  2
DIMENSIONS
 70
0
 62
7
  6
CONTINUOUS
370
-3
390
F
  0
LAYER
  5
20C
100
AcDbSymbolTableRecord
100
AcDbLayerTableRecord
  2
HOLE_FEATURES
 70
0
 62
7
  6
CONTINUOUS
370
-3
390
F
  0
LAYER
  5
20D
100
AcDbSymbolTableRecord
100
AcDbLayerTableRecord
  2
INTFCLR_1
 70
0
 62
7
  6
CONTINUOUS
370
-3
390
F
  0
LAYER
  5
20E
100
AcDbSymbolTableRecord
100
AcDbLayerTableRecord
  2
NOTES
 70
0
 62
7
  6
CONTINUOUS
370
-3
390
F
  0
LAYER
  5
20F
100
AcDbSymbolTableRecord
100
AcDbLayerTableRecord
  2
PART_REFERENCE_DIMENSIONS
 70
0
 62
7
  6
CONTINUOUS
370
-3
390
F
  0
LAYER
  5
210
100
AcDbSymbolTableRecord
100
AcDbLayerTableRecord
  2
PLATED_SURFACE_AREA
 70
0
 62
7
  6
CONTINUOUS
370
-3
390
F
  0
LAYER
  5
211
100
AcDbSymbolTableRecord
100
AcDbLayerTableRecord
  2
POINTS
 70
0
 62
7
  6
CONTINUOUS
370
-3
390
F
  0
LAYER
  5
212
100
AcDbSymbolTableRecord
100
AcDbLayerTableRecord
  2
PROTRUSION
 70
0
 62
7
  6
CONTINUOUS
370
-3
390
F
  0
LAYER
  5
213
100
AcDbSymbolTableRecord
100
AcDbLayerTableRecord
  2
PROTRUSION_FEATURES
 70
0
 62
7
  6
CONTINUOUS
370
-3
390
F
  0
LAYER
  5
214
100
AcDbSymbolTableRecord
100
AcDbLayerTableRecord
  2
QUILTS
 70
0
 62
7
  6
CONTINUOUS
370
-3
390
F
  0
LAYER
  5
215
100
AcDbSymbolTableRecord
100
AcDbLayerTableRecord
  2
REFERENCE_DIMENSIONS
 70
0
 62
7
  6
CONTINUOUS
370
-3
390
F
  0
LAYER
  5
216
100
AcDbSymbolTableRecord
100
AcDbLayerTableRecord
  2
ROUND_FEATURES
 70
0
 62
7
  6
CONTINUOUS
370
-3
390
F
  0
LAYER
  5
217
100
AcDbSymbolTableRecord
100
AcDbLayerTableRecord
  2
SIZE_REF
 70
0
 62
7
  6
CONTINUOUS
370
-3
390
F
  0
LAYER
  5
218
100
AcDbSymbolTableRecord
100
AcDbLayerTableRecord
  2
SURFACE_FEATURES
 70
0
 62
7
  6
CONTINUOUS
370
-3
390
F
  0
ENDTAB
  0
TABLE
  2
STYLE
  5
3
100
AcDbSymbolTable
 70
1
  0
STYLE
  5
11
100
AcDbSymbolTableRecord
100
AcDbTextStyleTableRecord
  2
STANDARD
 70
0
 40
0.0
 41
0.8
 50
0.0
 71
0
 42
0.2
  3
txt
  4

  0
STYLE
  5
219
100
AcDbSymbolTableRecord
100
AcDbTextStyleTableRecord
  2
TEXTSTYLE_1
 70
0
 40
0.0
 41
0.8
 50
0.0
 71
0
 42
0.2
  3
gdt
  4

  0
ENDTAB
  0
TABLE
  2
VIEW
  5
6
100
AcDbSymbolTable
 70
0
  0
ENDTAB
  0
TABLE
  2
UCS
  5
7
100
AcDbSymbolTable
 70
0
  0
ENDTAB
  0
TABLE
  2
APPID
  5
9
100
AcDbSymbolTable
 70
1
  0
APPID
  5
21A
100
AcDbSymbolTableRecord
100
AcDbRegAppTableRecord
  2
ACAD
 70
0
  0
ENDTAB
  0
TABLE
  2
BLOCK_RECORD
  5
1
100
AcDbSymbolTable
 70
0
  0
BLOCK_RECORD
  5
21B
100
AcDbSymbolTableRecord
100
AcDbBlockTableRecord
  2
*Model_Space
  0
BLOCK_RECORD
  5
21C
100
AcDbSymbolTableRecord
100
AcDbBlockTableRecord
  2
*Paper_Space
  0
ENDTAB
  0
TABLE
  2
DIMSTYLE
  5
A
100
AcDbSymbolTable
 70
1
100
AcDbDimStyleTable
 71
0
  0
DIMSTYLE
105
21D
100
AcDbSymbolTableRecord
100
AcDbDimStyleTableRecord
  2
STANDARD
 70
0
  3

  4

 40
1.0
 41
0.1
 42
0.0625
 43
0.38
 44
0.125
 45
0.0
 46
0.0
 47
0.001
 48
0.001
140
0.08
141
0.09
142
0.0
143
25.4
144
1.0
145
0.0
146
1.0
147
0.09
 71
1.0
 72
0.0
 73
1
 74
1
 75
0
 76
0
 77
0
 78
4
170
0
171
2
172
0
173
0
174
0
175
0
176
0
177
0
178
0
270
2
271
3
272
3
273
2
274
2
275
0
280
0
281
0
282
0
283
1
284
4
285
0
286
0
287
3
288
0
340
11
278
46
  0
ENDTAB
  0
ENDSEC
  0
SECTION
  2
BLOCKS
  0
BLOCK
  5
20
100
AcDbEntity
  8
0
100
AcDbBlockBegin
  2
*Model_Space
 70
0
 10
0.0
 20
0.0
 30
0.0
  3
*Model_Space
  1

  0
ENDBLK
  5
21
100
AcDbEntity
  8
0
100
AcDbBlockEnd
  0
BLOCK
  5
1C
100
AcDbEntity
  8
0
100
AcDbBlockBegin
  2
*Paper_Space
 70
0
 10
0.0
 20
0.0
 30
0.0
  3
*Paper_Space
  1

  0
ENDBLK
  5
1D
100
AcDbEntity
  8
0
100
AcDbBlockEnd
  0
ENDSEC
  0
SECTION
  2
ENTITIES
  0
LINE
  5
21E
100
AcDbEntity
  8
0
100
AcDbLine
 62
7
  6
CONTINUOUS
 10
0.0
 20
0.0
 11
0.0
 21
8.5
  0
LINE
  5
21F
100
AcDbEntity
  8
0
100
AcDbLine
 62
7
  6
CONTINUOUS
 10
0.0
 20
0.0
 11
11.0
 21
0.0
  0
LINE
  5
220
100
AcDbEntity
  8
0
100
AcDbLine
 62
7
  6
CONTINUOUS
 10
0.0
 20
8.5
 11
11.0
 21
8.5
  0
LINE
  5
221
100
AcDbEntity
  8
0
100
AcDbLine
 62
7
  6
CONTINUOUS
 10
11.0
 20
0.0
 11
11.0
 21
8.5
  0
LINE
  5
222
100
AcDbEntity
  8
0
100
AcDbLine
 62
7
  6
CONTINUOUS
 10
1.9257917184
 20
4.962364796
 11
1.9257917184
 21
4.671364796
  0
LINE
  5
223
100
AcDbEntity
  8
ALL_ASSEMBLY_MEMBERS
100
AcDbLine
 62
7
  6
CONTINUOUS
 10
4.3876755644
 20
2.423591174
 11
4.7814078723
 21
2.423591174
  0
LINE
  5
224
100
AcDbEntity
  8
ALL_ASSEMBLY_MEMBERS
100
AcDbLine
 62
9
  6
CONTINUOUS
 10
4.3876667184
 20
2.446091174
 11
4.7814167184
 21
2.446091174
  0
LINE
  5
225
100
AcDbEntity
  8
ALL_ASSEMBLY_MEMBERS
100
AcDbLine
 62
7
  6
CONTINUOUS
 10
4.3501667184
 20
2.461091174
 11
4.8189167184
 21
2.461091174
  0
LINE
  5
226
100
AcDbEntity
  8
ALL_ASSEMBLY_MEMBERS
100
AcDbLine
 62
7
  6
CONTINUOUS
 10
4.284544162
 20
2.517341174
 11
4.8845392747
 21
2.517341174
  0
LINE
  5
227
100
AcDbEntity
  8
ALL_ASSEMBLY_MEMBERS
100
AcDbLine
 62
7
  6
CONTINUOUS
 10
4.3876755644
 20
2.701091174
 11
4.7814078723
 21
2.701091174
  0
LINE
  5
228
100
AcDbEntity
  8
ALL_ASSEMBLY_MEMBERS
100
AcDbLine
 62
9
  6
CONTINUOUS
 10
4.3876667184
 20
2.723591174
 11
4.7814167184
 21
2.723591174
  0
LINE
  5
229
100
AcDbEntity
  8
ALL_ASSEMBLY_MEMBERS
100
AcDbLine
 62
7
  6
CONTINUOUS
 10
4.3501667184
 20
2.738591174
 11
4.8189167184
 21
2.738591174
  0
LINE
  5
22A
100
AcDbEntity
  8
ALL_ASSEMBLY_MEMBERS
100
AcDbLine
 62
7
  6
CONTINUOUS
 10
4.284544162
 20
2.794841174
 11
4.8845392747
 21
2.794841174
  0
LINE
  5
22B
100
AcDbEntity
  8
ALL_FEATURES
100
AcDbLine
 62
7
  6
CONTINUOUS
 10
3.9644629782
 20
3.333341174
 11
3.9644629782
 21
3.649864796
  0
LINE
  5
22C
100
AcDbEntity
  8
0
100
AcDbLine
 62
7
  6
CONTINUOUS
 10
3.9644642184
 20
4.633864796
 11
3.9644642184
 21
3.649864796
  0
LINE
  5
22D
100
AcDbEntity
  8
ALL_FEATURES
100
AcDbLine
 62
7
  6
CONTINUOUS
 10
4.2845417184
 20
3.145841174
 11
4.0932957199
 21
3.145841174
  0
LINE
  5
22E
100
AcDbEntity
  8
ALL_FEATURES
100
AcDbLine
 62
7
  6
CONTINUOUS
 10
4.8845417184
 20
3.145841174
 11
5.0757877168
 21
3.145841174
  0
LINE
  5
22F
100
AcDbEntity
  8
ALL_ASSEMBLY_MEMBERS
100
AcDbLine
 62
7
  6
CONTINUOUS
 10
4.284544162
 20
3.151091174
 11
4.8845392747
 21
3.151091174
  0
LINE
  5
230
100
AcDbEntity
  8
ALL_ASSEMBLY_MEMBERS
100
AcDbLine
 62
9
  6
CONTINUOUS
 10
4.3501667184
 20
3.166091174
 11
4.8189167184
 21
3.166091174
  0
LINE
  5
231
100
AcDbEntity
  8
ALL_ASSEMBLY_MEMBERS
100
AcDbLine
 62
7
  6
CONTINUOUS
 10
4.4573932809
 20
3.239544299
 11
4.4866901559
 21
3.239544299
  0
LINE
  5
232
100
AcDbEntity
  8
ALL_ASSEMBLY_MEMBERS
100
AcDbLine
 62
7
  6
CONTINUOUS
 10
4.6823932809
 20
3.239544299
 11
4.7116901559
 21
3.239544299
  0
LINE
  5
233
100
AcDbEntity
  8
ALL_ASSEMBLY_MEMBERS
100
AcDbLine
 62
7
  6
CONTINUOUS
 10
4.7263385934
 20
3.268841174
 11
4.6982135934
 21
3.268841174
  0
LINE
  5
234
100
AcDbEntity
  8
ALL_ASSEMBLY_MEMBERS
100
AcDbLine
 62
7
  6
CONTINUOUS
 10
4.4427448434
 20
3.268841174
 11
4.4708698434
 21
3.268841174
  0
LINE
  5
235
100
AcDbEntity
  8
ALL_ASSEMBLY_MEMBERS
100
AcDbLine
 62
7
  6
CONTINUOUS
 10
4.7116901559
 20
3.298138049
 11
4.6823932809
 21
3.298138049
  0
LINE
  5
236
100
AcDbEntity
  8
ALL_ASSEMBLY_MEMBERS
100
AcDbLine
 62
7
  6
CONTINUOUS
 10
4.4866901559
 20
3.298138049
 11
4.4573932809
 21
3.298138049
  0
LINE
  5
237
100
AcDbEntity
  8
ALL_FEATURES
100
AcDbLine
 62
7
  6
CONTINUOUS
 10
4.3501667184
 20
3.333341174
 11
3.9644665975
 21
3.333341174
  0
LINE
  5
238
100
AcDbEntity
  8
ALL_FEATURES
100
AcDbLine
 62
7
  6
CONTINUOUS
 10
4.8189167184
 20
3.333341174
 11
5.2046168392
 21
3.333341174
  0
LINE
  5
239
100
AcDbEntity
  8
ALL_FEATURES
100
AcDbLine
 62
7
  6
CONTINUOUS
 10
4.0932917184
 20
3.145841174
 11
4.0932917184
 21
3.333341174
  0
LINE
  5
23A
100
AcDbEntity
  8
0
100
AcDbLine
 62
7
  6
CONTINUOUS
 10
4.0989167184
 20
3.649864796
 11
4.0989167184
 21
3.423341174
  0
LINE
  5
23B
100
AcDbEntity
  8
ALL_FEATURES
100
AcDbLine
 62
7
  6
CONTINUOUS
 10
4.0989167184
 20
3.423341174
 11
4.0989167184
 21
3.649864796
  0
LINE
  5
23C
100
AcDbEntity
  8
ALL_ASSEMBLY_MEMBERS
100
AcDbLine
 62
7
  6
CONTINUOUS
 10
4.3501667184
 20
3.385841174
 11
4.8189167184
 21
3.385841174
  0
LINE
  5
23D
100
AcDbEntity
  8
ALL_FEATURES
100
AcDbLine
 62
7
  6
CONTINUOUS
 10
4.0989167184
 20
3.423341174
 11
5.0701667184
 21
3.423341174
  0
LINE
  5
23E
100
AcDbEntity
  8
ALL_ASSEMBLY_MEMBERS
100
AcDbLine
 62
7
  6
CONTINUOUS
 10
4.4427448434
 20
3.268841174
 11
4.4573932809
 21
3.239544299
  0
LINE
  5
23F
100
AcDbEntity
  8
ALL_ASSEMBLY_MEMBERS
100
AcDbLine
 62
7
  6
CONTINUOUS
 10
4.4708698434
 20
3.268841174
 11
4.4855182809
 21
3.239544299
  0
LINE
  5
240
100
AcDbEntity
  8
ALL_ASSEMBLY_MEMBERS
100
AcDbLine
 62
7
  6
CONTINUOUS
 10
4.2845417184
 20
2.517341174
 11
4.2845417184
 21
3.151091174
  0
LINE
  5
241
100
AcDbEntity
  8
ALL_ASSEMBLY_MEMBERS
100
AcDbLine
 62
7
  6
CONTINUOUS
 10
4.3501667184
 20
3.166091174
 11
4.3501667184
 21
3.385841174
  0
LINE
  5
242
100
AcDbEntity
  8
ALL_ASSEMBLY_MEMBERS
100
AcDbLine
 62
7
  6
CONTINUOUS
 10
4.3876667184
 20
2.423591174
 11
4.3876667184
 21
2.446091174
  0
LINE
  5
243
100
AcDbEntity
  8
ALL_ASSEMBLY_MEMBERS
100
AcDbLine
 62
7
  6
CONTINUOUS
 10
4.3876667184
 20
2.701091174
 11
4.3876667184
 21
2.723591174
  0
LINE
  5
244
100
AcDbEntity
  8
0
100
AcDbLine
 62
7
  6
CONTINUOUS
 10
3.9644642184
 20
3.649864796
 11
5.2046192184
 21
3.649864796
  0
LINE
  5
245
100
AcDbEntity
  8
ALL_ASSEMBLY_MEMBERS
100
AcDbLine
 62
7
  6
CONTINUOUS
 10
4.5013385934
 20
3.268841174
 11
4.4866901559
 21
3.298138049
  0
LINE
  5
246
100
AcDbEntity
  8
ALL_ASSEMBLY_MEMBERS
100
AcDbLine
 62
7
  6
CONTINUOUS
 10
4.6677448434
 20
3.268841174
 11
4.6823932809
 21
3.239544299
  0
LINE
  5
247
100
AcDbEntity
  8
ALL_ASSEMBLY_MEMBERS
100
AcDbLine
 62
7
  6
CONTINUOUS
 10
4.6982135934
 20
3.268841174
 11
4.6835651559
 21
3.298138049
  0
LINE
  5
248
100
AcDbEntity
  8
0
100
AcDbLine
 62
7
  6
CONTINUOUS
 10
4.4457917184
 20
3.423341174
 11
4.4457917184
 21
3.385841174
  0
LINE
  5
249
100
AcDbEntity
  8
ALL_ASSEMBLY_MEMBERS
100
AcDbLine
 62
7
  6
CONTINUOUS
 10
4.7263385934
 20
3.268841174
 11
4.7116901559
 21
3.298138049
  0
LINE
  5
24A
100
AcDbEntity
  8
0
100
AcDbLine
 62
7
  6
CONTINUOUS
 10
4.7232917184
 20
3.423341174
 11
4.7232917184
 21
3.385841174
  0
LINE
  5
24B
100
AcDbEntity
  8
ALL_ASSEMBLY_MEMBERS
100
AcDbLine
 62
7
  6
CONTINUOUS
 10
4.7814167184
 20
2.423591174
 11
4.7814167184
 21
2.446091174
  0
LINE
  5
24C
100
AcDbEntity
  8
ALL_ASSEMBLY_MEMBERS
100
AcDbLine
 62
7
  6
CONTINUOUS
 10
4.7814167184
 20
2.701091174
 11
4.7814167184
 21
2.723591174
  0
LINE
  5
24D
100
AcDbEntity
  8
ALL_ASSEMBLY_MEMBERS
100
AcDbLine
 62
7
  6
CONTINUOUS
 10
4.4573932809
 20
3.298138049
 11
4.4427448434
 21
3.268841174
  0
LINE
  5
24E
100
AcDbEntity
  8
ALL_ASSEMBLY_MEMBERS
100
AcDbLine
 62
7
  6
CONTINUOUS
 10
4.4855182809
 20
3.298138049
 11
4.4708698434
 21
3.268841174
  0
LINE
  5
24F
100
AcDbEntity
  8
ALL_ASSEMBLY_MEMBERS
100
AcDbLine
 62
7
  6
CONTINUOUS
 10
4.4866901559
 20
3.239544299
 11
4.5013385934
 21
3.268841174
  0
LINE
  5
250
100
AcDbEntity
  8
ALL_ASSEMBLY_MEMBERS
100
AcDbLine
 62
7
  6
CONTINUOUS
 10
4.8189167184
 20
3.166091174
 11
4.8189167184
 21
3.385841174
  0
LINE
  5
251
100
AcDbEntity
  8
ALL_ASSEMBLY_MEMBERS
100
AcDbLine
 62
7
  6
CONTINUOUS
 10
4.8845417184
 20
2.517341174
 11
4.8845417184
 21
3.151091174
  0
LINE
  5
252
100
AcDbEntity
  8
ALL_ASSEMBLY_MEMBERS
100
AcDbLine
 62
7
  6
CONTINUOUS
 10
4.6823932809
 20
3.298138049
 11
4.6677448434
 21
3.268841174
  0
LINE
  5
253
100
AcDbEntity
  8
ALL_ASSEMBLY_MEMBERS
100
AcDbLine
 62
7
  6
CONTINUOUS
 10
4.6835651559
 20
3.239544299
 11
4.6982135934
 21
3.268841174
  0
LINE
  5
254
100
AcDbEntity
  8
ALL_ASSEMBLY_MEMBERS
100
AcDbLine
 62
7
  6
CONTINUOUS
 10
4.7116901559
 20
3.239544299
 11
4.7263385934
 21
3.268841174
  0
LINE
  5
255
100
AcDbEntity
  8
0
100
AcDbLine
 62
7
  6
CONTINUOUS
 10
5.0701667184
 20
3.649864796
 11
5.0701667184
 21
3.423341174
  0
LINE
  5
256
100
AcDbEntity
  8
ALL_FEATURES
100
AcDbLine
 62
7
  6
CONTINUOUS
 10
5.0701667184
 20
3.423341174
 11
5.0701667184
 21
3.649864796
  0
LINE
  5
257
100
AcDbEntity
  8
ALL_FEATURES
100
AcDbLine
 62
7
  6
CONTINUOUS
 10
5.0757917184
 20
3.145841174
 11
5.0757917184
 21
3.333341174
  0
LINE
  5
258
100
AcDbEntity
  8
0
100
AcDbLine
 62
7
  6
CONTINUOUS
 10
5.2046192184
 20
4.633864796
 11
5.2046192184
 21
3.649864796
  0
LINE
  5
259
100
AcDbEntity
  8
ALL_FEATURES
100
AcDbLine
 62
7
  6
CONTINUOUS
 10
5.2046204585
 20
3.333341174
 11
5.2046204585
 21
3.649864796
  0
LINE
  5
25A
100
AcDbEntity
  8
0
100
AcDbLine
 62
7
  6
CONTINUOUS
 10
7.2057917184
 20
4.633864796
 11
1.9632917184
 21
4.633864796
  0
LINE
  5
25B
100
AcDbEntity
  8
0
100
AcDbLine
 62
9
  6
CONTINUOUS
 10
7.2432917184
 20
4.671364796
 11
1.9257917184
 21
4.671364796
  0
LINE
  5
25C
100
AcDbEntity
  8
0
100
AcDbLine
 62
7
  6
CONTINUOUS
 10
7.2432917184
 20
4.962364796
 11
1.9257917184
 21
4.962364796
  0
LINE
  5
25D
100
AcDbEntity
  8
0
100
AcDbLine
 62
7
  6
CONTINUOUS
 10
7.2432917184
 20
4.962364796
 11
7.2432917184
 21
4.671364796
  0
ARC
  5
25E
100
AcDbEntity
  8
ALL_ASSEMBLY_MEMBERS
100
AcDbCircle
 62
7
  6
CONTINUOUS
 10
4.4547881137
 20
3.2698320186
 40
0.0705263129
100
AcDbArc
 50
359.1950085141
 51
2.9459485018
  0
ARC
  5
25F
100
AcDbEntity
  8
ALL_ASSEMBLY_MEMBERS
100
AcDbCircle
 62
7
  6
CONTINUOUS
 10
4.4554710562
 20
3.2698344468
 40
0.0698434729
100
AcDbArc
 50
354.9010467285
 51
359.1851455997
  0
ARC
  5
260
100
AcDbEntity
  8
ALL_ASSEMBLY_MEMBERS
100
AcDbCircle
 62
7
  6
CONTINUOUS
 10
4.4602438027
 20
3.2805114953
 40
0.0611784496
100
AcDbArc
 50
51.8956092094
 51
56.8494827189
  0
ARC
  5
261
100
AcDbEntity
  8
ALL_ASSEMBLY_MEMBERS
100
AcDbCircle
 62
7
  6
CONTINUOUS
 10
4.4760736933
 20
3.2751592985
 40
0.058043106
100
AcDbArc
 50
126.8522428711
 51
127.4842809354
  0
ARC
  5
262
100
AcDbEntity
  8
ALL_ASSEMBLY_MEMBERS
100
AcDbCircle
 62
7
  6
CONTINUOUS
 10
4.2939167184
 20
2.461091174
 40
0.05625
100
AcDbArc
 50
0.0
 51
90.0
  0
ARC
  5
263
100
AcDbEntity
  8
ALL_ASSEMBLY_MEMBERS
100
AcDbCircle
 62
7
  6
CONTINUOUS
 10
4.2939167184
 20
2.738591174
 40
0.05625
100
AcDbArc
 50
0.0
 51
90.0
  0
ARC
  5
264
100
AcDbEntity
  8
ALL_ASSEMBLY_MEMBERS
100
AcDbCircle
 62
7
  6
CONTINUOUS
 10
4.4697449733
 20
3.2684152369
 40
0.0551433676
100
AcDbArc
 50
115.9394426781
 51
120.6713026223
  0
ARC
  5
265
100
AcDbEntity
  8
ALL_ASSEMBLY_MEMBERS
100
AcDbCircle
 62
7
  6
CONTINUOUS
 10
4.4734821009
 20
3.2591737108
 40
0.0483385049
100
AcDbArc
 50
302.7044996027
 51
308.1575396873
  0
ARC
  5
266
100
AcDbEntity
  8
ALL_ASSEMBLY_MEMBERS
100
AcDbCircle
 62
7
  6
CONTINUOUS
 10
4.471135828
 20
3.28465533
 40
0.0478683281
100
AcDbArc
 50
84.5293272046
 51
89.9974378
  0
ARC
  5
267
100
AcDbEntity
  8
ALL_ASSEMBLY_MEMBERS
100
AcDbCircle
 62
7
  6
CONTINUOUS
 10
4.4694740339
 20
3.260989527
 40
0.046772053
100
AcDbArc
 50
301.4788652971
 51
312.8002135453
  0
ARC
  5
268
100
AcDbEntity
  8
ALL_ASSEMBLY_MEMBERS
100
AcDbCircle
 62
7
  6
CONTINUOUS
 10
4.475784122
 20
3.2840470417
 40
0.0462941438
100
AcDbArc
 50
80.6096573349
 51
89.990598424
  0
ARC
  5
269
100
AcDbEntity
  8
ALL_ASSEMBLY_MEMBERS
100
AcDbCircle
 62
7
  6
CONTINUOUS
 10
4.4750290623
 20
3.2567254236
 40
0.0454425205
100
AcDbArc
 50
291.3228051082
 51
302.7311111209
  0
ARC
  5
26A
100
AcDbEntity
  8
ALL_ASSEMBLY_MEMBERS
100
AcDbCircle
 62
7
  6
CONTINUOUS
 10
4.470682269
 20
3.2591245916
 40
0.044550216
100
AcDbArc
 50
298.4761829716
 51
301.4060939872
  0
ARC
  5
26B
100
AcDbEntity
  8
ALL_ASSEMBLY_MEMBERS
100
AcDbCircle
 62
7
  6
CONTINUOUS
 10
4.4692100073
 20
3.2567337031
 40
0.0439024658
100
AcDbArc
 50
301.3701766514
 51
304.4252852715
  0
ARC
  5
26C
100
AcDbEntity
  8
ALL_ASSEMBLY_MEMBERS
100
AcDbCircle
 62
7
  6
CONTINUOUS
 10
4.4694915414
 20
3.2562821175
 40
0.0433703356
100
AcDbArc
 50
300.8297551272
 51
301.3631746556
  0
ARC
  5
26D
100
AcDbEntity
  8
ALL_ASSEMBLY_MEMBERS
100
AcDbCircle
 62
7
  6
CONTINUOUS
 10
4.4713203926
 20
3.2578976357
 40
0.0431674564
100
AcDbArc
 50
289.5477030531
 51
298.5081495311
  0
ARC
  5
26E
100
AcDbEntity
  8
ALL_ASSEMBLY_MEMBERS
100
AcDbCircle
 62
7
  6
CONTINUOUS
 10
4.4700344864
 20
3.2553252115
 40
0.0422703999
100
AcDbArc
 50
291.985966955
 51
300.8625303243
  0
ARC
  5
26F
100
AcDbEntity
  8
ALL_ASSEMBLY_MEMBERS
100
AcDbCircle
 62
7
  6
CONTINUOUS
 10
4.4718152377
 20
3.2565426744
 40
0.0417250218
100
AcDbArc
 50
283.4224599232
 51
289.5298994686
  0
ARC
  5
270
100
AcDbEntity
  8
ALL_ASSEMBLY_MEMBERS
100
AcDbCircle
 62
7
  6
CONTINUOUS
 10
4.4705828418
 20
3.2539970801
 40
0.0408335647
100
AcDbArc
 50
285.5304953705
 51
291.9701795526
  0
ARC
  5
271
100
AcDbEntity
  8
ALL_ASSEMBLY_MEMBERS
100
AcDbCircle
 62
7
  6
CONTINUOUS
 10
4.466903906
 20
3.2788939877
 40
0.0398339945
100
AcDbArc
 50
105.758340375
 51
107.8561756357
  0
ARC
  5
272
100
AcDbEntity
  8
ALL_ASSEMBLY_MEMBERS
100
AcDbCircle
 62
7
  6
CONTINUOUS
 10
4.4712343159
 20
3.2784262418
 40
0.0393693481
100
AcDbArc
 50
63.441556907
 51
65.2878836551
  0
ARC
  5
273
100
AcDbEntity
  8
ALL_ASSEMBLY_MEMBERS
100
AcDbCircle
 62
7
  6
CONTINUOUS
 10
4.4665047126
 20
3.2815842679
 40
0.0371004758
100
AcDbArc
 50
75.1214816295
 51
86.9618978295
  0
ARC
  5
274
100
AcDbEntity
  8
ALL_ASSEMBLY_MEMBERS
100
AcDbCircle
 62
7
  6
CONTINUOUS
 10
4.3726667184
 20
2.446091174
 40
0.015
100
AcDbArc
 50
0.0
 51
89.9999976072
  0
ARC
  5
275
100
AcDbEntity
  8
ALL_ASSEMBLY_MEMBERS
100
AcDbCircle
 62
7
  6
CONTINUOUS
 10
4.3351667184
 20
3.166091174
 40
0.015
100
AcDbArc
 50
270.0000182282
 51
360.0
  0
ARC
  5
276
100
AcDbEntity
  8
ALL_ASSEMBLY_MEMBERS
100
AcDbCircle
 62
7
  6
CONTINUOUS
 10
4.3726667184
 20
2.723591174
 40
0.015
100
AcDbArc
 50
0.0
 51
89.9999976072
  0
ARC
  5
277
100
AcDbEntity
  8
0
100
AcDbCircle
 62
7
  6
CONTINUOUS
 10
1.9632917184
 20
4.671364796
 40
0.0375
100
AcDbArc
 50
180.0
 51
270.0
  0
ARC
  5
278
100
AcDbEntity
  8
ALL_ASSEMBLY_MEMBERS
100
AcDbCircle
 62
7
  6
CONTINUOUS
 10
4.722887081
 20
3.2688306433
 40
0.079734924
100
AcDbArc
 50
161.2602473169
 51
179.99243289
  0
ARC
  5
279
100
AcDbEntity
  8
ALL_ASSEMBLY_MEMBERS
100
AcDbCircle
 62
7
  6
CONTINUOUS
 10
4.7223006666
 20
3.2688425619
 40
0.0791484104
100
AcDbArc
 50
180.0010047421
 51
182.4374329529
  0
ARC
  5
27A
100
AcDbEntity
  8
ALL_ASSEMBLY_MEMBERS
100
AcDbCircle
 62
7
  6
CONTINUOUS
 10
4.7217826396
 20
3.2691564603
 40
0.0785836608
100
AcDbArc
 50
156.5110328748
 51
161.2265047867
  0
ARC
  5
27B
100
AcDbEntity
  8
ALL_ASSEMBLY_MEMBERS
100
AcDbCircle
 62
7
  6
CONTINUOUS
 10
4.7207980709
 20
3.2695954961
 40
0.0775056896
100
AcDbArc
 50
151.8516779534
 51
156.5185982595
  0
ARC
  5
27C
100
AcDbEntity
  8
ALL_ASSEMBLY_MEMBERS
100
AcDbCircle
 62
7
  6
CONTINUOUS
 10
4.7194088806
 20
3.2703577985
 40
0.0759211812
100
AcDbArc
 50
146.4021180048
 51
151.8643458918
  0
ARC
  5
27D
100
AcDbEntity
  8
ALL_ASSEMBLY_MEMBERS
100
AcDbCircle
 62
7
  6
CONTINUOUS
 10
4.7176631471
 20
3.2715287092
 40
0.0738191516
100
AcDbArc
 50
142.4706808393
 51
146.409320763
  0
ARC
  5
27E
100
AcDbEntity
  8
ALL_ASSEMBLY_MEMBERS
100
AcDbCircle
 62
7
  6
CONTINUOUS
 10
4.674706155
 20
3.2709992494
 40
0.0733785526
100
AcDbArc
 50
357.125292332
 51
1.4996891368
  0
ARC
  5
27F
100
AcDbEntity
  8
ALL_ASSEMBLY_MEMBERS
100
AcDbCircle
 62
7
  6
CONTINUOUS
 10
4.7155544739
 20
3.2731801132
 40
0.0711409088
100
AcDbArc
 50
137.7443503582
 51
142.4908939617
  0
ARC
  5
280
100
AcDbEntity
  8
ALL_ASSEMBLY_MEMBERS
100
AcDbCircle
 62
7
  6
CONTINUOUS
 10
4.6792148824
 20
3.2725545766
 40
0.0703176093
100
AcDbArc
 50
356.9728590769
 51
0.7350319338
  0
ARC
  5
281
100
AcDbEntity
  8
ALL_ASSEMBLY_MEMBERS
100
AcDbCircle
 62
7
  6
CONTINUOUS
 10
4.6795386429
 20
3.2725451235
 40
0.0699938018
100
AcDbArc
 50
352.6798982359
 51
356.9665906878
  0
ARC
  5
282
100
AcDbEntity
  8
ALL_ASSEMBLY_MEMBERS
100
AcDbCircle
 62
7
  6
CONTINUOUS
 10
4.7046848124
 20
3.274226403
 40
0.0605266188
100
AcDbArc
 50
134.7264186244
 51
143.8737909521
  0
ARC
  5
283
100
AcDbEntity
  8
ALL_ASSEMBLY_MEMBERS
100
AcDbCircle
 62
7
  6
CONTINUOUS
 10
4.702934614
 20
3.2758896573
 40
0.0581133103
100
AcDbArc
 50
133.9726680841
 51
134.6544424976
  0
ARC
  5
284
100
AcDbEntity
  8
ALL_ASSEMBLY_MEMBERS
100
AcDbCircle
 62
7
  6
CONTINUOUS
 10
4.8751667184
 20
2.461091174
 40
0.05625
100
AcDbArc
 50
90.0
 51
180.0
  0
ARC
  5
285
100
AcDbEntity
  8
ALL_ASSEMBLY_MEMBERS
100
AcDbCircle
 62
7
  6
CONTINUOUS
 10
4.8751667184
 20
2.738591174
 40
0.05625
100
AcDbArc
 50
90.0
 51
180.0
  0
ARC
  5
286
100
AcDbEntity
  8
ALL_ASSEMBLY_MEMBERS
100
AcDbCircle
 62
7
  6
CONTINUOUS
 10
4.6926202916
 20
3.2649380117
 40
0.0545904402
100
AcDbArc
 50
311.1652853583
 51
311.6640942906
  0
ARC
  5
287
100
AcDbEntity
  8
ALL_ASSEMBLY_MEMBERS
100
AcDbCircle
 62
7
  6
CONTINUOUS
 10
4.6966112767
 20
3.263059987
 40
0.050419286
100
AcDbArc
 50
232.2125065546
 51
237.8270230896
  0
ARC
  5
288
100
AcDbEntity
  8
ALL_ASSEMBLY_MEMBERS
100
AcDbCircle
 62
7
  6
CONTINUOUS
 10
4.6986741195
 20
3.260729683
 40
0.0496464953
100
AcDbArc
 50
234.3778162223
 51
235.0710966009
  0
ARC
  5
289
100
AcDbEntity
  8
ALL_ASSEMBLY_MEMBERS
100
AcDbCircle
 62
7
  6
CONTINUOUS
 10
4.6958058791
 20
3.2617740979
 40
0.0489019966
100
AcDbArc
 50
237.8235290319
 51
241.5450567746
  0
ARC
  5
28A
100
AcDbEntity
  8
ALL_ASSEMBLY_MEMBERS
100
AcDbCircle
 62
7
  6
CONTINUOUS
 10
4.6979438111
 20
3.28475768
 40
0.0477659781
100
AcDbArc
 50
89.9980122756
 51
96.0137350396
  0
ARC
  5
28B
100
AcDbEntity
  8
ALL_ASSEMBLY_MEMBERS
100
AcDbCircle
 62
7
  6
CONTINUOUS
 10
4.6952059794
 20
3.2606475531
 40
0.0476257156
100
AcDbArc
 50
241.5338263504
 51
247.5041613283
  0
ARC
  5
28C
100
AcDbEntity
  8
ALL_ASSEMBLY_MEMBERS
100
AcDbCircle
 62
7
  6
CONTINUOUS
 10
4.7065258947
 20
3.2849258441
 40
0.0470445742
100
AcDbArc
 50
145.5112389031
 51
147.9709537643
  0
ARC
  5
28D
100
AcDbEntity
  8
ALL_ASSEMBLY_MEMBERS
100
AcDbCircle
 62
7
  6
CONTINUOUS
 10
4.7061037533
 20
3.2852120035
 40
0.0465345935
100
AcDbArc
 50
144.437265872
 51
145.5073332846
  0
ARC
  5
28E
100
AcDbEntity
  8
ALL_ASSEMBLY_MEMBERS
100
AcDbCircle
 62
7
  6
CONTINUOUS
 10
4.6947517236
 20
3.2734104671
 40
0.046041905
100
AcDbArc
 50
125.4396553848
 51
127.6267084392
  0
ARC
  5
28F
100
AcDbEntity
  8
ALL_ASSEMBLY_MEMBERS
100
AcDbCircle
 62
7
  6
CONTINUOUS
 10
4.7055231346
 20
3.2856307385
 40
0.0458187385
100
AcDbArc
 50
140.5065713605
 51
144.440952209
  0
ARC
  5
290
100
AcDbEntity
  8
ALL_ASSEMBLY_MEMBERS
100
AcDbCircle
 62
7
  6
CONTINUOUS
 10
4.6940155163
 20
3.2744691705
 40
0.0447524671
100
AcDbArc
 50
121.2116127056
 51
125.4576770186
  0
ARC
  5
291
100
AcDbEntity
  8
ALL_ASSEMBLY_MEMBERS
100
AcDbCircle
 62
7
  6
CONTINUOUS
 10
4.7046613966
 20
3.2863276827
 40
0.0447104893
100
AcDbArc
 50
137.9375395242
 51
140.4934663786
  0
ARC
  5
292
100
AcDbEntity
  8
ALL_ASSEMBLY_MEMBERS
100
AcDbCircle
 62
7
  6
CONTINUOUS
 10
4.698365185
 20
3.2590572576
 40
0.0444738857
100
AcDbArc
 50
240.0965531424
 51
240.4872434073
  0
ARC
  5
293
100
AcDbEntity
  8
ALL_ASSEMBLY_MEMBERS
100
AcDbCircle
 62
7
  6
CONTINUOUS
 10
4.6899536366
 20
3.28016752
 40
0.0439714296
100
AcDbArc
 50
125.7703049124
 51
127.0599135622
  0
ARC
  5
294
100
AcDbEntity
  8
ALL_ASSEMBLY_MEMBERS
100
AcDbCircle
 62
7
  6
CONTINUOUS
 10
4.6978687125
 20
3.2581280299
 40
0.0434206657
100
AcDbArc
 50
240.4533303175
 51
249.3777045182
  0
ARC
  5
295
100
AcDbEntity
  8
ALL_ASSEMBLY_MEMBERS
100
AcDbCircle
 62
7
  6
CONTINUOUS
 10
4.6932424367
 20
3.2757577505
 40
0.0432497875
100
AcDbArc
 50
117.1533518951
 51
121.2203020799
  0
ARC
  5
296
100
AcDbEntity
  8
ALL_ASSEMBLY_MEMBERS
100
AcDbCircle
 62
7
  6
CONTINUOUS
 10
4.7032804578
 20
3.2876289061
 40
0.0428135372
100
AcDbArc
 50
127.3887661543
 51
137.9922759049
  0
ARC
  5
297
100
AcDbEntity
  8
ALL_ASSEMBLY_MEMBERS
100
AcDbCircle
 62
7
  6
CONTINUOUS
 10
4.6974156191
 20
3.2569960425
 40
0.0422016386
100
AcDbArc
 50
249.4121455115
 51
252.4413368189
  0
ARC
  5
298
100
AcDbEntity
  8
ALL_ASSEMBLY_MEMBERS
100
AcDbCircle
 62
7
  6
CONTINUOUS
 10
4.6972800604
 20
3.2565738472
 40
0.0417582184
100
AcDbArc
 50
252.4439081184
 51
255.500110948
  0
ARC
  5
299
100
AcDbEntity
  8
ALL_ASSEMBLY_MEMBERS
100
AcDbCircle
 62
7
  6
CONTINUOUS
 10
4.6870356059
 20
3.2853466384
 40
0.0380114046
100
AcDbArc
 50
109.307626933
 51
114.9866691085
  0
ARC
  5
29A
100
AcDbEntity
  8
ALL_ASSEMBLY_MEMBERS
100
AcDbCircle
 62
7
  6
CONTINUOUS
 10
4.6969980915
 20
3.2806445131
 40
0.0370166886
100
AcDbArc
 50
77.2914989483
 51
83.7452727213
  0
ARC
  5
29B
100
AcDbEntity
  8
ALL_ASSEMBLY_MEMBERS
100
AcDbCircle
 62
7
  6
CONTINUOUS
 10
4.7964167184
 20
2.446091174
 40
0.015
100
AcDbArc
 50
90.0000023928
 51
180.0
  0
ARC
  5
29C
100
AcDbEntity
  8
ALL_ASSEMBLY_MEMBERS
100
AcDbCircle
 62
7
  6
CONTINUOUS
 10
4.8339167184
 20
3.166091174
 40
0.015
100
AcDbArc
 50
180.0
 51
269.9999817718
  0
ARC
  5
29D
100
AcDbEntity
  8
ALL_ASSEMBLY_MEMBERS
100
AcDbCircle
 62
7
  6
CONTINUOUS
 10
4.7964167184
 20
2.723591174
 40
0.015
100
AcDbArc
 50
90.0000023928
 51
180.0
  0
ARC
  5
29E
100
AcDbEntity
  8
0
100
AcDbCircle
 62
7
  6
CONTINUOUS
 10
7.2057917184
 20
4.671364796
 40
0.0375
100
AcDbArc
 50
270.0
 51
360.0
  0
SPLINE
  5
29F
100
AcDbEntity
  8
ALL_ASSEMBLY_MEMBERS
100
AcDbSpline
 62
7
  6
CONTINUOUS
 70
0
 71
3
 72
32
 73
28
 74
0
 42
0.0000001
 43
0.0000001
 44
0.0000000001
 40
0.0
 40
0.0
 40
0.0
 40
0.0
 40
0.0659613704
 40
0.1319361817
 40
0.1977662495
 40
0.2633283896
 40
0.3284910884
 40
0.3608929474
 40
0.3931529688
 40
0.4252589725
 40
0.4571997658
 40
0.5205327002
 40
0.5519235001
 40
0.5831173174
 40
0.6448821262
 40
0.67546626
 40
0.7058472714
 40
0.7360282953
 40
0.7660140609
 40
0.7958111266
 40
0.8254276341
 40
0.8548737986
 40
0.884161265
 40
0.9133025586
 40
0.9423111759
 40
0.9712038436
 40
1.0
 40
1.0
 40
1.0
 40
1.0
 10
4.7391322762
 20
3.2642591568
 30
0.0
 10
4.7392540239
 20
3.2657503277
 30
0.0
 10
4.7393783857
 20
3.2687440659
 30
0.0
 10
4.7392075071
 20
3.2732310438
 30
0.0
 10
4.7386804885
 20
3.2776814886
 30
0.0
 10
4.7378021303
 20
3.2820571414
 30
0.0
 10
4.7367810842
 20
3.2856181924
 30
0.0
 10
4.7357959301
 20
3.2883939254
 30
0.0
 10
4.734976357
 20
3.2904307554
 30
0.0
 10
4.734076583
 20
3.2924220172
 30
0.0
 10
4.7327762163
 20
3.2950027772
 30
0.0
 10
4.7313200867
 20
3.2974843863
 30
0.0
 10
4.7297152277
 20
3.299847841
 30
0.0
 10
4.728028722
 20
3.3021094641
 30
0.0
 10
4.7262036807
 20
3.304241924
 30
0.0
 10
4.7242510072
 20
3.3062270348
 30
0.0
 10
4.7227334502
 20
3.3076321615
 30
0.0
 10
4.7211616067
 20
3.3089552439
 30
0.0
 10
4.7195386603
 20
3.3101934505
 30
0.0
 10
4.7178681229
 20
3.3113442541
 30
0.0
 10
4.7161534339
 20
3.3124051236
 30
0.0
 10
4.7143982624
 20
3.3133739131
 30
0.0
 10
4.7126062484
 20
3.3142484556
 30
0.0
 10
4.7107812603
 20
3.3150269841
 30
0.0
 10
4.7089271179
 20
3.315707794
 30
0.0
 10
4.7070477534
 20
3.3162894213
 30
0.0
 10
4.7057785992
 20
3.3166107617
 30
0.0
 10
4.7051414278
 20
3.3167543638
 30
0.0
  0
SPLINE
  5
2A0
100
AcDbEntity
  8
ALL_ASSEMBLY_MEMBERS
100
AcDbSpline
 62
7
  6
CONTINUOUS
 70
0
 71
3
 72
15
 73
11
 74
0
 42
0.0000001
 43
0.0000001
 44
0.0000000001
 40
0.0
 40
0.0
 40
0.0
 40
0.0
 40
0.1205437606
 40
0.2427052429
 40
0.3663686468
 40
0.491386035
 40
0.6175417446
 40
0.7445697623
 40
0.8721736321
 40
1.0
 40
1.0
 40
1.0
 40
1.0
 10
4.7262529817
 20
3.2266716416
 30
0.0
 10
4.7273113239
 20
3.2279142788
 30
0.0
 10
4.7293229179
 20
3.2305204985
 30
0.0
 10
4.7319751289
 20
3.234721018
 30
0.0
 10
4.7342540266
 20
3.2392037025
 30
0.0
 10
4.7361323004
 20
3.2439265216
 30
0.0
 10
4.7375857988
 20
3.2488443822
 30
0.0
 10
4.7385941509
 20
3.2539082927
 30
0.0
 10
4.7391404708
 20
3.2590650246
 30
0.0
 10
4.739188611
 20
3.2625292135
 30
0.0
 10
4.7391322762
 20
3.2642591568
 30
0.0
  0
SPLINE
  5
2A1
100
AcDbEntity
  8
ALL_ASSEMBLY_MEMBERS
100
AcDbSpline
 62
7
  6
CONTINUOUS
 70
0
 71
3
 72
24
 73
20
 74
0
 42
0.0000001
 43
0.0000001
 44
0.0000000001
 40
0.0
 40
0.0
 40
0.0
 40
0.0
 40
0.0649538253
 40
0.1293919738
 40
0.1932851965
 40
0.2566630634
 40
0.3195795291
 40
0.3820890247
 40
0.4132134947
 40
0.4442576434
 40
0.506130136
 40
0.5677904198
 40
0.6293156825
 40
0.690784979
 40
0.7522776062
 40
0.8138724059
 40
0.8756445897
 40
0.9376655672
 40
1.0
 40
1.0
 40
1.0
 40
1.0
 10
4.7262529817
 20
3.2266716416
 30
0.0
 10
4.7254271242
 20
3.2258649672
 30
0.0
 10
4.7237267655
 20
3.2243133965
 30
0.0
 10
4.721033565
 20
3.2221764674
 30
0.0
 10
4.7182199153
 20
3.2202495796
 30
0.0
 10
4.7152997031
 20
3.2185412569
 30
0.0
 10
4.7122860031
 20
3.2170588125
 30
0.0
 10
4.7097039107
 20
3.2160148389
 30
0.0
 10
4.7076063133
 20
3.2152989336
 30
0.0
 10
4.705494482
 20
3.2146644934
 30
0.0
 10
4.7028207365
 20
3.214020865
 30
0.0
 10
4.6995714652
 20
3.2134913866
 30
0.0
 10
4.6962987163
 20
3.213207416
 30
0.0
 10
4.6930169002
 20
3.2131691152
 30
0.0
 10
4.6897402002
 20
3.2133765688
 30
0.0
 10
4.6864826605
 20
3.2138274686
 30
0.0
 10
4.68325817
 20
3.2145198655
 30
0.0
 10
4.6800803982
 20
3.2154493102
 30
0.0
 10
4.6780073169
 20
3.2162221918
 30
0.0
 10
4.6769836029
 20
3.2166458057
 30
0.0
  0
SPLINE
  5
2A2
100
AcDbEntity
  8
ALL_ASSEMBLY_MEMBERS
100
AcDbSpline
 62
7
  6
CONTINUOUS
 70
0
 71
3
 72
15
 73
11
 74
0
 42
0.0000001
 43
0.0000001
 44
0.0000000001
 40
0.0
 40
0.0
 40
0.0
 40
0.0
 40
0.1248119722
 40
0.2491414003
 40
0.3732683428
 40
0.4974667608
 40
0.6220036804
 40
0.7471276416
 40
0.8730636721
 40
1.0
 40
1.0
 40
1.0
 40
1.0
 10
4.7010310187
 20
3.3174408545
 30
0.0
 10
4.6998914417
 20
3.3177435265
 30
0.0
 10
4.6975864243
 20
3.3182398021
 30
0.0
 10
4.6940791673
 20
3.3186511049
 30
0.0
 10
4.6905542839
 20
3.3187285052
 30
0.0
 10
4.6870359175
 20
3.318474887
 30
0.0
 10
4.6835469383
 20
3.3178954175
 30
0.0
 10
4.6801092824
 20
3.3169971261
 30
0.0
 10
4.6767442843
 20
3.3157889869
 30
0.0
 10
4.6745714184
 20
3.3147880672
 30
0.0
 10
4.6735043735
 20
3.3142409024
 30
0.0
  0
SPLINE
  5
2A3
100
AcDbEntity
  8
ALL_ASSEMBLY_MEMBERS
100
AcDbSpline
 62
7
  6
CONTINUOUS
 70
0
 71
3
 72
38
 73
34
 74
0
 42
0.0000001
 43
0.0000001
 44
0.0000000001
 40
0.0
 40
0.0
 40
0.0
 40
0.0
 40
0.0300875761
 40
0.0604588497
 40
0.0910914703
 40
0.1219748073
 40
0.1531032558
 40
0.1844651589
 40
0.2160416143
 40
0.2478116322
 40
0.2797523674
 40
0.3118392115
 40
0.3440452817
 40
0.3763420002
 40
0.4086999688
 40
0.4410887571
 40
0.4734778449
 40
0.5058364915
 40
0.5381343552
 40
0.5703420193
 40
0.6343503563
 40
0.6661229548
 40
0.6977020309
 40
0.7290672953
 40
0.7602011422
 40
0.7910895172
 40
0.8217212524
 40
0.8520894402
 40
0.8821904999
 40
0.9120252532
 40
0.9415984593
 40
0.9709189629
 40
1.0
 40
1.0
 40
1.0
 40
1.0
 10
4.6666424765
 20
3.3098758925
 30
0.0
 10
4.665909625
 20
3.3091520135
 30
0.0
 10
4.6644823246
 20
3.3076507867
 30
0.0
 10
4.6624743886
 20
3.3052622047
 30
0.0
 10
4.6605976265
 20
3.3027351115
 30
0.0
 10
4.6588595122
 20
3.3000797923
 30
0.0
 10
4.6572664411
 20
3.2973062057
 30
0.0
 10
4.6558243432
 20
3.2944247
 30
0.0
 10
4.654538428
 20
3.2914462801
 30
0.0
 10
4.6534140391
 20
3.2883821209
 30
0.0
 10
4.6524549336
 20
3.2852440278
 30
0.0
 10
4.6516651753
 20
3.2820437375
 30
0.0
 10
4.6510473578
 20
3.2787934716
 30
0.0
 10
4.6506040553
 20
3.2755054847
 30
0.0
 10
4.6503368965
 20
3.2721922595
 30
0.0
 10
4.6502467384
 20
3.2688663431
 30
0.0
 10
4.6503342467
 20
3.2655403255
 30
0.0
 10
4.6505986304
 20
3.262226834
 30
0.0
 10
4.6510394467
 20
3.2589382793
 30
0.0
 10
4.6518575646
 20
3.2546136039
 30
0.0
 10
4.6530208417
 20
3.2503781384
 30
0.0
 10
4.6545202196
 20
3.2462818995
 30
0.0
 10
4.6558036969
 20
3.2433020002
 30
0.0
 10
4.6572434329
 20
3.2404189036
 30
0.0
 10
4.658834466
 20
3.2376435996
 30
0.0
 10
4.6605703198
 20
3.2349864065
 30
0.0
 10
4.6624448528
 20
3.2324576508
 30
0.0
 10
4.6644506812
 20
3.2300667444
 30
0.0
 10
4.6665803824
 20
3.2278228721
 30
0.0
 10
4.6688258987
 20
3.225734615
 30
0.0
 10
4.6711786314
 20
3.2238097203
 30
0.0
 10
4.673629771
 20
3.2220559384
 30
0.0
 10
4.6753301051
 20
3.2210006811
 30
0.0
 10
4.6761931789
 20
3.2205043244
 30
0.0
  0
SPLINE
  5
2A4
100
AcDbEntity
  8
ALL_ASSEMBLY_MEMBERS
100
AcDbSpline
 62
7
  6
CONTINUOUS
 70
0
 71
3
 72
22
 73
18
 74
0
 42
0.0000001
 43
0.0000001
 44
0.0000000001
 40
0.0
 40
0.0
 40
0.0
 40
0.0
 40
0.0617895877
 40
0.1233952842
 40
0.184878291
 40
0.2463013059
 40
0.3077284573
 40
0.3692230717
 40
0.4308481695
 40
0.492664831
 40
0.5547313762
 40
0.617101036
 40
0.679820317
 40
0.7429337016
 40
0.8064872623
 40
0.8705223054
 40
1.0
 40
1.0
 40
1.0
 40
1.0
 10
4.6868247158
 20
3.2161457064
 30
0.0
 10
4.6876738665
 20
3.2159261685
 30
0.0
 10
4.6893840649
 20
3.215541435
 30
0.0
 10
4.6919776736
 20
3.2151304545
 30
0.0
 10
4.6945872596
 20
3.2148873662
 30
0.0
 10
4.6972045452
 20
3.2148133528
 30
0.0
 10
4.6998213123
 20
3.2149084873
 30
0.0
 10
4.7024293644
 20
3.2151723165
 30
0.0
 10
4.7050204648
 20
3.2156043925
 30
0.0
 10
4.707586568
 20
3.216202906
 30
0.0
 10
4.7101195567
 20
3.2169663228
 30
0.0
 10
4.7126114546
 20
3.2178920866
 30
0.0
 10
4.7150545308
 20
3.2189770387
 30
0.0
 10
4.7174409876
 20
3.2202181244
 30
0.0
 10
4.7197638744
 20
3.2216113848
 30
0.0
 10
4.7227762509
 20
3.2236732295
 30
0.0
 10
4.7249028707
 20
3.2254246608
 30
0.0
 10
4.7262529817
 20
3.2266716416
 30
0.0
  0
SPLINE
  5
2A5
100
AcDbEntity
  8
ALL_ASSEMBLY_MEMBERS
100
AcDbSpline
 62
7
  6
CONTINUOUS
 70
0
 71
3
 72
15
 73
11
 74
0
 42
0.0000001
 43
0.0000001
 44
0.0000000001
 40
0.0
 40
0.0
 40
0.0
 40
0.0
 40
0.1205437606
 40
0.2427052429
 40
0.3663686468
 40
0.491386035
 40
0.6175417446
 40
0.7445697623
 40
0.8721736321
 40
1.0
 40
1.0
 40
1.0
 40
1.0
 10
4.5012529817
 20
3.2266716416
 30
0.0
 10
4.5023113239
 20
3.2279142788
 30
0.0
 10
4.5043229179
 20
3.2305204985
 30
0.0
 10
4.5069751289
 20
3.234721018
 30
0.0
 10
4.5092540266
 20
3.2392037025
 30
0.0
 10
4.5111323004
 20
3.2439265216
 30
0.0
 10
4.5125857988
 20
3.2488443822
 30
0.0
 10
4.5135941509
 20
3.2539082927
 30
0.0
 10
4.5141404708
 20
3.2590650246
 30
0.0
 10
4.514188611
 20
3.2625292135
 30
0.0
 10
4.5141322762
 20
3.2642591568
 30
0.0
  0
SPLINE
  5
2A6
100
AcDbEntity
  8
ALL_ASSEMBLY_MEMBERS
100
AcDbSpline
 62
7
  6
CONTINUOUS
 70
0
 71
3
 72
10
 73
6
 74
0
 42
0.0000001
 43
0.0000001
 44
0.0000000001
 40
0.0
 40
0.0
 40
0.0
 40
0.0
 40
0.5037214584
 40
0.7528265812
 40
1.0
 40
1.0
 40
1.0
 40
1.0
 10
4.5012529817
 20
3.2266716416
 30
0.0
 10
4.5001496747
 20
3.225519133
 30
0.0
 10
4.4984127646
 20
3.223877432
 30
0.0
 10
4.4959485882
 20
3.2218859585
 30
0.0
 10
4.4946752352
 20
3.2209627038
 30
0.0
 10
4.4940294358
 20
3.2205201355
 30
0.0
  0
SPLINE
  5
2A7
100
AcDbEntity
  8
ALL_ASSEMBLY_MEMBERS
100
AcDbSpline
 62
7
  6
CONTINUOUS
 70
0
 71
3
 72
15
 73
11
 74
0
 42
0.0000001
 43
0.0000001
 44
0.0000000001
 40
0.0
 40
0.0
 40
0.0
 40
0.0
 40
0.1255693921
 40
0.2507108745
 40
0.3755548841
 40
0.500236051
 40
0.6248876814
 40
0.749644875
 40
0.8746399261
 40
1.0
 40
1.0
 40
1.0
 40
1.0
 10
4.4815160787
 20
3.2146544272
 30
0.0
 10
4.4807000194
 20
3.2144278107
 30
0.0
 10
4.4790559897
 20
3.2140264147
 30
0.0
 10
4.476560549
 20
3.2135822298
 30
0.0
 10
4.4740477659
 20
3.2132982716
 30
0.0
 10
4.4715253528
 20
3.2131746046
 30
0.0
 10
4.4690007641
 20
3.2132115233
 30
0.0
 10
4.4664814781
 20
3.2134085834
 30
0.0
 10
4.463974976
 20
3.2137644968
 30
0.0
 10
4.4623200517
 20
3.2141064897
 30
0.0
 10
4.4614977171
 20
3.2143031727
 30
0.0
  0
SPLINE
  5
2A8
100
AcDbEntity
  8
ALL_ASSEMBLY_MEMBERS
100
AcDbSpline
 62
7
  6
CONTINUOUS
 70
0
 71
3
 72
45
 73
41
 74
0
 42
0.0000001
 43
0.0000001
 44
0.0000000001
 40
0.0
 40
0.0
 40
0.0
 40
0.0
 40
0.0280296329
 40
0.0421194651
 40
0.0562647378
 40
0.084736019
 40
0.0990772099
 40
0.1134922062
 40
0.1279845212
 40
0.1425571527
 40
0.1572126716
 40
0.1719532571
 40
0.2016904761
 40
0.2166942118
 40
0.2317868814
 40
0.2622330816
 40
0.2930277669
 40
0.3241585631
 40
0.355607042
 40
0.3873499525
 40
0.4193592173
 40
0.4516032993
 40
0.4840471647
 40
0.516653726
 40
0.5493837618
 40
0.5821973568
 40
0.6150538222
 40
0.6479130526
 40
0.6807355375
 40
0.6971229403
 40
0.713487148
 40
0.7461243157
 40
0.7786175536
 40
0.8109371009
 40
0.8430559104
 40
0.8749498499
 40
0.9066008538
 40
0.9380016341
 40
0.969142949
 40
1.0
 40
1.0
 40
1.0
 40
1.0
 10
4.4614977171
 20
3.2143031727
 30
0.0
 10
4.4603495148
 20
3.2145777956
 30
0.0
 10
4.4586408535
 20
3.2150654445
 30
0.0
 10
4.4564075178
 20
3.2158596023
 30
0.0
 10
4.4541923027
 20
3.2167541873
 30
0.0
 10
4.4520255467
 20
3.2177915059
 30
0.0
 10
4.4499187235
 20
3.2189635005
 30
0.0
 10
4.4483635297
 20
3.2199129723
 30
0.0
 10
4.4468394027
 20
3.2209291334
 30
0.0
 10
4.4453483181
 20
3.222010527
 30
0.0
 10
4.4438922913
 20
3.2231557134
 30
0.0
 10
4.4419950527
 20
3.2247700781
 30
0.0
 10
4.440180806
 20
3.2265019058
 30
0.0
 10
4.4384567734
 20
3.2283406695
 30
0.0
 10
4.4367815926
 20
3.2302639246
 30
0.0
 10
4.4348027263
 20
3.2328016731
 30
0.0
 10
4.432630744
 20
3.2360332878
 30
0.0
 10
4.4306648756
 20
3.2394430734
 30
0.0
 10
4.4289152407
 20
3.2430130928
 30
0.0
 10
4.4273902745
 20
3.2467246487
 30
0.0
 10
4.426097597
 20
3.2505586501
 30
0.0
 10
4.4250432739
 20
3.2544954273
 30
0.0
 10
4.4242324123
 20
3.2585150736
 30
0.0
 10
4.4236686528
 20
3.2625973672
 30
0.0
 10
4.4233545458
 20
3.2667220013
 30
0.0
 10
4.4232913198
 20
3.27086859
 30
0.0
 10
4.4234789681
 20
3.2750168662
 30
0.0
 10
4.4239163636
 20
3.2791465766
 30
0.0
 10
4.4244872219
 20
3.2825581199
 30
0.0
 10
4.4250662862
 20
3.2852590403
 30
0.0
 10
4.4257248875
 20
3.2879336328
 30
0.0
 10
4.4266969879
 20
3.2912280018
 30
0.0
 10
4.4280978755
 20
3.2950887347
 30
0.0
 10
4.4297251173
 20
3.2988359864
 30
0.0
 10
4.4315711941
 20
3.3024521104
 30
0.0
 10
4.4336267566
 20
3.3059207738
 30
0.0
 10
4.4358827093
 20
3.3092260748
 30
0.0
 10
4.4383284078
 20
3.312353551
 30
0.0
 10
4.4409523274
 20
3.3152881954
 30
0.0
 10
4.4428203647
 20
3.3171162174
 30
0.0
 10
4.4437797824
 20
3.3179929587
 30
0.0
  0
SPLINE
  5
2A9
100
AcDbEntity
  8
ALL_ASSEMBLY_MEMBERS
100
AcDbSpline
 62
7
  6
CONTINUOUS
 70
0
 71
3
 72
17
 73
13
 74
0
 42
0.0000001
 43
0.0000001
 44
0.0000000001
 40
0.0
 40
0.0
 40
0.0
 40
0.0
 40
0.1224788117
 40
0.1838125589
 40
0.245246729
 40
0.3685073189
 40
0.4925254838
 40
0.617508202
 40
0.7436475582
 40
0.8072251014
 40
0.8711517493
 40
1.0
 40
1.0
 40
1.0
 40
1.0
 10
4.4757917184
 20
3.3303411848
 30
0.0
 10
4.4743607513
 20
3.3303411992
 30
0.0
 10
4.4722114572
 20
3.3302409645
 30
0.0
 10
4.4693647579
 20
3.3299085539
 30
0.0
 10
4.4665273012
 20
3.3294431288
 30
0.0
 10
4.4630116188
 20
3.3286131909
 30
0.0
 10
4.4588821265
 20
3.3272294987
 30
0.0
 10
4.4548630646
 20
3.3254666985
 30
0.0
 10
4.4516354163
 20
3.3236951877
 30
0.0
 10
4.4491349233
 20
3.3221032794
 30
0.0
 10
4.4466793334
 20
3.3203873181
 30
0.0
 10
4.4449164183
 20
3.3189799941
 30
0.0
 10
4.4437797824
 20
3.3179929587
 30
0.0
  0
SPLINE
  5
2AA
100
AcDbEntity
  8
ALL_ASSEMBLY_MEMBERS
100
AcDbSpline
 62
7
  6
CONTINUOUS
 70
0
 71
3
 72
11
 73
7
 74
0
 42
0.0000001
 43
0.0000001
 44
0.0000000001
 40
0.0
 40
0.0
 40
0.0
 40
0.0
 40
0.2493504893
 40
0.4988563144
 40
0.7489404501
 40
1.0
 40
1.0
 40
1.0
 40
1.0
 10
4.4684710393
 20
3.3186325994
 30
0.0
 10
4.4674321271
 20
3.3186878005
 30
0.0
 10
4.4653479889
 20
3.3187110011
 30
0.0
 10
4.4622278474
 20
3.318485539
 30
0.0
 10
4.459129781
 20
3.3180035155
 30
0.0
 10
4.4570939117
 20
3.3175153146
 30
0.0
 10
4.4560857679
 20
3.31723085
 30
0.0
  0
SPLINE
  5
2AB
100
AcDbEntity
  8
ALL_ASSEMBLY_MEMBERS
100
AcDbSpline
 62
7
  6
CONTINUOUS
 70
0
 71
3
 72
11
 73
7
 74
0
 42
0.0000001
 43
0.0000001
 44
0.0000000001
 40
0.0
 40
0.0
 40
0.0
 40
0.0
 40
0.2466085267
 40
0.4952739413
 40
0.7463464232
 40
1.0
 40
1.0
 40
1.0
 40
1.0
 10
4.4546896611
 20
3.3168091475
 30
0.0
 10
4.4535282045
 20
3.3164350572
 30
0.0
 10
4.4512286762
 20
3.315576681
 30
0.0
 10
4.4478929614
 20
3.313981673
 30
0.0
 10
4.4446773506
 20
3.3120872863
 30
0.0
 10
4.4426365623
 20
3.3106420543
 30
0.0
 10
4.4416424765
 20
3.3098758925
 30
0.0
  0
SPLINE
  5
2AC
100
AcDbEntity
  8
ALL_ASSEMBLY_MEMBERS
100
AcDbSpline
 62
7
  6
CONTINUOUS
 70
0
 71
3
 72
38
 73
34
 74
0
 42
0.0000001
 43
0.0000001
 44
0.0000000001
 40
0.0
 40
0.0
 40
0.0
 40
0.0
 40
0.0299929757
 40
0.0602579739
 40
0.0907741777
 40
0.121530565
 40
0.1525223193
 40
0.1837403196
 40
0.2151681368
 40
0.2467869137
 40
0.2785763172
 40
0.3105143267
 40
0.342577252
 40
0.3747393648
 40
0.4069741456
 40
0.4392541356
 40
0.5038166466
 40
0.5360641269
 40
0.5682451703
 40
0.6003329746
 40
0.632301667
 40
0.6641270899
 40
0.6957863525
 40
0.727258894
 40
0.7585262509
 40
0.789572364
 40
0.8203843331
 40
0.8509517146
 40
0.8812678269
 40
0.9113289536
 40
0.9411350268
 40
0.9706897386
 40
1.0
 40
1.0
 40
1.0
 40
1.0
 10
4.4416424765
 20
3.3098758925
 30
0.0
 10
4.4409401621
 20
3.3091821767
 30
0.0
 10
4.4395707846
 20
3.3077456373
 30
0.0
 10
4.4376385948
 20
3.3054647826
 30
0.0
 10
4.4358262667
 20
3.3030559563
 30
0.0
 10
4.4341405999
 20
3.3005281445
 30
0.0
 10
4.4325871712
 20
3.2978901727
 30
0.0
 10
4.4311714432
 20
3.2951509575
 30
0.0
 10
4.4298979334
 20
3.2923201848
 30
0.0
 10
4.4287715628
 20
3.2894075666
 30
0.0
 10
4.427795924
 20
3.2864234141
 30
0.0
 10
4.4269745203
 20
3.2833780523
 30
0.0
 10
4.4263102711
 20
3.2802820619
 30
0.0
 10
4.4258051966
 20
3.2771463045
 30
0.0
 10
4.4254614907
 20
3.2739814876
 30
0.0
 10
4.425219341
 20
3.2697386783
 30
0.0
 10
4.4253034049
 20
3.2654818546
 30
0.0
 10
4.4257126866
 20
3.2612547363
 30
0.0
 10
4.4261811914
 20
3.2581113113
 30
0.0
 10
4.4268092823
 20
3.2550053153
 30
0.0
 10
4.4275952345
 20
3.2519474965
 30
0.0
 10
4.4285359499
 20
3.2489484614
 30
0.0
 10
4.4296283556
 20
3.2460186812
 30
0.0
 10
4.4308686921
 20
3.2431683955
 30
0.0
 10
4.4322524185
 20
3.2404074138
 30
0.0
 10
4.4337751162
 20
3.2377455558
 30
0.0
 10
4.4354310808
 20
3.2351918684
 30
0.0
 10
4.4372149107
 20
3.2327554635
 30
0.0
 10
4.4391202225
 20
3.2304447286
 30
0.0
 10
4.4411403907
 20
3.2282677096
 30
0.0
 10
4.4432686087
 20
3.2262321802
 30
0.0
 10
4.4454970613
 20
3.2243450327
 30
0.0
 10
4.4470511298
 20
3.2231856228
 30
0.0
 10
4.4478420806
 20
3.2226333318
 30
0.0
  0
SPLINE
  5
2AD
100
AcDbEntity
  8
ALL_ASSEMBLY_MEMBERS
100
AcDbSpline
 62
7
  6
CONTINUOUS
 70
0
 71
3
 72
21
 73
17
 74
0
 42
0.0000001
 43
0.0000001
 44
0.0000000001
 40
0.0
 40
0.0
 40
0.0
 40
0.0
 40
0.0642782924
 40
0.1281677941
 40
0.1916914762
 40
0.2548765782
 40
0.3177529098
 40
0.3803536883
 40
0.5048327337
 40
0.6286738746
 40
0.6904847811
 40
0.7522669491
 40
0.8140653375
 40
0.8759242879
 40
0.9378880878
 40
1.0
 40
1.0
 40
1.0
 40
1.0
 10
4.4478420806
 20
3.2226333318
 30
0.0
 10
4.4484633184
 20
3.222199545
 30
0.0
 10
4.4497236052
 20
3.2213649993
 30
0.0
 10
4.4516685437
 20
3.2202129481
 30
0.0
 10
4.4536581576
 20
3.2191671477
 30
0.0
 10
4.4556878917
 20
3.2182297001
 30
0.0
 10
4.4577534435
 20
3.2174026731
 30
0.0
 10
4.4605434295
 20
3.2164518765
 30
0.0
 10
4.4641021081
 20
3.2155450315
 30
0.0
 10
4.46772833
 20
3.2150252863
 30
0.0
 10
4.470640684
 20
3.21484572
 30
0.0
 10
4.4728270859
 20
3.214829189
 30
0.0
 10
4.4750116983
 20
3.2149305436
 30
0.0
 10
4.4771898517
 20
3.2151495648
 30
0.0
 10
4.479356647
 20
3.2154860061
 30
0.0
 10
4.4807886424
 20
3.2157875383
 30
0.0
 10
4.4815008342
 20
3.2159573733
 30
0.0
  0
SPLINE
  5
2AE
100
AcDbEntity
  8
ALL_ASSEMBLY_MEMBERS
100
AcDbSpline
 62
7
  6
CONTINUOUS
 70
0
 71
3
 72
23
 73
19
 74
0
 42
0.0000001
 43
0.0000001
 44
0.0000000001
 40
0.0
 40
0.0
 40
0.0
 40
0.0
 40
0.064562083
 40
0.128854452
 40
0.1928294606
 40
0.2564788298
 40
0.3198107329
 40
0.3828331374
 40
0.4455532881
 40
0.5079840221
 40
0.5701460706
 40
0.632061546
 40
0.6937561169
 40
0.7552560375
 40
0.8165975092
 40
0.8778206082
 40
0.9389521723
 40
1.0
 40
1.0
 40
1.0
 40
1.0
 10
4.4416424765
 20
3.3098758925
 30
0.0
 10
4.4423010133
 20
3.3106629528
 30
0.0
 10
4.443657372
 20
3.312199162
 30
0.0
 10
4.4458065053
 20
3.3143864656
 30
0.0
 10
4.4480592864
 20
3.3164455669
 30
0.0
 10
4.4504079069
 20
3.3183706202
 30
0.0
 10
4.4528451337
 20
3.3201567115
 30
0.0
 10
4.4553634988
 20
3.3217995754
 30
0.0
 10
4.45795541
 20
3.3232953298
 30
0.0
 10
4.4606133016
 20
3.3246404108
 30
0.0
 10
4.4633293953
 20
3.3258322363
 30
0.0
 10
4.4660961817
 20
3.3268682023
 30
0.0
 10
4.4689058519
 20
3.3277468263
 30
0.0
 10
4.4717509481
 20
3.3284665618
 30
0.0
 10
4.4746240711
 20
3.3290266835
 30
0.0
 10
4.4775179277
 20
3.3294267112
 30
0.0
 10
4.4804246416
 20
3.3296666388
 30
0.0
 10
4.4823670955
 20
3.329720435
 30
0.0
 10
4.4833374593
 20
3.329720829
 30
0.0
  0
SPLINE
  5
2AF
100
AcDbEntity
  8
ALL_ASSEMBLY_MEMBERS
100
AcDbSpline
 62
7
  6
CONTINUOUS
 70
0
 71
3
 72
23
 73
19
 74
0
 42
0.0000001
 43
0.0000001
 44
0.0000000001
 40
0.0
 40
0.0
 40
0.0
 40
0.0
 40
0.0651572782
 40
0.1303512328
 40
0.1954527956
 40
0.2603767586
 40
0.3250278691
 40
0.3893146657
 40
0.4531564543
 40
0.5164812148
 40
0.5792271294
 40
0.6413441399
 40
0.7027960279
 40
0.7635624439
 40
0.8236416032
 40
0.8830494368
 40
0.9418188405
 40
1.0
 40
1.0
 40
1.0
 40
1.0
 10
4.5141322762
 20
3.2642591568
 30
0.0
 10
4.5142361744
 20
3.2655317062
 30
0.0
 10
4.5143571949
 20
3.2680854571
 30
0.0
 10
4.5142784247
 20
3.27191743
 30
0.0
 10
4.5139396282
 20
3.2757308195
 30
0.0
 10
4.5133430073
 20
3.2795016559
 30
0.0
 10
4.5124923047
 20
3.2832070858
 30
0.0
 10
4.5113925966
 20
3.2868242872
 30
0.0
 10
4.5100505712
 20
3.29033101
 30
0.0
 10
4.5084745248
 20
3.2937057627
 30
0.0
 10
4.506674011
 20
3.2969277334
 30
0.0
 10
4.5046600286
 20
3.2999769927
 30
0.0
 10
4.5024450723
 20
3.3028347689
 30
0.0
 10
4.5000426274
 20
3.3054833376
 30
0.0
 10
4.4974674753
 20
3.3079063829
 30
0.0
 10
4.494735287
 20
3.3100890203
 30
0.0
 10
4.4918630699
 20
3.3120176101
 30
0.0
 10
4.4898565491
 20
3.3131315562
 30
0.0
 10
4.4888367622
 20
3.3136412876
 30
0.0
  0
SPLINE
  5
2B0
100
AcDbEntity
  8
ALL_ASSEMBLY_MEMBERS
100
AcDbSpline
 62
7
  6
CONTINUOUS
 70
0
 71
3
 72
11
 73
7
 74
0
 42
0.0000001
 43
0.0000001
 44
0.0000000001
 40
0.0
 40
0.0
 40
0.0
 40
0.0
 40
0.2521460427
 40
0.502622626
 40
0.7518114416
 40
1.0
 40
1.0
 40
1.0
 40
1.0
 10
4.4876930335
 20
3.3141901367
 30
0.0
 10
4.4867648916
 20
3.3146172319
 30
0.0
 10
4.4848805529
 20
3.3153965276
 30
0.0
 10
4.4819785802
 20
3.31633356
 30
0.0
 10
4.4790260396
 20
3.3170297123
 30
0.0
 10
4.4770307069
 20
3.3173314421
 30
0.0
 10
4.4760310187
 20
3.3174408545
 30
0.0
  0
SPLINE
  5
2B1
100
AcDbEntity
  8
ALL_ASSEMBLY_MEMBERS
100
AcDbSpline
 62
7
  6
CONTINUOUS
 70
0
 71
3
 72
11
 73
7
 74
0
 42
0.0000001
 43
0.0000001
 44
0.0000000001
 40
0.0
 40
0.0
 40
0.0
 40
0.0
 40
0.2483965544
 40
0.497746059
 40
0.7481780525
 40
1.0
 40
1.0
 40
1.0
 40
1.0
 10
4.4760310187
 20
3.3174408545
 30
0.0
 10
4.4771255553
 20
3.3173261445
 30
0.0
 10
4.4793103456
 20
3.3170054092
 30
0.0
 10
4.4825432094
 20
3.3162569352
 30
0.0
 10
4.4857189572
 20
3.3152435165
 30
0.0
 10
4.4877803566
 20
3.3143980798
 30
0.0
 10
4.4887950818
 20
3.3139342521
 30
0.0
  0
SPLINE
  5
2B2
100
AcDbEntity
  8
ALL_ASSEMBLY_MEMBERS
100
AcDbSpline
 62
7
  6
CONTINUOUS
 70
0
 71
3
 72
36
 73
32
 74
0
 42
0.0000001
 43
0.0000001
 44
0.0000000001
 40
0.0
 40
0.0
 40
0.0
 40
0.0
 40
0.0297111144
 40
0.0595956579
 40
0.089665048
 40
0.1199285644
 40
0.1503924646
 40
0.1810602155
 40
0.211931253
 40
0.2430017855
 40
0.2742651402
 40
0.3057111018
 40
0.337327073
 40
0.3690973964
 40
0.4010038931
 40
0.4330264472
 40
0.4651424948
 40
0.4973280558
 40
0.561783089
 40
0.5940196581
 40
0.6262178744
 40
0.6903649073
 40
0.7222788801
 40
0.7540431574
 40
0.7856318487
 40
0.8170201062
 40
0.8790839396
 40
0.9097426183
 40
0.9401230995
 40
0.970212029
 40
1.0
 40
1.0
 40
1.0
 40
1.0
 10
4.4887950818
 20
3.3139342521
 30
0.0
 10
4.489605436
 20
3.3135638417
 30
0.0
 10
4.4912078447
 20
3.3127693032
 30
0.0
 10
4.4935395891
 20
3.3114268894
 30
0.0
 10
4.4957985238
 20
3.3099348495
 30
0.0
 10
4.4979768998
 20
3.3082985061
 30
0.0
 10
4.5000677286
 20
3.3065238693
 30
0.0
 10
4.5020637617
 20
3.3046168297
 30
0.0
 10
4.5039587178
 20
3.3025844329
 30
0.0
 10
4.5057461853
 20
3.3004336458
 30
0.0
 10
4.5074202269
 20
3.2981720053
 30
0.0
 10
4.5089756633
 20
3.2958076431
 30
0.0
 10
4.5104070405
 20
3.2933486022
 30
0.0
 10
4.5117101025
 20
3.2908037363
 30
0.0
 10
4.5128805263
 20
3.28818186
 30
0.0
 10
4.5139144912
 20
3.2854921807
 30
0.0
 10
4.5148091352
 20
3.2827441099
 30
0.0
 10
4.5158122542
 20
3.2790140862
 30
0.0
 10
4.5165259318
 20
3.2752074099
 30
0.0
 10
4.5169441913
 20
3.2713634948
 30
0.0
 10
4.5171650242
 20
3.2675124617
 30
0.0
 10
4.5170897389
 20
3.2636587831
 30
0.0
 10
4.5167185931
 20
3.2598421632
 30
0.0
 10
4.5162946352
 20
3.257015501
 30
0.0
 10
4.5157268738
 20
3.2542302259
 30
0.0
 10
4.5147845782
 20
3.250599426
 30
0.0
 10
4.5135630935
 20
3.2470744292
 30
0.0
 10
4.5120701344
 20
3.2436965002
 30
0.0
 10
4.510827625
 20
3.2412607568
 30
0.0
 10
4.5094624326
 20
3.2389219676
 30
0.0
 10
4.5084688416
 20
3.2374248421
 30
0.0
 10
4.5079531735
 20
3.2366954061
 30
0.0
  0
SPLINE
  5
2B3
100
AcDbEntity
  8
ALL_ASSEMBLY_MEMBERS
100
AcDbSpline
 62
7
  6
CONTINUOUS
 70
0
 71
3
 72
15
 73
11
 74
0
 42
0.0000001
 43
0.0000001
 44
0.0000000001
 40
0.0
 40
0.0
 40
0.0
 40
0.0
 40
0.1187382
 40
0.2395711467
 40
0.3623668073
 40
0.4871230784
 40
0.6136554501
 40
0.7415962448
 40
0.8705580404
 40
1.0
 40
1.0
 40
1.0
 40
1.0
 10
4.4944930346
 20
3.3265315713
 30
0.0
 10
4.496679949
 20
3.3252653324
 30
0.0
 10
4.5009189459
 20
3.322398748
 30
0.0
 10
4.5066917184
 20
3.3172530415
 30
0.0
 10
4.5118309507
 20
3.3113032677
 30
0.0
 10
4.5162472883
 20
3.3046545785
 30
0.0
 10
4.5198682142
 20
3.2974194292
 30
0.0
 10
4.5226278851
 20
3.2897191508
 30
0.0
 10
4.5244778126
 20
3.2816891231
 30
0.0
 10
4.5250797421
 20
3.2762078493
 30
0.0
 10
4.5252212235
 20
3.2734566373
 30
0.0
  0
SPLINE
  5
2B4
100
AcDbEntity
  8
ALL_ASSEMBLY_MEMBERS
100
AcDbSpline
 62
7
  6
CONTINUOUS
 70
0
 71
3
 72
14
 73
10
 74
0
 42
0.0000001
 43
0.0000001
 44
0.0000000001
 40
0.0
 40
0.0
 40
0.0
 40
0.0
 40
0.2597487989
 40
0.3878308097
 40
0.5142355888
 40
0.6387806092
 40
0.7613049138
 40
0.8817076628
 40
1.0
 40
1.0
 40
1.0
 40
1.0
 10
4.5250381368
 20
3.2636270313
 30
0.0
 10
4.5246612789
 20
3.259403212
 30
0.0
 10
4.523521486
 20
3.2531251694
 30
0.0
 10
4.5208487115
 20
3.2451569452
 30
0.0
 10
4.5183157232
 20
3.2394991999
 30
0.0
 10
4.5152699682
 20
3.2342051431
 30
0.0
 10
4.5117495137
 20
3.2293333165
 30
0.0
 10
4.5077916532
 20
3.2249462794
 30
0.0
 10
4.5048656544
 20
3.2223572765
 30
0.0
 10
4.5033468787
 20
3.2211644211
 30
0.0
  0
SPLINE
  5
2B5
100
AcDbEntity
  8
ALL_ASSEMBLY_MEMBERS
100
AcDbSpline
 62
7
  6
CONTINUOUS
 70
0
 71
3
 72
14
 73
10
 74
0
 42
0.0000001
 43
0.0000001
 44
0.0000000001
 40
0.0
 40
0.0
 40
0.0
 40
0.0
 40
0.126088728
 40
0.2513338027
 40
0.5000661393
 40
0.6243734856
 40
0.7489460718
 40
0.874063484
 40
1.0
 40
1.0
 40
1.0
 40
1.0
 10
4.4915529642
 20
3.2143935995
 30
0.0
 10
4.490348592
 20
3.2139250684
 30
0.0
 10
4.4879048279
 20
3.2130966473
 30
0.0
 10
4.482916749
 20
3.2118975918
 30
0.0
 10
4.4777995375
 20
3.211392291
 30
0.0
 10
4.472698265
 20
3.2116070378
 30
0.0
 10
4.4688944135
 20
3.2121261866
 30
0.0
 10
4.4651396337
 20
3.2129994423
 30
0.0
 10
4.4626938831
 20
3.2138126947
 30
0.0
 10
4.4614890103
 20
3.2142756048
 30
0.0
  0
SPLINE
  5
2B6
100
AcDbEntity
  8
ALL_ASSEMBLY_MEMBERS
100
AcDbSpline
 62
7
  6
CONTINUOUS
 70
0
 71
3
 72
15
 73
11
 74
0
 42
0.0000001
 43
0.0000001
 44
0.0000000001
 40
0.0
 40
0.0
 40
0.0
 40
0.0
 40
0.1169409088
 40
0.2364085191
 40
0.3583315263
 40
0.4827472236
 40
0.6094981238
 40
0.7382350117
 40
0.8685809458
 40
1.0
 40
1.0
 40
1.0
 40
1.0
 10
4.7213005342
 20
3.3265315713
 30
0.0
 10
4.7233882204
 20
3.3252631223
 30
0.0
 10
4.7274281147
 20
3.3223895558
 30
0.0
 10
4.7328916682
 20
3.3172412613
 30
0.0
 10
4.7377195497
 20
3.3112893555
 30
0.0
 10
4.7418227411
 20
3.304639048
 30
0.0
 10
4.7451288527
 20
3.2974026476
 30
0.0
 10
4.7475720389
 20
3.2897015113
 30
0.0
 10
4.7491038484
 20
3.2816708403
 30
0.0
 10
4.7494916411
 20
3.2762016787
 30
0.0
 10
4.7495267055
 20
3.2734566373
 30
0.0
  0
SPLINE
  5
2B7
100
AcDbEntity
  8
ALL_ASSEMBLY_MEMBERS
100
AcDbSpline
 62
7
  6
CONTINUOUS
 70
0
 71
3
 72
9
 73
5
 74
0
 42
0.0000001
 43
0.0000001
 44
0.0000000001
 40
0.0
 40
0.0
 40
0.0
 40
0.0
 40
0.2527267792
 40
1.0
 40
1.0
 40
1.0
 40
1.0
 10
4.6479958771
 20
3.2958383077
 30
0.0
 10
4.6485057925
 20
3.2970962222
 30
0.0
 10
4.6506719644
 20
3.3020116961
 30
0.0
 10
4.6534288314
 20
3.3066699965
 30
0.0
 10
4.6557962348
 20
3.3099108334
 30
0.0
  0
SPLINE
  5
2B8
100
AcDbEntity
  8
ALL_ASSEMBLY_MEMBERS
100
AcDbSpline
 62
7
  6
CONTINUOUS
 70
0
 71
3
 72
13
 73
9
 74
0
 42
0.0000001
 43
0.0000001
 44
0.0000000001
 40
0.0
 40
0.0
 40
0.0
 40
0.0
 40
0.1290617698
 40
0.2567594733
 40
0.5081956229
 40
0.6323612323
 40
0.7556288047
 40
1.0
 40
1.0
 40
1.0
 40
1.0
 10
4.6625856627
 20
3.3177121268
 30
0.0
 10
4.6636464691
 20
3.3187355472
 30
0.0
 10
4.6658357797
 20
3.3206921547
 30
0.0
 10
4.670457546
 20
3.3242098256
 30
0.0
 10
4.6754398996
 20
3.3271371211
 30
0.0
 10
4.6806809027
 20
3.3293868797
 30
0.0
 10
4.6860159755
 20
3.3311588851
 30
0.0
 10
4.6901639282
 20
3.3319683823
 30
0.0
 10
4.6929395191
 20
3.3322607928
 30
0.0
  0
SPLINE
  5
2B9
100
AcDbEntity
  8
ALL_ASSEMBLY_MEMBERS
100
AcDbSpline
 62
7
  6
CONTINUOUS
 70
0
 71
3
 72
14
 73
10
 74
0
 42
0.0000001
 43
0.0000001
 44
0.0000000001
 40
0.0
 40
0.0
 40
0.0
 40
0.0
 40
0.2558057528
 40
0.382822432
 40
0.5088357138
 40
0.6336868885
 40
0.7572380005
 40
0.8793633868
 40
1.0
 40
1.0
 40
1.0
 40
1.0
 10
4.7489619813
 20
3.2636270313
 30
0.0
 10
4.7484711964
 20
3.2598045395
 30
0.0
 10
4.747263837
 20
3.2541282618
 30
0.0
 10
4.7447205729
 20
3.2468895157
 30
0.0
 10
4.7423742197
 20
3.2416939394
 30
0.0
 10
4.7396022652
 20
3.2367726678
 30
0.0
 10
4.7364278005
 20
3.2321712125
 30
0.0
 10
4.7328803622
 20
3.2279334465
 30
0.0
 10
4.7302677081
 20
3.2253641334
 30
0.0
 10
4.7289099595
 20
3.2241559549
 30
0.0
  0
SPLINE
  5
2BA
100
AcDbEntity
  8
ALL_ASSEMBLY_MEMBERS
100
AcDbSpline
 62
7
  6
CONTINUOUS
 70
0
 71
3
 72
16
 73
12
 74
0
 42
0.0000001
 43
0.0000001
 44
0.0000000001
 40
0.0
 40
0.0
 40
0.0
 40
0.0
 40
0.1288347593
 40
0.2558810655
 40
0.3813794816
 40
0.5056555527
 40
0.6291456884
 40
0.7523358758
 40
0.8140209045
 40
0.8758302144
 40
1.0
 40
1.0
 40
1.0
 40
1.0
 10
4.728553546
 20
3.2238415717
 30
0.0
 10
4.7269487926
 20
3.2224384398
 30
0.0
 10
4.7235945091
 20
3.2198353839
 30
0.0
 10
4.718158221
 20
3.216600401
 30
0.0
 10
4.7124241891
 20
3.2141084395
 30
0.0
 10
4.7064705057
 20
3.2123995279
 30
0.0
 10
4.7003797818
 20
3.2115062812
 30
0.0
 10
4.6952609228
 20
3.2114516275
 30
0.0
 10
4.6911937098
 20
3.2118263718
 30
0.0
 10
4.6871457619
 20
3.2124778637
 30
0.0
 10
4.6841610555
 20
3.2132755306
 30
0.0
 10
4.6822162142
 20
3.2139377198
 30
0.0
  0
SPLINE
  5
2BB
100
AcDbEntity
  8
ALL_ASSEMBLY_MEMBERS
100
AcDbSpline
 62
7
  6
CONTINUOUS
 70
0
 71
3
 72
9
 73
5
 74
0
 42
0.0000001
 43
0.0000001
 44
0.0000000001
 40
0.0
 40
0.0
 40
0.0
 40
0.0
 40
0.4965542548
 40
1.0
 40
1.0
 40
1.0
 40
1.0
 10
4.6822162142
 20
3.2139377198
 30
0.0
 10
4.680107126
 20
3.2146558326
 30
0.0
 10
4.6759598851
 20
3.2164128578
 30
0.0
 10
4.6721005506
 20
3.218733
 30
0.0
 10
4.6702485453
 20
3.2200263512
 30
0.0
  0
SPLINE
  5
2BC
100
AcDbEntity
  8
ALL_ASSEMBLY_MEMBERS
100
AcDbSpline
 62
7
  6
CONTINUOUS
 70
0
 71
3
 72
11
 73
7
 74
0
 42
0.0000001
 43
0.0000001
 44
0.0000000001
 40
0.0
 40
0.0
 40
0.0
 40
0.0
 40
0.2476746116
 40
0.4967374296
 40
0.7474744183
 40
1.0
 40
1.0
 40
1.0
 40
1.0
 10
4.4756994144
 20
3.332305624
 30
0.0
 10
4.4773252899
 20
3.3321499267
 30
0.0
 10
4.4805726037
 20
3.3316703568
 30
0.0
 10
4.4853579542
 20
3.3304546166
 30
0.0
 10
4.4900285045
 20
3.3287583048
 30
0.0
 10
4.4930275898
 20
3.3273225882
 30
0.0
 10
4.4944930346
 20
3.3265315713
 30
0.0
  0
SPLINE
  5
2BD
100
AcDbEntity
  8
ALL_ASSEMBLY_MEMBERS
100
AcDbSpline
 62
7
  6
CONTINUOUS
 70
0
 71
3
 72
15
 73
11
 74
0
 42
0.0000001
 43
0.0000001
 44
0.0000000001
 40
0.0
 40
0.0
 40
0.0
 40
0.0
 40
0.1327511392
 40
0.2647650836
 40
0.3948457489
 40
0.522254253
 40
0.6465662945
 40
0.7675031861
 40
0.8851718014
 40
1.0
 40
1.0
 40
1.0
 40
1.0
 10
4.751762107
 20
3.268841174
 30
0.0
 10
4.751762107
 20
3.2719462972
 30
0.0
 10
4.7514997643
 20
3.2781425192
 30
0.0
 10
4.7503214326
 20
3.2873139417
 30
0.0
 10
4.7483524532
 20
3.2962229251
 30
0.0
 10
4.7455846713
 20
3.3047298343
 30
0.0
 10
4.7420129379
 20
3.3127011981
 30
0.0
 10
4.7376256071
 20
3.3199961867
 30
0.0
 10
4.7324182349
 20
3.3264523031
 30
0.0
 10
4.7283637112
 20
3.3301218347
 30
0.0
 10
4.7262192595
 20
3.3317390429
 30
0.0
  0
SPLINE
  5
2BE
100
AcDbEntity
  8
ALL_ASSEMBLY_MEMBERS
100
AcDbSpline
 62
7
  6
CONTINUOUS
 70
0
 71
3
 72
22
 73
18
 74
0
 42
0.0000001
 43
0.0000001
 44
0.0000000001
 40
0.0
 40
0.0
 40
0.0
 40
0.0
 40
0.0594712425
 40
0.1185998494
 40
0.1775839729
 40
0.2366799478
 40
0.2961030088
 40
0.3560353628
 40
0.4166659151
 40
0.4781301228
 40
0.5404865639
 40
0.6037526458
 40
0.6679305775
 40
0.732974708
 40
0.7987877607
 40
0.865290051
 40
1.0
 40
1.0
 40
1.0
 40
1.0
 10
4.7262192595
 20
3.3317390429
 30
0.0
 10
4.7250981406
 20
3.332584519
 30
0.0
 10
4.7227818909
 20
3.3341671876
 30
0.0
 10
4.7190993884
 20
3.3361861111
 30
0.0
 10
4.7152375822
 20
3.33781639
 30
0.0
 10
4.7112173949
 20
3.3390289197
 30
0.0
 10
4.7070690636
 20
3.3398106988
 30
0.0
 10
4.7028250644
 20
3.340152136
 30
0.0
 10
4.6985207546
 20
3.3400397939
 30
0.0
 10
4.6941943899
 20
3.3394807166
 30
0.0
 10
4.6898829806
 20
3.3384882091
 30
0.0
 10
4.6856245989
 20
3.3370715824
 30
0.0
 10
4.6814530666
 20
3.3352531706
 30
0.0
 10
4.6773978594
 20
3.3330602333
 30
0.0
 10
4.6734874034
 20
3.3305163314
 30
0.0
 10
4.6684808997
 20
3.3266770133
 30
0.0
 10
4.66503857
 20
3.3233719282
 30
0.0
 10
4.6628994004
 20
3.3210180912
 30
0.0
  0
SPLINE
  5
2BF
100
AcDbEntity
  8
ALL_ASSEMBLY_MEMBERS
100
AcDbSpline
 62
7
  6
CONTINUOUS
 70
0
 71
3
 72
36
 73
32
 74
0
 42
0.0000001
 43
0.0000001
 44
0.0000000001
 40
0.0
 40
0.0
 40
0.0
 40
0.0
 40
0.0666689554
 40
0.0999918102
 40
0.1332333605
 40
0.1993504452
 40
0.2322295565
 40
0.2649006109
 40
0.2973183194
 40
0.3294092927
 40
0.3610969104
 40
0.3923275351
 40
0.423023663
 40
0.4381637048
 40
0.4531607515
 40
0.4827149563
 40
0.5117348496
 40
0.5403267614
 40
0.568644049
 40
0.5968500558
 40
0.6251486917
 40
0.6536967308
 40
0.6826349248
 40
0.7120777703
 40
0.7420755576
 40
0.7726625755
 40
0.803837288
 40
0.8677531129
 40
0.9004309779
 40
0.9334659927
 40
1.0
 40
1.0
 40
1.0
 40
1.0
 10
4.6432238651
 20
3.2654765067
 30
0.0
 10
4.6434076283
 20
3.2611546075
 30
0.0
 10
4.6442125927
 20
3.2546789532
 30
0.0
 10
4.646318394
 20
3.2462871282
 30
0.0
 10
4.6490929128
 20
3.2381291912
 30
0.0
 10
4.6528510518
 20
3.2303635328
 30
0.0
 10
4.6575170952
 20
3.2231975652
 30
0.0
 10
4.6614356644
 20
3.2181815341
 30
0.0
 10
4.6657509857
 20
3.2135722407
 30
0.0
 10
4.6704274647
 20
3.2094242033
 30
0.0
 10
4.6754249572
 20
3.2057967185
 30
0.0
 10
4.6806950951
 20
3.2027540411
 30
0.0
 10
4.6852854113
 20
3.2007406503
 30
0.0
 10
4.6890296725
 20
3.1994843652
 30
0.0
 10
4.6927727457
 20
3.1984813963
 30
0.0
 10
4.6974934304
 20
3.1976815652
 30
0.0
 10
4.7031633402
 20
3.1974854123
 30
0.0
 10
4.7087260776
 20
3.1980741045
 30
0.0
 10
4.7141016293
 20
3.1994175404
 30
0.0
 10
4.7192169736
 20
3.2014954264
 30
0.0
 10
4.7240195782
 20
3.2042455781
 30
0.0
 10
4.7284714318
 20
3.2076101152
 30
0.0
 10
4.7325457387
 20
3.2115280458
 30
0.0
 10
4.7362328226
 20
3.2159333293
 30
0.0
 10
4.7395255794
 20
3.2207687348
 30
0.0
 10
4.7424229673
 20
3.2259786888
 30
0.0
 10
4.7457888928
 20
3.2334140334
 30
0.0
 10
4.7483340771
 20
3.2413388038
 30
0.0
 10
4.7501064583
 20
3.2495649588
 30
0.0
 10
4.7513827124
 20
3.2580547376
 30
0.0
 10
4.751762107
 20
3.2645241259
 30
0.0
 10
4.751762107
 20
3.268841174
 30
0.0
  0
SPLINE
  5
2C0
100
AcDbEntity
  8
ALL_ASSEMBLY_MEMBERS
100
AcDbSpline
 62
7
  6
CONTINUOUS
 70
0
 71
3
 72
11
 73
7
 74
0
 42
0.0000001
 43
0.0000001
 44
0.0000000001
 40
0.0
 40
0.0
 40
0.0
 40
0.0
 40
0.2463005518
 40
0.4951928952
 40
0.7466677917
 40
1.0
 40
1.0
 40
1.0
 40
1.0
 10
4.4416156696
 20
3.3158444817
 30
0.0
 10
4.4395792816
 20
3.3146374648
 30
0.0
 10
4.4356352528
 20
3.3119481052
 30
0.0
 10
4.4302238276
 20
3.307210299
 30
0.0
 10
4.4253529301
 20
3.3018282373
 30
0.0
 10
4.4225061709
 20
3.2978856764
 30
0.0
 10
4.4211883776
 20
3.2958383077
 30
0.0
  0
SPLINE
  5
2C1
100
AcDbEntity
  8
ALL_ASSEMBLY_MEMBERS
100
AcDbSpline
 62
7
  6
CONTINUOUS
 70
0
 71
3
 72
18
 73
14
 74
0
 42
0.0000001
 43
0.0000001
 44
0.0000000001
 40
0.0
 40
0.0
 40
0.0
 40
0.0
 40
0.1328447912
 40
0.2636083539
 40
0.3917179369
 40
0.454818385
 40
0.5172879087
 40
0.6403870539
 40
0.701190386
 40
0.7615447557
 40
0.881123974
 40
0.9406133618
 40
1.0
 40
1.0
 40
1.0
 40
1.0
 10
4.4211883776
 20
3.2958383077
 30
0.0
 10
4.4222820863
 20
3.2985363869
 30
0.0
 10
4.4247993365
 20
3.3037575683
 30
0.0
 10
4.4295216869
 20
3.310955517
 30
0.0
 10
4.4341858511
 20
3.3162845773
 30
0.0
 10
4.4382791104
 20
3.3200530883
 30
0.0
 10
4.4425508058
 20
3.3234431571
 30
0.0
 10
4.4471478981
 20
3.3263216193
 30
0.0
 10
4.4519882025
 20
3.3286184916
 30
0.0
 10
4.4569222858
 20
3.3304986016
 30
0.0
 10
4.462039125
 20
3.3317769731
 30
0.0
 10
4.4672298113
 20
3.3324172116
 30
0.0
 10
4.4698364951
 20
3.3325236805
 30
0.0
 10
4.4711379686
 20
3.3325236581
 30
0.0
  0
SPLINE
  5
2C2
100
AcDbEntity
  8
ALL_ASSEMBLY_MEMBERS
100
AcDbSpline
 62
7
  6
CONTINUOUS
 70
0
 71
3
 72
9
 73
5
 74
0
 42
0.0000001
 43
0.0000001
 44
0.0000000001
 40
0.0
 40
0.0
 40
0.0
 40
0.0
 40
0.2472718588
 40
1.0
 40
1.0
 40
1.0
 40
1.0
 10
4.670979308
 20
3.3198004071
 30
0.0
 10
4.670395498
 20
3.3195288163
 30
0.0
 10
4.6680617347
 20
3.318372556
 30
0.0
 10
4.6658411012
 20
3.3169901558
 30
0.0
 10
4.6642506984
 20
3.3158444817
 30
0.0
  0
SPLINE
  5
2C3
100
AcDbEntity
  8
ALL_ASSEMBLY_MEMBERS
100
AcDbSpline
 62
7
  6
CONTINUOUS
 70
0
 71
3
 72
9
 73
5
 74
0
 42
0.0000001
 43
0.0000001
 44
0.0000000001
 40
0.0
 40
0.0
 40
0.0
 40
0.0
 40
0.4937720417
 40
1.0
 40
1.0
 40
1.0
 40
1.0
 10
4.6634542625
 20
3.3152569742
 30
0.0
 10
4.6619557019
 20
3.314125304
 30
0.0
 10
4.6590642673
 20
3.3116382916
 30
0.0
 10
4.6564876838
 20
3.3088284011
 30
0.0
 10
4.6552671672
 20
3.3073394898
 30
0.0
  0
SPLINE
  5
2C4
100
AcDbEntity
  8
ALL_ASSEMBLY_MEMBERS
100
AcDbSpline
 62
7
  6
CONTINUOUS
 70
0
 71
3
 72
9
 73
5
 74
0
 42
0.0000001
 43
0.0000001
 44
0.0000000001
 40
0.0
 40
0.0
 40
0.0
 40
0.0
 40
0.2455297459
 40
1.0
 40
1.0
 40
1.0
 40
1.0
 10
4.6552671672
 20
3.3073394898
 30
0.0
 10
4.654560211
 20
3.3064770722
 30
0.0
 10
4.6517942817
 20
3.3028725298
 30
0.0
 10
4.6494787369
 20
3.2989274924
 30
0.0
 10
4.6479958771
 20
3.2958383077
 30
0.0
  0
SPLINE
  5
2C5
100
AcDbEntity
  8
ALL_ASSEMBLY_MEMBERS
100
AcDbSpline
 62
7
  6
CONTINUOUS
 70
0
 71
3
 72
11
 73
7
 74
0
 42
0.0000001
 43
0.0000001
 44
0.0000000001
 40
0.0
 40
0.0
 40
0.0
 40
0.0
 40
0.2549849595
 40
0.507216422
 40
0.7555938392
 40
1.0
 40
1.0
 40
1.0
 40
1.0
 10
4.4211883776
 20
3.2958383077
 30
0.0
 10
4.4222913456
 20
3.2983582099
 30
0.0
 10
4.4247860549
 20
3.3032453411
 30
0.0
 10
4.4293504009
 20
3.3100229837
 30
0.0
 10
4.4346569892
 20
3.3160870914
 30
0.0
 10
4.4386597278
 20
3.3196132038
 30
0.0
 10
4.4407519239
 20
3.3212176827
 30
0.0
  0
SPLINE
  5
2C6
100
AcDbEntity
  8
ALL_ASSEMBLY_MEMBERS
100
AcDbSpline
 62
7
  6
CONTINUOUS
 70
0
 71
3
 72
12
 73
8
 74
0
 42
0.0000001
 43
0.0000001
 44
0.0000000001
 40
0.0
 40
0.0
 40
0.0
 40
0.0
 40
0.2543004714
 40
0.5052143846
 40
0.6296742429
 40
0.753568781
 40
1.0
 40
1.0
 40
1.0
 40
1.0
 10
4.4412621394
 20
3.321604512
 30
0.0
 10
4.4432954693
 20
3.3231285229
 30
0.0
 10
4.4475394936
 20
3.3258941493
 30
0.0
 10
4.4532465031
 20
3.3285927333
 30
0.0
 10
4.4579604093
 20
3.3302382117
 30
0.0
 10
4.4627342813
 20
3.3315352118
 30
0.0
 10
4.4664047348
 20
3.3321226712
 30
0.0
 10
4.4688580557
 20
3.33233437
 30
0.0
  0
SPLINE
  5
2C7
100
AcDbEntity
  8
ALL_ASSEMBLY_MEMBERS
100
AcDbSpline
 62
7
  6
CONTINUOUS
 70
0
 71
3
 72
30
 73
26
 74
0
 42
0.0000001
 43
0.0000001
 44
0.0000000001
 40
0.0
 40
0.0
 40
0.0
 40
0.0
 40
0.0678367118
 40
0.1352211099
 40
0.2014787132
 40
0.2662185839
 40
0.3292125789
 40
0.3903562572
 40
0.4202953319
 40
0.4498375722
 40
0.4790470973
 40
0.5080136477
 40
0.5368160663
 40
0.5655549165
 40
0.5943582183
 40
0.6233302164
 40
0.6525618205
 40
0.6821463412
 40
0.7121460898
 40
0.742587006
 40
0.8047500921
 40
0.8685812248
 40
0.9010429001
 40
0.9338063658
 40
1.0
 40
1.0
 40
1.0
 40
1.0
 10
4.4173213297
 20
3.268841174
 30
0.0
 10
4.4173213297
 20
3.2655197472
 30
0.0
 10
4.4176212098
 20
3.2588951008
 30
0.0
 10
4.4189683425
 20
3.2491087942
 30
0.0
 10
4.4212210289
 20
3.2396434076
 30
0.0
 10
4.424389362
 20
3.2306682696
 30
0.0
 10
4.4284795219
 20
3.2223483441
 30
0.0
 10
4.4327032885
 20
3.2160620988
 30
0.0
 10
4.4365517141
 20
3.2115745554
 30
0.0
 10
4.4396462793
 20
3.2085202984
 30
0.0
 10
4.4429640956
 20
3.2057834895
 30
0.0
 10
4.4464972877
 20
3.2033939301
 30
0.0
 10
4.4502297697
 20
3.2013765054
 30
0.0
 10
4.4541438639
 20
3.1997579712
 30
0.0
 10
4.4582177358
 20
3.1985676833
 30
0.0
 10
4.462419529
 20
3.1978178158
 30
0.0
 10
4.466715743
 20
3.1975188189
 30
0.0
 10
4.4710692754
 20
3.1976837401
 30
0.0
 10
4.4754410371
 20
3.1983029234
 30
0.0
 10
4.4812815231
 20
3.1997259297
 30
0.0
 10
4.4884285302
 20
3.2026042458
 30
0.0
 10
4.4950619527
 20
3.2066943389
 30
0.0
 10
4.5000261491
 20
3.2106122584
 30
0.0
 10
4.5047727271
 20
3.2149630564
 30
0.0
 10
4.5079874149
 20
3.2186153374
 30
0.0
 10
4.5099619361
 20
3.221185397
 30
0.0
  0
SPLINE
  5
2C8
100
AcDbEntity
  8
ALL_ASSEMBLY_MEMBERS
100
AcDbSpline
 62
7
  6
CONTINUOUS
 70
0
 71
3
 72
13
 73
9
 74
0
 42
0.0000001
 43
0.0000001
 44
0.0000000001
 40
0.0
 40
0.0
 40
0.0
 40
0.0
 40
0.2477111427
 40
0.3724665218
 40
0.4976115524
 40
0.6230888549
 40
0.7488132909
 40
1.0
 40
1.0
 40
1.0
 40
1.0
 10
4.5099619361
 20
3.221185397
 30
0.0
 10
4.5125337929
 20
3.2245329556
 30
0.0
 10
4.5159728933
 20
3.2299151174
 30
0.0
 10
4.5196268142
 20
3.2375744343
 30
0.0
 10
4.5219048253
 20
3.2435603096
 30
0.0
 10
4.5236945041
 20
3.2497269936
 30
0.0
 10
4.5254074779
 20
3.2581218516
 30
0.0
 10
4.5259311805
 20
3.2645604993
 30
0.0
 10
4.5259311805
 20
3.268841174
 30
0.0
  0
SPLINE
  5
2C9
100
AcDbEntity
  8
ALL_ASSEMBLY_MEMBERS
100
AcDbSpline
 62
7
  6
CONTINUOUS
 70
0
 71
3
 72
13
 73
9
 74
0
 42
0.0000001
 43
0.0000001
 44
0.0000000001
 40
0.0
 40
0.0
 40
0.0
 40
0.0
 40
0.1258765759
 40
0.2519129332
 40
0.3778305745
 40
0.5034296128
 40
0.7530824829
 40
1.0
 40
1.0
 40
1.0
 40
1.0
 10
4.5259311805
 20
3.268841174
 30
0.0
 10
4.5259311805
 20
3.2712329541
 30
0.0
 10
4.5257132613
 20
3.2760222955
 30
0.0
 10
4.5247452837
 20
3.2831449865
 30
0.0
 10
4.5231426505
 20
3.2901481526
 30
0.0
 10
4.520181943
 20
3.2992105641
 30
0.0
 10
4.5149959737
 20
3.3099093649
 30
0.0
 10
4.5093396291
 20
3.3175458037
 30
0.0
 10
4.5061842299
 20
3.3210178782
 30
0.0
  0
SPLINE
  5
2CA
100
AcDbEntity
  8
ALL_ASSEMBLY_MEMBERS
100
AcDbSpline
 62
7
  6
CONTINUOUS
 70
0
 71
3
 72
9
 73
5
 74
0
 42
0.0000001
 43
0.0000001
 44
0.0000000001
 40
0.0
 40
0.0
 40
0.0
 40
0.0
 40
0.2518460202
 40
1.0
 40
1.0
 40
1.0
 40
1.0
 10
4.5061842299
 20
3.3210178782
 30
0.0
 10
4.5055517807
 20
3.3217137999
 30
0.0
 10
4.5029850935
 20
3.3244260001
 30
0.0
 10
4.5001954092
 20
3.3269287093
 30
0.0
 10
4.4979967902
 20
3.3286520668
 30
0.0
  0
SPLINE
  5
2CB
100
AcDbEntity
  8
ALL_ASSEMBLY_MEMBERS
100
AcDbSpline
 62
7
  6
CONTINUOUS
 70
0
 71
3
 72
29
 73
25
 74
0
 42
0.0000001
 43
0.0000001
 44
0.0000000001
 40
0.0
 40
0.0
 40
0.0
 40
0.0
 40
0.0639837119
 40
0.1264832704
 40
0.1571771784
 40
0.1874898725
 40
0.2174375747
 40
0.2470557413
 40
0.2764083876
 40
0.3055646985
 40
0.3345908931
 40
0.3635662448
 40
0.3925872204
 40
0.4217319468
 40
0.4510591625
 40
0.4806319584
 40
0.5407067437
 40
0.6022610373
 40
0.665407418
 40
0.730101151
 40
0.7961943282
 40
0.8634784788
 40
0.9315917882
 40
1.0
 40
1.0
 40
1.0
 40
1.0
 10
4.493698648
 20
3.3317323505
 30
0.0
 10
4.491473998
 20
3.333182978
 30
0.0
 10
4.4868758139
 20
3.3357573377
 30
0.0
 10
4.4807492205
 20
3.3380807243
 30
0.0
 10
4.4757634751
 20
3.3392961121
 30
0.0
 10
4.4720289917
 20
3.3398807833
 30
0.0
 10
4.4683021813
 20
3.3401363008
 30
0.0
 10
4.4646071115
 20
3.3400538188
 30
0.0
 10
4.4609678264
 20
3.3396369871
 30
0.0
 10
4.4574060073
 20
3.3388939785
 30
0.0
 10
4.4539425597
 20
3.3378310418
 30
0.0
 10
4.4505968055
 20
3.3364566267
 30
0.0
 10
4.4473819215
 20
3.3347891405
 30
0.0
 10
4.4443092297
 20
3.3328453594
 30
0.0
 10
4.4413893265
 20
3.3306408456
 30
0.0
 10
4.437691958
 20
3.3273607272
 30
0.0
 10
4.4334772293
 20
3.3226794793
 30
0.0
 10
4.4291322241
 20
3.3163362741
 30
0.0
 10
4.4254714807
 20
3.3093610691
 30
0.0
 10
4.4224873461
 20
3.3018708698
 30
0.0
 10
4.4201740821
 20
3.2939699042
 30
0.0
 10
4.41852725
 20
3.2857601369
 30
0.0
 10
4.4175409341
 20
3.2773498107
 30
0.0
 10
4.4173213297
 20
3.2716806466
 30
0.0
 10
4.4173213297
 20
3.268841174
 30
0.0
  0
SPLINE
  5
2CC
100
AcDbEntity
  8
ALL_ASSEMBLY_MEMBERS
100
AcDbSpline
 62
7
  6
CONTINUOUS
 70
0
 71
3
 72
11
 73
7
 74
0
 42
0.0000001
 43
0.0000001
 44
0.0000000001
 40
0.0
 40
0.0
 40
0.0
 40
0.0
 40
0.2476094727
 40
0.4963836294
 40
0.7470996135
 40
1.0
 40
1.0
 40
1.0
 40
1.0
 10
4.6979454682
 20
3.3325236581
 30
0.0
 10
4.6999548066
 20
3.3325236234
 30
0.0
 10
4.7039875487
 20
3.3322692504
 30
0.0
 10
4.7099568934
 20
3.3311244892
 30
0.0
 10
4.7157781609
 20
3.329234285
 30
0.0
 10
4.7194945607
 20
3.3275063986
 30
0.0
 10
4.7213005342
 20
3.3265315713
 30
0.0
  0
SPLINE
  5
2CD
100
AcDbEntity
  8
ALL_ASSEMBLY_MEMBERS
100
AcDbSpline
 62
7
  6
CONTINUOUS
 70
0
 71
3
 72
11
 73
7
 74
0
 42
0.0000001
 43
0.0000001
 44
0.0000000001
 40
0.0
 40
0.0
 40
0.0
 40
0.0
 40
0.2470113402
 40
0.4954098748
 40
0.7461410012
 40
1.0
 40
1.0
 40
1.0
 40
1.0
 10
4.6979404893
 20
3.3324729749
 30
0.0
 10
4.699766688
 20
3.3323864581
 30
0.0
 10
4.7034226267
 20
3.3319880361
 30
0.0
 10
4.7088111913
 20
3.330720259
 30
0.0
 10
4.7140556272
 20
3.3287970813
 30
0.0
 10
4.7173960161
 20
3.3271048062
 30
0.0
 10
4.7190208023
 20
3.3261611715
 30
0.0
  0
SPLINE
  5
2CE
100
AcDbEntity
  8
ALL_ASSEMBLY_MEMBERS
100
AcDbSpline
 62
7
  6
CONTINUOUS
 70
0
 71
3
 72
9
 73
5
 74
0
 42
0.0000001
 43
0.0000001
 44
0.0000000001
 40
0.0
 40
0.0
 40
0.0
 40
0.0
 40
0.4965000118
 40
1.0
 40
1.0
 40
1.0
 40
1.0
 10
4.7190208023
 20
3.3261611715
 30
0.0
 10
4.7204308099
 20
3.3253422746
 30
0.0
 10
4.7231902754
 20
3.3235508584
 30
0.0
 10
4.7257659512
 20
3.3215047073
 30
0.0
 10
4.72701192
 20
3.3204176137
 30
0.0
  0
SPLINE
  5
2CF
100
AcDbEntity
  8
ALL_ASSEMBLY_MEMBERS
100
AcDbSpline
 62
7
  6
CONTINUOUS
 70
0
 71
3
 72
15
 73
11
 74
0
 42
0.0000001
 43
0.0000001
 44
0.0000000001
 40
0.0
 40
0.0
 40
0.0
 40
0.0
 40
0.1180074548
 40
0.2382601441
 40
0.3607318494
 40
0.4853190855
 40
0.6118299758
 40
0.7399965029
 40
0.869509279
 40
1.0
 40
1.0
 40
1.0
 40
1.0
 10
4.72701192
 20
3.3204176137
 30
0.0
 10
4.7285951483
 20
3.3190362649
 30
0.0
 10
4.7316305945
 20
3.316056896
 30
0.0
 10
4.7356862696
 20
3.3110606125
 30
0.0
 10
4.73924381
 20
3.3055578598
 30
0.0
 10
4.7422521273
 20
3.2996122944
 30
0.0
 10
4.7446775861
 20
3.2932979796
 30
0.0
 10
4.7464873714
 20
3.2866895512
 30
0.0
 10
4.7476558737
 20
3.2798672874
 30
0.0
 10
4.7479986522
 20
3.2752422717
 30
0.0
 10
4.7480595731
 20
3.272919678
 30
0.0
  0
SPLINE
  5
2D0
100
AcDbEntity
  8
ALL_ASSEMBLY_MEMBERS
100
AcDbSpline
 62
7
  6
CONTINUOUS
 70
0
 71
3
 72
11
 73
7
 74
0
 42
0.0000001
 43
0.0000001
 44
0.0000000001
 40
0.0
 40
0.0
 40
0.0
 40
0.0
 40
0.2513732975
 40
0.502399855
 40
0.7522104686
 40
1.0
 40
1.0
 40
1.0
 40
1.0
 10
4.7479923676
 20
3.2673191634
 30
0.0
 10
4.7478616728
 20
3.264710496
 30
0.0
 10
4.747324133
 20
3.2595063369
 30
0.0
 10
4.7456942121
 20
3.2518473931
 30
0.0
 10
4.7432633141
 20
3.2444428842
 30
0.0
 10
4.7411188397
 20
3.2397243895
 30
0.0
 10
4.7399227478
 20
3.2374443781
 30
0.0
  0
ENDSEC
  0
SECTION
  2
OBJECTS
  0
DICTIONARY
  5
C
100
AcDbDictionary
280
0
281
1
  3
ACAD_GROUP
350
D
  3
ACAD_MLINESTYLE
350
17
  3
ACAD_LAYOUT
350
1A
  3
ACAD_PLOTSETTINGS
350
19
  3
ACAD_PLOTSTYLENAME
350
E
  0
DICTIONARY
  5
D
102
{ACAD_REACTORS
330
C
102
}
100
AcDbDictionary
280
0
281
1
  0
ACDBDICTIONARYWDFLT
  5
E
102
{ACAD_REACTORS
330
C
102
}
100
AcDbDictionary
281
1
  3
Normal
350
F
100
AcDbDictionaryWithDefault
340
F
  0
DICTIONARY
  5
17
102
{ACAD_REACTORS
330
C
102
}
100
AcDbDictionary
280
0
281
1
  3
Standard
350
18
  0
DICTIONARY
  5
19
102
{ACAD_REACTORS
330
C
102
}
100
AcDbDictionary
281
1
  0
DICTIONARY
  5
1A
102
{ACAD_REACTORS
330
C
102
}
100
AcDbDictionary
281
1
  3
Model
350
2D1
  3
Layout1
350
2D2
  0
ACDBPLACEHOLDER
  5
F
102
{ACAD_REACTORS
330
E
102
}
  0
MLINESTYLE
  5
18
102
{ACAD_REACTORS
330
17
102
}
100
AcDbMlineStyle
  2
STANDARD
 70
0
  3

 62
256
 51
90.0
 52
90.0
 71
2
 49
0.5
 62
256
  6
BYLAYER
 49
-0.5
 62
256
  6
BYLAYER
  0
LAYOUT
  5
2D1
102
{ACAD_REACTORS
330
1A
102
}
100
AcDbPlotSettings
  1

  2
none_device
  4
ANSI_A_(11.00_x_8.50_Inches)
  6

 40
0.0
 41
0.0
 42
0.0
 43
0.0
 44
279.4
 45
215.9
 46
0.0
 47
0.0
 48
0.0
 49
0.0
140
0.0
141
0.0
142
1.0
143
1.0
 70
1024
 72
0
 73
0
 74
0
  7

 75
0
147
1.0
148
0.0
149
0.0
100
AcDbLayout
  1
Model
 70
0
 71
0
 10
0.0
 20
0.0
 11
11.0
 21
8.5
 12
0.0
 22
0.0
 32
0.0
 14
0.0
 24
0.0
 34
0.0
 15
0.0
 25
0.0
 35
0.0
146
0.0
 13
0.0
 23
0.0
 33
0.0
 16
1.0
 26
0.0
 36
0.0
 17
0.0
 27
1.0
 37
0.0
 76
0
330
21B
345
0
346
0
  0
LAYOUT
  5
2D2
102
{ACAD_REACTORS
330
1A
102
}
100
AcDbPlotSettings
  1

  2
none_device
  4
ANSI_A_(11.00_x_8.50_Inches)
  6

 40
0.0
 41
0.0
 42
0.0
 43
0.0
 44
279.4
 45
215.9
 46
0.0
 47
0.0
 48
0.0
 49
0.0
140
0.0
141
0.0
142
1.0
143
1.0
 70
0
 72
0
 73
0
 74
0
  7

 75
0
147
1.0
148
0.0
149
0.0
100
AcDbLayout
  1
Layout1
 70
0
 71
1
 10
0.0
 20
0.0
 11
11.0
 21
8.5
 12
0.0
 22
0.0
 32
0.0
 14
0.0
 24
0.0
 34
0.0
 15
0.0
 25
0.0
 35
0.0
146
0.0
 13
0.0
 23
0.0
 33
0.0
 16
1.0
 26
0.0
 36
0.0
 17
0.0
 27
1.0
 37
0.0
 76
0
330
21C
345
0
346
0
  0
ENDSEC
  0
EOF
