999
DXF file: 3-1623ts_front.dxf
999
Pro/ENGINEER 2013150 by Parametric Technology Corporation
  0
SECTION
  2
HEADER
  9
$ACADVER
  1
AC1021
  9
$DWGCODEPAGE
  3
ANSI_1252
  9
$EXTMAX
 10
11.0
 20
8.5
 30
0.0
  9
$EXTMIN
 10
0.0
 20
0.0
 30
0.0
  9
$LIMMIN
 10
0.0
 20
0.0
  9
$LIMMAX
 10
11.0
 20
8.5
  9
$VIEWCTR
 10
5.5
 20
4.25
  9
$VIEWSIZE
 40
8.5
  9
$CLAYER
  8
0
  9
$LTSCALE
 40
0.605
  9
$CELTYPE
  6
BYLAYER
  9
$DIMSCALE
 40
1.0
  9
$DIMASZ
 40
0.1
  9
$DIMEXO
 40
0.0625
  9
$DIMDLI
 40
0.418
  9
$DIMEXE
 40
0.125
  9
$DIMCEN
 40
0.099
  9
$DIMLFAC
 40
1.0
  9
$DIMBLK
  1
_FILLED
  9
$DIMTXT
 40
0.08
  9
$DIMTOL
 70
1
  9
$DIMLIM
 70
0
  9
$DIMTFAC
 40
1.0
  9
$DIMTP
 40
0.001
  9
$DIMTM
 40
0.001
  9
$DIMGAP
 40
0.09
  9
$DIMDSEP
 70
46
  9
$PDMODE
 70
3
  9
$PDSIZE
 40
0.06
  9
$HANDSEED
  5
36B
  9
$TILEMODE
 70
1
  9
$MEASUREMENT
 70
0
  9
$INSUNITS
 70
1
  0
ENDSEC
  0
SECTION
  2
CLASSES
  0
CLASS
  1
ACDBDICTIONARYWDFLT
  2
AcDbDictionaryWithDefault
  3
AutoCAD 2000
 90
0
 91
1
280
0
281
0
  0
CLASS
  1
ACDBPLACEHOLDER
  2
AcDbPlaceHolder
  3
AutoCAD 2000
 90
0
 91
1
280
0
281
0
  0
CLASS
  1
LAYOUT
  2
AcDbLayout
  3
AutoCAD 2000
 90
0
 91
0
280
0
281
0
  0
ENDSEC
  0
SECTION
  2
TABLES
  0
TABLE
  2
VPORT
  5
8
100
AcDbSymbolTable
 70
2
  0
VPORT
  5
1F4
100
AcDbSymbolTableRecord
100
AcDbViewportTableRecord
  2
*ACTIVE
 70
0
 10
0.0
 20
0.0
 11
1.0
 21
1.0
 12
5.5
 22
4.25
 13
0.0
 23
0.0
 14
1.0
 24
1.0
 15
0.0
 25
0.0
 16
0.0
 26
0.0
 36
1.0
 17
0.0
 27
0.0
 37
0.0
 40
8.5
 41
1.2941176471
 42
50.0
 43
0.0
 44
0.0
 50
0.0
 51
0.0
 71
0
 72
100
 73
1
 74
1
 75
0
 76
0
 77
0
 78
0
  0
ENDTAB
  0
TABLE
  2
LTYPE
  5
5
100
AcDbSymbolTable
 70
6
  0
LTYPE
  5
14
100
AcDbSymbolTableRecord
100
AcDbLinetypeTableRecord
  2
BYBLOCK
 70
0
  3

 72
65
 73
0
 40
0.0
  0
LTYPE
  5
15
100
AcDbSymbolTableRecord
100
AcDbLinetypeTableRecord
  2
BYLAYER
 70
0
  3

 72
65
 73
0
 40
0.0
  0
LTYPE
  5
16
100
AcDbSymbolTableRecord
100
AcDbLinetypeTableRecord
  2
CONTINUOUS
 70
64
  3
Solid line
 72
65
 73
0
 40
0.0
  0
LTYPE
  5
1F5
100
AcDbSymbolTableRecord
100
AcDbLinetypeTableRecord
  2
CENTER
 70
64
  3
____ _ ____ _ ____ _ ____ _ ____ _ ____ _ ____
 72
65
 73
4
 40
0.6
 49
0.375
 74
0
 49
-0.075
 74
0
 49
0.075
 74
0
 49
-0.075
 74
0
  0
LTYPE
  5
1F6
100
AcDbSymbolTableRecord
100
AcDbLinetypeTableRecord
  2
HIDDEN
 70
64
  3
- - - - - - - - - - - - - - - - - - - -
 72
65
 73
2
 40
0.2
 49
0.1
 74
0
 49
-0.1
 74
0
  0
LTYPE
  5
1F7
100
AcDbSymbolTableRecord
100
AcDbLinetypeTableRecord
  2
PHANTOM
 70
64
  3
_____ _ _ _____ _ _ _____ _ _ _____
 72
65
 73
6
 40
0.8
 49
0.45
 74
0
 49
-0.05
 74
0
 49
0.1
 74
0
 49
-0.05
 74
0
 49
0.1
 74
0
 49
-0.05
 74
0
  0
LTYPE
  5
1F8
100
AcDbSymbolTableRecord
100
AcDbLinetypeTableRecord
  2
DOT
 70
64
  3
. . . . . . . . . . . . . . . . . . . .
 72
65
 73
2
 40
0.2
 49
0.1
 74
0
 49
-0.1
 74
0
  0
LTYPE
  5
1F9
100
AcDbSymbolTableRecord
100
AcDbLinetypeTableRecord
  2
DASHED
 70
64
  3
- - - - - - - - - - - - - - - - - - - -
 72
65
 73
2
 40
0.2
 49
0.1
 74
0
 49
-0.1
 74
0
  0
ENDTAB
  0
TABLE
  2
LAYER
  5
2
100
AcDbSymbolTable
 70
36
  0
LAYER
  5
10
100
AcDbSymbolTableRecord
100
AcDbLayerTableRecord
  2
0
 70
0
 62
7
  6
CONTINUOUS
370
-3
390
F
  0
LAYER
  5
1FA
100
AcDbSymbolTableRecord
100
AcDbLayerTableRecord
  2
DEFAULT_1
 70
0
 62
7
  6
CENTER
370
-3
390
F
  0
LAYER
  5
1FB
100
AcDbSymbolTableRecord
100
AcDbLayerTableRecord
  2
DEFAULT_2
 70
0
 62
8
  6
HIDDEN
370
-3
390
F
  0
LAYER
  5
1FC
100
AcDbSymbolTableRecord
100
AcDbLayerTableRecord
  2
DEFAULT_3
 70
0
 62
7
  6
PHANTOM
370
-3
390
F
  0
LAYER
  5
1FD
100
AcDbSymbolTableRecord
100
AcDbLayerTableRecord
  2
ALL_ASSEMBLY_MEMBERS
 70
0
 62
7
  6
CONTINUOUS
370
-3
390
F
  0
LAYER
  5
1FE
100
AcDbSymbolTableRecord
100
AcDbLayerTableRecord
  2
ALL_FEATURES
 70
0
 62
7
  6
CONTINUOUS
370
-3
390
F
  0
LAYER
  5
1FF
100
AcDbSymbolTableRecord
100
AcDbLayerTableRecord
  2
AXES_FEATURES
 70
0
 62
7
  6
CONTINUOUS
370
-3
390
F
  0
LAYER
  5
200
100
AcDbSymbolTableRecord
100
AcDbLayerTableRecord
  2
CHAMFER_FEATURES
 70
0
 62
7
  6
CONTINUOUS
370
-3
390
F
  0
LAYER
  5
201
100
AcDbSymbolTableRecord
100
AcDbLayerTableRecord
  2
CURVES
 70
0
 62
7
  6
CONTINUOUS
370
-3
390
F
  0
LAYER
  5
202
100
AcDbSymbolTableRecord
100
AcDbLayerTableRecord
  2
CUT_FEATURES
 70
0
 62
7
  6
CONTINUOUS
370
-3
390
F
  0
LAYER
  5
203
100
AcDbSymbolTableRecord
100
AcDbLayerTableRecord
  2
DATUM_CURVES
 70
0
 62
7
  6
CONTINUOUS
370
-3
390
F
  0
LAYER
  5
204
100
AcDbSymbolTableRecord
100
AcDbLayerTableRecord
  2
DATUM_PLANES
 70
0
 62
7
  6
CONTINUOUS
370
-3
390
F
  0
LAYER
  5
205
100
AcDbSymbolTableRecord
100
AcDbLayerTableRecord
  2
DATUM_POINTS
 70
0
 62
7
  6
CONTINUOUS
370
-3
390
F
  0
LAYER
  5
206
100
AcDbSymbolTableRecord
100
AcDbLayerTableRecord
  2
DEFAULT_COORDINATE_SYSTEM
 70
0
 62
7
  6
CONTINUOUS
370
-3
390
F
  0
LAYER
  5
207
100
AcDbSymbolTableRecord
100
AcDbLayerTableRecord
  2
DEFAULT_DATUM_AXES
 70
0
 62
7
  6
CONTINUOUS
370
-3
390
F
  0
LAYER
  5
208
100
AcDbSymbolTableRecord
100
AcDbLayerTableRecord
  2
DEFAULT_DATUM_CURVES
 70
0
 62
7
  6
CONTINUOUS
370
-3
390
F
  0
LAYER
  5
209
100
AcDbSymbolTableRecord
100
AcDbLayerTableRecord
  2
DEFAULT_DATUM_PLANES
 70
0
 62
7
  6
CONTINUOUS
370
-3
390
F
  0
LAYER
  5
20A
100
AcDbSymbolTableRecord
100
AcDbLayerTableRecord
  2
DEFAULT_SURFACES
 70
0
 62
7
  6
CONTINUOUS
370
-3
390
F
  0
LAYER
  5
20B
100
AcDbSymbolTableRecord
100
AcDbLayerTableRecord
  2
DIMENSIONS
 70
0
 62
7
  6
CONTINUOUS
370
-3
390
F
  0
LAYER
  5
20C
100
AcDbSymbolTableRecord
100
AcDbLayerTableRecord
  2
HOLE_FEATURES
 70
0
 62
7
  6
CONTINUOUS
370
-3
390
F
  0
LAYER
  5
20D
100
AcDbSymbolTableRecord
100
AcDbLayerTableRecord
  2
INTFCLR_1
 70
0
 62
7
  6
CONTINUOUS
370
-3
390
F
  0
LAYER
  5
20E
100
AcDbSymbolTableRecord
100
AcDbLayerTableRecord
  2
NOTES
 70
0
 62
7
  6
CONTINUOUS
370
-3
390
F
  0
LAYER
  5
20F
100
AcDbSymbolTableRecord
100
AcDbLayerTableRecord
  2
PART_REFERENCE_DIMENSIONS
 70
0
 62
7
  6
CONTINUOUS
370
-3
390
F
  0
LAYER
  5
210
100
AcDbSymbolTableRecord
100
AcDbLayerTableRecord
  2
PLATED_SURFACE_AREA
 70
0
 62
7
  6
CONTINUOUS
370
-3
390
F
  0
LAYER
  5
211
100
AcDbSymbolTableRecord
100
AcDbLayerTableRecord
  2
POINTS
 70
0
 62
7
  6
CONTINUOUS
370
-3
390
F
  0
LAYER
  5
212
100
AcDbSymbolTableRecord
100
AcDbLayerTableRecord
  2
PROTRUSION_FEATURES
 70
0
 62
7
  6
CONTINUOUS
370
-3
390
F
  0
LAYER
  5
213
100
AcDbSymbolTableRecord
100
AcDbLayerTableRecord
  2
QUILTS
 70
0
 62
7
  6
CONTINUOUS
370
-3
390
F
  0
LAYER
  5
214
100
AcDbSymbolTableRecord
100
AcDbLayerTableRecord
  2
REFERENCE_DIMENSIONS
 70
0
 62
7
  6
CONTINUOUS
370
-3
390
F
  0
LAYER
  5
215
100
AcDbSymbolTableRecord
100
AcDbLayerTableRecord
  2
ROUND_FEATURES
 70
0
 62
7
  6
CONTINUOUS
370
-3
390
F
  0
LAYER
  5
216
100
AcDbSymbolTableRecord
100
AcDbLayerTableRecord
  2
SIZE_REF
 70
0
 62
7
  6
CONTINUOUS
370
-3
390
F
  0
LAYER
  5
217
100
AcDbSymbolTableRecord
100
AcDbLayerTableRecord
  2
SURFACE_FEATURES
 70
0
 62
7
  6
CONTINUOUS
370
-3
390
F
  0
ENDTAB
  0
TABLE
  2
STYLE
  5
3
100
AcDbSymbolTable
 70
1
  0
STYLE
  5
11
100
AcDbSymbolTableRecord
100
AcDbTextStyleTableRecord
  2
STANDARD
 70
0
 40
0.0
 41
0.8
 50
0.0
 71
0
 42
0.2
  3
txt
  4

  0
STYLE
  5
218
100
AcDbSymbolTableRecord
100
AcDbTextStyleTableRecord
  2
TEXTSTYLE_1
 70
0
 40
0.0
 41
0.8
 50
0.0
 71
0
 42
0.2
  3
gdt
  4

  0
ENDTAB
  0
TABLE
  2
VIEW
  5
6
100
AcDbSymbolTable
 70
0
  0
ENDTAB
  0
TABLE
  2
UCS
  5
7
100
AcDbSymbolTable
 70
0
  0
ENDTAB
  0
TABLE
  2
APPID
  5
9
100
AcDbSymbolTable
 70
1
  0
APPID
  5
219
100
AcDbSymbolTableRecord
100
AcDbRegAppTableRecord
  2
ACAD
 70
0
  0
ENDTAB
  0
TABLE
  2
BLOCK_RECORD
  5
1
100
AcDbSymbolTable
 70
0
  0
BLOCK_RECORD
  5
21A
100
AcDbSymbolTableRecord
100
AcDbBlockTableRecord
  2
*Model_Space
  0
BLOCK_RECORD
  5
21B
100
AcDbSymbolTableRecord
100
AcDbBlockTableRecord
  2
*Paper_Space
  0
ENDTAB
  0
TABLE
  2
DIMSTYLE
  5
A
100
AcDbSymbolTable
 70
1
100
AcDbDimStyleTable
 71
0
  0
DIMSTYLE
105
21C
100
AcDbSymbolTableRecord
100
AcDbDimStyleTableRecord
  2
STANDARD
 70
0
  3

  4

 40
1.0
 41
0.1
 42
0.0625
 43
0.38
 44
0.125
 45
0.0
 46
0.0
 47
0.001
 48
0.001
140
0.08
141
0.09
142
0.0
143
25.4
144
1.0
145
0.0
146
1.0
147
0.09
 71
1.0
 72
0.0
 73
1
 74
1
 75
0
 76
0
 77
0
 78
4
170
0
171
2
172
0
173
0
174
0
175
0
176
0
177
0
178
0
270
2
271
3
272
3
273
2
274
2
275
0
280
0
281
0
282
0
283
1
284
4
285
0
286
0
287
3
288
0
340
11
278
46
  0
ENDTAB
  0
ENDSEC
  0
SECTION
  2
BLOCKS
  0
BLOCK
  5
20
100
AcDbEntity
  8
0
100
AcDbBlockBegin
  2
*Model_Space
 70
0
 10
0.0
 20
0.0
 30
0.0
  3
*Model_Space
  1

  0
ENDBLK
  5
21
100
AcDbEntity
  8
0
100
AcDbBlockEnd
  0
BLOCK
  5
1C
100
AcDbEntity
  8
0
100
AcDbBlockBegin
  2
*Paper_Space
 70
0
 10
0.0
 20
0.0
 30
0.0
  3
*Paper_Space
  1

  0
ENDBLK
  5
1D
100
AcDbEntity
  8
0
100
AcDbBlockEnd
  0
ENDSEC
  0
SECTION
  2
ENTITIES
  0
LINE
  5
21D
100
AcDbEntity
  8
0
100
AcDbLine
 62
7
  6
CONTINUOUS
 10
0.0
 20
0.0
 11
0.0
 21
8.5
  0
LINE
  5
21E
100
AcDbEntity
  8
0
100
AcDbLine
 62
7
  6
CONTINUOUS
 10
0.0
 20
0.0
 11
11.0
 21
0.0
  0
LINE
  5
21F
100
AcDbEntity
  8
0
100
AcDbLine
 62
7
  6
CONTINUOUS
 10
0.0
 20
8.5
 11
11.0
 21
8.5
  0
LINE
  5
220
100
AcDbEntity
  8
0
100
AcDbLine
 62
7
  6
CONTINUOUS
 10
11.0
 20
0.0
 11
11.0
 21
8.5
  0
LINE
  5
221
100
AcDbEntity
  8
0
100
AcDbLine
 62
7
  6
CONTINUOUS
 10
3.5923486025
 20
2.3605007764
 11
6.3123486025
 21
2.3605007764
  0
LINE
  5
222
100
AcDbEntity
  8
0
100
AcDbLine
 62
9
  6
CONTINUOUS
 10
3.5773486025
 20
2.3755007764
 11
6.3273486025
 21
2.3755007764
  0
LINE
  5
223
100
AcDbEntity
  8
0
100
AcDbLine
 62
7
  6
CONTINUOUS
 10
3.5773486025
 20
6.4705007764
 11
3.5773486025
 21
2.3755007764
  0
LINE
  5
224
100
AcDbEntity
  8
0
100
AcDbLine
 62
9
  6
CONTINUOUS
 10
3.5923486025
 20
2.3605007764
 11
3.5923486025
 21
6.4855007764
  0
LINE
  5
225
100
AcDbEntity
  8
ALL_ASSEMBLY_MEMBERS
100
AcDbLine
 62
7
  6
CONTINUOUS
 10
5.0557573474
 20
2.9480007764
 11
4.8489398575
 21
2.9480007764
  0
LINE
  5
226
100
AcDbEntity
  8
ALL_ASSEMBLY_MEMBERS
100
AcDbLine
 62
9
  6
CONTINUOUS
 10
4.8467712638
 20
2.9686228109
 11
5.0579259419
 21
2.968622808
  0
LINE
  5
227
100
AcDbEntity
  8
0
100
AcDbLine
 62
7
  6
CONTINUOUS
 10
4.4098182192
 20
3.2494664029
 11
4.4137745624
 21
3.2426138155
  0
LINE
  5
228
100
AcDbEntity
  8
0
100
AcDbLine
 62
7
  6
CONTINUOUS
 10
4.4385676752
 20
3.3768878091
 11
4.4630901854
 21
3.3344135756
  0
LINE
  5
229
100
AcDbEntity
  8
0
100
AcDbLine
 62
7
  6
CONTINUOUS
 10
4.5029143608
 20
3.2890377182
 11
4.4967752075
 21
3.2996710436
  0
LINE
  5
22A
100
AcDbEntity
  8
0
100
AcDbLine
 62
7
  6
CONTINUOUS
 10
4.4818365968
 20
3.3255454765
 11
4.4487874842
 21
3.3827882186
  0
LINE
  5
22B
100
AcDbEntity
  8
0
100
AcDbLine
 62
7
  6
CONTINUOUS
 10
4.4187673873
 20
3.2918104729
 11
4.4135801087
 21
3.3033871898
  0
LINE
  5
22C
100
AcDbEntity
  8
0
100
AcDbLine
 62
7
  6
CONTINUOUS
 10
5.5734849069
 20
3.7302720715
 11
5.5848177361
 21
3.733308694
  0
LINE
  5
22D
100
AcDbEntity
  8
0
100
AcDbLine
 62
7
  6
CONTINUOUS
 10
4.3510416447
 20
3.5201825821
 11
4.4002820323
 21
3.528864991
  0
LINE
  5
22E
100
AcDbEntity
  8
0
100
AcDbLine
 62
7
  6
CONTINUOUS
 10
4.3981114301
 20
3.5411750879
 11
4.3488710425
 21
3.532492679
  0
LINE
  5
22F
100
AcDbEntity
  8
0
100
AcDbLine
 62
7
  6
CONTINUOUS
 10
5.4882033559
 20
3.5763646618
 11
5.5380130908
 21
3.5720068746
  0
LINE
  5
230
100
AcDbEntity
  8
0
100
AcDbLine
 62
7
  6
CONTINUOUS
 10
5.5391025376
 20
3.5844593084
 11
5.4892928027
 21
3.5888170955
  0
LINE
  5
231
100
AcDbEntity
  8
0
100
AcDbLine
 62
7
  6
CONTINUOUS
 10
4.3437647171
 20
3.8252620434
 11
4.4181263959
 21
3.8016138072
  0
LINE
  5
232
100
AcDbEntity
  8
0
100
AcDbLine
 62
7
  6
CONTINUOUS
 10
4.3148256474
 20
3.7273852293
 11
4.3261137668
 21
3.723717497
  0
LINE
  5
233
100
AcDbEntity
  8
0
100
AcDbLine
 62
7
  6
CONTINUOUS
 10
4.3196244671
 20
3.7516463523
 11
4.3940352321
 21
3.7274688291
  0
LINE
  5
234
100
AcDbEntity
  8
0
100
AcDbLine
 62
7
  6
CONTINUOUS
 10
4.3978294375
 20
3.7391461925
 11
4.3023345362
 21
3.7701743668
  0
LINE
  5
235
100
AcDbEntity
  8
0
100
AcDbLine
 62
7
  6
CONTINUOUS
 10
4.3388345395
 20
3.8012770015
 11
4.350122659
 21
3.7976092691
  0
LINE
  5
236
100
AcDbEntity
  8
0
100
AcDbLine
 62
7
  6
CONTINUOUS
 10
4.4218383287
 20
3.8130379618
 11
4.3263434275
 21
3.8440661361
  0
LINE
  5
237
100
AcDbEntity
  8
0
100
AcDbLine
 62
7
  6
CONTINUOUS
 10
4.3414152776
 20
3.8847132374
 11
4.3872723833
 21
3.8596286664
  0
LINE
  5
238
100
AcDbEntity
  8
0
100
AcDbLine
 62
7
  6
CONTINUOUS
 10
4.3795042368
 20
3.8769993939
 11
4.3556090145
 21
3.8904295506
  0
LINE
  5
239
100
AcDbEntity
  8
0
100
AcDbLine
 62
7
  6
CONTINUOUS
 10
5.4239061754
 20
3.2100083779
 11
5.4335169653
 21
3.2032788303
  0
LINE
  5
23A
100
AcDbEntity
  8
0
100
AcDbLine
 62
7
  6
CONTINUOUS
 10
4.3488710425
 20
3.532492679
 11
4.3510416447
 21
3.5201825821
  0
LINE
  5
23B
100
AcDbEntity
  8
0
100
AcDbLine
 62
7
  6
CONTINUOUS
 10
4.4002820323
 20
3.528864991
 11
4.3981114301
 21
3.5411750879
  0
LINE
  5
23C
100
AcDbEntity
  8
0
100
AcDbLine
 62
7
  6
CONTINUOUS
 10
5.5719474047
 20
3.7813414245
 11
5.5198263617
 21
3.7774035519
  0
LINE
  5
23D
100
AcDbEntity
  8
0
100
AcDbLine
 62
7
  6
CONTINUOUS
 10
5.5358020538
 20
3.7670660698
 11
5.5631568626
 21
3.7688168578
  0
LINE
  5
23E
100
AcDbEntity
  8
0
100
AcDbLine
 62
7
  6
CONTINUOUS
 10
4.3679401866
 20
3.9283809958
 11
4.3567818132
 21
3.932006571
  0
LINE
  5
23F
100
AcDbEntity
  8
0
100
AcDbLine
 62
7
  6
CONTINUOUS
 10
5.4680445172
 20
3.2691199237
 11
5.4758672526
 21
3.2636423855
  0
LINE
  5
240
100
AcDbEntity
  8
0
100
AcDbLine
 62
7
  6
CONTINUOUS
 10
5.5129971338
 20
3.3166693513
 11
5.5033304682
 21
3.3234380234
  0
LINE
  5
241
100
AcDbEntity
  8
0
100
AcDbLine
 62
7
  6
CONTINUOUS
 10
4.4095899314
 20
3.8636378028
 11
4.4066440005
 21
3.8510392964
  0
LINE
  5
242
100
AcDbEntity
  8
0
100
AcDbLine
 62
7
  6
CONTINUOUS
 10
4.3263434275
 20
3.8440661361
 11
4.3238982738
 21
3.8365407269
  0
LINE
  5
243
100
AcDbEntity
  8
0
100
AcDbLine
 62
7
  6
CONTINUOUS
 10
4.3023345362
 20
3.7701743668
 11
4.2998893816
 21
3.7626489548
  0
LINE
  5
244
100
AcDbEntity
  8
0
100
AcDbLine
 62
7
  6
CONTINUOUS
 10
4.3567818132
 20
3.932006571
 11
4.3414152776
 21
3.8847132374
  0
LINE
  5
245
100
AcDbEntity
  8
0
100
AcDbLine
 62
7
  6
CONTINUOUS
 10
4.3556090145
 20
3.8904295506
 11
4.3679401866
 21
3.9283809958
  0
LINE
  5
246
100
AcDbEntity
  8
0
100
AcDbLine
 62
7
  6
CONTINUOUS
 10
4.3940352321
 20
3.7274688291
 11
4.3978294375
 21
3.7391461925
  0
LINE
  5
247
100
AcDbEntity
  8
0
100
AcDbLine
 62
7
  6
CONTINUOUS
 10
4.4181263959
 20
3.8016138072
 11
4.4218383287
 21
3.8130379618
  0
LINE
  5
248
100
AcDbEntity
  8
0
100
AcDbLine
 62
7
  6
CONTINUOUS
 10
5.4620392821
 20
3.2440129202
 11
5.425519936
 21
3.2814087398
  0
LINE
  5
249
100
AcDbEntity
  8
0
100
AcDbLine
 62
7
  6
CONTINUOUS
 10
5.4278699422
 20
3.2625258443
 11
5.4467944558
 21
3.2426962298
  0
LINE
  5
24A
100
AcDbEntity
  8
0
100
AcDbLine
 62
7
  6
CONTINUOUS
 10
4.6150527976
 20
4.0737021333
 11
4.5845571677
 21
4.1133288107
  0
LINE
  5
24B
100
AcDbEntity
  8
0
100
AcDbLine
 62
7
  6
CONTINUOUS
 10
4.5747605095
 20
4.1059464993
 11
4.6048512607
 21
4.0660147238
  0
LINE
  5
24C
100
AcDbEntity
  8
0
100
AcDbLine
 62
7
  6
CONTINUOUS
 10
4.3872723833
 20
3.8596286664
 11
4.3922619537
 21
3.8701286791
  0
LINE
  5
24D
100
AcDbEntity
  8
0
100
AcDbLine
 62
9
  6
CONTINUOUS
 10
4.8560986025
 20
4.1138866032
 11
5.0485986025
 21
4.1138866032
  0
LINE
  5
24E
100
AcDbEntity
  8
0
100
AcDbLine
 62
7
  6
CONTINUOUS
 10
4.8610986025
 20
4.1188866032
 11
5.0435986025
 21
4.1188866032
  0
LINE
  5
24F
100
AcDbEntity
  8
0
100
AcDbLine
 62
7
  6
CONTINUOUS
 10
4.8640663204
 20
4.1805265372
 11
4.8763446269
 21
4.1805265372
  0
LINE
  5
250
100
AcDbEntity
  8
0
100
AcDbLine
 62
7
  6
CONTINUOUS
 10
4.8395097044
 20
4.2558334951
 11
4.8395097044
 21
4.2439644639
  0
LINE
  5
251
100
AcDbEntity
  8
0
100
AcDbLine
 62
7
  6
CONTINUOUS
 10
4.8560986025
 20
4.0374360824
 11
4.8560986025
 21
4.1138866032
  0
LINE
  5
252
100
AcDbEntity
  8
0
100
AcDbLine
 62
7
  6
CONTINUOUS
 10
4.8640663204
 20
4.2587666456
 11
4.8640663204
 21
4.1805265372
  0
LINE
  5
253
100
AcDbEntity
  8
0
100
AcDbLine
 62
7
  6
CONTINUOUS
 10
4.8763446269
 20
4.1805265372
 11
4.8763446269
 21
4.2809358184
  0
LINE
  5
254
100
AcDbEntity
  8
ALL_ASSEMBLY_MEMBERS
100
AcDbLine
 62
7
  6
CONTINUOUS
 10
4.8460042862
 20
5.0296877613
 11
4.8289521577
 21
4.5437020992
  0
LINE
  5
255
100
AcDbEntity
  8
ALL_ASSEMBLY_MEMBERS
100
AcDbLine
 62
7
  6
CONTINUOUS
 10
4.8460042862
 20
3.4546877613
 11
4.8289521577
 21
2.9687020992
  0
LINE
  5
256
100
AcDbEntity
  8
0
100
AcDbLine
 62
7
  6
CONTINUOUS
 10
4.5845571677
 20
4.1133288107
 11
4.5747605095
 21
4.1059464993
  0
LINE
  5
257
100
AcDbEntity
  8
0
100
AcDbLine
 62
7
  6
CONTINUOUS
 10
4.6048512607
 20
4.0660147238
 11
4.6150527976
 21
4.0737021333
  0
LINE
  5
258
100
AcDbEntity
  8
0
100
AcDbLine
 62
7
  6
CONTINUOUS
 10
4.8763446269
 20
4.2809358184
 11
4.8684319404
 21
4.2809358184
  0
LINE
  5
259
100
AcDbEntity
  8
0
100
AcDbLine
 62
7
  6
CONTINUOUS
 10
5.2895864029
 20
4.0558684034
 11
5.2991619585
 21
4.0478335583
  0
LINE
  5
25A
100
AcDbEntity
  8
ALL_ASSEMBLY_MEMBERS
100
AcDbLine
 62
7
  6
CONTINUOUS
 10
5.0586929188
 20
3.4546877613
 11
5.0757450473
 21
2.9687020992
  0
LINE
  5
25B
100
AcDbEntity
  8
ALL_ASSEMBLY_MEMBERS
100
AcDbLine
 62
7
  6
CONTINUOUS
 10
5.0586929188
 20
5.0296877613
 11
5.0757450473
 21
4.5437020992
  0
LINE
  5
25C
100
AcDbEntity
  8
0
100
AcDbLine
 62
7
  6
CONTINUOUS
 10
5.0485986025
 20
4.0374360824
 11
5.0485986025
 21
4.1138866032
  0
LINE
  5
25D
100
AcDbEntity
  8
ALL_ASSEMBLY_MEMBERS
100
AcDbLine
 62
7
  6
CONTINUOUS
 10
5.0557573474
 20
4.5230007764
 11
4.8489398575
 21
4.5230007764
  0
LINE
  5
25E
100
AcDbEntity
  8
0
100
AcDbLine
 62
7
  6
CONTINUOUS
 10
5.331301339
 20
4.0861357805
 11
5.3217257834
 21
4.0941706256
  0
LINE
  5
25F
100
AcDbEntity
  8
ALL_ASSEMBLY_MEMBERS
100
AcDbLine
 62
9
  6
CONTINUOUS
 10
4.8467712638
 20
4.5436228109
 11
5.0579259419
 21
4.543622808
  0
LINE
  5
260
100
AcDbEntity
  8
0
100
AcDbLine
 62
7
  6
CONTINUOUS
 10
5.5032928231
 20
3.7618861994
 11
5.4989018519
 21
3.7740566591
  0
LINE
  5
261
100
AcDbEntity
  8
0
100
AcDbLine
 62
7
  6
CONTINUOUS
 10
5.3217257834
 20
4.0941706256
 11
5.2895864029
 21
4.0558684034
  0
LINE
  5
262
100
AcDbEntity
  8
0
100
AcDbLine
 62
7
  6
CONTINUOUS
 10
5.2991619585
 20
4.0478335583
 11
5.331301339
 21
4.0861357805
  0
LINE
  5
263
100
AcDbEntity
  8
0
100
AcDbLine
 62
7
  6
CONTINUOUS
 10
5.5631568626
 20
3.7688168578
 11
5.5734849069
 21
3.7302720715
  0
LINE
  5
264
100
AcDbEntity
  8
0
100
AcDbLine
 62
7
  6
CONTINUOUS
 10
5.5848177361
 20
3.733308694
 11
5.5719474047
 21
3.7813414245
  0
LINE
  5
265
100
AcDbEntity
  8
0
100
AcDbLine
 62
7
  6
CONTINUOUS
 10
5.5198263617
 20
3.7774035519
 11
5.5213604727
 21
3.7658799856
  0
LINE
  5
266
100
AcDbEntity
  8
0
100
AcDbLine
 62
7
  6
CONTINUOUS
 10
5.4892928027
 20
3.5888170955
 11
5.4882033559
 21
3.5763646618
  0
LINE
  5
267
100
AcDbEntity
  8
0
100
AcDbLine
 62
7
  6
CONTINUOUS
 10
5.5380130908
 20
3.5720068746
 11
5.5391025376
 21
3.5844593084
  0
LINE
  5
268
100
AcDbEntity
  8
0
100
AcDbLine
 62
7
  6
CONTINUOUS
 10
4.4487874842
 20
3.3827882186
 11
4.4385676752
 21
3.3768878091
  0
LINE
  5
269
100
AcDbEntity
  8
0
100
AcDbLine
 62
7
  6
CONTINUOUS
 10
4.4967752075
 20
3.2996710436
 11
4.4098182192
 21
3.2494664029
  0
LINE
  5
26A
100
AcDbEntity
  8
0
100
AcDbLine
 62
7
  6
CONTINUOUS
 10
4.4351564392
 20
3.249917664
 11
4.5029143608
 21
3.2890377182
  0
LINE
  5
26B
100
AcDbEntity
  8
0
100
AcDbLine
 62
7
  6
CONTINUOUS
 10
4.4499749301
 20
3.230117586
 11
4.4602538126
 21
3.2360521016
  0
LINE
  5
26C
100
AcDbEntity
  8
0
100
AcDbLine
 62
7
  6
CONTINUOUS
 10
5.4030054006
 20
3.2840998033
 11
5.4095060518
 21
3.2952865031
  0
LINE
  5
26D
100
AcDbEntity
  8
0
100
AcDbLine
 62
7
  6
CONTINUOUS
 10
5.4241229059
 20
3.3618288968
 11
5.4168847316
 21
3.3514917126
  0
LINE
  5
26E
100
AcDbEntity
  8
0
100
AcDbLine
 62
7
  6
CONTINUOUS
 10
5.5033304682
 20
3.3234380234
 11
5.4752385269
 21
3.2833185734
  0
LINE
  5
26F
100
AcDbEntity
  8
0
100
AcDbLine
 62
7
  6
CONTINUOUS
 10
5.4467944558
 20
3.2426962298
 11
5.4239061754
 21
3.2100083779
  0
LINE
  5
270
100
AcDbEntity
  8
0
100
AcDbLine
 62
7
  6
CONTINUOUS
 10
5.4335169653
 20
3.2032788303
 11
5.4620392821
 21
3.2440129202
  0
LINE
  5
271
100
AcDbEntity
  8
0
100
AcDbLine
 62
7
  6
CONTINUOUS
 10
5.4758672526
 20
3.2636423855
 11
5.5129971338
 21
3.3166693513
  0
LINE
  5
272
100
AcDbEntity
  8
0
100
AcDbLine
 62
7
  6
CONTINUOUS
 10
5.425519936
 20
3.2814087398
 11
5.4176784796
 21
3.272826337
  0
LINE
  5
273
100
AcDbEntity
  8
0
100
AcDbLine
 62
9
  6
CONTINUOUS
 10
6.3123486025
 20
2.3605007764
 11
6.3123486025
 21
6.4855007764
  0
LINE
  5
274
100
AcDbEntity
  8
0
100
AcDbLine
 62
7
  6
CONTINUOUS
 10
6.3273486025
 20
2.3755007764
 11
6.3273486025
 21
6.4705007764
  0
LINE
  5
275
100
AcDbEntity
  8
0
100
AcDbLine
 62
9
  6
CONTINUOUS
 10
3.5773486025
 20
6.4705007764
 11
6.3273486025
 21
6.4705007764
  0
LINE
  5
276
100
AcDbEntity
  8
0
100
AcDbLine
 62
7
  6
CONTINUOUS
 10
6.3123486025
 20
6.4855007764
 11
3.5923486025
 21
6.4855007764
  0
ARC
  5
277
100
AcDbEntity
  8
ALL_ASSEMBLY_MEMBERS
100
AcDbCircle
 62
9
  6
CONTINUOUS
 10
3.0018410682
 20
2.9181946828
 40
1.9320069666
100
AcDbArc
 50
15.4946877883
 51
15.8602385488
  0
ARC
  5
278
100
AcDbEntity
  8
0
100
AcDbCircle
 62
7
  6
CONTINUOUS
 10
3.5923486025
 20
2.3755007764
 40
0.015
100
AcDbArc
 50
180.0
 51
270.0
  0
ARC
  5
279
100
AcDbEntity
  8
ALL_ASSEMBLY_MEMBERS
100
AcDbCircle
 62
7
  6
CONTINUOUS
 10
4.8489398575
 20
2.9680007764
 40
0.02
100
AcDbArc
 50
177.9904461865
 51
270.0000001372
  0
ARC
  5
27A
100
AcDbEntity
  8
0
100
AcDbCircle
 62
7
  6
CONTINUOUS
 10
4.9523486025
 20
3.6355007764
 40
0.4183070866
100
AcDbArc
 50
103.3078739336
 51
254.154537397
  0
ARC
  5
27B
100
AcDbEntity
  8
0
100
AcDbCircle
 62
7
  6
CONTINUOUS
 10
4.9523486025
 20
3.6355007764
 40
0.4183070866
100
AcDbArc
 50
285.845462603
 51
76.6921260664
  0
ARC
  5
27C
100
AcDbEntity
  8
ALL_FEATURES
100
AcDbCircle
 62
7
  6
CONTINUOUS
 10
4.9523486025
 20
3.6355007764
 40
0.4133858268
100
AcDbArc
 50
286.0016438415
 51
253.9983561585
  0
ARC
  5
27D
100
AcDbEntity
  8
ALL_FEATURES
100
AcDbCircle
 62
7
  6
CONTINUOUS
 10
4.9523486025
 20
3.6355007764
 40
0.3275
100
AcDbArc
 50
289.7818453606
 51
250.2181546394
  0
CIRCLE
  5
27E
100
AcDbEntity
  8
ALL_ASSEMBLY_MEMBERS
100
AcDbCircle
 62
7
  6
CONTINUOUS
 10
4.9523486025
 20
3.6355007764
 40
0.2
  0
CIRCLE
  5
27F
100
AcDbEntity
  8
ALL_ASSEMBLY_MEMBERS
100
AcDbCircle
 62
9
  6
CONTINUOUS
 10
4.9523486025
 20
3.6355007764
 40
0.19375
  0
CIRCLE
  5
280
100
AcDbEntity
  8
ALL_ASSEMBLY_MEMBERS
100
AcDbCircle
 62
7
  6
CONTINUOUS
 10
4.9523486025
 20
3.6355007764
 40
0.15625
  0
CIRCLE
  5
281
100
AcDbEntity
  8
ALL_ASSEMBLY_MEMBERS
100
AcDbCircle
 62
9
  6
CONTINUOUS
 10
4.9523486025
 20
3.6355007764
 40
0.1412499922
  0
CIRCLE
  5
282
100
AcDbEntity
  8
ALL_ASSEMBLY_MEMBERS
100
AcDbCircle
 62
7
  6
CONTINUOUS
 10
4.9523486025
 20
3.6355007764
 40
0.13125
  0
ARC
  5
283
100
AcDbEntity
  8
ALL_ASSEMBLY_MEMBERS
100
AcDbCircle
 62
7
  6
CONTINUOUS
 10
4.8260165863
 20
3.4553890841
 40
0.02
100
AcDbArc
 50
357.990446187
 51
54.9538230503
  0
ARC
  5
284
100
AcDbEntity
  8
0
100
AcDbCircle
 62
7
  6
CONTINUOUS
 10
4.8610986025
 20
4.1138866032
 40
0.005
100
AcDbArc
 50
90.0
 51
180.0
  0
ARC
  5
285
100
AcDbEntity
  8
ALL_ASSEMBLY_MEMBERS
100
AcDbCircle
 62
9
  6
CONTINUOUS
 10
3.0018410682
 20
4.4931946828
 40
1.9320069666
100
AcDbArc
 50
15.4946877883
 51
15.8602385488
  0
ARC
  5
286
100
AcDbEntity
  8
0
100
AcDbCircle
 62
7
  6
CONTINUOUS
 10
4.9523486025
 20
5.2105007764
 40
0.413385
100
AcDbArc
 50
286.0021638257
 51
253.9978361743
  0
ARC
  5
287
100
AcDbEntity
  8
0
100
AcDbCircle
 62
7
  6
CONTINUOUS
 10
4.9523486025
 20
5.2105007764
 40
0.3355
100
AcDbArc
 50
289.3417123195
 51
250.6582876805
  0
ARC
  5
288
100
AcDbEntity
  8
ALL_FEATURES
100
AcDbCircle
 62
7
  6
CONTINUOUS
 10
4.9523486025
 20
5.2105007764
 40
0.3257992626
100
AcDbArc
 50
289.8748313745
 51
250.1260687715
  0
ARC
  5
289
100
AcDbEntity
  8
ALL_FEATURES
100
AcDbCircle
 62
7
  6
CONTINUOUS
 10
4.9523486025
 20
5.2105007764
 40
0.32375
100
AcDbArc
 50
289.9916492741
 51
250.0083507259
  0
CIRCLE
  5
28A
100
AcDbEntity
  8
ALL_ASSEMBLY_MEMBERS
100
AcDbCircle
 62
7
  6
CONTINUOUS
 10
4.9523486025
 20
5.2105007764
 40
0.2
  0
CIRCLE
  5
28B
100
AcDbEntity
  8
ALL_ASSEMBLY_MEMBERS
100
AcDbCircle
 62
9
  6
CONTINUOUS
 10
4.9523486025
 20
5.2105007764
 40
0.19375
  0
CIRCLE
  5
28C
100
AcDbEntity
  8
ALL_ASSEMBLY_MEMBERS
100
AcDbCircle
 62
7
  6
CONTINUOUS
 10
4.9523486025
 20
5.2105007764
 40
0.15625
  0
CIRCLE
  5
28D
100
AcDbEntity
  8
ALL_ASSEMBLY_MEMBERS
100
AcDbCircle
 62
9
  6
CONTINUOUS
 10
4.9523486025
 20
5.2105007764
 40
0.1412499922
  0
CIRCLE
  5
28E
100
AcDbEntity
  8
ALL_ASSEMBLY_MEMBERS
100
AcDbCircle
 62
7
  6
CONTINUOUS
 10
4.9523486025
 20
5.2105007764
 40
0.13125
  0
ARC
  5
28F
100
AcDbEntity
  8
ALL_ASSEMBLY_MEMBERS
100
AcDbCircle
 62
7
  6
CONTINUOUS
 10
4.8260165863
 20
5.0303890841
 40
0.02
100
AcDbArc
 50
357.990446187
 51
54.9538230503
  0
ARC
  5
290
100
AcDbEntity
  8
ALL_ASSEMBLY_MEMBERS
100
AcDbCircle
 62
7
  6
CONTINUOUS
 10
4.8489398575
 20
4.5430007764
 40
0.02
100
AcDbArc
 50
177.9904461866
 51
270.0000001366
  0
ARC
  5
291
100
AcDbEntity
  8
0
100
AcDbCircle
 62
7
  6
CONTINUOUS
 10
3.5923486025
 20
6.4705007764
 40
0.015
100
AcDbArc
 50
90.0
 51
180.0
  0
ARC
  5
292
100
AcDbEntity
  8
ALL_ASSEMBLY_MEMBERS
100
AcDbCircle
 62
9
  6
CONTINUOUS
 10
6.9277421911
 20
2.9112222578
 40
1.9578512396
100
AcDbArc
 50
164.1425149262
 51
164.5032426055
  0
ARC
  5
293
100
AcDbEntity
  8
0
100
AcDbCircle
 62
7
  6
CONTINUOUS
 10
5.3088440563
 20
3.2288824446
 40
0.1642024482
100
AcDbArc
 50
25.7192428244
 51
38.8502571725
  0
ARC
  5
294
100
AcDbEntity
  8
ALL_ASSEMBLY_MEMBERS
100
AcDbCircle
 62
7
  6
CONTINUOUS
 10
5.0786806187
 20
3.4553890841
 40
0.02
100
AcDbArc
 50
125.0461769497
 51
182.009553813
  0
ARC
  5
295
100
AcDbEntity
  8
ALL_ASSEMBLY_MEMBERS
100
AcDbCircle
 62
7
  6
CONTINUOUS
 10
5.0557573474
 20
2.9680007764
 40
0.02
100
AcDbArc
 50
269.9999998707
 51
2.0095538134
  0
ARC
  5
296
100
AcDbEntity
  8
0
100
AcDbCircle
 62
7
  6
CONTINUOUS
 10
6.3123486025
 20
2.3755007764
 40
0.015
100
AcDbArc
 50
270.0
 51
360.0
  0
ARC
  5
297
100
AcDbEntity
  8
0
100
AcDbCircle
 62
7
  6
CONTINUOUS
 10
5.0435986025
 20
4.1138866032
 40
0.005
100
AcDbArc
 50
0.0
 51
90.0
  0
ARC
  5
298
100
AcDbEntity
  8
ALL_ASSEMBLY_MEMBERS
100
AcDbCircle
 62
9
  6
CONTINUOUS
 10
6.9277421912
 20
4.4862222578
 40
1.9578512397
100
AcDbArc
 50
164.1425149262
 51
164.5032426055
  0
ARC
  5
299
100
AcDbEntity
  8
ALL_ASSEMBLY_MEMBERS
100
AcDbCircle
 62
7
  6
CONTINUOUS
 10
5.0786806187
 20
5.0303890841
 40
0.02
100
AcDbArc
 50
125.0461769497
 51
182.009553813
  0
ARC
  5
29A
100
AcDbEntity
  8
ALL_ASSEMBLY_MEMBERS
100
AcDbCircle
 62
7
  6
CONTINUOUS
 10
5.0557573474
 20
4.5430007764
 40
0.02
100
AcDbArc
 50
269.9999998707
 51
2.0095538134
  0
ARC
  5
29B
100
AcDbEntity
  8
0
100
AcDbCircle
 62
7
  6
CONTINUOUS
 10
6.3123486025
 20
6.4705007764
 40
0.015
100
AcDbArc
 50
0.0
 51
90.0
  0
SPLINE
  5
29C
100
AcDbEntity
  8
ALL_ASSEMBLY_MEMBERS
100
AcDbSpline
 62
9
  6
CONTINUOUS
 70
0
 71
3
 72
14
 73
10
 74
0
 42
0.0000001
 43
0.0000001
 44
0.0000000001
 40
0.0
 40
0.0
 40
0.0
 40
0.0
 40
0.2491264382
 40
0.3736970939
 40
0.4982898408
 40
0.6229737278
 40
0.747888521
 40
0.8733504289
 40
1.0
 40
1.0
 40
1.0
 40
1.0
 10
4.8375010048
 20
5.0467633552
 30
0.0
 10
4.8398666075
 20
5.0451038706
 30
0.0
 10
4.843320825
 20
5.0424746291
 30
0.0
 10
4.8476825821
 20
5.0386802151
 30
0.0
 10
4.850809259
 20
5.0356723788
 30
0.0
 10
4.8537491037
 20
5.0324750131
 30
0.0
 10
4.8564370127
 20
5.0290463658
 30
0.0
 10
4.8587580111
 20
5.0253287317
 30
0.0
 10
4.859898347
 20
5.0226095815
 30
0.0
 10
4.8602988375
 20
5.0211962122
 30
0.0
  0
SPLINE
  5
29D
100
AcDbEntity
  8
ALL_ASSEMBLY_MEMBERS
100
AcDbSpline
 62
9
  6
CONTINUOUS
 70
0
 71
3
 72
25
 73
21
 74
0
 42
0.0000001
 43
0.0000001
 44
0.0000000001
 40
0.0
 40
0.0
 40
0.0
 40
0.0
 40
0.0018274203
 40
0.0034510112
 40
0.0056146614
 40
0.0116139607
 40
0.0198728285
 40
0.0303956633
 40
0.0431760885
 40
0.0754445945
 40
0.1164077569
 40
0.1657152734
 40
0.2230039401
 40
0.2877889358
 40
0.359492259
 40
0.4375317169
 40
0.5212802214
 40
0.6100525985
 40
0.799827665
 40
1.0
 40
1.0
 40
1.0
 40
1.0
 10
4.8289521577
 20
4.5437020992
 30
0.0
 10
4.8289525388
 20
4.5437129614
 30
0.0
 10
4.828973554
 20
4.5437275265
 30
0.0
 10
4.8290029783
 20
4.5437393048
 30
0.0
 10
4.8290596941
 20
4.5437560053
 30
0.0
 10
4.8291553507
 20
4.5437734728
 30
0.0
 10
4.8293017869
 20
4.5437925049
 30
0.0
 10
4.8294886393
 20
4.5438098801
 30
0.0
 10
4.8298184123
 20
4.5438330077
 30
0.0
 10
4.8303295274
 20
4.5438555689
 30
0.0
 10
4.8310581223
 20
4.5438747957
 30
0.0
 10
4.8319356884
 20
4.5438870554
 30
0.0
 10
4.8329550057
 20
4.5438921859
 30
0.0
 10
4.8341075344
 20
4.5438900555
 30
0.0
 10
4.8353834478
 20
4.5438806889
 30
0.0
 10
4.836772084
 20
4.543864078
 30
0.0
 10
4.8382621508
 20
4.5438403281
 30
0.0
 10
4.8404165683
 20
4.5437984799
 30
0.0
 10
4.8432630213
 20
4.5437294793
 30
0.0
 10
4.845581302
 20
4.5436609432
 30
0.0
 10
4.8467712514
 20
4.54362279
 30
0.0
  0
LINE
  5
29E
100
AcDbEntity
  8
ALL_ASSEMBLY_MEMBERS
100
AcDbLine
 62
9
  6
CONTINUOUS
 10
4.8636296569
 20
5.0093284677
 11
4.8467712605
 21
4.5436227814
  0
SPLINE
  5
29F
100
AcDbEntity
  8
ALL_ASSEMBLY_MEMBERS
100
AcDbSpline
 62
9
  6
CONTINUOUS
 70
0
 71
3
 72
18
 73
14
 74
0
 42
0.0000001
 43
0.0000001
 44
0.0000000001
 40
0.0
 40
0.0
 40
0.0
 40
0.0
 40
0.037919827
 40
0.0771072174
 40
0.1185417999
 40
0.1630173185
 40
0.211136349
 40
0.2632776407
 40
0.3802143498
 40
0.514212892
 40
0.6639643416
 40
0.8271645198
 40
1.0
 40
1.0
 40
1.0
 40
1.0
 10
5.0586928613
 20
5.0296877593
 30
0.0
 10
5.0587007296
 20
5.0294636097
 30
0.0
 10
5.0586708149
 20
5.0290050613
 30
0.0
 10
5.0584923079
 20
5.0283232077
 30
0.0
 10
5.058183131
 20
5.0276473243
 30
0.0
 10
5.0577461088
 20
5.0269827283
 30
0.0
 10
5.0571840639
 20
5.0263341719
 30
0.0
 10
5.0562384443
 20
5.025461441
 30
0.0
 10
5.0547517227
 20
5.0244436002
 30
0.0
 10
5.0526254885
 20
5.0233852379
 30
0.0
 10
5.0501414404
 20
5.0224677578
 30
0.0
 10
5.0473641193
 20
5.0217191418
 30
0.0
 10
5.0454089102
 20
5.0213503249
 30
0.0
 10
5.0443982932
 20
5.0211963121
 30
0.0
  0
SPLINE
  5
2A0
100
AcDbEntity
  8
ALL_ASSEMBLY_MEMBERS
100
AcDbSpline
 62
9
  6
CONTINUOUS
 70
0
 71
3
 72
27
 73
23
 74
0
 42
0.0000001
 43
0.0000001
 44
0.0000000001
 40
0.0
 40
0.0
 40
0.0
 40
0.0
 40
0.0950871363
 40
0.1898008488
 40
0.2830156402
 40
0.3736455461
 40
0.4608101518
 40
0.5437037459
 40
0.6215140833
 40
0.6935005914
 40
0.7589941828
 40
0.8173476403
 40
0.868014853
 40
0.9105627163
 40
0.9286621911
 40
0.9445775715
 40
0.9582965424
 40
0.9698815522
 40
0.9794597639
 40
0.9872824329
 40
0.9938439711
 40
1.0
 40
1.0
 40
1.0
 40
1.0
 10
4.8467712514
 20
4.54362279
 30
0.0
 10
4.8467875428
 20
4.5429574808
 30
0.0
 10
4.8468077395
 20
4.5416291832
 30
0.0
 10
4.8468245351
 20
4.5396484662
 30
0.0
 10
4.8468494745
 20
4.5376989639
 30
0.0
 10
4.8469079934
 20
4.5358029668
 30
0.0
 10
4.8469980816
 20
4.5339805628
 30
0.0
 10
4.8471111557
 20
4.532249377
 30
0.0
 10
4.8472390391
 20
4.5306257732
 30
0.0
 10
4.8473793973
 20
4.5291254491
 30
0.0
 10
4.8475342532
 20
4.5277634798
 30
0.0
 10
4.8477057108
 20
4.5265539342
 30
0.0
 10
4.8478924345
 20
4.5255094459
 30
0.0
 10
4.8480604074
 20
4.524748356
 30
0.0
 10
4.8481974501
 20
4.524230246
 30
0.0
 10
4.8482928916
 20
4.5239100168
 30
0.0
 10
4.848386612
 20
4.5236370428
 30
0.0
 10
4.8484813225
 20
4.523411718
 30
0.0
 10
4.8485798396
 20
4.523233708
 30
0.0
 10
4.8486860301
 20
4.5231021928
 30
0.0
 10
4.8488065468
 20
4.5230185857
 30
0.0
 10
4.848896772
 20
4.5230007764
 30
0.0
 10
4.8489398576
 20
4.5230007764
 30
0.0
  0
SPLINE
  5
2A1
100
AcDbEntity
  8
ALL_ASSEMBLY_MEMBERS
100
AcDbSpline
 62
9
  6
CONTINUOUS
 70
0
 71
3
 72
27
 73
23
 74
0
 42
0.0000001
 43
0.0000001
 44
0.0000000001
 40
0.0
 40
0.0
 40
0.0
 40
0.0
 40
0.0950871628
 40
0.1898009032
 40
0.2830157234
 40
0.3736456579
 40
0.4608102912
 40
0.5437039111
 40
0.6215142723
 40
0.6935008013
 40
0.7589944097
 40
0.8173478791
 40
0.8680150968
 40
0.9105629563
 40
0.9286624252
 40
0.9445777966
 40
0.9582967543
 40
0.9698817453
 40
0.9794599296
 40
0.987282559
 40
0.9938440413
 40
1.0
 40
1.0
 40
1.0
 40
1.0
 10
5.0579259535
 20
4.54362279
 30
0.0
 10
5.0579096611
 20
4.5429574808
 30
0.0
 10
5.0578894624
 20
4.5416291832
 30
0.0
 10
5.0578726642
 20
4.5396484662
 30
0.0
 10
5.0578477226
 20
4.5376989639
 30
0.0
 10
5.0577892018
 20
4.5358029668
 30
0.0
 10
5.0576991121
 20
4.5339805628
 30
0.0
 10
5.0575860369
 20
4.532249377
 30
0.0
 10
5.0574581529
 20
4.5306257732
 30
0.0
 10
5.0573177944
 20
4.5291254491
 30
0.0
 10
5.0571629388
 20
4.5277634798
 30
0.0
 10
5.0569914817
 20
4.5265539342
 30
0.0
 10
5.0568047592
 20
4.525509446
 30
0.0
 10
5.0566367874
 20
4.5247483561
 30
0.0
 10
5.0564997459
 20
4.5242302461
 30
0.0
 10
5.0564043054
 20
4.5239100169
 30
0.0
 10
5.0563105862
 20
4.5236370429
 30
0.0
 10
5.0562158768
 20
4.5234117181
 30
0.0
 10
5.056117361
 20
4.5232337081
 30
0.0
 10
5.0560111719
 20
4.523102193
 30
0.0
 10
5.0558906568
 20
4.5230185858
 30
0.0
 10
5.0558004325
 20
4.5230007764
 30
0.0
 10
5.0557573474
 20
4.5230007764
 30
0.0
  0
SPLINE
  5
2A2
100
AcDbEntity
  8
ALL_ASSEMBLY_MEMBERS
100
AcDbSpline
 62
9
  6
CONTINUOUS
 70
0
 71
3
 72
25
 73
21
 74
0
 42
0.0000001
 43
0.0000001
 44
0.0000000001
 40
0.0
 40
0.0
 40
0.0
 40
0.0
 40
0.2001723351
 40
0.3899474019
 40
0.4787197791
 40
0.5624682836
 40
0.6405077415
 40
0.7122110647
 40
0.7769960603
 40
0.8342847271
 40
0.8835922435
 40
0.9245554059
 40
0.956823912
 40
0.9696043373
 40
0.9801271722
 40
0.9883860401
 40
0.9943853396
 40
0.9965489897
 40
0.9981725805
 40
1.0
 40
1.0
 40
1.0
 40
1.0
 10
5.0579259535
 20
4.54362279
 30
0.0
 10
5.059115903
 20
4.5436609432
 30
0.0
 10
5.0614341836
 20
4.5437294794
 30
0.0
 10
5.0642806367
 20
4.54379848
 30
0.0
 10
5.0664350542
 20
4.5438403281
 30
0.0
 10
5.067925121
 20
4.543864078
 30
0.0
 10
5.0693137572
 20
4.543880689
 30
0.0
 10
5.0705896706
 20
4.5438900555
 30
0.0
 10
5.0717421992
 20
4.543892186
 30
0.0
 10
5.0727615166
 20
4.5438870555
 30
0.0
 10
5.0736390827
 20
4.5438747958
 30
0.0
 10
5.0743676776
 20
4.5438555689
 30
0.0
 10
5.0748787926
 20
4.5438330078
 30
0.0
 10
5.0752085657
 20
4.5438098801
 30
0.0
 10
5.0753954181
 20
4.5437925049
 30
0.0
 10
5.0755418542
 20
4.5437734728
 30
0.0
 10
5.0756375109
 20
4.5437560052
 30
0.0
 10
5.0756942266
 20
4.5437393048
 30
0.0
 10
5.075723651
 20
4.5437275265
 30
0.0
 10
5.0757446662
 20
4.5437129614
 30
0.0
 10
5.0757450473
 20
4.5437020992
 30
0.0
  0
SPLINE
  5
2A3
100
AcDbEntity
  8
ALL_ASSEMBLY_MEMBERS
100
AcDbSpline
 62
9
  6
CONTINUOUS
 70
0
 71
3
 72
15
 73
11
 74
0
 42
0.0000001
 43
0.0000001
 44
0.0000000001
 40
0.0
 40
0.0
 40
0.0
 40
0.0
 40
0.1245963454
 40
0.2491636842
 40
0.3737289249
 40
0.4983170585
 40
0.6229958179
 40
0.7479050125
 40
0.8733594788
 40
1.0
 40
1.0
 40
1.0
 40
1.0
 10
5.0671961889
 20
5.0467633504
 30
0.0
 10
5.0660129842
 20
5.0459333806
 30
0.0
 10
5.0636793927
 20
5.0442266524
 30
0.0
 10
5.0602862358
 20
5.0415265822
 30
0.0
 10
5.0570146231
 20
5.0386800969
 30
0.0
 10
5.0538878719
 20
5.0356724204
 30
0.0
 10
5.0509479874
 20
5.0324749711
 30
0.0
 10
5.0482601252
 20
5.0290462851
 30
0.0
 10
5.0459389646
 20
5.0253287639
 30
0.0
 10
5.0447988288
 20
5.0226095648
 30
0.0
 10
5.0443983629
 20
5.0211962168
 30
0.0
  0
SPLINE
  5
2A4
100
AcDbEntity
  8
ALL_ASSEMBLY_MEMBERS
100
AcDbSpline
 62
9
  6
CONTINUOUS
 70
0
 71
3
 72
26
 73
22
 74
0
 42
0.0000001
 43
0.0000001
 44
0.0000000001
 40
0.0
 40
0.0
 40
0.0
 40
0.0
 40
0.1989179081
 40
0.3881942987
 40
0.4769300656
 40
0.5607496151
 40
0.638942531
 40
0.7108577137
 40
0.7758898891
 40
0.8334380311
 40
0.8829974467
 40
0.9241891011
 40
0.9415324273
 40
0.9566474046
 40
0.9695029958
 40
0.9800864143
 40
0.9883899015
 40
0.9944156867
 40
0.9965844135
 40
0.9982062309
 40
1.0
 40
1.0
 40
1.0
 40
1.0
 10
4.8636296569
 20
5.0093284677
 30
0.0
 10
4.8624130017
 20
5.0093684275
 30
0.0
 10
4.8600384659
 20
5.0094405514
 30
0.0
 10
4.85712072
 20
5.0095139849
 30
0.0
 10
4.8549068916
 20
5.0095593389
 30
0.0
 10
4.8533726172
 20
5.0095855871
 30
0.0
 10
4.8519411798
 20
5.0096045684
 30
0.0
 10
4.8506246389
 20
5.009616156
 30
0.0
 10
4.8494343922
 20
5.0096203267
 30
0.0
 10
4.8483809489
 20
5.0096170685
 30
0.0
 10
4.8474734574
 20
5.0096063956
 30
0.0
 10
4.846812111
 20
5.009590919
 30
0.0
 10
4.846361704
 20
5.0095739594
 30
0.0
 10
4.8460847416
 20
5.0095602311
 30
0.0
 10
4.8458492623
 20
5.0095447637
 30
0.0
 10
4.8456558261
 20
5.0095278589
 30
0.0
 10
4.8455041936
 20
5.0095092303
 30
0.0
 10
4.8454052232
 20
5.0094920847
 30
0.0
 10
4.8453463966
 20
5.0094756138
 30
0.0
 10
4.8453162507
 20
5.0094640595
 30
0.0
 10
4.8452941831
 20
5.0094497673
 30
0.0
 10
4.8452937996
 20
5.0094387967
 30
0.0
  0
SPLINE
  5
2A5
100
AcDbEntity
  8
ALL_ASSEMBLY_MEMBERS
100
AcDbSpline
 62
9
  6
CONTINUOUS
 70
0
 71
3
 72
18
 73
14
 74
0
 42
0.0000001
 43
0.0000001
 44
0.0000000001
 40
0.0
 40
0.0
 40
0.0
 40
0.0
 40
0.1728365214
 40
0.3360374739
 40
0.4857893608
 40
0.6197879381
 40
0.7367242559
 40
0.788865208
 40
0.8369838293
 40
0.8814589135
 40
0.9228931024
 40
0.9620802235
 40
1.0
 40
1.0
 40
1.0
 40
1.0
 10
4.860298842
 20
5.0211962184
 30
0.0
 10
4.8592882244
 20
5.0213502377
 30
0.0
 10
4.8573330156
 20
5.0217190667
 30
0.0
 10
4.8545556985
 20
5.0224677001
 30
0.0
 10
4.8520716606
 20
5.0233851956
 30
0.0
 10
4.8499454441
 20
5.0244435711
 30
0.0
 10
4.8484587435
 20
5.0254614222
 30
0.0
 10
4.8475131474
 20
5.0263341603
 30
0.0
 10
4.8469511231
 20
5.0269827206
 30
0.0
 10
4.846514125
 20
5.0276473197
 30
0.0
 10
4.8462049758
 20
5.0283232054
 30
0.0
 10
4.8460265004
 20
5.02900506
 30
0.0
 10
4.8459966098
 20
5.0294636063
 30
0.0
 10
4.8460044902
 20
5.0296877542
 30
0.0
  0
LINE
  5
2A6
100
AcDbEntity
  8
ALL_ASSEMBLY_MEMBERS
100
AcDbLine
 62
9
  6
CONTINUOUS
 10
5.0410675508
 20
5.0093284742
 11
5.0579259442
 21
4.5436227812
  0
SPLINE
  5
2A7
100
AcDbEntity
  8
ALL_ASSEMBLY_MEMBERS
100
AcDbSpline
 62
9
  6
CONTINUOUS
 70
0
 71
3
 72
11
 73
7
 74
0
 42
0.0000001
 43
0.0000001
 44
0.0000000001
 40
0.0
 40
0.0
 40
0.0
 40
0.0
 40
0.2503246684
 40
0.5005054202
 40
0.7504238736
 40
1.0
 40
1.0
 40
1.0
 40
1.0
 10
4.9523486025
 20
4.9899069253
 30
0.0
 10
4.9447153241
 20
4.9899075562
 30
0.0
 10
4.9294405259
 20
4.9907340882
 30
0.0
 10
4.906814842
 20
4.9944318762
 30
0.0
 10
4.8847398288
 20
5.0005339178
 30
0.0
 10
4.8705465377
 20
5.0061540899
 30
0.0
 10
4.8636297122
 20
5.009328443
 30
0.0
  0
SPLINE
  5
2A8
100
AcDbEntity
  8
ALL_ASSEMBLY_MEMBERS
100
AcDbSpline
 62
9
  6
CONTINUOUS
 70
0
 71
3
 72
11
 73
7
 74
0
 42
0.0000001
 43
0.0000001
 44
0.0000000001
 40
0.0
 40
0.0
 40
0.0
 40
0.0
 40
0.2495759313
 40
0.499494293
 40
0.7496751909
 40
1.0
 40
1.0
 40
1.0
 40
1.0
 10
5.0410674986
 20
5.0093284508
 30
0.0
 10
5.0341506837
 20
5.0061540876
 30
0.0
 10
5.0199573966
 20
5.0005339266
 30
0.0
 10
4.9978823907
 20
4.9944318598
 30
0.0
 10
4.9752566899
 20
4.9907341428
 30
0.0
 10
4.9599818857
 20
4.9899075427
 30
0.0
 10
4.9523486025
 20
4.9899069254
 30
0.0
  0
SPLINE
  5
2A9
100
AcDbEntity
  8
ALL_ASSEMBLY_MEMBERS
100
AcDbSpline
 62
9
  6
CONTINUOUS
 70
0
 71
3
 72
26
 73
22
 74
0
 42
0.0000001
 43
0.0000001
 44
0.0000000001
 40
0.0
 40
0.0
 40
0.0
 40
0.0
 40
0.0017937739
 40
0.0034155937
 40
0.0055843228
 40
0.0116101123
 40
0.0199136031
 40
0.0304970248
 40
0.0433526188
 40
0.0584675985
 40
0.0758109266
 40
0.1170025835
 40
0.1665619999
 40
0.2241101415
 40
0.2891423152
 40
0.3610574951
 40
0.4392504075
 40
0.523069953
 40
0.6118057154
 40
0.8010820976
 40
1.0
 40
1.0
 40
1.0
 40
1.0
 10
5.0594034048
 20
5.0094388018
 30
0.0
 10
5.0594030212
 20
5.0094497724
 30
0.0
 10
5.0593809536
 20
5.0094640646
 30
0.0
 10
5.0593508076
 20
5.0094756189
 30
0.0
 10
5.059291981
 20
5.0094920899
 30
0.0
 10
5.0591930105
 20
5.0095092355
 30
0.0
 10
5.059041378
 20
5.0095278641
 30
0.0
 10
5.0588479418
 20
5.009544769
 30
0.0
 10
5.0586124625
 20
5.0095602364
 30
0.0
 10
5.0583355001
 20
5.0095739648
 30
0.0
 10
5.0578850932
 20
5.0095909244
 30
0.0
 10
5.0572237469
 20
5.009606401
 30
0.0
 10
5.0563162555
 20
5.009617074
 30
0.0
 10
5.0552628124
 20
5.0096203324
 30
0.0
 10
5.0540725659
 20
5.0096161617
 30
0.0
 10
5.0527560253
 20
5.0096045742
 30
0.0
 10
5.0513245882
 20
5.009585593
 30
0.0
 10
5.0497903142
 20
5.0095593448
 30
0.0
 10
5.0475764863
 20
5.009513991
 30
0.0
 10
5.044658741
 20
5.0094405577
 30
0.0
 10
5.0422842058
 20
5.0093684338
 30
0.0
 10
5.0410675508
 20
5.0093284742
 30
0.0
  0
SPLINE
  5
2AA
100
AcDbEntity
  8
ALL_ASSEMBLY_MEMBERS
100
AcDbSpline
 62
9
  6
CONTINUOUS
 70
0
 71
3
 72
14
 73
10
 74
0
 42
0.0000001
 43
0.0000001
 44
0.0000000001
 40
0.0
 40
0.0
 40
0.0
 40
0.0
 40
0.2491264382
 40
0.3736970939
 40
0.4982898408
 40
0.6229737278
 40
0.747888521
 40
0.8733504289
 40
1.0
 40
1.0
 40
1.0
 40
1.0
 10
4.8375010048
 20
3.4717633552
 30
0.0
 10
4.8398666075
 20
3.4701038706
 30
0.0
 10
4.843320825
 20
3.4674746291
 30
0.0
 10
4.8476825821
 20
3.4636802151
 30
0.0
 10
4.850809259
 20
3.4606723788
 30
0.0
 10
4.8537491037
 20
3.4574750131
 30
0.0
 10
4.8564370127
 20
3.4540463658
 30
0.0
 10
4.8587580111
 20
3.4503287317
 30
0.0
 10
4.859898347
 20
3.4476095815
 30
0.0
 10
4.8602988375
 20
3.4461962122
 30
0.0
  0
SPLINE
  5
2AB
100
AcDbEntity
  8
ALL_ASSEMBLY_MEMBERS
100
AcDbSpline
 62
9
  6
CONTINUOUS
 70
0
 71
3
 72
25
 73
21
 74
0
 42
0.0000001
 43
0.0000001
 44
0.0000000001
 40
0.0
 40
0.0
 40
0.0
 40
0.0
 40
0.0018274203
 40
0.0034510112
 40
0.0056146614
 40
0.0116139607
 40
0.0198728285
 40
0.0303956633
 40
0.0431760885
 40
0.0754445945
 40
0.1164077569
 40
0.1657152734
 40
0.2230039401
 40
0.2877889358
 40
0.359492259
 40
0.4375317169
 40
0.5212802214
 40
0.6100525985
 40
0.799827665
 40
1.0
 40
1.0
 40
1.0
 40
1.0
 10
4.8289521577
 20
2.9687020992
 30
0.0
 10
4.8289525388
 20
2.9687129614
 30
0.0
 10
4.828973554
 20
2.9687275265
 30
0.0
 10
4.8290029783
 20
2.9687393048
 30
0.0
 10
4.8290596941
 20
2.9687560053
 30
0.0
 10
4.8291553507
 20
2.9687734728
 30
0.0
 10
4.8293017869
 20
2.9687925049
 30
0.0
 10
4.8294886393
 20
2.9688098801
 30
0.0
 10
4.8298184123
 20
2.9688330077
 30
0.0
 10
4.8303295274
 20
2.9688555689
 30
0.0
 10
4.8310581223
 20
2.9688747957
 30
0.0
 10
4.8319356884
 20
2.9688870554
 30
0.0
 10
4.8329550057
 20
2.9688921859
 30
0.0
 10
4.8341075344
 20
2.9688900555
 30
0.0
 10
4.8353834478
 20
2.9688806889
 30
0.0
 10
4.836772084
 20
2.968864078
 30
0.0
 10
4.8382621508
 20
2.9688403281
 30
0.0
 10
4.8404165683
 20
2.9687984799
 30
0.0
 10
4.8432630213
 20
2.9687294793
 30
0.0
 10
4.845581302
 20
2.9686609432
 30
0.0
 10
4.8467712514
 20
2.96862279
 30
0.0
  0
LINE
  5
2AC
100
AcDbEntity
  8
ALL_ASSEMBLY_MEMBERS
100
AcDbLine
 62
9
  6
CONTINUOUS
 10
4.8636296569
 20
3.4343284677
 11
4.8467712605
 21
2.9686227814
  0
SPLINE
  5
2AD
100
AcDbEntity
  8
ALL_ASSEMBLY_MEMBERS
100
AcDbSpline
 62
9
  6
CONTINUOUS
 70
0
 71
3
 72
18
 73
14
 74
0
 42
0.0000001
 43
0.0000001
 44
0.0000000001
 40
0.0
 40
0.0
 40
0.0
 40
0.0
 40
0.037919827
 40
0.0771072174
 40
0.1185417999
 40
0.1630173185
 40
0.211136349
 40
0.2632776407
 40
0.3802143498
 40
0.514212892
 40
0.6639643416
 40
0.8271645198
 40
1.0
 40
1.0
 40
1.0
 40
1.0
 10
5.0586928613
 20
3.4546877593
 30
0.0
 10
5.0587007296
 20
3.4544636097
 30
0.0
 10
5.0586708149
 20
3.4540050613
 30
0.0
 10
5.0584923079
 20
3.4533232077
 30
0.0
 10
5.058183131
 20
3.4526473243
 30
0.0
 10
5.0577461088
 20
3.4519827283
 30
0.0
 10
5.0571840639
 20
3.4513341719
 30
0.0
 10
5.0562384443
 20
3.450461441
 30
0.0
 10
5.0547517227
 20
3.4494436002
 30
0.0
 10
5.0526254885
 20
3.4483852379
 30
0.0
 10
5.0501414404
 20
3.4474677578
 30
0.0
 10
5.0473641193
 20
3.4467191418
 30
0.0
 10
5.0454089102
 20
3.4463503249
 30
0.0
 10
5.0443982932
 20
3.4461963121
 30
0.0
  0
SPLINE
  5
2AE
100
AcDbEntity
  8
ALL_ASSEMBLY_MEMBERS
100
AcDbSpline
 62
9
  6
CONTINUOUS
 70
0
 71
3
 72
27
 73
23
 74
0
 42
0.0000001
 43
0.0000001
 44
0.0000000001
 40
0.0
 40
0.0
 40
0.0
 40
0.0
 40
0.0950871363
 40
0.1898008488
 40
0.2830156402
 40
0.3736455461
 40
0.4608101518
 40
0.5437037459
 40
0.6215140833
 40
0.6935005914
 40
0.7589941828
 40
0.8173476403
 40
0.868014853
 40
0.9105627163
 40
0.9286621911
 40
0.9445775715
 40
0.9582965424
 40
0.9698815522
 40
0.9794597639
 40
0.9872824329
 40
0.9938439711
 40
1.0
 40
1.0
 40
1.0
 40
1.0
 10
4.8467712514
 20
2.96862279
 30
0.0
 10
4.8467875428
 20
2.9679574808
 30
0.0
 10
4.8468077395
 20
2.9666291832
 30
0.0
 10
4.8468245351
 20
2.9646484662
 30
0.0
 10
4.8468494745
 20
2.9626989639
 30
0.0
 10
4.8469079934
 20
2.9608029668
 30
0.0
 10
4.8469980816
 20
2.9589805628
 30
0.0
 10
4.8471111557
 20
2.957249377
 30
0.0
 10
4.8472390391
 20
2.9556257732
 30
0.0
 10
4.8473793973
 20
2.9541254491
 30
0.0
 10
4.8475342532
 20
2.9527634798
 30
0.0
 10
4.8477057108
 20
2.9515539342
 30
0.0
 10
4.8478924345
 20
2.9505094459
 30
0.0
 10
4.8480604074
 20
2.949748356
 30
0.0
 10
4.8481974501
 20
2.949230246
 30
0.0
 10
4.8482928916
 20
2.9489100168
 30
0.0
 10
4.848386612
 20
2.9486370428
 30
0.0
 10
4.8484813225
 20
2.948411718
 30
0.0
 10
4.8485798396
 20
2.948233708
 30
0.0
 10
4.8486860301
 20
2.9481021928
 30
0.0
 10
4.8488065468
 20
2.9480185857
 30
0.0
 10
4.848896772
 20
2.9480007764
 30
0.0
 10
4.8489398576
 20
2.9480007764
 30
0.0
  0
SPLINE
  5
2AF
100
AcDbEntity
  8
ALL_ASSEMBLY_MEMBERS
100
AcDbSpline
 62
9
  6
CONTINUOUS
 70
0
 71
3
 72
27
 73
23
 74
0
 42
0.0000001
 43
0.0000001
 44
0.0000000001
 40
0.0
 40
0.0
 40
0.0
 40
0.0
 40
0.0950871628
 40
0.1898009032
 40
0.2830157234
 40
0.3736456579
 40
0.4608102912
 40
0.5437039111
 40
0.6215142723
 40
0.6935008013
 40
0.7589944097
 40
0.8173478791
 40
0.8680150968
 40
0.9105629563
 40
0.9286624252
 40
0.9445777966
 40
0.9582967543
 40
0.9698817453
 40
0.9794599296
 40
0.987282559
 40
0.9938440413
 40
1.0
 40
1.0
 40
1.0
 40
1.0
 10
5.0579259535
 20
2.96862279
 30
0.0
 10
5.0579096611
 20
2.9679574808
 30
0.0
 10
5.0578894624
 20
2.9666291832
 30
0.0
 10
5.0578726642
 20
2.9646484662
 30
0.0
 10
5.0578477226
 20
2.9626989639
 30
0.0
 10
5.0577892018
 20
2.9608029668
 30
0.0
 10
5.0576991121
 20
2.9589805628
 30
0.0
 10
5.0575860369
 20
2.957249377
 30
0.0
 10
5.0574581529
 20
2.9556257732
 30
0.0
 10
5.0573177944
 20
2.9541254491
 30
0.0
 10
5.0571629388
 20
2.9527634798
 30
0.0
 10
5.0569914817
 20
2.9515539342
 30
0.0
 10
5.0568047592
 20
2.950509446
 30
0.0
 10
5.0566367874
 20
2.9497483561
 30
0.0
 10
5.0564997459
 20
2.9492302461
 30
0.0
 10
5.0564043054
 20
2.9489100169
 30
0.0
 10
5.0563105862
 20
2.9486370429
 30
0.0
 10
5.0562158768
 20
2.9484117181
 30
0.0
 10
5.056117361
 20
2.9482337081
 30
0.0
 10
5.0560111719
 20
2.948102193
 30
0.0
 10
5.0558906568
 20
2.9480185858
 30
0.0
 10
5.0558004325
 20
2.9480007764
 30
0.0
 10
5.0557573474
 20
2.9480007764
 30
0.0
  0
SPLINE
  5
2B0
100
AcDbEntity
  8
ALL_ASSEMBLY_MEMBERS
100
AcDbSpline
 62
9
  6
CONTINUOUS
 70
0
 71
3
 72
25
 73
21
 74
0
 42
0.0000001
 43
0.0000001
 44
0.0000000001
 40
0.0
 40
0.0
 40
0.0
 40
0.0
 40
0.2001723351
 40
0.3899474019
 40
0.4787197791
 40
0.5624682836
 40
0.6405077415
 40
0.7122110647
 40
0.7769960603
 40
0.8342847271
 40
0.8835922435
 40
0.9245554059
 40
0.956823912
 40
0.9696043373
 40
0.9801271722
 40
0.9883860401
 40
0.9943853396
 40
0.9965489897
 40
0.9981725805
 40
1.0
 40
1.0
 40
1.0
 40
1.0
 10
5.0579259535
 20
2.96862279
 30
0.0
 10
5.059115903
 20
2.9686609432
 30
0.0
 10
5.0614341836
 20
2.9687294794
 30
0.0
 10
5.0642806367
 20
2.96879848
 30
0.0
 10
5.0664350542
 20
2.9688403281
 30
0.0
 10
5.067925121
 20
2.968864078
 30
0.0
 10
5.0693137572
 20
2.968880689
 30
0.0
 10
5.0705896706
 20
2.9688900555
 30
0.0
 10
5.0717421992
 20
2.968892186
 30
0.0
 10
5.0727615166
 20
2.9688870555
 30
0.0
 10
5.0736390827
 20
2.9688747958
 30
0.0
 10
5.0743676776
 20
2.9688555689
 30
0.0
 10
5.0748787926
 20
2.9688330078
 30
0.0
 10
5.0752085657
 20
2.9688098801
 30
0.0
 10
5.0753954181
 20
2.9687925049
 30
0.0
 10
5.0755418542
 20
2.9687734728
 30
0.0
 10
5.0756375109
 20
2.9687560052
 30
0.0
 10
5.0756942266
 20
2.9687393048
 30
0.0
 10
5.075723651
 20
2.9687275265
 30
0.0
 10
5.0757446662
 20
2.9687129614
 30
0.0
 10
5.0757450473
 20
2.9687020992
 30
0.0
  0
SPLINE
  5
2B1
100
AcDbEntity
  8
ALL_ASSEMBLY_MEMBERS
100
AcDbSpline
 62
9
  6
CONTINUOUS
 70
0
 71
3
 72
15
 73
11
 74
0
 42
0.0000001
 43
0.0000001
 44
0.0000000001
 40
0.0
 40
0.0
 40
0.0
 40
0.0
 40
0.1245963454
 40
0.2491636842
 40
0.3737289249
 40
0.4983170585
 40
0.6229958179
 40
0.7479050125
 40
0.8733594788
 40
1.0
 40
1.0
 40
1.0
 40
1.0
 10
5.0671961889
 20
3.4717633504
 30
0.0
 10
5.0660129842
 20
3.4709333806
 30
0.0
 10
5.0636793927
 20
3.4692266524
 30
0.0
 10
5.0602862358
 20
3.4665265822
 30
0.0
 10
5.0570146231
 20
3.4636800969
 30
0.0
 10
5.0538878719
 20
3.4606724204
 30
0.0
 10
5.0509479874
 20
3.4574749711
 30
0.0
 10
5.0482601252
 20
3.4540462851
 30
0.0
 10
5.0459389646
 20
3.4503287639
 30
0.0
 10
5.0447988288
 20
3.4476095648
 30
0.0
 10
5.0443983629
 20
3.4461962168
 30
0.0
  0
SPLINE
  5
2B2
100
AcDbEntity
  8
ALL_ASSEMBLY_MEMBERS
100
AcDbSpline
 62
9
  6
CONTINUOUS
 70
0
 71
3
 72
26
 73
22
 74
0
 42
0.0000001
 43
0.0000001
 44
0.0000000001
 40
0.0
 40
0.0
 40
0.0
 40
0.0
 40
0.1989179081
 40
0.3881942987
 40
0.4769300656
 40
0.5607496151
 40
0.638942531
 40
0.7108577137
 40
0.7758898891
 40
0.8334380311
 40
0.8829974467
 40
0.9241891011
 40
0.9415324273
 40
0.9566474046
 40
0.9695029958
 40
0.9800864143
 40
0.9883899015
 40
0.9944156867
 40
0.9965844135
 40
0.9982062309
 40
1.0
 40
1.0
 40
1.0
 40
1.0
 10
4.8636296569
 20
3.4343284677
 30
0.0
 10
4.8624130017
 20
3.4343684275
 30
0.0
 10
4.8600384659
 20
3.4344405514
 30
0.0
 10
4.85712072
 20
3.4345139849
 30
0.0
 10
4.8549068916
 20
3.4345593389
 30
0.0
 10
4.8533726172
 20
3.4345855871
 30
0.0
 10
4.8519411798
 20
3.4346045684
 30
0.0
 10
4.8506246389
 20
3.434616156
 30
0.0
 10
4.8494343922
 20
3.4346203267
 30
0.0
 10
4.8483809489
 20
3.4346170685
 30
0.0
 10
4.8474734574
 20
3.4346063956
 30
0.0
 10
4.846812111
 20
3.434590919
 30
0.0
 10
4.846361704
 20
3.4345739594
 30
0.0
 10
4.8460847416
 20
3.4345602311
 30
0.0
 10
4.8458492623
 20
3.4345447637
 30
0.0
 10
4.8456558261
 20
3.4345278589
 30
0.0
 10
4.8455041936
 20
3.4345092303
 30
0.0
 10
4.8454052232
 20
3.4344920847
 30
0.0
 10
4.8453463966
 20
3.4344756138
 30
0.0
 10
4.8453162507
 20
3.4344640595
 30
0.0
 10
4.8452941831
 20
3.4344497673
 30
0.0
 10
4.8452937996
 20
3.4344387967
 30
0.0
  0
SPLINE
  5
2B3
100
AcDbEntity
  8
ALL_ASSEMBLY_MEMBERS
100
AcDbSpline
 62
9
  6
CONTINUOUS
 70
0
 71
3
 72
18
 73
14
 74
0
 42
0.0000001
 43
0.0000001
 44
0.0000000001
 40
0.0
 40
0.0
 40
0.0
 40
0.0
 40
0.1728365214
 40
0.3360374739
 40
0.4857893608
 40
0.6197879381
 40
0.7367242559
 40
0.788865208
 40
0.8369838293
 40
0.8814589135
 40
0.9228931024
 40
0.9620802235
 40
1.0
 40
1.0
 40
1.0
 40
1.0
 10
4.860298842
 20
3.4461962184
 30
0.0
 10
4.8592882244
 20
3.4463502377
 30
0.0
 10
4.8573330156
 20
3.4467190667
 30
0.0
 10
4.8545556985
 20
3.4474677001
 30
0.0
 10
4.8520716606
 20
3.4483851956
 30
0.0
 10
4.8499454441
 20
3.4494435711
 30
0.0
 10
4.8484587435
 20
3.4504614222
 30
0.0
 10
4.8475131474
 20
3.4513341603
 30
0.0
 10
4.8469511231
 20
3.4519827206
 30
0.0
 10
4.846514125
 20
3.4526473197
 30
0.0
 10
4.8462049758
 20
3.4533232054
 30
0.0
 10
4.8460265004
 20
3.45400506
 30
0.0
 10
4.8459966098
 20
3.4544636063
 30
0.0
 10
4.8460044902
 20
3.4546877542
 30
0.0
  0
LINE
  5
2B4
100
AcDbEntity
  8
ALL_ASSEMBLY_MEMBERS
100
AcDbLine
 62
9
  6
CONTINUOUS
 10
5.0410675508
 20
3.4343284742
 11
5.0579259442
 21
2.9686227812
  0
SPLINE
  5
2B5
100
AcDbEntity
  8
ALL_ASSEMBLY_MEMBERS
100
AcDbSpline
 62
9
  6
CONTINUOUS
 70
0
 71
3
 72
11
 73
7
 74
0
 42
0.0000001
 43
0.0000001
 44
0.0000000001
 40
0.0
 40
0.0
 40
0.0
 40
0.0
 40
0.2503246684
 40
0.5005054202
 40
0.7504238736
 40
1.0
 40
1.0
 40
1.0
 40
1.0
 10
4.9523486025
 20
3.4149069253
 30
0.0
 10
4.9447153241
 20
3.4149075562
 30
0.0
 10
4.9294405259
 20
3.4157340882
 30
0.0
 10
4.906814842
 20
3.4194318762
 30
0.0
 10
4.8847398288
 20
3.4255339178
 30
0.0
 10
4.8705465377
 20
3.4311540899
 30
0.0
 10
4.8636297122
 20
3.434328443
 30
0.0
  0
SPLINE
  5
2B6
100
AcDbEntity
  8
ALL_ASSEMBLY_MEMBERS
100
AcDbSpline
 62
9
  6
CONTINUOUS
 70
0
 71
3
 72
11
 73
7
 74
0
 42
0.0000001
 43
0.0000001
 44
0.0000000001
 40
0.0
 40
0.0
 40
0.0
 40
0.0
 40
0.2495759313
 40
0.499494293
 40
0.7496751909
 40
1.0
 40
1.0
 40
1.0
 40
1.0
 10
5.0410674986
 20
3.4343284508
 30
0.0
 10
5.0341506837
 20
3.4311540876
 30
0.0
 10
5.0199573966
 20
3.4255339266
 30
0.0
 10
4.9978823907
 20
3.4194318598
 30
0.0
 10
4.9752566899
 20
3.4157341428
 30
0.0
 10
4.9599818857
 20
3.4149075427
 30
0.0
 10
4.9523486025
 20
3.4149069254
 30
0.0
  0
SPLINE
  5
2B7
100
AcDbEntity
  8
ALL_ASSEMBLY_MEMBERS
100
AcDbSpline
 62
9
  6
CONTINUOUS
 70
0
 71
3
 72
26
 73
22
 74
0
 42
0.0000001
 43
0.0000001
 44
0.0000000001
 40
0.0
 40
0.0
 40
0.0
 40
0.0
 40
0.0017937739
 40
0.0034155937
 40
0.0055843228
 40
0.0116101123
 40
0.0199136031
 40
0.0304970248
 40
0.0433526188
 40
0.0584675985
 40
0.0758109266
 40
0.1170025835
 40
0.1665619999
 40
0.2241101415
 40
0.2891423152
 40
0.3610574951
 40
0.4392504075
 40
0.523069953
 40
0.6118057154
 40
0.8010820976
 40
1.0
 40
1.0
 40
1.0
 40
1.0
 10
5.0594034048
 20
3.4344388018
 30
0.0
 10
5.0594030212
 20
3.4344497724
 30
0.0
 10
5.0593809536
 20
3.4344640646
 30
0.0
 10
5.0593508076
 20
3.4344756189
 30
0.0
 10
5.059291981
 20
3.4344920899
 30
0.0
 10
5.0591930105
 20
3.4345092355
 30
0.0
 10
5.059041378
 20
3.4345278641
 30
0.0
 10
5.0588479418
 20
3.434544769
 30
0.0
 10
5.0586124625
 20
3.4345602364
 30
0.0
 10
5.0583355001
 20
3.4345739648
 30
0.0
 10
5.0578850932
 20
3.4345909244
 30
0.0
 10
5.0572237469
 20
3.434606401
 30
0.0
 10
5.0563162555
 20
3.434617074
 30
0.0
 10
5.0552628124
 20
3.4346203324
 30
0.0
 10
5.0540725659
 20
3.4346161617
 30
0.0
 10
5.0527560253
 20
3.4346045742
 30
0.0
 10
5.0513245882
 20
3.434585593
 30
0.0
 10
5.0497903142
 20
3.4345593448
 30
0.0
 10
5.0475764863
 20
3.434513991
 30
0.0
 10
5.044658741
 20
3.4344405577
 30
0.0
 10
5.0422842058
 20
3.4343684338
 30
0.0
 10
5.0410675508
 20
3.4343284742
 30
0.0
  0
SPLINE
  5
2B8
100
AcDbEntity
  8
0
100
AcDbSpline
 62
7
  6
CONTINUOUS
 70
0
 71
3
 72
8
 73
4
 74
0
 42
0.0000001
 43
0.0000001
 44
0.0000000001
 40
0.0
 40
0.0
 40
0.0
 40
0.0
 40
1.0
 40
1.0
 40
1.0
 40
1.0
 10
4.8684319404
 20
4.2809358184
 30
0.0
 10
4.8662491319
 20
4.2765701954
 30
0.0
 10
4.8626338509
 20
4.2721363609
 30
0.0
 10
4.8575196864
 20
4.2675640934
 30
0.0
  0
SPLINE
  5
2B9
100
AcDbEntity
  8
0
100
AcDbSpline
 62
7
  6
CONTINUOUS
 70
0
 71
3
 72
8
 73
4
 74
0
 42
0.0000001
 43
0.0000001
 44
0.0000000001
 40
0.0
 40
0.0
 40
0.0
 40
0.0
 40
1.0
 40
1.0
 40
1.0
 40
1.0
 10
4.8575196864
 20
4.2675640934
 30
0.0
 10
4.8523337153
 20
4.262927628
 30
0.0
 10
4.8463309866
 20
4.2590394978
 30
0.0
 10
4.8395097044
 20
4.2558334951
 30
0.0
  0
SPLINE
  5
2BA
100
AcDbEntity
  8
0
100
AcDbSpline
 62
7
  6
CONTINUOUS
 70
0
 71
3
 72
8
 73
4
 74
0
 42
0.0000001
 43
0.0000001
 44
0.0000000001
 40
0.0
 40
0.0
 40
0.0
 40
0.0
 40
1.0
 40
1.0
 40
1.0
 40
1.0
 10
4.8395097044
 20
4.2439644639
 30
0.0
 10
4.8433296231
 20
4.2453287189
 30
0.0
 10
4.84762703
 20
4.2474433188
 30
0.0
 10
4.8524168227
 20
4.2502829797
 30
0.0
  0
SPLINE
  5
2BB
100
AcDbEntity
  8
0
100
AcDbSpline
 62
7
  6
CONTINUOUS
 70
0
 71
3
 72
8
 73
4
 74
0
 42
0.0000001
 43
0.0000001
 44
0.0000000001
 40
0.0
 40
0.0
 40
0.0
 40
0.0
 40
1.0
 40
1.0
 40
1.0
 40
1.0
 10
4.8524168227
 20
4.2502829797
 30
0.0
 10
4.8571768251
 20
4.2531049792
 30
0.0
 10
4.8610649553
 20
4.2559017067
 30
0.0
 10
4.8640663204
 20
4.2587666456
 30
0.0
  0
SPLINE
  5
2BC
100
AcDbEntity
  8
0
100
AcDbSpline
 62
7
  6
CONTINUOUS
 70
0
 71
3
 72
8
 73
4
 74
0
 42
0.0000001
 43
0.0000001
 44
0.0000000001
 40
0.0
 40
0.0
 40
0.0
 40
0.0
 40
1.0
 40
1.0
 40
1.0
 40
1.0
 10
4.9077907381
 20
4.2298444097
 30
0.0
 10
4.9077907381
 20
4.2110176687
 30
0.0
 10
4.9110649583
 20
4.1975115304
 30
0.0
 10
4.9176564427
 20
4.189169762
 30
0.0
  0
SPLINE
  5
2BD
100
AcDbEntity
  8
0
100
AcDbSpline
 62
7
  6
CONTINUOUS
 70
0
 71
3
 72
8
 73
4
 74
0
 42
0.0000001
 43
0.0000001
 44
0.0000000001
 40
0.0
 40
0.0
 40
0.0
 40
0.0
 40
1.0
 40
1.0
 40
1.0
 40
1.0
 10
4.9176564427
 20
4.189169762
 30
0.0
 10
4.9231386242
 20
4.1822318577
 30
0.0
 10
4.9307102499
 20
4.1788212166
 30
0.0
 10
4.9403964696
 20
4.1788212166
 30
0.0
  0
SPLINE
  5
2BE
100
AcDbEntity
  8
0
100
AcDbSpline
 62
7
  6
CONTINUOUS
 70
0
 71
3
 72
8
 73
4
 74
0
 42
0.0000001
 43
0.0000001
 44
0.0000000001
 40
0.0
 40
0.0
 40
0.0
 40
0.0
 40
1.0
 40
1.0
 40
1.0
 40
1.0
 10
4.9403964696
 20
4.1788212166
 30
0.0
 10
4.9476952371
 20
4.1788212166
 30
0.0
 10
4.9537661848
 20
4.1807311756
 30
0.0
 10
4.9585410795
 20
4.1846875166
 30
0.0
  0
SPLINE
  5
2BF
100
AcDbEntity
  8
0
100
AcDbSpline
 62
7
  6
CONTINUOUS
 70
0
 71
3
 72
8
 73
4
 74
0
 42
0.0000001
 43
0.0000001
 44
0.0000000001
 40
0.0
 40
0.0
 40
0.0
 40
0.0
 40
1.0
 40
1.0
 40
1.0
 40
1.0
 10
4.9585410795
 20
4.1846875166
 30
0.0
 10
4.9633159814
 20
4.1886438635
 30
0.0
 10
4.9669312653
 20
4.1941691016
 30
0.0
 10
4.9693562344
 20
4.2014098639
 30
0.0
  0
SPLINE
  5
2C0
100
AcDbEntity
  8
0
100
AcDbSpline
 62
7
  6
CONTINUOUS
 70
0
 71
3
 72
8
 73
4
 74
0
 42
0.0000001
 43
0.0000001
 44
0.0000000001
 40
0.0
 40
0.0
 40
0.0
 40
0.0
 40
1.0
 40
1.0
 40
1.0
 40
1.0
 10
4.9693562344
 20
4.2014098639
 30
0.0
 10
4.9717743692
 20
4.2086302196
 30
0.0
 10
4.973002201
 20
4.2181118046
 30
0.0
 10
4.973002201
 20
4.2298444097
 30
0.0
  0
SPLINE
  5
2C1
100
AcDbEntity
  8
0
100
AcDbSpline
 62
7
  6
CONTINUOUS
 70
0
 71
3
 72
8
 73
4
 74
0
 42
0.0000001
 43
0.0000001
 44
0.0000000001
 40
0.0
 40
0.0
 40
0.0
 40
0.0
 40
1.0
 40
1.0
 40
1.0
 40
1.0
 10
4.973002201
 20
4.2298444097
 30
0.0
 10
4.973002201
 20
4.23973527
 30
0.0
 10
4.972251862
 20
4.2475797419
 30
0.0
 10
4.9707511769
 20
4.2534460502
 30
0.0
  0
SPLINE
  5
2C2
100
AcDbEntity
  8
0
100
AcDbSpline
 62
7
  6
CONTINUOUS
 70
0
 71
3
 72
8
 73
4
 74
0
 42
0.0000001
 43
0.0000001
 44
0.0000000001
 40
0.0
 40
0.0
 40
0.0
 40
0.0
 40
1.0
 40
1.0
 40
1.0
 40
1.0
 10
4.9707511769
 20
4.2534460502
 30
0.0
 10
4.969250494
 20
4.25931235
 30
0.0
 10
4.9671359
 20
4.2642236714
 30
0.0
 10
4.9645197
 20
4.2683008693
 30
0.0
  0
SPLINE
  5
2C3
100
AcDbEntity
  8
0
100
AcDbSpline
 62
7
  6
CONTINUOUS
 70
0
 71
3
 72
8
 73
4
 74
0
 42
0.0000001
 43
0.0000001
 44
0.0000000001
 40
0.0
 40
0.0
 40
0.0
 40
0.0
 40
1.0
 40
1.0
 40
1.0
 40
1.0
 10
4.9645197
 20
4.2683008693
 30
0.0
 10
4.9618835148
 20
4.272409213
 30
0.0
 10
4.9585410771
 20
4.2754787867
 30
0.0
 10
4.9545088969
 20
4.2776473574
 30
0.0
  0
SPLINE
  5
2C4
100
AcDbEntity
  8
0
100
AcDbSpline
 62
7
  6
CONTINUOUS
 70
0
 71
3
 72
8
 73
4
 74
0
 42
0.0000001
 43
0.0000001
 44
0.0000000001
 40
0.0
 40
0.0
 40
0.0
 40
0.0
 40
1.0
 40
1.0
 40
1.0
 40
1.0
 10
4.9545088969
 20
4.2776473574
 30
0.0
 10
4.950423759
 20
4.2798444097
 30
0.0
 10
4.9457170663
 20
4.2809358184
 30
0.0
 10
4.9403964696
 20
4.2809358184
 30
0.0
  0
SPLINE
  5
2C5
100
AcDbEntity
  8
0
100
AcDbSpline
 62
7
  6
CONTINUOUS
 70
0
 71
3
 72
8
 73
4
 74
0
 42
0.0000001
 43
0.0000001
 44
0.0000000001
 40
0.0
 40
0.0
 40
0.0
 40
0.0
 40
1.0
 40
1.0
 40
1.0
 40
1.0
 10
4.9403964696
 20
4.2809358184
 30
0.0
 10
4.933097702
 20
4.2809358184
 30
0.0
 10
4.9270267543
 20
4.2789576416
 30
0.0
 10
4.9222686323
 20
4.2750491836
 30
0.0
  0
SPLINE
  5
2C6
100
AcDbEntity
  8
0
100
AcDbSpline
 62
7
  6
CONTINUOUS
 70
0
 71
3
 72
8
 73
4
 74
0
 42
0.0000001
 43
0.0000001
 44
0.0000000001
 40
0.0
 40
0.0
 40
0.0
 40
0.0
 40
1.0
 40
1.0
 40
1.0
 40
1.0
 10
4.9222686323
 20
4.2750491836
 30
0.0
 10
4.9174769637
 20
4.2711131696
 30
0.0
 10
4.9138616798
 20
4.2655879264
 30
0.0
 10
4.9114060203
 20
4.2583573709
 30
0.0
  0
SPLINE
  5
2C7
100
AcDbEntity
  8
0
100
AcDbSpline
 62
7
  6
CONTINUOUS
 70
0
 71
3
 72
8
 73
4
 74
0
 42
0.0000001
 43
0.0000001
 44
0.0000000001
 40
0.0
 40
0.0
 40
0.0
 40
0.0
 40
1.0
 40
1.0
 40
1.0
 40
1.0
 10
4.9114060203
 20
4.2583573709
 30
0.0
 10
4.9089503584
 20
4.2511268084
 30
0.0
 10
4.9077907381
 20
4.2416452293
 30
0.0
 10
4.9077907381
 20
4.2298444097
 30
0.0
  0
SPLINE
  5
2C8
100
AcDbEntity
  8
0
100
AcDbSpline
 62
7
  6
CONTINUOUS
 70
0
 71
3
 72
8
 73
4
 74
0
 42
0.0000001
 43
0.0000001
 44
0.0000000001
 40
0.0
 40
0.0
 40
0.0
 40
0.0
 40
1.0
 40
1.0
 40
1.0
 40
1.0
 10
4.9545686617
 20
4.2626434889
 30
0.0
 10
4.9507648167
 20
4.26804359
 30
0.0
 10
4.9459899244
 20
4.2707721059
 30
0.0
 10
4.9402600464
 20
4.2707721059
 30
0.0
  0
SPLINE
  5
2C9
100
AcDbEntity
  8
0
100
AcDbSpline
 62
7
  6
CONTINUOUS
 70
0
 71
3
 72
8
 73
4
 74
0
 42
0.0000001
 43
0.0000001
 44
0.0000000001
 40
0.0
 40
0.0
 40
0.0
 40
0.0
 40
1.0
 40
1.0
 40
1.0
 40
1.0
 10
4.9603828249
 20
4.2298444097
 30
0.0
 10
4.9603828249
 20
4.2462836985
 30
0.0
 10
4.958404654
 20
4.2571977501
 30
0.0
 10
4.9545686617
 20
4.2626434889
 30
0.0
  0
SPLINE
  5
2CA
100
AcDbEntity
  8
0
100
AcDbSpline
 62
7
  6
CONTINUOUS
 70
0
 71
3
 72
8
 73
4
 74
0
 42
0.0000001
 43
0.0000001
 44
0.0000000001
 40
0.0
 40
0.0
 40
0.0
 40
0.0
 40
1.0
 40
1.0
 40
1.0
 40
1.0
 10
4.9545847354
 20
4.1971022536
 30
0.0
 10
4.958404654
 20
4.2025592794
 30
0.0
 10
4.9603828249
 20
4.2134733324
 30
0.0
 10
4.9603828249
 20
4.2298444097
 30
0.0
  0
SPLINE
  5
2CB
100
AcDbEntity
  8
0
100
AcDbSpline
 62
7
  6
CONTINUOUS
 70
0
 71
3
 72
8
 73
4
 74
0
 42
0.0000001
 43
0.0000001
 44
0.0000000001
 40
0.0
 40
0.0
 40
0.0
 40
0.0
 40
1.0
 40
1.0
 40
1.0
 40
1.0
 10
4.9403964696
 20
4.1889167142
 30
0.0
 10
4.9459899244
 20
4.1889167142
 30
0.0
 10
4.9507648167
 20
4.1916452278
 30
0.0
 10
4.9545847354
 20
4.1971022536
 30
0.0
  0
SPLINE
  5
2CC
100
AcDbEntity
  8
0
100
AcDbSpline
 62
7
  6
CONTINUOUS
 70
0
 71
3
 72
8
 73
4
 74
0
 42
0.0000001
 43
0.0000001
 44
0.0000000001
 40
0.0
 40
0.0
 40
0.0
 40
0.0
 40
1.0
 40
1.0
 40
1.0
 40
1.0
 10
4.9261399922
 20
4.1970340405
 30
0.0
 10
4.9299599108
 20
4.1915770148
 30
0.0
 10
4.9347348032
 20
4.1889167142
 30
0.0
 10
4.9403964696
 20
4.1889167142
 30
0.0
  0
SPLINE
  5
2CD
100
AcDbEntity
  8
0
100
AcDbSpline
 62
7
  6
CONTINUOUS
 70
0
 71
3
 72
8
 73
4
 74
0
 42
0.0000001
 43
0.0000001
 44
0.0000000001
 40
0.0
 40
0.0
 40
0.0
 40
0.0
 40
1.0
 40
1.0
 40
1.0
 40
1.0
 10
4.9204101143
 20
4.2298444097
 30
0.0
 10
4.9204101143
 20
4.2134051178
 30
0.0
 10
4.9223200736
 20
4.2024910663
 30
0.0
 10
4.9261399922
 20
4.1970340405
 30
0.0
  0
SPLINE
  5
2CE
100
AcDbEntity
  8
0
100
AcDbSpline
 62
7
  6
CONTINUOUS
 70
0
 71
3
 72
8
 73
4
 74
0
 42
0.0000001
 43
0.0000001
 44
0.0000000001
 40
0.0
 40
0.0
 40
0.0
 40
0.0
 40
1.0
 40
1.0
 40
1.0
 40
1.0
 10
4.9267740227
 20
4.2635957382
 30
0.0
 10
4.9225247082
 20
4.2574706022
 30
0.0
 10
4.9204101143
 20
4.246215487
 30
0.0
 10
4.9204101143
 20
4.2298444097
 30
0.0
  0
SPLINE
  5
2CF
100
AcDbEntity
  8
0
100
AcDbSpline
 62
7
  6
CONTINUOUS
 70
0
 71
3
 72
8
 73
4
 74
0
 42
0.0000001
 43
0.0000001
 44
0.0000000001
 40
0.0
 40
0.0
 40
0.0
 40
0.0
 40
1.0
 40
1.0
 40
1.0
 40
1.0
 10
4.9402600464
 20
4.2707721059
 30
0.0
 10
4.9345983801
 20
4.2707721059
 30
0.0
 10
4.9300963339
 20
4.2683846538
 30
0.0
 10
4.9267740227
 20
4.2635957382
 30
0.0
  0
SPLINE
  5
2D0
100
AcDbEntity
  8
0
100
AcDbSpline
 62
7
  6
CONTINUOUS
 70
0
 71
3
 72
8
 73
4
 74
0
 42
0.0000001
 43
0.0000001
 44
0.0000000001
 40
0.0
 40
0.0
 40
0.0
 40
0.0
 40
1.0
 40
1.0
 40
1.0
 40
1.0
 10
4.9891004271
 20
4.25835737
 30
0.0
 10
4.9866447625
 20
4.2511268084
 30
0.0
 10
4.9854851422
 20
4.2416452293
 30
0.0
 10
4.9854851422
 20
4.2298444097
 30
0.0
  0
SPLINE
  5
2D1
100
AcDbEntity
  8
0
100
AcDbSpline
 62
7
  6
CONTINUOUS
 70
0
 71
3
 72
8
 73
4
 74
0
 42
0.0000001
 43
0.0000001
 44
0.0000000001
 40
0.0
 40
0.0
 40
0.0
 40
0.0
 40
1.0
 40
1.0
 40
1.0
 40
1.0
 10
4.9854851422
 20
4.2298444097
 30
0.0
 10
4.9854851422
 20
4.2110176687
 30
0.0
 10
4.9887593684
 20
4.1975115304
 30
0.0
 10
4.9953508508
 20
4.1891697604
 30
0.0
  0
SPLINE
  5
2D2
100
AcDbEntity
  8
0
100
AcDbSpline
 62
7
  6
CONTINUOUS
 70
0
 71
3
 72
8
 73
4
 74
0
 42
0.0000001
 43
0.0000001
 44
0.0000000001
 40
0.0
 40
0.0
 40
0.0
 40
0.0
 40
1.0
 40
1.0
 40
1.0
 40
1.0
 10
4.9953508508
 20
4.1891697604
 30
0.0
 10
5.0008330283
 20
4.1822318577
 30
0.0
 10
5.008404654
 20
4.1788212166
 30
0.0
 10
5.0180908737
 20
4.1788212166
 30
0.0
  0
SPLINE
  5
2D3
100
AcDbEntity
  8
0
100
AcDbSpline
 62
7
  6
CONTINUOUS
 70
0
 71
3
 72
8
 73
4
 74
0
 42
0.0000001
 43
0.0000001
 44
0.0000000001
 40
0.0
 40
0.0
 40
0.0
 40
0.0
 40
1.0
 40
1.0
 40
1.0
 40
1.0
 10
5.0180908737
 20
4.1788212166
 30
0.0
 10
5.0253896532
 20
4.1788212166
 30
0.0
 10
5.0314606008
 20
4.1807311756
 30
0.0
 10
5.0362354861
 20
4.1846875137
 30
0.0
  0
SPLINE
  5
2D4
100
AcDbEntity
  8
0
100
AcDbSpline
 62
7
  6
CONTINUOUS
 70
0
 71
3
 72
8
 73
4
 74
0
 42
0.0000001
 43
0.0000001
 44
0.0000000001
 40
0.0
 40
0.0
 40
0.0
 40
0.0
 40
1.0
 40
1.0
 40
1.0
 40
1.0
 10
5.0362354861
 20
4.1846875137
 30
0.0
 10
5.0410103855
 20
4.1886438635
 30
0.0
 10
5.0446256694
 20
4.1941691016
 30
0.0
 10
5.0470506451
 20
4.2014098657
 30
0.0
  0
SPLINE
  5
2D5
100
AcDbEntity
  8
0
100
AcDbSpline
 62
7
  6
CONTINUOUS
 70
0
 71
3
 72
8
 73
4
 74
0
 42
0.0000001
 43
0.0000001
 44
0.0000000001
 40
0.0
 40
0.0
 40
0.0
 40
0.0
 40
1.0
 40
1.0
 40
1.0
 40
1.0
 10
5.0470506451
 20
4.2014098657
 30
0.0
 10
5.0494687853
 20
4.2086302196
 30
0.0
 10
5.0506966171
 20
4.2181118046
 30
0.0
 10
5.0506966171
 20
4.2298444097
 30
0.0
  0
SPLINE
  5
2D6
100
AcDbEntity
  8
0
100
AcDbSpline
 62
7
  6
CONTINUOUS
 70
0
 71
3
 72
8
 73
4
 74
0
 42
0.0000001
 43
0.0000001
 44
0.0000000001
 40
0.0
 40
0.0
 40
0.0
 40
0.0
 40
1.0
 40
1.0
 40
1.0
 40
1.0
 10
5.0506966171
 20
4.2298444097
 30
0.0
 10
5.0506966171
 20
4.23973527
 30
0.0
 10
5.0499462661
 20
4.2475797419
 30
0.0
 10
5.0484455874
 20
4.2534460488
 30
0.0
  0
SPLINE
  5
2D7
100
AcDbEntity
  8
0
100
AcDbSpline
 62
7
  6
CONTINUOUS
 70
0
 71
3
 72
8
 73
4
 74
0
 42
0.0000001
 43
0.0000001
 44
0.0000000001
 40
0.0
 40
0.0
 40
0.0
 40
0.0
 40
1.0
 40
1.0
 40
1.0
 40
1.0
 10
5.0484455874
 20
4.2534460488
 30
0.0
 10
5.04694491
 20
4.25931235
 30
0.0
 10
5.0448303041
 20
4.2642236714
 30
0.0
 10
5.0422141041
 20
4.2683008693
 30
0.0
  0
SPLINE
  5
2D8
100
AcDbEntity
  8
0
100
AcDbSpline
 62
7
  6
CONTINUOUS
 70
0
 71
3
 72
8
 73
4
 74
0
 42
0.0000001
 43
0.0000001
 44
0.0000000001
 40
0.0
 40
0.0
 40
0.0
 40
0.0
 40
1.0
 40
1.0
 40
1.0
 40
1.0
 10
5.0422141041
 20
4.2683008693
 30
0.0
 10
5.039577919
 20
4.272409213
 30
0.0
 10
5.0362354812
 20
4.2754787867
 30
0.0
 10
5.032203301
 20
4.2776473574
 30
0.0
  0
SPLINE
  5
2D9
100
AcDbEntity
  8
0
100
AcDbSpline
 62
7
  6
CONTINUOUS
 70
0
 71
3
 72
8
 73
4
 74
0
 42
0.0000001
 43
0.0000001
 44
0.0000000001
 40
0.0
 40
0.0
 40
0.0
 40
0.0
 40
1.0
 40
1.0
 40
1.0
 40
1.0
 10
5.032203301
 20
4.2776473574
 30
0.0
 10
5.0281181631
 20
4.2798444097
 30
0.0
 10
5.0234114823
 20
4.2809358184
 30
0.0
 10
5.0180908737
 20
4.2809358184
 30
0.0
  0
SPLINE
  5
2DA
100
AcDbEntity
  8
0
100
AcDbSpline
 62
7
  6
CONTINUOUS
 70
0
 71
3
 72
8
 73
4
 74
0
 42
0.0000001
 43
0.0000001
 44
0.0000000001
 40
0.0
 40
0.0
 40
0.0
 40
0.0
 40
1.0
 40
1.0
 40
1.0
 40
1.0
 10
5.0180908737
 20
4.2809358184
 30
0.0
 10
5.0107921061
 20
4.2809358184
 30
0.0
 10
5.0047211585
 20
4.2789576416
 30
0.0
 10
4.9999630376
 20
4.2750491822
 30
0.0
  0
SPLINE
  5
2DB
100
AcDbEntity
  8
0
100
AcDbSpline
 62
7
  6
CONTINUOUS
 70
0
 71
3
 72
8
 73
4
 74
0
 42
0.0000001
 43
0.0000001
 44
0.0000000001
 40
0.0
 40
0.0
 40
0.0
 40
0.0
 40
1.0
 40
1.0
 40
1.0
 40
1.0
 10
4.9999630376
 20
4.2750491822
 30
0.0
 10
4.9951713738
 20
4.2711131696
 30
0.0
 10
4.9915560898
 20
4.2655879264
 30
0.0
 10
4.9891004271
 20
4.25835737
 30
0.0
  0
SPLINE
  5
2DC
100
AcDbEntity
  8
0
100
AcDbSpline
 62
7
  6
CONTINUOUS
 70
0
 71
3
 72
8
 73
4
 74
0
 42
0.0000001
 43
0.0000001
 44
0.0000000001
 40
0.0
 40
0.0
 40
0.0
 40
0.0
 40
1.0
 40
1.0
 40
1.0
 40
1.0
 10
5.0322630658
 20
4.2626434889
 30
0.0
 10
5.0284592209
 20
4.26804359
 30
0.0
 10
5.0236843285
 20
4.2707721059
 30
0.0
 10
5.0179544506
 20
4.2707721059
 30
0.0
  0
SPLINE
  5
2DD
100
AcDbEntity
  8
0
100
AcDbSpline
 62
7
  6
CONTINUOUS
 70
0
 71
3
 72
8
 73
4
 74
0
 42
0.0000001
 43
0.0000001
 44
0.0000000001
 40
0.0
 40
0.0
 40
0.0
 40
0.0
 40
1.0
 40
1.0
 40
1.0
 40
1.0
 10
5.0380772409
 20
4.2298444097
 30
0.0
 10
5.0380772409
 20
4.2462836985
 30
0.0
 10
5.0360990581
 20
4.2571977501
 30
0.0
 10
5.0322630658
 20
4.2626434889
 30
0.0
  0
SPLINE
  5
2DE
100
AcDbEntity
  8
0
100
AcDbSpline
 62
7
  6
CONTINUOUS
 70
0
 71
3
 72
8
 73
4
 74
0
 42
0.0000001
 43
0.0000001
 44
0.0000000001
 40
0.0
 40
0.0
 40
0.0
 40
0.0
 40
1.0
 40
1.0
 40
1.0
 40
1.0
 10
5.0322791395
 20
4.1971022536
 30
0.0
 10
5.0360990581
 20
4.2025592794
 30
0.0
 10
5.0380772409
 20
4.2134733324
 30
0.0
 10
5.0380772409
 20
4.2298444097
 30
0.0
  0
SPLINE
  5
2DF
100
AcDbEntity
  8
0
100
AcDbSpline
 62
7
  6
CONTINUOUS
 70
0
 71
3
 72
8
 73
4
 74
0
 42
0.0000001
 43
0.0000001
 44
0.0000000001
 40
0.0
 40
0.0
 40
0.0
 40
0.0
 40
1.0
 40
1.0
 40
1.0
 40
1.0
 10
5.0180908737
 20
4.1889167142
 30
0.0
 10
5.0236843285
 20
4.1889167142
 30
0.0
 10
5.0284592209
 20
4.1916452278
 30
0.0
 10
5.0322791395
 20
4.1971022536
 30
0.0
  0
SPLINE
  5
2E0
100
AcDbEntity
  8
0
100
AcDbSpline
 62
7
  6
CONTINUOUS
 70
0
 71
3
 72
8
 73
4
 74
0
 42
0.0000001
 43
0.0000001
 44
0.0000000001
 40
0.0
 40
0.0
 40
0.0
 40
0.0
 40
1.0
 40
1.0
 40
1.0
 40
1.0
 10
5.0038343963
 20
4.1970340405
 30
0.0
 10
5.007654315
 20
4.1915770148
 30
0.0
 10
5.0124292073
 20
4.1889167142
 30
0.0
 10
5.0180908737
 20
4.1889167142
 30
0.0
  0
SPLINE
  5
2E1
100
AcDbEntity
  8
0
100
AcDbSpline
 62
7
  6
CONTINUOUS
 70
0
 71
3
 72
8
 73
4
 74
0
 42
0.0000001
 43
0.0000001
 44
0.0000000001
 40
0.0
 40
0.0
 40
0.0
 40
0.0
 40
1.0
 40
1.0
 40
1.0
 40
1.0
 10
4.9981045184
 20
4.2298444097
 30
0.0
 10
4.9981045184
 20
4.2134051178
 30
0.0
 10
5.0000144777
 20
4.2024910663
 30
0.0
 10
5.0038343963
 20
4.1970340405
 30
0.0
  0
SPLINE
  5
2E2
100
AcDbEntity
  8
0
100
AcDbSpline
 62
7
  6
CONTINUOUS
 70
0
 71
3
 72
8
 73
4
 74
0
 42
0.0000001
 43
0.0000001
 44
0.0000000001
 40
0.0
 40
0.0
 40
0.0
 40
0.0
 40
1.0
 40
1.0
 40
1.0
 40
1.0
 10
5.0044684268
 20
4.2635957382
 30
0.0
 10
5.0002191124
 20
4.2574706022
 30
0.0
 10
4.9981045184
 20
4.246215487
 30
0.0
 10
4.9981045184
 20
4.2298444097
 30
0.0
  0
SPLINE
  5
2E3
100
AcDbEntity
  8
0
100
AcDbSpline
 62
7
  6
CONTINUOUS
 70
0
 71
3
 72
8
 73
4
 74
0
 42
0.0000001
 43
0.0000001
 44
0.0000000001
 40
0.0
 40
0.0
 40
0.0
 40
0.0
 40
1.0
 40
1.0
 40
1.0
 40
1.0
 10
5.0179544506
 20
4.2707721059
 30
0.0
 10
5.0122927842
 20
4.2707721059
 30
0.0
 10
5.0077907381
 20
4.2683846538
 30
0.0
 10
5.0044684268
 20
4.2635957382
 30
0.0
  0
SPLINE
  5
2E4
100
AcDbEntity
  8
0
100
AcDbSpline
 62
7
  6
CONTINUOUS
 70
0
 71
3
 72
8
 73
4
 74
0
 42
0.0000001
 43
0.0000001
 44
0.0000000001
 40
0.0
 40
0.0
 40
0.0
 40
0.0
 40
1.0
 40
1.0
 40
1.0
 40
1.0
 10
5.4981183649
 20
3.7862050675
 30
0.0
 10
5.4898164107
 20
3.7839805656
 30
0.0
 10
5.4821036517
 20
3.7850917945
 30
0.0
 10
5.4749490774
 20
3.7893886173
 30
0.0
  0
SPLINE
  5
2E5
100
AcDbEntity
  8
0
100
AcDbSpline
 62
7
  6
CONTINUOUS
 70
0
 71
3
 72
8
 73
4
 74
0
 42
0.0000001
 43
0.0000001
 44
0.0000000001
 40
0.0
 40
0.0
 40
0.0
 40
0.0
 40
1.0
 40
1.0
 40
1.0
 40
1.0
 10
5.5122673915
 20
3.795026947
 30
0.0
 10
5.5087639246
 20
3.7907523946
 30
0.0
 10
5.5040483345
 20
3.787793998
 30
0.0
 10
5.4981183649
 20
3.7862050675
 30
0.0
  0
SPLINE
  5
2E6
100
AcDbEntity
  8
0
100
AcDbSpline
 62
7
  6
CONTINUOUS
 70
0
 71
3
 72
8
 73
4
 74
0
 42
0.0000001
 43
0.0000001
 44
0.0000000001
 40
0.0
 40
0.0
 40
0.0
 40
0.0
 40
1.0
 40
1.0
 40
1.0
 40
1.0
 10
5.5180197339
 20
3.8110284936
 30
0.0
 10
5.51763201
 20
3.8045688841
 30
0.0
 10
5.5157357734
 20
3.7992586924
 30
0.0
 10
5.5122673915
 20
3.795026947
 30
0.0
  0
SPLINE
  5
2E7
100
AcDbEntity
  8
0
100
AcDbSpline
 62
7
  6
CONTINUOUS
 70
0
 71
3
 72
8
 73
4
 74
0
 42
0.0000001
 43
0.0000001
 44
0.0000000001
 40
0.0
 40
0.0
 40
0.0
 40
0.0
 40
1.0
 40
1.0
 40
1.0
 40
1.0
 10
5.5285228783
 20
3.8024025094
 30
0.0
 10
5.5245928773
 20
3.8038917589
 30
0.0
 10
5.5210698691
 20
3.8067612008
 30
0.0
 10
5.5180197339
 20
3.8110284936
 30
0.0
  0
SPLINE
  5
2E8
100
AcDbEntity
  8
0
100
AcDbSpline
 62
7
  6
CONTINUOUS
 70
0
 71
3
 72
8
 73
4
 74
0
 42
0.0000001
 43
0.0000001
 44
0.0000000001
 40
0.0
 40
0.0
 40
0.0
 40
0.0
 40
1.0
 40
1.0
 40
1.0
 40
1.0
 10
5.5412043943
 20
3.8019870824
 30
0.0
 10
5.5367239713
 20
3.8007865567
 30
0.0
 10
5.5324528793
 20
3.8009132599
 30
0.0
 10
5.5285228783
 20
3.8024025094
 30
0.0
  0
SPLINE
  5
2E9
100
AcDbEntity
  8
0
100
AcDbSpline
 62
7
  6
CONTINUOUS
 70
0
 71
3
 72
8
 73
4
 74
0
 42
0.0000001
 43
0.0000001
 44
0.0000000001
 40
0.0
 40
0.0
 40
0.0
 40
0.0
 40
1.0
 40
1.0
 40
1.0
 40
1.0
 10
5.556994574
 20
3.8144804788
 30
0.0
 10
5.5534958989
 20
3.8080347246
 30
0.0
 10
5.5481885751
 20
3.803858488
 30
0.0
 10
5.5412043943
 20
3.8019870824
 30
0.0
  0
SPLINE
  5
2EA
100
AcDbEntity
  8
0
100
AcDbSpline
 62
7
  6
CONTINUOUS
 70
0
 71
3
 72
8
 73
4
 74
0
 42
0.0000001
 43
0.0000001
 44
0.0000000001
 40
0.0
 40
0.0
 40
0.0
 40
0.0
 40
1.0
 40
1.0
 40
1.0
 40
1.0
 10
5.5589187691
 20
3.8368173724
 30
0.0
 10
5.5611785803
 20
3.8283836421
 30
0.0
 10
5.5604932532
 20
3.8209262403
 30
0.0
 10
5.556994574
 20
3.8144804788
 30
0.0
  0
SPLINE
  5
2EB
100
AcDbEntity
  8
0
100
AcDbSpline
 62
7
  6
CONTINUOUS
 70
0
 71
3
 72
8
 73
4
 74
0
 42
0.0000001
 43
0.0000001
 44
0.0000000001
 40
0.0
 40
0.0
 40
0.0
 40
0.0
 40
1.0
 40
1.0
 40
1.0
 40
1.0
 10
5.5463338762
 20
3.8550537884
 30
0.0
 10
5.5524202876
 20
3.8513185071
 30
0.0
 10
5.5566589571
 20
3.8452511055
 30
0.0
 10
5.5589187691
 20
3.8368173724
 30
0.0
  0
SPLINE
  5
2EC
100
AcDbEntity
  8
0
100
AcDbSpline
 62
7
  6
CONTINUOUS
 70
0
 71
3
 72
8
 73
4
 74
0
 42
0.0000001
 43
0.0000001
 44
0.0000000001
 40
0.0
 40
0.0
 40
0.0
 40
0.0
 40
1.0
 40
1.0
 40
1.0
 40
1.0
 10
5.5265802404
 20
3.8578829368
 30
0.0
 10
5.5335644212
 20
3.8597543424
 30
0.0
 10
5.540165275
 20
3.8588395101
 30
0.0
 10
5.5463338762
 20
3.8550537884
 30
0.0
  0
SPLINE
  5
2ED
100
AcDbEntity
  8
0
100
AcDbSpline
 62
7
  6
CONTINUOUS
 70
0
 71
3
 72
8
 73
4
 74
0
 42
0.0000001
 43
0.0000001
 44
0.0000000001
 40
0.0
 40
0.0
 40
0.0
 40
0.0
 40
1.0
 40
1.0
 40
1.0
 40
1.0
 10
5.5155266412
 20
3.8511244188
 30
0.0
 10
5.5182007411
 20
3.8543665132
 30
0.0
 10
5.5219021555
 20
3.8566294477
 30
0.0
 10
5.5265802404
 20
3.8578829368
 30
0.0
  0
SPLINE
  5
2EE
100
AcDbEntity
  8
0
100
AcDbSpline
 62
7
  6
CONTINUOUS
 70
0
 71
3
 72
8
 73
4
 74
0
 42
0.0000001
 43
0.0000001
 44
0.0000000001
 40
0.0
 40
0.0
 40
0.0
 40
0.0
 40
1.0
 40
1.0
 40
1.0
 40
1.0
 10
5.5107636193
 20
3.8381086818
 30
0.0
 10
5.5112185027
 20
3.843527001
 30
0.0
 10
5.5128171411
 20
3.8478394048
 30
0.0
 10
5.5155266412
 20
3.8511244188
 30
0.0
  0
SPLINE
  5
2EF
100
AcDbEntity
  8
0
100
AcDbSpline
 62
7
  6
CONTINUOUS
 70
0
 71
3
 72
8
 73
4
 74
0
 42
0.0000001
 43
0.0000001
 44
0.0000000001
 40
0.0
 40
0.0
 40
0.0
 40
0.0
 40
1.0
 40
1.0
 40
1.0
 40
1.0
 10
5.4984117952
 20
3.8494171763
 30
0.0
 10
5.5034760897
 20
3.8473844323
 30
0.0
 10
5.5075933655
 20
3.8436149339
 30
0.0
 10
5.5107636193
 20
3.8381086818
 30
0.0
  0
SPLINE
  5
2F0
100
AcDbEntity
  8
0
100
AcDbSpline
 62
7
  6
CONTINUOUS
 70
0
 71
3
 72
8
 73
4
 74
0
 42
0.0000001
 43
0.0000001
 44
0.0000000001
 40
0.0
 40
0.0
 40
0.0
 40
0.0
 40
1.0
 40
1.0
 40
1.0
 40
1.0
 10
5.4813932921
 20
3.8499416581
 30
0.0
 10
5.4876527039
 20
3.8516188625
 30
0.0
 10
5.4933475006
 20
3.8514499202
 30
0.0
 10
5.4984117952
 20
3.8494171763
 30
0.0
  0
SPLINE
  5
2F1
100
AcDbEntity
  8
0
100
AcDbSpline
 62
7
  6
CONTINUOUS
 70
0
 71
3
 72
8
 73
4
 74
0
 42
0.0000001
 43
0.0000001
 44
0.0000000001
 40
0.0
 40
0.0
 40
0.0
 40
0.0
 40
1.0
 40
1.0
 40
1.0
 40
1.0
 10
5.462570425
 20
3.835522918
 30
0.0
 10
5.4666862996
 20
3.8428936908
 30
0.0
 10
5.4729595619
 20
3.8476818469
 30
0.0
 10
5.4813932921
 20
3.8499416581
 30
0.0
  0
SPLINE
  5
2F2
100
AcDbEntity
  8
0
100
AcDbSpline
 62
7
  6
CONTINUOUS
 70
0
 71
3
 72
8
 73
4
 74
0
 42
0.0000001
 43
0.0000001
 44
0.0000000001
 40
0.0
 40
0.0
 40
0.0
 40
0.0
 40
1.0
 40
1.0
 40
1.0
 40
1.0
 10
5.4603366021
 20
3.8101905039
 30
0.0
 10
5.457776659
 20
3.8197443413
 30
0.0
 10
5.4584783684
 20
3.8281947989
 30
0.0
 10
5.462570425
 20
3.835522918
 30
0.0
  0
SPLINE
  5
2F3
100
AcDbEntity
  8
0
100
AcDbSpline
 62
7
  6
CONTINUOUS
 70
0
 71
3
 72
8
 73
4
 74
0
 42
0.0000001
 43
0.0000001
 44
0.0000000001
 40
0.0
 40
0.0
 40
0.0
 40
0.0
 40
1.0
 40
1.0
 40
1.0
 40
1.0
 10
5.4749490774
 20
3.7893886173
 30
0.0
 10
5.4677118172
 20
3.7937350989
 30
0.0
 10
5.4628788899
 20
3.8007025566
 30
0.0
 10
5.4603366021
 20
3.8101905039
 30
0.0
  0
SPLINE
  5
2F4
100
AcDbEntity
  8
0
100
AcDbSpline
 62
7
  6
CONTINUOUS
 70
0
 71
3
 72
8
 73
4
 74
0
 42
0.0000001
 43
0.0000001
 44
0.0000000001
 40
0.0
 40
0.0
 40
0.0
 40
0.0
 40
1.0
 40
1.0
 40
1.0
 40
1.0
 10
5.499895476
 20
3.8359733824
 30
0.0
 10
5.4952170523
 20
3.8386744721
 30
0.0
 10
5.4901281757
 20
3.8392176278
 30
0.0
 10
5.4845935386
 20
3.8377346263
 30
0.0
  0
SPLINE
  5
2F5
100
AcDbEntity
  8
0
100
AcDbSpline
 62
7
  6
CONTINUOUS
 70
0
 71
3
 72
8
 73
4
 74
0
 42
0.0000001
 43
0.0000001
 44
0.0000000001
 40
0.0
 40
0.0
 40
0.0
 40
0.0
 40
1.0
 40
1.0
 40
1.0
 40
1.0
 10
5.5091552702
 20
3.8235539039
 30
0.0
 10
5.5076546142
 20
3.8291544283
 30
0.0
 10
5.5045739006
 20
3.8332722921
 30
0.0
 10
5.499895476
 20
3.8359733824
 30
0.0
  0
SPLINE
  5
2F6
100
AcDbEntity
  8
0
100
AcDbSpline
 62
7
  6
CONTINUOUS
 70
0
 71
3
 72
8
 73
4
 74
0
 42
0.0000001
 43
0.0000001
 44
0.0000000001
 40
0.0
 40
0.0
 40
0.0
 40
0.0
 40
1.0
 40
1.0
 40
1.0
 40
1.0
 10
5.5073468877
 20
3.8078333077
 30
0.0
 10
5.5100339586
 20
3.8126315289
 30
0.0
 10
5.5106735814
 20
3.8178874894
 30
0.0
 10
5.5091552702
 20
3.8235539039
 30
0.0
  0
SPLINE
  5
2F7
100
AcDbEntity
  8
0
100
AcDbSpline
 62
7
  6
CONTINUOUS
 70
0
 71
3
 72
8
 73
4
 74
0
 42
0.0000001
 43
0.0000001
 44
0.0000000001
 40
0.0
 40
0.0
 40
0.0
 40
0.0
 40
1.0
 40
1.0
 40
1.0
 40
1.0
 10
5.4947381085
 20
3.7982932461
 30
0.0
 10
5.5004045231
 20
3.7998115573
 30
0.0
 10
5.5046365099
 20
3.802993468
 30
0.0
 10
5.5073468877
 20
3.8078333077
 30
0.0
  0
SPLINE
  5
2F8
100
AcDbEntity
  8
0
100
AcDbSpline
 62
7
  6
CONTINUOUS
 70
0
 71
3
 72
8
 73
4
 74
0
 42
0.0000001
 43
0.0000001
 44
0.0000000001
 40
0.0
 40
0.0
 40
0.0
 40
0.0
 40
1.0
 40
1.0
 40
1.0
 40
1.0
 10
5.4793404686
 20
3.8000817724
 30
0.0
 10
5.4839651654
 20
3.7973839801
 30
0.0
 10
5.4890716968
 20
3.7967749357
 30
0.0
 10
5.4947381085
 20
3.7982932461
 30
0.0
  0
SPLINE
  5
2F9
100
AcDbEntity
  8
0
100
AcDbSpline
 62
7
  6
CONTINUOUS
 70
0
 71
3
 72
8
 73
4
 74
0
 42
0.0000001
 43
0.0000001
 44
0.0000000001
 40
0.0
 40
0.0
 40
0.0
 40
0.0
 40
1.0
 40
1.0
 40
1.0
 40
1.0
 10
5.4701234136
 20
3.8126716334
 30
0.0
 10
5.471641724
 20
3.8070052217
 30
0.0
 10
5.4746742041
 20
3.802803813
 30
0.0
 10
5.4793404686
 20
3.8000817724
 30
0.0
  0
SPLINE
  5
2FA
100
AcDbEntity
  8
0
100
AcDbSpline
 62
7
  6
CONTINUOUS
 70
0
 71
3
 72
8
 73
4
 74
0
 42
0.0000001
 43
0.0000001
 44
0.0000000001
 40
0.0
 40
0.0
 40
0.0
 40
0.0
 40
1.0
 40
1.0
 40
1.0
 40
1.0
 10
5.4699565757
 20
3.8235728919
 30
0.0
 10
5.4690909035
 20
3.8199512196
 30
0.0
 10
5.4691347459
 20
3.8163613915
 30
0.0
 10
5.4701234136
 20
3.8126716334
 30
0.0
  0
SPLINE
  5
2FB
100
AcDbEntity
  8
0
100
AcDbSpline
 62
7
  6
CONTINUOUS
 70
0
 71
3
 72
8
 73
4
 74
0
 42
0.0000001
 43
0.0000001
 44
0.0000000001
 40
0.0
 40
0.0
 40
0.0
 40
0.0
 40
1.0
 40
1.0
 40
1.0
 40
1.0
 10
5.4754117194
 20
3.8327320773
 30
0.0
 10
5.4726727848
 20
3.8303033233
 30
0.0
 10
5.4708222482
 20
3.8271945656
 30
0.0
 10
5.4699565757
 20
3.8235728919
 30
0.0
  0
SPLINE
  5
2FC
100
AcDbEntity
  8
0
100
AcDbSpline
 62
7
  6
CONTINUOUS
 70
0
 71
3
 72
8
 73
4
 74
0
 42
0.0000001
 43
0.0000001
 44
0.0000000001
 40
0.0
 40
0.0
 40
0.0
 40
0.0
 40
1.0
 40
1.0
 40
1.0
 40
1.0
 10
5.4845935386
 20
3.8377346263
 30
0.0
 10
5.4811673355
 20
3.8368165779
 30
0.0
 10
5.4781506545
 20
3.8351608317
 30
0.0
 10
5.4754117194
 20
3.8327320773
 30
0.0
  0
SPLINE
  5
2FD
100
AcDbEntity
  8
0
100
AcDbSpline
 62
7
  6
CONTINUOUS
 70
0
 71
3
 72
8
 73
4
 74
0
 42
0.0000001
 43
0.0000001
 44
0.0000000001
 40
0.0
 40
0.0
 40
0.0
 40
0.0
 40
1.0
 40
1.0
 40
1.0
 40
1.0
 10
5.5302240493
 20
3.8458653753
 30
0.0
 10
5.5256118517
 20
3.8446295407
 30
0.0
 10
5.5223104984
 20
3.8421913264
 30
0.0
 10
5.5201850025
 20
3.8384613476
 30
0.0
  0
SPLINE
  5
2FE
100
AcDbEntity
  8
0
100
AcDbSpline
 62
7
  6
CONTINUOUS
 70
0
 71
3
 72
8
 73
4
 74
0
 42
0.0000001
 43
0.0000001
 44
0.0000000001
 40
0.0
 40
0.0
 40
0.0
 40
0.0
 40
1.0
 40
1.0
 40
1.0
 40
1.0
 10
5.541847104
 20
3.8441947744
 30
0.0
 10
5.5381237448
 20
3.846428473
 30
0.0
 10
5.5342432496
 20
3.8469423168
 30
0.0
 10
5.5302240493
 20
3.8458653753
 30
0.0
  0
SPLINE
  5
2FF
100
AcDbEntity
  8
0
100
AcDbSpline
 62
7
  6
CONTINUOUS
 70
0
 71
3
 72
8
 73
4
 74
0
 42
0.0000001
 43
0.0000001
 44
0.0000000001
 40
0.0
 40
0.0
 40
0.0
 40
0.0
 40
1.0
 40
1.0
 40
1.0
 40
1.0
 10
5.5492025729
 20
3.8340726899
 30
0.0
 10
5.5479843935
 20
3.8386189973
 30
0.0
 10
5.5455285219
 20
3.841986237
 30
0.0
 10
5.541847104
 20
3.8441947744
 30
0.0
  0
SPLINE
  5
300
100
AcDbEntity
  8
0
100
AcDbSpline
 62
7
  6
CONTINUOUS
 70
0
 71
3
 72
8
 73
4
 74
0
 42
0.0000001
 43
0.0000001
 44
0.0000000001
 40
0.0
 40
0.0
 40
0.0
 40
0.0
 40
1.0
 40
1.0
 40
1.0
 40
1.0
 10
5.5477234646
 20
3.8216711138
 30
0.0
 10
5.5498763288
 20
3.8254964517
 30
0.0
 10
5.5504030978
 20
3.8295922698
 30
0.0
 10
5.5492025729
 20
3.8340726899
 30
0.0
  0
SPLINE
  5
301
100
AcDbEntity
  8
0
100
AcDbSpline
 62
7
  6
CONTINUOUS
 70
0
 71
3
 72
8
 73
4
 74
0
 42
0.0000001
 43
0.0000001
 44
0.0000000001
 40
0.0
 40
0.0
 40
0.0
 40
0.0
 40
1.0
 40
1.0
 40
1.0
 40
1.0
 10
5.5380041482
 20
3.8141941124
 30
0.0
 10
5.5423527908
 20
3.8153593277
 30
0.0
 10
5.5455706015
 20
3.8178457777
 30
0.0
 10
5.5477234646
 20
3.8216711138
 30
0.0
  0
SPLINE
  5
302
100
AcDbEntity
  8
0
100
AcDbSpline
 62
7
  6
CONTINUOUS
 70
0
 71
3
 72
8
 73
4
 74
0
 42
0.0000001
 43
0.0000001
 44
0.0000000001
 40
0.0
 40
0.0
 40
0.0
 40
0.0
 40
1.0
 40
1.0
 40
1.0
 40
1.0
 10
5.5262132264
 20
3.8157662226
 30
0.0
 10
5.5298891298
 20
3.81364394
 30
0.0
 10
5.5337872802
 20
3.8130642061
 30
0.0
 10
5.5380041482
 20
3.8141941124
 30
0.0
  0
SPLINE
  5
303
100
AcDbEntity
  8
0
100
AcDbSpline
 62
7
  6
CONTINUOUS
 70
0
 71
3
 72
8
 73
4
 74
0
 42
0.0000001
 43
0.0000001
 44
0.0000000001
 40
0.0
 40
0.0
 40
0.0
 40
0.0
 40
1.0
 40
1.0
 40
1.0
 40
1.0
 10
5.5189291589
 20
3.8258197144
 30
0.0
 10
5.5201473391
 20
3.8212734041
 30
0.0
 10
5.5225373176
 20
3.8178885083
 30
0.0
 10
5.5262132264
 20
3.8157662226
 30
0.0
  0
SPLINE
  5
304
100
AcDbEntity
  8
0
100
AcDbSpline
 62
7
  6
CONTINUOUS
 70
0
 71
3
 72
8
 73
4
 74
0
 42
0.0000001
 43
0.0000001
 44
0.0000000001
 40
0.0
 40
0.0
 40
0.0
 40
0.0
 40
1.0
 40
1.0
 40
1.0
 40
1.0
 10
5.5201850025
 20
3.8384613476
 30
0.0
 10
5.5180835875
 20
3.8347736277
 30
0.0
 10
5.5176580154
 20
3.8305636865
 30
0.0
 10
5.5189291589
 20
3.8258197144
 30
0.0
  0
SPLINE
  5
305
100
AcDbEntity
  8
0
100
AcDbSpline
 62
7
  6
CONTINUOUS
 70
0
 71
3
 72
8
 73
4
 74
0
 42
0.0000001
 43
0.0000001
 44
0.0000000001
 40
0.0
 40
0.0
 40
0.0
 40
0.0
 40
1.0
 40
1.0
 40
1.0
 40
1.0
 10
5.4989018519
 20
3.7740566591
 30
0.0
 10
5.4909435332
 20
3.771076802
 30
0.0
 10
5.4852679983
 20
3.7661663309
 30
0.0
 10
5.481852446
 20
3.7593366915
 30
0.0
  0
SPLINE
  5
306
100
AcDbEntity
  8
0
100
AcDbSpline
 62
7
  6
CONTINUOUS
 70
0
 71
3
 72
8
 73
4
 74
0
 42
0.0000001
 43
0.0000001
 44
0.0000000001
 40
0.0
 40
0.0
 40
0.0
 40
0.0
 40
1.0
 40
1.0
 40
1.0
 40
1.0
 10
5.481852446
 20
3.7593366915
 30
0.0
 10
5.4784166107
 20
3.7524664948
 30
0.0
 10
5.4779031057
 20
3.7446314196
 30
0.0
 10
5.4802688452
 20
3.7358023598
 30
0.0
  0
SPLINE
  5
307
100
AcDbEntity
  8
0
100
AcDbSpline
 62
7
  6
CONTINUOUS
 70
0
 71
3
 72
8
 73
4
 74
0
 42
0.0000001
 43
0.0000001
 44
0.0000000001
 40
0.0
 40
0.0
 40
0.0
 40
0.0
 40
1.0
 40
1.0
 40
1.0
 40
1.0
 10
5.4802688452
 20
3.7358023598
 30
0.0
 10
5.4831289216
 20
3.7251284094
 30
0.0
 10
5.4892938089
 20
3.7176704295
 30
0.0
 10
5.4987802648
 20
3.7135461982
 30
0.0
  0
SPLINE
  5
308
100
AcDbEntity
  8
0
100
AcDbSpline
 62
7
  6
CONTINUOUS
 70
0
 71
3
 72
8
 73
4
 74
0
 42
0.0000001
 43
0.0000001
 44
0.0000000001
 40
0.0
 40
0.0
 40
0.0
 40
0.0
 40
1.0
 40
1.0
 40
1.0
 40
1.0
 10
5.4987802648
 20
3.7135461982
 30
0.0
 10
5.506478812
 20
3.7101992592
 30
0.0
 10
5.5147445288
 20
3.7096599078
 30
0.0
 10
5.5235077042
 20
3.7120079936
 30
0.0
  0
SPLINE
  5
309
100
AcDbEntity
  8
0
100
AcDbSpline
 62
7
  6
CONTINUOUS
 70
0
 71
3
 72
8
 73
4
 74
0
 42
0.0000001
 43
0.0000001
 44
0.0000000001
 40
0.0
 40
0.0
 40
0.0
 40
0.0
 40
1.0
 40
1.0
 40
1.0
 40
1.0
 10
5.5235077042
 20
3.7120079936
 30
0.0
 10
5.5326662091
 20
3.7144620076
 30
0.0
 10
5.5394006915
 20
3.7193737516
 30
0.0
 10
5.5436903369
 20
3.7267552699
 30
0.0
  0
SPLINE
  5
30A
100
AcDbEntity
  8
0
100
AcDbSpline
 62
7
  6
CONTINUOUS
 70
0
 71
3
 72
8
 73
4
 74
0
 42
0.0000001
 43
0.0000001
 44
0.0000000001
 40
0.0
 40
0.0
 40
0.0
 40
0.0
 40
1.0
 40
1.0
 40
1.0
 40
1.0
 10
5.5436903369
 20
3.7267552699
 30
0.0
 10
5.5479557154
 20
3.7340950304
 30
0.0
 10
5.5490139871
 20
3.7420054514
 30
0.0
 10
5.5467541744
 20
3.7504391874
 30
0.0
  0
SPLINE
  5
30B
100
AcDbEntity
  8
0
100
AcDbSpline
 62
7
  6
CONTINUOUS
 70
0
 71
3
 72
8
 73
4
 74
0
 42
0.0000001
 43
0.0000001
 44
0.0000000001
 40
0.0
 40
0.0
 40
0.0
 40
0.0
 40
1.0
 40
1.0
 40
1.0
 40
1.0
 10
5.5467541744
 20
3.7504391874
 30
0.0
 10
5.5450416619
 20
3.756830371
 30
0.0
 10
5.541374875
 20
3.7623448193
 30
0.0
 10
5.5358020538
 20
3.7670660698
 30
0.0
  0
SPLINE
  5
30C
100
AcDbEntity
  8
0
100
AcDbSpline
 62
7
  6
CONTINUOUS
 70
0
 71
3
 72
8
 73
4
 74
0
 42
0.0000001
 43
0.0000001
 44
0.0000000001
 40
0.0
 40
0.0
 40
0.0
 40
0.0
 40
1.0
 40
1.0
 40
1.0
 40
1.0
 10
5.5213604727
 20
3.7658799856
 30
0.0
 10
5.5245868133
 20
3.7649083811
 30
0.0
 10
5.5274802502
 20
3.7630707735
 30
0.0
 10
5.530035031
 20
3.7604446698
 30
0.0
  0
SPLINE
  5
30D
100
AcDbEntity
  8
0
100
AcDbSpline
 62
7
  6
CONTINUOUS
 70
0
 71
3
 72
8
 73
4
 74
0
 42
0.0000001
 43
0.0000001
 44
0.0000000001
 40
0.0
 40
0.0
 40
0.0
 40
0.0
 40
1.0
 40
1.0
 40
1.0
 40
1.0
 10
5.530035031
 20
3.7604446698
 30
0.0
 10
5.532548348
 20
3.7578611875
 30
0.0
 10
5.5344064919
 20
3.7546162583
 30
0.0
 10
5.5354304684
 20
3.7507947256
 30
0.0
  0
SPLINE
  5
30E
100
AcDbEntity
  8
0
100
AcDbSpline
 62
7
  6
CONTINUOUS
 70
0
 71
3
 72
8
 73
4
 74
0
 42
0.0000001
 43
0.0000001
 44
0.0000000001
 40
0.0
 40
0.0
 40
0.0
 40
0.0
 40
1.0
 40
1.0
 40
1.0
 40
1.0
 10
5.5354304684
 20
3.7507947256
 30
0.0
 10
5.5370723631
 20
3.7446670913
 30
0.0
 10
5.5364198179
 20
3.7391958087
 30
0.0
 10
5.5335359316
 20
3.7343448512
 30
0.0
  0
SPLINE
  5
30F
100
AcDbEntity
  8
0
100
AcDbSpline
 62
7
  6
CONTINUOUS
 70
0
 71
3
 72
8
 73
4
 74
0
 42
0.0000001
 43
0.0000001
 44
0.0000000001
 40
0.0
 40
0.0
 40
0.0
 40
0.0
 40
1.0
 40
1.0
 40
1.0
 40
1.0
 10
5.5335359316
 20
3.7343448512
 30
0.0
 10
5.5306270352
 20
3.7294518245
 30
0.0
 10
5.5258020512
 20
3.7261110207
 30
0.0
 10
5.5190814225
 20
3.7243102337
 30
0.0
  0
SPLINE
  5
310
100
AcDbEntity
  8
0
100
AcDbSpline
 62
7
  6
CONTINUOUS
 70
0
 71
3
 72
8
 73
4
 74
0
 42
0.0000001
 43
0.0000001
 44
0.0000000001
 40
0.0
 40
0.0
 40
0.0
 40
0.0
 40
1.0
 40
1.0
 40
1.0
 40
1.0
 10
5.5190814225
 20
3.7243102337
 30
0.0
 10
5.5119654613
 20
3.7224035176
 30
0.0
 10
5.5057035153
 20
3.7228442052
 30
0.0
 10
5.5003508822
 20
3.7256294992
 30
0.0
  0
SPLINE
  5
311
100
AcDbEntity
  8
0
100
AcDbSpline
 62
7
  6
CONTINUOUS
 70
0
 71
3
 72
8
 73
4
 74
0
 42
0.0000001
 43
0.0000001
 44
0.0000000001
 40
0.0
 40
0.0
 40
0.0
 40
0.0
 40
1.0
 40
1.0
 40
1.0
 40
1.0
 10
5.5003508822
 20
3.7256294992
 30
0.0
 10
5.4949535447
 20
3.7284380556
 30
0.0
 10
5.4915386606
 20
3.7327488436
 30
0.0
 10
5.490020347
 20
3.7384152668
 30
0.0
  0
SPLINE
  5
312
100
AcDbEntity
  8
0
100
AcDbSpline
 62
7
  6
CONTINUOUS
 70
0
 71
3
 72
8
 73
4
 74
0
 42
0.0000001
 43
0.0000001
 44
0.0000000001
 40
0.0
 40
0.0
 40
0.0
 40
0.0
 40
1.0
 40
1.0
 40
1.0
 40
1.0
 10
5.490020347
 20
3.7384152668
 30
0.0
 10
5.4887492051
 20
3.7431592333
 30
0.0
 10
5.4891700444
 20
3.7476503867
 30
0.0
 10
5.4913005223
 20
3.7518228168
 30
0.0
  0
SPLINE
  5
313
100
AcDbEntity
  8
0
100
AcDbSpline
 62
7
  6
CONTINUOUS
 70
0
 71
3
 72
8
 73
4
 74
0
 42
0.0000001
 43
0.0000001
 44
0.0000000001
 40
0.0
 40
0.0
 40
0.0
 40
0.0
 40
1.0
 40
1.0
 40
1.0
 40
1.0
 10
5.4913005223
 20
3.7518228168
 30
0.0
 10
5.493431003
 20
3.7559952522
 30
0.0
 10
5.4974782459
 20
3.7593395204
 30
0.0
 10
5.5032928231
 20
3.7618861994
 30
0.0
  0
SPLINE
  5
314
100
AcDbEntity
  8
0
100
AcDbSpline
 62
7
  6
CONTINUOUS
 70
0
 71
3
 72
8
 73
4
 74
0
 42
0.0000001
 43
0.0000001
 44
0.0000000001
 40
0.0
 40
0.0
 40
0.0
 40
0.0
 40
1.0
 40
1.0
 40
1.0
 40
1.0
 10
5.4448373566
 20
3.3416904831
 30
0.0
 10
5.4373765739
 20
3.3505500379
 30
0.0
 10
5.4304704728
 20
3.3572177371
 30
0.0
 10
5.4241229059
 20
3.3618288968
 30
0.0
  0
SPLINE
  5
315
100
AcDbEntity
  8
0
100
AcDbSpline
 62
7
  6
CONTINUOUS
 70
0
 71
3
 72
8
 73
4
 74
0
 42
0.0000001
 43
0.0000001
 44
0.0000000001
 40
0.0
 40
0.0
 40
0.0
 40
0.0
 40
1.0
 40
1.0
 40
1.0
 40
1.0
 10
5.4168847316
 20
3.3514917126
 30
0.0
 10
5.4246514724
 20
3.3452206547
 30
0.0
 10
5.4312390662
 20
3.3386927076
 30
0.0
 10
5.4367229587
 20
3.3318845335
 30
0.0
  0
SPLINE
  5
316
100
AcDbEntity
  8
0
100
AcDbSpline
 62
7
  6
CONTINUOUS
 70
0
 71
3
 72
8
 73
4
 74
0
 42
0.0000001
 43
0.0000001
 44
0.0000000001
 40
0.0
 40
0.0
 40
0.0
 40
0.0
 40
1.0
 40
1.0
 40
1.0
 40
1.0
 10
5.4567791856
 20
3.3001400161
 30
0.0
 10
5.4623584319
 20
3.2885900482
 30
0.0
 10
5.4661346263
 20
3.278284857
 30
0.0
 10
5.4680445172
 20
3.2691199237
 30
0.0
  0
SPLINE
  5
317
100
AcDbEntity
  8
0
100
AcDbSpline
 62
7
  6
CONTINUOUS
 70
0
 71
3
 72
8
 73
4
 74
0
 42
0.0000001
 43
0.0000001
 44
0.0000000001
 40
0.0
 40
0.0
 40
0.0
 40
0.0
 40
1.0
 40
1.0
 40
1.0
 40
1.0
 10
5.4752385269
 20
3.2833185734
 30
0.0
 10
5.4730268762
 20
3.292528252
 30
0.0
 10
5.4692394368
 20
3.3023416805
 30
0.0
 10
5.4639153275
 20
3.3128147342
 30
0.0
  0
SPLINE
  5
318
100
AcDbEntity
  8
0
100
AcDbSpline
 62
7
  6
CONTINUOUS
 70
0
 71
3
 72
8
 73
4
 74
0
 42
0.0000001
 43
0.0000001
 44
0.0000000001
 40
0.0
 40
0.0
 40
0.0
 40
0.0
 40
1.0
 40
1.0
 40
1.0
 40
1.0
 10
5.4639153275
 20
3.3128147342
 30
0.0
 10
5.4585912199
 20
3.3232877845
 30
0.0
 10
5.4522443477
 20
3.3328948048
 30
0.0
 10
5.4448373566
 20
3.3416904831
 30
0.0
  0
SPLINE
  5
319
100
AcDbEntity
  8
0
100
AcDbSpline
 62
7
  6
CONTINUOUS
 70
0
 71
3
 72
8
 73
4
 74
0
 42
0.0000001
 43
0.0000001
 44
0.0000000001
 40
0.0
 40
0.0
 40
0.0
 40
0.0
 40
1.0
 40
1.0
 40
1.0
 40
1.0
 10
5.3733401137
 20
3.2630481031
 30
0.0
 10
5.374647061
 20
3.2571573959
 30
0.0
 10
5.378334576
 20
3.2520771984
 30
0.0
 10
5.3843692569
 20
3.2478516693
 30
0.0
  0
SPLINE
  5
31A
100
AcDbEntity
  8
0
100
AcDbSpline
 62
7
  6
CONTINUOUS
 70
0
 71
3
 72
8
 73
4
 74
0
 42
0.0000001
 43
0.0000001
 44
0.0000000001
 40
0.0
 40
0.0
 40
0.0
 40
0.0
 40
1.0
 40
1.0
 40
1.0
 40
1.0
 10
5.37649424
 20
3.2791802852
 30
0.0
 10
5.3731294611
 20
3.2743748829
 30
0.0
 10
5.3720222511
 20
3.2689880088
 30
0.0
 10
5.3733401137
 20
3.2630481031
 30
0.0
  0
SPLINE
  5
31B
100
AcDbEntity
  8
0
100
AcDbSpline
 62
7
  6
CONTINUOUS
 70
0
 71
3
 72
8
 73
4
 74
0
 42
0.0000001
 43
0.0000001
 44
0.0000000001
 40
0.0
 40
0.0
 40
0.0
 40
0.0
 40
1.0
 40
1.0
 40
1.0
 40
1.0
 10
5.3875878999
 20
3.286817821
 30
0.0
 10
5.3830221882
 20
3.2857678755
 30
0.0
 10
5.3793112548
 20
3.2832033993
 30
0.0
 10
5.37649424
 20
3.2791802852
 30
0.0
  0
SPLINE
  5
31C
100
AcDbEntity
  8
0
100
AcDbSpline
 62
7
  6
CONTINUOUS
 70
0
 71
3
 72
8
 73
4
 74
0
 42
0.0000001
 43
0.0000001
 44
0.0000000001
 40
0.0
 40
0.0
 40
0.0
 40
0.0
 40
1.0
 40
1.0
 40
1.0
 40
1.0
 10
5.4030054006
 20
3.2840998033
 30
0.0
 10
5.3973169931
 20
3.2869170541
 30
0.0
 10
5.3921536174
 20
3.2878677679
 30
0.0
 10
5.3875878999
 20
3.286817821
 30
0.0
  0
SPLINE
  5
31D
100
AcDbEntity
  8
0
100
AcDbSpline
 62
7
  6
CONTINUOUS
 70
0
 71
3
 72
8
 73
4
 74
0
 42
0.0000001
 43
0.0000001
 44
0.0000000001
 40
0.0
 40
0.0
 40
0.0
 40
0.0
 40
1.0
 40
1.0
 40
1.0
 40
1.0
 10
5.3872707555
 20
3.2988852929
 30
0.0
 10
5.3946980375
 20
3.3006588357
 30
0.0
 10
5.4021078401
 20
3.2994675136
 30
0.0
 10
5.4095060518
 20
3.2952865031
 30
0.0
  0
SPLINE
  5
31E
100
AcDbEntity
  8
0
100
AcDbSpline
 62
7
  6
CONTINUOUS
 70
0
 71
3
 72
8
 73
4
 74
0
 42
0.0000001
 43
0.0000001
 44
0.0000000001
 40
0.0
 40
0.0
 40
0.0
 40
0.0
 40
1.0
 40
1.0
 40
1.0
 40
1.0
 10
5.3682244925
 20
3.2849708247
 30
0.0
 10
5.3734672767
 20
3.2924582965
 30
0.0
 10
5.3797993672
 20
3.2971012182
 30
0.0
 10
5.3872707555
 20
3.2988852929
 30
0.0
  0
SPLINE
  5
31F
100
AcDbEntity
  8
0
100
AcDbSpline
 62
7
  6
CONTINUOUS
 70
0
 71
3
 72
8
 73
4
 74
0
 42
0.0000001
 43
0.0000001
 44
0.0000000001
 40
0.0
 40
0.0
 40
0.0
 40
0.0
 40
1.0
 40
1.0
 40
1.0
 40
1.0
 10
5.3630741947
 20
3.2564842697
 30
0.0
 10
5.3601357629
 20
3.2664023213
 30
0.0
 10
5.3618861938
 20
3.2759187961
 30
0.0
 10
5.3682244925
 20
3.2849708247
 30
0.0
  0
SPLINE
  5
320
100
AcDbEntity
  8
0
100
AcDbSpline
 62
7
  6
CONTINUOUS
 70
0
 71
3
 72
8
 73
4
 74
0
 42
0.0000001
 43
0.0000001
 44
0.0000000001
 40
0.0
 40
0.0
 40
0.0
 40
0.0
 40
1.0
 40
1.0
 40
1.0
 40
1.0
 10
5.3777903533
 20
3.2365532133
 30
0.0
 10
5.3703587547
 20
3.2417568747
 30
0.0
 10
5.3654588214
 20
3.2484354695
 30
0.0
 10
5.3630741947
 20
3.2564842697
 30
0.0
  0
SPLINE
  5
321
100
AcDbEntity
  8
0
100
AcDbSpline
 62
7
  6
CONTINUOUS
 70
0
 71
3
 72
8
 73
4
 74
0
 42
0.0000001
 43
0.0000001
 44
0.0000000001
 40
0.0
 40
0.0
 40
0.0
 40
0.0
 40
1.0
 40
1.0
 40
1.0
 40
1.0
 10
5.4020605686
 20
3.2305717861
 30
0.0
 10
5.3936486666
 20
3.2291130966
 30
0.0
 10
5.3855572106
 20
3.2311148013
 30
0.0
 10
5.3777903533
 20
3.2365532133
 30
0.0
  0
SPLINE
  5
322
100
AcDbEntity
  8
0
100
AcDbSpline
 62
7
  6
CONTINUOUS
 70
0
 71
3
 72
8
 73
4
 74
0
 42
0.0000001
 43
0.0000001
 44
0.0000000001
 40
0.0
 40
0.0
 40
0.0
 40
0.0
 40
1.0
 40
1.0
 40
1.0
 40
1.0
 10
5.4221728988
 20
3.2434484792
 30
0.0
 10
5.4171648618
 20
3.2362962612
 30
0.0
 10
5.4104248838
 20
3.2320222237
 30
0.0
 10
5.4020605686
 20
3.2305717861
 30
0.0
  0
SPLINE
  5
323
100
AcDbEntity
  8
0
100
AcDbSpline
 62
7
  6
CONTINUOUS
 70
0
 71
3
 72
8
 73
4
 74
0
 42
0.0000001
 43
0.0000001
 44
0.0000000001
 40
0.0
 40
0.0
 40
0.0
 40
0.0
 40
1.0
 40
1.0
 40
1.0
 40
1.0
 10
5.4278699422
 20
3.2625258443
 30
0.0
 10
5.4278353949
 20
3.2552220542
 30
0.0
 10
5.4259680476
 20
3.2488685134
 30
0.0
 10
5.4221728988
 20
3.2434484792
 30
0.0
  0
SPLINE
  5
324
100
AcDbEntity
  8
0
100
AcDbSpline
 62
7
  6
CONTINUOUS
 70
0
 71
3
 72
8
 73
4
 74
0
 42
0.0000001
 43
0.0000001
 44
0.0000000001
 40
0.0
 40
0.0
 40
0.0
 40
0.0
 40
1.0
 40
1.0
 40
1.0
 40
1.0
 10
5.4190906848
 20
3.2626874861
 30
0.0
 10
5.4194602154
 20
3.2663325887
 30
0.0
 10
5.4190080392
 20
3.2697302814
 30
0.0
 10
5.4176784796
 20
3.272826337
 30
0.0
  0
SPLINE
  5
325
100
AcDbEntity
  8
0
100
AcDbSpline
 62
7
  6
CONTINUOUS
 70
0
 71
3
 72
8
 73
4
 74
0
 42
0.0000001
 43
0.0000001
 44
0.0000000001
 40
0.0
 40
0.0
 40
0.0
 40
0.0
 40
1.0
 40
1.0
 40
1.0
 40
1.0
 10
5.4151665189
 20
3.2523514767
 30
0.0
 10
5.4174357833
 20
3.2555923222
 30
0.0
 10
5.4187271515
 20
3.2591015432
 30
0.0
 10
5.4190906848
 20
3.2626874861
 30
0.0
  0
SPLINE
  5
326
100
AcDbEntity
  8
0
100
AcDbSpline
 62
7
  6
CONTINUOUS
 70
0
 71
3
 72
8
 73
4
 74
0
 42
0.0000001
 43
0.0000001
 44
0.0000000001
 40
0.0
 40
0.0
 40
0.0
 40
0.0
 40
1.0
 40
1.0
 40
1.0
 40
1.0
 10
5.4013473992
 20
3.2432290007
 30
0.0
 10
5.4069171747
 20
3.244137951
 30
0.0
 10
5.4115278683
 20
3.247154945
 30
0.0
 10
5.4151665189
 20
3.2523514767
 30
0.0
  0
SPLINE
  5
327
100
AcDbEntity
  8
0
100
AcDbSpline
 62
7
  6
CONTINUOUS
 70
0
 71
3
 72
8
 73
4
 74
0
 42
0.0000001
 43
0.0000001
 44
0.0000000001
 40
0.0
 40
0.0
 40
0.0
 40
0.0
 40
1.0
 40
1.0
 40
1.0
 40
1.0
 10
5.3843692569
 20
3.2478516693
 30
0.0
 10
5.3900686767
 20
3.2438608926
 30
0.0
 10
5.3957293208
 20
3.2423121677
 30
0.0
 10
5.4013473992
 20
3.2432290007
 30
0.0
  0
SPLINE
  5
328
100
AcDbEntity
  8
0
100
AcDbSpline
 62
7
  6
CONTINUOUS
 70
0
 71
3
 72
8
 73
4
 74
0
 42
0.0000001
 43
0.0000001
 44
0.0000000001
 40
0.0
 40
0.0
 40
0.0
 40
0.0
 40
1.0
 40
1.0
 40
1.0
 40
1.0
 10
4.4137745624
 20
3.2426138155
 30
0.0
 10
4.4186467071
 20
3.2429062593
 30
0.0
 10
4.424294161
 20
3.2419922514
 30
0.0
 10
4.430810943
 20
3.2398493888
 30
0.0
  0
SPLINE
  5
329
100
AcDbEntity
  8
0
100
AcDbSpline
 62
7
  6
CONTINUOUS
 70
0
 71
3
 72
8
 73
4
 74
0
 42
0.0000001
 43
0.0000001
 44
0.0000000001
 40
0.0
 40
0.0
 40
0.0
 40
0.0
 40
1.0
 40
1.0
 40
1.0
 40
1.0
 10
4.430810943
 20
3.2398493888
 30
0.0
 10
4.4374192253
 20
3.2376764387
 30
0.0
 10
4.4437878092
 20
3.2344219883
 30
0.0
 10
4.4499749301
 20
3.230117586
 30
0.0
  0
SPLINE
  5
32A
100
AcDbEntity
  8
0
100
AcDbSpline
 62
7
  6
CONTINUOUS
 70
0
 71
3
 72
8
 73
4
 74
0
 42
0.0000001
 43
0.0000001
 44
0.0000000001
 40
0.0
 40
0.0
 40
0.0
 40
0.0
 40
1.0
 40
1.0
 40
1.0
 40
1.0
 10
4.4602538126
 20
3.2360521016
 30
0.0
 10
4.4571623739
 20
3.2386781207
 30
0.0
 10
4.4531823731
 20
3.2413424844
 30
0.0
 10
4.4483282583
 20
3.244070736
 30
0.0
  0
SPLINE
  5
32B
100
AcDbEntity
  8
0
100
AcDbSpline
 62
7
  6
CONTINUOUS
 70
0
 71
3
 72
8
 73
4
 74
0
 42
0.0000001
 43
0.0000001
 44
0.0000000001
 40
0.0
 40
0.0
 40
0.0
 40
0.0
 40
1.0
 40
1.0
 40
1.0
 40
1.0
 10
4.4483282583
 20
3.244070736
 30
0.0
 10
4.4435043338
 20
3.2467820193
 30
0.0
 10
4.4391382317
 20
3.2487508751
 30
0.0
 10
4.4351564392
 20
3.249917664
 30
0.0
  0
SPLINE
  5
32C
100
AcDbEntity
  8
0
100
AcDbSpline
 62
7
  6
CONTINUOUS
 70
0
 71
3
 72
8
 73
4
 74
0
 42
0.0000001
 43
0.0000001
 44
0.0000000001
 40
0.0
 40
0.0
 40
0.0
 40
0.0
 40
1.0
 40
1.0
 40
1.0
 40
1.0
 10
4.3920152342
 20
3.3352816164
 30
0.0
 10
4.387820978
 20
3.3328600615
 30
0.0
 10
4.3851633078
 20
3.3292777517
 30
0.0
 10
4.3840081075
 20
3.3245937627
 30
0.0
  0
SPLINE
  5
32D
100
AcDbEntity
  8
0
100
AcDbSpline
 62
7
  6
CONTINUOUS
 70
0
 71
3
 72
8
 73
4
 74
0
 42
0.0000001
 43
0.0000001
 44
0.0000000001
 40
0.0
 40
0.0
 40
0.0
 40
0.0
 40
1.0
 40
1.0
 40
1.0
 40
1.0
 10
4.4076992435
 20
3.3377204886
 30
0.0
 10
4.4012996532
 20
3.3384365472
 30
0.0
 10
4.3960322715
 20
3.337600854
 30
0.0
 10
4.3920152342
 20
3.3352816164
 30
0.0
  0
SPLINE
  5
32E
100
AcDbEntity
  8
0
100
AcDbSpline
 62
7
  6
CONTINUOUS
 70
0
 71
3
 72
8
 73
4
 74
0
 42
0.0000001
 43
0.0000001
 44
0.0000000001
 40
0.0
 40
0.0
 40
0.0
 40
0.0
 40
1.0
 40
1.0
 40
1.0
 40
1.0
 10
4.43702613
 20
3.329206157
 30
0.0
 10
4.4239260179
 20
3.334171506
 30
0.0
 10
4.4140988291
 20
3.3370044306
 30
0.0
 10
4.4076992435
 20
3.3377204886
 30
0.0
  0
SPLINE
  5
32F
100
AcDbEntity
  8
0
100
AcDbSpline
 62
7
  6
CONTINUOUS
 70
0
 71
3
 72
8
 73
4
 74
0
 42
0.0000001
 43
0.0000001
 44
0.0000000001
 40
0.0
 40
0.0
 40
0.0
 40
0.0
 40
1.0
 40
1.0
 40
1.0
 40
1.0
 10
4.4581921158
 20
3.3228427155
 30
0.0
 10
4.4525696298
 20
3.323849904
 30
0.0
 10
4.4455037426
 20
3.3259928787
 30
0.0
 10
4.43702613
 20
3.329206157
 30
0.0
  0
SPLINE
  5
330
100
AcDbEntity
  8
0
100
AcDbSpline
 62
7
  6
CONTINUOUS
 70
0
 71
3
 72
8
 73
4
 74
0
 42
0.0000001
 43
0.0000001
 44
0.0000000001
 40
0.0
 40
0.0
 40
0.0
 40
0.0
 40
1.0
 40
1.0
 40
1.0
 40
1.0
 10
4.4737449135
 20
3.322465601
 30
0.0
 10
4.4690186681
 20
3.3216894802
 30
0.0
 10
4.4638145981
 20
3.3218355277
 30
0.0
 10
4.4581921158
 20
3.3228427155
 30
0.0
  0
SPLINE
  5
331
100
AcDbEntity
  8
0
100
AcDbSpline
 62
7
  6
CONTINUOUS
 70
0
 71
3
 72
8
 73
4
 74
0
 42
0.0000001
 43
0.0000001
 44
0.0000000001
 40
0.0
 40
0.0
 40
0.0
 40
0.0
 40
1.0
 40
1.0
 40
1.0
 40
1.0
 10
4.4818365968
 20
3.3255454765
 30
0.0
 10
4.4793646276
 20
3.3239607497
 30
0.0
 10
4.4766447718
 20
3.3229418014
 30
0.0
 10
4.4737449135
 20
3.322465601
 30
0.0
  0
SPLINE
  5
332
100
AcDbEntity
  8
0
100
AcDbSpline
 62
7
  6
CONTINUOUS
 70
0
 71
3
 72
8
 73
4
 74
0
 42
0.0000001
 43
0.0000001
 44
0.0000000001
 40
0.0
 40
0.0
 40
0.0
 40
0.0
 40
1.0
 40
1.0
 40
1.0
 40
1.0
 10
4.4547622042
 20
3.3355708614
 30
0.0
 10
4.4577155859
 20
3.3348549874
 30
0.0
 10
4.4605176854
 20
3.3345036548
 30
0.0
 10
4.4630901854
 20
3.3344135756
 30
0.0
  0
SPLINE
  5
333
100
AcDbEntity
  8
0
100
AcDbSpline
 62
7
  6
CONTINUOUS
 70
0
 71
3
 72
8
 73
4
 74
0
 42
0.0000001
 43
0.0000001
 44
0.0000000001
 40
0.0
 40
0.0
 40
0.0
 40
0.0
 40
1.0
 40
1.0
 40
1.0
 40
1.0
 10
4.4367426206
 20
3.3415657645
 30
0.0
 10
4.445804317
 20
3.3382962794
 30
0.0
 10
4.4518543539
 20
3.336275699
 30
0.0
 10
4.4547622042
 20
3.3355708614
 30
0.0
  0
SPLINE
  5
334
100
AcDbEntity
  8
0
100
AcDbSpline
 62
7
  6
CONTINUOUS
 70
0
 71
3
 72
8
 73
4
 74
0
 42
0.0000001
 43
0.0000001
 44
0.0000000001
 40
0.0
 40
0.0
 40
0.0
 40
0.0
 40
1.0
 40
1.0
 40
1.0
 40
1.0
 10
4.4120612322
 20
3.3491589107
 30
0.0
 10
4.4176881319
 20
3.3479772037
 30
0.0
 10
4.4259062914
 20
3.345475542
 30
0.0
 10
4.4367426206
 20
3.3415657645
 30
0.0
  0
SPLINE
  5
335
100
AcDbEntity
  8
0
100
AcDbSpline
 62
7
  6
CONTINUOUS
 70
0
 71
3
 72
8
 73
4
 74
0
 42
0.0000001
 43
0.0000001
 44
0.0000000001
 40
0.0
 40
0.0
 40
0.0
 40
0.0
 40
1.0
 40
1.0
 40
1.0
 40
1.0
 10
4.3973878847
 20
3.350133718
 30
0.0
 10
4.4015752605
 20
3.3506467691
 30
0.0
 10
4.406483959
 20
3.3503301956
 30
0.0
 10
4.4120612322
 20
3.3491589107
 30
0.0
  0
SPLINE
  5
336
100
AcDbEntity
  8
0
100
AcDbSpline
 62
7
  6
CONTINUOUS
 70
0
 71
3
 72
8
 73
4
 74
0
 42
0.0000001
 43
0.0000001
 44
0.0000000001
 40
0.0
 40
0.0
 40
0.0
 40
0.0
 40
1.0
 40
1.0
 40
1.0
 40
1.0
 10
4.385941843
 20
3.3463467429
 30
0.0
 10
4.3894272136
 20
3.3483590225
 30
0.0
 10
4.3932627873
 20
3.3496282974
 30
0.0
 10
4.3973878847
 20
3.350133718
 30
0.0
  0
SPLINE
  5
337
100
AcDbEntity
  8
0
100
AcDbSpline
 62
7
  6
CONTINUOUS
 70
0
 71
3
 72
8
 73
4
 74
0
 42
0.0000001
 43
0.0000001
 44
0.0000000001
 40
0.0
 40
0.0
 40
0.0
 40
0.0
 40
1.0
 40
1.0
 40
1.0
 40
1.0
 10
4.3730054656
 20
3.3291897793
 30
0.0
 10
4.3748165142
 20
3.3366941417
 30
0.0
 10
4.3791483311
 20
3.3424245069
 30
0.0
 10
4.385941843
 20
3.3463467429
 30
0.0
  0
SPLINE
  5
338
100
AcDbEntity
  8
0
100
AcDbSpline
 62
7
  6
CONTINUOUS
 70
0
 71
3
 72
8
 73
4
 74
0
 42
0.0000001
 43
0.0000001
 44
0.0000000001
 40
0.0
 40
0.0
 40
0.0
 40
0.0
 40
1.0
 40
1.0
 40
1.0
 40
1.0
 10
4.3774853399
 20
3.3054685927
 30
0.0
 10
4.3727104416
 20
3.3137389591
 30
0.0
 10
4.3711944141
 20
3.3216854044
 30
0.0
 10
4.3730054656
 20
3.3291897793
 30
0.0
  0
SPLINE
  5
339
100
AcDbEntity
  8
0
100
AcDbSpline
 62
7
  6
CONTINUOUS
 70
0
 71
3
 72
8
 73
4
 74
0
 42
0.0000001
 43
0.0000001
 44
0.0000000001
 40
0.0
 40
0.0
 40
0.0
 40
0.0
 40
1.0
 40
1.0
 40
1.0
 40
1.0
 10
4.3952745591
 20
3.289493333
 30
0.0
 10
4.3882317933
 20
3.2919029518
 30
0.0
 10
4.3822602382
 20
3.2971982262
 30
0.0
 10
4.3774853399
 20
3.3054685927
 30
0.0
  0
SPLINE
  5
33A
100
AcDbEntity
  8
0
100
AcDbSpline
 62
7
  6
CONTINUOUS
 70
0
 71
3
 72
8
 73
4
 74
0
 42
0.0000001
 43
0.0000001
 44
0.0000000001
 40
0.0
 40
0.0
 40
0.0
 40
0.0
 40
1.0
 40
1.0
 40
1.0
 40
1.0
 10
4.4187673873
 20
3.2918104729
 30
0.0
 10
4.4102058967
 20
3.2878126747
 30
0.0
 10
4.4023660091
 20
3.2870670574
 30
0.0
 10
4.3952745591
 20
3.289493333
 30
0.0
  0
SPLINE
  5
33B
100
AcDbEntity
  8
0
100
AcDbSpline
 62
7
  6
CONTINUOUS
 70
0
 71
3
 72
8
 73
4
 74
0
 42
0.0000001
 43
0.0000001
 44
0.0000000001
 40
0.0
 40
0.0
 40
0.0
 40
0.0
 40
1.0
 40
1.0
 40
1.0
 40
1.0
 10
4.3981257051
 20
3.3006870558
 30
0.0
 10
4.4029710921
 20
3.2993887383
 30
0.0
 10
4.408145295
 20
3.3002493986
 30
0.0
 10
4.4135801087
 20
3.3033871898
 30
0.0
  0
SPLINE
  5
33C
100
AcDbEntity
  8
0
100
AcDbSpline
 62
7
  6
CONTINUOUS
 70
0
 71
3
 72
8
 73
4
 74
0
 42
0.0000001
 43
0.0000001
 44
0.0000000001
 40
0.0
 40
0.0
 40
0.0
 40
0.0
 40
1.0
 40
1.0
 40
1.0
 40
1.0
 10
4.3864237962
 20
3.3103141572
 30
0.0
 10
4.3893910585
 20
3.3051747081
 30
0.0
 10
4.3932803263
 20
3.3019853711
 30
0.0
 10
4.3981257051
 20
3.3006870558
 30
0.0
  0
SPLINE
  5
33D
100
AcDbEntity
  8
0
100
AcDbSpline
 62
7
  6
CONTINUOUS
 70
0
 71
3
 72
8
 73
4
 74
0
 42
0.0000001
 43
0.0000001
 44
0.0000000001
 40
0.0
 40
0.0
 40
0.0
 40
0.0
 40
1.0
 40
1.0
 40
1.0
 40
1.0
 10
4.3840081075
 20
3.3245937627
 30
0.0
 10
4.3828529062
 20
3.3199097694
 30
0.0
 10
4.3836270748
 20
3.3151582208
 30
0.0
 10
4.3864237962
 20
3.3103141572
 30
0.0
  0
SPLINE
  5
33E
100
AcDbEntity
  8
0
100
AcDbSpline
 62
7
  6
CONTINUOUS
 70
0
 71
3
 72
8
 73
4
 74
0
 42
0.0000001
 43
0.0000001
 44
0.0000000001
 40
0.0
 40
0.0
 40
0.0
 40
0.0
 40
1.0
 40
1.0
 40
1.0
 40
1.0
 10
4.3478153406
 20
3.377185964
 30
0.0
 10
4.3506461738
 20
3.372282817
 30
0.0
 10
4.354964791
 20
3.3695776568
 30
0.0
 10
4.3607732692
 20
3.3690949086
 30
0.0
  0
SPLINE
  5
33F
100
AcDbEntity
  8
0
100
AcDbSpline
 62
7
  6
CONTINUOUS
 70
0
 71
3
 72
8
 73
4
 74
0
 42
0.0000001
 43
0.0000001
 44
0.0000000001
 40
0.0
 40
0.0
 40
0.0
 40
0.0
 40
1.0
 40
1.0
 40
1.0
 40
1.0
 10
4.3477006218
 20
3.3936418967
 30
0.0
 10
4.3449259195
 20
3.3876476198
 30
0.0
 10
4.3449504016
 20
3.3821481838
 30
0.0
 10
4.3478153406
 20
3.377185964
 30
0.0
  0
SPLINE
  5
340
100
AcDbEntity
  8
0
100
AcDbSpline
 62
7
  6
CONTINUOUS
 70
0
 71
3
 72
8
 73
4
 74
0
 42
0.0000001
 43
0.0000001
 44
0.0000000001
 40
0.0
 40
0.0
 40
0.0
 40
0.0
 40
1.0
 40
1.0
 40
1.0
 40
1.0
 10
4.3731983701
 20
3.4150766597
 30
0.0
 10
4.3589615283
 20
3.4068570153
 30
0.0
 10
4.3504987738
 20
3.3996868329
 30
0.0
 10
4.3477006218
 20
3.3936418967
 30
0.0
  0
SPLINE
  5
341
100
AcDbEntity
  8
0
100
AcDbSpline
 62
7
  6
CONTINUOUS
 70
0
 71
3
 72
8
 73
4
 74
0
 42
0.0000001
 43
0.0000001
 44
0.0000000001
 40
0.0
 40
0.0
 40
0.0
 40
0.0
 40
1.0
 40
1.0
 40
1.0
 40
1.0
 10
4.4044529597
 20
3.4264264346
 30
0.0
 10
4.3978170775
 20
3.4270060683
 30
0.0
 10
4.3873761389
 20
3.4232621983
 30
0.0
 10
4.3731983701
 20
3.4150766597
 30
0.0
  0
SPLINE
  5
342
100
AcDbEntity
  8
0
100
AcDbSpline
 62
7
  6
CONTINUOUS
 70
0
 71
3
 72
8
 73
4
 74
0
 42
0.0000001
 43
0.0000001
 44
0.0000000001
 40
0.0
 40
0.0
 40
0.0
 40
0.0
 40
1.0
 40
1.0
 40
1.0
 40
1.0
 10
4.4186359777
 20
3.4182318057
 30
0.0
 10
4.4158392503
 20
3.4230758797
 30
0.0
 10
4.411088842
 20
3.4258468009
 30
0.0
 10
4.4044529597
 20
3.4264264346
 30
0.0
  0
SPLINE
  5
343
100
AcDbEntity
  8
0
100
AcDbSpline
 62
7
  6
CONTINUOUS
 70
0
 71
3
 72
8
 73
4
 74
0
 42
0.0000001
 43
0.0000001
 44
0.0000000001
 40
0.0
 40
0.0
 40
0.0
 40
0.0
 40
1.0
 40
1.0
 40
1.0
 40
1.0
 10
4.4187344055
 20
3.401826671
 30
0.0
 10
4.4215503692
 20
3.4078633304
 30
0.0
 10
4.4214668109
 20
3.4133286588
 30
0.0
 10
4.4186359777
 20
3.4182318057
 30
0.0
  0
SPLINE
  5
344
100
AcDbEntity
  8
0
100
AcDbSpline
 62
7
  6
CONTINUOUS
 70
0
 71
3
 72
8
 73
4
 74
0
 42
0.0000001
 43
0.0000001
 44
0.0000000001
 40
0.0
 40
0.0
 40
0.0
 40
0.0
 40
1.0
 40
1.0
 40
1.0
 40
1.0
 10
4.3931847313
 20
3.3804592665
 30
0.0
 10
4.4074215757
 20
3.3886789124
 30
0.0
 10
4.4159184419
 20
3.3957900115
 30
0.0
 10
4.4187344055
 20
3.401826671
 30
0.0
  0
SPLINE
  5
345
100
AcDbEntity
  8
0
100
AcDbSpline
 62
7
  6
CONTINUOUS
 70
0
 71
3
 72
8
 73
4
 74
0
 42
0.0000001
 43
0.0000001
 44
0.0000000001
 40
0.0
 40
0.0
 40
0.0
 40
0.0
 40
1.0
 40
1.0
 40
1.0
 40
1.0
 10
4.3607732692
 20
3.3690949086
 30
0.0
 10
4.3682024498
 20
3.3684774623
 30
0.0
 10
4.3790069625
 20
3.3722737279
 30
0.0
 10
4.3931847313
 20
3.3804592665
 30
0.0
  0
SPLINE
  5
346
100
AcDbEntity
  8
0
100
AcDbSpline
 62
7
  6
CONTINUOUS
 70
0
 71
3
 72
8
 73
4
 74
0
 42
0.0000001
 43
0.0000001
 44
0.0000000001
 40
0.0
 40
0.0
 40
0.0
 40
0.0
 40
1.0
 40
1.0
 40
1.0
 40
1.0
 10
4.4297868447
 20
3.398411845
 30
0.0
 10
4.4330541559
 20
3.4066285014
 30
0.0
 10
4.4322220449
 20
3.4148910422
 30
0.0
 10
4.4273789351
 20
3.4232795545
 30
0.0
  0
SPLINE
  5
347
100
AcDbEntity
  8
0
100
AcDbSpline
 62
7
  6
CONTINUOUS
 70
0
 71
3
 72
8
 73
4
 74
0
 42
0.0000001
 43
0.0000001
 44
0.0000000001
 40
0.0
 40
0.0
 40
0.0
 40
0.0
 40
1.0
 40
1.0
 40
1.0
 40
1.0
 10
4.4273789351
 20
3.4232795545
 30
0.0
 10
4.4237295453
 20
3.4296004829
 30
0.0
 10
4.4190399985
 20
3.4339030983
 30
0.0
 10
4.4132262666
 20
3.4360601012
 30
0.0
  0
SPLINE
  5
348
100
AcDbEntity
  8
0
100
AcDbSpline
 62
7
  6
CONTINUOUS
 70
0
 71
3
 72
8
 73
4
 74
0
 42
0.0000001
 43
0.0000001
 44
0.0000000001
 40
0.0
 40
0.0
 40
0.0
 40
0.0
 40
1.0
 40
1.0
 40
1.0
 40
1.0
 10
4.4132262666
 20
3.4360601012
 30
0.0
 10
4.4074125174
 20
3.4382171105
 30
0.0
 10
4.4008198789
 20
3.4385854192
 30
0.0
 10
4.3933367054
 20
3.4370651277
 30
0.0
  0
SPLINE
  5
349
100
AcDbEntity
  8
0
100
AcDbSpline
 62
7
  6
CONTINUOUS
 70
0
 71
3
 72
8
 73
4
 74
0
 42
0.0000001
 43
0.0000001
 44
0.0000000001
 40
0.0
 40
0.0
 40
0.0
 40
0.0
 40
1.0
 40
1.0
 40
1.0
 40
1.0
 10
4.3933367054
 20
3.4370651277
 30
0.0
 10
4.3858746255
 20
3.4355491215
 30
0.0
 10
4.377049416
 20
3.4318716626
 30
0.0
 10
4.366888682
 20
3.42600536
 30
0.0
  0
SPLINE
  5
34A
100
AcDbEntity
  8
0
100
AcDbSpline
 62
7
  6
CONTINUOUS
 70
0
 71
3
 72
8
 73
4
 74
0
 42
0.0000001
 43
0.0000001
 44
0.0000000001
 40
0.0
 40
0.0
 40
0.0
 40
0.0
 40
1.0
 40
1.0
 40
1.0
 40
1.0
 10
4.366888682
 20
3.42600536
 30
0.0
 10
4.3583229457
 20
3.4210599299
 30
0.0
 10
4.3519046092
 20
3.4164878709
 30
0.0
 10
4.3475745778
 20
3.4122550916
 30
0.0
  0
SPLINE
  5
34B
100
AcDbEntity
  8
0
100
AcDbSpline
 62
7
  6
CONTINUOUS
 70
0
 71
3
 72
8
 73
4
 74
0
 42
0.0000001
 43
0.0000001
 44
0.0000000001
 40
0.0
 40
0.0
 40
0.0
 40
0.0
 40
1.0
 40
1.0
 40
1.0
 40
1.0
 10
4.3475745778
 20
3.4122550916
 30
0.0
 10
4.3432445506
 20
3.4080223162
 30
0.0
 10
4.3400485244
 20
3.4037353531
 30
0.0
 10
4.3378256674
 20
3.3994310585
 30
0.0
  0
SPLINE
  5
34C
100
AcDbEntity
  8
0
100
AcDbSpline
 62
7
  6
CONTINUOUS
 70
0
 71
3
 72
8
 73
4
 74
0
 42
0.0000001
 43
0.0000001
 44
0.0000000001
 40
0.0
 40
0.0
 40
0.0
 40
0.0
 40
1.0
 40
1.0
 40
1.0
 40
1.0
 10
4.3378256674
 20
3.3994310585
 30
0.0
 10
4.33558583
 20
3.3950938833
 30
0.0
 10
4.3345987201
 20
3.3906644605
 30
0.0
 10
4.3347367729
 20
3.3860882046
 30
0.0
  0
SPLINE
  5
34D
100
AcDbEntity
  8
0
100
AcDbSpline
 62
7
  6
CONTINUOUS
 70
0
 71
3
 72
8
 73
4
 74
0
 42
0.0000001
 43
0.0000001
 44
0.0000000001
 40
0.0
 40
0.0
 40
0.0
 40
0.0
 40
1.0
 40
1.0
 40
1.0
 40
1.0
 10
4.3347367729
 20
3.3860882046
 30
0.0
 10
4.3348766388
 20
3.3814518453
 30
0.0
 10
4.3362847915
 20
3.3768300358
 30
0.0
 10
4.3389450958
 20
3.3722222536
 30
0.0
  0
SPLINE
  5
34E
100
AcDbEntity
  8
0
100
AcDbSpline
 62
7
  6
CONTINUOUS
 70
0
 71
3
 72
8
 73
4
 74
0
 42
0.0000001
 43
0.0000001
 44
0.0000000001
 40
0.0
 40
0.0
 40
0.0
 40
0.0
 40
1.0
 40
1.0
 40
1.0
 40
1.0
 10
4.3389450958
 20
3.3722222536
 30
0.0
 10
4.3425944796
 20
3.3659013355
 30
0.0
 10
4.3473431048
 20
3.361632829
 30
0.0
 10
4.3531069903
 20
3.3594664051
 30
0.0
  0
SPLINE
  5
34F
100
AcDbEntity
  8
0
100
AcDbSpline
 62
7
  6
CONTINUOUS
 70
0
 71
3
 72
8
 73
4
 74
0
 42
0.0000001
 43
0.0000001
 44
0.0000000001
 40
0.0
 40
0.0
 40
0.0
 40
0.0
 40
1.0
 40
1.0
 40
1.0
 40
1.0
 10
4.3531069903
 20
3.3594664051
 30
0.0
 10
4.3589115091
 20
3.3572847088
 30
0.0
 10
4.3655041521
 20
3.3569164027
 30
0.0
 10
4.372993829
 20
3.3584050145
 30
0.0
  0
SPLINE
  5
350
100
AcDbEntity
  8
0
100
AcDbSpline
 62
7
  6
CONTINUOUS
 70
0
 71
3
 72
8
 73
4
 74
0
 42
0.0000001
 43
0.0000001
 44
0.0000000001
 40
0.0
 40
0.0
 40
0.0
 40
0.0
 40
1.0
 40
1.0
 40
1.0
 40
1.0
 10
4.372993829
 20
3.3584050145
 30
0.0
 10
4.3804835113
 20
3.3598936274
 30
0.0
 10
4.3892746098
 20
3.3636301564
 30
0.0
 10
4.3994944194
 20
3.3695305662
 30
0.0
  0
SPLINE
  5
351
100
AcDbEntity
  8
0
100
AcDbSpline
 62
7
  6
CONTINUOUS
 70
0
 71
3
 72
8
 73
4
 74
0
 42
0.0000001
 43
0.0000001
 44
0.0000000001
 40
0.0
 40
0.0
 40
0.0
 40
0.0
 40
1.0
 40
1.0
 40
1.0
 40
1.0
 10
4.3994944194
 20
3.3695305662
 30
0.0
 10
4.4157988554
 20
3.3789439367
 30
0.0
 10
4.4258584012
 20
3.3885325689
 30
0.0
 10
4.4297868447
 20
3.398411845
 30
0.0
  0
SPLINE
  5
352
100
AcDbEntity
  8
0
100
AcDbSpline
 62
7
  6
CONTINUOUS
 70
0
 71
3
 72
8
 73
4
 74
0
 42
0.0000001
 43
0.0000001
 44
0.0000000001
 40
0.0
 40
0.0
 40
0.0
 40
0.0
 40
1.0
 40
1.0
 40
1.0
 40
1.0
 10
4.2998893816
 20
3.7626489548
 30
0.0
 10
4.3033668109
 20
3.7592239288
 30
0.0
 10
4.3064664549
 20
3.7544154621
 30
0.0
 10
4.3092345759
 20
3.7481386942
 30
0.0
  0
SPLINE
  5
353
100
AcDbEntity
  8
0
100
AcDbSpline
 62
7
  6
CONTINUOUS
 70
0
 71
3
 72
8
 73
4
 74
0
 42
0.0000001
 43
0.0000001
 44
0.0000000001
 40
0.0
 40
0.0
 40
0.0
 40
0.0
 40
1.0
 40
1.0
 40
1.0
 40
1.0
 10
4.3092345759
 20
3.7481386942
 30
0.0
 10
4.3120415633
 20
3.741773796
 30
0.0
 10
4.3138844497
 20
3.7348633635
 30
0.0
 10
4.3148256474
 20
3.7273852293
 30
0.0
  0
SPLINE
  5
354
100
AcDbEntity
  8
0
100
AcDbSpline
 62
7
  6
CONTINUOUS
 70
0
 71
3
 72
8
 73
4
 74
0
 42
0.0000001
 43
0.0000001
 44
0.0000000001
 40
0.0
 40
0.0
 40
0.0
 40
0.0
 40
1.0
 40
1.0
 40
1.0
 40
1.0
 10
4.3261137668
 20
3.723717497
 30
0.0
 10
4.325996703
 20
3.7277720334
 30
0.0
 10
4.3253135708
 20
3.7325125577
 30
0.0
 10
4.3240930201
 20
3.7379454247
 30
0.0
  0
SPLINE
  5
355
100
AcDbEntity
  8
0
100
AcDbSpline
 62
7
  6
CONTINUOUS
 70
0
 71
3
 72
8
 73
4
 74
0
 42
0.0000001
 43
0.0000001
 44
0.0000000001
 40
0.0
 40
0.0
 40
0.0
 40
0.0
 40
1.0
 40
1.0
 40
1.0
 40
1.0
 10
4.3240930201
 20
3.7379454247
 30
0.0
 10
4.3228800607
 20
3.7433445018
 30
0.0
 10
4.3214217132
 20
3.7479065697
 30
0.0
 10
4.3196244671
 20
3.7516463523
 30
0.0
  0
SPLINE
  5
356
100
AcDbEntity
  8
0
100
AcDbSpline
 62
7
  6
CONTINUOUS
 70
0
 71
3
 72
8
 73
4
 74
0
 42
0.0000001
 43
0.0000001
 44
0.0000000001
 40
0.0
 40
0.0
 40
0.0
 40
0.0
 40
1.0
 40
1.0
 40
1.0
 40
1.0
 10
4.3238982738
 20
3.8365407269
 30
0.0
 10
4.327375704
 20
3.8331157038
 30
0.0
 10
4.3304753471
 20
3.8283072342
 30
0.0
 10
4.3332434681
 20
3.8220304664
 30
0.0
  0
SPLINE
  5
357
100
AcDbEntity
  8
0
100
AcDbSpline
 62
7
  6
CONTINUOUS
 70
0
 71
3
 72
8
 73
4
 74
0
 42
0.0000001
 43
0.0000001
 44
0.0000000001
 40
0.0
 40
0.0
 40
0.0
 40
0.0
 40
1.0
 40
1.0
 40
1.0
 40
1.0
 10
4.3332434681
 20
3.8220304664
 30
0.0
 10
4.3360504555
 20
3.8156655682
 30
0.0
 10
4.3378933414
 20
3.8087551343
 30
0.0
 10
4.3388345395
 20
3.8012770015
 30
0.0
  0
SPLINE
  5
358
100
AcDbEntity
  8
0
100
AcDbSpline
 62
7
  6
CONTINUOUS
 70
0
 71
3
 72
8
 73
4
 74
0
 42
0.0000001
 43
0.0000001
 44
0.0000000001
 40
0.0
 40
0.0
 40
0.0
 40
0.0
 40
1.0
 40
1.0
 40
1.0
 40
1.0
 10
4.350122659
 20
3.7976092691
 30
0.0
 10
4.3500055952
 20
3.8016638056
 30
0.0
 10
4.3493224643
 20
3.8064043341
 30
0.0
 10
4.3481019119
 20
3.8118371967
 30
0.0
  0
SPLINE
  5
359
100
AcDbEntity
  8
0
100
AcDbSpline
 62
7
  6
CONTINUOUS
 70
0
 71
3
 72
8
 73
4
 74
0
 42
0.0000001
 43
0.0000001
 44
0.0000000001
 40
0.0
 40
0.0
 40
0.0
 40
0.0
 40
1.0
 40
1.0
 40
1.0
 40
1.0
 10
4.3481019119
 20
3.8118371967
 30
0.0
 10
4.346918639
 20
3.8171041225
 30
0.0
 10
4.345501848
 20
3.8215745264
 30
0.0
 10
4.3437647171
 20
3.8252620434
 30
0.0
  0
SPLINE
  5
35A
100
AcDbEntity
  8
0
100
AcDbSpline
 62
7
  6
CONTINUOUS
 70
0
 71
3
 72
8
 73
4
 74
0
 42
0.0000001
 43
0.0000001
 44
0.0000000001
 40
0.0
 40
0.0
 40
0.0
 40
0.0
 40
1.0
 40
1.0
 40
1.0
 40
1.0
 10
4.3922619537
 20
3.8701286791
 30
0.0
 10
4.3900852904
 20
3.8727007261
 30
0.0
 10
4.3886594847
 20
3.875817758
 30
0.0
 10
4.387947141
 20
3.8794116266
 30
0.0
  0
SPLINE
  5
35B
100
AcDbEntity
  8
0
100
AcDbSpline
 62
7
  6
CONTINUOUS
 70
0
 71
3
 72
8
 73
4
 74
0
 42
0.0000001
 43
0.0000001
 44
0.0000000001
 40
0.0
 40
0.0
 40
0.0
 40
0.0
 40
1.0
 40
1.0
 40
1.0
 40
1.0
 10
4.387947141
 20
3.8794116266
 30
0.0
 10
4.3872463605
 20
3.8829471569
 30
0.0
 10
4.3874553051
 20
3.8866806013
 30
0.0
 10
4.3886778819
 20
3.8904433058
 30
0.0
  0
SPLINE
  5
35C
100
AcDbEntity
  8
0
100
AcDbSpline
 62
7
  6
CONTINUOUS
 70
0
 71
3
 72
8
 73
4
 74
0
 42
0.0000001
 43
0.0000001
 44
0.0000000001
 40
0.0
 40
0.0
 40
0.0
 40
0.0
 40
1.0
 40
1.0
 40
1.0
 40
1.0
 10
4.3886778819
 20
3.8904433058
 30
0.0
 10
4.390638222
 20
3.8964766123
 30
0.0
 10
4.3941653703
 20
3.9007098258
 30
0.0
 10
4.3992260216
 20
3.903207504
 30
0.0
  0
SPLINE
  5
35D
100
AcDbEntity
  8
0
100
AcDbSpline
 62
7
  6
CONTINUOUS
 70
0
 71
3
 72
8
 73
4
 74
0
 42
0.0000001
 43
0.0000001
 44
0.0000000001
 40
0.0
 40
0.0
 40
0.0
 40
0.0
 40
1.0
 40
1.0
 40
1.0
 40
1.0
 10
4.3992260216
 20
3.903207504
 30
0.0
 10
4.4043305608
 20
3.9057268429
 30
0.0
 10
4.4101966613
 20
3.9059007907
 30
0.0
 10
4.4168138337
 20
3.9037507411
 30
0.0
  0
SPLINE
  5
35E
100
AcDbEntity
  8
0
100
AcDbSpline
 62
7
  6
CONTINUOUS
 70
0
 71
3
 72
8
 73
4
 74
0
 42
0.0000001
 43
0.0000001
 44
0.0000000001
 40
0.0
 40
0.0
 40
0.0
 40
0.0
 40
1.0
 40
1.0
 40
1.0
 40
1.0
 10
4.4168138337
 20
3.9037507411
 30
0.0
 10
4.4238202529
 20
3.9014742175
 30
0.0
 10
4.4288319507
 20
3.8976941369
 30
0.0
 10
4.4318040708
 20
3.8924429237
 30
0.0
  0
SPLINE
  5
35F
100
AcDbEntity
  8
0
100
AcDbSpline
 62
7
  6
CONTINUOUS
 70
0
 71
3
 72
8
 73
4
 74
0
 42
0.0000001
 43
0.0000001
 44
0.0000000001
 40
0.0
 40
0.0
 40
0.0
 40
0.0
 40
1.0
 40
1.0
 40
1.0
 40
1.0
 10
4.4318040708
 20
3.8924429237
 30
0.0
 10
4.4348010017
 20
3.8871478743
 30
0.0
 10
4.4353171411
 20
3.881672664
 30
0.0
 10
4.4335043544
 20
3.8760934802
 30
0.0
  0
SPLINE
  5
360
100
AcDbEntity
  8
0
100
AcDbSpline
 62
7
  6
CONTINUOUS
 70
0
 71
3
 72
8
 73
4
 74
0
 42
0.0000001
 43
0.0000001
 44
0.0000000001
 40
0.0
 40
0.0
 40
0.0
 40
0.0
 40
1.0
 40
1.0
 40
1.0
 40
1.0
 10
4.4335043544
 20
3.8760934802
 30
0.0
 10
4.4319866707
 20
3.8714225303
 30
0.0
 10
4.4291876677
 20
3.8678851376
 30
0.0
 10
4.4251284313
 20
3.865546183
 30
0.0
  0
SPLINE
  5
361
100
AcDbEntity
  8
0
100
AcDbSpline
 62
7
  6
CONTINUOUS
 70
0
 71
3
 72
8
 73
4
 74
0
 42
0.0000001
 43
0.0000001
 44
0.0000000001
 40
0.0
 40
0.0
 40
0.0
 40
0.0
 40
1.0
 40
1.0
 40
1.0
 40
1.0
 10
4.4251284313
 20
3.865546183
 30
0.0
 10
4.4210691859
 20
3.8632072232
 30
0.0
 10
4.4158534651
 20
3.8626067761
 30
0.0
 10
4.4095899314
 20
3.8636378028
 30
0.0
  0
SPLINE
  5
362
100
AcDbEntity
  8
0
100
AcDbSpline
 62
7
  6
CONTINUOUS
 70
0
 71
3
 72
8
 73
4
 74
0
 42
0.0000001
 43
0.0000001
 44
0.0000000001
 40
0.0
 40
0.0
 40
0.0
 40
0.0
 40
1.0
 40
1.0
 40
1.0
 40
1.0
 10
4.4066440005
 20
3.8510392964
 30
0.0
 10
4.4149413565
 20
3.8492040095
 30
0.0
 10
4.4223756948
 20
3.8502311592
 30
0.0
 10
4.4289599062
 20
3.8540987337
 30
0.0
  0
SPLINE
  5
363
100
AcDbEntity
  8
0
100
AcDbSpline
 62
7
  6
CONTINUOUS
 70
0
 71
3
 72
8
 73
4
 74
0
 42
0.0000001
 43
0.0000001
 44
0.0000000001
 40
0.0
 40
0.0
 40
0.0
 40
0.0
 40
1.0
 40
1.0
 40
1.0
 40
1.0
 10
4.4289599062
 20
3.8540987337
 30
0.0
 10
4.4355832174
 20
3.8579892754
 30
0.0
 10
4.4402811649
 20
3.8642806419
 30
0.0
 10
4.4431057431
 20
3.8729737999
 30
0.0
  0
SPLINE
  5
364
100
AcDbEntity
  8
0
100
AcDbSpline
 62
7
  6
CONTINUOUS
 70
0
 71
3
 72
8
 73
4
 74
0
 42
0.0000001
 43
0.0000001
 44
0.0000000001
 40
0.0
 40
0.0
 40
0.0
 40
0.0
 40
1.0
 40
1.0
 40
1.0
 40
1.0
 10
4.4431057431
 20
3.8729737999
 30
0.0
 10
4.4465205239
 20
3.8834834144
 30
0.0
 10
4.445412125
 20
3.8930958523
 30
0.0
 10
4.4397023267
 20
3.9017214151
 30
0.0
  0
SPLINE
  5
365
100
AcDbEntity
  8
0
100
AcDbSpline
 62
7
  6
CONTINUOUS
 70
0
 71
3
 72
8
 73
4
 74
0
 42
0.0000001
 43
0.0000001
 44
0.0000000001
 40
0.0
 40
0.0
 40
0.0
 40
0.0
 40
1.0
 40
1.0
 40
1.0
 40
1.0
 10
4.4397023267
 20
3.9017214151
 30
0.0
 10
4.435068656
 20
3.9087213151
 30
0.0
 10
4.4284301945
 20
3.9136754853
 30
0.0
 10
4.419801918
 20
3.9164789822
 30
0.0
  0
SPLINE
  5
366
100
AcDbEntity
  8
0
100
AcDbSpline
 62
7
  6
CONTINUOUS
 70
0
 71
3
 72
8
 73
4
 74
0
 42
0.0000001
 43
0.0000001
 44
0.0000000001
 40
0.0
 40
0.0
 40
0.0
 40
0.0
 40
1.0
 40
1.0
 40
1.0
 40
1.0
 10
4.419801918
 20
3.9164789822
 30
0.0
 10
4.4107843976
 20
3.9194089522
 30
0.0
 10
4.4024612616
 20
3.9189574904
 30
0.0
 10
4.3948433898
 20
3.9151031366
 30
0.0
  0
SPLINE
  5
367
100
AcDbEntity
  8
0
100
AcDbSpline
 62
7
  6
CONTINUOUS
 70
0
 71
3
 72
8
 73
4
 74
0
 42
0.0000001
 43
0.0000001
 44
0.0000000001
 40
0.0
 40
0.0
 40
0.0
 40
0.0
 40
1.0
 40
1.0
 40
1.0
 40
1.0
 10
4.3948433898
 20
3.9151031366
 30
0.0
 10
4.3872686355
 20
3.9112705985
 30
0.0
 10
4.3820727664
 20
3.9052127259
 30
0.0
 10
4.379374663
 20
3.8969088175
 30
0.0
  0
SPLINE
  5
368
100
AcDbEntity
  8
0
100
AcDbSpline
 62
7
  6
CONTINUOUS
 70
0
 71
3
 72
8
 73
4
 74
0
 42
0.0000001
 43
0.0000001
 44
0.0000000001
 40
0.0
 40
0.0
 40
0.0
 40
0.0
 40
1.0
 40
1.0
 40
1.0
 40
1.0
 10
4.379374663
 20
3.8969088175
 30
0.0
 10
4.3773300087
 20
3.8906160189
 30
0.0
 10
4.3774018512
 20
3.8839941381
 30
0.0
 10
4.3795042368
 20
3.8769993939
 30
0.0
  0
ENDSEC
  0
SECTION
  2
OBJECTS
  0
DICTIONARY
  5
C
100
AcDbDictionary
280
0
281
1
  3
ACAD_GROUP
350
D
  3
ACAD_MLINESTYLE
350
17
  3
ACAD_LAYOUT
350
1A
  3
ACAD_PLOTSETTINGS
350
19
  3
ACAD_PLOTSTYLENAME
350
E
  0
DICTIONARY
  5
D
102
{ACAD_REACTORS
330
C
102
}
100
AcDbDictionary
280
0
281
1
  0
ACDBDICTIONARYWDFLT
  5
E
102
{ACAD_REACTORS
330
C
102
}
100
AcDbDictionary
281
1
  3
Normal
350
F
100
AcDbDictionaryWithDefault
340
F
  0
DICTIONARY
  5
17
102
{ACAD_REACTORS
330
C
102
}
100
AcDbDictionary
280
0
281
1
  3
Standard
350
18
  0
DICTIONARY
  5
19
102
{ACAD_REACTORS
330
C
102
}
100
AcDbDictionary
281
1
  0
DICTIONARY
  5
1A
102
{ACAD_REACTORS
330
C
102
}
100
AcDbDictionary
281
1
  3
Model
350
369
  3
Layout1
350
36A
  0
ACDBPLACEHOLDER
  5
F
102
{ACAD_REACTORS
330
E
102
}
  0
MLINESTYLE
  5
18
102
{ACAD_REACTORS
330
17
102
}
100
AcDbMlineStyle
  2
STANDARD
 70
0
  3

 62
256
 51
90.0
 52
90.0
 71
2
 49
0.5
 62
256
  6
BYLAYER
 49
-0.5
 62
256
  6
BYLAYER
  0
LAYOUT
  5
369
102
{ACAD_REACTORS
330
1A
102
}
100
AcDbPlotSettings
  1

  2
none_device
  4
ANSI_A_(11.00_x_8.50_Inches)
  6

 40
0.0
 41
0.0
 42
0.0
 43
0.0
 44
279.4
 45
215.9
 46
0.0
 47
0.0
 48
0.0
 49
0.0
140
0.0
141
0.0
142
1.0
143
1.0
 70
1024
 72
0
 73
0
 74
0
  7

 75
0
147
1.0
148
0.0
149
0.0
100
AcDbLayout
  1
Model
 70
0
 71
0
 10
0.0
 20
0.0
 11
11.0
 21
8.5
 12
0.0
 22
0.0
 32
0.0
 14
0.0
 24
0.0
 34
0.0
 15
0.0
 25
0.0
 35
0.0
146
0.0
 13
0.0
 23
0.0
 33
0.0
 16
1.0
 26
0.0
 36
0.0
 17
0.0
 27
1.0
 37
0.0
 76
0
330
21A
345
0
346
0
  0
LAYOUT
  5
36A
102
{ACAD_REACTORS
330
1A
102
}
100
AcDbPlotSettings
  1

  2
none_device
  4
ANSI_A_(11.00_x_8.50_Inches)
  6

 40
0.0
 41
0.0
 42
0.0
 43
0.0
 44
279.4
 45
215.9
 46
0.0
 47
0.0
 48
0.0
 49
0.0
140
0.0
141
0.0
142
1.0
143
1.0
 70
0
 72
0
 73
0
 74
0
  7

 75
0
147
1.0
148
0.0
149
0.0
100
AcDbLayout
  1
Layout1
 70
0
 71
1
 10
0.0
 20
0.0
 11
11.0
 21
8.5
 12
0.0
 22
0.0
 32
0.0
 14
0.0
 24
0.0
 34
0.0
 15
0.0
 25
0.0
 35
0.0
146
0.0
 13
0.0
 23
0.0
 33
0.0
 16
1.0
 26
0.0
 36
0.0
 17
0.0
 27
1.0
 37
0.0
 76
0
330
21B
345
0
346
0
  0
ENDSEC
  0
EOF
