999
DXF file: 3-1624ts_RIGHT.dxf
999
Pro/ENGINEER 2018400 by Parametric Technology Corporation
  0
SECTION
  2
HEADER
  9
$ACADVER
  1
AC1027
  9
$DWGCODEPAGE
  3
ANSI_1252
  9
$EXTMAX
 10
11.0
 20
8.5
 30
0.0
  9
$EXTMIN
 10
0.0
 20
0.0
 30
0.0
  9
$LIMMIN
 10
0.0
 20
0.0
  9
$LIMMAX
 10
11.0
 20
8.5
  9
$VIEWCTR
 10
5.5
 20
4.25
  9
$VIEWSIZE
 40
8.5
  9
$CLAYER
  8
0
  9
$LTSCALE
 40
0.605
  9
$CELTYPE
  6
BYLAYER
  9
$DIMSCALE
 40
1.0
  9
$DIMASZ
 40
0.1
  9
$DIMEXO
 40
0.0625
  9
$DIMDLI
 40
0.418
  9
$DIMEXE
 40
0.125
  9
$DIMCEN
 40
0.099
  9
$DIMLFAC
 40
1.0
  9
$DIMBLK
  1
_FILLED
  9
$DIMALT
 70
1
  9
$DIMALTD
 70
2
  9
$DIMALTTD
 70
2
  9
$DIMALTF
 40
25.4
  9
$DIMTXT
 40
0.08
  9
$DIMTOL
 70
1
  9
$DIMLIM
 70
0
  9
$DIMTFAC
 40
1.0
  9
$DIMTP
 40
0.001
  9
$DIMTM
 40
0.001
  9
$DIMGAP
 40
0.09
  9
$DIMDSEP
 70
46
  9
$AUNITS
 70
0
  9
$PDMODE
 70
3
  9
$PDSIZE
 40
0.3125
  9
$HANDSEED
  5
456
  9
$TILEMODE
 70
1
  9
$MEASUREMENT
 70
0
  9
$INSUNITS
 70
1
  0
ENDSEC
  0
SECTION
  2
CLASSES
  0
CLASS
  1
ACDBDICTIONARYWDFLT
  2
AcDbDictionaryWithDefault
  3
AutoCAD 2000
 90
0
 91
1
280
0
281
0
  0
CLASS
  1
ACDBPLACEHOLDER
  2
AcDbPlaceHolder
  3
AutoCAD 2000
 90
0
 91
1
280
0
281
0
  0
CLASS
  1
LAYOUT
  2
AcDbLayout
  3
AutoCAD 2000
 90
0
 91
0
280
0
281
0
  0
ENDSEC
  0
SECTION
  2
TABLES
  0
TABLE
  2
VPORT
  5
8
100
AcDbSymbolTable
 70
2
  0
VPORT
  5
1F4
100
AcDbSymbolTableRecord
100
AcDbViewportTableRecord
  2
*ACTIVE
 70
0
 10
0.0
 20
0.0
 11
1.0
 21
1.0
 12
5.5
 22
4.25
 13
0.0
 23
0.0
 14
1.0
 24
1.0
 15
0.0
 25
0.0
 16
0.0
 26
0.0
 36
1.0
 17
0.0
 27
0.0
 37
0.0
 40
8.5
 41
1.2941176471
 42
50.0
 43
0.0
 44
0.0
 50
0.0
 51
0.0
 71
0
 72
100
 73
1
 74
1
 75
0
 76
0
 77
0
 78
0
  0
ENDTAB
  0
TABLE
  2
LTYPE
  5
5
100
AcDbSymbolTable
 70
6
  0
LTYPE
  5
14
100
AcDbSymbolTableRecord
100
AcDbLinetypeTableRecord
  2
BYBLOCK
 70
0
  3

 72
65
 73
0
 40
0.0
  0
LTYPE
  5
15
100
AcDbSymbolTableRecord
100
AcDbLinetypeTableRecord
  2
BYLAYER
 70
0
  3

 72
65
 73
0
 40
0.0
  0
LTYPE
  5
16
100
AcDbSymbolTableRecord
100
AcDbLinetypeTableRecord
  2
CONTINUOUS
 70
64
  3
Solid line
 72
65
 73
0
 40
0.0
  0
LTYPE
  5
1F5
100
AcDbSymbolTableRecord
100
AcDbLinetypeTableRecord
  2
CENTER
 70
64
  3
____ _ ____ _ ____ _ ____ _ ____ _ ____ _ ____
 72
65
 73
4
 40
0.6
 49
0.375
 74
0
 49
-0.075
 74
0
 49
0.075
 74
0
 49
-0.075
 74
0
  0
LTYPE
  5
1F6
100
AcDbSymbolTableRecord
100
AcDbLinetypeTableRecord
  2
HIDDEN
 70
64
  3
- - - - - - - - - - - - - - - - - - - -
 72
65
 73
2
 40
0.2
 49
0.1
 74
0
 49
-0.1
 74
0
  0
LTYPE
  5
1F7
100
AcDbSymbolTableRecord
100
AcDbLinetypeTableRecord
  2
PHANTOM
 70
64
  3
_____ _ _ _____ _ _ _____ _ _ _____
 72
65
 73
6
 40
0.8
 49
0.45
 74
0
 49
-0.05
 74
0
 49
0.1
 74
0
 49
-0.05
 74
0
 49
0.1
 74
0
 49
-0.05
 74
0
  0
LTYPE
  5
1F8
100
AcDbSymbolTableRecord
100
AcDbLinetypeTableRecord
  2
DOT
 70
64
  3
. . . . . . . . . . . . . . . . . . . .
 72
65
 73
2
 40
0.2
 49
0.1
 74
0
 49
-0.1
 74
0
  0
LTYPE
  5
1F9
100
AcDbSymbolTableRecord
100
AcDbLinetypeTableRecord
  2
DASHED
 70
64
  3
- - - - - - - - - - - - - - - - - - - -
 72
65
 73
2
 40
0.2
 49
0.1
 74
0
 49
-0.1
 74
0
  0
ENDTAB
  0
TABLE
  2
LAYER
  5
2
100
AcDbSymbolTable
 70
36
  0
LAYER
  5
10
100
AcDbSymbolTableRecord
100
AcDbLayerTableRecord
  2
0
 70
0
 62
7
  6
CONTINUOUS
370
-3
390
F
  0
LAYER
  5
1FA
100
AcDbSymbolTableRecord
100
AcDbLayerTableRecord
  2
DEFAULT_1
 70
0
 62
7
  6
CENTER
370
-3
390
F
  0
LAYER
  5
1FB
100
AcDbSymbolTableRecord
100
AcDbLayerTableRecord
  2
DEFAULT_2
 70
0
 62
8
  6
HIDDEN
370
-3
390
F
  0
LAYER
  5
1FC
100
AcDbSymbolTableRecord
100
AcDbLayerTableRecord
  2
DEFAULT_3
 70
0
 62
7
  6
PHANTOM
370
-3
390
F
  0
LAYER
  5
1FD
100
AcDbSymbolTableRecord
100
AcDbLayerTableRecord
  2
AA
 70
0
 62
7
  6
CONTINUOUS
370
-3
390
F
  0
LAYER
  5
1FE
100
AcDbSymbolTableRecord
100
AcDbLayerTableRecord
  2
ALL_ASSEMBLY_MEMBERS
 70
0
 62
7
  6
CONTINUOUS
370
-3
390
F
  0
LAYER
  5
1FF
100
AcDbSymbolTableRecord
100
AcDbLayerTableRecord
  2
ALL_FEATURES
 70
0
 62
7
  6
CONTINUOUS
370
-3
390
F
  0
LAYER
  5
200
100
AcDbSymbolTableRecord
100
AcDbLayerTableRecord
  2
AXES_FEATURES
 70
0
 62
7
  6
CONTINUOUS
370
-3
390
F
  0
LAYER
  5
201
100
AcDbSymbolTableRecord
100
AcDbLayerTableRecord
  2
CHAMFER_FEATURES
 70
0
 62
7
  6
CONTINUOUS
370
-3
390
F
  0
LAYER
  5
202
100
AcDbSymbolTableRecord
100
AcDbLayerTableRecord
  2
CURVE
 70
0
 62
7
  6
CONTINUOUS
370
-3
390
F
  0
LAYER
  5
203
100
AcDbSymbolTableRecord
100
AcDbLayerTableRecord
  2
CURVES
 70
0
 62
7
  6
CONTINUOUS
370
-3
390
F
  0
LAYER
  5
204
100
AcDbSymbolTableRecord
100
AcDbLayerTableRecord
  2
CUT_FEATURES
 70
0
 62
7
  6
CONTINUOUS
370
-3
390
F
  0
LAYER
  5
205
100
AcDbSymbolTableRecord
100
AcDbLayerTableRecord
  2
DATUM_CURVES
 70
0
 62
7
  6
CONTINUOUS
370
-3
390
F
  0
LAYER
  5
206
100
AcDbSymbolTableRecord
100
AcDbLayerTableRecord
  2
DATUM_PLANES
 70
0
 62
7
  6
CONTINUOUS
370
-3
390
F
  0
LAYER
  5
207
100
AcDbSymbolTableRecord
100
AcDbLayerTableRecord
  2
DATUM_POINTS
 70
0
 62
7
  6
CONTINUOUS
370
-3
390
F
  0
LAYER
  5
208
100
AcDbSymbolTableRecord
100
AcDbLayerTableRecord
  2
DEFAULT_COORDINATE_SYSTEM
 70
0
 62
7
  6
CONTINUOUS
370
-3
390
F
  0
LAYER
  5
209
100
AcDbSymbolTableRecord
100
AcDbLayerTableRecord
  2
DEFAULT_DATUM_AXES
 70
0
 62
7
  6
CONTINUOUS
370
-3
390
F
  0
LAYER
  5
20A
100
AcDbSymbolTableRecord
100
AcDbLayerTableRecord
  2
DEFAULT_DATUM_CURVES
 70
0
 62
7
  6
CONTINUOUS
370
-3
390
F
  0
LAYER
  5
20B
100
AcDbSymbolTableRecord
100
AcDbLayerTableRecord
  2
DEFAULT_DATUM_PLANES
 70
0
 62
7
  6
CONTINUOUS
370
-3
390
F
  0
LAYER
  5
20C
100
AcDbSymbolTableRecord
100
AcDbLayerTableRecord
  2
DEFAULT_SURFACES
 70
0
 62
7
  6
CONTINUOUS
370
-3
390
F
  0
LAYER
  5
20D
100
AcDbSymbolTableRecord
100
AcDbLayerTableRecord
  2
DIMENSIONS
 70
0
 62
7
  6
CONTINUOUS
370
-3
390
F
  0
LAYER
  5
20E
100
AcDbSymbolTableRecord
100
AcDbLayerTableRecord
  2
HOLE_FEATURES
 70
0
 62
7
  6
CONTINUOUS
370
-3
390
F
  0
LAYER
  5
20F
100
AcDbSymbolTableRecord
100
AcDbLayerTableRecord
  2
LAY0001
 70
0
 62
7
  6
CONTINUOUS
370
-3
390
F
  0
LAYER
  5
210
100
AcDbSymbolTableRecord
100
AcDbLayerTableRecord
  2
NOTES
 70
0
 62
7
  6
CONTINUOUS
370
-3
390
F
  0
LAYER
  5
211
100
AcDbSymbolTableRecord
100
AcDbLayerTableRecord
  2
PART_REFERENCE_DIMENSIONS
 70
0
 62
7
  6
CONTINUOUS
370
-3
390
F
  0
LAYER
  5
212
100
AcDbSymbolTableRecord
100
AcDbLayerTableRecord
  2
PLATED_SURFACE_AREA
 70
0
 62
7
  6
CONTINUOUS
370
-3
390
F
  0
LAYER
  5
213
100
AcDbSymbolTableRecord
100
AcDbLayerTableRecord
  2
POINTS
 70
0
 62
7
  6
CONTINUOUS
370
-3
390
F
  0
LAYER
  5
214
100
AcDbSymbolTableRecord
100
AcDbLayerTableRecord
  2
PROTRUSION
 70
0
 62
7
  6
CONTINUOUS
370
-3
390
F
  0
LAYER
  5
215
100
AcDbSymbolTableRecord
100
AcDbLayerTableRecord
  2
PROTRUSION_FEATURES
 70
0
 62
7
  6
CONTINUOUS
370
-3
390
F
  0
LAYER
  5
216
100
AcDbSymbolTableRecord
100
AcDbLayerTableRecord
  2
QUILT
 70
0
 62
7
  6
CONTINUOUS
370
-3
390
F
  0
LAYER
  5
217
100
AcDbSymbolTableRecord
100
AcDbLayerTableRecord
  2
QUILTS
 70
0
 62
7
  6
CONTINUOUS
370
-3
390
F
  0
LAYER
  5
218
100
AcDbSymbolTableRecord
100
AcDbLayerTableRecord
  2
REFERENCE_DIMENSIONS
 70
0
 62
7
  6
CONTINUOUS
370
-3
390
F
  0
LAYER
  5
219
100
AcDbSymbolTableRecord
100
AcDbLayerTableRecord
  2
ROUND_FEATURES
 70
0
 62
7
  6
CONTINUOUS
370
-3
390
F
  0
LAYER
  5
21A
100
AcDbSymbolTableRecord
100
AcDbLayerTableRecord
  2
SHELL_FEATURES
 70
0
 62
7
  6
CONTINUOUS
370
-3
390
F
  0
LAYER
  5
21B
100
AcDbSymbolTableRecord
100
AcDbLayerTableRecord
  2
SURFACE_FEATURES
 70
0
 62
7
  6
CONTINUOUS
370
-3
390
F
  0
LAYER
  5
21C
100
AcDbSymbolTableRecord
100
AcDbLayerTableRecord
  2
XSEC_DATUMS
 70
0
 62
7
  6
CONTINUOUS
370
-3
390
F
  0
ENDTAB
  0
TABLE
  2
STYLE
  5
3
100
AcDbSymbolTable
 70
1
  0
STYLE
  5
11
100
AcDbSymbolTableRecord
100
AcDbTextStyleTableRecord
  2
STANDARD
 70
0
 40
0.0
 41
0.8
 50
0.0
 71
0
 42
0.2
  3
txt
  4

  0
STYLE
  5
21D
100
AcDbSymbolTableRecord
100
AcDbTextStyleTableRecord
  2
TEXTSTYLE_1
 70
0
 40
0.0
 41
0.8
 50
0.0
 71
0
 42
0.2
  3
gdt
  4

  0
ENDTAB
  0
TABLE
  2
VIEW
  5
6
100
AcDbSymbolTable
 70
0
  0
ENDTAB
  0
TABLE
  2
UCS
  5
7
100
AcDbSymbolTable
 70
0
  0
ENDTAB
  0
TABLE
  2
APPID
  5
9
100
AcDbSymbolTable
 70
1
  0
APPID
  5
21E
100
AcDbSymbolTableRecord
100
AcDbRegAppTableRecord
  2
ACAD
 70
0
  0
ENDTAB
  0
TABLE
  2
BLOCK_RECORD
  5
1
100
AcDbSymbolTable
 70
0
  0
BLOCK_RECORD
  5
21F
100
AcDbSymbolTableRecord
100
AcDbBlockTableRecord
  2
*Model_Space
  0
BLOCK_RECORD
  5
220
100
AcDbSymbolTableRecord
100
AcDbBlockTableRecord
  2
*Paper_Space
  0
BLOCK_RECORD
  5
221
100
AcDbSymbolTableRecord
100
AcDbBlockTableRecord
  2
_FILLED
  0
ENDTAB
  0
TABLE
  2
DIMSTYLE
  5
A
100
AcDbSymbolTable
 70
1
100
AcDbDimStyleTable
 71
0
  0
DIMSTYLE
105
222
100
AcDbSymbolTableRecord
100
AcDbDimStyleTableRecord
  2
STANDARD
 70
0
  3

  4

 40
1.0
 41
0.1
 42
0.0625
 43
0.38
 44
0.125
 45
0.0
 46
0.0
 47
0.001
 48
0.001
140
0.08
141
0.09
142
0.0
143
25.4
144
1.0
145
0.0
146
1.0
147
0.09
 71
1.0
 72
0.0
 73
1
 74
1
 75
0
 76
0
 77
0
 78
4
 79
1
170
1
171
2
172
0
173
0
174
0
175
0
176
0
177
0
178
0
270
2
179
3
271
3
272
3
273
2
274
2
275
0
280
0
281
0
282
0
283
1
284
4
285
0
286
0
287
3
288
0
340
11
278
46
341
221
342
221
343
221
344
221
  0
ENDTAB
  0
ENDSEC
  0
SECTION
  2
BLOCKS
  0
BLOCK
  5
20
100
AcDbEntity
  8
0
100
AcDbBlockBegin
  2
*Model_Space
 70
0
 10
0.0
 20
0.0
 30
0.0
  3
*Model_Space
  1

  0
ENDBLK
  5
21
100
AcDbEntity
  8
0
100
AcDbBlockEnd
  0
BLOCK
  5
1C
100
AcDbEntity
  8
0
100
AcDbBlockBegin
  2
*Paper_Space
 70
0
 10
0.0
 20
0.0
 30
0.0
  3
*Paper_Space
  1

  0
ENDBLK
  5
1D
100
AcDbEntity
  8
0
100
AcDbBlockEnd
  0
BLOCK
  5
223
100
AcDbEntity
  8
0
100
AcDbBlockBegin
  2
_FILLED
 70
64
 10
0.0
 20
0.0
  3
_FILLED
  1

  0
SOLID
  5
224
100
AcDbEntity
  8
0
  6
BYBLOCK
 62
0
100
AcDbTrace
 10
0.0
 20
0.0
 11
-1.0
 21
0.2
 12
-1.0
 22
-0.2
 13
-1.0
 23
-0.2
  0
ENDBLK
  5
225
100
AcDbEntity
  8
0
  6
BYBLOCK
 62
0
100
AcDbBlockEnd
  0
ENDSEC
  0
SECTION
  2
ENTITIES
  0
MTEXT
  5
226
100
AcDbEntity
  8
0
100
AcDbMText
 62
2
  6
CONTINUOUS
  7
STANDARD
 71
3
 72
1
 10
4.9004658385
 20
2.6625892857
 30
0.0
 11
1.0
 21
0.0
 31
0.0
 73
2
 44
0.9
  1
SCALE  .500
 40
0.08
 41
0.704
  0
LINE
  5
227
100
AcDbEntity
  8
0
100
AcDbLine
 62
7
  6
CONTINUOUS
 10
0.0
 20
0.0
 11
0.0
 21
8.5
  0
LINE
  5
228
100
AcDbEntity
  8
0
100
AcDbLine
 62
7
  6
CONTINUOUS
 10
0.0
 20
0.0
 11
11.0
 21
0.0
  0
LINE
  5
229
100
AcDbEntity
  8
0
100
AcDbLine
 62
7
  6
CONTINUOUS
 10
0.0
 20
8.5
 11
11.0
 21
8.5
  0
LINE
  5
22A
100
AcDbEntity
  8
0
100
AcDbLine
 62
7
  6
CONTINUOUS
 10
11.0
 20
0.0
 11
11.0
 21
8.5
  0
LINE
  5
22B
100
AcDbEntity
  8
ALL_ASSEMBLY_MEMBERS
100
AcDbLine
 62
7
  6
CONTINUOUS
 10
5.6747158385
 20
2.7575892857
 11
5.7687158385
 21
2.7575892857
  0
LINE
  5
22C
100
AcDbEntity
  8
ALL_ASSEMBLY_MEMBERS
100
AcDbLine
 62
7
  6
CONTINUOUS
 10
3.9162158385
 20
4.2513392857
 11
3.9162158385
 21
4.5138392857
  0
LINE
  5
22D
100
AcDbEntity
  8
ALL_ASSEMBLY_MEMBERS
100
AcDbLine
 62
7
  6
CONTINUOUS
 10
3.9312158385
 20
4.5138392857
 11
3.9312158385
 21
4.2513392857
  0
LINE
  5
22E
100
AcDbEntity
  8
ALL_ASSEMBLY_MEMBERS
100
AcDbLine
 62
7
  6
CONTINUOUS
 10
3.9412158385
 20
4.2263392857
 11
3.9412158385
 21
4.5388392857
  0
LINE
  5
22F
100
AcDbEntity
  8
ALL_ASSEMBLY_MEMBERS
100
AcDbLine
 62
7
  6
CONTINUOUS
 10
3.9787158385
 20
4.1825892857
 11
3.9787158385
 21
4.5825892857
  0
LINE
  5
230
100
AcDbEntity
  8
ALL_ASSEMBLY_MEMBERS
100
AcDbLine
 62
7
  6
CONTINUOUS
 10
4.0189998309
 20
3.7157906085
 11
4.0189998309
 21
3.6950892857
  0
LWPOLYLINE
  5
231
100
AcDbEntity
  8
ALL_ASSEMBLY_MEMBERS
100
AcDbPolyline
 62
7
  6
CONTINUOUS
 90
10
 70
0
 10
4.0073083967
 20
4.1542702559
 10
4.0066090947
 20
4.1309203317
 10
4.0051929453
 20
4.08427817
 10
4.0037034669
 20
4.0360335386
 10
4.0021412346
 20
3.9861864847
 10
4.0005073502
 20
3.9347369612
 10
3.9988034915
 20
3.8816848261
 10
3.9970319711
 20
3.8270300323
 10
3.9951957886
 20
3.7707726269
 10
3.9933916961
 20
3.7157455496
  0
LWPOLYLINE
  5
232
100
AcDbEntity
  8
ALL_ASSEMBLY_MEMBERS
100
AcDbPolyline
 62
7
  6
CONTINUOUS
 90
10
 70
0
 10
4.191568187
 20
3.7152210498
 10
4.1912071329
 20
3.7704046504
 10
4.1908463321
 20
3.82681223
 10
4.1905082149
 20
3.8816125256
 10
4.1901958078
 20
3.9348055354
 10
4.1899114468
 20
3.9863912612
 10
4.1896568315
 20
4.0363697085
 10
4.1894330769
 20
4.0847408791
 10
4.1892407639
 20
4.1315047711
 10
4.1891539172
 20
4.1549951162
  0
LINE
  5
233
100
AcDbEntity
  8
ALL_ASSEMBLY_MEMBERS
100
AcDbLine
 62
7
  6
CONTINUOUS
 10
4.1659488572
 20
3.7157906085
 11
4.1659488572
 21
3.6950892857
  0
LINE
  5
234
100
AcDbEntity
  8
ALL_ASSEMBLY_MEMBERS
100
AcDbLine
 62
7
  6
CONTINUOUS
 10
4.2162158385
 20
4.1825892833
 11
4.2162158385
 21
4.5825892857
  0
LINE
  5
235
100
AcDbEntity
  8
ALL_ASSEMBLY_MEMBERS
100
AcDbLine
 62
7
  6
CONTINUOUS
 10
4.2262158385
 20
4.5388392857
 11
4.2262158385
 21
4.2263392857
  0
LINE
  5
236
100
AcDbEntity
  8
ALL_ASSEMBLY_MEMBERS
100
AcDbLine
 62
7
  6
CONTINUOUS
 10
4.2621708386
 20
4.5063256169
 11
4.2621708386
 21
4.5059307923
  0
LINE
  5
237
100
AcDbEntity
  8
ALL_ASSEMBLY_MEMBERS
100
AcDbLine
 62
7
  6
CONTINUOUS
 10
4.2747158385
 20
4.518266599
 11
4.2747158385
 21
4.5067195936
  0
LWPOLYLINE
  5
238
100
AcDbEntity
  8
ALL_ASSEMBLY_MEMBERS
100
AcDbPolyline
 62
7
  6
CONTINUOUS
 90
18
 70
0
 10
4.1891539661
 20
4.1549958191
 10
4.1891706965
 20
4.1560572984
 10
4.1893215766
 20
4.1581261014
 10
4.1896407935
 20
4.1602453594
 10
4.1901405293
 20
4.162393335
 10
4.1908252385
 20
4.1645340207
 10
4.1916995661
 20
4.1666486344
 10
4.19276756
 20
4.1687199225
 10
4.1940221919
 20
4.1707152534
 10
4.1954598848
 20
4.1726161695
 10
4.1970754468
 20
4.1744044124
 10
4.1988502339
 20
4.1760518811
 10
4.2007726782
 20
4.1775436298
 10
4.2028295227
 20
4.1788654499
 10
4.2049922638
 20
4.1799977762
 10
4.2072433982
 20
4.1809325628
 10
4.2095648608
 20
4.1816633792
 10
4.2119230349
 20
4.1821828046
  0
LWPOLYLINE
  5
239
100
AcDbEntity
  8
ALL_ASSEMBLY_MEMBERS
100
AcDbPolyline
 62
7
  6
CONTINUOUS
 90
18
 70
0
 10
4.1891653655
 20
4.1558905677
 10
4.1892972164
 20
4.157897806
 10
4.189590224
 20
4.1599727302
 10
4.1900596256
 20
4.1620928551
 10
4.1907120957
 20
4.1642185232
 10
4.1915546985
 20
4.1663304982
 10
4.1925941037
 20
4.1684112699
 10
4.1938243351
 20
4.1704246622
 10
4.1952434184
 20
4.1723510108
 10
4.1968478612
 20
4.1741709252
 10
4.198618819
 20
4.175853082
 10
4.2005454892
 20
4.1773811813
 10
4.2026150377
 20
4.1787394176
 10
4.2047969931
 20
4.1799054027
 10
4.2070735064
 20
4.1808700545
 10
4.2094260192
 20
4.1816259455
 10
4.2118178311
 20
4.1821642201
 10
4.2142228667
 20
4.1824851112
  0
LINE
  5
23A
100
AcDbEntity
  8
ALL_ASSEMBLY_MEMBERS
100
AcDbLine
 62
7
  6
CONTINUOUS
 10
4.1858304298
 20
3.715189879
 11
4.1915685058
 21
3.7152210389
  0
LINE
  5
23B
100
AcDbEntity
  8
ALL_ASSEMBLY_MEMBERS
100
AcDbLine
 62
7
  6
CONTINUOUS
 10
4.0133827207
 20
3.6950892857
 11
4.1715668333
 21
3.6950892857
  0
LINE
  5
23C
100
AcDbEntity
  8
ALL_ASSEMBLY_MEMBERS
100
AcDbLine
 62
7
  6
CONTINUOUS
 10
4.0190000144
 20
3.7157906085
 11
4.165948674
 21
3.7157906085
  0
LINE
  5
23D
100
AcDbEntity
  8
ALL_ASSEMBLY_MEMBERS
100
AcDbLine
 62
7
  6
CONTINUOUS
 10
3.9933913774
 20
3.7157455484
 11
3.9991275894
 21
3.7157113173
  0
LINE
  5
23E
100
AcDbEntity
  8
ALL_ASSEMBLY_MEMBERS
100
AcDbLine
 62
7
  6
CONTINUOUS
 10
4.1891539529
 20
4.1549952581
 11
4.1887264455
 21
4.1570896284
  0
LINE
  5
23F
100
AcDbEntity
  8
ALL_ASSEMBLY_MEMBERS
100
AcDbLine
 62
7
  6
CONTINUOUS
 10
4.2947158385
 20
4.5240401017
 11
4.2947158385
 21
4.5009460909
  0
LINE
  5
240
100
AcDbEntity
  8
ALL_ASSEMBLY_MEMBERS
100
AcDbLine
 62
7
  6
CONTINUOUS
 10
4.3147158385
 20
4.5067195936
 11
4.3147158385
 21
4.518266599
  0
LINE
  5
241
100
AcDbEntity
  8
ALL_ASSEMBLY_MEMBERS
100
AcDbLine
 62
7
  6
CONTINUOUS
 10
4.3727158385
 20
4.8050892857
 11
4.3727158385
 21
3.9600892857
  0
LINE
  5
242
100
AcDbEntity
  8
ALL_ASSEMBLY_MEMBERS
100
AcDbLine
 62
7
  6
CONTINUOUS
 10
4.3977158385
 20
4.8550892857
 11
4.3977158385
 21
3.9100892857
  0
LINE
  5
243
100
AcDbEntity
  8
ALL_ASSEMBLY_MEMBERS
100
AcDbLine
 62
7
  6
CONTINUOUS
 10
4.5727158385
 20
3.8225892857
 11
4.4727158385
 21
3.8225892857
  0
LINE
  5
244
100
AcDbEntity
  8
ALL_ASSEMBLY_MEMBERS
100
AcDbLine
 62
7
  6
CONTINUOUS
 10
4.6227158385
 20
3.8600892857
 11
4.5727158385
 21
3.8600892857
  0
LINE
  5
245
100
AcDbEntity
  8
ALL_ASSEMBLY_MEMBERS
100
AcDbLine
 62
7
  6
CONTINUOUS
 10
4.4727158385
 20
3.8600892857
 11
4.4477158385
 21
3.8600892857
  0
LINE
  5
246
100
AcDbEntity
  8
ALL_ASSEMBLY_MEMBERS
100
AcDbLine
 62
7
  6
CONTINUOUS
 10
5.2547158385
 20
3.8900892857
 11
5.5327158385
 21
3.8900892857
  0
LINE
  5
247
100
AcDbEntity
  8
ALL_ASSEMBLY_MEMBERS
100
AcDbLine
 62
7
  6
CONTINUOUS
 10
4.4477158385
 20
4.9050892857
 11
4.4477158385
 21
3.8600892857
  0
LINE
  5
248
100
AcDbEntity
  8
ALL_ASSEMBLY_MEMBERS
100
AcDbLine
 62
7
  6
CONTINUOUS
 10
4.4727158385
 20
4.9425892857
 11
4.4727158385
 21
3.8225892857
  0
LINE
  5
249
100
AcDbEntity
  8
ALL_ASSEMBLY_MEMBERS
100
AcDbLine
 62
7
  6
CONTINUOUS
 10
4.2694044445
 20
4.5214420255
 11
4.2662494014
 21
4.5192110731
  0
LINE
  5
24A
100
AcDbEntity
  8
ALL_ASSEMBLY_MEMBERS
100
AcDbLine
 62
7
  6
CONTINUOUS
 10
5.0852158385
 20
3.8975892857
 11
4.6602158385
 21
3.8975892857
  0
LINE
  5
24B
100
AcDbEntity
  8
ALL_ASSEMBLY_MEMBERS
100
AcDbLine
 62
7
  6
CONTINUOUS
 10
5.2299993031
 20
3.8978392857
 11
5.2190552602
 21
3.8978392857
  0
LINE
  5
24C
100
AcDbEntity
  8
ALL_ASSEMBLY_MEMBERS
100
AcDbLine
 62
7
  6
CONTINUOUS
 10
5.195343162
 20
3.8978672349
 11
5.1843991191
 21
3.8978672349
  0
LINE
  5
24D
100
AcDbEntity
  8
ALL_ASSEMBLY_MEMBERS
100
AcDbLine
 62
7
  6
CONTINUOUS
 10
5.2190552602
 20
3.8995729931
 11
5.195343162
 21
3.8995729931
  0
LINE
  5
24E
100
AcDbEntity
  8
ALL_ASSEMBLY_MEMBERS
100
AcDbLine
 62
7
  6
CONTINUOUS
 10
5.1843991191
 20
3.8995729931
 11
5.1442709566
 21
3.8995729931
  0
LINE
  5
24F
100
AcDbEntity
  8
ALL_ASSEMBLY_MEMBERS
100
AcDbLine
 62
7
  6
CONTINUOUS
 10
5.0852158385
 20
3.9003058211
 11
5.1442709566
 21
3.9003058211
  0
LINE
  5
250
100
AcDbEntity
  8
ALL_ASSEMBLY_MEMBERS
100
AcDbLine
 62
7
  6
CONTINUOUS
 10
5.2299993031
 20
3.9003058211
 11
5.2547158385
 21
3.9003058211
  0
LINE
  5
251
100
AcDbEntity
  8
ALL_ASSEMBLY_MEMBERS
100
AcDbLine
 62
7
  6
CONTINUOUS
 10
5.2299993031
 20
3.9003438268
 11
5.1442709566
 21
3.9003438268
  0
LINE
  5
252
100
AcDbEntity
  8
ALL_ASSEMBLY_MEMBERS
100
AcDbLine
 62
7
  6
CONTINUOUS
 10
5.2023020031
 20
3.9028232382
 11
5.1442709566
 21
3.9028232382
  0
LINE
  5
253
100
AcDbEntity
  8
ALL_ASSEMBLY_MEMBERS
100
AcDbLine
 62
7
  6
CONTINUOUS
 10
4.3977158385
 20
3.9600892857
 11
4.3727158385
 21
3.9600892857
  0
LINE
  5
254
100
AcDbEntity
  8
ALL_ASSEMBLY_MEMBERS
100
AcDbLine
 62
7
  6
CONTINUOUS
 10
4.5727158385
 20
4.9425892857
 11
4.5727158385
 21
3.8225892857
  0
LINE
  5
255
100
AcDbEntity
  8
ALL_ASSEMBLY_MEMBERS
100
AcDbLine
 62
7
  6
CONTINUOUS
 10
4.6227158385
 20
4.9050892857
 11
4.6227158385
 21
3.8600892857
  0
LINE
  5
256
100
AcDbEntity
  8
ALL_ASSEMBLY_MEMBERS
100
AcDbLine
 62
7
  6
CONTINUOUS
 10
4.6602158385
 20
4.8675892857
 11
4.6602158385
 21
3.8975892857
  0
LINE
  5
257
100
AcDbEntity
  8
ALL_ASSEMBLY_MEMBERS
100
AcDbLine
 62
7
  6
CONTINUOUS
 10
5.5327158385
 20
4.9125892857
 11
5.6122158385
 21
4.9425892857
  0
LINE
  5
258
100
AcDbEntity
  8
ALL_ASSEMBLY_MEMBERS
100
AcDbLine
 62
7
  6
CONTINUOUS
 10
4.2947158385
 20
4.5240401017
 11
4.2747158385
 21
4.518266599
  0
LINE
  5
259
100
AcDbEntity
  8
ALL_ASSEMBLY_MEMBERS
100
AcDbLine
 62
7
  6
CONTINUOUS
 10
4.2947158385
 20
4.5009460909
 11
4.3147158385
 21
4.5067195936
  0
LINE
  5
25A
100
AcDbEntity
  8
ALL_ASSEMBLY_MEMBERS
100
AcDbLine
 62
7
  6
CONTINUOUS
 10
5.5327158385
 20
3.8525892857
 11
5.6122158385
 21
3.8225892857
  0
LINE
  5
25B
100
AcDbEntity
  8
ALL_ASSEMBLY_MEMBERS
100
AcDbLine
 62
7
  6
CONTINUOUS
 10
4.6922158385
 20
4.864577955
 11
4.6922158385
 21
4.9783725538
  0
LINE
  5
25C
100
AcDbEntity
  8
ALL_ASSEMBLY_MEMBERS
100
AcDbLine
 62
7
  6
CONTINUOUS
 10
4.2119230349
 20
4.1821828046
 11
4.2142935548
 21
4.1824912942
  0
LINE
  5
25D
100
AcDbEntity
  8
ALL_ASSEMBLY_MEMBERS
100
AcDbLine
 62
7
  6
CONTINUOUS
 10
4.2142228667
 20
4.1824851112
 11
4.2162158385
 21
4.1825892753
  0
LINE
  5
25E
100
AcDbEntity
  8
ALL_ASSEMBLY_MEMBERS
100
AcDbLine
 62
7
  6
CONTINUOUS
 10
5.195343162
 20
4.15397848
 11
5.1789270977
 21
4.15397848
  0
LINE
  5
25F
100
AcDbEntity
  8
ALL_ASSEMBLY_MEMBERS
100
AcDbLine
 62
7
  6
CONTINUOUS
 10
5.1935191549
 20
4.1601207616
 11
5.1807511048
 21
4.1601207616
  0
LINE
  5
260
100
AcDbEntity
  8
ALL_ASSEMBLY_MEMBERS
100
AcDbLine
 62
7
  6
CONTINUOUS
 10
5.1935191549
 20
4.1609713311
 11
5.1807511048
 21
4.1609713311
  0
LINE
  5
261
100
AcDbEntity
  8
ALL_ASSEMBLY_MEMBERS
100
AcDbLine
 62
7
  6
CONTINUOUS
 10
3.979820596
 20
4.1825892857
 11
3.9787158385
 21
4.1825892857
  0
LINE
  5
262
100
AcDbEntity
  8
ALL_ASSEMBLY_MEMBERS
100
AcDbLine
 62
7
  6
CONTINUOUS
 10
5.1935191549
 20
4.1926081818
 11
5.1807511048
 21
4.1926081818
  0
LINE
  5
263
100
AcDbEntity
  8
ALL_ASSEMBLY_MEMBERS
100
AcDbLine
 62
7
  6
CONTINUOUS
 10
4.0265301336
 20
4.1977536051
 11
4.1705499129
 21
4.1977536051
  0
LINE
  5
264
100
AcDbEntity
  8
ALL_ASSEMBLY_MEMBERS
100
AcDbLine
 62
7
  6
CONTINUOUS
 10
5.195343162
 20
4.1989600792
 11
5.1789270977
 21
4.1989600792
  0
LINE
  5
265
100
AcDbEntity
  8
ALL_ASSEMBLY_MEMBERS
100
AcDbLine
 62
7
  6
CONTINUOUS
 10
5.195343162
 20
4.1998043441
 11
5.1789270977
 21
4.1998043441
  0
LINE
  5
266
100
AcDbEntity
  8
ALL_ASSEMBLY_MEMBERS
100
AcDbLine
 62
7
  6
CONTINUOUS
 10
5.2099352244
 20
4.2091926575
 11
5.206287205
 21
4.2091926575
  0
LINE
  5
267
100
AcDbEntity
  8
ALL_ASSEMBLY_MEMBERS
100
AcDbLine
 62
7
  6
CONTINUOUS
 10
5.1533909937
 20
4.2091926575
 11
5.1442709566
 21
4.2091926575
  0
LINE
  5
268
100
AcDbEntity
  8
ALL_ASSEMBLY_MEMBERS
100
AcDbLine
 62
7
  6
CONTINUOUS
 10
5.2099352244
 20
4.2169231667
 11
5.206287205
 21
4.2169231667
  0
LINE
  5
269
100
AcDbEntity
  8
ALL_ASSEMBLY_MEMBERS
100
AcDbLine
 62
7
  6
CONTINUOUS
 10
5.2099352244
 20
4.2177667715
 11
5.206287205
 21
4.2177667715
  0
LINE
  5
26A
100
AcDbEntity
  8
ALL_ASSEMBLY_MEMBERS
100
AcDbLine
 62
7
  6
CONTINUOUS
 10
3.98930069
 20
4.2209441325
 11
4.208318511
 21
4.2209441325
  0
LINE
  5
26B
100
AcDbEntity
  8
ALL_ASSEMBLY_MEMBERS
100
AcDbLine
 62
7
  6
CONTINUOUS
 10
4.3727158385
 20
4.2263392857
 11
4.2262158385
 21
4.2263392857
  0
LINE
  5
26C
100
AcDbEntity
  8
ALL_ASSEMBLY_MEMBERS
100
AcDbLine
 62
7
  6
CONTINUOUS
 10
3.9312158385
 20
4.2513392857
 11
3.9162158385
 21
4.2513392857
  0
LINE
  5
26D
100
AcDbEntity
  8
ALL_ASSEMBLY_MEMBERS
100
AcDbLine
 62
7
  6
CONTINUOUS
 10
5.1533909937
 20
4.2562973933
 11
5.1442709566
 21
4.2562973933
  0
LINE
  5
26E
100
AcDbEntity
  8
ALL_ASSEMBLY_MEMBERS
100
AcDbLine
 62
7
  6
CONTINUOUS
 10
5.1533909937
 20
4.2571441066
 11
5.1442709566
 21
4.2571441066
  0
LINE
  5
26F
100
AcDbEntity
  8
ALL_ASSEMBLY_MEMBERS
100
AcDbLine
 62
7
  6
CONTINUOUS
 10
5.2299993031
 20
4.2670014582
 11
5.1442709566
 21
4.2670014582
  0
LINE
  5
270
100
AcDbEntity
  8
ALL_ASSEMBLY_MEMBERS
100
AcDbLine
 62
7
  6
CONTINUOUS
 10
4.3200272325
 20
4.5214420255
 11
4.3256417593
 21
4.5174719555
  0
LINE
  5
271
100
AcDbEntity
  8
ALL_ASSEMBLY_MEMBERS
100
AcDbLine
 62
7
  6
CONTINUOUS
 10
4.8222158385
 20
4.8645784801
 11
4.8222158385
 21
4.9783725538
  0
LINE
  5
272
100
AcDbEntity
  8
ALL_ASSEMBLY_MEMBERS
100
AcDbLine
 62
7
  6
CONTINUOUS
 10
5.2154072458
 20
4.2750865192
 11
5.1442709566
 21
4.2750865192
  0
LINE
  5
273
100
AcDbEntity
  8
ALL_ASSEMBLY_MEMBERS
100
AcDbLine
 62
7
  6
CONTINUOUS
 10
5.2140691495
 20
4.2759368392
 11
5.1442709566
 21
4.2759368392
  0
LINE
  5
274
100
AcDbEntity
  8
ALL_ASSEMBLY_MEMBERS
100
AcDbLine
 62
7
  6
CONTINUOUS
 10
5.217231253
 20
4.2832207723
 11
5.2026391907
 21
4.2832207723
  0
LINE
  5
275
100
AcDbEntity
  8
ALL_ASSEMBLY_MEMBERS
100
AcDbLine
 62
7
  6
CONTINUOUS
 10
5.217231253
 20
4.2840730742
 11
5.2026391907
 21
4.2840730742
  0
LINE
  5
276
100
AcDbEntity
  8
ALL_ASSEMBLY_MEMBERS
100
AcDbLine
 62
7
  6
CONTINUOUS
 10
5.2328536338
 20
4.3697940101
 11
5.1442709566
 21
4.3697940101
  0
LINE
  5
277
100
AcDbEntity
  8
ALL_ASSEMBLY_MEMBERS
100
AcDbLine
 62
7
  6
CONTINUOUS
 10
5.2328536338
 20
4.3953845613
 11
5.1442709566
 21
4.3953845613
  0
LINE
  5
278
100
AcDbEntity
  8
ALL_ASSEMBLY_MEMBERS
100
AcDbLine
 62
7
  6
CONTINUOUS
 10
4.2747158385
 20
4.5067195936
 11
4.2947158385
 21
4.5009460909
  0
LINE
  5
279
100
AcDbEntity
  8
ALL_ASSEMBLY_MEMBERS
100
AcDbLine
 62
7
  6
CONTINUOUS
 10
4.3147158385
 20
4.518266599
 11
4.2947158385
 21
4.5240401017
  0
LINE
  5
27A
100
AcDbEntity
  8
ALL_ASSEMBLY_MEMBERS
100
AcDbLine
 62
7
  6
CONTINUOUS
 10
5.1752790808
 20
4.4831401472
 11
5.1679830522
 21
4.4831401472
  0
LINE
  5
27B
100
AcDbEntity
  8
ALL_ASSEMBLY_MEMBERS
100
AcDbLine
 62
7
  6
CONTINUOUS
 10
5.1752790808
 20
4.4839919296
 11
5.1679830522
 21
4.4839919296
  0
LINE
  5
27C
100
AcDbEntity
  8
ALL_ASSEMBLY_MEMBERS
100
AcDbLine
 62
7
  6
CONTINUOUS
 10
5.2299993031
 20
4.4866630599
 11
5.2208792673
 21
4.4866630599
  0
LINE
  5
27D
100
AcDbEntity
  8
ALL_ASSEMBLY_MEMBERS
100
AcDbLine
 62
7
  6
CONTINUOUS
 10
5.2299993031
 20
4.4875139805
 11
5.2208792673
 21
4.4875139805
  0
LINE
  5
27E
100
AcDbEntity
  8
ALL_ASSEMBLY_MEMBERS
100
AcDbLine
 62
7
  6
CONTINUOUS
 10
5.1734550736
 20
4.4927797347
 11
5.1698070593
 21
4.4927797347
  0
LINE
  5
27F
100
AcDbEntity
  8
ALL_ASSEMBLY_MEMBERS
100
AcDbLine
 62
7
  6
CONTINUOUS
 10
3.9312158385
 20
4.5138392857
 11
3.9162158385
 21
4.5138392857
  0
LINE
  5
280
100
AcDbEntity
  8
ALL_ASSEMBLY_MEMBERS
100
AcDbLine
 62
7
  6
CONTINUOUS
 10
5.0852158385
 20
4.8675892857
 11
5.0852158385
 21
3.8975892857
  0
LINE
  5
281
100
AcDbEntity
  8
ALL_ASSEMBLY_MEMBERS
100
AcDbLine
 62
7
  6
CONTINUOUS
 10
5.1442709566
 20
4.8670536332
 11
5.1442709566
 21
4.8628732515
  0
LINE
  5
282
100
AcDbEntity
  8
ALL_ASSEMBLY_MEMBERS
100
AcDbLine
 62
7
  6
CONTINUOUS
 10
5.1442709566
 20
3.8995729931
 11
5.1442709566
 21
3.9028232382
  0
LINE
  5
283
100
AcDbEntity
  8
ALL_ASSEMBLY_MEMBERS
100
AcDbLine
 62
7
  6
CONTINUOUS
 10
5.1442709566
 20
4.2091926575
 11
5.1442709566
 21
4.2571441066
  0
LINE
  5
284
100
AcDbEntity
  8
ALL_ASSEMBLY_MEMBERS
100
AcDbLine
 62
7
  6
CONTINUOUS
 10
5.1442709566
 20
4.2670014582
 11
5.1442709566
 21
4.2759368392
  0
LINE
  5
285
100
AcDbEntity
  8
ALL_ASSEMBLY_MEMBERS
100
AcDbLine
 62
7
  6
CONTINUOUS
 10
5.1442709566
 20
4.3697940101
 11
5.1442709566
 21
4.3953845613
  0
LINE
  5
286
100
AcDbEntity
  8
ALL_ASSEMBLY_MEMBERS
100
AcDbLine
 62
7
  6
CONTINUOUS
 10
5.1442709566
 20
4.5101831878
 11
5.1442709566
 21
4.5205159555
  0
LINE
  5
287
100
AcDbEntity
  8
ALL_ASSEMBLY_MEMBERS
100
AcDbLine
 62
7
  6
CONTINUOUS
 10
5.1442709566
 20
4.5585280922
 11
5.1442709566
 21
4.5693123285
  0
LINE
  5
288
100
AcDbEntity
  8
ALL_ASSEMBLY_MEMBERS
100
AcDbLine
 62
7
  6
CONTINUOUS
 10
5.1442709566
 20
4.5913421592
 11
5.1442709566
 21
4.6018578385
  0
LINE
  5
289
100
AcDbEntity
  8
ALL_ASSEMBLY_MEMBERS
100
AcDbLine
 62
7
  6
CONTINUOUS
 10
5.1442709566
 20
4.7701746413
 11
5.1442709566
 21
4.7868739538
  0
LINE
  5
28A
100
AcDbEntity
  8
ALL_ASSEMBLY_MEMBERS
100
AcDbLine
 62
7
  6
CONTINUOUS
 10
5.1460949639
 20
4.8645289472
 11
5.1460949639
 21
4.8620479544
  0
LINE
  5
28B
100
AcDbEntity
  8
ALL_ASSEMBLY_MEMBERS
100
AcDbLine
 62
7
  6
CONTINUOUS
 10
5.1460949639
 20
4.8672667133
 11
5.1460949639
 21
4.8660288509
  0
LINE
  5
28C
100
AcDbEntity
  8
ALL_ASSEMBLY_MEMBERS
100
AcDbLine
 62
7
  6
CONTINUOUS
 10
5.1460949639
 20
4.5015100328
 11
5.1460949639
 21
4.5006620662
  0
LINE
  5
28D
100
AcDbEntity
  8
ALL_ASSEMBLY_MEMBERS
100
AcDbLine
 62
7
  6
CONTINUOUS
 10
5.1460949639
 20
4.1837718282
 11
5.1460949639
 21
4.1846177315
  0
LINE
  5
28E
100
AcDbEntity
  8
ALL_ASSEMBLY_MEMBERS
100
AcDbLine
 62
7
  6
CONTINUOUS
 10
5.1515669859
 20
4.8637355821
 11
5.1515669859
 21
4.8612504771
  0
LINE
  5
28F
100
AcDbEntity
  8
ALL_ASSEMBLY_MEMBERS
100
AcDbLine
 62
7
  6
CONTINUOUS
 10
5.1515669859
 20
4.8673369289
 11
5.1515669859
 21
4.8664863625
  0
LINE
  5
290
100
AcDbEntity
  8
ALL_ASSEMBLY_MEMBERS
100
AcDbLine
 62
7
  6
CONTINUOUS
 10
5.1515669859
 20
4.4927797347
 11
5.1515669859
 21
4.4919300136
  0
LINE
  5
291
100
AcDbEntity
  8
ALL_ASSEMBLY_MEMBERS
100
AcDbLine
 62
7
  6
CONTINUOUS
 10
5.1515669859
 20
4.1900768015
 11
5.1515669859
 21
4.1909219009
  0
LINE
  5
292
100
AcDbEntity
  8
ALL_ASSEMBLY_MEMBERS
100
AcDbLine
 62
7
  6
CONTINUOUS
 10
5.1533909937
 20
4.2091926575
 11
5.1533909937
 21
4.2456796835
  0
LINE
  5
293
100
AcDbEntity
  8
ALL_ASSEMBLY_MEMBERS
100
AcDbLine
 62
7
  6
CONTINUOUS
 10
5.1533909937
 20
4.2562973933
 11
5.1533909937
 21
4.2571441066
  0
LINE
  5
294
100
AcDbEntity
  8
ALL_ASSEMBLY_MEMBERS
100
AcDbLine
 62
7
  6
CONTINUOUS
 10
5.1533909937
 20
4.5101831878
 11
5.1533909937
 21
4.5205159555
  0
LINE
  5
295
100
AcDbEntity
  8
ALL_ASSEMBLY_MEMBERS
100
AcDbLine
 62
7
  6
CONTINUOUS
 10
5.1552150008
 20
4.8659255585
 11
5.1552150008
 21
4.8646756949
  0
LINE
  5
296
100
AcDbEntity
  8
ALL_ASSEMBLY_MEMBERS
100
AcDbLine
 62
7
  6
CONTINUOUS
 10
5.1552150008
 20
4.5273591854
 11
5.1552150008
 21
4.5265146909
  0
LINE
  5
297
100
AcDbEntity
  8
ALL_ASSEMBLY_MEMBERS
100
AcDbLine
 62
7
  6
CONTINUOUS
 10
5.1552150008
 20
4.1700194549
 11
5.1552150008
 21
4.1708677448
  0
LINE
  5
298
100
AcDbEntity
  8
ALL_ASSEMBLY_MEMBERS
100
AcDbLine
 62
7
  6
CONTINUOUS
 10
5.157039008
 20
4.8673322372
 11
5.157039008
 21
4.8667137857
  0
LINE
  5
299
100
AcDbEntity
  8
ALL_ASSEMBLY_MEMBERS
100
AcDbLine
 62
7
  6
CONTINUOUS
 10
5.157039008
 20
4.8632117167
 11
5.157039008
 21
4.860723889
  0
LINE
  5
29A
100
AcDbEntity
  8
ALL_ASSEMBLY_MEMBERS
100
AcDbLine
 62
7
  6
CONTINUOUS
 10
5.157039008
 20
4.1938758862
 11
5.157039008
 21
4.1947205865
  0
LINE
  5
29B
100
AcDbEntity
  8
ALL_ASSEMBLY_MEMBERS
100
AcDbLine
 62
7
  6
CONTINUOUS
 10
5.1588630151
 20
4.8662236393
 11
5.1588630151
 21
4.8642235385
  0
LINE
  5
29C
100
AcDbEntity
  8
ALL_ASSEMBLY_MEMBERS
100
AcDbLine
 62
7
  6
CONTINUOUS
 10
5.1588630151
 20
4.5324678944
 11
5.1588630151
 21
4.531623778
  0
LINE
  5
29D
100
AcDbEntity
  8
ALL_ASSEMBLY_MEMBERS
100
AcDbLine
 62
7
  6
CONTINUOUS
 10
5.1588630151
 20
4.4875139805
 11
5.1588630151
 21
4.4866630599
  0
LINE
  5
29E
100
AcDbEntity
  8
ALL_ASSEMBLY_MEMBERS
100
AcDbLine
 62
7
  6
CONTINUOUS
 10
5.1588630151
 20
4.1662972336
 11
5.1588630151
 21
4.167146324
  0
LINE
  5
29F
100
AcDbEntity
  8
ALL_ASSEMBLY_MEMBERS
100
AcDbLine
 62
7
  6
CONTINUOUS
 10
5.1643350379
 20
4.8673096011
 11
5.1643350379
 21
4.8668458148
  0
LINE
  5
2A0
100
AcDbEntity
  8
ALL_ASSEMBLY_MEMBERS
100
AcDbLine
 62
7
  6
CONTINUOUS
 10
5.1643350379
 20
4.8628424652
 11
5.1643350379
 21
4.8603527147
  0
LINE
  5
2A1
100
AcDbEntity
  8
ALL_ASSEMBLY_MEMBERS
100
AcDbLine
 62
7
  6
CONTINUOUS
 10
5.1643350379
 20
4.1964153057
 11
5.1643350379
 21
4.1972597746
  0
LINE
  5
2A2
100
AcDbEntity
  8
ALL_ASSEMBLY_MEMBERS
100
AcDbLine
 62
7
  6
CONTINUOUS
 10
5.166159045
 20
4.5350185047
 11
5.166159045
 21
4.5459919607
  0
LINE
  5
2A3
100
AcDbEntity
  8
ALL_ASSEMBLY_MEMBERS
100
AcDbLine
 62
7
  6
CONTINUOUS
 10
5.1679830522
 20
4.4839919296
 11
5.1679830522
 21
4.4831401472
  0
LINE
  5
2A4
100
AcDbEntity
  8
ALL_ASSEMBLY_MEMBERS
100
AcDbLine
 62
7
  6
CONTINUOUS
 10
5.1698070593
 20
4.8672924299
 11
5.1698070593
 21
4.8669059585
  0
LINE
  5
2A5
100
AcDbEntity
  8
ALL_ASSEMBLY_MEMBERS
100
AcDbLine
 62
7
  6
CONTINUOUS
 10
5.1698070593
 20
4.8665660896
 11
5.1698070593
 21
4.8640955934
  0
LINE
  5
2A6
100
AcDbEntity
  8
ALL_ASSEMBLY_MEMBERS
100
AcDbLine
 62
7
  6
CONTINUOUS
 10
5.1698070593
 20
4.8626518247
 11
5.1698070593
 21
4.8601610804
  0
LINE
  5
2A7
100
AcDbEntity
  8
ALL_ASSEMBLY_MEMBERS
100
AcDbLine
 62
7
  6
CONTINUOUS
 10
5.1698070593
 20
4.1613533226
 11
5.1698070593
 21
4.1622035816
  0
LINE
  5
2A8
100
AcDbEntity
  8
ALL_ASSEMBLY_MEMBERS
100
AcDbLine
 62
7
  6
CONTINUOUS
 10
5.1698070593
 20
4.1976870271
 11
5.1698070593
 21
4.1985313906
  0
LINE
  5
2A9
100
AcDbEntity
  8
ALL_ASSEMBLY_MEMBERS
100
AcDbLine
 62
7
  6
CONTINUOUS
 10
4.6602158385
 20
3.8975892857
 11
4.6227158385
 21
3.8600892857
  0
LINE
  5
2AA
100
AcDbEntity
  8
ALL_ASSEMBLY_MEMBERS
100
AcDbLine
 62
7
  6
CONTINUOUS
 10
5.2208792673
 20
4.5367124682
 11
5.1922404072
 21
4.5367124682
  0
LINE
  5
2AB
100
AcDbEntity
  8
ALL_ASSEMBLY_MEMBERS
100
AcDbLine
 62
7
  6
CONTINUOUS
 10
5.2208792673
 20
4.5375563106
 11
5.1916951477
 21
4.5375563106
  0
LINE
  5
2AC
100
AcDbEntity
  8
ALL_ASSEMBLY_MEMBERS
100
AcDbLine
 62
7
  6
CONTINUOUS
 10
4.3727158385
 20
4.5388392857
 11
4.2262158385
 21
4.5388392857
  0
LINE
  5
2AD
100
AcDbEntity
  8
ALL_ASSEMBLY_MEMBERS
100
AcDbLine
 62
7
  6
CONTINUOUS
 10
5.2299993031
 20
4.5459919607
 11
5.182575112
 21
4.5459919607
  0
LINE
  5
2AE
100
AcDbEntity
  8
ALL_ASSEMBLY_MEMBERS
100
AcDbLine
 62
7
  6
CONTINUOUS
 10
5.2299993031
 20
4.5585280922
 11
5.1442709566
 21
4.5585280922
  0
LINE
  5
2AF
100
AcDbEntity
  8
ALL_ASSEMBLY_MEMBERS
100
AcDbLine
 62
7
  6
CONTINUOUS
 10
5.2299993031
 20
4.559371946
 11
5.1442709566
 21
4.559371946
  0
LINE
  5
2B0
100
AcDbEntity
  8
ALL_ASSEMBLY_MEMBERS
100
AcDbLine
 62
7
  6
CONTINUOUS
 10
5.2154072458
 20
4.5693123285
 11
5.1442709566
 21
4.5693123285
  0
LINE
  5
2B1
100
AcDbEntity
  8
ALL_ASSEMBLY_MEMBERS
100
AcDbLine
 62
7
  6
CONTINUOUS
 10
5.217231253
 20
4.5791714198
 11
5.2026391907
 21
4.5791714198
  0
LINE
  5
2B2
100
AcDbEntity
  8
ALL_ASSEMBLY_MEMBERS
100
AcDbLine
 62
7
  6
CONTINUOUS
 10
4.2162158385
 20
4.5825892857
 11
3.9787158385
 21
4.5825892857
  0
LINE
  5
2B3
100
AcDbEntity
  8
ALL_ASSEMBLY_MEMBERS
100
AcDbLine
 62
7
  6
CONTINUOUS
 10
5.2299993031
 20
4.5913421592
 11
5.1442709566
 21
4.5913421592
  0
LINE
  5
2B4
100
AcDbEntity
  8
ALL_ASSEMBLY_MEMBERS
100
AcDbLine
 62
7
  6
CONTINUOUS
 10
5.2299993031
 20
4.5921898585
 11
5.1442709566
 21
4.5921898585
  0
LINE
  5
2B5
100
AcDbEntity
  8
ALL_ASSEMBLY_MEMBERS
100
AcDbLine
 62
7
  6
CONTINUOUS
 10
5.2154072458
 20
4.6018578385
 11
5.1442709566
 21
4.6018578385
  0
LINE
  5
2B6
100
AcDbEntity
  8
ALL_ASSEMBLY_MEMBERS
100
AcDbLine
 62
7
  6
CONTINUOUS
 10
5.217231253
 20
4.6114430027
 11
5.2026391907
 21
4.6114430027
  0
LINE
  5
2B7
100
AcDbEntity
  8
ALL_ASSEMBLY_MEMBERS
100
AcDbLine
 62
7
  6
CONTINUOUS
 10
4.6602158385
 20
4.8675892857
 11
4.6227158385
 21
4.9050892857
  0
LINE
  5
2B8
100
AcDbEntity
  8
ALL_ASSEMBLY_MEMBERS
100
AcDbLine
 62
7
  6
CONTINUOUS
 10
5.1752790808
 20
4.4839919296
 11
5.1752790808
 21
4.4831401472
  0
LINE
  5
2B9
100
AcDbEntity
  8
ALL_ASSEMBLY_MEMBERS
100
AcDbLine
 62
7
  6
CONTINUOUS
 10
5.1789270977
 20
4.8672713562
 11
5.1789270977
 21
4.86696219
  0
LINE
  5
2BA
100
AcDbEntity
  8
ALL_ASSEMBLY_MEMBERS
100
AcDbLine
 62
7
  6
CONTINUOUS
 10
5.1789270977
 20
4.8624571674
 11
5.1789270977
 21
4.8599654074
  0
LINE
  5
2BB
100
AcDbEntity
  8
ALL_ASSEMBLY_MEMBERS
100
AcDbLine
 62
7
  6
CONTINUOUS
 10
5.1789270977
 20
4.1989600792
 11
5.1789270977
 21
4.1998043441
  0
LINE
  5
2BC
100
AcDbEntity
  8
ALL_ASSEMBLY_MEMBERS
100
AcDbLine
 62
7
  6
CONTINUOUS
 10
5.1807511048
 20
4.8666418968
 11
5.1807511048
 21
4.8641717896
  0
LINE
  5
2BD
100
AcDbEntity
  8
ALL_ASSEMBLY_MEMBERS
100
AcDbLine
 62
7
  6
CONTINUOUS
 10
5.1807511048
 20
4.1601207616
 11
5.1807511048
 21
4.1609713311
  0
LINE
  5
2BE
100
AcDbEntity
  8
ALL_ASSEMBLY_MEMBERS
100
AcDbLine
 62
7
  6
CONTINUOUS
 10
5.182575112
 20
4.5333222717
 11
5.182575112
 21
4.5459919607
  0
LINE
  5
2BF
100
AcDbEntity
  8
ALL_ASSEMBLY_MEMBERS
100
AcDbLine
 62
7
  6
CONTINUOUS
 10
5.1843991191
 20
4.4875139805
 11
5.1843991191
 21
4.4866630599
  0
LINE
  5
2C0
100
AcDbEntity
  8
ALL_ASSEMBLY_MEMBERS
100
AcDbLine
 62
7
  6
CONTINUOUS
 10
5.1843991191
 20
3.8978672349
 11
5.1843991191
 21
3.8995729931
  0
LINE
  5
2C1
100
AcDbEntity
  8
ALL_ASSEMBLY_MEMBERS
100
AcDbLine
 62
7
  6
CONTINUOUS
 10
5.1880471334
 20
4.5273591854
 11
5.1880471334
 21
4.5265146909
  0
LINE
  5
2C2
100
AcDbEntity
  8
ALL_ASSEMBLY_MEMBERS
100
AcDbLine
 62
7
  6
CONTINUOUS
 10
5.1898711406
 20
4.5101831878
 11
5.1898711406
 21
4.5205159555
  0
LINE
  5
2C3
100
AcDbEntity
  8
ALL_ASSEMBLY_MEMBERS
100
AcDbLine
 62
7
  6
CONTINUOUS
 10
5.1916951477
 20
4.4927797347
 11
5.1916951477
 21
4.4919300136
  0
LINE
  5
2C4
100
AcDbEntity
  8
ALL_ASSEMBLY_MEMBERS
100
AcDbLine
 62
7
  6
CONTINUOUS
 10
5.1935191549
 20
4.8666418968
 11
5.1935191549
 21
4.8641717896
  0
LINE
  5
2C5
100
AcDbEntity
  8
ALL_ASSEMBLY_MEMBERS
100
AcDbLine
 62
7
  6
CONTINUOUS
 10
5.1935191549
 20
4.1601207616
 11
5.1935191549
 21
4.1609713311
  0
LINE
  5
2C6
100
AcDbEntity
  8
ALL_ASSEMBLY_MEMBERS
100
AcDbLine
 62
7
  6
CONTINUOUS
 10
5.195343162
 20
4.8672713562
 11
5.195343162
 21
4.86696219
  0
LINE
  5
2C7
100
AcDbEntity
  8
ALL_ASSEMBLY_MEMBERS
100
AcDbLine
 62
7
  6
CONTINUOUS
 10
5.195343162
 20
4.8624571674
 11
5.195343162
 21
4.8599654074
  0
LINE
  5
2C8
100
AcDbEntity
  8
ALL_ASSEMBLY_MEMBERS
100
AcDbLine
 62
7
  6
CONTINUOUS
 10
5.195343162
 20
3.8978672349
 11
5.195343162
 21
3.8995729931
  0
LINE
  5
2C9
100
AcDbEntity
  8
ALL_ASSEMBLY_MEMBERS
100
AcDbLine
 62
7
  6
CONTINUOUS
 10
5.195343162
 20
4.1989600792
 11
5.195343162
 21
4.1998043441
  0
LINE
  5
2CA
100
AcDbEntity
  8
ALL_ASSEMBLY_MEMBERS
100
AcDbLine
 62
7
  6
CONTINUOUS
 10
5.1971671692
 20
4.5015100328
 11
5.1971671692
 21
4.5006620662
  0
LINE
  5
2CB
100
AcDbEntity
  8
ALL_ASSEMBLY_MEMBERS
100
AcDbLine
 62
7
  6
CONTINUOUS
 10
5.1989911763
 20
4.2195106762
 11
5.1989911763
 21
4.2203542961
  0
LINE
  5
2CC
100
AcDbEntity
  8
ALL_ASSEMBLY_MEMBERS
100
AcDbLine
 62
7
  6
CONTINUOUS
 10
5.1989911763
 20
4.5101831878
 11
5.1989911763
 21
4.5205159555
  0
LINE
  5
2CD
100
AcDbEntity
  8
ALL_ASSEMBLY_MEMBERS
100
AcDbLine
 62
7
  6
CONTINUOUS
 10
5.1993890669
 20
3.9067770036
 11
5.1993890669
 21
3.9042770968
  0
LINE
  5
2CE
100
AcDbEntity
  8
ALL_ASSEMBLY_MEMBERS
100
AcDbLine
 62
7
  6
CONTINUOUS
 10
5.2026391907
 20
4.6114430027
 11
5.2026391907
 21
4.6105907009
  0
LINE
  5
2CF
100
AcDbEntity
  8
ALL_ASSEMBLY_MEMBERS
100
AcDbLine
 62
7
  6
CONTINUOUS
 10
5.2026391907
 20
4.5791714198
 11
5.2026391907
 21
4.578325822
  0
LINE
  5
2D0
100
AcDbEntity
  8
ALL_ASSEMBLY_MEMBERS
100
AcDbLine
 62
7
  6
CONTINUOUS
 10
5.2026391907
 20
4.2832207723
 11
5.2026391907
 21
4.2840730742
  0
LINE
  5
2D1
100
AcDbEntity
  8
ALL_ASSEMBLY_MEMBERS
100
AcDbLine
 62
7
  6
CONTINUOUS
 10
5.2044631978
 20
4.8672924299
 11
5.2044631978
 21
4.8669059585
  0
LINE
  5
2D2
100
AcDbEntity
  8
ALL_ASSEMBLY_MEMBERS
100
AcDbLine
 62
7
  6
CONTINUOUS
 10
5.2044631978
 20
4.8626518247
 11
5.2044631978
 21
4.8601610804
  0
LINE
  5
2D3
100
AcDbEntity
  8
ALL_ASSEMBLY_MEMBERS
100
AcDbLine
 62
7
  6
CONTINUOUS
 10
5.2044631978
 20
4.8665660896
 11
5.2044631978
 21
4.8640955934
  0
LINE
  5
2D4
100
AcDbEntity
  8
ALL_ASSEMBLY_MEMBERS
100
AcDbLine
 62
7
  6
CONTINUOUS
 10
5.2044631978
 20
4.1613533226
 11
5.2044631978
 21
4.1622035816
  0
LINE
  5
2D5
100
AcDbEntity
  8
ALL_ASSEMBLY_MEMBERS
100
AcDbLine
 62
7
  6
CONTINUOUS
 10
5.2044631978
 20
4.1976870271
 11
5.2044631978
 21
4.1985313906
  0
LINE
  5
2D6
100
AcDbEntity
  8
ALL_ASSEMBLY_MEMBERS
100
AcDbLine
 62
7
  6
CONTINUOUS
 10
5.206287205
 20
4.2169231667
 11
5.206287205
 21
4.2177667715
  0
LINE
  5
2D7
100
AcDbEntity
  8
ALL_ASSEMBLY_MEMBERS
100
AcDbLine
 62
7
  6
CONTINUOUS
 10
5.2099352244
 20
4.8673096011
 11
5.2099352244
 21
4.8668458148
  0
LINE
  5
2D8
100
AcDbEntity
  8
ALL_ASSEMBLY_MEMBERS
100
AcDbLine
 62
7
  6
CONTINUOUS
 10
5.2099352244
 20
4.8628424652
 11
5.2099352244
 21
4.8603527147
  0
LINE
  5
2D9
100
AcDbEntity
  8
ALL_ASSEMBLY_MEMBERS
100
AcDbLine
 62
7
  6
CONTINUOUS
 10
5.2099352244
 20
4.1964153057
 11
5.2099352244
 21
4.1972597746
  0
LINE
  5
2DA
100
AcDbEntity
  8
ALL_ASSEMBLY_MEMBERS
100
AcDbLine
 62
7
  6
CONTINUOUS
 10
5.2099352244
 20
4.2169231667
 11
5.2099352244
 21
4.2177667715
  0
LINE
  5
2DB
100
AcDbEntity
  8
ALL_ASSEMBLY_MEMBERS
100
AcDbLine
 62
7
  6
CONTINUOUS
 10
5.2099352244
 20
4.2483260391
 11
5.2099352244
 21
4.2558119757
  0
LINE
  5
2DC
100
AcDbEntity
  8
ALL_ASSEMBLY_MEMBERS
100
AcDbLine
 62
7
  6
CONTINUOUS
 10
5.2154072458
 20
4.8662236393
 11
5.2154072458
 21
4.8642235385
  0
LINE
  5
2DD
100
AcDbEntity
  8
ALL_ASSEMBLY_MEMBERS
100
AcDbLine
 62
7
  6
CONTINUOUS
 10
5.2154072458
 20
4.1662972336
 11
5.2154072458
 21
4.167146324
  0
LINE
  5
2DE
100
AcDbEntity
  8
ALL_ASSEMBLY_MEMBERS
100
AcDbLine
 62
7
  6
CONTINUOUS
 10
5.2154072458
 20
4.2195106762
 11
5.2154072458
 21
4.2203542961
  0
LINE
  5
2DF
100
AcDbEntity
  8
ALL_ASSEMBLY_MEMBERS
100
AcDbLine
 62
7
  6
CONTINUOUS
 10
5.217231253
 20
4.8673322372
 11
5.217231253
 21
4.8667137857
  0
LINE
  5
2E0
100
AcDbEntity
  8
ALL_ASSEMBLY_MEMBERS
100
AcDbLine
 62
7
  6
CONTINUOUS
 10
5.217231253
 20
4.8632117167
 11
5.217231253
 21
4.860723889
  0
LINE
  5
2E1
100
AcDbEntity
  8
ALL_ASSEMBLY_MEMBERS
100
AcDbLine
 62
7
  6
CONTINUOUS
 10
5.217231253
 20
4.1938758862
 11
5.217231253
 21
4.1947205865
  0
LINE
  5
2E2
100
AcDbEntity
  8
ALL_ASSEMBLY_MEMBERS
100
AcDbLine
 62
7
  6
CONTINUOUS
 10
5.217231253
 20
4.2536348881
 11
5.217231253
 21
4.2544812
  0
LINE
  5
2E3
100
AcDbEntity
  8
ALL_ASSEMBLY_MEMBERS
100
AcDbLine
 62
7
  6
CONTINUOUS
 10
5.217231253
 20
4.2832207723
 11
5.217231253
 21
4.2840730742
  0
LINE
  5
2E4
100
AcDbEntity
  8
ALL_ASSEMBLY_MEMBERS
100
AcDbLine
 62
7
  6
CONTINUOUS
 10
5.2190552602
 20
4.8659255585
 11
5.2190552602
 21
4.8646756949
  0
LINE
  5
2E5
100
AcDbEntity
  8
ALL_ASSEMBLY_MEMBERS
100
AcDbLine
 62
7
  6
CONTINUOUS
 10
5.2190552602
 20
3.8978392912
 11
5.2190552602
 21
3.8995729931
  0
LINE
  5
2E6
100
AcDbEntity
  8
ALL_ASSEMBLY_MEMBERS
100
AcDbLine
 62
7
  6
CONTINUOUS
 10
5.2190552602
 20
4.1700194549
 11
5.2190552602
 21
4.1708677448
  0
LINE
  5
2E7
100
AcDbEntity
  8
ALL_ASSEMBLY_MEMBERS
100
AcDbLine
 62
7
  6
CONTINUOUS
 10
5.2190552602
 20
4.223401953
 11
5.2190552602
 21
4.2242456466
  0
LINE
  5
2E8
100
AcDbEntity
  8
ALL_ASSEMBLY_MEMBERS
100
AcDbLine
 62
7
  6
CONTINUOUS
 10
5.2208792673
 20
4.2299141149
 11
5.2208792673
 21
4.2351478899
  0
LINE
  5
2E9
100
AcDbEntity
  8
ALL_ASSEMBLY_MEMBERS
100
AcDbLine
 62
7
  6
CONTINUOUS
 10
5.2208792673
 20
4.4866630599
 11
5.2208792673
 21
4.5375563106
  0
LINE
  5
2EA
100
AcDbEntity
  8
ALL_ASSEMBLY_MEMBERS
100
AcDbLine
 62
7
  6
CONTINUOUS
 10
5.2227032745
 20
4.8673369289
 11
5.2227032745
 21
4.8664863625
  0
LINE
  5
2EB
100
AcDbEntity
  8
ALL_ASSEMBLY_MEMBERS
100
AcDbLine
 62
7
  6
CONTINUOUS
 10
5.2227032745
 20
4.8637355821
 11
5.2227032745
 21
4.8612504771
  0
LINE
  5
2EC
100
AcDbEntity
  8
ALL_ASSEMBLY_MEMBERS
100
AcDbLine
 62
7
  6
CONTINUOUS
 10
5.2227032745
 20
4.1900768015
 11
5.2227032745
 21
4.1909219009
  0
LINE
  5
2ED
100
AcDbEntity
  8
ALL_ASSEMBLY_MEMBERS
100
AcDbLine
 62
7
  6
CONTINUOUS
 10
5.2245272816
 20
4.2483260391
 11
5.2245272816
 21
4.2491716326
  0
LINE
  5
2EE
100
AcDbEntity
  8
ALL_ASSEMBLY_MEMBERS
100
AcDbLine
 62
7
  6
CONTINUOUS
 10
5.2281752959
 20
4.8672667133
 11
5.2281752959
 21
4.8660288509
  0
LINE
  5
2EF
100
AcDbEntity
  8
ALL_ASSEMBLY_MEMBERS
100
AcDbLine
 62
7
  6
CONTINUOUS
 10
5.2281752959
 20
4.8645289472
 11
5.2281752959
 21
4.8620479544
  0
LINE
  5
2F0
100
AcDbEntity
  8
ALL_ASSEMBLY_MEMBERS
100
AcDbLine
 62
7
  6
CONTINUOUS
 10
5.2281752959
 20
4.1837718282
 11
5.2281752959
 21
4.1846177315
  0
LINE
  5
2F1
100
AcDbEntity
  8
ALL_ASSEMBLY_MEMBERS
100
AcDbLine
 62
7
  6
CONTINUOUS
 10
5.2281752959
 20
4.2430386934
 11
5.2281752959
 21
4.24388368
  0
LINE
  5
2F2
100
AcDbEntity
  8
ALL_ASSEMBLY_MEMBERS
100
AcDbLine
 62
7
  6
CONTINUOUS
 10
5.2299993031
 20
4.8670536332
 11
5.2299993031
 21
4.8628732515
  0
LINE
  5
2F3
100
AcDbEntity
  8
ALL_ASSEMBLY_MEMBERS
100
AcDbLine
 62
7
  6
CONTINUOUS
 10
5.2299993031
 20
3.8978392953
 11
5.2299993031
 21
3.9028232382
  0
LINE
  5
2F4
100
AcDbEntity
  8
ALL_ASSEMBLY_MEMBERS
100
AcDbLine
 62
7
  6
CONTINUOUS
 10
5.2299993031
 20
4.2286090094
 11
5.2299993031
 21
4.2338374417
  0
LINE
  5
2F5
100
AcDbEntity
  8
ALL_ASSEMBLY_MEMBERS
100
AcDbLine
 62
7
  6
CONTINUOUS
 10
5.2299993031
 20
4.2670014582
 11
5.2299993031
 21
4.2759368392
  0
LINE
  5
2F6
100
AcDbEntity
  8
ALL_ASSEMBLY_MEMBERS
100
AcDbLine
 62
7
  6
CONTINUOUS
 10
5.2299993031
 20
4.4866630599
 11
5.2299993031
 21
4.5459919607
  0
LINE
  5
2F7
100
AcDbEntity
  8
ALL_ASSEMBLY_MEMBERS
100
AcDbLine
 62
7
  6
CONTINUOUS
 10
5.2299993031
 20
4.5585280922
 11
5.2299993031
 21
4.5693123285
  0
LINE
  5
2F8
100
AcDbEntity
  8
ALL_ASSEMBLY_MEMBERS
100
AcDbLine
 62
7
  6
CONTINUOUS
 10
5.2299993031
 20
4.5913421592
 11
5.2299993031
 21
4.6018578385
  0
LINE
  5
2F9
100
AcDbEntity
  8
ALL_ASSEMBLY_MEMBERS
100
AcDbLine
 62
7
  6
CONTINUOUS
 10
5.2328536338
 20
3.9067770036
 11
5.2328536338
 21
3.9042770968
  0
LINE
  5
2FA
100
AcDbEntity
  8
ALL_ASSEMBLY_MEMBERS
100
AcDbLine
 62
7
  6
CONTINUOUS
 10
5.2328536338
 20
4.3697940101
 11
5.2328536338
 21
4.3953845613
  0
LINE
  5
2FB
100
AcDbEntity
  8
ALL_ASSEMBLY_MEMBERS
100
AcDbLine
 62
7
  6
CONTINUOUS
 10
5.2328536338
 20
4.7701746413
 11
5.2328536338
 21
4.7868739538
  0
LINE
  5
2FC
100
AcDbEntity
  8
ALL_ASSEMBLY_MEMBERS
100
AcDbLine
 62
7
  6
CONTINUOUS
 10
5.2547158385
 20
4.8750892857
 11
5.2547158385
 21
3.8900892857
  0
LINE
  5
2FD
100
AcDbEntity
  8
ALL_ASSEMBLY_MEMBERS
100
AcDbLine
 62
7
  6
CONTINUOUS
 10
5.2328536338
 20
4.7701746413
 11
5.1442709566
 21
4.7701746413
  0
LINE
  5
2FE
100
AcDbEntity
  8
ALL_ASSEMBLY_MEMBERS
100
AcDbLine
 62
7
  6
CONTINUOUS
 10
5.2328536338
 20
4.7721958166
 11
5.1442709566
 21
4.7721958166
  0
LINE
  5
2FF
100
AcDbEntity
  8
ALL_ASSEMBLY_MEMBERS
100
AcDbLine
 62
7
  6
CONTINUOUS
 10
5.3997255593
 20
4.8750892857
 11
5.3993495579
 21
4.8750819843
  0
LINE
  5
300
100
AcDbEntity
  8
ALL_ASSEMBLY_MEMBERS
100
AcDbLine
 62
7
  6
CONTINUOUS
 10
5.3993546983
 20
4.8750821018
 11
5.3997255593
 21
4.8750892857
  0
LINE
  5
301
100
AcDbEntity
  8
ALL_ASSEMBLY_MEMBERS
100
AcDbLine
 62
7
  6
CONTINUOUS
 10
5.2328536338
 20
4.7868739538
 11
5.1442709566
 21
4.7868739538
  0
LINE
  5
302
100
AcDbEntity
  8
ALL_ASSEMBLY_MEMBERS
100
AcDbLine
 62
7
  6
CONTINUOUS
 10
4.3977158385
 20
4.8050892857
 11
4.3727158385
 21
4.8050892857
  0
LINE
  5
303
100
AcDbEntity
  8
ALL_ASSEMBLY_MEMBERS
100
AcDbLine
 62
7
  6
CONTINUOUS
 10
5.195343162
 20
4.8599654074
 11
5.1789270977
 21
4.8599654074
  0
LINE
  5
304
100
AcDbEntity
  8
ALL_ASSEMBLY_MEMBERS
100
AcDbLine
 62
7
  6
CONTINUOUS
 10
5.195343162
 20
4.8624571674
 11
5.1789270977
 21
4.8624571674
  0
LINE
  5
305
100
AcDbEntity
  8
ALL_ASSEMBLY_MEMBERS
100
AcDbLine
 62
7
  6
CONTINUOUS
 10
5.1935191549
 20
4.8633903358
 11
5.1807511048
 21
4.8633903358
  0
LINE
  5
306
100
AcDbEntity
  8
ALL_ASSEMBLY_MEMBERS
100
AcDbLine
 62
7
  6
CONTINUOUS
 10
5.1935191549
 20
4.8641717896
 11
5.1807511048
 21
4.8641717896
  0
LINE
  5
307
100
AcDbEntity
  8
ALL_ASSEMBLY_MEMBERS
100
AcDbLine
 62
7
  6
CONTINUOUS
 10
5.0852158385
 20
4.8648727503
 11
5.1442709566
 21
4.8648727503
  0
LINE
  5
308
100
AcDbEntity
  8
ALL_ASSEMBLY_MEMBERS
100
AcDbLine
 62
7
  6
CONTINUOUS
 10
5.2299993031
 20
4.8648727503
 11
5.2547158385
 21
4.8648727503
  0
LINE
  5
309
100
AcDbEntity
  8
ALL_ASSEMBLY_MEMBERS
100
AcDbLine
 62
7
  6
CONTINUOUS
 10
5.1935191549
 20
4.8666418968
 11
5.1807511048
 21
4.8666418968
  0
LINE
  5
30A
100
AcDbEntity
  8
ALL_ASSEMBLY_MEMBERS
100
AcDbLine
 62
7
  6
CONTINUOUS
 10
5.195343162
 20
4.86696219
 11
5.1789270977
 21
4.86696219
  0
LINE
  5
30B
100
AcDbEntity
  8
ALL_ASSEMBLY_MEMBERS
100
AcDbLine
 62
7
  6
CONTINUOUS
 10
5.195343162
 20
4.8672713562
 11
5.1789270977
 21
4.8672713562
  0
LINE
  5
30C
100
AcDbEntity
  8
ALL_ASSEMBLY_MEMBERS
100
AcDbLine
 62
7
  6
CONTINUOUS
 10
5.0852158385
 20
4.8675892857
 11
4.8447158385
 21
4.8675892857
  0
LINE
  5
30D
100
AcDbEntity
  8
ALL_ASSEMBLY_MEMBERS
100
AcDbLine
 62
7
  6
CONTINUOUS
 10
4.6697158385
 20
4.8675892857
 11
4.6602158385
 21
4.8675892857
  0
LINE
  5
30E
100
AcDbEntity
  8
ALL_ASSEMBLY_MEMBERS
100
AcDbLine
 62
7
  6
CONTINUOUS
 10
5.3897158385
 20
4.8749877629
 11
5.3097158385
 21
4.8749877629
  0
LINE
  5
30F
100
AcDbEntity
  8
ALL_ASSEMBLY_MEMBERS
100
AcDbLine
 62
7
  6
CONTINUOUS
 10
5.2547158385
 20
4.8750892857
 11
5.2997158385
 21
4.8750892857
  0
LINE
  5
310
100
AcDbEntity
  8
ALL_ASSEMBLY_MEMBERS
100
AcDbLine
 62
7
  6
CONTINUOUS
 10
5.3997158385
 20
4.8750892857
 11
5.5327158385
 21
4.8750892857
  0
LINE
  5
311
100
AcDbEntity
  8
ALL_ASSEMBLY_MEMBERS
100
AcDbLine
 62
7
  6
CONTINUOUS
 10
4.6227158385
 20
4.9050892857
 11
4.5727158385
 21
4.9050892857
  0
LINE
  5
312
100
AcDbEntity
  8
ALL_ASSEMBLY_MEMBERS
100
AcDbLine
 62
7
  6
CONTINUOUS
 10
4.4727158385
 20
4.9050892857
 11
4.4477158385
 21
4.9050892857
  0
LINE
  5
313
100
AcDbEntity
  8
ALL_ASSEMBLY_MEMBERS
100
AcDbLine
 62
7
  6
CONTINUOUS
 10
5.2997061228
 20
4.8750892857
 11
5.300075785
 21
4.875082125
  0
LINE
  5
314
100
AcDbEntity
  8
ALL_ASSEMBLY_MEMBERS
100
AcDbLine
 62
7
  6
CONTINUOUS
 10
5.3000814078
 20
4.8750820015
 11
5.2997061206
 21
4.8750892857
  0
LINE
  5
315
100
AcDbEntity
  8
ALL_ASSEMBLY_MEMBERS
100
AcDbLine
 62
7
  6
CONTINUOUS
 10
5.5327158385
 20
3.8525903053
 11
5.5327158385
 21
4.9125882662
  0
LINE
  5
316
100
AcDbEntity
  8
ALL_ASSEMBLY_MEMBERS
100
AcDbLine
 62
7
  6
CONTINUOUS
 10
4.5727158385
 20
4.9425892857
 11
4.4727158385
 21
4.9425892857
  0
LINE
  5
317
100
AcDbEntity
  8
ALL_ASSEMBLY_MEMBERS
100
AcDbLine
 62
7
  6
CONTINUOUS
 10
4.6922158385
 20
4.9783725538
 11
4.8222158385
 21
4.9783725538
  0
LINE
  5
318
100
AcDbEntity
  8
ALL_ASSEMBLY_MEMBERS
100
AcDbLine
 62
7
  6
CONTINUOUS
 10
4.8017612931
 20
5.0068134451
 11
4.712670384
 21
5.0068134451
  0
LINE
  5
319
100
AcDbEntity
  8
ALL_ASSEMBLY_MEMBERS
100
AcDbLine
 62
7
  6
CONTINUOUS
 10
5.6122158385
 20
2.8150892857
 11
5.6122158385
 21
5.9500892857
  0
LINE
  5
31A
100
AcDbEntity
  8
ALL_ASSEMBLY_MEMBERS
100
AcDbLine
 62
7
  6
CONTINUOUS
 10
5.6747158385
 20
2.7575892857
 11
5.6747158385
 21
6.0075892857
  0
LINE
  5
31B
100
AcDbEntity
  8
ALL_ASSEMBLY_MEMBERS
100
AcDbLine
 62
7
  6
CONTINUOUS
 10
5.7687158385
 20
2.7575892857
 11
5.7687158385
 21
6.0075892857
  0
LINE
  5
31C
100
AcDbEntity
  8
ALL_ASSEMBLY_MEMBERS
100
AcDbLine
 62
7
  6
CONTINUOUS
 10
5.6747158385
 20
6.0075892857
 11
5.7687158385
 21
6.0075892857
  0
ARC
  5
31D
100
AcDbEntity
  8
ALL_ASSEMBLY_MEMBERS
100
AcDbCircle
 62
7
  6
CONTINUOUS
 10
5.4196776933
 20
4.4067290877
 40
1.2560096164
100
AcDbArc
 50
190.6738668616
 51
191.4642232374
  0
ARC
  5
31E
100
AcDbEntity
  8
ALL_ASSEMBLY_MEMBERS
100
AcDbCircle
 62
7
  6
CONTINUOUS
 10
5.1605775561
 20
4.4077717702
 40
0.9704119701
100
AcDbArc
 50
191.1001213449
 51
193.3058074946
  0
ARC
  5
31F
100
AcDbEntity
  8
ALL_ASSEMBLY_MEMBERS
100
AcDbCircle
 62
7
  6
CONTINUOUS
 10
5.3897153512
 20
5.3674986704
 40
0.4925109075
100
AcDbArc
 50
270.0000566929
 51
271.1214557203
  0
ARC
  5
320
100
AcDbEntity
  8
ALL_ASSEMBLY_MEMBERS
100
AcDbCircle
 62
7
  6
CONTINUOUS
 10
5.3097091698
 20
5.3667683208
 40
0.4917805579
100
AcDbArc
 50
268.8775733666
 51
270.0007769503
  0
ARC
  5
321
100
AcDbEntity
  8
ALL_ASSEMBLY_MEMBERS
100
AcDbCircle
 62
7
  6
CONTINUOUS
 10
4.7572158385
 20
4.8740892857
 40
0.14
100
AcDbArc
 50
71.446995465
 51
108.553004535
  0
ARC
  5
322
100
AcDbEntity
  8
ALL_ASSEMBLY_MEMBERS
100
AcDbCircle
 62
7
  6
CONTINUOUS
 10
5.6122158385
 20
2.7523718944
 40
0.0627173913
100
AcDbArc
 50
4.7718880608
 51
90.0
  0
ARC
  5
323
100
AcDbEntity
  8
ALL_ASSEMBLY_MEMBERS
100
AcDbCircle
 62
7
  6
CONTINUOUS
 10
5.6122158385
 20
6.012806677
 40
0.0627173913
100
AcDbArc
 50
270.0
 51
355.2281119392
  0
ARC
  5
324
100
AcDbEntity
  8
ALL_ASSEMBLY_MEMBERS
100
AcDbCircle
 62
7
  6
CONTINUOUS
 10
4.2877928171
 20
4.5460869677
 40
0.0526119382
100
AcDbArc
 50
239.0535042612
 51
241.8096655561
  0
ARC
  5
325
100
AcDbEntity
  8
ALL_ASSEMBLY_MEMBERS
100
AcDbCircle
 62
7
  6
CONTINUOUS
 10
4.3977158385
 20
4.9050892857
 40
0.05
100
AcDbArc
 50
270.0
 51
360.0
  0
ARC
  5
326
100
AcDbEntity
  8
ALL_ASSEMBLY_MEMBERS
100
AcDbCircle
 62
7
  6
CONTINUOUS
 10
4.3977158385
 20
3.8600892857
 40
0.05
100
AcDbArc
 50
0.0
 51
90.0
  0
ARC
  5
327
100
AcDbEntity
  8
ALL_ASSEMBLY_MEMBERS
100
AcDbCircle
 62
7
  6
CONTINUOUS
 10
4.3037464441
 20
4.5426138597
 40
0.048549191
100
AcDbArc
 50
302.0465222271
 51
303.1391435915
  0
ARC
  5
328
100
AcDbEntity
  8
ALL_ASSEMBLY_MEMBERS
100
AcDbCircle
 62
7
  6
CONTINUOUS
 10
4.2849655554
 20
4.5414680627
 40
0.0471966864
100
AcDbArc
 50
234.7585879912
 51
239.1136949041
  0
ARC
  5
329
100
AcDbEntity
  8
ALL_ASSEMBLY_MEMBERS
100
AcDbCircle
 62
7
  6
CONTINUOUS
 10
4.3049409492
 20
4.5407862269
 40
0.046365826
100
AcDbArc
 50
303.1377920261
 51
305.2483689106
  0
ARC
  5
32A
100
AcDbEntity
  8
ALL_ASSEMBLY_MEMBERS
100
AcDbCircle
 62
7
  6
CONTINUOUS
 10
4.2856952664
 20
4.4793693701
 40
0.0457892084
100
AcDbArc
 50
107.3798489399
 51
108.9472339008
  0
ARC
  5
32B
100
AcDbEntity
  8
ALL_ASSEMBLY_MEMBERS
100
AcDbCircle
 62
7
  6
CONTINUOUS
 10
5.2161212399
 20
3.9486179234
 40
0.0454241773
100
AcDbArc
 50
270.0001392816
 51
270.9972673085
  0
ARC
  5
32C
100
AcDbEntity
  8
ALL_ASSEMBLY_MEMBERS
100
AcDbCircle
 62
7
  6
CONTINUOUS
 10
4.2840738878
 20
4.483950874
 40
0.040929508
100
AcDbArc
 50
108.8829419003
 51
112.5693643091
  0
ARC
  5
32D
100
AcDbEntity
  8
ALL_ASSEMBLY_MEMBERS
100
AcDbCircle
 62
7
  6
CONTINUOUS
 10
3.9412158385
 20
4.1888392857
 40
0.0375
100
AcDbArc
 50
0.0
 51
90.0
  0
ARC
  5
32E
100
AcDbEntity
  8
ALL_ASSEMBLY_MEMBERS
100
AcDbCircle
 62
7
  6
CONTINUOUS
 10
3.9412158385
 20
4.5763392857
 40
0.0375
100
AcDbArc
 50
270.0
 51
360.0
  0
ARC
  5
32F
100
AcDbEntity
  8
ALL_ASSEMBLY_MEMBERS
100
AcDbCircle
 62
7
  6
CONTINUOUS
 10
4.2817850718
 20
4.4893729115
 40
0.035044278
100
AcDbArc
 50
112.5161603776
 51
116.6079617051
  0
ARC
  5
330
100
AcDbEntity
  8
ALL_ASSEMBLY_MEMBERS
100
AcDbCircle
 62
7
  6
CONTINUOUS
 10
4.7222158385
 20
4.9783725538
 40
0.03
100
AcDbArc
 50
108.553004535
 51
180.0
  0
ARC
  5
331
100
AcDbEntity
  8
ALL_ASSEMBLY_MEMBERS
100
AcDbCircle
 62
7
  6
CONTINUOUS
 10
4.7922158385
 20
4.9783725538
 40
0.03
100
AcDbArc
 50
0.0
 51
71.446995465
  0
ARC
  5
332
100
AcDbEntity
  8
ALL_ASSEMBLY_MEMBERS
100
AcDbCircle
 62
7
  6
CONTINUOUS
 10
4.2166537482
 20
4.1550927709
 40
0.0274999954
100
AcDbArc
 50
90.9124159126
 51
180.2034586035
  0
ARC
  5
333
100
AcDbEntity
  8
ALL_ASSEMBLY_MEMBERS
100
AcDbCircle
 62
7
  6
CONTINUOUS
 10
3.9798206862
 20
4.1550895165
 40
0.0274999721
100
AcDbArc
 50
358.2923845898
 51
90.0001879106
  0
ARC
  5
334
100
AcDbEntity
  8
ALL_ASSEMBLY_MEMBERS
100
AcDbCircle
 62
7
  6
CONTINUOUS
 10
4.013380626
 20
3.7150892857
 40
0.02
100
AcDbArc
 50
178.1195765724
 51
270.0
  0
ARC
  5
335
100
AcDbEntity
  8
ALL_ASSEMBLY_MEMBERS
100
AcDbCircle
 62
7
  6
CONTINUOUS
 10
4.1715689212
 20
3.7150892857
 40
0.02
100
AcDbArc
 50
270.0
 51
0.3774846694
  0
ARC
  5
336
100
AcDbEntity
  8
ALL_ASSEMBLY_MEMBERS
100
AcDbCircle
 62
7
  6
CONTINUOUS
 10
4.3161536132
 20
4.5114781812
 40
0.0148228365
100
AcDbArc
 50
347.5930057384
 51
3.5962482016
  0
ARC
  5
337
100
AcDbEntity
  8
ALL_ASSEMBLY_MEMBERS
100
AcDbCircle
 62
7
  6
CONTINUOUS
 10
4.2729567483
 20
4.5085969247
 40
0.0115669673
100
AcDbArc
 50
219.40406461
 51
223.6989158791
  0
ARC
  5
338
100
AcDbEntity
  8
ALL_ASSEMBLY_MEMBERS
100
AcDbCircle
 62
7
  6
CONTINUOUS
 10
4.2710028344
 20
4.5120350045
 40
0.0105218023
100
AcDbArc
 50
212.8678611452
 51
214.6359984172
  0
ARC
  5
339
100
AcDbEntity
  8
ALL_ASSEMBLY_MEMBERS
100
AcDbCircle
 62
7
  6
CONTINUOUS
 10
4.2262158385
 20
4.2163392857
 40
0.01
100
AcDbArc
 50
90.0
 51
179.999999998
  0
ARC
  5
33A
100
AcDbEntity
  8
ALL_ASSEMBLY_MEMBERS
100
AcDbCircle
 62
7
  6
CONTINUOUS
 10
4.2262158385
 20
4.5488392857
 40
0.01
100
AcDbArc
 50
180.000000002
 51
270.0
  0
ARC
  5
33B
100
AcDbEntity
  8
ALL_ASSEMBLY_MEMBERS
100
AcDbCircle
 62
7
  6
CONTINUOUS
 10
3.9312158385
 20
4.2413392857
 40
0.01
100
AcDbArc
 50
0.0000000032
 51
90.0
  0
ARC
  5
33C
100
AcDbEntity
  8
ALL_ASSEMBLY_MEMBERS
100
AcDbCircle
 62
7
  6
CONTINUOUS
 10
3.9312158385
 20
4.5238392857
 40
0.01
100
AcDbArc
 50
270.0
 51
359.9999999968
  0
ARC
  5
33D
100
AcDbEntity
  8
ALL_ASSEMBLY_MEMBERS
100
AcDbCircle
 62
7
  6
CONTINUOUS
 10
4.3178883989
 20
4.5124878723
 40
0.00782761
100
AcDbArc
 50
4.2115137291
 51
5.981453633
  0
ARC
  5
33E
100
AcDbEntity
  8
ALL_ASSEMBLY_MEMBERS
100
AcDbCircle
 62
7
  6
CONTINUOUS
 10
4.3179525921
 20
4.5124925524
 40
0.0077632465
100
AcDbArc
 50
0.0040137749
 51
4.2118587536
  0
SPLINE
  5
33F
100
AcDbEntity
  8
ALL_ASSEMBLY_MEMBERS
100
AcDbSpline
 62
7
  6
CONTINUOUS
 70
0
 71
3
 72
21
 73
17
 74
0
 42
0.0000001
 43
0.0000001
 44
0.0000000001
 40
0.0
 40
0.0
 40
0.0
 40
0.0
 40
0.0697308383
 40
0.1393243434
 40
0.2771865865
 40
0.4120853488
 40
0.4780180745
 40
0.5427142836
 40
0.6060179606
 40
0.6677893778
 40
0.7278972869
 40
0.7862254717
 40
0.8426740382
 40
0.8971565679
 40
0.9496121506
 40
1.0
 40
1.0
 40
1.0
 40
1.0
 10
4.2947158385
 20
4.5279930963
 30
0.0
 10
4.295332232
 20
4.5279930963
 30
0.0
 10
4.2965638946
 20
4.5279746712
 30
0.0
 10
4.2990119421
 20
4.5278649536
 30
0.0
 10
4.3020280066
 20
4.5275934206
 30
0.0
 10
4.3049896569
 20
4.5271402997
 30
0.0
 10
4.3072897737
 20
4.5266708254
 30
0.0
 10
4.3089571613
 20
4.5262710449
 30
0.0
 10
4.3105738782
 20
4.5258221909
 30
0.0
 10
4.3121342408
 20
4.5253260539
 30
0.0
 10
4.3136327001
 20
4.524784277
 30
0.0
 10
4.3150639442
 20
4.5241987572
 30
0.0
 10
4.3164229614
 20
4.5235717148
 30
0.0
 10
4.3177048717
 20
4.522905132
 30
0.0
 10
4.3189051499
 20
4.522201535
 30
0.0
 10
4.3196635592
 20
4.5216991887
 30
0.0
 10
4.3200272288
 20
4.5214420241
 30
0.0
  0
LINE
  5
340
100
AcDbEntity
  8
ALL_ASSEMBLY_MEMBERS
100
AcDbLine
 62
7
  6
CONTINUOUS
 10
4.2694044482
 20
4.5214420241
 11
4.2720310701
 21
4.5230571844
  0
SPLINE
  5
341
100
AcDbEntity
  8
ALL_ASSEMBLY_MEMBERS
100
AcDbSpline
 62
7
  6
CONTINUOUS
 70
0
 71
3
 72
15
 73
11
 74
0
 42
0.0000001
 43
0.0000001
 44
0.0000000001
 40
0.0
 40
0.0
 40
0.0
 40
0.0
 40
0.1120921143
 40
0.2283780086
 40
0.3486470159
 40
0.4726573678
 40
0.600123635
 40
0.7307356775
 40
0.8641520134
 40
1.0
 40
1.0
 40
1.0
 40
1.0
 10
4.2720310701
 20
4.5230571844
 30
0.0
 10
4.2724858612
 20
4.5233013481
 30
0.0
 10
4.2734260134
 20
4.5237739038
 30
0.0
 10
4.2748946013
 20
4.5244241157
 30
0.0
 10
4.2764423986
 20
4.5250267221
 30
0.0
 10
4.2780632626
 20
4.5255790716
 30
0.0
 10
4.2797506951
 20
4.5260791912
 30
0.0
 10
4.2814980083
 20
4.5265249468
 30
0.0
 10
4.2832981536
 20
4.5269145514
 30
0.0
 10
4.2845188231
 20
4.5271341474
 30
0.0
 10
4.2851363117
 20
4.5272344723
 30
0.0
  0
SPLINE
  5
342
100
AcDbEntity
  8
ALL_ASSEMBLY_MEMBERS
100
AcDbSpline
 62
7
  6
CONTINUOUS
 70
0
 71
3
 72
11
 73
7
 74
0
 42
0.0000001
 43
0.0000001
 44
0.0000000001
 40
0.0
 40
0.0
 40
0.0
 40
0.0
 40
0.2459354179
 40
0.4953660283
 40
0.747181397
 40
1.0
 40
1.0
 40
1.0
 40
1.0
 10
4.2851363117
 20
4.5272344723
 30
0.0
 10
4.2859146709
 20
4.5273609342
 30
0.0
 10
4.2874880611
 20
4.5275822455
 30
0.0
 10
4.2898727291
 20
4.5278188947
 30
0.0
 10
4.2922869718
 20
4.5279612875
 30
0.0
 10
4.2939052027
 20
4.5279930963
 30
0.0
 10
4.2947158385
 20
4.5279930963
 30
0.0
  0
SPLINE
  5
343
100
AcDbEntity
  8
ALL_ASSEMBLY_MEMBERS
100
AcDbSpline
 62
7
  6
CONTINUOUS
 70
0
 71
3
 72
24
 73
20
 74
0
 42
0.0000001
 43
0.0000001
 44
0.0000000001
 40
0.0
 40
0.0
 40
0.0
 40
0.0
 40
0.0781693173
 40
0.1529937796
 40
0.2245571843
 40
0.292989255
 40
0.3584816656
 40
0.390210634
 40
0.4213056288
 40
0.4817491955
 40
0.5402238236
 40
0.597189495
 40
0.6531657713
 40
0.7087160733
 40
0.7644255879
 40
0.8208775192
 40
0.8786268011
 40
0.9381855809
 40
1.0
 40
1.0
 40
1.0
 40
1.0
 10
4.266249419
 20
4.5192110673
 30
0.0
 10
4.2659269203
 20
4.5189830377
 30
0.0
 10
4.2653077606
 20
4.5185193192
 30
0.0
 10
4.2644422124
 20
4.5177845453
 30
0.0
 10
4.2636626294
 20
4.5170279973
 30
0.0
 10
4.2629715976
 20
4.5162517716
 30
0.0
 10
4.262466031
 20
4.5155833524
 30
0.0
 10
4.2621097437
 20
4.5150414283
 30
0.0
 10
4.2617914754
 20
4.5145058362
 30
0.0
 10
4.2614504814
 20
4.5138274206
 30
0.0
 10
4.2611336267
 20
4.5129953977
 30
0.0
 10
4.2609143612
 20
4.5121556222
 30
0.0
 10
4.2607940197
 20
4.5113109026
 30
0.0
 10
4.2607731124
 20
4.5104642044
 30
0.0
 10
4.260852207
 20
4.5096185348
 30
0.0
 10
4.2610311616
 20
4.5087769607
 30
0.0
 10
4.2613093535
 20
4.507942357
 30
0.0
 10
4.2616861124
 20
4.507117732
 30
0.0
 10
4.2619958245
 20
4.5065871328
 30
0.0
 10
4.2621653157
 20
4.5063247867
 30
0.0
  0
SPLINE
  5
344
100
AcDbEntity
  8
ALL_ASSEMBLY_MEMBERS
100
AcDbSpline
 62
7
  6
CONTINUOUS
 70
0
 71
3
 72
15
 73
11
 74
0
 42
0.0000001
 43
0.0000001
 44
0.0000000001
 40
0.0
 40
0.0
 40
0.0
 40
0.0
 40
0.1006428617
 40
0.2076929173
 40
0.3216744901
 40
0.442878316
 40
0.5714189859
 40
0.7072720442
 40
0.850274985
 40
1.0
 40
1.0
 40
1.0
 40
1.0
 10
4.2623457118
 20
4.5060548245
 30
0.0
 10
4.2626005399
 20
4.5056858025
 30
0.0
 10
4.2631743652
 20
4.5049566193
 30
0.0
 10
4.2641783969
 20
4.5039304683
 30
0.0
 10
4.265345786
 20
4.5029459915
 30
0.0
 10
4.2666702502
 20
4.5020088927
 30
0.0
 10
4.2681453032
 20
4.5011248725
 30
0.0
 10
4.2697634428
 20
4.5002992198
 30
0.0
 10
4.2715159075
 20
4.4995376445
 30
0.0
 10
4.2727402939
 20
4.499085727
 30
0.0
 10
4.2733718971
 20
4.4988708168
 30
0.0
  0
SPLINE
  5
345
100
AcDbEntity
  8
ALL_ASSEMBLY_MEMBERS
100
AcDbSpline
 62
7
  6
CONTINUOUS
 70
0
 71
3
 72
11
 73
7
 74
0
 42
0.0000001
 43
0.0000001
 44
0.0000000001
 40
0.0
 40
0.0
 40
0.0
 40
0.0
 40
0.252818603
 40
0.5046339717
 40
0.7540645821
 40
1.0
 40
1.0
 40
1.0
 40
1.0
 10
4.2947158385
 20
4.4969930963
 30
0.0
 10
4.2939052027
 20
4.4969930963
 30
0.0
 10
4.2922869718
 20
4.4970249051
 30
0.0
 10
4.2898727291
 20
4.4971672979
 30
0.0
 10
4.2874880611
 20
4.4974039471
 30
0.0
 10
4.2859146709
 20
4.4976252584
 30
0.0
 10
4.2851363117
 20
4.4977517203
 30
0.0
  0
SPLINE
  5
346
100
AcDbEntity
  8
ALL_ASSEMBLY_MEMBERS
100
AcDbSpline
 62
7
  6
CONTINUOUS
 70
0
 71
3
 72
36
 73
32
 74
0
 42
0.0000001
 43
0.0000001
 44
0.0000000001
 40
0.0
 40
0.0
 40
0.0
 40
0.0
 40
0.0883659062
 40
0.1738167203
 40
0.2152577632
 40
0.2557454775
 40
0.2952155776
 40
0.3336128646
 40
0.3708876993
 40
0.4069979218
 40
0.4419140732
 40
0.4756151735
 40
0.5080911802
 40
0.539348623
 40
0.5982682604
 40
0.6260532115
 40
0.6528033939
 40
0.6786130939
 40
0.7036006779
 40
0.7279040429
 40
0.7516809524
 40
0.7751070287
 40
0.7983686425
 40
0.8216585045
 40
0.8451680487
 40
0.8690809976
 40
0.8935685577
 40
0.9187825232
 40
0.9448552781
 40
0.9718985881
 40
1.0
 40
1.0
 40
1.0
 40
1.0
 10
4.2851363117
 20
4.4977517203
 30
0.0
 10
4.2841153275
 20
4.497917602
 30
0.0
 10
4.282115654
 20
4.4983000361
 30
0.0
 10
4.2796718593
 20
4.4989209855
 30
0.0
 10
4.2777985546
 20
4.4994960692
 30
0.0
 10
4.2764547012
 20
4.4999589381
 30
0.0
 10
4.2751614286
 20
4.5004565937
 30
0.0
 10
4.2739222474
 20
4.5009875385
 30
0.0
 10
4.2727405775
 20
4.501550317
 30
0.0
 10
4.2716197469
 20
4.5021435137
 30
0.0
 10
4.2705627677
 20
4.5027653729
 30
0.0
 10
4.2695725741
 20
4.5034141861
 30
0.0
 10
4.2686518859
 20
4.5040884062
 30
0.0
 10
4.2675424273
 20
4.5050003634
 30
0.0
 10
4.2665542569
 20
4.50597164
 30
0.0
 10
4.2657124337
 20
4.5070001471
 30
0.0
 10
4.2651735801
 20
4.5077721994
 30
0.0
 10
4.2647167643
 20
4.508557885
 30
0.0
 10
4.2643431703
 20
4.5093549917
 30
0.0
 10
4.2640540286
 20
4.5101613515
 30
0.0
 10
4.2638505143
 20
4.5109747234
 30
0.0
 10
4.2637331134
 20
4.5117926531
 30
0.0
 10
4.2637023165
 20
4.512612728
 30
0.0
 10
4.2637584349
 20
4.5134324311
 30
0.0
 10
4.2639009941
 20
4.5142492807
 30
0.0
 10
4.2641295549
 20
4.5150608592
 30
0.0
 10
4.2644434705
 20
4.51586474
 30
0.0
 10
4.264841453
 20
4.5166587429
 30
0.0
 10
4.2653223453
 20
4.5174406833
 30
0.0
 10
4.2658847608
 20
4.51820832
 30
0.0
 10
4.2663045364
 20
4.5186995432
 30
0.0
 10
4.2665265974
 20
4.5189422203
 30
0.0
  0
SPLINE
  5
347
100
AcDbEntity
  8
ALL_ASSEMBLY_MEMBERS
100
AcDbSpline
 62
7
  6
CONTINUOUS
 70
0
 71
3
 72
10
 73
6
 74
0
 42
0.0000001
 43
0.0000001
 44
0.0000000001
 40
0.0
 40
0.0
 40
0.0
 40
0.0
 40
0.482662079
 40
0.7369502828
 40
1.0
 40
1.0
 40
1.0
 40
1.0
 10
4.2665265974
 20
4.5189422203
 30
0.0
 10
4.266941275
 20
4.5193953966
 30
0.0
 10
4.267618833
 20
4.5200477897
 30
0.0
 10
4.2686021043
 20
4.5208561755
 30
0.0
 10
4.2691311095
 20
4.521248736
 30
0.0
 10
4.2694044482
 20
4.5214420241
 30
0.0
  0
SPLINE
  5
348
100
AcDbEntity
  8
ALL_ASSEMBLY_MEMBERS
100
AcDbSpline
 62
7
  6
CONTINUOUS
 70
0
 71
3
 72
15
 73
11
 74
0
 42
0.0000001
 43
0.0000001
 44
0.0000000001
 40
0.0
 40
0.0
 40
0.0
 40
0.0
 40
0.1121665338
 40
0.2292643196
 40
0.3507151327
 40
0.4759214496
 40
0.6041974547
 40
0.7348077954
 40
0.8670170328
 40
1.0
 40
1.0
 40
1.0
 40
1.0
 10
4.2733718971
 20
4.4988708168
 30
0.0
 10
4.2741214184
 20
4.4985452431
 30
0.0
 10
4.2756761717
 20
4.4979312513
 30
0.0
 10
4.2781058585
 20
4.4971363419
 30
0.0
 10
4.2806676072
 20
4.4964527363
 30
0.0
 10
4.2833408414
 20
4.495885821
 30
0.0
 10
4.2861044833
 20
4.4954401729
 30
0.0
 10
4.2889366757
 20
4.4951192334
 30
0.0
 10
4.291814692
 20
4.4949256989
 30
0.0
 10
4.2937470041
 20
4.4948825871
 30
0.0
 10
4.2947158385
 20
4.4948825871
 30
0.0
  0
SPLINE
  5
349
100
AcDbEntity
  8
ALL_ASSEMBLY_MEMBERS
100
AcDbSpline
 62
7
  6
CONTINUOUS
 70
0
 71
3
 72
12
 73
8
 74
0
 42
0.0000001
 43
0.0000001
 44
0.0000000001
 40
0.0
 40
0.0
 40
0.0
 40
0.0
 40
0.265078517
 40
0.394029641
 40
0.5204689132
 40
0.7655544429
 40
1.0
 40
1.0
 40
1.0
 40
1.0
 10
4.3109929551
 20
4.4939614277
 30
0.0
 10
4.3118061498
 20
4.4944230663
 30
0.0
 10
4.3129931457
 20
4.4951492324
 30
0.0
 10
4.3145035445
 20
4.4961937114
 30
0.0
 10
4.3159156452
 20
4.4972540483
 30
0.0
 10
4.3175451752
 20
4.4986416751
 30
0.0
 10
4.3187285896
 20
4.4998549302
 30
0.0
 10
4.3192736426
 20
4.5004769402
 30
0.0
  0
SPLINE
  5
34A
100
AcDbEntity
  8
ALL_ASSEMBLY_MEMBERS
100
AcDbSpline
 62
7
  6
CONTINUOUS
 70
0
 71
3
 72
18
 73
14
 74
0
 42
0.0000001
 43
0.0000001
 44
0.0000000001
 40
0.0
 40
0.0
 40
0.0
 40
0.0
 40
0.136454386
 40
0.2717543332
 40
0.4047383481
 40
0.5343241107
 40
0.6594861088
 40
0.7201250916
 40
0.7793211774
 40
0.8369835643
 40
0.8930359242
 40
0.9474020501
 40
1.0
 40
1.0
 40
1.0
 40
1.0
 10
4.2947158385
 20
4.4948825871
 30
0.0
 10
4.2958734471
 20
4.4948825871
 30
0.0
 10
4.2981793522
 20
4.4949440019
 30
0.0
 10
4.3016034697
 20
4.4952196234
 30
0.0
 10
4.3049496843
 20
4.4956755888
 30
0.0
 10
4.308179789
 20
4.4963065624
 30
0.0
 10
4.3107714764
 20
4.4969793094
 30
0.0
 10
4.312754887
 20
4.4976017097
 30
0.0
 10
4.3141754147
 20
4.4981022213
 30
0.0
 10
4.3155405548
 20
4.4986399386
 30
0.0
 10
4.3168464972
 20
4.4992133722
 30
0.0
 10
4.3180893113
 20
4.4998208392
 30
0.0
 10
4.3188868095
 20
4.5002545287
 30
0.0
 10
4.3192736426
 20
4.5004769402
 30
0.0
  0
SPLINE
  5
34B
100
AcDbEntity
  8
ALL_ASSEMBLY_MEMBERS
100
AcDbSpline
 62
7
  6
CONTINUOUS
 70
0
 71
3
 72
14
 73
10
 74
0
 42
0.0000001
 43
0.0000001
 44
0.0000000001
 40
0.0
 40
0.0
 40
0.0
 40
0.0
 40
0.1418216731
 40
0.2784938949
 40
0.5366596529
 40
0.6586647875
 40
0.7762863728
 40
0.8899057234
 40
1.0
 40
1.0
 40
1.0
 40
1.0
 10
4.3200272288
 20
4.5214420241
 30
0.0
 10
4.3203245918
 20
4.5212317476
 30
0.0
 10
4.3208984091
 20
4.5208041455
 30
0.0
 10
4.3219573067
 20
4.5199215055
 30
0.0
 10
4.3229028457
 20
4.5189839263
 30
0.0
 10
4.3237124988
 20
4.5179934916
 30
0.0
 10
4.3242338832
 20
4.517250024
 30
0.0
 10
4.3246791285
 20
4.5164939081
 30
0.0
 10
4.3249280866
 20
4.5159751892
 30
0.0
 10
4.3250386849
 20
4.5157149965
 30
0.0
  0
LINE
  5
34C
100
AcDbEntity
  8
ALL_ASSEMBLY_MEMBERS
100
AcDbLine
 62
7
  6
CONTINUOUS
 10
4.3250386849
 20
4.5157149965
 11
4.3256733929
 21
4.5133035604
  0
SPLINE
  5
34D
100
AcDbEntity
  8
ALL_ASSEMBLY_MEMBERS
100
AcDbSpline
 62
7
  6
CONTINUOUS
 70
0
 71
3
 72
32
 73
28
 74
0
 42
0.0000001
 43
0.0000001
 44
0.0000000001
 40
0.0
 40
0.0
 40
0.0
 40
0.0
 40
0.0202860603
 40
0.040717733
 40
0.0614358214
 40
0.0825735989
 40
0.104251914
 40
0.1265774551
 40
0.1496434788
 40
0.1735269164
 40
0.223951588
 40
0.2506012714
 40
0.2782326727
 40
0.3068569452
 40
0.3364756321
 40
0.3670785829
 40
0.3986489743
 40
0.4311638834
 40
0.4645910881
 40
0.5340193879
 40
0.5699416144
 40
0.6065983569
 40
0.6818863591
 40
0.7594036527
 40
0.8386317495
 40
0.9190435147
 40
1.0
 40
1.0
 40
1.0
 40
1.0
 10
4.3257158385
 20
4.5124930963
 30
0.0
 10
4.3257158385
 20
4.5122392747
 30
0.0
 10
4.3256906778
 20
4.5117294608
 30
0.0
 10
4.3255779077
 20
4.5109679339
 30
0.0
 10
4.3253904372
 20
4.5102102644
 30
0.0
 10
4.325128632
 20
4.5094585203
 30
0.0
 10
4.3247933851
 20
4.5087144999
 30
0.0
 10
4.3243856939
 20
4.5079799609
 30
0.0
 10
4.3239064587
 20
4.5072566879
 30
0.0
 10
4.3231604404
 20
4.5062923339
 30
0.0
 10
4.3222853827
 20
4.5053756733
 30
0.0
 10
4.3213019148
 20
4.5045095512
 30
0.0
 10
4.3204867684
 20
4.5038671313
 30
0.0
 10
4.3196097881
 20
4.503245614
 30
0.0
 10
4.3186729491
 20
4.5026464655
 30
0.0
 10
4.3176785994
 20
4.5020710019
 30
0.0
 10
4.3166290942
 20
4.5015206095
 30
0.0
 10
4.3155268784
 20
4.5009966959
 30
0.0
 10
4.3139709902
 20
4.5003265479
 30
0.0
 10
4.3123405039
 20
4.4997248673
 30
0.0
 10
4.3106462086
 20
4.4991890426
 30
0.0
 10
4.3088657171
 20
4.4986852427
 30
0.0
 10
4.306556878
 20
4.4981416339
 30
0.0
 10
4.3036973787
 20
4.4976319827
 30
0.0
 10
4.3007515557
 20
4.4972644089
 30
0.0
 10
4.2977481868
 20
4.4970426066
 30
0.0
 10
4.2957287758
 20
4.4969930963
 30
0.0
 10
4.2947158385
 20
4.4969930963
 30
0.0
  0
SPLINE
  5
34E
100
AcDbEntity
  8
ALL_ASSEMBLY_MEMBERS
100
AcDbSpline
 62
7
  6
CONTINUOUS
 70
0
 71
3
 72
36
 73
32
 74
0
 42
0.0000001
 43
0.0000001
 44
0.0000000001
 40
0.0
 40
0.0
 40
0.0
 40
0.0
 40
0.0288780075
 40
0.0587517632
 40
0.0895609277
 40
0.1212476963
 40
0.1537539027
 40
0.1870108015
 40
0.2554320693
 40
0.325804985
 40
0.3614831106
 40
0.3973471649
 40
0.4332906874
 40
0.4692054175
 40
0.5049824351
 40
0.540513217
 40
0.5756894061
 40
0.6104049617
 40
0.6780310965
 40
0.7107544008
 40
0.7426231639
 40
0.7735525311
 40
0.8034627135
 40
0.8322833297
 40
0.8599531003
 40
0.8864208594
 40
0.9116501496
 40
0.935616755
 40
0.9583167889
 40
0.979764586
 40
1.0
 40
1.0
 40
1.0
 40
1.0
 10
4.3192736426
 20
4.5004769402
 30
0.0
 10
4.318812619
 20
4.5001653816
 30
0.0
 10
4.3178564901
 20
4.4995580866
 30
0.0
 10
4.3163534416
 20
4.4987088976
 30
0.0
 10
4.3147628144
 20
4.4979089337
 30
0.0
 10
4.3130914221
 20
4.4971610218
 30
0.0
 10
4.3113459179
 20
4.4964674881
 30
0.0
 10
4.3089060574
 20
4.4956102376
 30
0.0
 10
4.3057169267
 20
4.494693208
 30
0.0
 10
4.3024261437
 20
4.4939928756
 30
0.0
 10
4.2997262908
 20
4.4935567765
 30
0.0
 10
4.2976716963
 20
4.4932931667
 30
0.0
 10
4.2956051992
 20
4.4930951587
 30
0.0
 10
4.293535139
 20
4.4929628202
 30
0.0
 10
4.2914698761
 20
4.4928963364
 30
0.0
 10
4.2894177841
 20
4.4928952268
 30
0.0
 10
4.2873871016
 20
4.4929590735
 30
0.0
 10
4.2847424606
 20
4.4931281802
 30
0.0
 10
4.282154173
 20
4.493421782
 30
0.0
 10
4.2796412243
 20
4.4938432621
 30
0.0
 10
4.2778380286
 20
4.4942143346
 30
0.0
 10
4.2761030668
 20
4.4946415369
 30
0.0
 10
4.2744433131
 20
4.4951227326
 30
0.0
 10
4.2728654523
 20
4.4956553833
 30
0.0
 10
4.2713757936
 20
4.496236735
 30
0.0
 10
4.2699803648
 20
4.4968640666
 30
0.0
 10
4.2686846571
 20
4.4975341132
 30
0.0
 10
4.2674939517
 20
4.4982439224
 30
0.0
 10
4.2664128611
 20
4.4989900014
 30
0.0
 10
4.2654458631
 20
4.4997689707
 30
0.0
 10
4.2648633113
 20
4.5003236655
 30
0.0
 10
4.2645940598
 20
4.5006056686
 30
0.0
  0
SPLINE
  5
34F
100
AcDbEntity
  8
ALL_ASSEMBLY_MEMBERS
100
AcDbSpline
 62
7
  6
CONTINUOUS
 70
0
 71
3
 72
14
 73
10
 74
0
 42
0.0000001
 43
0.0000001
 44
0.0000000001
 40
0.0
 40
0.0
 40
0.0
 40
0.0
 40
0.2712316089
 40
0.4000310819
 40
0.524953426
 40
0.6466518197
 40
0.7658576727
 40
0.8833610333
 40
1.0
 40
1.0
 40
1.0
 40
1.0
 10
4.2640190852
 20
4.5012543835
 30
0.0
 10
4.2637252355
 20
4.5016130115
 30
0.0
 10
4.263325158
 20
4.5021715356
 30
0.0
 10
4.262891971
 20
4.5029582663
 30
0.0
 10
4.2626296641
 20
4.5035448434
 30
0.0
 10
4.2624250826
 20
4.5041366455
 30
0.0
 10
4.2622785449
 20
4.5047324522
 30
0.0
 10
4.2621904326
 20
4.5053308968
 30
0.0
 10
4.2621708534
 20
4.5057314111
 30
0.0
 10
4.2621708649
 20
4.5059307921
 30
0.0
  0
SPLINE
  5
350
100
AcDbEntity
  8
ALL_ASSEMBLY_MEMBERS
100
AcDbSpline
 62
7
  6
CONTINUOUS
 70
0
 71
3
 72
20
 73
16
 74
0
 42
0.0000001
 43
0.0000001
 44
0.0000000001
 40
0.0
 40
0.0
 40
0.0
 40
0.0
 40
0.0161728331
 40
0.0258036186
 40
0.0369209756
 40
0.0643334836
 40
0.0992315881
 40
0.1417947005
 40
0.1919721843
 40
0.2494665808
 40
0.313814204
 40
0.4610154349
 40
0.6286948361
 40
0.8109417894
 40
1.0
 40
1.0
 40
1.0
 40
1.0
 10
5.2230108438
 20
3.9042771141
 30
0.0
 10
5.2230108422
 20
3.9043156664
 30
0.0
 10
5.2229899566
 20
3.9043774417
 30
0.0
 10
5.2229365806
 20
3.9044475055
 30
0.0
 10
5.2228530073
 20
3.9045269581
 30
0.0
 10
5.222704477
 20
3.9046217667
 30
0.0
 10
5.2224773338
 20
3.9047269346
 30
0.0
 10
5.2221903913
 20
3.904829172
 30
0.0
 10
5.2218457924
 20
3.9049272594
 30
0.0
 10
5.2214462599
 20
3.9050201476
 30
0.0
 10
5.2208163206
 20
3.905141168
 30
0.0
 10
5.2199206816
 20
3.905267639
 30
0.0
 10
5.2187404965
 20
3.9053782682
 30
0.0
 10
5.2174572007
 20
3.9054466794
 30
0.0
 10
5.2165720214
 20
3.9054623853
 30
0.0
 10
5.2161213503
 20
3.9054623853
 30
0.0
  0
SPLINE
  5
351
100
AcDbEntity
  8
ALL_ASSEMBLY_MEMBERS
100
AcDbSpline
 62
7
  6
CONTINUOUS
 70
0
 71
3
 72
23
 73
19
 74
0
 42
0.0000001
 43
0.0000001
 44
0.0000000001
 40
0.0
 40
0.0
 40
0.0
 40
0.0
 40
0.0078034152
 40
0.0161641464
 40
0.0256081261
 40
0.0365034451
 40
0.0490751587
 40
0.0634558353
 40
0.0979038589
 40
0.1401458142
 40
0.1900907423
 40
0.247437934
 40
0.3118120388
 40
0.3826710245
 40
0.459367591
 40
0.6275128975
 40
0.8101911166
 40
1.0
 40
1.0
 40
1.0
 40
1.0
 10
5.2328534106
 20
3.9042771375
 30
0.0
 10
5.2328534125
 20
3.9042321805
 30
0.0
 10
5.232839075
 20
3.9041385437
 30
0.0
 10
5.2327759386
 20
3.9040034807
 30
0.0
 10
5.2326731239
 20
3.9038725864
 30
0.0
 10
5.2325316226
 20
3.9037453691
 30
0.0
 10
5.2323518955
 20
3.9036211334
 30
0.0
 10
5.2320424537
 20
3.903448889
 30
0.0
 10
5.2315563288
 20
3.9032476057
 30
0.0
 10
5.2308590525
 20
3.9030312243
 30
0.0
 10
5.2300210875
 20
3.9028292021
 30
0.0
 10
5.2290495755
 20
3.9026426756
 30
0.0
 10
5.2279528634
 20
3.9024734402
 30
0.0
 10
5.2267411549
 20
3.9023222445
 30
0.0
 10
5.2249313441
 20
3.9021401233
 30
0.0
 10
5.222473655
 20
3.9019693091
 30
0.0
 10
5.2193609637
 20
3.9018484679
 30
0.0
 10
5.2172148765
 20
3.9018215808
 30
0.0
 10
5.2161213503
 20
3.9018215808
 30
0.0
  0
SPLINE
  5
352
100
AcDbEntity
  8
ALL_ASSEMBLY_MEMBERS
100
AcDbSpline
 62
7
  6
CONTINUOUS
 70
0
 71
3
 72
20
 73
16
 74
0
 42
0.0000001
 43
0.0000001
 44
0.0000000001
 40
0.0
 40
0.0
 40
0.0
 40
0.0
 40
0.189057575
 40
0.3713042276
 40
0.5389848736
 40
0.6861864316
 40
0.7505333508
 40
0.8080268943
 40
0.8582038084
 40
0.9007670648
 40
0.9356657355
 40
0.9630788201
 40
0.9741963456
 40
0.9838271894
 40
1.0
 40
1.0
 40
1.0
 40
1.0
 10
5.2161213503
 20
3.9054623853
 30
0.0
 10
5.2156706807
 20
3.9054623853
 30
0.0
 10
5.2147855037
 20
3.9054466803
 30
0.0
 10
5.2135022071
 20
3.9053782683
 30
0.0
 10
5.2123220191
 20
3.9052676376
 30
0.0
 10
5.2114263778
 20
3.9051411685
 30
0.0
 10
5.2107964413
 20
3.9050201492
 30
0.0
 10
5.2103969138
 20
3.9049272619
 30
0.0
 10
5.2100523181
 20
3.9048291742
 30
0.0
 10
5.2097653755
 20
3.9047269363
 30
0.0
 10
5.2095382292
 20
3.9046217679
 30
0.0
 10
5.2093896954
 20
3.904526959
 30
0.0
 10
5.2093061199
 20
3.9044475059
 30
0.0
 10
5.2092527432
 20
3.904377442
 30
0.0
 10
5.209231858
 20
3.9043156663
 30
0.0
 10
5.2092318567
 20
3.9042771141
 30
0.0
  0
SPLINE
  5
353
100
AcDbEntity
  8
ALL_ASSEMBLY_MEMBERS
100
AcDbSpline
 62
7
  6
CONTINUOUS
 70
0
 71
3
 72
23
 73
19
 74
0
 42
0.0000001
 43
0.0000001
 44
0.0000000001
 40
0.0
 40
0.0
 40
0.0
 40
0.0
 40
0.1898090382
 40
0.3724871401
 40
0.5406320978
 40
0.6173287805
 40
0.6881879839
 40
0.752562232
 40
0.8099093563
 40
0.859854115
 40
0.9020959549
 40
0.9365440101
 40
0.9509247321
 40
0.9634964936
 40
0.9743918508
 40
0.9838358491
 40
0.9921965845
 40
1.0
 40
1.0
 40
1.0
 40
1.0
 10
5.2161213503
 20
3.9018215808
 30
0.0
 10
5.2150278233
 20
3.9018215808
 30
0.0
 10
5.2128817359
 20
3.9018484683
 30
0.0
 10
5.2097690463
 20
3.9019693087
 30
0.0
 10
5.2073113592
 20
3.902140123
 30
0.0
 10
5.2055015486
 20
3.9023222447
 30
0.0
 10
5.2042898374
 20
3.9024734407
 30
0.0
 10
5.2031931235
 20
3.9026426756
 30
0.0
 10
5.2022216119
 20
3.9028292017
 30
0.0
 10
5.2013836489
 20
3.9030312235
 30
0.0
 10
5.2006863743
 20
3.9032476052
 30
0.0
 10
5.2002002496
 20
3.9034488885
 30
0.0
 10
5.1998908071
 20
3.9036211329
 30
0.0
 10
5.1997110791
 20
3.9037453687
 30
0.0
 10
5.199569577
 20
3.903872586
 30
0.0
 10
5.1994667619
 20
3.9040034805
 30
0.0
 10
5.1994036255
 20
3.9041385437
 30
0.0
 10
5.1993892881
 20
3.9042321805
 30
0.0
 10
5.19938929
 20
3.9042771375
 30
0.0
  0
LINE
  5
354
100
AcDbEntity
  8
ALL_ASSEMBLY_MEMBERS
100
AcDbLine
 62
7
  6
CONTINUOUS
 10
5.2161213503
 20
3.9073340117
 11
5.2237316217
 21
3.9069698625
  0
SPLINE
  5
355
100
AcDbEntity
  8
ALL_ASSEMBLY_MEMBERS
100
AcDbSpline
 62
7
  6
CONTINUOUS
 70
0
 71
3
 72
19
 73
15
 74
0
 42
0.0000001
 43
0.0000001
 44
0.0000000001
 40
0.0
 40
0.0
 40
0.0
 40
0.0
 40
0.20355588
 40
0.388916636
 40
0.5529760947
 40
0.6930837406
 40
0.7535900277
 40
0.8074763989
 40
0.8546516999
 40
0.8951680966
 40
0.9292150896
 40
0.95723513
 40
0.9801956094
 40
1.0
 40
1.0
 40
1.0
 40
1.0
 10
5.2237316217
 20
3.9069698625
 30
0.0
 10
5.2243924719
 20
3.9069034252
 30
0.0
 10
5.225653246
 20
3.9067567204
 30
0.0
 10
5.2274370671
 20
3.9064824539
 30
0.0
 10
5.2290043319
 20
3.9061715464
 30
0.0
 10
5.2301580473
 20
3.9058763543
 30
0.0
 10
5.2309490537
 20
3.9056228065
 30
0.0
 10
5.2314430654
 20
3.9054380577
 30
0.0
 10
5.2318655569
 20
3.9052503589
 30
0.0
 10
5.2322152293
 20
3.9050607791
 30
0.0
 10
5.2324914021
 20
3.904870094
 30
0.0
 10
5.2326937572
 20
3.9046779875
 30
0.0
 10
5.2328217379
 20
3.9044820692
 30
0.0
 10
5.232853408
 20
3.9043417572
 30
0.0
 10
5.2328534106
 20
3.9042771375
 30
0.0
  0
SPLINE
  5
356
100
AcDbEntity
  8
ALL_ASSEMBLY_MEMBERS
100
AcDbSpline
 62
7
  6
CONTINUOUS
 70
0
 71
3
 72
18
 73
14
 74
0
 42
0.0000001
 43
0.0000001
 44
0.0000000001
 40
0.0
 40
0.0
 40
0.0
 40
0.0
 40
0.0196331412
 40
0.0421488034
 40
0.0696179638
 40
0.1031481057
 40
0.143227933
 40
0.1900563012
 40
0.3040558468
 40
0.4444578624
 40
0.6090795544
 40
0.7953332078
 40
1.0
 40
1.0
 40
1.0
 40
1.0
 10
5.2092318567
 20
3.9042771141
 30
0.0
 10
5.2092318559
 20
3.9042505921
 30
0.0
 10
5.2092448047
 20
3.9041932503
 30
0.0
 10
5.2092983377
 20
3.904114224
 30
0.0
 10
5.2093830208
 20
3.9040386013
 30
0.0
 10
5.2094986231
 20
3.9039651945
 30
0.0
 10
5.209644974
 20
3.9038935923
 30
0.0
 10
5.2098977632
 20
3.9037942356
 30
0.0
 10
5.2102894538
 20
3.9036812421
 30
0.0
 10
5.2108434329
 20
3.9035638454
 30
0.0
 10
5.2114990619
 20
3.9034593699
 30
0.0
 10
5.2122443435
 20
3.9033701429
 30
0.0
 10
5.2127704692
 20
3.903323698
 30
0.0
 10
5.2130461637
 20
3.9033028686
 30
0.0
  0
LINE
  5
357
100
AcDbEntity
  8
ALL_ASSEMBLY_MEMBERS
100
AcDbLine
 62
7
  6
CONTINUOUS
 10
5.2130461637
 20
3.9033028686
 11
5.2161213503
 21
3.9031937461
  0
SPLINE
  5
358
100
AcDbEntity
  8
ALL_ASSEMBLY_MEMBERS
100
AcDbSpline
 62
7
  6
CONTINUOUS
 70
0
 71
3
 72
23
 73
19
 74
0
 42
0.0000001
 43
0.0000001
 44
0.0000000001
 40
0.0
 40
0.0
 40
0.0
 40
0.0
 40
0.0078812127
 40
0.0164536615
 40
0.0261985843
 40
0.0374419714
 40
0.0503770288
 40
0.0651150352
 40
0.1002079959
 40
0.1429471231
 40
0.1932146859
 40
0.2507048315
 40
0.3150490248
 40
0.385731092
 40
0.4621336633
 40
0.6294611839
 40
0.8111746924
 40
1.0
 40
1.0
 40
1.0
 40
1.0
 10
5.2328534084
 20
3.906777045
 30
0.0
 10
5.232853406
 20
3.9068228019
 30
0.0
 10
5.2328386358
 20
3.9069187644
 30
0.0
 10
5.2327753366
 20
3.9070586182
 30
0.0
 10
5.2326725337
 20
3.9071972744
 30
0.0
 10
5.2325310274
 20
3.9073351373
 30
0.0
 10
5.2323512562
 20
3.9074726662
 30
0.0
 10
5.2320424618
 20
3.907666876
 30
0.0
 10
5.2315575032
 20
3.9079017692
 30
0.0
 10
5.2308612061
 20
3.9081646284
 30
0.0
 10
5.2300248909
 20
3.9084194211
 30
0.0
 10
5.2290555387
 20
3.9086630356
 30
0.0
 10
5.2279612159
 20
3.9088917434
 30
0.0
 10
5.2267517458
 20
3.909102599
 30
0.0
 10
5.2249449139
 20
3.9093638807
 30
0.0
 10
5.2224871011
 20
3.9096199403
 30
0.0
 10
5.2193691818
 20
3.9098074734
 30
0.0
 10
5.2172176346
 20
3.9098500836
 30
0.0
 10
5.2161213503
 20
3.9098500836
 30
0.0
  0
SPLINE
  5
359
100
AcDbEntity
  8
ALL_ASSEMBLY_MEMBERS
100
AcDbSpline
 62
7
  6
CONTINUOUS
 70
0
 71
3
 72
19
 73
15
 74
0
 42
0.0000001
 43
0.0000001
 44
0.0000000001
 40
0.0
 40
0.0
 40
0.0
 40
0.0
 40
0.0198049523
 40
0.0427658196
 40
0.0707860016
 40
0.1048329554
 40
0.1453492186
 40
0.1925243779
 40
0.2464106673
 40
0.3069168988
 40
0.4470242174
 40
0.6110828505
 40
0.7964431978
 40
1.0
 40
1.0
 40
1.0
 40
1.0
 10
5.19938929
 20
3.9042771375
 30
0.0
 10
5.1993892928
 20
3.9043417543
 30
0.0
 10
5.1994209598
 20
3.9044820592
 30
0.0
 10
5.1995489288
 20
3.904677969
 30
0.0
 10
5.1997512658
 20
3.9048700675
 30
0.0
 10
5.2000274143
 20
3.9050607446
 30
0.0
 10
5.2003770569
 20
3.9052503165
 30
0.0
 10
5.2007995135
 20
3.9054380079
 30
0.0
 10
5.2012934858
 20
3.9056227501
 30
0.0
 10
5.2020844297
 20
3.9058762896
 30
0.0
 10
5.2032380535
 20
3.906171474
 30
0.0
 10
5.2048051954
 20
3.906482377
 30
0.0
 10
5.2065888826
 20
3.9067566427
 30
0.0
 10
5.207849565
 20
3.9069033506
 30
0.0
 10
5.2085103693
 20
3.9069697909
 30
0.0
  0
LINE
  5
35A
100
AcDbEntity
  8
ALL_ASSEMBLY_MEMBERS
100
AcDbLine
 62
7
  6
CONTINUOUS
 10
5.2085103693
 20
3.9069697909
 11
5.2161213503
 21
3.9073340117
  0
LINE
  5
35B
100
AcDbEntity
  8
ALL_ASSEMBLY_MEMBERS
100
AcDbLine
 62
7
  6
CONTINUOUS
 10
5.2169118349
 20
3.9032006266
 11
5.2191964627
 21
3.9033028636
  0
SPLINE
  5
35C
100
AcDbEntity
  8
ALL_ASSEMBLY_MEMBERS
100
AcDbSpline
 62
7
  6
CONTINUOUS
 70
0
 71
3
 72
18
 73
14
 74
0
 42
0.0000001
 43
0.0000001
 44
0.0000000001
 40
0.0
 40
0.0
 40
0.0
 40
0.0
 40
0.2046682898
 40
0.3909226323
 40
0.5555427642
 40
0.6959425846
 40
0.8099416072
 40
0.856770528
 40
0.8968510988
 40
0.9303819048
 40
0.9578513979
 40
0.9803670226
 40
1.0
 40
1.0
 40
1.0
 40
1.0
 10
5.2191964627
 20
3.9033028636
 30
0.0
 10
5.2194721643
 20
3.9033236931
 30
0.0
 10
5.2199983026
 20
3.9033701382
 30
0.0
 10
5.2207435991
 20
3.9034593638
 30
0.0
 10
5.2213992364
 20
3.9035638379
 30
0.0
 10
5.2219532203
 20
3.9036812346
 30
0.0
 10
5.2223449151
 20
3.9037942296
 30
0.0
 10
5.2225977105
 20
3.9038935871
 30
0.0
 10
5.2227440672
 20
3.9039651902
 30
0.0
 10
5.2228596746
 20
3.904038598
 30
0.0
 10
5.2229443616
 20
3.9041142214
 30
0.0
 10
5.2229978963
 20
3.9041932491
 30
0.0
 10
5.2230108449
 20
3.9042505918
 30
0.0
 10
5.2230108438
 20
3.9042771141
 30
0.0
  0
SPLINE
  5
35D
100
AcDbEntity
  8
ALL_ASSEMBLY_MEMBERS
100
AcDbSpline
 62
7
  6
CONTINUOUS
 70
0
 71
3
 72
23
 73
19
 74
0
 42
0.0000001
 43
0.0000001
 44
0.0000000001
 40
0.0
 40
0.0
 40
0.0
 40
0.0
 40
0.1888229036
 40
0.3705327349
 40
0.5378605567
 40
0.6142646738
 40
0.6849485675
 40
0.7492938873
 40
0.8067841067
 40
0.8570512933
 40
0.899790283
 40
0.9348837029
 40
0.9496220702
 40
0.9625575115
 40
0.9738012536
 40
0.9835463683
 40
0.9921188286
 40
1.0
 40
1.0
 40
1.0
 40
1.0
 10
5.2161213503
 20
3.9098500836
 30
0.0
 10
5.21502508
 20
3.9098500836
 30
0.0
 10
5.212873568
 20
3.9098074781
 30
0.0
 10
5.2097556825
 20
3.9096199455
 30
0.0
 10
5.2072978797
 20
3.9093638925
 30
0.0
 10
5.2054910268
 20
3.909102607
 30
0.0
 10
5.2042815305
 20
3.9088917502
 30
0.0
 10
5.2031871896
 20
3.9086630431
 30
0.0
 10
5.202217832
 20
3.9084194303
 30
0.0
 10
5.201381519
 20
3.9081646391
 30
0.0
 10
5.2006852227
 20
3.9079017784
 30
0.0
 10
5.2002002607
 20
3.9076668833
 30
0.0
 10
5.1998914595
 20
3.9074726714
 30
0.0
 10
5.1997116819
 20
3.9073351405
 30
0.0
 10
5.1995701692
 20
3.9071972765
 30
0.0
 10
5.1994673618
 20
3.9070586194
 30
0.0
 10
5.1994040625
 20
3.9069187643
 30
0.0
 10
5.199389294
 20
3.9068228016
 30
0.0
 10
5.1993892924
 20
3.906777045
 30
0.0
  0
SPLINE
  5
35E
100
AcDbEntity
  8
ALL_ASSEMBLY_MEMBERS
100
AcDbSpline
 62
7
  6
CONTINUOUS
 70
0
 71
3
 72
11
 73
7
 74
0
 42
0.0000001
 43
0.0000001
 44
0.0000000001
 40
0.0
 40
0.0
 40
0.0
 40
0.0
 40
0.256892837
 40
0.5114128163
 40
0.7601004297
 40
1.0
 40
1.0
 40
1.0
 40
1.0
 10
4.2947158385
 20
4.4920708564
 30
0.0
 10
4.2972224769
 20
4.4920708564
 30
0.0
 10
4.3022163137
 20
4.4923335505
 30
0.0
 10
4.3095558125
 20
4.4934884611
 30
0.0
 10
4.3165721824
 20
4.4953688802
 30
0.0
 10
4.3210288278
 20
4.4970941672
 30
0.0
 10
4.3231587323
 20
4.4980652356
 30
0.0
  0
SPLINE
  5
35F
100
AcDbEntity
  8
ALL_ASSEMBLY_MEMBERS
100
AcDbSpline
 62
7
  6
CONTINUOUS
 70
0
 71
3
 72
9
 73
5
 74
0
 42
0.0000001
 43
0.0000001
 44
0.0000000001
 40
0.0
 40
0.0
 40
0.0
 40
0.0
 40
0.2564087861
 40
1.0
 40
1.0
 40
1.0
 40
1.0
 10
4.3231587323
 20
4.4980652356
 30
0.0
 10
4.323718906
 20
4.4983206307
 30
0.0
 10
4.3258879988
 20
4.4993502961
 30
0.0
 10
4.3279937132
 20
4.5005153345
 30
0.0
 10
4.3295070175
 20
4.5014627139
 30
0.0
  0
SPLINE
  5
360
100
AcDbEntity
  8
ALL_ASSEMBLY_MEMBERS
100
AcDbSpline
 62
7
  6
CONTINUOUS
 70
0
 71
3
 72
11
 73
7
 74
0
 42
0.0000001
 43
0.0000001
 44
0.0000000001
 40
0.0
 40
0.0
 40
0.0
 40
0.0
 40
0.2314916821
 40
0.471192174
 40
0.7258718476
 40
1.0
 40
1.0
 40
1.0
 40
1.0
 10
4.3371708279
 20
4.5135366566
 30
0.0
 10
4.3371708047
 20
4.5127601982
 30
0.0
 10
4.3369948583
 20
4.5111746357
 30
0.0
 10
4.3362114437
 20
4.5088522143
 30
0.0
 10
4.3349288675
 20
4.5066007102
 30
0.0
 10
4.3338040442
 20
4.5052189356
 30
0.0
 10
4.3331761034
 20
4.5045472876
 30
0.0
  0
SPLINE
  5
361
100
AcDbEntity
  8
ALL_ASSEMBLY_MEMBERS
100
AcDbSpline
 62
7
  6
CONTINUOUS
 70
0
 71
3
 72
13
 73
9
 74
0
 42
0.0000001
 43
0.0000001
 44
0.0000000001
 40
0.0
 40
0.0
 40
0.0
 40
0.0
 40
0.2365451695
 40
0.3595200218
 40
0.4848773609
 40
0.6121484016
 40
0.7408447792
 40
1.0
 40
1.0
 40
1.0
 40
1.0
 10
4.2629388277
 20
4.4997156915
 30
0.0
 10
4.2652312272
 20
4.4984856693
 30
0.0
 10
4.2688511877
 20
4.4968586086
 30
0.0
 10
4.2738980969
 20
4.4951302442
 30
0.0
 10
4.277883303
 20
4.4940322476
 30
0.0
 10
4.2819889088
 20
4.4931633662
 30
0.0
 10
4.2875943874
 20
4.492326296
 30
0.0
 10
4.2918656232
 20
4.4920708564
 30
0.0
 10
4.2947158385
 20
4.4920708564
 30
0.0
  0
LINE
  5
362
100
AcDbEntity
  8
ALL_ASSEMBLY_MEMBERS
100
AcDbLine
 62
7
  6
CONTINUOUS
 10
4.2607375604
 20
4.5009727634
 11
4.2596463883
 21
4.5020430342
  0
SPLINE
  5
363
100
AcDbEntity
  8
ALL_ASSEMBLY_MEMBERS
100
AcDbSpline
 62
7
  6
CONTINUOUS
 70
0
 71
3
 72
20
 73
16
 74
0
 42
0.0000001
 43
0.0000001
 44
0.0000000001
 40
0.0
 40
0.0
 40
0.0
 40
0.0
 40
0.1285524996
 40
0.1883064915
 40
0.2456435222
 40
0.3012092731
 40
0.355735804
 40
0.4100209948
 40
0.4648929782
 40
0.5211420246
 40
0.5794835704
 40
0.7046587412
 40
0.7725556177
 40
0.84431897
 40
1.0
 40
1.0
 40
1.0
 40
1.0
 10
4.2596463883
 20
4.5020430342
 30
0.0
 10
4.2590217066
 20
4.502712876
 30
0.0
 10
4.2581844073
 20
4.5037764736
 30
0.0
 10
4.2573462632
 20
4.5053166399
 30
0.0
 10
4.2568920727
 20
4.506463509
 30
0.0
 10
4.2565995902
 20
4.5076236566
 30
0.0
 10
4.2564708449
 20
4.5087915704
 30
0.0
 10
4.2565078682
 20
4.5099611471
 30
0.0
 10
4.2567115452
 20
4.5111257643
 30
0.0
 10
4.2570798164
 20
4.5122793842
 30
0.0
 10
4.257803969
 20
4.5138309258
 30
0.0
 10
4.2588522566
 20
4.5153039656
 30
0.0
 10
4.2601528413
 20
4.5166729134
 30
0.0
 10
4.261730602
 20
4.5180688374
 30
0.0
 10
4.2630706367
 20
4.5189930058
 30
0.0
 10
4.2640198916
 20
4.5195668213
 30
0.0
  0
LINE
  5
364
100
AcDbEntity
  8
ALL_ASSEMBLY_MEMBERS
100
AcDbLine
 62
7
  6
CONTINUOUS
 10
4.2640198916
 20
4.5195668213
 11
4.2660893237
 21
4.5207057204
  0
LINE
  5
365
100
AcDbEntity
  8
ALL_ASSEMBLY_MEMBERS
100
AcDbLine
 62
7
  6
CONTINUOUS
 10
4.3331761034
 20
4.5045472876
 11
4.3302892922
 21
4.501962714
  0
SPLINE
  5
366
100
AcDbEntity
  8
ALL_ASSEMBLY_MEMBERS
100
AcDbSpline
 62
7
  6
CONTINUOUS
 70
0
 71
3
 72
16
 73
12
 74
0
 42
0.0000001
 43
0.0000001
 44
0.0000000001
 40
0.0
 40
0.0
 40
0.0
 40
0.0
 40
0.1252166148
 40
0.2506777926
 40
0.3758389593
 40
0.50088126
 40
0.6257820572
 40
0.7505217528
 40
0.8130201349
 40
0.8755730648
 40
1.0
 40
1.0
 40
1.0
 40
1.0
 10
3.9991274821
 20
3.7157112993
 30
0.0
 10
3.9990822781
 20
3.7143807055
 30
0.0
 10
3.9992690655
 20
3.7117003388
 30
0.0
 10
4.000333965
 20
3.7078231073
 30
0.0
 10
4.0021428036
 20
3.7042315854
 30
0.0
 10
4.0046278827
 20
3.7010781192
 30
0.0
 10
4.0076831284
 20
3.6984811027
 30
0.0
 10
4.010612034
 20
3.6968691651
 30
0.0
 10
4.0131089635
 20
3.6959520982
 30
0.0
 10
4.0156817448
 20
3.6952935949
 30
0.0
 10
4.0176768657
 20
3.6950892857
 30
0.0
 10
4.0189998309
 20
3.6950892857
 30
0.0
  0
SPLINE
  5
367
100
AcDbEntity
  8
ALL_ASSEMBLY_MEMBERS
100
AcDbSpline
 62
7
  6
CONTINUOUS
 70
0
 71
3
 72
20
 73
16
 74
0
 42
0.0000001
 43
0.0000001
 44
0.0000000001
 40
0.0
 40
0.0
 40
0.0
 40
0.0
 40
0.006221805
 40
0.0144726452
 40
0.0370287872
 40
0.0675363748
 40
0.1057957026
 40
0.1514785884
 40
0.2041994578
 40
0.2635628663
 40
0.3290697222
 40
0.4761951909
 40
0.6407565863
 40
0.8174795234
 40
1.0
 40
1.0
 40
1.0
 40
1.0
 10
3.9991274821
 20
3.7157112993
 30
0.0
 10
3.9991670801
 20
3.7157228277
 30
0.0
 10
3.999260904
 20
3.7157435721
 30
0.0
 10
3.9995032598
 20
3.7157825993
 30
0.0
 10
3.9999078498
 20
3.7158240014
 30
0.0
 10
4.000511731
 20
3.7158659928
 30
0.0
 10
4.001269597
 20
3.7159018485
 30
0.0
 10
4.0021750112
 20
3.7159315216
 30
0.0
 10
4.0032205589
 20
3.715954452
 30
0.0
 10
4.0043976469
 20
3.7159703574
 30
0.0
 10
4.0062005764
 20
3.7159824209
 30
0.0
 10
4.0087008945
 20
3.7159773809
 30
0.0
 10
4.011938231
 20
3.7159432548
 30
0.0
 10
4.0154098161
 20
3.715881533
 30
0.0
 10
4.0177904256
 20
3.7158237866
 30
0.0
 10
4.0189998309
 20
3.7157906085
 30
0.0
  0
SPLINE
  5
368
100
AcDbEntity
  8
ALL_ASSEMBLY_MEMBERS
100
AcDbSpline
 62
7
  6
CONTINUOUS
 70
0
 71
3
 72
20
 73
16
 74
0
 42
0.0000001
 43
0.0000001
 44
0.0000000001
 40
0.0
 40
0.0
 40
0.0
 40
0.0
 40
0.1824734751
 40
0.3591748749
 40
0.5237337237
 40
0.6708695001
 40
0.7363844568
 40
0.7957569451
 40
0.8484872187
 40
0.8941792873
 40
0.9324470382
 40
0.9629618172
 40
0.9855235942
 40
0.9937765699
 40
1.0
 40
1.0
 40
1.0
 40
1.0
 10
4.1659488572
 20
3.7157906085
 30
0.0
 10
4.1671595157
 20
3.7157920892
 30
0.0
 10
4.1695425528
 20
3.7157874318
 30
0.0
 10
4.1730172795
 20
3.715758127
 30
0.0
 10
4.1762572793
 20
3.7157073425
 30
0.0
 10
4.1787592708
 20
3.7156467818
 30
0.0
 10
4.1805631014
 20
3.7155874007
 30
0.0
 10
4.1817406243
 20
3.7155405951
 30
0.0
 10
4.1827863541
 20
3.7154902102
 30
0.0
 10
4.1836916887
 20
3.7154367545
 30
0.0
 10
4.1844492134
 20
3.7153809836
 30
0.0
 10
4.1850524803
 20
3.7153231138
 30
0.0
 10
4.1854563154
 20
3.7152710645
 30
0.0
 10
4.1856978488
 20
3.7152256507
 30
0.0
 10
4.1857912074
 20
3.7152024304
 30
0.0
 10
4.1858305366
 20
3.7151898553
 30
0.0
  0
SPLINE
  5
369
100
AcDbEntity
  8
ALL_ASSEMBLY_MEMBERS
100
AcDbSpline
 62
7
  6
CONTINUOUS
 70
0
 71
3
 72
17
 73
13
 74
0
 42
0.0000001
 43
0.0000001
 44
0.0000000001
 40
0.0
 40
0.0
 40
0.0
 40
0.0
 40
0.125297122
 40
0.1881630557
 40
0.250975931
 40
0.3762723327
 40
0.5014154883
 40
0.6263436684
 40
0.7510261752
 40
0.8134107623
 40
0.8757873947
 40
1.0
 40
1.0
 40
1.0
 40
1.0
 10
4.2162158385
 20
4.1844332444
 30
0.0
 10
4.2144208609
 20
4.1844264008
 30
0.0
 10
4.2117172035
 20
4.1841495066
 30
0.0
 10
4.2082262401
 20
4.1832724008
 30
0.0
 10
4.2048365865
 20
4.1820581009
 30
0.0
 10
4.2008493461
 20
4.1799324236
 30
0.0
 10
4.1966606927
 20
4.1765068009
 30
0.0
 10
4.1932176733
 20
4.1723436276
 30
0.0
 10
4.1910839358
 20
4.1683805397
 30
0.0
 10
4.1898698072
 20
4.1650139906
 30
0.0
 10
4.1889973023
 20
4.1615513627
 30
0.0
 10
4.1887272295
 20
4.1588690833
 30
0.0
 10
4.1887267205
 20
4.1570896294
 30
0.0
  0
SPLINE
  5
36A
100
AcDbEntity
  8
ALL_ASSEMBLY_MEMBERS
100
AcDbSpline
 62
7
  6
CONTINUOUS
 70
0
 71
3
 72
16
 73
12
 74
0
 42
0.0000001
 43
0.0000001
 44
0.0000000001
 40
0.0
 40
0.0
 40
0.0
 40
0.0
 40
0.156443482
 40
0.3052685804
 40
0.4447666547
 40
0.5741750288
 40
0.6933497007
 40
0.8028674439
 40
0.9041794572
 40
0.95259715
 40
1.0
 40
1.0
 40
1.0
 40
1.0
 10
4.3127139276
 20
4.5327622632
 30
0.0
 10
4.3143672506
 20
4.5322827212
 30
0.0
 10
4.3175594997
 20
4.5312237082
 30
0.0
 10
4.3220641686
 20
4.5292942428
 30
0.0
 10
4.3261016438
 20
4.5270798193
 30
0.0
 10
4.3296024908
 20
4.5246163219
 30
0.0
 10
4.3325070596
 20
4.5219332701
 30
0.0
 10
4.3347677678
 20
4.5190696511
 30
0.0
 10
4.3360924215
 20
4.5165181383
 30
0.0
 10
4.3367628335
 20
4.5144511164
 30
0.0
 10
4.3369721857
 20
4.5134147538
 30
0.0
 10
4.3370446359
 20
4.5128982011
 30
0.0
  0
LINE
  5
36B
100
AcDbEntity
  8
ALL_ASSEMBLY_MEMBERS
100
AcDbLine
 62
7
  6
CONTINUOUS
 10
4.0115675438
 20
4.1733928655
 11
4.0073084231
 21
4.1542700428
  0
SPLINE
  5
36C
100
AcDbEntity
  8
ALL_ASSEMBLY_MEMBERS
100
AcDbSpline
 62
7
  6
CONTINUOUS
 70
0
 71
3
 72
18
 73
14
 74
0
 42
0.0000001
 43
0.0000001
 44
0.0000000001
 40
0.0
 40
0.0
 40
0.0
 40
0.0
 40
0.163728737
 40
0.3177773084
 40
0.4600981165
 40
0.5898186976
 40
0.6499458886
 40
0.7069889177
 40
0.8123885409
 40
0.8615037379
 40
0.9087656016
 40
0.9547204483
 40
1.0
 40
1.0
 40
1.0
 40
1.0
 10
4.3127139276
 20
4.5327622632
 30
0.0
 10
4.3144805739
 20
4.5323488009
 30
0.0
 10
4.3178793912
 20
4.5314087316
 30
0.0
 10
4.3226592149
 20
4.5296117385
 30
0.0
 10
4.3268899349
 20
4.5274938
 30
0.0
 10
4.3299650826
 20
4.5254474461
 30
0.0
 10
4.3320541774
 20
4.523675879
 30
0.0
 10
4.3337964616
 20
4.5219278951
 30
0.0
 10
4.3352221804
 20
4.5200410273
 30
0.0
 10
4.3362384766
 20
4.5180439164
 30
0.0
 10
4.3367750005
 20
4.5165558476
 30
0.0
 10
4.3370987933
 20
4.5150509059
 30
0.0
 10
4.3371708429
 20
4.5140384287
 30
0.0
 10
4.3371708279
 20
4.5135366566
 30
0.0
  0
SPLINE
  5
36D
100
AcDbEntity
  8
ALL_ASSEMBLY_MEMBERS
100
AcDbSpline
 62
7
  6
CONTINUOUS
 70
0
 71
3
 72
15
 73
11
 74
0
 42
0.0000001
 43
0.0000001
 44
0.0000000001
 40
0.0
 40
0.0
 40
0.0
 40
0.0
 40
0.1048578078
 40
0.2129072137
 40
0.3262500766
 40
0.4462683821
 40
0.5737000081
 40
0.708779124
 40
0.8512002929
 40
1.0
 40
1.0
 40
1.0
 40
1.0
 10
4.330947261
 20
4.5124079461
 30
0.0
 10
4.3308840754
 20
4.5134057871
 30
0.0
 10
4.3305476754
 20
4.5154237234
 30
0.0
 10
4.3294561677
 20
4.5183542153
 30
0.0
 10
4.3278065916
 20
4.5211772555
 30
0.0
 10
4.325642119
 20
4.5238652563
 30
0.0
 10
4.3230016741
 20
4.5263941892
 30
0.0
 10
4.3199298908
 20
4.5287447705
 30
0.0
 10
4.3164746744
 20
4.5308958615
 30
0.0
 10
4.3139999363
 20
4.5321628702
 30
0.0
 10
4.3127139276
 20
4.5327622632
 30
0.0
  0
SPLINE
  5
36E
100
AcDbEntity
  8
ALL_ASSEMBLY_MEMBERS
100
AcDbSpline
 62
7
  6
CONTINUOUS
 70
0
 71
3
 72
35
 73
31
 74
0
 42
0.0000001
 43
0.0000001
 44
0.0000000001
 40
0.0
 40
0.0
 40
0.0
 40
0.0
 40
0.2264596151
 40
0.329930249
 40
0.4265943571
 40
0.5162367969
 40
0.5986955454
 40
0.673824638
 40
0.7414776753
 40
0.8015128999
 40
0.8538149872
 40
0.8770327695
 40
0.8982772398
 40
0.9175350334
 40
0.9347927756
 40
0.9500380803
 40
0.9632645951
 40
0.9744682279
 40
0.9836448894
 40
0.9874718276
 40
0.990790489
 40
0.993600362
 40
0.9959009351
 40
0.9976916967
 40
0.9983957384
 40
0.9989721353
 40
0.9994208235
 40
0.9997417392
 40
0.9999348187
 40
1.0
 40
1.0
 40
1.0
 40
1.0
 10
3.9892994319
 20
4.2209441325
 30
0.0
 10
3.9886418735
 20
4.2180349452
 30
0.0
 10
3.9876646512
 20
4.213800843
 30
0.0
 10
3.9863649755
 20
4.2083347823
 30
0.0
 10
3.9854672946
 20
4.2046253497
 30
0.0
 10
3.9846220679
 20
4.2011879751
 30
0.0
 10
3.9838336611
 20
4.1980287246
 30
0.0
 10
3.9831061907
 20
4.1951527765
 30
0.0
 10
3.9824436803
 20
4.1925650392
 30
0.0
 10
3.9818501334
 20
4.1902699928
 30
0.0
 10
3.9813992476
 20
4.1885425436
 30
0.0
 10
3.9810754497
 20
4.1873099338
 30
0.0
 10
3.9808614758
 20
4.1864984485
 30
0.0
 10
3.980666912
 20
4.1857630248
 30
0.0
 10
3.9804921002
 20
4.1851041057
 30
0.0
 10
3.9803373767
 20
4.18452204
 30
0.0
 10
3.9802029077
 20
4.1840170945
 30
0.0
 10
3.9800888056
 20
4.1835894376
 30
0.0
 10
3.9800064685
 20
4.1832814331
 30
0.0
 10
3.9799508672
 20
4.1830737763
 30
0.0
 10
3.9799169181
 20
4.18294713
 30
0.0
 10
3.9798881484
 20
4.1828399061
 30
0.0
 10
3.9798645507
 20
4.1827521346
 30
0.0
 10
3.9798481651
 20
4.1826911312
 30
0.0
 10
3.9798375985
 20
4.1826520999
 30
0.0
 10
3.9798317487
 20
4.1826300627
 30
0.0
 10
3.9798269058
 20
4.1826130797
 30
0.0
 10
3.97982408
 20
4.1826005473
 30
0.0
 10
3.9798212116
 20
4.1825937065
 30
0.0
 10
3.9798212101
 20
4.1825898856
 30
0.0
 10
3.979820596
 20
4.1825892857
 30
0.0
  0
SPLINE
  5
36F
100
AcDbEntity
  8
ALL_ASSEMBLY_MEMBERS
100
AcDbSpline
 62
7
  6
CONTINUOUS
 70
0
 71
3
 72
32
 73
28
 74
0
 42
0.0000001
 43
0.0000001
 44
0.0000000001
 40
0.0
 40
0.0
 40
0.0
 40
0.0
 40
0.0851006932
 40
0.1691939736
 40
0.2509509252
 40
0.3292814824
 40
0.4032220348
 40
0.4718118792
 40
0.5038543512
 40
0.5342790549
 40
0.5630267671
 40
0.5900851526
 40
0.6155019743
 40
0.6393853981
 40
0.6619332804
 40
0.6834616243
 40
0.7043937881
 40
0.7252118716
 40
0.7464311059
 40
0.76853266
 40
0.7918739217
 40
0.8167076096
 40
0.8431923144
 40
0.871376348
 40
0.9012337608
 40
0.9326925982
 40
1.0
 40
1.0
 40
1.0
 40
1.0
 10
4.2947158385
 20
4.5338748075
 30
0.0
 10
4.29265222
 20
4.5338748075
 30
0.0
 10
4.2885491166
 20
4.5338141145
 30
0.0
 10
4.2824692286
 20
4.5335330716
 30
0.0
 10
4.2765660376
 20
4.5330542355
 30
0.0
 10
4.2709320244
 20
4.5323556753
 30
0.0
 10
4.2656565152
 20
4.5314161963
 30
0.0
 10
4.2615449039
 20
4.5303860214
 30
0.0
 10
4.2585251566
 20
4.529391289
 30
0.0
 10
4.2564652784
 20
4.5285816997
 30
0.0
 10
4.2545726283
 20
4.5276884805
 30
0.0
 10
4.252861556
 20
4.52670804
 30
0.0
 10
4.2513471997
 20
4.5256368284
 30
0.0
 10
4.2500433872
 20
4.5244747608
 30
0.0
 10
4.2489644544
 20
4.5232216665
 30
0.0
 10
4.2481280916
 20
4.5218771257
 30
0.0
 10
4.2475478316
 20
4.5204481455
 30
0.0
 10
4.2472310966
 20
4.5189460215
 30
0.0
 10
4.247186187
 20
4.5173833445
 30
0.0
 10
4.24741318
 20
4.515775939
 30
0.0
 10
4.2479014181
 20
4.5141374545
 30
0.0
 10
4.2486434597
 20
4.5124810517
 30
0.0
 10
4.249630525
 20
4.5108207963
 30
0.0
 10
4.2508479023
 20
4.5091682807
 30
0.0
 10
4.2522818721
 20
4.5075359168
 30
0.0
 10
4.2545148506
 20
4.5053551493
 30
0.0
 10
4.2563993845
 20
4.5038635736
 30
0.0
 10
4.2577319922
 20
4.5029212049
 30
0.0
  0
SPLINE
  5
370
100
AcDbEntity
  8
ALL_ASSEMBLY_MEMBERS
100
AcDbSpline
 62
7
  6
CONTINUOUS
 70
0
 71
3
 72
9
 73
5
 74
0
 42
0.0000001
 43
0.0000001
 44
0.0000000001
 40
0.0
 40
0.0
 40
0.0
 40
0.0
 40
0.4762128285
 40
1.0
 40
1.0
 40
1.0
 40
1.0
 10
4.2577870754
 20
4.5136919942
 30
0.0
 10
4.2586832526
 20
4.514389661
 30
0.0
 10
4.2606745866
 20
4.5157160169
 30
0.0
 10
4.2628029828
 20
4.5168023243
 30
0.0
 10
4.2639411159
 20
4.5173172215
 30
0.0
  0
SPLINE
  5
371
100
AcDbEntity
  8
ALL_ASSEMBLY_MEMBERS
100
AcDbSpline
 62
7
  6
CONTINUOUS
 70
0
 71
3
 72
14
 73
10
 74
0
 42
0.0000001
 43
0.0000001
 44
0.0000000001
 40
0.0
 40
0.0
 40
0.0
 40
0.0
 40
0.2198973051
 40
0.4564869608
 40
0.5822665236
 40
0.6473645815
 40
0.7141020369
 40
0.8532016232
 40
1.0
 40
1.0
 40
1.0
 40
1.0
 10
4.2083198226
 20
4.2209446595
 30
0.0
 10
4.206506065
 20
4.2188347861
 30
0.0
 10
4.2028687068
 20
4.2143436719
 30
0.0
 10
4.1985674692
 20
4.2083563033
 30
0.0
 10
4.1956337208
 20
4.2038109872
 30
0.0
 10
4.1939493195
 20
4.2010201053
 30
0.0
 10
4.1922428474
 20
4.1980466229
 30
0.0
 10
4.1901741991
 20
4.1940908098
 30
0.0
 10
4.1887082856
 20
4.1907790594
 30
0.0
 10
4.1880308503
 20
4.1890495931
 30
0.0
  0
SPLINE
  5
372
100
AcDbEntity
  8
ALL_ASSEMBLY_MEMBERS
100
AcDbSpline
 62
7
  6
CONTINUOUS
 70
0
 71
3
 72
15
 73
11
 74
0
 42
0.0000001
 43
0.0000001
 44
0.0000000001
 40
0.0
 40
0.0
 40
0.0
 40
0.0
 40
0.2408283807
 40
0.363687073
 40
0.4880761826
 40
0.6139853454
 40
0.6775126556
 40
0.7414129747
 40
0.8702780029
 40
1.0
 40
1.0
 40
1.0
 40
1.0
 10
4.208318511
 20
4.2209441325
 30
0.0
 10
4.2049104107
 20
4.2197879171
 30
0.0
 10
4.1998377849
 20
4.2178105054
 30
0.0
 10
4.1932366922
 20
4.214703563
 30
0.0
 10
4.188317345
 20
4.212071618
 30
0.0
 10
4.1843146252
 20
4.2096213802
 30
0.0
 10
4.1811900922
 20
4.2074823615
 30
0.0
 10
4.1781125173
 20
4.2052011784
 30
0.0
 10
4.1744316009
 20
4.2020798138
 30
0.0
 10
4.1717713814
 20
4.1992589092
 30
0.0
 10
4.1705499129
 20
4.1977536051
 30
0.0
  0
SPLINE
  5
373
100
AcDbEntity
  8
ALL_ASSEMBLY_MEMBERS
100
AcDbSpline
 62
7
  6
CONTINUOUS
 70
0
 71
3
 72
9
 73
5
 74
0
 42
0.0000001
 43
0.0000001
 44
0.0000000001
 40
0.0
 40
0.0
 40
0.0
 40
0.0
 40
0.4999957103
 40
1.0
 40
1.0
 40
1.0
 40
1.0
 10
4.1880305491
 20
4.189049731
 30
0.0
 10
4.1871029906
 20
4.1866817613
 30
0.0
 10
4.1857376967
 20
4.181741963
 30
0.0
 10
4.1853501903
 20
4.1766356833
 30
0.0
 10
4.1854005827
 20
4.1740929823
 30
0.0
  0
SPLINE
  5
374
100
AcDbEntity
  8
ALL_ASSEMBLY_MEMBERS
100
AcDbSpline
 62
7
  6
CONTINUOUS
 70
0
 71
3
 72
9
 73
5
 74
0
 42
0.0000001
 43
0.0000001
 44
0.0000000001
 40
0.0
 40
0.0
 40
0.0
 40
0.0
 40
0.4999933132
 40
1.0
 40
1.0
 40
1.0
 40
1.0
 10
4.1705499129
 20
4.1977536051
 30
0.0
 10
4.1688716579
 20
4.1941734758
 30
0.0
 10
4.1663177735
 20
4.1866112756
 30
0.0
 10
4.1654671051
 20
4.1786794832
 30
0.0
 10
4.1654692418
 20
4.1747254097
 30
0.0
  0
SPLINE
  5
375
100
AcDbEntity
  8
ALL_ASSEMBLY_MEMBERS
100
AcDbSpline
 62
7
  6
CONTINUOUS
 70
0
 71
3
 72
15
 73
11
 74
0
 42
0.0000001
 43
0.0000001
 44
0.0000000001
 40
0.0
 40
0.0
 40
0.0
 40
0.0
 40
0.0263797833
 40
0.0591688645
 40
0.142945477
 40
0.2490817522
 40
0.3746459565
 40
0.5164222025
 40
0.6707459328
 40
1.0
 40
1.0
 40
1.0
 40
1.0
 10
4.1880305491
 20
4.189049731
 30
0.0
 10
4.1878840059
 20
4.1891393067
 30
0.0
 10
4.1875517051
 20
4.1893342999
 30
0.0
 10
4.1867400603
 20
4.1897897613
 30
0.0
 10
4.1854609285
 20
4.1904728215
 30
0.0
 10
4.1836351728
 20
4.1914138774
 30
0.0
 10
4.1814623992
 20
4.1925056523
 30
0.0
 10
4.178999766
 20
4.1937191068
 30
0.0
 10
4.1753360333
 20
4.1954951897
 30
0.0
 10
4.1724912819
 20
4.1968444938
 30
0.0
 10
4.1705499129
 20
4.1977536041
 30
0.0
  0
LINE
  5
376
100
AcDbEntity
  8
ALL_ASSEMBLY_MEMBERS
100
AcDbLine
 62
7
  6
CONTINUOUS
 10
4.1654692418
 20
4.1747254097
 11
4.165948674
 21
3.7157906085
  0
SPLINE
  5
377
100
AcDbEntity
  8
ALL_ASSEMBLY_MEMBERS
100
AcDbSpline
 62
7
  6
CONTINUOUS
 70
0
 71
3
 72
21
 73
17
 74
0
 42
0.0000001
 43
0.0000001
 44
0.0000000001
 40
0.0
 40
0.0
 40
0.0
 40
0.0
 40
0.0051936572
 40
0.0124671173
 40
0.0218305065
 40
0.0332745392
 40
0.0623337046
 40
0.0994645507
 40
0.1443382005
 40
0.1965611452
 40
0.2557288526
 40
0.3213252347
 40
0.4693930089
 40
0.6357397964
 40
0.8148376171
 40
1.0
 40
1.0
 40
1.0
 40
1.0
 10
4.1854004593
 20
4.1740929824
 30
0.0
 10
4.1853686161
 20
4.174106389
 30
0.0
 10
4.1852888827
 20
4.1741303402
 30
0.0
 10
4.185147025
 20
4.1741613354
 30
0.0
 10
4.1849627328
 20
4.1741923905
 30
0.0
 10
4.1846340496
 20
4.1742373833
 30
0.0
 10
4.1841201504
 20
4.1742899778
 30
0.0
 10
4.1833835572
 20
4.1743478233
 30
0.0
 10
4.1824923081
 20
4.1744032851
 30
0.0
 10
4.1814540903
 20
4.1744558858
 30
0.0
 10
4.1802777071
 20
4.174504937
 30
0.0
 10
4.1784637855
 20
4.1745675873
 30
0.0
 10
4.1759365618
 20
4.1746319329
 30
0.0
 10
4.1726539372
 20
4.1746867295
 30
0.0
 10
4.1691242417
 20
4.1747195377
 30
0.0
 10
4.1667010193
 20
4.1747260748
 30
0.0
 10
4.1654692418
 20
4.1747254096
 30
0.0
  0
LINE
  5
378
100
AcDbEntity
  8
ALL_ASSEMBLY_MEMBERS
100
AcDbLine
 62
7
  6
CONTINUOUS
 10
4.1854004593
 20
4.1740929824
 11
4.1858302737
 21
3.7151898547
  0
SPLINE
  5
379
100
AcDbEntity
  8
ALL_ASSEMBLY_MEMBERS
100
AcDbSpline
 62
7
  6
CONTINUOUS
 70
0
 71
3
 72
15
 73
11
 74
0
 42
0.0000001
 43
0.0000001
 44
0.0000000001
 40
0.0
 40
0.0
 40
0.0
 40
0.0
 40
0.2405534159
 40
0.3633621984
 40
0.4877505818
 40
0.6137030163
 40
0.6772652526
 40
0.7412082958
 40
0.8701703736
 40
1.0
 40
1.0
 40
1.0
 40
1.0
 10
3.98930069
 20
4.2209441325
 30
0.0
 10
3.9926636541
 20
4.219783492
 30
0.0
 10
3.9976678863
 20
4.2177985568
 30
0.0
 10
4.0041765659
 20
4.2146840169
 30
0.0
 10
4.0090275069
 20
4.2120469215
 30
0.0
 10
4.0129732347
 20
4.2095944977
 30
0.0
 10
4.0160522533
 20
4.2074552844
 30
0.0
 10
4.0190845572
 20
4.2051753495
 30
0.0
 10
4.0227096466
 20
4.2020598747
 30
0.0
 10
4.0253278973
 20
4.1992507239
 30
0.0
 10
4.0265301336
 20
4.1977536051
 30
0.0
  0
SPLINE
  5
37A
100
AcDbEntity
  8
ALL_ASSEMBLY_MEMBERS
100
AcDbSpline
 62
7
  6
CONTINUOUS
 70
0
 71
3
 72
14
 73
10
 74
0
 42
0.0000001
 43
0.0000001
 44
0.0000000001
 40
0.0
 40
0.0
 40
0.0
 40
0.0
 40
0.2193261673
 40
0.4558284056
 40
0.5817104429
 40
0.6468881546
 40
0.7137187944
 40
0.8530188371
 40
1.0
 40
1.0
 40
1.0
 40
1.0
 10
3.9892994386
 20
4.2209446436
 30
0.0
 10
3.9910678488
 20
4.2188409245
 30
0.0
 10
3.9946144884
 20
4.2143592782
 30
0.0
 10
3.998802168
 20
4.208387355
 30
0.0
 10
4.0016595852
 20
4.2038540374
 30
0.0
 10
4.0033008704
 20
4.2010701291
 30
0.0
 10
4.0049638869
 20
4.1981047403
 30
0.0
 10
4.0069795571
 20
4.1941635078
 30
0.0
 10
4.008408596
 20
4.1908688247
 30
0.0
 10
4.0090694995
 20
4.1891497513
 30
0.0
  0
SPLINE
  5
37B
100
AcDbEntity
  8
ALL_ASSEMBLY_MEMBERS
100
AcDbSpline
 62
7
  6
CONTINUOUS
 70
0
 71
3
 72
9
 73
5
 74
0
 42
0.0000001
 43
0.0000001
 44
0.0000000001
 40
0.0
 40
0.0
 40
0.0
 40
0.0
 40
0.4999968506
 40
1.0
 40
1.0
 40
1.0
 40
1.0
 10
4.0265301336
 20
4.1977536051
 30
0.0
 10
4.0282780219
 20
4.1939863635
 30
0.0
 10
4.0308838133
 20
4.1860092893
 30
0.0
 10
4.0316014994
 20
4.1776539596
 30
0.0
 10
4.0314899704
 20
4.1735024275
 30
0.0
  0
SPLINE
  5
37C
100
AcDbEntity
  8
ALL_ASSEMBLY_MEMBERS
100
AcDbSpline
 62
7
  6
CONTINUOUS
 70
0
 71
3
 72
9
 73
5
 74
0
 42
0.0000001
 43
0.0000001
 44
0.0000000001
 40
0.0
 40
0.0
 40
0.0
 40
0.0
 40
0.5000449705
 40
1.0
 40
1.0
 40
1.0
 40
1.0
 10
4.0090696197
 20
4.1891498057
 30
0.0
 10
4.010028861
 20
4.1866545731
 30
0.0
 10
4.0114011896
 20
4.1814409293
 30
0.0
 10
4.0116904309
 20
4.1760628201
 30
0.0
 10
4.011567071
 20
4.1733928872
 30
0.0
  0
SPLINE
  5
37D
100
AcDbEntity
  8
ALL_ASSEMBLY_MEMBERS
100
AcDbSpline
 62
7
  6
CONTINUOUS
 70
0
 71
3
 72
15
 73
11
 74
0
 42
0.0000001
 43
0.0000001
 44
0.0000000001
 40
0.0
 40
0.0
 40
0.0
 40
0.0
 40
0.3276642625
 40
0.4814127611
 40
0.622874715
 40
0.7484544052
 40
0.8549881978
 40
0.9395840876
 40
0.9729435042
 40
1.0
 40
1.0
 40
1.0
 40
1.0
 10
4.0265301336
 20
4.1977535997
 30
0.0
 10
4.0246008105
 20
4.196859346
 30
0.0
 10
4.0217726104
 20
4.1955315578
 30
0.0
 10
4.0181280522
 20
4.1937828203
 30
0.0
 10
4.0156734988
 20
4.1925857752
 30
0.0
 10
4.0135025886
 20
4.1915062874
 30
0.0
 10
4.0116714723
 20
4.1905725965
 30
0.0
 10
4.0103829909
 20
4.1898923507
 30
0.0
 10
4.0095596815
 20
4.1894364053
 30
0.0
 10
4.0092201661
 20
4.189240186
 30
0.0
 10
4.0090696197
 20
4.1891498057
 30
0.0
  0
LINE
  5
37E
100
AcDbEntity
  8
ALL_ASSEMBLY_MEMBERS
100
AcDbLine
 62
7
  6
CONTINUOUS
 10
4.0115674297
 20
4.1733928771
 11
3.9991277454
 21
3.7157112918
  0
SPLINE
  5
37F
100
AcDbEntity
  8
ALL_ASSEMBLY_MEMBERS
100
AcDbSpline
 62
7
  6
CONTINUOUS
 70
0
 71
3
 72
21
 73
17
 74
0
 42
0.0000001
 43
0.0000001
 44
0.0000000001
 40
0.0
 40
0.0
 40
0.0
 40
0.0
 40
0.1852041651
 40
0.3643181945
 40
0.5306631126
 40
0.6787179223
 40
0.7443057572
 40
0.8034646323
 40
0.8556791732
 40
0.9005454256
 40
0.937670449
 40
0.9667258437
 40
0.978168848
 40
0.987531819
 40
0.9948054937
 40
1.0
 40
1.0
 40
1.0
 40
1.0
 10
4.0314899704
 20
4.1735024274
 30
0.0
 10
4.0302594927
 20
4.1735353469
 30
0.0
 10
4.0278387829
 20
4.173592275
 30
0.0
 10
4.0243123261
 20
4.1736519487
 30
0.0
 10
4.0210324153
 20
4.1736831964
 30
0.0
 10
4.018506863
 20
4.1736851283
 30
0.0
 10
4.0166937998
 20
4.1736700734
 30
0.0
 10
4.0155177934
 20
4.1736519023
 30
0.0
 10
4.0144796765
 20
4.1736265688
 30
0.0
 10
4.0135882473
 20
4.1735945293
 30
0.0
 10
4.0128511846
 20
4.1735560591
 30
0.0
 10
4.0123366291
 20
4.1735169997
 30
0.0
 10
4.0120072179
 20
4.1734806802
 30
0.0
 10
4.0118223535
 20
4.1734544956
 30
0.0
 10
4.0116798584
 20
4.173427259
 30
0.0
 10
4.011599591
 20
4.1734054297
 30
0.0
 10
4.0115674297
 20
4.1733928771
 30
0.0
  0
LINE
  5
380
100
AcDbEntity
  8
ALL_ASSEMBLY_MEMBERS
100
AcDbLine
 62
7
  6
CONTINUOUS
 10
4.0314899704
 20
4.1735024275
 11
4.0190000144
 21
3.7157906085
  0
LINE
  5
381
100
AcDbEntity
  8
ALL_ASSEMBLY_MEMBERS
100
AcDbLine
 62
7
  6
CONTINUOUS
 10
4.3316996847
 20
4.5029212049
 11
4.3345948801
 21
4.5051640457
  0
LINE
  5
382
100
AcDbEntity
  8
ALL_ASSEMBLY_MEMBERS
100
AcDbLine
 62
7
  6
CONTINUOUS
 10
4.3345948801
 20
4.5051640457
 11
4.3366477511
 21
4.5070599248
  0
SPLINE
  5
383
100
AcDbEntity
  8
ALL_ASSEMBLY_MEMBERS
100
AcDbSpline
 62
7
  6
CONTINUOUS
 70
0
 71
3
 72
9
 73
5
 74
0
 42
0.0000001
 43
0.0000001
 44
0.0000000001
 40
0.0
 40
0.0
 40
0.0
 40
0.0
 40
0.5162848163
 40
1.0
 40
1.0
 40
1.0
 40
1.0
 10
4.3366477511
 20
4.5070599248
 30
0.0
 10
4.3372417248
 20
4.5076574903
 30
0.0
 10
4.338345424
 20
4.5088627841
 30
0.0
 10
4.3393287806
 20
4.5101695372
 30
0.0
 10
4.3397659086
 20
4.5108268555
 30
0.0
  0
SPLINE
  5
384
100
AcDbEntity
  8
ALL_ASSEMBLY_MEMBERS
100
AcDbSpline
 62
7
  6
CONTINUOUS
 70
0
 71
3
 72
28
 73
24
 74
0
 42
0.0000001
 43
0.0000001
 44
0.0000000001
 40
0.0
 40
0.0
 40
0.0
 40
0.0
 40
0.0519087088
 40
0.0758686888
 40
0.0986643086
 40
0.1205052976
 40
0.1416700112
 40
0.1625129877
 40
0.1834033418
 40
0.2046918489
 40
0.226698399
 40
0.2496931038
 40
0.2738709684
 40
0.3261883402
 40
0.384184553
 40
0.447759052
 40
0.5164790878
 40
0.5526011133
 40
0.5897838932
 40
0.6669725704
 40
0.7473706189
 40
0.8302651056
 40
1.0
 40
1.0
 40
1.0
 40
1.0
 10
4.3397659086
 20
4.5108268555
 30
0.0
 10
4.340354141
 20
4.5117113923
 30
0.0
 10
4.3411166167
 20
4.5130784481
 30
0.0
 10
4.3418011432
 20
4.5149818012
 30
0.0
 10
4.3421174615
 20
4.5163533237
 30
0.0
 10
4.342245498
 20
4.5176981278
 30
0.0
 10
4.3421795645
 20
4.5190079304
 30
0.0
 10
4.3419216068
 20
4.5202739769
 30
0.0
 10
4.3414760566
 20
4.5214893133
 30
0.0
 10
4.3408474279
 20
4.5226476799
 30
0.0
 10
4.3400408717
 20
4.5237431949
 30
0.0
 10
4.3390667594
 20
4.5247747395
 30
0.0
 10
4.3375161908
 20
4.5260992047
 30
0.0
 10
4.3351782325
 20
4.5275775011
 30
0.0
 10
4.3319310036
 20
4.529050783
 30
0.0
 10
4.3282345351
 20
4.5302922414
 30
0.0
 10
4.3248892899
 20
4.5311328797
 30
0.0
 10
4.3220415209
 20
4.5317151653
 30
0.0
 10
4.3190083299
 20
4.5322505259
 30
0.0
 10
4.3150593843
 20
4.5328014
 30
0.0
 10
4.310161492
 20
4.5332908109
 30
0.0
 10
4.3033608543
 20
4.533747502
 30
0.0
 10
4.2981893347
 20
4.5338748075
 30
0.0
 10
4.2947158385
 20
4.5338748075
 30
0.0
  0
SPLINE
  5
385
100
AcDbEntity
  8
ALL_ASSEMBLY_MEMBERS
100
AcDbSpline
 62
7
  6
CONTINUOUS
 70
0
 71
3
 72
17
 73
13
 74
0
 42
0.0000001
 43
0.0000001
 44
0.0000000001
 40
0.0
 40
0.0
 40
0.0
 40
0.0
 40
0.125219165
 40
0.1880235525
 40
0.2507652007
 40
0.3759111498
 40
0.5009351929
 40
0.6258167682
 40
0.7505563727
 40
0.8130150365
 40
0.8754964895
 40
1.0
 40
1.0
 40
1.0
 40
1.0
 10
4.1858305366
 20
3.7151898553
 30
0.0
 10
4.1858371795
 20
3.7138799704
 30
0.0
 10
4.185651461
 20
3.7119053672
 30
0.0
 10
4.1850297659
 20
3.70935381
 30
0.0
 10
4.1841598049
 20
3.7068758062
 30
0.0
 10
4.1826240978
 20
3.7039591887
 30
0.0
 10
4.1801352801
 20
3.7008941201
 30
0.0
 10
4.1771011426
 20
3.6983742066
 30
0.0
 10
4.1742076864
 20
3.6968129975
 30
0.0
 10
4.1717473609
 20
3.6959247518
 30
0.0
 10
4.1692141462
 20
3.6952863532
 30
0.0
 10
4.1672512725
 20
3.6950892857
 30
0.0
 10
4.1659488572
 20
3.6950892857
 30
0.0
  0
SPLINE
  5
386
100
AcDbEntity
  8
ALL_ASSEMBLY_MEMBERS
100
AcDbSpline
 62
7
  6
CONTINUOUS
 70
0
 71
3
 72
15
 73
11
 74
0
 42
0.0000001
 43
0.0000001
 44
0.0000000001
 40
0.0
 40
0.0
 40
0.0
 40
0.0
 40
0.0414430635
 40
0.1545441062
 40
0.3155765629
 40
0.4999965755
 40
0.6844174857
 40
0.8454505293
 40
0.9585535984
 40
1.0
 40
1.0
 40
1.0
 40
1.0
 10
4.8447158385
 20
4.8675892857
 30
0.0
 10
4.8423168797
 20
4.867222616
 30
0.0
 10
4.8333628137
 20
4.8659077354
 30
0.0
 10
4.8150207743
 20
4.8636288476
 30
0.0
 10
4.7882493994
 20
4.8614108126
 30
0.0
 10
4.7572163878
 20
4.8605086402
 30
0.0
 10
4.7261833396
 20
4.8614107465
 30
0.0
 10
4.6994117556
 20
4.8636287512
 30
0.0
 10
4.6810693678
 20
4.8659076627
 30
0.0
 10
4.6721149905
 20
4.8672225862
 30
0.0
 10
4.6697158385
 20
4.8675892857
 30
0.0
  0
ELLIPSE
  5
387
100
AcDbEntity
  8
ALL_ASSEMBLY_MEMBERS
100
AcDbEllipse
 62
7
  6
CONTINUOUS
 10
5.1479491141
 20
4.3825892857
 30
0.0
 11
-0.0
 21
0.48475
 31
0.0
 40
0.2210555332
 41
6.3004893413
 42
6.3175170955
  0
ELLIPSE
  5
388
100
AcDbEntity
  8
ALL_ASSEMBLY_MEMBERS
100
AcDbEllipse
 62
7
  6
CONTINUOUS
 10
5.1527699031
 20
4.3825892857
 30
0.0
 11
0.0
 21
0.48475
 31
0.0
 40
0.7957997678
 41
6.2863035852
 42
6.3004893413
  0
ELLIPSE
  5
389
100
AcDbEntity
  8
ALL_ASSEMBLY_MEMBERS
100
AcDbEllipse
 62
7
  6
CONTINUOUS
 10
5.2215003573
 20
4.3825892857
 30
0.0
 11
0.0
 21
0.48475
 31
0.0
 40
0.7957996981
 41
-0.0173040341
 42
-0.0031182781
  0
ELLIPSE
  5
38A
100
AcDbEntity
  8
ALL_ASSEMBLY_MEMBERS
100
AcDbEllipse
 62
7
  6
CONTINUOUS
 10
5.2263211459
 20
4.3825892857
 30
0.0
 11
0.0
 21
0.48475
 31
0.0
 40
0.2210555139
 41
-0.0343317884
 42
-0.0173040341
  0
ELLIPSE
  5
38B
100
AcDbEntity
  8
ALL_ASSEMBLY_MEMBERS
100
AcDbEllipse
 62
7
  6
CONTINUOUS
 10
5.3057038417
 20
4.3825892857
 30
0.0
 11
3.2147129739
 21
0.0
 31
0.0
 40
0.1507910672
 41
1.6102429677
 42
1.6130823074
  0
ELLIPSE
  5
38C
100
AcDbEntity
  8
ALL_ASSEMBLY_MEMBERS
100
AcDbEllipse
 62
7
  6
CONTINUOUS
 10
5.2513446393
 20
4.3825892857
 30
0.0
 11
1.9288162072
 21
-0.0
 31
0.0
 40
0.2513199538
 41
1.6130823074
 42
1.6159220045
  0
ELLIPSE
  5
38D
100
AcDbEntity
  8
ALL_ASSEMBLY_MEMBERS
100
AcDbEllipse
 62
7
  6
CONTINUOUS
 10
5.222341615
 20
4.3825892857
 30
0.0
 11
1.2858813755
 21
0.0
 31
0.0
 40
0.3769787861
 41
1.6159220045
 42
1.621602498
  0
ELLIPSE
  5
38E
100
AcDbEntity
  8
ALL_ASSEMBLY_MEMBERS
100
AcDbEllipse
 62
7
  6
CONTINUOUS
 10
5.1896902784
 20
4.3825892857
 30
0.0
 11
0.6429400371
 21
0.0
 31
0.0
 40
0.7539583352
 41
1.621602498
 42
1.6301263818
  0
ELLIPSE
  5
38F
100
AcDbEntity
  8
ALL_ASSEMBLY_MEMBERS
100
AcDbEllipse
 62
7
  6
CONTINUOUS
 10
5.1744409433
 20
4.3825892857
 30
0.0
 11
0.0
 21
0.48475
 31
0.0
 40
0.7957993124
 41
0.059330055
 42
0.0735464445
  0
ELLIPSE
  5
390
100
AcDbEntity
  8
ALL_ASSEMBLY_MEMBERS
100
AcDbEllipse
 62
7
  6
CONTINUOUS
 10
5.1539688531
 20
4.3825892857
 30
0.0
 11
-0.0
 21
0.48475
 31
0.0
 40
0.2210555332
 41
0.0735464445
 42
0.0906260353
  0
ELLIPSE
  5
391
100
AcDbEntity
  8
ALL_ASSEMBLY_MEMBERS
100
AcDbEllipse
 62
7
  6
CONTINUOUS
 10
5.2203014075
 20
4.3825892857
 30
0.0
 11
-0.0
 21
0.48475
 31
0.0
 40
0.2210555139
 41
-0.0906260353
 42
-0.0735464445
  0
ELLIPSE
  5
392
100
AcDbEntity
  8
ALL_ASSEMBLY_MEMBERS
100
AcDbEllipse
 62
7
  6
CONTINUOUS
 10
5.1998293191
 20
4.3825892857
 30
0.0
 11
0.0
 21
0.48475
 31
0.0
 40
0.7957992427
 41
-0.0735464445
 42
-0.059330055
  0
ELLIPSE
  5
393
100
AcDbEntity
  8
ALL_ASSEMBLY_MEMBERS
100
AcDbEllipse
 62
7
  6
CONTINUOUS
 10
5.1845799864
 20
4.3825892857
 30
0.0
 11
0.642939962
 21
-0.0
 31
0.0
 40
0.7539584232
 41
7.794651579
 42
7.8031754627
  0
ELLIPSE
  5
394
100
AcDbEntity
  8
ALL_ASSEMBLY_MEMBERS
100
AcDbEllipse
 62
7
  6
CONTINUOUS
 10
5.1519286575
 20
4.3825892857
 30
0.0
 11
1.2858811504
 21
0.0
 31
0.0
 40
0.3769788521
 41
1.5199901556
 42
1.5256706491
  0
ELLIPSE
  5
395
100
AcDbEntity
  8
ALL_ASSEMBLY_MEMBERS
100
AcDbEllipse
 62
7
  6
CONTINUOUS
 10
5.1229255417
 20
4.3825892857
 30
0.0
 11
1.9288180083
 21
0.0
 31
0.0
 40
0.2513197191
 41
1.5256706491
 42
1.5285103462
  0
ELLIPSE
  5
396
100
AcDbEntity
  8
ALL_ASSEMBLY_MEMBERS
100
AcDbEllipse
 62
7
  6
CONTINUOUS
 10
5.0685664535
 20
4.3825892857
 30
0.0
 11
3.2147120734
 21
0.0
 31
0.0
 40
0.1507911094
 41
1.5285103462
 42
1.5313496859
  0
ELLIPSE
  5
397
100
AcDbEntity
  8
ALL_ASSEMBLY_MEMBERS
100
AcDbEllipse
 62
7
  6
CONTINUOUS
 10
5.2325167465
 20
4.3825892857
 30
0.0
 11
0.0
 21
0.48475
 31
0.0
 40
0.2652667178
 41
0.0906260353
 42
0.1048790886
  0
ELLIPSE
  5
398
100
AcDbEntity
  8
ALL_ASSEMBLY_MEMBERS
100
AcDbEllipse
 62
7
  6
CONTINUOUS
 10
5.2639268642
 20
4.3825892857
 30
0.0
 11
-0.0
 21
0.48475
 31
0.0
 40
0.8842220554
 41
0.1048790886
 42
0.1134410125
  0
ELLIPSE
  5
399
100
AcDbEntity
  8
ALL_ASSEMBLY_MEMBERS
100
AcDbEllipse
 62
7
  6
CONTINUOUS
 10
5.324576386
 20
4.3825892857
 30
0.0
 11
0.9644099335
 21
-0.0
 31
0.0
 40
0.5026389538
 41
1.6842373393
 42
1.6956663613
  0
ELLIPSE
  5
39A
100
AcDbEntity
  8
ALL_ASSEMBLY_MEMBERS
100
AcDbEllipse
 62
7
  6
CONTINUOUS
 10
5.6849177882
 20
4.3825892857
 30
0.0
 11
3.857654488
 21
0.0
 31
0.0
 40
0.1256592578
 41
1.6956663613
 42
1.6985261089
  0
ELLIPSE
  5
39B
100
AcDbEntity
  8
ALL_ASSEMBLY_MEMBERS
100
AcDbEllipse
 62
7
  6
CONTINUOUS
 10
4.6893523568
 20
4.3825892857
 30
0.0
 11
3.8576553886
 21
0.0
 31
0.0
 40
0.1256592285
 41
1.4430665446
 42
1.4459262923
  0
ELLIPSE
  5
39C
100
AcDbEntity
  8
ALL_ASSEMBLY_MEMBERS
100
AcDbEllipse
 62
7
  6
CONTINUOUS
 10
5.0496939132
 20
4.3825892857
 30
0.0
 11
0.9644095958
 21
0.0
 31
0.0
 40
0.5026391298
 41
1.4459262923
 42
1.4573553143
  0
ELLIPSE
  5
39D
100
AcDbEntity
  8
ALL_ASSEMBLY_MEMBERS
100
AcDbEllipse
 62
7
  6
CONTINUOUS
 10
5.1103433968
 20
4.3825892857
 30
0.0
 11
0.0
 21
0.48475
 31
0.0
 40
0.8842220554
 41
-0.1134410125
 42
-0.1048790886
  0
ELLIPSE
  5
39E
100
AcDbEntity
  8
ALL_ASSEMBLY_MEMBERS
100
AcDbEllipse
 62
7
  6
CONTINUOUS
 10
5.1417535145
 20
4.3825892857
 30
0.0
 11
-0.0
 21
0.48475
 31
0.0
 40
0.2652667178
 41
-0.1048790886
 42
-0.0906260353
  0
ELLIPSE
  5
39F
100
AcDbEntity
  8
ALL_ASSEMBLY_MEMBERS
100
AcDbEllipse
 62
7
  6
CONTINUOUS
 10
5.2993220457
 20
4.3825892857
 30
0.0
 11
0.5716780154
 21
-0.4744956074
 31
0.0
 40
0.1734875795
 41
1.8341228243
 42
1.8564220296
  0
ELLIPSE
  5
3A0
100
AcDbEntity
  8
ALL_ASSEMBLY_MEMBERS
100
AcDbEllipse
 62
7
  6
CONTINUOUS
 10
5.2567618704
 20
4.3825892857
 30
0.0
 11
0.5716778757
 21
-0.4744956116
 31
0.0
 40
0.1734875871
 41
1.7601616376
 42
1.7823049235
  0
ELLIPSE
  5
3A1
100
AcDbEntity
  8
ALL_ASSEMBLY_MEMBERS
100
AcDbEllipse
 62
7
  6
CONTINUOUS
 10
5.2000963761
 20
4.3825892857
 30
0.0
 11
0.117123106
 21
0.4846535957
 31
0.0
 40
0.0825387411
 41
1.3243861563
 42
1.3391838673
  0
ELLIPSE
  5
3A2
100
AcDbEntity
  8
ALL_ASSEMBLY_MEMBERS
100
AcDbEllipse
 62
7
  6
CONTINUOUS
 10
5.2201784167
 20
4.3825892857
 30
0.0
 11
0.3205164298
 21
0.4819141273
 31
0.0
 40
0.1633544133
 41
1.4274608739
 42
1.438573063
  0
ELLIPSE
  5
3A3
100
AcDbEntity
  8
ALL_ASSEMBLY_MEMBERS
100
AcDbEllipse
 62
7
  6
CONTINUOUS
 10
5.2649023852
 20
4.3825892857
 30
0.0
 11
0.7387483593
 21
0.4700085841
 31
0.0
 40
0.1605905019
 41
1.5775999118
 42
1.5850154544
  0
ELLIPSE
  5
3A4
100
AcDbEntity
  8
ALL_ASSEMBLY_MEMBERS
100
AcDbEllipse
 62
7
  6
CONTINUOUS
 10
5.3508787369
 20
4.3825892857
 30
0.0
 11
1.4844556253
 21
0.4605286781
 31
0.0
 40
0.1019322549
 41
1.6552211679
 42
1.6589312972
  0
ELLIPSE
  5
3A5
100
AcDbEntity
  8
ALL_ASSEMBLY_MEMBERS
100
AcDbEllipse
 62
7
  6
CONTINUOUS
 10
4.9923834789
 20
4.3825892857
 30
0.0
 11
1.4844549309
 21
-0.4605286823
 31
0.0
 40
0.1019322941
 41
1.4826613836
 42
1.4863715129
  0
ELLIPSE
  5
3A6
100
AcDbEntity
  8
ALL_ASSEMBLY_MEMBERS
100
AcDbEllipse
 62
7
  6
CONTINUOUS
 10
5.0783597303
 20
4.3825892857
 30
0.0
 11
0.7387485344
 21
-0.47000858
 31
0.0
 40
0.1605904861
 41
1.5565771643
 42
1.5639927069
  0
ELLIPSE
  5
3A7
100
AcDbEntity
  8
ALL_ASSEMBLY_MEMBERS
100
AcDbEllipse
 62
7
  6
CONTINUOUS
 10
5.1230837175
 20
4.3825892857
 30
0.0
 11
-0.3205164298
 21
0.4819141273
 31
0.0
 40
0.1633544133
 41
-1.438573063
 42
-1.4274608739
  0
ELLIPSE
  5
3A8
100
AcDbEntity
  8
ALL_ASSEMBLY_MEMBERS
100
AcDbEllipse
 62
7
  6
CONTINUOUS
 10
5.3876024222
 20
4.3825892857
 30
0.0
 11
3.8575848219
 21
0.456341581
 31
0.0
 40
0.0423861521
 41
-1.6322987713
 42
-1.629457479
  0
ELLIPSE
  5
3A9
100
AcDbEntity
  8
ALL_ASSEMBLY_MEMBERS
100
AcDbEllipse
 62
7
  6
CONTINUOUS
 10
5.1431657581
 20
4.3825892857
 30
0.0
 11
-0.117123106
 21
0.4846535957
 31
0.0
 40
0.0825387411
 41
-1.3391838673
 42
-1.3243861563
  0
ELLIPSE
  5
3AA
100
AcDbEntity
  8
ALL_ASSEMBLY_MEMBERS
100
AcDbEllipse
 62
7
  6
CONTINUOUS
 10
5.2242560495
 20
4.3825892857
 30
0.0
 11
0.9622071635
 21
0.4656770005
 31
0.0
 40
0.1399266045
 41
-1.7062712763
 42
-1.6949013418
  0
ELLIPSE
  5
3AB
100
AcDbEntity
  8
ALL_ASSEMBLY_MEMBERS
100
AcDbEllipse
 62
7
  6
CONTINUOUS
 10
5.1879265548
 20
4.3825892857
 30
0.0
 11
0.4203531079
 21
0.479141308
 31
0.0
 40
0.1749164141
 41
-1.8439863269
 42
-1.8354531791
  0
ELLIPSE
  5
3AC
100
AcDbEntity
  8
ALL_ASSEMBLY_MEMBERS
100
AcDbEllipse
 62
7
  6
CONTINUOUS
 10
5.1650284595
 20
4.3825892857
 30
0.0
 11
0.1217484006
 21
0.4846385345
 31
0.0
 40
0.0853799597
 41
-1.9890427863
 42
-1.9748081556
  0
ELLIPSE
  5
3AD
100
AcDbEntity
  8
ALL_ASSEMBLY_MEMBERS
100
AcDbEllipse
 62
7
  6
CONTINUOUS
 10
5.1713525391
 20
4.3825892857
 30
0.0
 11
0.9880542361
 21
0.465285186
 31
0.0
 40
0.1376303424
 41
1.5113205669
 42
1.5186896574
  0
ELLIPSE
  5
3AE
100
AcDbEntity
  8
ALL_ASSEMBLY_MEMBERS
100
AcDbEllipse
 62
7
  6
CONTINUOUS
 10
5.1671893677
 20
4.3825892857
 30
0.0
 11
0.6553159276
 21
0.4721187462
 31
0.0
 40
0.1677639688
 41
1.4631295299
 42
1.4741845703
  0
ELLIPSE
  5
3AF
100
AcDbEntity
  8
ALL_ASSEMBLY_MEMBERS
100
AcDbEllipse
 62
7
  6
CONTINUOUS
 10
5.1585970604
 20
4.3825892857
 30
0.0
 11
0.2873264341
 21
0.4826711449
 31
0.0
 40
0.1560789432
 41
1.3380452399
 42
1.356477401
  0
ELLIPSE
  5
3B0
100
AcDbEntity
  8
ALL_ASSEMBLY_MEMBERS
100
AcDbEllipse
 62
7
  6
CONTINUOUS
 10
5.1502623246
 20
4.3825892857
 30
0.0
 11
0.0934735408
 21
0.4847090996
 31
0.0
 40
0.0673658948
 41
1.2768224913
 42
1.2952689988
  0
ELLIPSE
  5
3B1
100
AcDbEntity
  8
ALL_ASSEMBLY_MEMBERS
100
AcDbEllipse
 62
7
  6
CONTINUOUS
 10
5.1929998088
 20
4.3825892857
 30
0.0
 11
-0.0934735326
 21
0.4847090996
 31
0.0
 40
0.0673658893
 41
-1.2952689966
 42
-1.2768224891
  0
ELLIPSE
  5
3B2
100
AcDbEntity
  8
ALL_ASSEMBLY_MEMBERS
100
AcDbEllipse
 62
7
  6
CONTINUOUS
 10
5.1846650739
 20
4.3825892857
 30
0.0
 11
-0.287326408
 21
0.4826711454
 31
0.0
 40
0.1560789367
 41
-1.3564773887
 42
-1.3380452276
  0
ELLIPSE
  5
3B3
100
AcDbEntity
  8
ALL_ASSEMBLY_MEMBERS
100
AcDbEllipse
 62
7
  6
CONTINUOUS
 10
5.2092418014
 20
4.3825892857
 30
0.0
 11
-0.1217484006
 21
0.4846385345
 31
0.0
 40
0.0853799597
 41
-4.3083771516
 42
-4.2941425209
  0
ELLIPSE
  5
3B4
100
AcDbEntity
  8
ALL_ASSEMBLY_MEMBERS
100
AcDbEllipse
 62
7
  6
CONTINUOUS
 10
5.1863437061
 20
4.3825892857
 30
0.0
 11
-0.4203531079
 21
0.479141308
 31
0.0
 40
0.1749164141
 41
-4.4477321281
 42
-4.4391989803
  0
ELLIPSE
  5
3B5
100
AcDbEntity
  8
ALL_ASSEMBLY_MEMBERS
100
AcDbEllipse
 62
7
  6
CONTINUOUS
 10
5.1500141886
 20
4.3825892857
 30
0.0
 11
0.962207503
 21
-0.4656769952
 31
0.0
 40
0.1399265741
 41
-1.4466913509
 42
-1.4353214165
  0
ELLIPSE
  5
3B6
100
AcDbEntity
  8
ALL_ASSEMBLY_MEMBERS
100
AcDbEllipse
 62
7
  6
CONTINUOUS
 10
4.9866678858
 20
4.3825892857
 30
0.0
 11
3.8575839213
 21
-0.4563415814
 31
0.0
 40
0.0423861617
 41
-1.5121351722
 42
-1.5092938799
  0
ELLIPSE
  5
3B7
100
AcDbEntity
  8
ALL_ASSEMBLY_MEMBERS
100
AcDbEllipse
 62
7
  6
CONTINUOUS
 10
5.3092506524
 20
4.3825892857
 30
0.0
 11
0.7463252756
 21
-0.4698307894
 31
0.0
 40
0.1599009769
 41
-1.6130857077
 42
-1.5959095904
  0
ELLIPSE
  5
3B8
100
AcDbEntity
  8
ALL_ASSEMBLY_MEMBERS
100
AcDbEllipse
 62
7
  6
CONTINUOUS
 10
5.1888629341
 20
4.3825892857
 30
0.0
 11
0.5597140252
 21
-0.4748533936
 31
0.0
 40
0.1741096516
 41
-1.4868806225
 42
-1.4159149133
  0
ELLIPSE
  5
3B9
100
AcDbEntity
  8
ALL_ASSEMBLY_MEMBERS
100
AcDbEllipse
 62
7
  6
CONTINUOUS
 10
5.185582431
 20
4.3825892857
 30
0.0
 11
0.9622042765
 21
-0.4656770454
 31
0.0
 40
0.139926863
 41
-1.4949495759
 42
-1.489275252
  0
ELLIPSE
  5
3BA
100
AcDbEntity
  8
ALL_ASSEMBLY_MEMBERS
100
AcDbEllipse
 62
7
  6
CONTINUOUS
 10
5.1632343176
 20
4.3825892857
 30
0.0
 11
2.5716108227
 21
-0.4573304865
 31
0.0
 40
0.0624983615
 41
-1.5457781432
 42
-1.5429408411
  0
ELLIPSE
  5
3BB
100
AcDbEntity
  8
ALL_ASSEMBLY_MEMBERS
100
AcDbEllipse
 62
7
  6
CONTINUOUS
 10
5.2529881118
 20
4.3825892857
 30
0.0
 11
2.5716108227
 21
0.4573304865
 31
0.0
 40
0.0624983615
 41
-1.5986518125
 42
-1.5958145104
  0
ELLIPSE
  5
3BC
100
AcDbEntity
  8
ALL_ASSEMBLY_MEMBERS
100
AcDbEllipse
 62
7
  6
CONTINUOUS
 10
5.2261704293
 20
4.3825892857
 30
0.0
 11
0.6379530235
 21
0.4725921354
 31
0.0
 40
0.1691116546
 41
-1.7093280947
 42
-1.6979797282
  0
ELLIPSE
  5
3BD
100
AcDbEntity
  8
ALL_ASSEMBLY_MEMBERS
100
AcDbEllipse
 62
7
  6
CONTINUOUS
 10
5.2396971987
 20
4.3825892857
 30
0.0
 11
0.10123742
 21
0.4846944896
 31
0.0
 40
0.0724615456
 41
-2.012460577
 42
-1.9953544323
  0
ELLIPSE
  5
3BE
100
AcDbEntity
  8
ALL_ASSEMBLY_MEMBERS
100
AcDbEllipse
 62
7
  6
CONTINUOUS
 10
5.2696541617
 20
4.3825892857
 30
0.0
 11
0.3768576551
 21
0.4804196369
 31
0.0
 40
0.1715483869
 41
-1.9081086021
 42
-1.8938294856
  0
ELLIPSE
  5
3BF
100
AcDbEntity
  8
ALL_ASSEMBLY_MEMBERS
100
AcDbEllipse
 62
7
  6
CONTINUOUS
 10
5.2253488561
 20
4.3825892857
 30
0.0
 11
0.3118799231
 21
0.4821211713
 31
0.0
 40
0.1616508637
 41
-1.8182260229
 42
-1.8068779936
  0
ELLIPSE
  5
3C0
100
AcDbEntity
  8
ALL_ASSEMBLY_MEMBERS
100
AcDbEllipse
 62
7
  6
CONTINUOUS
 10
5.3009547234
 20
4.3825892857
 30
0.0
 11
0.6379533341
 21
0.4725921268
 31
0.0
 40
0.1691116311
 41
-1.8260145634
 42
-1.8174352631
  0
ELLIPSE
  5
3C1
100
AcDbEntity
  8
ALL_ASSEMBLY_MEMBERS
100
AcDbEllipse
 62
7
  6
CONTINUOUS
 10
5.3846778745
 20
4.3825892857
 30
0.0
 11
1.2847916974
 21
0.4619431809
 31
0.0
 40
0.1143679302
 41
-1.7482093125
 42
-1.7424844324
  0
ELLIPSE
  5
3C2
100
AcDbEntity
  8
ALL_ASSEMBLY_MEMBERS
100
AcDbEllipse
 62
7
  6
CONTINUOUS
 10
5.2272331495
 20
4.3825892857
 30
0.0
 11
0.10123742
 21
0.4846944896
 31
0.0
 40
0.0724615456
 41
-1.89593605
 42
-1.8789114217
  0
ELLIPSE
  5
3C3
100
AcDbEntity
  8
ALL_ASSEMBLY_MEMBERS
100
AcDbEllipse
 62
7
  6
CONTINUOUS
 10
5.4720509441
 20
4.3825892857
 30
0.0
 11
1.9284678459
 21
0.4586391126
 31
0.0
 40
0.0813849018
 41
-1.7293289027
 42
-1.7264648042
  0
ELLIPSE
  5
3C4
100
AcDbEntity
  8
ALL_ASSEMBLY_MEMBERS
100
AcDbEllipse
 62
7
  6
CONTINUOUS
 10
5.6504423585
 20
4.3825892857
 30
0.0
 11
3.2146291591
 21
0.4566950122
 31
0.0
 40
0.0505558762
 41
-1.7200233845
 42
-1.7171581365
  0
ELLIPSE
  5
3C5
100
AcDbEntity
  8
ALL_ASSEMBLY_MEMBERS
100
AcDbEllipse
 62
7
  6
CONTINUOUS
 10
4.7238277737
 20
4.3825892857
 30
0.0
 11
3.2146300597
 21
-0.4566950116
 31
0.0
 40
0.0505558626
 41
-1.4244345211
 42
-1.421569273
  0
ELLIPSE
  5
3C6
100
AcDbEntity
  8
ALL_ASSEMBLY_MEMBERS
100
AcDbEllipse
 62
7
  6
CONTINUOUS
 10
4.9022195629
 20
4.3825892857
 30
0.0
 11
1.9284660439
 21
-0.458639118
 31
0.0
 40
0.0813849697
 41
-1.4151278149
 42
-1.4122637165
  0
ELLIPSE
  5
3C7
100
AcDbEntity
  8
ALL_ASSEMBLY_MEMBERS
100
AcDbEllipse
 62
7
  6
CONTINUOUS
 10
5.2758708302
 20
4.3825892857
 30
0.0
 11
0.9622070503
 21
-0.4656770023
 31
0.0
 40
0.1399266146
 41
-1.5716017881
 42
-1.5659156053
  0
ELLIPSE
  5
3C8
100
AcDbEntity
  8
ALL_ASSEMBLY_MEMBERS
100
AcDbEllipse
 62
7
  6
CONTINUOUS
 10
4.9895923572
 20
4.3825892857
 30
0.0
 11
1.2847919231
 21
-0.461943179
 31
0.0
 40
0.1143679148
 41
-1.3991082341
 42
-1.393383354
  0
ELLIPSE
  5
3C9
100
AcDbEntity
  8
ALL_ASSEMBLY_MEMBERS
100
AcDbEllipse
 62
7
  6
CONTINUOUS
 10
5.0733155278
 20
4.3825892857
 30
0.0
 11
0.6379534101
 21
-0.4725921247
 31
0.0
 40
0.1691116253
 41
-1.3241574099
 42
-1.3155781096
  0
ELLIPSE
  5
3CA
100
AcDbEntity
  8
ALL_ASSEMBLY_MEMBERS
100
AcDbEllipse
 62
7
  6
CONTINUOUS
 10
5.2422799244
 20
4.3825892857
 30
0.0
 11
-0.4203531079
 21
0.479141308
 31
0.0
 40
0.1749164141
 41
-4.5783263692
 42
-4.5698008357
  0
ELLIPSE
  5
3CB
100
AcDbEntity
  8
ALL_ASSEMBLY_MEMBERS
100
AcDbEllipse
 62
7
  6
CONTINUOUS
 10
5.1046160945
 20
4.3825892857
 30
0.0
 11
-0.3768576893
 21
0.480419636
 31
0.0
 40
0.1715483905
 41
-4.3893558366
 42
-4.3750767201
  0
ELLIPSE
  5
3CC
100
AcDbEntity
  8
ALL_ASSEMBLY_MEMBERS
100
AcDbEllipse
 62
7
  6
CONTINUOUS
 10
5.2260226581
 20
4.3825892857
 30
0.0
 11
-0.1217484712
 21
0.4846385342
 31
0.0
 40
0.0853800028
 41
-4.4389790303
 42
-4.4247782581
  0
ELLIPSE
  5
3CD
100
AcDbEntity
  8
ALL_ASSEMBLY_MEMBERS
100
AcDbEllipse
 62
7
  6
CONTINUOUS
 10
5.1345730601
 20
4.3825892857
 30
0.0
 11
-0.101237429
 21
0.4846944896
 31
0.0
 40
0.0724615514
 41
-4.2878308774
 42
-4.2707247327
  0
ELLIPSE
  5
3CE
100
AcDbEntity
  8
ALL_ASSEMBLY_MEMBERS
100
AcDbEllipse
 62
7
  6
CONTINUOUS
 10
5.1429895687
 20
4.3825892857
 30
0.0
 11
1.9288162072
 21
0.0
 31
0.0
 40
0.2513199538
 41
7.8400775852
 42
7.8429147916
  0
ELLIPSE
  5
3CF
100
AcDbEntity
  8
ALL_ASSEMBLY_MEMBERS
100
AcDbEllipse
 62
7
  6
CONTINUOUS
 10
5.1251109733
 20
4.3825892857
 30
0.0
 11
3.2147129739
 21
0.0
 31
0.0
 40
0.1507910672
 41
7.837240283
 42
7.8400775852
  0
ELLIPSE
  5
3D0
100
AcDbEntity
  8
ALL_ASSEMBLY_MEMBERS
100
AcDbEllipse
 62
7
  6
CONTINUOUS
 10
5.2491592713
 20
4.3825892857
 30
0.0
 11
3.2147120734
 21
-0.0
 31
0.0
 40
0.1507911094
 41
1.5847003756
 42
1.5875376778
  0
ELLIPSE
  5
3D1
100
AcDbEntity
  8
ALL_ASSEMBLY_MEMBERS
100
AcDbEllipse
 62
7
  6
CONTINUOUS
 10
5.1650284595
 20
4.3825892857
 30
0.0
 11
-0.0
 21
0.48475
 31
0.0
 40
0.2652664142
 41
0.0763914046
 42
0.0906260353
  0
ELLIPSE
  5
3D2
100
AcDbEntity
  8
ALL_ASSEMBLY_MEMBERS
100
AcDbEllipse
 62
7
  6
CONTINUOUS
 10
5.1879265548
 20
4.3825892857
 30
0.0
 11
-0.0
 21
0.48475
 31
0.0
 40
0.8842220554
 41
0.0678582568
 42
0.0763914046
  0
ELLIPSE
  5
3D3
100
AcDbEntity
  8
ALL_ASSEMBLY_MEMBERS
100
AcDbEllipse
 62
7
  6
CONTINUOUS
 10
5.2242560495
 20
4.3825892857
 30
0.0
 11
0.9644109754
 21
-0.0
 31
0.0
 40
0.5026384108
 41
1.6272846492
 42
1.6386545836
  0
ELLIPSE
  5
3D4
100
AcDbEntity
  8
ALL_ASSEMBLY_MEMBERS
100
AcDbEllipse
 62
7
  6
CONTINUOUS
 10
5.2242560495
 20
4.3825892857
 30
0.0
 11
0.9595037988
 21
-0.0
 31
0.0
 40
0.5026384108
 41
1.6275738566
 42
1.6336193552
  0
ELLIPSE
  5
3D5
100
AcDbEntity
  8
ALL_ASSEMBLY_MEMBERS
100
AcDbEllipse
 62
7
  6
CONTINUOUS
 10
5.3876024222
 20
4.3825892857
 30
0.0
 11
3.857633315
 21
-0.0
 31
0.0
 40
0.1256599475
 41
1.6244433569
 42
1.6272846492
  0
ELLIPSE
  5
3D6
100
AcDbEntity
  8
ALL_ASSEMBLY_MEMBERS
100
AcDbEllipse
 62
7
  6
CONTINUOUS
 10
5.3876024222
 20
4.3825892857
 30
0.0
 11
3.8380046625
 21
-0.0
 31
0.0
 40
0.1256599475
 41
1.6247179887
 42
1.6275738566
  0
ELLIPSE
  5
3D7
100
AcDbEntity
  8
ALL_ASSEMBLY_MEMBERS
100
AcDbEllipse
 62
7
  6
CONTINUOUS
 10
5.2312807135
 20
4.3825892857
 30
0.0
 11
1.9288180083
 21
-0.0
 31
0.0
 40
0.2513197191
 41
1.5818631691
 42
1.5847003756
  0
ELLIPSE
  5
3D8
100
AcDbEntity
  8
ALL_ASSEMBLY_MEMBERS
100
AcDbEllipse
 62
7
  6
CONTINUOUS
 10
5.2241655779
 20
4.3825892857
 30
0.0
 11
1.2858811504
 21
0.0
 31
0.0
 40
0.3769788521
 41
1.5761890168
 42
1.5818631691
  0
ELLIPSE
  5
3D9
100
AcDbEntity
  8
ALL_ASSEMBLY_MEMBERS
100
AcDbEllipse
 62
7
  6
CONTINUOUS
 10
5.2847300162
 20
4.3825892857
 30
0.0
 11
0.57167825
 21
-0.4744956005
 31
0.0
 40
0.1734875667
 41
1.8341227539
 42
1.8564219592
  0
ELLIPSE
  5
3DA
100
AcDbEntity
  8
ALL_ASSEMBLY_MEMBERS
100
AcDbEllipse
 62
7
  6
CONTINUOUS
 10
5.2847300162
 20
4.3825892857
 30
0.0
 11
0.5687694008
 21
-0.4720812421
 31
0.0
 40
0.1734875667
 41
8.1199044316
 42
8.140341655
  0
ELLIPSE
  5
3DB
100
AcDbEntity
  8
ALL_ASSEMBLY_MEMBERS
100
AcDbEllipse
 62
7
  6
CONTINUOUS
 10
5.2206984121
 20
4.3825892857
 30
0.0
 11
0.642939962
 21
-0.0
 31
0.0
 40
0.7539584232
 41
7.8508633559
 42
7.859374324
  0
ELLIPSE
  5
3DC
100
AcDbEntity
  8
ALL_ASSEMBLY_MEMBERS
100
AcDbEllipse
 62
7
  6
CONTINUOUS
 10
5.2421698238
 20
4.3825892857
 30
0.0
 11
0.5716781103
 21
-0.4744956046
 31
0.0
 40
0.1734875743
 41
1.7601615672
 42
1.7823048532
  0
ELLIPSE
  5
3DD
100
AcDbEntity
  8
ALL_ASSEMBLY_MEMBERS
100
AcDbEllipse
 62
7
  6
CONTINUOUS
 10
5.2421698238
 20
4.3825892857
 30
0.0
 11
0.5687692618
 21
-0.4720812463
 31
0.0
 40
0.1734875743
 41
8.0454832217
 42
8.0658410218
  0
ELLIPSE
  5
3DE
100
AcDbEntity
  8
ALL_ASSEMBLY_MEMBERS
100
AcDbEllipse
 62
7
  6
CONTINUOUS
 10
5.1710515082
 20
4.3825892857
 30
0.0
 11
-0.3622025764
 21
0.4808294012
 31
0.0
 40
0.1698707729
 41
-1.3947898515
 42
-1.3800412872
  0
ELLIPSE
  5
3DF
100
AcDbEntity
  8
ALL_ASSEMBLY_MEMBERS
100
AcDbEllipse
 62
7
  6
CONTINUOUS
 10
5.1710515082
 20
4.3825892857
 30
0.0
 11
-0.3603595945
 21
0.4783828148
 31
0.0
 40
0.1698707729
 41
-1.3950241974
 42
-1.3802000911
  0
ELLIPSE
  5
3E0
100
AcDbEntity
  8
ALL_ASSEMBLY_MEMBERS
100
AcDbEllipse
 62
7
  6
CONTINUOUS
 10
5.1823819291
 20
4.3825892857
 30
0.0
 11
-0.1171229363
 21
0.4846535963
 31
0.0
 40
0.082538636
 41
-1.3022224851
 42
-1.2874639355
  0
ELLIPSE
  5
3E1
100
AcDbEntity
  8
ALL_ASSEMBLY_MEMBERS
100
AcDbEllipse
 62
7
  6
CONTINUOUS
 10
5.1823819291
 20
4.3825892857
 30
0.0
 11
-0.116526984
 21
0.4821875514
 31
0.0
 40
0.082538636
 41
4.9806527798
 42
4.9954870257
  0
ELLIPSE
  5
3E2
100
AcDbEntity
  8
ALL_ASSEMBLY_MEMBERS
100
AcDbEllipse
 62
7
  6
CONTINUOUS
 10
5.1345730601
 20
4.3825892857
 30
0.0
 11
0.0
 21
0.48475
 31
0.0
 40
0.2210555332
 41
-0.10773218
 42
-0.0906260353
  0
ELLIPSE
  5
3E3
100
AcDbEntity
  8
ALL_ASSEMBLY_MEMBERS
100
AcDbEllipse
 62
7
  6
CONTINUOUS
 10
5.1345730601
 20
4.3825892857
 30
0.0
 11
0.0
 21
0.4822834646
 31
0.0
 40
0.2210555332
 41
-0.1082853113
 42
-0.0910908057
  0
ELLIPSE
  5
3E4
100
AcDbEntity
  8
ALL_ASSEMBLY_MEMBERS
100
AcDbEllipse
 62
7
  6
CONTINUOUS
 10
5.1046160945
 20
4.3825892857
 30
0.0
 11
0.0
 21
0.48475
 31
0.0
 40
0.7958002231
 41
-0.1220112966
 42
-0.10773218
  0
ELLIPSE
  5
3E5
100
AcDbEntity
  8
ALL_ASSEMBLY_MEMBERS
100
AcDbEllipse
 62
7
  6
CONTINUOUS
 10
5.1046160945
 20
4.3825892857
 30
0.0
 11
0.0
 21
0.4822834646
 31
0.0
 40
0.7958002231
 41
-0.1226384364
 42
-0.1082853113
  0
ELLIPSE
  5
3E6
100
AcDbEntity
  8
ALL_ASSEMBLY_MEMBERS
100
AcDbEllipse
 62
7
  6
CONTINUOUS
 10
5.0733155278
 20
4.3825892857
 30
0.0
 11
0.6429400371
 21
-0.0
 31
0.0
 40
0.7539583352
 41
1.4402057299
 42
1.4487850302
  0
ELLIPSE
  5
3E7
100
AcDbEntity
  8
ALL_ASSEMBLY_MEMBERS
100
AcDbEllipse
 62
7
  6
CONTINUOUS
 10
5.0733155278
 20
4.3825892857
 30
0.0
 11
0.6396685892
 21
-0.0
 31
0.0
 40
0.7539583352
 41
1.4395339999
 42
1.4481578904
  0
ELLIPSE
  5
3E8
100
AcDbEntity
  8
ALL_ASSEMBLY_MEMBERS
100
AcDbEllipse
 62
7
  6
CONTINUOUS
 10
5.1608802052
 20
4.3825892857
 30
0.0
 11
0.1171229363
 21
0.4846535963
 31
0.0
 40
0.082538636
 41
1.2874639355
 42
1.3022224851
  0
ELLIPSE
  5
3E9
100
AcDbEntity
  8
ALL_ASSEMBLY_MEMBERS
100
AcDbEllipse
 62
7
  6
CONTINUOUS
 10
5.1608802052
 20
4.3825892857
 30
0.0
 11
0.116526984
 21
0.4821875514
 31
0.0
 40
0.082538636
 41
1.2876982814
 42
1.3025325273
  0
ELLIPSE
  5
3EA
100
AcDbEntity
  8
ALL_ASSEMBLY_MEMBERS
100
AcDbEllipse
 62
7
  6
CONTINUOUS
 10
5.1417535145
 20
4.3825892857
 30
0.0
 11
-0.1211290532
 21
0.4821725657
 31
0.0
 40
0.0853800458
 41
-4.2918879649
 42
-4.2793511418
  0
ELLIPSE
  5
3EB
100
AcDbEntity
  8
ALL_ASSEMBLY_MEMBERS
100
AcDbEllipse
 62
7
  6
CONTINUOUS
 10
5.1703222197
 20
4.3825892857
 30
0.0
 11
0.3205164298
 21
0.4819141273
 31
0.0
 40
0.1633544133
 41
1.364678812
 42
1.3757409965
  0
ELLIPSE
  5
3EC
100
AcDbEntity
  8
ALL_ASSEMBLY_MEMBERS
100
AcDbEllipse
 62
7
  6
CONTINUOUS
 10
5.1703222197
 20
4.3825892857
 30
0.0
 11
0.318885558
 21
0.4794620215
 31
0.0
 40
0.1633544133
 41
1.3648564897
 42
1.3759753424
  0
ELLIPSE
  5
3ED
100
AcDbEntity
  8
ALL_ASSEMBLY_MEMBERS
100
AcDbEllipse
 62
7
  6
CONTINUOUS
 10
5.1932406183
 20
4.3825892857
 30
0.0
 11
0.9880542361
 21
0.465285186
 31
0.0
 40
0.1376303424
 41
1.533430284
 42
1.5408026323
  0
ELLIPSE
  5
3EE
100
AcDbEntity
  8
ALL_ASSEMBLY_MEMBERS
100
AcDbEllipse
 62
7
  6
CONTINUOUS
 10
5.1932406183
 20
4.3825892857
 30
0.0
 11
0.9830267564
 21
0.4629176926
 31
0.0
 40
0.1376303424
 41
1.5335702205
 42
1.5409803099
  0
ELLIPSE
  5
3EF
100
AcDbEntity
  8
ALL_ASSEMBLY_MEMBERS
100
AcDbEllipse
 62
7
  6
CONTINUOUS
 10
5.1417535145
 20
4.3825892857
 30
0.0
 11
-0.1217485418
 21
0.484638534
 31
0.0
 40
0.0853800458
 41
-4.2941425674
 42
-4.2798895141
  0
ELLIPSE
  5
3F0
100
AcDbEntity
  8
ALL_ASSEMBLY_MEMBERS
100
AcDbEllipse
 62
7
  6
CONTINUOUS
 10
4.9895923572
 20
4.3825892857
 30
0.0
 11
1.2858776966
 21
0.0
 31
0.0
 40
0.3769798646
 41
7.7176661569
 42
7.7233910371
  0
ELLIPSE
  5
3F1
100
AcDbEntity
  8
ALL_ASSEMBLY_MEMBERS
100
AcDbEllipse
 62
7
  6
CONTINUOUS
 10
4.9895923572
 20
4.3825892857
 30
0.0
 11
1.2793348128
 21
-0.0
 31
0.0
 40
0.3769798646
 41
1.4337793091
 42
1.4395339999
  0
ELLIPSE
  5
3F2
100
AcDbEntity
  8
ALL_ASSEMBLY_MEMBERS
100
AcDbEllipse
 62
7
  6
CONTINUOUS
 10
5.1103433968
 20
4.3825892857
 30
0.0
 11
-0.4182142408
 21
0.4767033111
 31
0.0
 40
0.1749164141
 41
-4.4101729241
 42
-4.4015666817
  0
ELLIPSE
  5
3F3
100
AcDbEntity
  8
ALL_ASSEMBLY_MEMBERS
100
AcDbEllipse
 62
7
  6
CONTINUOUS
 10
5.1103433968
 20
4.3825892857
 30
0.0
 11
-0.4203531079
 21
0.479141308
 31
0.0
 40
0.1749164141
 41
-4.4107112963
 42
-4.4021493725
  0
ELLIPSE
  5
3F4
100
AcDbEntity
  8
ALL_ASSEMBLY_MEMBERS
100
AcDbEllipse
 62
7
  6
CONTINUOUS
 10
4.9022195629
 20
4.3825892857
 30
0.0
 11
1.928827244
 21
0.0
 31
0.0
 40
0.2513185157
 41
1.4316167513
 42
1.4344808497
  0
ELLIPSE
  5
3F5
100
AcDbEntity
  8
ALL_ASSEMBLY_MEMBERS
100
AcDbEllipse
 62
7
  6
CONTINUOUS
 10
5.0496939132
 20
4.3825892857
 30
0.0
 11
0.9573098206
 21
-0.463307535
 31
0.0
 40
0.1399267287
 41
-1.3891557708
 42
-1.3776674525
  0
ELLIPSE
  5
3F6
100
AcDbEntity
  8
ALL_ASSEMBLY_MEMBERS
100
AcDbEllipse
 62
7
  6
CONTINUOUS
 10
5.0496939132
 20
4.3825892857
 30
0.0
 11
0.9622057766
 21
-0.4656770221
 31
0.0
 40
0.1399267287
 41
-1.3897384615
 42
-1.3783094395
  0
ELLIPSE
  5
3F7
100
AcDbEntity
  8
ALL_ASSEMBLY_MEMBERS
100
AcDbEllipse
 62
7
  6
CONTINUOUS
 10
4.9022195629
 20
4.3825892857
 30
0.0
 11
1.9190128639
 21
-0.0
 31
0.0
 40
0.2513185157
 41
1.4309002792
 42
1.4337793091
  0
ELLIPSE
  5
3F8
100
AcDbEntity
  8
ALL_ASSEMBLY_MEMBERS
100
AcDbEllipse
 62
7
  6
CONTINUOUS
 10
4.6893523568
 20
4.3825892857
 30
0.0
 11
3.8379783783
 21
-0.4540195858
 31
0.0
 40
0.0423859163
 41
-1.4402702398
 42
-1.4373956289
  0
ELLIPSE
  5
3F9
100
AcDbEntity
  8
ALL_ASSEMBLY_MEMBERS
100
AcDbEllipse
 62
7
  6
CONTINUOUS
 10
4.6893523568
 20
4.3825892857
 30
0.0
 11
3.8576068963
 21
-0.4563415717
 31
0.0
 40
0.0423859163
 41
-1.4409122269
 42
-1.4380524792
  0
ELLIPSE
  5
3FA
100
AcDbEntity
  8
ALL_ASSEMBLY_MEMBERS
100
AcDbEllipse
 62
7
  6
CONTINUOUS
 10
5.1360907721
 20
4.3825892857
 30
0.0
 11
-0.0934736487
 21
0.4847090994
 31
0.0
 40
0.0673659664
 41
-1.3359330152
 42
-1.3174326445
  0
ELLIPSE
  5
3FB
100
AcDbEntity
  8
ALL_ASSEMBLY_MEMBERS
100
AcDbEllipse
 62
7
  6
CONTINUOUS
 10
5.1360907721
 20
4.3825892857
 30
0.0
 11
-0.0929980302
 21
0.4822427721
 31
0.0
 40
0.0673659664
 41
-1.3364524313
 42
-1.3178566306
  0
ELLIPSE
  5
3FC
100
AcDbEntity
  8
ALL_ASSEMBLY_MEMBERS
100
AcDbEllipse
 62
7
  6
CONTINUOUS
 10
4.7238277737
 20
4.3825892857
 30
0.0
 11
3.2147129739
 21
-0.0
 31
0.0
 40
0.1507910672
 41
1.4287515033
 42
1.4316167513
  0
ELLIPSE
  5
3FD
100
AcDbEntity
  8
ALL_ASSEMBLY_MEMBERS
100
AcDbEllipse
 62
7
  6
CONTINUOUS
 10
5.1160823885
 20
4.3825892857
 30
0.0
 11
-0.2873264341
 21
0.4826711449
 31
0.0
 40
0.1560789432
 41
-1.4341230973
 42
-1.4155878961
  0
ELLIPSE
  5
3FE
100
AcDbEntity
  8
ALL_ASSEMBLY_MEMBERS
100
AcDbEllipse
 62
7
  6
CONTINUOUS
 10
5.1160823885
 20
4.3825892857
 30
0.0
 11
-0.2858644416
 21
0.4802151872
 31
0.0
 40
0.1560789432
 41
-1.4347384861
 42
-1.4161073122
  0
ELLIPSE
  5
3FF
100
AcDbEntity
  8
ALL_ASSEMBLY_MEMBERS
100
AcDbEllipse
 62
7
  6
CONTINUOUS
 10
5.0727123552
 20
4.3825892857
 30
0.0
 11
0.6553159276
 21
-0.4721187462
 31
0.0
 40
0.1677639688
 41
1.5601896397
 42
1.5713302259
  0
ELLIPSE
  5
400
100
AcDbEntity
  8
ALL_ASSEMBLY_MEMBERS
100
AcDbEllipse
 62
7
  6
CONTINUOUS
 10
5.0727123552
 20
4.3825892857
 30
0.0
 11
0.6519815079
 21
-0.4697164819
 31
0.0
 40
0.1677639688
 41
1.5595163628
 42
1.5707148371
  0
ELLIPSE
  5
401
100
AcDbEntity
  8
ALL_ASSEMBLY_MEMBERS
100
AcDbEllipse
 62
7
  6
CONTINUOUS
 10
4.9973308273
 20
4.3825892857
 30
0.0
 11
1.2364591409
 21
-0.462368365
 31
0.0
 40
0.1177519922
 41
1.4764767822
 42
1.4839128544
  0
ELLIPSE
  5
402
100
AcDbEntity
  8
ALL_ASSEMBLY_MEMBERS
100
AcDbEllipse
 62
7
  6
CONTINUOUS
 10
4.9973308273
 20
4.3825892857
 30
0.0
 11
1.2301677117
 21
-0.4600157132
 31
0.0
 40
0.1177519922
 41
1.475764772
 42
1.4832395775
  0
ELLIPSE
  5
403
100
AcDbEntity
  8
ALL_ASSEMBLY_MEMBERS
100
AcDbEllipse
 62
7
  6
CONTINUOUS
 10
5.3459313296
 20
4.3825892857
 30
0.0
 11
1.2364593147
 21
0.4623683634
 31
0.0
 40
0.1177519797
 41
1.6576798102
 42
1.6651158823
  0
ELLIPSE
  5
404
100
AcDbEntity
  8
ALL_ASSEMBLY_MEMBERS
100
AcDbEllipse
 62
7
  6
CONTINUOUS
 10
5.3459313296
 20
4.3825892857
 30
0.0
 11
1.2301678846
 21
0.4600157117
 31
0.0
 40
0.1177519797
 41
1.6583530871
 42
1.6658278925
  0
ELLIPSE
  5
405
100
AcDbEntity
  8
ALL_ASSEMBLY_MEMBERS
100
AcDbEllipse
 62
7
  6
CONTINUOUS
 10
5.2705497715
 20
4.3825892857
 30
0.0
 11
0.6553158691
 21
0.4721187478
 31
0.0
 40
0.1677639734
 41
1.5702624133
 42
1.5814029995
  0
ELLIPSE
  5
406
100
AcDbEntity
  8
ALL_ASSEMBLY_MEMBERS
100
AcDbEllipse
 62
7
  6
CONTINUOUS
 10
5.2705497715
 20
4.3825892857
 30
0.0
 11
0.6519814497
 21
0.4697164835
 31
0.0
 40
0.1677639734
 41
1.5708778021
 42
1.5820762764
  0
ELLIPSE
  5
407
100
AcDbEntity
  8
ALL_ASSEMBLY_MEMBERS
100
AcDbEllipse
 62
7
  6
CONTINUOUS
 10
5.227179742
 20
4.3825892857
 30
0.0
 11
0.287326408
 21
0.4826711454
 31
0.0
 40
0.1560789367
 41
1.4155878838
 42
1.434123085
  0
ELLIPSE
  5
408
100
AcDbEntity
  8
ALL_ASSEMBLY_MEMBERS
100
AcDbEllipse
 62
7
  6
CONTINUOUS
 10
5.227179742
 20
4.3825892857
 30
0.0
 11
0.2858644157
 21
0.4802151878
 31
0.0
 40
0.1560789367
 41
1.4161072999
 42
1.4347384738
  0
ELLIPSE
  5
409
100
AcDbEntity
  8
ALL_ASSEMBLY_MEMBERS
100
AcDbEllipse
 62
7
  6
CONTINUOUS
 10
5.2071713601
 20
4.3825892857
 30
0.0
 11
0.0934736405
 21
0.4847090994
 31
0.0
 40
0.0673659609
 41
1.3174326423
 42
1.335933013
  0
ELLIPSE
  5
40A
100
AcDbEntity
  8
ALL_ASSEMBLY_MEMBERS
100
AcDbEllipse
 62
7
  6
CONTINUOUS
 10
5.2071713601
 20
4.3825892857
 30
0.0
 11
0.092998022
 21
0.4822427721
 31
0.0
 40
0.0673659609
 41
1.3178566284
 42
1.3364524291
  0
ELLIPSE
  5
40B
100
AcDbEntity
  8
ALL_ASSEMBLY_MEMBERS
100
AcDbEllipse
 62
7
  6
CONTINUOUS
 10
4.7238277737
 20
4.3825892857
 30
0.0
 11
3.1983556692
 21
0.0
 31
0.0
 40
0.1507910672
 41
1.4280200816
 42
1.4309002792
  0
ELLIPSE
  5
40C
100
AcDbEntity
  8
ALL_ASSEMBLY_MEMBERS
100
AcDbEllipse
 62
7
  6
CONTINUOUS
 10
5.6849177882
 20
4.3825892857
 30
0.0
 11
3.8379774823
 21
0.4540195862
 31
0.0
 40
0.0423859259
 41
-1.704197027
 42
-1.7013224161
  0
ELLIPSE
  5
40D
100
AcDbEntity
  8
ALL_ASSEMBLY_MEMBERS
100
AcDbEllipse
 62
7
  6
CONTINUOUS
 10
5.6849177882
 20
4.3825892857
 30
0.0
 11
3.8576059957
 21
0.4563415721
 31
0.0
 40
0.0423859259
 41
-1.7035401767
 42
-1.700680429
  0
ELLIPSE
  5
40E
100
AcDbEntity
  8
ALL_ASSEMBLY_MEMBERS
100
AcDbEllipse
 62
7
  6
CONTINUOUS
 10
5.324576386
 20
4.3825892857
 30
0.0
 11
0.9573101584
 21
0.4633075297
 31
0.0
 40
0.1399266983
 41
-1.7639251619
 42
-1.7524368436
  0
ELLIPSE
  5
40F
100
AcDbEntity
  8
ALL_ASSEMBLY_MEMBERS
100
AcDbEllipse
 62
7
  6
CONTINUOUS
 10
5.324576386
 20
4.3825892857
 30
0.0
 11
0.9622061161
 21
0.4656770168
 31
0.0
 40
0.1399266983
 41
-1.7632831748
 42
-1.7518541529
  0
ELLIPSE
  5
410
100
AcDbEntity
  8
ALL_ASSEMBLY_MEMBERS
100
AcDbEllipse
 62
7
  6
CONTINUOUS
 10
5.6504423585
 20
4.3825892857
 30
0.0
 11
3.2147120734
 21
-0.0
 31
0.0
 40
0.1507911094
 41
1.7099759023
 42
1.7128411503
  0
ELLIPSE
  5
411
100
AcDbEntity
  8
ALL_ASSEMBLY_MEMBERS
100
AcDbEllipse
 62
7
  6
CONTINUOUS
 10
5.6504423585
 20
4.3825892857
 30
0.0
 11
3.1983547732
 21
-0.0
 31
0.0
 40
0.1507911094
 41
1.7106923744
 42
1.713572572
  0
ELLIPSE
  5
412
100
AcDbEntity
  8
ALL_ASSEMBLY_MEMBERS
100
AcDbEllipse
 62
7
  6
CONTINUOUS
 10
5.4720509441
 20
4.3825892857
 30
0.0
 11
1.9288290452
 21
0.0
 31
0.0
 40
0.251318281
 41
1.7071118038
 42
1.7099759023
  0
ELLIPSE
  5
413
100
AcDbEntity
  8
ALL_ASSEMBLY_MEMBERS
100
AcDbEllipse
 62
7
  6
CONTINUOUS
 10
5.2639268642
 20
4.3825892857
 30
0.0
 11
0.4182142408
 21
0.4767033111
 31
0.0
 40
0.1749164141
 41
-1.8816186254
 42
-1.8730123831
  0
ELLIPSE
  5
414
100
AcDbEntity
  8
ALL_ASSEMBLY_MEMBERS
100
AcDbEllipse
 62
7
  6
CONTINUOUS
 10
5.2639268642
 20
4.3825892857
 30
0.0
 11
0.4203531079
 21
0.479141308
 31
0.0
 40
0.1749164141
 41
-1.8810359347
 42
-1.8724740109
  0
ELLIPSE
  5
415
100
AcDbEntity
  8
ALL_ASSEMBLY_MEMBERS
100
AcDbEllipse
 62
7
  6
CONTINUOUS
 10
5.4720509441
 20
4.3825892857
 30
0.0
 11
1.9190146559
 21
-0.0
 31
0.0
 40
0.251318281
 41
1.7078133445
 42
1.7106923744
  0
ELLIPSE
  5
416
100
AcDbEntity
  8
ALL_ASSEMBLY_MEMBERS
100
AcDbEllipse
 62
7
  6
CONTINUOUS
 10
5.2325167465
 20
4.3825892857
 30
0.0
 11
0.1211290532
 21
0.4821725657
 31
0.0
 40
0.0853800458
 41
-2.0038341653
 42
-1.9912973423
  0
ELLIPSE
  5
417
100
AcDbEntity
  8
ALL_ASSEMBLY_MEMBERS
100
AcDbEllipse
 62
7
  6
CONTINUOUS
 10
5.2325167465
 20
4.3825892857
 30
0.0
 11
0.1217485418
 21
0.484638534
 31
0.0
 40
0.0853800458
 41
-2.0032957931
 42
-1.9890427398
  0
ELLIPSE
  5
418
100
AcDbEntity
  8
ALL_ASSEMBLY_MEMBERS
100
AcDbEllipse
 62
7
  6
CONTINUOUS
 10
5.3846778745
 20
4.3825892857
 30
0.0
 11
1.2858774715
 21
-0.0
 31
0.0
 40
0.3769799306
 41
1.7013869237
 42
1.7071118038
  0
ELLIPSE
  5
419
100
AcDbEntity
  8
ALL_ASSEMBLY_MEMBERS
100
AcDbEllipse
 62
7
  6
CONTINUOUS
 10
5.3846778745
 20
4.3825892857
 30
0.0
 11
1.2793345889
 21
0.0
 31
0.0
 40
0.3769799306
 41
1.7020586537
 42
1.7078133445
  0
ELLIPSE
  5
41A
100
AcDbEntity
  8
ALL_ASSEMBLY_MEMBERS
100
AcDbEllipse
 62
7
  6
CONTINUOUS
 10
5.3009547234
 20
4.3825892857
 30
0.0
 11
0.642939962
 21
-0.0
 31
0.0
 40
0.7539584232
 41
1.6928076234
 42
1.7013869237
  0
ELLIPSE
  5
41B
100
AcDbEntity
  8
ALL_ASSEMBLY_MEMBERS
100
AcDbEllipse
 62
7
  6
CONTINUOUS
 10
5.3009547234
 20
4.3825892857
 30
0.0
 11
0.6396685145
 21
-0.0
 31
0.0
 40
0.7539584232
 41
1.6934347632
 42
1.7020586537
  0
ELLIPSE
  5
41C
100
AcDbEntity
  8
ALL_ASSEMBLY_MEMBERS
100
AcDbEllipse
 62
7
  6
CONTINUOUS
 10
5.3238426721
 20
4.3825892857
 30
0.0
 11
0.7463249724
 21
-0.4698307965
 31
0.0
 40
0.1599010046
 41
-1.6130856485
 42
-1.5959095311
  0
ELLIPSE
  5
41D
100
AcDbEntity
  8
ALL_ASSEMBLY_MEMBERS
100
AcDbEllipse
 62
7
  6
CONTINUOUS
 10
5.3238426721
 20
4.3825892857
 30
0.0
 11
0.7425274748
 21
-0.4674401739
 31
0.0
 40
0.1599010046
 41
-1.6138200371
 42
-1.5965544644
  0
ELLIPSE
  5
41E
100
AcDbEntity
  8
ALL_ASSEMBLY_MEMBERS
100
AcDbEllipse
 62
7
  6
CONTINUOUS
 10
5.2696541617
 20
4.3825892857
 30
0.0
 11
0.0
 21
0.48475
 31
0.0
 40
0.7958001534
 41
0.10773218
 42
0.1220112966
  0
ELLIPSE
  5
41F
100
AcDbEntity
  8
ALL_ASSEMBLY_MEMBERS
100
AcDbEllipse
 62
7
  6
CONTINUOUS
 10
5.2696541617
 20
4.3825892857
 30
0.0
 11
0.0
 21
0.4822834646
 31
0.0
 40
0.7958001534
 41
0.1082853113
 42
0.1226384364
  0
ELLIPSE
  5
420
100
AcDbEntity
  8
ALL_ASSEMBLY_MEMBERS
100
AcDbEllipse
 62
7
  6
CONTINUOUS
 10
5.0685664535
 20
4.3825892857
 30
0.0
 11
3.1982722808
 21
-0.4543712279
 31
0.0
 40
0.0505558762
 41
-1.5239656048
 42
-1.5211117194
  0
ELLIPSE
  5
421
100
AcDbEntity
  8
ALL_ASSEMBLY_MEMBERS
100
AcDbEllipse
 62
7
  6
CONTINUOUS
 10
5.0685664535
 20
4.3825892857
 30
0.0
 11
3.2146291591
 21
-0.4566950122
 31
0.0
 40
0.0505558762
 41
-1.5241674517
 42
-1.521328112
  0
ELLIPSE
  5
422
100
AcDbEntity
  8
ALL_ASSEMBLY_MEMBERS
100
AcDbEllipse
 62
7
  6
CONTINUOUS
 10
5.2396971987
 20
4.3825892857
 30
0.0
 11
-0.0
 21
0.48475
 31
0.0
 40
0.2210555139
 41
0.0906260353
 42
0.10773218
  0
ELLIPSE
  5
423
100
AcDbEntity
  8
ALL_ASSEMBLY_MEMBERS
100
AcDbEllipse
 62
7
  6
CONTINUOUS
 10
5.2396971987
 20
4.3825892857
 30
0.0
 11
-0.0
 21
0.4822834646
 31
0.0
 40
0.2210555139
 41
0.0910908057
 42
0.1082853113
  0
ELLIPSE
  5
424
100
AcDbEntity
  8
ALL_ASSEMBLY_MEMBERS
100
AcDbEllipse
 62
7
  6
CONTINUOUS
 10
5.1229255417
 20
4.3825892857
 30
0.0
 11
1.9186443081
 21
-0.4563054692
 31
0.0
 40
0.0813853176
 41
-1.5089407422
 42
-1.5060864941
  0
ELLIPSE
  5
425
100
AcDbEntity
  8
ALL_ASSEMBLY_MEMBERS
100
AcDbEllipse
 62
7
  6
CONTINUOUS
 10
5.1229255417
 20
4.3825892857
 30
0.0
 11
1.9284568033
 21
-0.4586391457
 31
0.0
 40
0.0813853176
 41
-1.5091571348
 42
-1.5063174377
  0
ELLIPSE
  5
426
100
AcDbEntity
  8
ALL_ASSEMBLY_MEMBERS
100
AcDbEllipse
 62
7
  6
CONTINUOUS
 10
5.1519286575
 20
4.3825892857
 30
0.0
 11
1.2782580077
 21
-0.4595926617
 31
0.0
 40
0.114367678
 41
-1.484342408
 42
-1.4786327952
  0
ELLIPSE
  5
427
100
AcDbEntity
  8
ALL_ASSEMBLY_MEMBERS
100
AcDbEllipse
 62
7
  6
CONTINUOUS
 10
5.1519286575
 20
4.3825892857
 30
0.0
 11
1.2847953844
 21
-0.4619431499
 31
0.0
 40
0.114367678
 41
-1.4845733516
 42
-1.478892858
  0
ELLIPSE
  5
428
100
AcDbEntity
  8
ALL_ASSEMBLY_MEMBERS
100
AcDbEllipse
 62
7
  6
CONTINUOUS
 10
5.1845799864
 20
4.3825892857
 30
0.0
 11
0.6347072598
 21
-0.4701874538
 31
0.0
 40
0.1691116311
 41
-1.3951024531
 42
-1.386534842
  0
ELLIPSE
  5
429
100
AcDbEntity
  8
ALL_ASSEMBLY_MEMBERS
100
AcDbEllipse
 62
7
  6
CONTINUOUS
 10
5.1845799864
 20
4.3825892857
 30
0.0
 11
0.6379533341
 21
-0.4725921268
 31
0.0
 40
0.1691116311
 41
-1.3953625159
 42
-1.3868386321
  0
ELLIPSE
  5
42A
100
AcDbEntity
  8
ALL_ASSEMBLY_MEMBERS
100
AcDbEllipse
 62
7
  6
CONTINUOUS
 10
5.1998293191
 20
4.3825892857
 30
0.0
 11
-0.3749396591
 21
0.4779751482
 31
0.0
 40
0.1715483401
 41
-4.4374539601
 42
-4.4231645383
  0
ELLIPSE
  5
42B
100
AcDbEntity
  8
ALL_ASSEMBLY_MEMBERS
100
AcDbEllipse
 62
7
  6
CONTINUOUS
 10
5.1998293191
 20
4.3825892857
 30
0.0
 11
-0.3768572076
 21
0.4804196496
 31
0.0
 40
0.1715483401
 41
-4.4377577502
 42
-4.4235413607
  0
ELLIPSE
  5
42C
100
AcDbEntity
  8
ALL_ASSEMBLY_MEMBERS
100
AcDbEllipse
 62
7
  6
CONTINUOUS
 10
5.2203014075
 20
4.3825892857
 30
0.0
 11
-0.1007222974
 21
0.4822282366
 31
0.0
 40
0.0724615456
 41
-4.3045336433
 42
-4.2873661045
  0
ELLIPSE
  5
42D
100
AcDbEntity
  8
ALL_ASSEMBLY_MEMBERS
100
AcDbEllipse
 62
7
  6
CONTINUOUS
 10
5.2203014075
 20
4.3825892857
 30
0.0
 11
-0.10123742
 21
0.4846944896
 31
0.0
 40
0.0724615456
 41
-4.3049104657
 42
-4.2878308749
  0
ELLIPSE
  5
42E
100
AcDbEntity
  8
ALL_ASSEMBLY_MEMBERS
100
AcDbEllipse
 62
7
  6
CONTINUOUS
 10
5.1535718484
 20
4.3825892857
 30
0.0
 11
0.6429400371
 21
0.0
 31
0.0
 40
0.7539583352
 41
7.8485889439
 42
7.857099912
  0
ELLIPSE
  5
42F
100
AcDbEntity
  8
ALL_ASSEMBLY_MEMBERS
100
AcDbEllipse
 62
7
  6
CONTINUOUS
 10
4.9866678858
 20
4.3825892857
 30
0.0
 11
3.8576324144
 21
0.0
 31
0.0
 40
0.1256599769
 41
1.5143080044
 42
1.5171492967
  0
ELLIPSE
  5
430
100
AcDbEntity
  8
ALL_ASSEMBLY_MEMBERS
100
AcDbEllipse
 62
7
  6
CONTINUOUS
 10
4.9866678858
 20
4.3825892857
 30
0.0
 11
3.8380037666
 21
-0.0
 31
0.0
 40
0.1256599769
 41
7.7972041041
 42
7.8000599721
  0
ELLIPSE
  5
431
100
AcDbEntity
  8
ALL_ASSEMBLY_MEMBERS
100
AcDbEllipse
 62
7
  6
CONTINUOUS
 10
5.2334125826
 20
4.3825892857
 30
0.0
 11
-0.0866566919
 21
0.4847194462
 31
0.0
 40
0.0628055002
 41
-4.4316026612
 42
-4.4117214252
  0
ELLIPSE
  5
432
100
AcDbEntity
  8
ALL_ASSEMBLY_MEMBERS
100
AcDbEllipse
 62
7
  6
CONTINUOUS
 10
5.2334125826
 20
4.3825892857
 30
0.0
 11
-0.0862157599
 21
0.4822530662
 31
0.0
 40
0.0628055002
 41
-4.4318947599
 42
-4.4119116145
  0
ELLIPSE
  5
433
100
AcDbEntity
  8
ALL_ASSEMBLY_MEMBERS
100
AcDbEllipse
 62
7
  6
CONTINUOUS
 10
5.2465058012
 20
4.3825892857
 30
0.0
 11
-0.3118799231
 21
0.4821211713
 31
0.0
 40
0.1616508637
 41
-4.5359371337
 42
-4.5245667903
  0
ELLIPSE
  5
434
100
AcDbEntity
  8
ALL_ASSEMBLY_MEMBERS
100
AcDbEllipse
 62
7
  6
CONTINUOUS
 10
5.2465058012
 20
4.3825892857
 30
0.0
 11
-0.310292996
 21
0.4796680121
 31
0.0
 40
0.1616508637
 41
-4.5362876155
 42
-4.524858889
  0
ELLIPSE
  5
435
100
AcDbEntity
  8
ALL_ASSEMBLY_MEMBERS
100
AcDbEllipse
 62
7
  6
CONTINUOUS
 10
5.268484305
 20
4.3825892857
 30
0.0
 11
0.6379532564
 21
-0.4725921289
 31
0.0
 40
0.169111637
 41
-1.525970049
 42
-1.5145908343
  0
ELLIPSE
  5
436
100
AcDbEntity
  8
ALL_ASSEMBLY_MEMBERS
100
AcDbEllipse
 62
7
  6
CONTINUOUS
 10
5.268484305
 20
4.3825892857
 30
0.0
 11
0.6347071826
 21
-0.470187456
 31
0.0
 40
0.169111637
 41
-1.5263790513
 42
-1.5149413162
  0
ELLIPSE
  5
437
100
AcDbEntity
  8
ALL_ASSEMBLY_MEMBERS
100
AcDbEllipse
 62
7
  6
CONTINUOUS
 10
5.4222433876
 20
4.3825892857
 30
0.0
 11
2.5715997839
 21
-0.4573305014
 31
0.0
 40
0.0624986133
 41
-1.6423298464
 42
-1.639483481
  0
ELLIPSE
  5
438
100
AcDbEntity
  8
ALL_ASSEMBLY_MEMBERS
100
AcDbEllipse
 62
7
  6
CONTINUOUS
 10
5.4222433876
 20
4.3825892857
 30
0.0
 11
2.5585148082
 21
-0.4550034836
 31
0.0
 40
0.0624986133
 41
-1.6427535031
 42
-1.6398924833
  0
ELLIPSE
  5
439
100
AcDbEntity
  8
ALL_ASSEMBLY_MEMBERS
100
AcDbEllipse
 62
7
  6
CONTINUOUS
 10
5.1500141886
 20
4.3825892857
 30
0.0
 11
0.9644113131
 21
0.0
 31
0.0
 40
0.5026382348
 41
7.7861233771
 42
7.7974933116
  0
ELLIPSE
  5
43A
100
AcDbEntity
  8
ALL_ASSEMBLY_MEMBERS
100
AcDbEllipse
 62
7
  6
CONTINUOUS
 10
5.1500141886
 20
4.3825892857
 30
0.0
 11
0.9595041348
 21
-0.0
 31
0.0
 40
0.5026382348
 41
7.7911586055
 42
7.7972041041
  0
ELLIPSE
  5
43B
100
AcDbEntity
  8
ALL_ASSEMBLY_MEMBERS
100
AcDbEllipse
 62
7
  6
CONTINUOUS
 10
5.1863437061
 20
4.3825892857
 30
0.0
 11
-0.0
 21
0.48475
 31
0.0
 40
0.8842220554
 41
6.2067939025
 42
6.2153270503
  0
ELLIPSE
  5
43C
100
AcDbEntity
  8
ALL_ASSEMBLY_MEMBERS
100
AcDbEllipse
 62
7
  6
CONTINUOUS
 10
5.2092418014
 20
4.3825892857
 30
0.0
 11
-0.0
 21
0.48475
 31
0.0
 40
0.2652664142
 41
6.1925592719
 42
6.2067939025
  0
ELLIPSE
  5
43D
100
AcDbEntity
  8
ALL_ASSEMBLY_MEMBERS
100
AcDbEllipse
 62
7
  6
CONTINUOUS
 10
5.1501046819
 20
4.3825892857
 30
0.0
 11
1.2858813755
 21
-0.0
 31
0.0
 40
0.3769787861
 41
7.8429147916
 42
7.8485889439
  0
ELLIPSE
  5
43E
100
AcDbEntity
  8
ALL_ASSEMBLY_MEMBERS
100
AcDbEllipse
 62
7
  6
CONTINUOUS
 10
5.1539688531
 20
4.3825892857
 30
0.0
 11
0.1007223063
 21
0.4822282366
 31
0.0
 40
0.0724615514
 41
-1.9958192001
 42
-1.9786516613
  0
ELLIPSE
  5
43F
100
AcDbEntity
  8
ALL_ASSEMBLY_MEMBERS
100
AcDbEllipse
 62
7
  6
CONTINUOUS
 10
5.1539688531
 20
4.3825892857
 30
0.0
 11
0.101237429
 21
0.4846944896
 31
0.0
 40
0.0724615514
 41
-1.9953544298
 42
-1.9782748389
  0
ELLIPSE
  5
440
100
AcDbEntity
  8
ALL_ASSEMBLY_MEMBERS
100
AcDbEllipse
 62
7
  6
CONTINUOUS
 10
5.2171950816
 20
4.3825892857
 30
0.0
 11
0.1217484712
 21
0.4846385342
 31
0.0
 40
0.0853800028
 41
-1.8839500288
 42
-1.8697617145
  0
ELLIPSE
  5
441
100
AcDbEntity
  8
ALL_ASSEMBLY_MEMBERS
100
AcDbEllipse
 62
7
  6
CONTINUOUS
 10
5.2171950816
 20
4.3825892857
 30
0.0
 11
0.121128983
 21
0.482172566
 31
0.0
 40
0.0853800028
 41
-1.8838760368
 42
-1.8713258838
  0
ELLIPSE
  5
442
100
AcDbEntity
  8
ALL_ASSEMBLY_MEMBERS
100
AcDbEllipse
 62
7
  6
CONTINUOUS
 10
5.2128546639
 20
4.3825892857
 30
0.0
 11
0.4203531079
 21
0.479141308
 31
0.0
 40
0.1749164141
 41
-1.7616396296
 42
-1.7531282233
  0
ELLIPSE
  5
443
100
AcDbEntity
  8
ALL_ASSEMBLY_MEMBERS
100
AcDbEllipse
 62
7
  6
CONTINUOUS
 10
5.2128546639
 20
4.3825892857
 30
0.0
 11
0.4182142408
 21
0.4767033111
 31
0.0
 40
0.1749164141
 41
-1.7616091722
 42
-1.7530542313
  0
ELLIPSE
  5
444
100
AcDbEntity
  8
ALL_ASSEMBLY_MEMBERS
100
AcDbEllipse
 62
7
  6
CONTINUOUS
 10
5.2096639309
 20
4.3825892857
 30
0.0
 11
0.9622070503
 21
0.4656770023
 31
0.0
 40
0.1399266146
 41
-1.6381317277
 42
-1.6324577399
  0
ELLIPSE
  5
445
100
AcDbEntity
  8
ALL_ASSEMBLY_MEMBERS
100
AcDbEllipse
 62
7
  6
CONTINUOUS
 10
5.2096639309
 20
4.3825892857
 30
0.0
 11
0.9573110879
 21
0.4633075153
 31
0.0
 40
0.1399266146
 41
-1.638130289
 42
-1.6324272825
  0
ELLIPSE
  5
446
100
AcDbEntity
  8
ALL_ASSEMBLY_MEMBERS
100
AcDbEllipse
 62
7
  6
CONTINUOUS
 10
5.2066489296
 20
4.3825892857
 30
0.0
 11
1.2847953844
 21
-0.4619431499
 31
0.0
 40
0.114367678
 41
-1.5356543218
 42
-1.5299803341
  0
ELLIPSE
  5
447
100
AcDbEntity
  8
ALL_ASSEMBLY_MEMBERS
100
AcDbEllipse
 62
7
  6
CONTINUOUS
 10
5.2066489296
 20
4.3825892857
 30
0.0
 11
1.2782580077
 21
-0.4595926617
 31
0.0
 40
0.114367678
 41
-1.5356847793
 42
-1.5299817728
  0
ELLIPSE
  5
448
100
AcDbEntity
  8
ALL_ASSEMBLY_MEMBERS
100
AcDbEllipse
 62
7
  6
CONTINUOUS
 10
5.2024098132
 20
4.3825892857
 30
0.0
 11
0.5681047491
 21
-0.4746020763
 31
0.0
 40
0.1736797508
 41
-1.5122023158
 42
-1.4326628245
  0
ELLIPSE
  5
449
100
AcDbEntity
  8
ALL_ASSEMBLY_MEMBERS
100
AcDbEllipse
 62
7
  6
CONTINUOUS
 10
5.2024098132
 20
4.3825892857
 30
0.0
 11
0.5652140828
 21
-0.4721871761
 31
0.0
 40
0.1736797508
 41
-1.5126406373
 42
-1.4326932819
  0
ELLIPSE
  5
44A
100
AcDbEntity
  8
ALL_ASSEMBLY_MEMBERS
100
AcDbEllipse
 62
7
  6
CONTINUOUS
 10
5.3057038417
 20
4.3825892857
 30
0.0
 11
3.2146300597
 21
0.4566950116
 31
0.0
 40
0.0505558626
 41
-1.6202645376
 42
-1.6174251979
  0
ELLIPSE
  5
44B
100
AcDbEntity
  8
ALL_ASSEMBLY_MEMBERS
100
AcDbEllipse
 62
7
  6
CONTINUOUS
 10
5.3057038417
 20
4.3825892857
 30
0.0
 11
3.1982731769
 21
0.4543712273
 31
0.0
 40
0.0505558626
 41
-1.6204809302
 42
-1.6176270448
  0
ELLIPSE
  5
44C
100
AcDbEntity
  8
ALL_ASSEMBLY_MEMBERS
100
AcDbEllipse
 62
7
  6
CONTINUOUS
 10
5.2513446393
 20
4.3825892857
 30
0.0
 11
1.9284550012
 21
0.4586391511
 31
0.0
 40
0.0813853855
 41
-1.6352752504
 42
-1.6324355533
  0
ELLIPSE
  5
44D
100
AcDbEntity
  8
ALL_ASSEMBLY_MEMBERS
100
AcDbEllipse
 62
7
  6
CONTINUOUS
 10
5.2513446393
 20
4.3825892857
 30
0.0
 11
1.9186425152
 21
0.4563054746
 31
0.0
 40
0.0813853855
 41
-1.635506194
 42
-1.6326519458
  0
ELLIPSE
  5
44E
100
AcDbEntity
  8
ALL_ASSEMBLY_MEMBERS
100
AcDbEllipse
 62
7
  6
CONTINUOUS
 10
5.222341615
 20
4.3825892857
 30
0.0
 11
1.28479561
 21
0.461943148
 31
0.0
 40
0.1143676625
 41
-1.6626997827
 42
-1.6570192891
  0
ELLIPSE
  5
44F
100
AcDbEntity
  8
ALL_ASSEMBLY_MEMBERS
100
AcDbEllipse
 62
7
  6
CONTINUOUS
 10
5.222341615
 20
4.3825892857
 30
0.0
 11
1.2782582322
 21
0.4595926598
 31
0.0
 40
0.1143676625
 41
-1.6629598455
 42
-1.6572502327
  0
ELLIPSE
  5
450
100
AcDbEntity
  8
ALL_ASSEMBLY_MEMBERS
100
AcDbEllipse
 62
7
  6
CONTINUOUS
 10
5.1896902784
 20
4.3825892857
 30
0.0
 11
0.6379534101
 21
0.4725921247
 31
0.0
 40
0.1691116253
 41
-1.754754002
 42
-1.7462301183
  0
ELLIPSE
  5
451
100
AcDbEntity
  8
ALL_ASSEMBLY_MEMBERS
100
AcDbEllipse
 62
7
  6
CONTINUOUS
 10
5.1896902784
 20
4.3825892857
 30
0.0
 11
0.6347073354
 21
0.4701874517
 31
0.0
 40
0.1691116253
 41
-1.7550577922
 42
-1.7464901811
  0
ELLIPSE
  5
452
100
AcDbEntity
  8
ALL_ASSEMBLY_MEMBERS
100
AcDbEllipse
 62
7
  6
CONTINUOUS
 10
5.1744409433
 20
4.3825892857
 30
0.0
 11
0.3768572419
 21
0.4804196487
 31
0.0
 40
0.1715483437
 41
-1.8596439314
 42
-1.8454275419
  0
ELLIPSE
  5
453
100
AcDbEntity
  8
ALL_ASSEMBLY_MEMBERS
100
AcDbEllipse
 62
7
  6
CONTINUOUS
 10
5.1744409433
 20
4.3825892857
 30
0.0
 11
0.3749396931
 21
0.4779751472
 31
0.0
 40
0.1715483437
 41
-1.8600207538
 42
-1.8457313321
  0
ENDSEC
  0
SECTION
  2
OBJECTS
  0
DICTIONARY
  5
C
100
AcDbDictionary
280
0
281
1
  3
ACAD_GROUP
350
D
  3
ACAD_MLINESTYLE
350
17
  3
ACAD_LAYOUT
350
1A
  3
ACAD_PLOTSETTINGS
350
19
  3
ACAD_PLOTSTYLENAME
350
E
  0
DICTIONARY
  5
D
102
{ACAD_REACTORS
330
C
102
}
100
AcDbDictionary
280
0
281
1
  0
ACDBDICTIONARYWDFLT
  5
E
102
{ACAD_REACTORS
330
C
102
}
100
AcDbDictionary
281
1
  3
Normal
350
F
100
AcDbDictionaryWithDefault
340
F
  0
DICTIONARY
  5
17
102
{ACAD_REACTORS
330
C
102
}
100
AcDbDictionary
280
0
281
1
  3
Standard
350
18
  0
DICTIONARY
  5
19
102
{ACAD_REACTORS
330
C
102
}
100
AcDbDictionary
281
1
  0
DICTIONARY
  5
1A
102
{ACAD_REACTORS
330
C
102
}
100
AcDbDictionary
281
1
  3
Model
350
454
  3
Layout1
350
455
  0
ACDBPLACEHOLDER
  5
F
102
{ACAD_REACTORS
330
E
102
}
  0
MLINESTYLE
  5
18
102
{ACAD_REACTORS
330
17
102
}
100
AcDbMlineStyle
  2
STANDARD
 70
0
  3

 62
256
 51
90.0
 52
90.0
 71
2
 49
0.5
 62
256
  6
BYLAYER
 49
-0.5
 62
256
  6
BYLAYER
  0
LAYOUT
  5
454
102
{ACAD_REACTORS
330
1A
102
}
100
AcDbPlotSettings
  1

  2
none_device
  4
ANSI_A_(11.00_x_8.50_Inches)
  6

 40
0.0
 41
0.0
 42
0.0
 43
0.0
 44
279.4
 45
215.9
 46
0.0
 47
0.0
 48
0.0
 49
0.0
140
0.0
141
0.0
142
1.0
143
1.0
 70
1024
 72
0
 73
0
 74
0
  7

 75
0
147
1.0
148
0.0
149
0.0
100
AcDbLayout
  1
Model
 70
0
 71
0
 10
0.0
 20
0.0
 11
11.0
 21
8.5
 12
0.0
 22
0.0
 32
0.0
 14
0.0
 24
0.0
 34
0.0
 15
0.0
 25
0.0
 35
0.0
146
0.0
 13
0.0
 23
0.0
 33
0.0
 16
1.0
 26
0.0
 36
0.0
 17
0.0
 27
1.0
 37
0.0
 76
0
330
21F
345
0
346
0
  0
LAYOUT
  5
455
102
{ACAD_REACTORS
330
1A
102
}
100
AcDbPlotSettings
  1

  2
none_device
  4
ANSI_A_(11.00_x_8.50_Inches)
  6

 40
0.0
 41
0.0
 42
0.0
 43
0.0
 44
279.4
 45
215.9
 46
0.0
 47
0.0
 48
0.0
 49
0.0
140
0.0
141
0.0
142
1.0
143
1.0
 70
0
 72
0
 73
0
 74
0
  7

 75
0
147
1.0
148
0.0
149
0.0
100
AcDbLayout
  1
Layout1
 70
0
 71
1
 10
0.0
 20
0.0
 11
11.0
 21
8.5
 12
0.0
 22
0.0
 32
0.0
 14
0.0
 24
0.0
 34
0.0
 15
0.0
 25
0.0
 35
0.0
146
0.0
 13
0.0
 23
0.0
 33
0.0
 16
1.0
 26
0.0
 36
0.0
 17
0.0
 27
1.0
 37
0.0
 76
0
330
220
345
0
346
0
  0
ENDSEC
  0
EOF
