999
DXF file: 3-1625_TOP.dxf
999
Pro/ENGINEER 2018400 by Parametric Technology Corporation
  0
SECTION
  2
HEADER
  9
$ACADVER
  1
AC1027
  9
$DWGCODEPAGE
  3
ANSI_1252
  9
$EXTMAX
 10
11.0
 20
8.5
 30
0.0
  9
$EXTMIN
 10
0.0
 20
0.0
 30
0.0
  9
$LIMMIN
 10
0.0
 20
0.0
  9
$LIMMAX
 10
11.0
 20
8.5
  9
$VIEWCTR
 10
5.5
 20
4.25
  9
$VIEWSIZE
 40
8.5
  9
$CLAYER
  8
0
  9
$LTSCALE
 40
0.605
  9
$CELTYPE
  6
BYLAYER
  9
$DIMSCALE
 40
1.0
  9
$DIMASZ
 40
0.1
  9
$DIMEXO
 40
0.0625
  9
$DIMDLI
 40
0.418
  9
$DIMEXE
 40
0.125
  9
$DIMCEN
 40
0.099
  9
$DIMLFAC
 40
1.0
  9
$DIMBLK
  1
_FILLED
  9
$DIMALT
 70
1
  9
$DIMALTD
 70
2
  9
$DIMALTTD
 70
2
  9
$DIMALTF
 40
25.4
  9
$DIMTXT
 40
0.08
  9
$DIMTOL
 70
1
  9
$DIMLIM
 70
0
  9
$DIMTFAC
 40
1.0
  9
$DIMTP
 40
0.001
  9
$DIMTM
 40
0.001
  9
$DIMGAP
 40
0.09
  9
$DIMDSEP
 70
46
  9
$AUNITS
 70
0
  9
$PDMODE
 70
3
  9
$PDSIZE
 40
0.3125
  9
$HANDSEED
  5
574
  9
$TILEMODE
 70
1
  9
$MEASUREMENT
 70
0
  9
$INSUNITS
 70
1
  0
ENDSEC
  0
SECTION
  2
CLASSES
  0
CLASS
  1
ACDBDICTIONARYWDFLT
  2
AcDbDictionaryWithDefault
  3
AutoCAD 2000
 90
0
 91
1
280
0
281
0
  0
CLASS
  1
ACDBPLACEHOLDER
  2
AcDbPlaceHolder
  3
AutoCAD 2000
 90
0
 91
1
280
0
281
0
  0
CLASS
  1
LAYOUT
  2
AcDbLayout
  3
AutoCAD 2000
 90
0
 91
0
280
0
281
0
  0
ENDSEC
  0
SECTION
  2
TABLES
  0
TABLE
  2
VPORT
  5
8
100
AcDbSymbolTable
 70
2
  0
VPORT
  5
1F4
100
AcDbSymbolTableRecord
100
AcDbViewportTableRecord
  2
*ACTIVE
 70
0
 10
0.0
 20
0.0
 11
1.0
 21
1.0
 12
5.5
 22
4.25
 13
0.0
 23
0.0
 14
1.0
 24
1.0
 15
0.0
 25
0.0
 16
0.0
 26
0.0
 36
1.0
 17
0.0
 27
0.0
 37
0.0
 40
8.5
 41
1.2941176471
 42
50.0
 43
0.0
 44
0.0
 50
0.0
 51
0.0
 71
0
 72
100
 73
1
 74
1
 75
0
 76
0
 77
0
 78
0
  0
ENDTAB
  0
TABLE
  2
LTYPE
  5
5
100
AcDbSymbolTable
 70
6
  0
LTYPE
  5
14
100
AcDbSymbolTableRecord
100
AcDbLinetypeTableRecord
  2
BYBLOCK
 70
0
  3

 72
65
 73
0
 40
0.0
  0
LTYPE
  5
15
100
AcDbSymbolTableRecord
100
AcDbLinetypeTableRecord
  2
BYLAYER
 70
0
  3

 72
65
 73
0
 40
0.0
  0
LTYPE
  5
16
100
AcDbSymbolTableRecord
100
AcDbLinetypeTableRecord
  2
CONTINUOUS
 70
64
  3
Solid line
 72
65
 73
0
 40
0.0
  0
LTYPE
  5
1F5
100
AcDbSymbolTableRecord
100
AcDbLinetypeTableRecord
  2
CENTER
 70
64
  3
____ _ ____ _ ____ _ ____ _ ____ _ ____ _ ____
 72
65
 73
4
 40
0.6
 49
0.375
 74
0
 49
-0.075
 74
0
 49
0.075
 74
0
 49
-0.075
 74
0
  0
LTYPE
  5
1F6
100
AcDbSymbolTableRecord
100
AcDbLinetypeTableRecord
  2
HIDDEN
 70
64
  3
- - - - - - - - - - - - - - - - - - - -
 72
65
 73
2
 40
0.2
 49
0.1
 74
0
 49
-0.1
 74
0
  0
LTYPE
  5
1F7
100
AcDbSymbolTableRecord
100
AcDbLinetypeTableRecord
  2
PHANTOM
 70
64
  3
_____ _ _ _____ _ _ _____ _ _ _____
 72
65
 73
6
 40
0.8
 49
0.45
 74
0
 49
-0.05
 74
0
 49
0.1
 74
0
 49
-0.05
 74
0
 49
0.1
 74
0
 49
-0.05
 74
0
  0
LTYPE
  5
1F8
100
AcDbSymbolTableRecord
100
AcDbLinetypeTableRecord
  2
DOT
 70
64
  3
. . . . . . . . . . . . . . . . . . . .
 72
65
 73
2
 40
0.2
 49
0.1
 74
0
 49
-0.1
 74
0
  0
LTYPE
  5
1F9
100
AcDbSymbolTableRecord
100
AcDbLinetypeTableRecord
  2
DASHED
 70
64
  3
- - - - - - - - - - - - - - - - - - - -
 72
65
 73
2
 40
0.2
 49
0.1
 74
0
 49
-0.1
 74
0
  0
ENDTAB
  0
TABLE
  2
LAYER
  5
2
100
AcDbSymbolTable
 70
36
  0
LAYER
  5
10
100
AcDbSymbolTableRecord
100
AcDbLayerTableRecord
  2
0
 70
0
 62
7
  6
CONTINUOUS
370
-3
390
F
  0
LAYER
  5
1FA
100
AcDbSymbolTableRecord
100
AcDbLayerTableRecord
  2
DEFAULT_1
 70
0
 62
7
  6
CENTER
370
-3
390
F
  0
LAYER
  5
1FB
100
AcDbSymbolTableRecord
100
AcDbLayerTableRecord
  2
DEFAULT_2
 70
0
 62
8
  6
HIDDEN
370
-3
390
F
  0
LAYER
  5
1FC
100
AcDbSymbolTableRecord
100
AcDbLayerTableRecord
  2
DEFAULT_3
 70
0
 62
7
  6
PHANTOM
370
-3
390
F
  0
LAYER
  5
1FD
100
AcDbSymbolTableRecord
100
AcDbLayerTableRecord
  2
ADATUM
 70
0
 62
7
  6
CONTINUOUS
370
-3
390
F
  0
LAYER
  5
1FE
100
AcDbSymbolTableRecord
100
AcDbLayerTableRecord
  2
ALL_ASSEMBLY_MEMBERS
 70
0
 62
7
  6
CONTINUOUS
370
-3
390
F
  0
LAYER
  5
1FF
100
AcDbSymbolTableRecord
100
AcDbLayerTableRecord
  2
ALL_FEATURES
 70
0
 62
7
  6
CONTINUOUS
370
-3
390
F
  0
LAYER
  5
200
100
AcDbSymbolTableRecord
100
AcDbLayerTableRecord
  2
AXES_FEATURES
 70
0
 62
7
  6
CONTINUOUS
370
-3
390
F
  0
LAYER
  5
201
100
AcDbSymbolTableRecord
100
AcDbLayerTableRecord
  2
BLANK_ME
 70
0
 62
7
  6
CONTINUOUS
370
-3
390
F
  0
LAYER
  5
202
100
AcDbSymbolTableRecord
100
AcDbLayerTableRecord
  2
CHAMFER_FEATURES
 70
0
 62
7
  6
CONTINUOUS
370
-3
390
F
  0
LAYER
  5
203
100
AcDbSymbolTableRecord
100
AcDbLayerTableRecord
  2
CROSS_CUT
 70
0
 62
7
  6
CONTINUOUS
370
-3
390
F
  0
LAYER
  5
204
100
AcDbSymbolTableRecord
100
AcDbLayerTableRecord
  2
CURVES
 70
0
 62
7
  6
CONTINUOUS
370
-3
390
F
  0
LAYER
  5
205
100
AcDbSymbolTableRecord
100
AcDbLayerTableRecord
  2
CUT_FEATURES
 70
0
 62
7
  6
CONTINUOUS
370
-3
390
F
  0
LAYER
  5
206
100
AcDbSymbolTableRecord
100
AcDbLayerTableRecord
  2
DATUM_CURVES
 70
0
 62
7
  6
CONTINUOUS
370
-3
390
F
  0
LAYER
  5
207
100
AcDbSymbolTableRecord
100
AcDbLayerTableRecord
  2
DATUM_PLANES
 70
0
 62
7
  6
CONTINUOUS
370
-3
390
F
  0
LAYER
  5
208
100
AcDbSymbolTableRecord
100
AcDbLayerTableRecord
  2
DATUM_POINTS
 70
0
 62
7
  6
CONTINUOUS
370
-3
390
F
  0
LAYER
  5
209
100
AcDbSymbolTableRecord
100
AcDbLayerTableRecord
  2
DEFAULT_COORDINATE_SYSTEM
 70
0
 62
7
  6
CONTINUOUS
370
-3
390
F
  0
LAYER
  5
20A
100
AcDbSymbolTableRecord
100
AcDbLayerTableRecord
  2
DEFAULT_DATUM_AXES
 70
0
 62
7
  6
CONTINUOUS
370
-3
390
F
  0
LAYER
  5
20B
100
AcDbSymbolTableRecord
100
AcDbLayerTableRecord
  2
DEFAULT_DATUM_CURVES
 70
0
 62
7
  6
CONTINUOUS
370
-3
390
F
  0
LAYER
  5
20C
100
AcDbSymbolTableRecord
100
AcDbLayerTableRecord
  2
DEFAULT_DATUM_PLANES
 70
0
 62
7
  6
CONTINUOUS
370
-3
390
F
  0
LAYER
  5
20D
100
AcDbSymbolTableRecord
100
AcDbLayerTableRecord
  2
DEFAULT_SURFACES
 70
0
 62
7
  6
CONTINUOUS
370
-3
390
F
  0
LAYER
  5
20E
100
AcDbSymbolTableRecord
100
AcDbLayerTableRecord
  2
DEF_DTM0
 70
0
 62
7
  6
CONTINUOUS
370
-3
390
F
  0
LAYER
  5
20F
100
AcDbSymbolTableRecord
100
AcDbLayerTableRecord
  2
DIMENSIONS
 70
0
 62
7
  6
CONTINUOUS
370
-3
390
F
  0
LAYER
  5
210
100
AcDbSymbolTableRecord
100
AcDbLayerTableRecord
  2
DRW_DTM
 70
0
 62
7
  6
CONTINUOUS
370
-3
390
F
  0
LAYER
  5
211
100
AcDbSymbolTableRecord
100
AcDbLayerTableRecord
  2
HOLE_FEATURES
 70
0
 62
7
  6
CONTINUOUS
370
-3
390
F
  0
LAYER
  5
212
100
AcDbSymbolTableRecord
100
AcDbLayerTableRecord
  2
NOTES
 70
0
 62
7
  6
CONTINUOUS
370
-3
390
F
  0
LAYER
  5
213
100
AcDbSymbolTableRecord
100
AcDbLayerTableRecord
  2
PART_REFERENCE_DIMENSIONS
 70
0
 62
7
  6
CONTINUOUS
370
-3
390
F
  0
LAYER
  5
214
100
AcDbSymbolTableRecord
100
AcDbLayerTableRecord
  2
POINTS
 70
0
 62
7
  6
CONTINUOUS
370
-3
390
F
  0
LAYER
  5
215
100
AcDbSymbolTableRecord
100
AcDbLayerTableRecord
  2
PROTRUSION_FEATURES
 70
0
 62
7
  6
CONTINUOUS
370
-3
390
F
  0
LAYER
  5
216
100
AcDbSymbolTableRecord
100
AcDbLayerTableRecord
  2
QUILTS
 70
0
 62
7
  6
CONTINUOUS
370
-3
390
F
  0
LAYER
  5
217
100
AcDbSymbolTableRecord
100
AcDbLayerTableRecord
  2
REFERENCE_DIMENSIONS
 70
0
 62
7
  6
CONTINUOUS
370
-3
390
F
  0
LAYER
  5
218
100
AcDbSymbolTableRecord
100
AcDbLayerTableRecord
  2
ROUND_FEATURES
 70
0
 62
7
  6
CONTINUOUS
370
-3
390
F
  0
LAYER
  5
219
100
AcDbSymbolTableRecord
100
AcDbLayerTableRecord
  2
SHELL_FEATURES
 70
0
 62
7
  6
CONTINUOUS
370
-3
390
F
  0
LAYER
  5
21A
100
AcDbSymbolTableRecord
100
AcDbLayerTableRecord
  2
SURFACE_FEATURES
 70
0
 62
7
  6
CONTINUOUS
370
-3
390
F
  0
LAYER
  5
21B
100
AcDbSymbolTableRecord
100
AcDbLayerTableRecord
  2
WETTED_SURFACE_AREA
 70
0
 62
7
  6
CONTINUOUS
370
-3
390
F
  0
ENDTAB
  0
TABLE
  2
STYLE
  5
3
100
AcDbSymbolTable
 70
1
  0
STYLE
  5
11
100
AcDbSymbolTableRecord
100
AcDbTextStyleTableRecord
  2
STANDARD
 70
0
 40
0.0
 41
0.8
 50
0.0
 71
0
 42
0.2
  3
txt
  4

  0
STYLE
  5
21C
100
AcDbSymbolTableRecord
100
AcDbTextStyleTableRecord
  2
TEXTSTYLE_1
 70
0
 40
0.0
 41
0.8
 50
0.0
 71
0
 42
0.2
  3
gdt
  4

  0
ENDTAB
  0
TABLE
  2
VIEW
  5
6
100
AcDbSymbolTable
 70
0
  0
ENDTAB
  0
TABLE
  2
UCS
  5
7
100
AcDbSymbolTable
 70
0
  0
ENDTAB
  0
TABLE
  2
APPID
  5
9
100
AcDbSymbolTable
 70
1
  0
APPID
  5
21D
100
AcDbSymbolTableRecord
100
AcDbRegAppTableRecord
  2
ACAD
 70
0
  0
ENDTAB
  0
TABLE
  2
BLOCK_RECORD
  5
1
100
AcDbSymbolTable
 70
0
  0
BLOCK_RECORD
  5
21E
100
AcDbSymbolTableRecord
100
AcDbBlockTableRecord
  2
*Model_Space
  0
BLOCK_RECORD
  5
21F
100
AcDbSymbolTableRecord
100
AcDbBlockTableRecord
  2
*Paper_Space
  0
BLOCK_RECORD
  5
220
100
AcDbSymbolTableRecord
100
AcDbBlockTableRecord
  2
_FILLED
  0
ENDTAB
  0
TABLE
  2
DIMSTYLE
  5
A
100
AcDbSymbolTable
 70
1
100
AcDbDimStyleTable
 71
0
  0
DIMSTYLE
105
221
100
AcDbSymbolTableRecord
100
AcDbDimStyleTableRecord
  2
STANDARD
 70
0
  3

  4

 40
1.0
 41
0.1
 42
0.0625
 43
0.38
 44
0.125
 45
0.0
 46
0.0
 47
0.001
 48
0.001
140
0.08
141
0.09
142
0.0
143
25.4
144
1.0
145
0.0
146
1.0
147
0.09
 71
1.0
 72
0.0
 73
1
 74
1
 75
0
 76
0
 77
0
 78
4
 79
1
170
1
171
2
172
0
173
0
174
0
175
0
176
0
177
0
178
0
270
2
179
3
271
3
272
3
273
2
274
2
275
0
280
0
281
0
282
0
283
1
284
4
285
0
286
0
287
3
288
0
340
11
278
46
341
220
342
220
343
220
344
220
  0
ENDTAB
  0
ENDSEC
  0
SECTION
  2
BLOCKS
  0
BLOCK
  5
20
100
AcDbEntity
  8
0
100
AcDbBlockBegin
  2
*Model_Space
 70
0
 10
0.0
 20
0.0
 30
0.0
  3
*Model_Space
  1

  0
ENDBLK
  5
21
100
AcDbEntity
  8
0
100
AcDbBlockEnd
  0
BLOCK
  5
1C
100
AcDbEntity
  8
0
100
AcDbBlockBegin
  2
*Paper_Space
 70
0
 10
0.0
 20
0.0
 30
0.0
  3
*Paper_Space
  1

  0
ENDBLK
  5
1D
100
AcDbEntity
  8
0
100
AcDbBlockEnd
  0
BLOCK
  5
222
100
AcDbEntity
  8
0
100
AcDbBlockBegin
  2
_FILLED
 70
64
 10
0.0
 20
0.0
  3
_FILLED
  1

  0
SOLID
  5
223
100
AcDbEntity
  8
0
  6
BYBLOCK
 62
0
100
AcDbTrace
 10
0.0
 20
0.0
 11
-1.0
 21
0.2
 12
-1.0
 22
-0.2
 13
-1.0
 23
-0.2
  0
ENDBLK
  5
224
100
AcDbEntity
  8
0
  6
BYBLOCK
 62
0
100
AcDbBlockEnd
  0
ENDSEC
  0
SECTION
  2
ENTITIES
  0
MTEXT
  5
225
100
AcDbEntity
  8
0
100
AcDbMText
 62
2
  6
CONTINUOUS
  7
STANDARD
 71
3
 72
1
 10
2.9577445652
 20
1.9000585722
 30
0.0
 11
1.0
 21
0.0
 31
0.0
 73
2
 44
0.9
  1
SCALE  .500
 40
0.08
 41
0.704
  0
LINE
  5
226
100
AcDbEntity
  8
0
100
AcDbLine
 62
7
  6
CONTINUOUS
 10
0.0
 20
0.0
 11
0.0
 21
8.5
  0
LINE
  5
227
100
AcDbEntity
  8
0
100
AcDbLine
 62
7
  6
CONTINUOUS
 10
0.0
 20
0.0
 11
11.0
 21
0.0
  0
LINE
  5
228
100
AcDbEntity
  8
0
100
AcDbLine
 62
7
  6
CONTINUOUS
 10
0.0
 20
8.5
 11
11.0
 21
8.5
  0
LINE
  5
229
100
AcDbEntity
  8
0
100
AcDbLine
 62
7
  6
CONTINUOUS
 10
11.0
 20
0.0
 11
11.0
 21
8.5
  0
LINE
  5
22A
100
AcDbEntity
  8
ALL_ASSEMBLY_MEMBERS
100
AcDbLine
 62
7
  6
CONTINUOUS
 10
1.7864636592
 20
4.9659830615
 11
1.7863870214
 21
4.9747868343
  0
LINE
  5
22B
100
AcDbEntity
  8
ALL_ASSEMBLY_MEMBERS
100
AcDbLine
 62
7
  6
CONTINUOUS
 10
1.7663796584
 20
4.7703722153
 11
1.7663796584
 21
4.9547823917
  0
LINE
  5
22C
100
AcDbEntity
  8
ALL_ASSEMBLY_MEMBERS
100
AcDbLine
 62
7
  6
CONTINUOUS
 10
1.7870809812
 20
4.779001514
 11
1.7870809812
 21
4.9461552497
  0
LINE
  5
22D
100
AcDbEntity
  8
ALL_ASSEMBLY_MEMBERS
100
AcDbLine
 62
7
  6
CONTINUOUS
 10
1.7869118956
 20
4.7503748637
 11
1.786983651
 21
4.7591824512
  0
LINE
  5
22E
100
AcDbEntity
  8
ALL_ASSEMBLY_MEMBERS
100
AcDbLine
 62
7
  6
CONTINUOUS
 10
2.5663796584
 20
6.0299973284
 11
2.5663796584
 21
6.1049973284
  0
LINE
  5
22F
100
AcDbEntity
  8
ALL_ASSEMBLY_MEMBERS
100
AcDbLine
 62
7
  6
CONTINUOUS
 10
2.5663889506
 20
5.9049973284
 11
2.5663889506
 21
5.8674973284
  0
LINE
  5
230
100
AcDbEntity
  8
ALL_ASSEMBLY_MEMBERS
100
AcDbLine
 62
7
  6
CONTINUOUS
 10
2.5666507367
 20
5.9049973284
 11
2.5666507367
 21
5.8674973284
  0
LINE
  5
231
100
AcDbEntity
  8
ALL_ASSEMBLY_MEMBERS
100
AcDbLine
 62
7
  6
CONTINUOUS
 10
2.5668886194
 20
5.9049973284
 11
2.5668886194
 21
5.8674973284
  0
LINE
  5
232
100
AcDbEntity
  8
ALL_ASSEMBLY_MEMBERS
100
AcDbLine
 62
7
  6
CONTINUOUS
 10
2.5676736588
 20
5.9049973284
 11
2.5676736588
 21
5.8674973284
  0
LINE
  5
233
100
AcDbEntity
  8
ALL_ASSEMBLY_MEMBERS
100
AcDbLine
 62
7
  6
CONTINUOUS
 10
2.5681491344
 20
5.9049973284
 11
2.5681491344
 21
5.8674973284
  0
LINE
  5
234
100
AcDbEntity
  8
ALL_ASSEMBLY_MEMBERS
100
AcDbLine
 62
7
  6
CONTINUOUS
 10
2.5694564705
 20
5.9049973284
 11
2.5694564705
 21
5.8674973284
  0
LINE
  5
235
100
AcDbEntity
  8
ALL_ASSEMBLY_MEMBERS
100
AcDbLine
 62
7
  6
CONTINUOUS
 10
2.5701689597
 20
5.9049973284
 11
2.5701689597
 21
5.8674973284
  0
LINE
  5
236
100
AcDbEntity
  8
ALL_ASSEMBLY_MEMBERS
100
AcDbLine
 62
7
  6
CONTINUOUS
 10
2.5719969999
 20
5.9049973284
 11
2.5719969999
 21
5.8674973284
  0
LINE
  5
237
100
AcDbEntity
  8
ALL_ASSEMBLY_MEMBERS
100
AcDbLine
 62
7
  6
CONTINUOUS
 10
2.5729456346
 20
5.9049973284
 11
2.5729456346
 21
5.8674973284
  0
LINE
  5
238
100
AcDbEntity
  8
ALL_ASSEMBLY_MEMBERS
100
AcDbLine
 62
7
  6
CONTINUOUS
 10
2.5752921516
 20
5.9049973284
 11
2.5752921516
 21
5.8674973284
  0
LINE
  5
239
100
AcDbEntity
  8
ALL_ASSEMBLY_MEMBERS
100
AcDbLine
 62
7
  6
CONTINUOUS
 10
2.5764757761
 20
5.9049973284
 11
2.5764757761
 21
5.8674973284
  0
LINE
  5
23A
100
AcDbEntity
  8
ALL_ASSEMBLY_MEMBERS
100
AcDbLine
 62
7
  6
CONTINUOUS
 10
2.579337911
 20
5.9049973284
 11
2.579337911
 21
5.8674973284
  0
LINE
  5
23B
100
AcDbEntity
  8
ALL_ASSEMBLY_MEMBERS
100
AcDbLine
 62
7
  6
CONTINUOUS
 10
2.5807550832
 20
5.9049973284
 11
2.5807550832
 21
5.8674973284
  0
LINE
  5
23C
100
AcDbEntity
  8
ALL_ASSEMBLY_MEMBERS
100
AcDbLine
 62
7
  6
CONTINUOUS
 10
2.584129349
 20
5.9049973284
 11
2.584129349
 21
5.8674973284
  0
LINE
  5
23D
100
AcDbEntity
  8
ALL_ASSEMBLY_MEMBERS
100
AcDbLine
 62
7
  6
CONTINUOUS
 10
2.5857783423
 20
5.9049973284
 11
2.5857783423
 21
5.8674973284
  0
LINE
  5
23E
100
AcDbEntity
  8
ALL_ASSEMBLY_MEMBERS
100
AcDbLine
 62
7
  6
CONTINUOUS
 10
2.589660628
 20
5.9049973284
 11
2.589660628
 21
5.8674973284
  0
LINE
  5
23F
100
AcDbEntity
  8
ALL_ASSEMBLY_MEMBERS
100
AcDbLine
 62
7
  6
CONTINUOUS
 10
2.5913796584
 20
5.9049973284
 11
2.5913796584
 21
6.0049973284
  0
LINE
  5
240
100
AcDbEntity
  8
ALL_ASSEMBLY_MEMBERS
100
AcDbLine
 62
7
  6
CONTINUOUS
 10
2.5915394334
 20
5.9049973284
 11
2.5915394334
 21
5.8674973284
  0
LINE
  5
241
100
AcDbEntity
  8
ALL_ASSEMBLY_MEMBERS
100
AcDbLine
 62
7
  6
CONTINUOUS
 10
2.595925009
 20
5.9049973284
 11
2.595925009
 21
5.8674973284
  0
LINE
  5
242
100
AcDbEntity
  8
ALL_ASSEMBLY_MEMBERS
100
AcDbLine
 62
7
  6
CONTINUOUS
 10
2.5980313373
 20
5.9049973284
 11
2.5980313373
 21
5.8674973284
  0
LINE
  5
243
100
AcDbEntity
  8
ALL_ASSEMBLY_MEMBERS
100
AcDbLine
 62
7
  6
CONTINUOUS
 10
2.6029148597
 20
5.9049973284
 11
2.6029148597
 21
5.8674973284
  0
LINE
  5
244
100
AcDbEntity
  8
ALL_ASSEMBLY_MEMBERS
100
AcDbLine
 62
7
  6
CONTINUOUS
 10
2.6052461448
 20
5.9049973284
 11
2.6052461448
 21
5.8674973284
  0
LINE
  5
245
100
AcDbEntity
  8
ALL_ASSEMBLY_MEMBERS
100
AcDbLine
 62
7
  6
CONTINUOUS
 10
2.6106216641
 20
5.9049973284
 11
2.6106216641
 21
5.8674973284
  0
LINE
  5
246
100
AcDbEntity
  8
ALL_ASSEMBLY_MEMBERS
100
AcDbLine
 62
7
  6
CONTINUOUS
 10
2.6131750657
 20
5.9049973284
 11
2.6131750657
 21
5.8674973284
  0
LINE
  5
247
100
AcDbEntity
  8
ALL_ASSEMBLY_MEMBERS
100
AcDbLine
 62
7
  6
CONTINUOUS
 10
2.7163796584
 20
5.4674973284
 11
2.7538796584
 21
5.5049973284
  0
LINE
  5
248
100
AcDbEntity
  8
ALL_ASSEMBLY_MEMBERS
100
AcDbLine
 62
7
  6
CONTINUOUS
 10
2.6190360327
 20
5.9049973284
 11
2.6190360327
 21
5.8674973284
  0
LINE
  5
249
100
AcDbEntity
  8
ALL_ASSEMBLY_MEMBERS
100
AcDbLine
 62
7
  6
CONTINUOUS
 10
2.6218084398
 20
5.9049973284
 11
2.6218084398
 21
5.8674973284
  0
LINE
  5
24A
100
AcDbEntity
  8
ALL_ASSEMBLY_MEMBERS
100
AcDbLine
 62
7
  6
CONTINUOUS
 10
2.6281477138
 20
5.9049973284
 11
2.6281477138
 21
5.8674973284
  0
LINE
  5
24B
100
AcDbEntity
  8
ALL_ASSEMBLY_MEMBERS
100
AcDbLine
 62
7
  6
CONTINUOUS
 10
2.6311357488
 20
5.9049973284
 11
2.6311357488
 21
5.8674973284
  0
LINE
  5
24C
100
AcDbEntity
  8
ALL_ASSEMBLY_MEMBERS
100
AcDbLine
 62
7
  6
CONTINUOUS
 10
2.6379456063
 20
5.9049973284
 11
2.6379456063
 21
5.8674973284
  0
LINE
  5
24D
100
AcDbEntity
  8
ALL_ASSEMBLY_MEMBERS
100
AcDbLine
 62
7
  6
CONTINUOUS
 10
2.6411456286
 20
5.9049973284
 11
2.6411456286
 21
5.8674973284
  0
LINE
  5
24E
100
AcDbEntity
  8
ALL_ASSEMBLY_MEMBERS
100
AcDbLine
 62
7
  6
CONTINUOUS
 10
2.6484177729
 20
5.9049973284
 11
2.6484177729
 21
5.8674973284
  0
LINE
  5
24F
100
AcDbEntity
  8
ALL_ASSEMBLY_MEMBERS
100
AcDbLine
 62
7
  6
CONTINUOUS
 10
2.6518258838
 20
5.9049973284
 11
2.6518258838
 21
5.8674973284
  0
LINE
  5
250
100
AcDbEntity
  8
ALL_ASSEMBLY_MEMBERS
100
AcDbLine
 62
7
  6
CONTINUOUS
 10
2.6595514549
 20
5.9049973284
 11
2.6595514549
 21
5.8674973284
  0
LINE
  5
251
100
AcDbEntity
  8
ALL_ASSEMBLY_MEMBERS
100
AcDbLine
 62
7
  6
CONTINUOUS
 10
2.6631635022
 20
5.9049973284
 11
2.6631635022
 21
5.8674973284
  0
LINE
  5
252
100
AcDbEntity
  8
ALL_ASSEMBLY_MEMBERS
100
AcDbLine
 62
7
  6
CONTINUOUS
 10
2.6713330877
 20
5.9049973284
 11
2.6713330877
 21
5.8674973284
  0
LINE
  5
253
100
AcDbEntity
  8
ALL_ASSEMBLY_MEMBERS
100
AcDbLine
 62
7
  6
CONTINUOUS
 10
2.6751446706
 20
5.9049973284
 11
2.6751446706
 21
5.8674973284
  0
LINE
  5
254
100
AcDbEntity
  8
ALL_ASSEMBLY_MEMBERS
100
AcDbLine
 62
7
  6
CONTINUOUS
 10
2.6788796584
 20
5.3174973284
 11
2.6788796584
 21
5.4174973284
  0
LINE
  5
255
100
AcDbEntity
  8
ALL_ASSEMBLY_MEMBERS
100
AcDbLine
 62
7
  6
CONTINUOUS
 10
2.6837483171
 20
5.9049973284
 11
2.6837483171
 21
5.8674973284
  0
LINE
  5
256
100
AcDbEntity
  8
ALL_ASSEMBLY_MEMBERS
100
AcDbLine
 62
7
  6
CONTINUOUS
 10
2.6877547918
 20
5.9049973284
 11
2.6877547918
 21
5.8674973284
  0
LINE
  5
257
100
AcDbEntity
  8
ALL_ASSEMBLY_MEMBERS
100
AcDbLine
 62
7
  6
CONTINUOUS
 10
2.6967820172
 20
5.9049973284
 11
2.6967820172
 21
5.8674973284
  0
LINE
  5
258
100
AcDbEntity
  8
ALL_ASSEMBLY_MEMBERS
100
AcDbLine
 62
7
  6
CONTINUOUS
 10
2.7009785024
 20
5.9049973284
 11
2.7009785024
 21
5.8674973284
  0
LINE
  5
259
100
AcDbEntity
  8
ALL_ASSEMBLY_MEMBERS
100
AcDbLine
 62
7
  6
CONTINUOUS
 10
2.7104183082
 20
5.9049973284
 11
2.7104183082
 21
5.8674973284
  0
LINE
  5
25A
100
AcDbEntity
  8
ALL_ASSEMBLY_MEMBERS
100
AcDbLine
 62
7
  6
CONTINUOUS
 10
2.7147996912
 20
5.9049973284
 11
2.7147996912
 21
5.8674973284
  0
LINE
  5
25B
100
AcDbEntity
  8
ALL_ASSEMBLY_MEMBERS
100
AcDbLine
 62
7
  6
CONTINUOUS
 10
2.7163796584
 20
5.2924973284
 11
2.7163796584
 21
5.3174973284
  0
LINE
  5
25C
100
AcDbEntity
  8
ALL_ASSEMBLY_MEMBERS
100
AcDbLine
 62
7
  6
CONTINUOUS
 10
2.7163796584
 20
5.4174973284
 11
2.7163796584
 21
5.4674973284
  0
LINE
  5
25D
100
AcDbEntity
  8
ALL_ASSEMBLY_MEMBERS
100
AcDbLine
 62
7
  6
CONTINUOUS
 10
2.7246405766
 20
5.9049973284
 11
2.7246405766
 21
5.8674973284
  0
LINE
  5
25E
100
AcDbEntity
  8
ALL_ASSEMBLY_MEMBERS
100
AcDbLine
 62
7
  6
CONTINUOUS
 10
2.7292015193
 20
5.9049973284
 11
2.7292015193
 21
5.8674973284
  0
LINE
  5
25F
100
AcDbEntity
  8
ALL_ASSEMBLY_MEMBERS
100
AcDbLine
 62
7
  6
CONTINUOUS
 10
2.7394314947
 20
5.9049973284
 11
2.7394314947
 21
5.8674973284
  0
LINE
  5
260
100
AcDbEntity
  8
ALL_ASSEMBLY_MEMBERS
100
AcDbLine
 62
7
  6
CONTINUOUS
 10
2.7441664402
 20
5.9049973284
 11
2.7441664402
 21
5.8674973284
  0
LINE
  5
261
100
AcDbEntity
  8
ALL_ASSEMBLY_MEMBERS
100
AcDbLine
 62
7
  6
CONTINUOUS
 10
2.7538796584
 20
5.5049973284
 11
2.7538796584
 21
5.7674973284
  0
LINE
  5
262
100
AcDbEntity
  8
ALL_ASSEMBLY_MEMBERS
100
AcDbLine
 62
7
  6
CONTINUOUS
 10
2.754773042
 20
5.9049973284
 11
2.754773042
 21
5.8674973284
  0
LINE
  5
263
100
AcDbEntity
  8
ALL_ASSEMBLY_MEMBERS
100
AcDbLine
 62
7
  6
CONTINUOUS
 10
2.7596762216
 20
5.9049973284
 11
2.7596762216
 21
5.8674973284
  0
LINE
  5
264
100
AcDbEntity
  8
ALL_ASSEMBLY_MEMBERS
100
AcDbLine
 62
7
  6
CONTINUOUS
 10
2.7702763621
 20
5.8674973284
 11
2.7702763621
 21
5.9049973284
  0
LINE
  5
265
100
AcDbEntity
  8
ALL_ASSEMBLY_MEMBERS
100
AcDbLine
 62
7
  6
CONTINUOUS
 10
2.7706465271
 20
5.9049973284
 11
2.7706465271
 21
5.8674973284
  0
LINE
  5
266
100
AcDbEntity
  8
ALL_ASSEMBLY_MEMBERS
100
AcDbLine
 62
7
  6
CONTINUOUS
 10
2.7757119671
 20
5.9049973284
 11
2.7757119671
 21
5.8674973284
  0
LINE
  5
267
100
AcDbEntity
  8
ALL_ASSEMBLY_MEMBERS
100
AcDbLine
 62
7
  6
CONTINUOUS
 10
2.7862927317
 20
5.8674973284
 11
2.7862927317
 21
5.9049973284
  0
LINE
  5
268
100
AcDbEntity
  8
ALL_ASSEMBLY_MEMBERS
100
AcDbLine
 62
7
  6
CONTINUOUS
 10
2.7870326108
 20
5.9049973284
 11
2.7870326108
 21
5.8674973284
  0
LINE
  5
269
100
AcDbEntity
  8
ALL_ASSEMBLY_MEMBERS
100
AcDbLine
 62
7
  6
CONTINUOUS
 10
2.7922541397
 20
5.9049973284
 11
2.7922541397
 21
5.8674973284
  0
LINE
  5
26A
100
AcDbEntity
  8
ALL_ASSEMBLY_MEMBERS
100
AcDbLine
 62
7
  6
CONTINUOUS
 10
2.8028026373
 20
5.8674973284
 11
2.8028026373
 21
5.9049973284
  0
LINE
  5
26B
100
AcDbEntity
  8
ALL_ASSEMBLY_MEMBERS
100
AcDbLine
 62
7
  6
CONTINUOUS
 10
2.8039113291
 20
5.9049973284
 11
2.8039113291
 21
5.8674973284
  0
LINE
  5
26C
100
AcDbEntity
  8
ALL_ASSEMBLY_MEMBERS
100
AcDbLine
 62
7
  6
CONTINUOUS
 10
2.8092825852
 20
5.9049973284
 11
2.8092825852
 21
5.8674973284
  0
LINE
  5
26D
100
AcDbEntity
  8
ALL_ASSEMBLY_MEMBERS
100
AcDbLine
 62
7
  6
CONTINUOUS
 10
2.8163796584
 20
5.2174973284
 11
2.8163796584
 21
5.2424973284
  0
LINE
  5
26E
100
AcDbEntity
  8
ALL_ASSEMBLY_MEMBERS
100
AcDbLine
 62
7
  6
CONTINUOUS
 10
2.8197859642
 20
5.8674973284
 11
2.8197859642
 21
5.9049973284
  0
LINE
  5
26F
100
AcDbEntity
  8
ALL_ASSEMBLY_MEMBERS
100
AcDbLine
 62
7
  6
CONTINUOUS
 10
2.8212621179
 20
5.9049973284
 11
2.8212621179
 21
5.8674973284
  0
LINE
  5
270
100
AcDbEntity
  8
ALL_ASSEMBLY_MEMBERS
100
AcDbLine
 62
7
  6
CONTINUOUS
 10
2.8267765572
 20
5.9049973284
 11
2.8267765572
 21
5.8674973284
  0
LINE
  5
271
100
AcDbEntity
  8
ALL_ASSEMBLY_MEMBERS
100
AcDbLine
 62
7
  6
CONTINUOUS
 10
2.8372220208
 20
5.8674973284
 11
2.8372220208
 21
5.9049973284
  0
LINE
  5
272
100
AcDbEntity
  8
ALL_ASSEMBLY_MEMBERS
100
AcDbLine
 62
7
  6
CONTINUOUS
 10
2.8390638379
 20
5.9049973284
 11
2.8390638379
 21
5.8674973284
  0
LINE
  5
273
100
AcDbEntity
  8
ALL_ASSEMBLY_MEMBERS
100
AcDbLine
 62
7
  6
CONTINUOUS
 10
2.8447147419
 20
5.9049973284
 11
2.8447147419
 21
5.8674973284
  0
LINE
  5
274
100
AcDbEntity
  8
ALL_ASSEMBLY_MEMBERS
100
AcDbLine
 62
7
  6
CONTINUOUS
 10
2.8550895639
 20
5.8674973284
 11
2.8550895639
 21
5.9049973284
  0
LINE
  5
275
100
AcDbEntity
  8
ALL_ASSEMBLY_MEMBERS
100
AcDbLine
 62
7
  6
CONTINUOUS
 10
2.8572948004
 20
5.9049973284
 11
2.8572948004
 21
5.8674973284
  0
LINE
  5
276
100
AcDbEntity
  8
ALL_ASSEMBLY_MEMBERS
100
AcDbLine
 62
7
  6
CONTINUOUS
 10
2.8630752844
 20
5.9049973284
 11
2.8630752844
 21
5.8674973284
  0
LINE
  5
277
100
AcDbEntity
  8
ALL_ASSEMBLY_MEMBERS
100
AcDbLine
 62
7
  6
CONTINUOUS
 10
2.8733668247
 20
5.8674973284
 11
2.8733668247
 21
5.9049973284
  0
LINE
  5
278
100
AcDbEntity
  8
ALL_ASSEMBLY_MEMBERS
100
AcDbLine
 62
7
  6
CONTINUOUS
 10
2.8759327939
 20
5.9049973284
 11
2.8759327939
 21
5.8674973284
  0
LINE
  5
279
100
AcDbEntity
  8
ALL_ASSEMBLY_MEMBERS
100
AcDbLine
 62
7
  6
CONTINUOUS
 10
2.8818358151
 20
5.9049973284
 11
2.8818358151
 21
5.8674973284
  0
LINE
  5
27A
100
AcDbEntity
  8
ALL_ASSEMBLY_MEMBERS
100
AcDbLine
 62
7
  6
CONTINUOUS
 10
2.8920315351
 20
5.8674973284
 11
2.8920315351
 21
5.9049973284
  0
LINE
  5
27B
100
AcDbEntity
  8
ALL_ASSEMBLY_MEMBERS
100
AcDbLine
 62
7
  6
CONTINUOUS
 10
2.8949551108
 20
5.9049973284
 11
2.8949551108
 21
5.8674973284
  0
LINE
  5
27C
100
AcDbEntity
  8
ALL_ASSEMBLY_MEMBERS
100
AcDbLine
 62
7
  6
CONTINUOUS
 10
2.9009734774
 20
5.9049973284
 11
2.9009734774
 21
5.8674973284
  0
LINE
  5
27D
100
AcDbEntity
  8
ALL_ASSEMBLY_MEMBERS
100
AcDbLine
 62
7
  6
CONTINUOUS
 10
2.9110609551
 20
5.8674973284
 11
2.9110609551
 21
5.9049973284
  0
LINE
  5
27E
100
AcDbEntity
  8
ALL_ASSEMBLY_MEMBERS
100
AcDbLine
 62
7
  6
CONTINUOUS
 10
2.9143385753
 20
5.9049973284
 11
2.9143385753
 21
5.8674973284
  0
LINE
  5
27F
100
AcDbEntity
  8
ALL_ASSEMBLY_MEMBERS
100
AcDbLine
 62
7
  6
CONTINUOUS
 10
2.9204649549
 20
5.9049973284
 11
2.9204649549
 21
5.8674973284
  0
LINE
  5
280
100
AcDbEntity
  8
ALL_ASSEMBLY_MEMBERS
100
AcDbLine
 62
7
  6
CONTINUOUS
 10
2.9304319003
 20
5.8674973284
 11
2.9304319003
 21
5.9049973284
  0
LINE
  5
281
100
AcDbEntity
  8
ALL_ASSEMBLY_MEMBERS
100
AcDbLine
 62
7
  6
CONTINUOUS
 10
2.9340595717
 20
5.9049973284
 11
2.9340595717
 21
5.8674973284
  0
LINE
  5
282
100
AcDbEntity
  8
ALL_ASSEMBLY_MEMBERS
100
AcDbLine
 62
7
  6
CONTINUOUS
 10
2.9402865002
 20
5.9049973284
 11
2.9402865002
 21
5.8674973284
  0
LINE
  5
283
100
AcDbEntity
  8
ALL_ASSEMBLY_MEMBERS
100
AcDbLine
 62
7
  6
CONTINUOUS
 10
2.9501207701
 20
5.8674973284
 11
2.9501207701
 21
5.9049973284
  0
LINE
  5
284
100
AcDbEntity
  8
ALL_ASSEMBLY_MEMBERS
100
AcDbLine
 62
7
  6
CONTINUOUS
 10
2.954094073
 20
5.9049973284
 11
2.954094073
 21
5.8674973284
  0
LINE
  5
285
100
AcDbEntity
  8
ALL_ASSEMBLY_MEMBERS
100
AcDbLine
 62
7
  6
CONTINUOUS
 10
2.9604139639
 20
5.9049973284
 11
2.9604139639
 21
5.8674973284
  0
LINE
  5
286
100
AcDbEntity
  8
ALL_ASSEMBLY_MEMBERS
100
AcDbLine
 62
7
  6
CONTINUOUS
 10
2.9701035767
 20
5.8674973284
 11
2.9701035767
 21
5.9049973284
  0
LINE
  5
287
100
AcDbEntity
  8
ALL_ASSEMBLY_MEMBERS
100
AcDbLine
 62
7
  6
CONTINUOUS
 10
2.9744176703
 20
5.9049973284
 11
2.9744176703
 21
5.8674973284
  0
LINE
  5
288
100
AcDbEntity
  8
ALL_ASSEMBLY_MEMBERS
100
AcDbLine
 62
7
  6
CONTINUOUS
 10
2.9808228236
 20
5.9049973284
 11
2.9808228236
 21
5.8674973284
  0
LINE
  5
289
100
AcDbEntity
  8
ALL_ASSEMBLY_MEMBERS
100
AcDbLine
 62
7
  6
CONTINUOUS
 10
2.9903559741
 20
5.8674973284
 11
2.9903559741
 21
5.9049973284
  0
LINE
  5
28A
100
AcDbEntity
  8
ALL_ASSEMBLY_MEMBERS
100
AcDbLine
 62
7
  6
CONTINUOUS
 10
2.9913796584
 20
4.7596020859
 11
2.9913796584
 21
4.7584973284
  0
LINE
  5
28B
100
AcDbEntity
  8
ALL_ASSEMBLY_MEMBERS
100
AcDbLine
 62
7
  6
CONTINUOUS
 10
2.9913796584
 20
5.1674973284
 11
2.9913796584
 21
5.2174973284
  0
LINE
  5
28C
100
AcDbEntity
  8
ALL_ASSEMBLY_MEMBERS
100
AcDbLine
 62
7
  6
CONTINUOUS
 10
2.9950056023
 20
5.9049973284
 11
2.9950056023
 21
5.8674973284
  0
LINE
  5
28D
100
AcDbEntity
  8
ALL_ASSEMBLY_MEMBERS
100
AcDbLine
 62
7
  6
CONTINUOUS
 10
3.0014882145
 20
5.9049973284
 11
3.0014882145
 21
5.8674973284
  0
LINE
  5
28E
100
AcDbEntity
  8
ALL_ASSEMBLY_MEMBERS
100
AcDbLine
 62
7
  6
CONTINUOUS
 10
3.0065439778
 20
4.9503314129
 11
3.0065439778
 21
4.8063116128
  0
LINE
  5
28F
100
AcDbEntity
  8
ALL_ASSEMBLY_MEMBERS
100
AcDbLine
 62
7
  6
CONTINUOUS
 10
3.0108532879
 20
5.8674973284
 11
3.0108532879
 21
5.9049973284
  0
LINE
  5
290
100
AcDbEntity
  8
ALL_ASSEMBLY_MEMBERS
100
AcDbLine
 62
7
  6
CONTINUOUS
 10
3.0158327858
 20
5.9049973284
 11
3.0158327858
 21
5.8674973284
  0
LINE
  5
291
100
AcDbEntity
  8
ALL_ASSEMBLY_MEMBERS
100
AcDbLine
 62
7
  6
CONTINUOUS
 10
3.0223849588
 20
5.9049973284
 11
3.0223849588
 21
5.8674973284
  0
LINE
  5
292
100
AcDbEntity
  8
ALL_ASSEMBLY_MEMBERS
100
AcDbLine
 62
7
  6
CONTINUOUS
 10
3.0297345052
 20
4.9881012955
 11
3.0297345052
 21
4.7690821645
  0
LINE
  5
293
100
AcDbEntity
  8
ALL_ASSEMBLY_MEMBERS
100
AcDbLine
 62
7
  6
CONTINUOUS
 10
3.0315705453
 20
5.8674973284
 11
3.0315705453
 21
5.9049973284
  0
LINE
  5
294
100
AcDbEntity
  8
ALL_ASSEMBLY_MEMBERS
100
AcDbLine
 62
7
  6
CONTINUOUS
 10
3.0351296584
 20
5.1524973284
 11
3.0351296584
 21
5.0059973284
  0
LINE
  5
295
100
AcDbEntity
  8
ALL_ASSEMBLY_MEMBERS
100
AcDbLine
 62
7
  6
CONTINUOUS
 10
3.0368738462
 20
5.9049973284
 11
3.0368738462
 21
5.8674973284
  0
LINE
  5
296
100
AcDbEntity
  8
ALL_ASSEMBLY_MEMBERS
100
AcDbLine
 62
7
  6
CONTINUOUS
 10
3.0434875971
 20
5.9049973284
 11
3.0434875971
 21
5.8674973284
  0
LINE
  5
297
100
AcDbEntity
  8
ALL_ASSEMBLY_MEMBERS
100
AcDbLine
 62
7
  6
CONTINUOUS
 10
3.0524825055
 20
5.8674973284
 11
3.0524825055
 21
5.9049973284
  0
LINE
  5
298
100
AcDbEntity
  8
ALL_ASSEMBLY_MEMBERS
100
AcDbLine
 62
7
  6
CONTINUOUS
 10
3.0581031481
 20
5.9049973284
 11
3.0581031481
 21
5.8674973284
  0
LINE
  5
299
100
AcDbEntity
  8
ALL_ASSEMBLY_MEMBERS
100
AcDbLine
 62
7
  6
CONTINUOUS
 10
3.0601296584
 20
4.7109973284
 11
3.0601296584
 21
4.6959973284
  0
LINE
  5
29A
100
AcDbEntity
  8
ALL_ASSEMBLY_MEMBERS
100
AcDbLine
 62
7
  6
CONTINUOUS
 10
3.0647704191
 20
5.9049973284
 11
3.0647704191
 21
5.8674973284
  0
LINE
  5
29B
100
AcDbEntity
  8
ALL_ASSEMBLY_MEMBERS
100
AcDbLine
 62
7
  6
CONTINUOUS
 10
3.0735636905
 20
5.8674973284
 11
3.0735636905
 21
5.9049973284
  0
LINE
  5
29C
100
AcDbEntity
  8
ALL_ASSEMBLY_MEMBERS
100
AcDbLine
 62
7
  6
CONTINUOUS
 10
3.0794948269
 20
5.9049973284
 11
3.0794948269
 21
5.8674973284
  0
LINE
  5
29D
100
AcDbEntity
  8
ALL_ASSEMBLY_MEMBERS
100
AcDbLine
 62
7
  6
CONTINUOUS
 10
3.086207495
 20
5.9049973284
 11
3.086207495
 21
5.8674973284
  0
LINE
  5
29E
100
AcDbEntity
  8
ALL_ASSEMBLY_MEMBERS
100
AcDbLine
 62
7
  6
CONTINUOUS
 10
3.094788416
 20
5.8674973284
 11
3.094788416
 21
5.9049973284
  0
LINE
  5
29F
100
AcDbEntity
  8
ALL_ASSEMBLY_MEMBERS
100
AcDbLine
 62
7
  6
CONTINUOUS
 10
3.1010228201
 20
5.9049973284
 11
3.1010228201
 21
5.8674973284
  0
LINE
  5
2A0
100
AcDbEntity
  8
ALL_ASSEMBLY_MEMBERS
100
AcDbLine
 62
7
  6
CONTINUOUS
 10
3.1077727069
 20
5.9049973284
 11
3.1077727069
 21
5.8674973284
  0
LINE
  5
2A1
100
AcDbEntity
  8
ALL_ASSEMBLY_MEMBERS
100
AcDbLine
 62
7
  6
CONTINUOUS
 10
3.1161308232
 20
5.8674973284
 11
3.1161308232
 21
5.9049973284
  0
LINE
  5
2A2
100
AcDbEntity
  8
ALL_ASSEMBLY_MEMBERS
100
AcDbLine
 62
7
  6
CONTINUOUS
 10
3.1226608992
 20
5.9049973284
 11
3.1226608992
 21
5.8674973284
  0
LINE
  5
2A3
100
AcDbEntity
  8
ALL_ASSEMBLY_MEMBERS
100
AcDbLine
 62
7
  6
CONTINUOUS
 10
3.1294397811
 20
5.9049973284
 11
3.1294397811
 21
5.8674973284
  0
LINE
  5
2A4
100
AcDbEntity
  8
ALL_ASSEMBLY_MEMBERS
100
AcDbLine
 62
7
  6
CONTINUOUS
 10
2.9913796496
 20
4.9959973284
 11
2.9912754839
 21
4.9940043566
  0
LWPOLYLINE
  5
2A5
100
AcDbEntity
  8
ALL_ASSEMBLY_MEMBERS
100
AcDbPolyline
 62
7
  6
CONTINUOUS
 90
18
 70
0
 10
2.9912816669
 20
4.9940750447
 10
2.9909545928
 20
4.991599321
 10
2.9904163182
 20
4.9892075091
 10
2.9896604272
 20
4.9868549963
 10
2.9886957754
 20
4.984578483
 10
2.9875297903
 20
4.9823965277
 10
2.9861715539
 20
4.9803269791
 10
2.9846434547
 20
4.9784003089
 10
2.9829612979
 20
4.9766293511
 10
2.9811413834
 20
4.9750249083
 10
2.9792150348
 20
4.973605825
 10
2.9772016426
 20
4.9723755936
 10
2.9751208708
 20
4.9713361885
 10
2.9730088959
 20
4.9704935856
 10
2.9708832278
 20
4.9698411155
 10
2.9687631028
 20
4.969371714
 10
2.9666881786
 20
4.9690787063
 10
2.9646809403
 20
4.9689468554
  0
LWPOLYLINE
  5
2A6
100
AcDbEntity
  8
ALL_ASSEMBLY_MEMBERS
100
AcDbPolyline
 62
7
  6
CONTINUOUS
 90
18
 70
0
 10
2.9909731772
 20
4.9917045249
 10
2.9904537519
 20
4.9893463507
 10
2.9897229354
 20
4.9870248882
 10
2.9887881488
 20
4.9847737538
 10
2.9876558226
 20
4.9826110126
 10
2.9863340024
 20
4.9805541681
 10
2.9848422537
 20
4.9786317239
 10
2.983194785
 20
4.9768569367
 10
2.9814065422
 20
4.9752413747
 10
2.9795056261
 20
4.9738036818
 10
2.9775102952
 20
4.9725490499
 10
2.9754390071
 20
4.971481056
 10
2.9733243933
 20
4.9706067284
 10
2.9711837076
 20
4.9699220192
 10
2.9690357321
 20
4.9694222834
 10
2.9669164741
 20
4.9691030665
 10
2.9648476711
 20
4.9689521864
 10
2.9637859773
 20
4.9689354416
  0
LINE
  5
2A7
100
AcDbEntity
  8
ALL_ASSEMBLY_MEMBERS
100
AcDbLine
 62
7
  6
CONTINUOUS
 10
3.7913796584
 20
6.0049973284
 11
3.8163796584
 21
6.0299973284
  0
LINE
  5
2A8
100
AcDbEntity
  8
ALL_ASSEMBLY_MEMBERS
100
AcDbLine
 62
7
  6
CONTINUOUS
 10
3.1375649094
 20
5.8674973284
 11
3.1375649094
 21
5.9049973284
  0
LINE
  5
2A9
100
AcDbEntity
  8
ALL_ASSEMBLY_MEMBERS
100
AcDbLine
 62
7
  6
CONTINUOUS
 10
3.1443827016
 20
5.9049973284
 11
3.1443827016
 21
5.8674973284
  0
LINE
  5
2AA
100
AcDbEntity
  8
ALL_ASSEMBLY_MEMBERS
100
AcDbLine
 62
7
  6
CONTINUOUS
 10
3.1511823194
 20
5.9049973284
 11
3.1511823194
 21
5.8674973284
  0
LINE
  5
2AB
100
AcDbEntity
  8
ALL_ASSEMBLY_MEMBERS
100
AcDbLine
 62
7
  6
CONTINUOUS
 10
3.1590645606
 20
5.8674973284
 11
3.1590645606
 21
5.9049973284
  0
LINE
  5
2AC
100
AcDbEntity
  8
ALL_ASSEMBLY_MEMBERS
100
AcDbLine
 62
7
  6
CONTINUOUS
 10
3.1661617624
 20
5.9049973284
 11
3.1661617624
 21
5.8674973284
  0
LINE
  5
2AD
100
AcDbEntity
  8
ALL_ASSEMBLY_MEMBERS
100
AcDbLine
 62
7
  6
CONTINUOUS
 10
3.172973832
 20
5.9049973284
 11
3.172973832
 21
5.8674973284
  0
LINE
  5
2AE
100
AcDbEntity
  8
ALL_ASSEMBLY_MEMBERS
100
AcDbLine
 62
7
  6
CONTINUOUS
 10
3.1806035828
 20
5.8674973284
 11
3.1806035828
 21
5.9049973284
  0
LINE
  5
2AF
100
AcDbEntity
  8
ALL_ASSEMBLY_MEMBERS
100
AcDbLine
 62
7
  6
CONTINUOUS
 10
3.1879715475
 20
5.9049973284
 11
3.1879715475
 21
5.8674973284
  0
LINE
  5
2B0
100
AcDbEntity
  8
ALL_ASSEMBLY_MEMBERS
100
AcDbLine
 62
7
  6
CONTINUOUS
 10
3.1947877693
 20
5.9049973284
 11
3.1947877693
 21
5.8674973284
  0
LINE
  5
2B1
100
AcDbEntity
  8
ALL_ASSEMBLY_MEMBERS
100
AcDbLine
 62
7
  6
CONTINUOUS
 10
3.202155734
 20
5.8674973284
 11
3.202155734
 21
5.9049973284
  0
LINE
  5
2B2
100
AcDbEntity
  8
ALL_ASSEMBLY_MEMBERS
100
AcDbLine
 62
7
  6
CONTINUOUS
 10
3.2097854847
 20
5.9049973284
 11
3.2097854847
 21
5.8674973284
  0
LINE
  5
2B3
100
AcDbEntity
  8
ALL_ASSEMBLY_MEMBERS
100
AcDbLine
 62
7
  6
CONTINUOUS
 10
3.2165975543
 20
5.9049973284
 11
3.2165975543
 21
5.8674973284
  0
LINE
  5
2B4
100
AcDbEntity
  8
ALL_ASSEMBLY_MEMBERS
100
AcDbLine
 62
7
  6
CONTINUOUS
 10
3.2236947562
 20
5.8674973284
 11
3.2236947562
 21
5.9049973284
  0
LINE
  5
2B5
100
AcDbEntity
  8
ALL_ASSEMBLY_MEMBERS
100
AcDbLine
 62
7
  6
CONTINUOUS
 10
3.2315769973
 20
5.9049973284
 11
3.2315769973
 21
5.8674973284
  0
LINE
  5
2B6
100
AcDbEntity
  8
ALL_ASSEMBLY_MEMBERS
100
AcDbLine
 62
7
  6
CONTINUOUS
 10
3.2383766152
 20
5.9049973284
 11
3.2383766152
 21
5.8674973284
  0
LINE
  5
2B7
100
AcDbEntity
  8
ALL_ASSEMBLY_MEMBERS
100
AcDbLine
 62
7
  6
CONTINUOUS
 10
3.2451944074
 20
5.8674973284
 11
3.2451944074
 21
5.9049973284
  0
LINE
  5
2B8
100
AcDbEntity
  8
ALL_ASSEMBLY_MEMBERS
100
AcDbLine
 62
7
  6
CONTINUOUS
 10
3.2533195357
 20
5.9049973284
 11
3.2533195357
 21
5.8674973284
  0
LINE
  5
2B9
100
AcDbEntity
  8
ALL_ASSEMBLY_MEMBERS
100
AcDbLine
 62
7
  6
CONTINUOUS
 10
3.2600984176
 20
5.9049973284
 11
3.2600984176
 21
5.8674973284
  0
LINE
  5
2BA
100
AcDbEntity
  8
ALL_ASSEMBLY_MEMBERS
100
AcDbLine
 62
7
  6
CONTINUOUS
 10
3.2666284936
 20
5.8674973284
 11
3.2666284936
 21
5.9049973284
  0
LINE
  5
2BB
100
AcDbEntity
  8
ALL_ASSEMBLY_MEMBERS
100
AcDbLine
 62
7
  6
CONTINUOUS
 10
3.2749866098
 20
5.9049973284
 11
3.2749866098
 21
5.8674973284
  0
LINE
  5
2BC
100
AcDbEntity
  8
ALL_ASSEMBLY_MEMBERS
100
AcDbLine
 62
7
  6
CONTINUOUS
 10
3.2817364967
 20
5.9049973284
 11
3.2817364967
 21
5.8674973284
  0
LINE
  5
2BD
100
AcDbEntity
  8
ALL_ASSEMBLY_MEMBERS
100
AcDbLine
 62
7
  6
CONTINUOUS
 10
3.2879709007
 20
5.8674973284
 11
3.2879709007
 21
5.9049973284
  0
LINE
  5
2BE
100
AcDbEntity
  8
ALL_ASSEMBLY_MEMBERS
100
AcDbLine
 62
7
  6
CONTINUOUS
 10
3.2965518218
 20
5.9049973284
 11
3.2965518218
 21
5.8674973284
  0
LINE
  5
2BF
100
AcDbEntity
  8
ALL_ASSEMBLY_MEMBERS
100
AcDbLine
 62
7
  6
CONTINUOUS
 10
3.3032644899
 20
5.9049973284
 11
3.3032644899
 21
5.8674973284
  0
LINE
  5
2C0
100
AcDbEntity
  8
ALL_ASSEMBLY_MEMBERS
100
AcDbLine
 62
7
  6
CONTINUOUS
 10
3.3091956263
 20
5.8674973284
 11
3.3091956263
 21
5.9049973284
  0
LINE
  5
2C1
100
AcDbEntity
  8
ALL_ASSEMBLY_MEMBERS
100
AcDbLine
 62
7
  6
CONTINUOUS
 10
3.3179888977
 20
5.9049973284
 11
3.3179888977
 21
5.8674973284
  0
LINE
  5
2C2
100
AcDbEntity
  8
ALL_ASSEMBLY_MEMBERS
100
AcDbLine
 62
7
  6
CONTINUOUS
 10
3.3226296584
 20
4.7109973284
 11
3.3226296584
 21
4.6959973284
  0
LINE
  5
2C3
100
AcDbEntity
  8
ALL_ASSEMBLY_MEMBERS
100
AcDbLine
 62
7
  6
CONTINUOUS
 10
3.3246561687
 20
5.9049973284
 11
3.3246561687
 21
5.8674973284
  0
LINE
  5
2C4
100
AcDbEntity
  8
ALL_ASSEMBLY_MEMBERS
100
AcDbLine
 62
7
  6
CONTINUOUS
 10
3.3302768113
 20
5.8674973284
 11
3.3302768113
 21
5.9049973284
  0
LINE
  5
2C5
100
AcDbEntity
  8
ALL_ASSEMBLY_MEMBERS
100
AcDbLine
 62
7
  6
CONTINUOUS
 10
3.3392717197
 20
5.9049973284
 11
3.3392717197
 21
5.8674973284
  0
LINE
  5
2C6
100
AcDbEntity
  8
ALL_ASSEMBLY_MEMBERS
100
AcDbLine
 62
7
  6
CONTINUOUS
 10
3.3458854706
 20
5.9049973284
 11
3.3458854706
 21
5.8674973284
  0
LINE
  5
2C7
100
AcDbEntity
  8
ALL_ASSEMBLY_MEMBERS
100
AcDbLine
 62
7
  6
CONTINUOUS
 10
3.3476296584
 20
5.1524973284
 11
3.3476296584
 21
5.0059973284
  0
LINE
  5
2C8
100
AcDbEntity
  8
ALL_ASSEMBLY_MEMBERS
100
AcDbLine
 62
7
  6
CONTINUOUS
 10
3.3511887715
 20
5.8674973284
 11
3.3511887715
 21
5.9049973284
  0
LINE
  5
2C9
100
AcDbEntity
  8
ALL_ASSEMBLY_MEMBERS
100
AcDbLine
 62
7
  6
CONTINUOUS
 10
3.360374358
 20
5.9049973284
 11
3.360374358
 21
5.8674973284
  0
LINE
  5
2CA
100
AcDbEntity
  8
ALL_ASSEMBLY_MEMBERS
100
AcDbLine
 62
7
  6
CONTINUOUS
 10
3.366926531
 20
5.9049973284
 11
3.366926531
 21
5.8674973284
  0
LINE
  5
2CB
100
AcDbEntity
  8
ALL_ASSEMBLY_MEMBERS
100
AcDbLine
 62
7
  6
CONTINUOUS
 10
3.3719060289
 20
5.8674973284
 11
3.3719060289
 21
5.9049973284
  0
LINE
  5
2CC
100
AcDbEntity
  8
ALL_ASSEMBLY_MEMBERS
100
AcDbLine
 62
7
  6
CONTINUOUS
 10
3.3812711023
 20
5.9049973284
 11
3.3812711023
 21
5.8674973284
  0
LINE
  5
2CD
100
AcDbEntity
  8
ALL_ASSEMBLY_MEMBERS
100
AcDbLine
 62
7
  6
CONTINUOUS
 10
3.3877537145
 20
5.9049973284
 11
3.3877537145
 21
5.8674973284
  0
LINE
  5
2CE
100
AcDbEntity
  8
ALL_ASSEMBLY_MEMBERS
100
AcDbLine
 62
7
  6
CONTINUOUS
 10
3.3155099663
 20
5.0944973284
 11
3.3097364636
 21
5.0744973284
  0
LINE
  5
2CF
100
AcDbEntity
  8
ALL_ASSEMBLY_MEMBERS
100
AcDbLine
 62
7
  6
CONTINUOUS
 10
3.3270569716
 20
5.0544973284
 11
3.3328304743
 21
5.0744973284
  0
LINE
  5
2D0
100
AcDbEntity
  8
ALL_ASSEMBLY_MEMBERS
100
AcDbLine
 62
7
  6
CONTINUOUS
 10
3.3302323981
 20
5.0491859344
 11
3.329121903
 21
5.0476154572
  0
LINE
  5
2D1
100
AcDbEntity
  8
ALL_ASSEMBLY_MEMBERS
100
AcDbLine
 62
7
  6
CONTINUOUS
 10
3.3290514052
 20
5.0476729781
 11
3.3290327382
 21
5.0476500997
  0
LINE
  5
2D2
100
AcDbEntity
  8
ALL_ASSEMBLY_MEMBERS
100
AcDbLine
 62
7
  6
CONTINUOUS
 10
3.3290517625
 20
5.0476717443
 11
3.3290328155
 21
5.0476498317
  0
LINE
  5
2D3
100
AcDbEntity
  8
ALL_ASSEMBLY_MEMBERS
100
AcDbLine
 62
7
  6
CONTINUOUS
 10
3.3913796584
 20
4.9959973284
 11
3.3913796584
 21
4.7584973284
  0
LINE
  5
2D4
100
AcDbEntity
  8
ALL_ASSEMBLY_MEMBERS
100
AcDbLine
 62
7
  6
CONTINUOUS
 10
3.3913796584
 20
5.1674973284
 11
3.3913796584
 21
5.2174973284
  0
LINE
  5
2D5
100
AcDbEntity
  8
ALL_ASSEMBLY_MEMBERS
100
AcDbLine
 62
7
  6
CONTINUOUS
 10
3.3924033427
 20
5.8674973284
 11
3.3924033427
 21
5.9049973284
  0
LINE
  5
2D6
100
AcDbEntity
  8
ALL_ASSEMBLY_MEMBERS
100
AcDbLine
 62
7
  6
CONTINUOUS
 10
3.4019364931
 20
5.9049973284
 11
3.4019364931
 21
5.8674973284
  0
LINE
  5
2D7
100
AcDbEntity
  8
ALL_ASSEMBLY_MEMBERS
100
AcDbLine
 62
7
  6
CONTINUOUS
 10
3.4083416465
 20
5.9049973284
 11
3.4083416465
 21
5.8674973284
  0
LINE
  5
2D8
100
AcDbEntity
  8
ALL_ASSEMBLY_MEMBERS
100
AcDbLine
 62
7
  6
CONTINUOUS
 10
3.4126557401
 20
5.8674973284
 11
3.4126557401
 21
5.9049973284
  0
LINE
  5
2D9
100
AcDbEntity
  8
ALL_ASSEMBLY_MEMBERS
100
AcDbLine
 62
7
  6
CONTINUOUS
 10
3.4223453529
 20
5.9049973284
 11
3.4223453529
 21
5.8674973284
  0
LINE
  5
2DA
100
AcDbEntity
  8
ALL_ASSEMBLY_MEMBERS
100
AcDbLine
 62
7
  6
CONTINUOUS
 10
3.4286652438
 20
5.9049973284
 11
3.4286652438
 21
5.8674973284
  0
LINE
  5
2DB
100
AcDbEntity
  8
ALL_ASSEMBLY_MEMBERS
100
AcDbLine
 62
7
  6
CONTINUOUS
 10
3.4326385467
 20
5.8674973284
 11
3.4326385467
 21
5.9049973284
  0
LINE
  5
2DC
100
AcDbEntity
  8
ALL_ASSEMBLY_MEMBERS
100
AcDbLine
 62
7
  6
CONTINUOUS
 10
3.4424728166
 20
5.9049973284
 11
3.4424728166
 21
5.8674973284
  0
LINE
  5
2DD
100
AcDbEntity
  8
ALL_ASSEMBLY_MEMBERS
100
AcDbLine
 62
7
  6
CONTINUOUS
 10
3.4486997451
 20
5.9049973284
 11
3.4486997451
 21
5.8674973284
  0
LINE
  5
2DE
100
AcDbEntity
  8
ALL_ASSEMBLY_MEMBERS
100
AcDbLine
 62
7
  6
CONTINUOUS
 10
3.4523274165
 20
5.8674973284
 11
3.4523274165
 21
5.9049973284
  0
LINE
  5
2DF
100
AcDbEntity
  8
ALL_ASSEMBLY_MEMBERS
100
AcDbLine
 62
7
  6
CONTINUOUS
 10
3.4622943619
 20
5.9049973284
 11
3.4622943619
 21
5.8674973284
  0
LINE
  5
2E0
100
AcDbEntity
  8
ALL_ASSEMBLY_MEMBERS
100
AcDbLine
 62
7
  6
CONTINUOUS
 10
3.4684207415
 20
5.9049973284
 11
3.4684207415
 21
5.8674973284
  0
LINE
  5
2E1
100
AcDbEntity
  8
ALL_ASSEMBLY_MEMBERS
100
AcDbLine
 62
7
  6
CONTINUOUS
 10
3.4716983617
 20
5.8674973284
 11
3.4716983617
 21
5.9049973284
  0
LINE
  5
2E2
100
AcDbEntity
  8
ALL_ASSEMBLY_MEMBERS
100
AcDbLine
 62
7
  6
CONTINUOUS
 10
3.4817858393
 20
5.9049973284
 11
3.4817858393
 21
5.8674973284
  0
LINE
  5
2E3
100
AcDbEntity
  8
ALL_ASSEMBLY_MEMBERS
100
AcDbLine
 62
7
  6
CONTINUOUS
 10
3.487804206
 20
5.9049973284
 11
3.487804206
 21
5.8674973284
  0
LINE
  5
2E4
100
AcDbEntity
  8
ALL_ASSEMBLY_MEMBERS
100
AcDbLine
 62
7
  6
CONTINUOUS
 10
3.4907277817
 20
5.8674973284
 11
3.4907277817
 21
5.9049973284
  0
LINE
  5
2E5
100
AcDbEntity
  8
ALL_ASSEMBLY_MEMBERS
100
AcDbLine
 62
7
  6
CONTINUOUS
 10
3.5009235016
 20
5.9049973284
 11
3.5009235016
 21
5.8674973284
  0
LINE
  5
2E6
100
AcDbEntity
  8
ALL_ASSEMBLY_MEMBERS
100
AcDbLine
 62
7
  6
CONTINUOUS
 10
3.5068265229
 20
5.9049973284
 11
3.5068265229
 21
5.8674973284
  0
LINE
  5
2E7
100
AcDbEntity
  8
ALL_ASSEMBLY_MEMBERS
100
AcDbLine
 62
7
  6
CONTINUOUS
 10
3.5093924921
 20
5.8674973284
 11
3.5093924921
 21
5.9049973284
  0
LINE
  5
2E8
100
AcDbEntity
  8
ALL_ASSEMBLY_MEMBERS
100
AcDbLine
 62
7
  6
CONTINUOUS
 10
3.5196840324
 20
5.9049973284
 11
3.5196840324
 21
5.8674973284
  0
LINE
  5
2E9
100
AcDbEntity
  8
ALL_ASSEMBLY_MEMBERS
100
AcDbLine
 62
7
  6
CONTINUOUS
 10
3.5254645164
 20
5.9049973284
 11
3.5254645164
 21
5.8674973284
  0
LINE
  5
2EA
100
AcDbEntity
  8
ALL_ASSEMBLY_MEMBERS
100
AcDbLine
 62
7
  6
CONTINUOUS
 10
3.5276697529
 20
5.8674973284
 11
3.5276697529
 21
5.9049973284
  0
LINE
  5
2EB
100
AcDbEntity
  8
ALL_ASSEMBLY_MEMBERS
100
AcDbLine
 62
7
  6
CONTINUOUS
 10
3.5380445749
 20
5.9049973284
 11
3.5380445749
 21
5.8674973284
  0
LINE
  5
2EC
100
AcDbEntity
  8
ALL_ASSEMBLY_MEMBERS
100
AcDbLine
 62
7
  6
CONTINUOUS
 10
3.5436954789
 20
5.9049973284
 11
3.5436954789
 21
5.8674973284
  0
LINE
  5
2ED
100
AcDbEntity
  8
ALL_ASSEMBLY_MEMBERS
100
AcDbLine
 62
7
  6
CONTINUOUS
 10
3.545537296
 20
5.8674973284
 11
3.545537296
 21
5.9049973284
  0
LINE
  5
2EE
100
AcDbEntity
  8
ALL_ASSEMBLY_MEMBERS
100
AcDbLine
 62
7
  6
CONTINUOUS
 10
3.5559827596
 20
5.9049973284
 11
3.5559827596
 21
5.8674973284
  0
LINE
  5
2EF
100
AcDbEntity
  8
ALL_ASSEMBLY_MEMBERS
100
AcDbLine
 62
7
  6
CONTINUOUS
 10
3.5614971989
 20
5.9049973284
 11
3.5614971989
 21
5.8674973284
  0
LINE
  5
2F0
100
AcDbEntity
  8
ALL_ASSEMBLY_MEMBERS
100
AcDbLine
 62
7
  6
CONTINUOUS
 10
3.5629733525
 20
5.8674973284
 11
3.5629733525
 21
5.9049973284
  0
LINE
  5
2F1
100
AcDbEntity
  8
ALL_ASSEMBLY_MEMBERS
100
AcDbLine
 62
7
  6
CONTINUOUS
 10
3.5663796584
 20
5.2174973284
 11
3.5663796584
 21
5.2424973284
  0
LINE
  5
2F2
100
AcDbEntity
  8
ALL_ASSEMBLY_MEMBERS
100
AcDbLine
 62
7
  6
CONTINUOUS
 10
3.5734767315
 20
5.9049973284
 11
3.5734767315
 21
5.8674973284
  0
LINE
  5
2F3
100
AcDbEntity
  8
ALL_ASSEMBLY_MEMBERS
100
AcDbLine
 62
7
  6
CONTINUOUS
 10
3.5788479876
 20
5.9049973284
 11
3.5788479876
 21
5.8674973284
  0
LINE
  5
2F4
100
AcDbEntity
  8
ALL_ASSEMBLY_MEMBERS
100
AcDbLine
 62
7
  6
CONTINUOUS
 10
3.5799566794
 20
5.8674973284
 11
3.5799566794
 21
5.9049973284
  0
LINE
  5
2F5
100
AcDbEntity
  8
ALL_ASSEMBLY_MEMBERS
100
AcDbLine
 62
7
  6
CONTINUOUS
 10
3.5905051771
 20
5.9049973284
 11
3.5905051771
 21
5.8674973284
  0
LINE
  5
2F6
100
AcDbEntity
  8
ALL_ASSEMBLY_MEMBERS
100
AcDbLine
 62
7
  6
CONTINUOUS
 10
3.5957267059
 20
5.9049973284
 11
3.5957267059
 21
5.8674973284
  0
LINE
  5
2F7
100
AcDbEntity
  8
ALL_ASSEMBLY_MEMBERS
100
AcDbLine
 62
7
  6
CONTINUOUS
 10
3.5964665851
 20
5.8674973284
 11
3.5964665851
 21
5.9049973284
  0
LINE
  5
2F8
100
AcDbEntity
  8
ALL_ASSEMBLY_MEMBERS
100
AcDbLine
 62
7
  6
CONTINUOUS
 10
3.6070473496
 20
5.9049973284
 11
3.6070473496
 21
5.8674973284
  0
LINE
  5
2F9
100
AcDbEntity
  8
ALL_ASSEMBLY_MEMBERS
100
AcDbLine
 62
7
  6
CONTINUOUS
 10
3.6121127896
 20
5.9049973284
 11
3.6121127896
 21
5.8674973284
  0
LINE
  5
2FA
100
AcDbEntity
  8
ALL_ASSEMBLY_MEMBERS
100
AcDbLine
 62
7
  6
CONTINUOUS
 10
3.6124829547
 20
5.8674973284
 11
3.6124829547
 21
5.9049973284
  0
LINE
  5
2FB
100
AcDbEntity
  8
ALL_ASSEMBLY_MEMBERS
100
AcDbLine
 62
7
  6
CONTINUOUS
 10
3.6230830952
 20
5.9049973284
 11
3.6230830952
 21
5.8674973284
  0
LINE
  5
2FC
100
AcDbEntity
  8
ALL_ASSEMBLY_MEMBERS
100
AcDbLine
 62
7
  6
CONTINUOUS
 10
3.6279862748
 20
5.9049973284
 11
3.6279862748
 21
5.8674973284
  0
LINE
  5
2FD
100
AcDbEntity
  8
ALL_ASSEMBLY_MEMBERS
100
AcDbLine
 62
7
  6
CONTINUOUS
 10
3.6288796584
 20
5.5049973284
 11
3.6288796584
 21
5.7674973284
  0
LINE
  5
2FE
100
AcDbEntity
  8
ALL_ASSEMBLY_MEMBERS
100
AcDbLine
 62
7
  6
CONTINUOUS
 10
3.6385928765
 20
5.9049973284
 11
3.6385928765
 21
5.8674973284
  0
LINE
  5
2FF
100
AcDbEntity
  8
ALL_ASSEMBLY_MEMBERS
100
AcDbLine
 62
7
  6
CONTINUOUS
 10
3.6433278221
 20
5.9049973284
 11
3.6433278221
 21
5.8674973284
  0
LINE
  5
300
100
AcDbEntity
  8
ALL_ASSEMBLY_MEMBERS
100
AcDbLine
 62
7
  6
CONTINUOUS
 10
3.3097364636
 20
5.0744973284
 11
3.3155099663
 21
5.0544973284
  0
LINE
  5
301
100
AcDbEntity
  8
ALL_ASSEMBLY_MEMBERS
100
AcDbLine
 62
7
  6
CONTINUOUS
 10
3.3328304743
 20
5.0744973284
 11
3.3270569716
 21
5.0944973284
  0
LINE
  5
302
100
AcDbEntity
  8
ALL_ASSEMBLY_MEMBERS
100
AcDbLine
 62
7
  6
CONTINUOUS
 10
3.6535577975
 20
5.9049973284
 11
3.6535577975
 21
5.8674973284
  0
LINE
  5
303
100
AcDbEntity
  8
ALL_ASSEMBLY_MEMBERS
100
AcDbLine
 62
7
  6
CONTINUOUS
 10
3.6581187402
 20
5.9049973284
 11
3.6581187402
 21
5.8674973284
  0
LINE
  5
304
100
AcDbEntity
  8
ALL_ASSEMBLY_MEMBERS
100
AcDbLine
 62
7
  6
CONTINUOUS
 10
3.6663796584
 20
5.2924973284
 11
3.6663796584
 21
5.3174973284
  0
LINE
  5
305
100
AcDbEntity
  8
ALL_ASSEMBLY_MEMBERS
100
AcDbLine
 62
7
  6
CONTINUOUS
 10
3.6663796584
 20
5.4174973284
 11
3.6663796584
 21
5.4674973284
  0
LINE
  5
306
100
AcDbEntity
  8
ALL_ASSEMBLY_MEMBERS
100
AcDbLine
 62
7
  6
CONTINUOUS
 10
3.6679596256
 20
5.9049973284
 11
3.6679596256
 21
5.8674973284
  0
LINE
  5
307
100
AcDbEntity
  8
ALL_ASSEMBLY_MEMBERS
100
AcDbLine
 62
7
  6
CONTINUOUS
 10
3.6723410085
 20
5.9049973284
 11
3.6723410085
 21
5.8674973284
  0
LINE
  5
308
100
AcDbEntity
  8
ALL_ASSEMBLY_MEMBERS
100
AcDbLine
 62
7
  6
CONTINUOUS
 10
3.6817808144
 20
5.9049973284
 11
3.6817808144
 21
5.8674973284
  0
LINE
  5
309
100
AcDbEntity
  8
ALL_ASSEMBLY_MEMBERS
100
AcDbLine
 62
7
  6
CONTINUOUS
 10
3.6859772996
 20
5.9049973284
 11
3.6859772996
 21
5.8674973284
  0
LINE
  5
30A
100
AcDbEntity
  8
ALL_ASSEMBLY_MEMBERS
100
AcDbLine
 62
7
  6
CONTINUOUS
 10
3.6950045249
 20
5.9049973284
 11
3.6950045249
 21
5.8674973284
  0
LINE
  5
30B
100
AcDbEntity
  8
ALL_ASSEMBLY_MEMBERS
100
AcDbLine
 62
7
  6
CONTINUOUS
 10
3.6990109996
 20
5.9049973284
 11
3.6990109996
 21
5.8674973284
  0
LINE
  5
30C
100
AcDbEntity
  8
ALL_ASSEMBLY_MEMBERS
100
AcDbLine
 62
7
  6
CONTINUOUS
 10
3.7038796584
 20
5.3174973284
 11
3.7038796584
 21
5.4174973284
  0
LINE
  5
30D
100
AcDbEntity
  8
ALL_ASSEMBLY_MEMBERS
100
AcDbLine
 62
7
  6
CONTINUOUS
 10
3.7076146462
 20
5.9049973284
 11
3.7076146462
 21
5.8674973284
  0
LINE
  5
30E
100
AcDbEntity
  8
ALL_ASSEMBLY_MEMBERS
100
AcDbLine
 62
7
  6
CONTINUOUS
 10
3.7114262291
 20
5.9049973284
 11
3.7114262291
 21
5.8674973284
  0
LINE
  5
30F
100
AcDbEntity
  8
ALL_ASSEMBLY_MEMBERS
100
AcDbLine
 62
7
  6
CONTINUOUS
 10
3.7195958146
 20
5.9049973284
 11
3.7195958146
 21
5.8674973284
  0
LINE
  5
310
100
AcDbEntity
  8
ALL_ASSEMBLY_MEMBERS
100
AcDbLine
 62
7
  6
CONTINUOUS
 10
3.7232078618
 20
5.9049973284
 11
3.7232078618
 21
5.8674973284
  0
LINE
  5
311
100
AcDbEntity
  8
ALL_ASSEMBLY_MEMBERS
100
AcDbLine
 62
7
  6
CONTINUOUS
 10
3.730933433
 20
5.9049973284
 11
3.730933433
 21
5.8674973284
  0
LINE
  5
312
100
AcDbEntity
  8
ALL_ASSEMBLY_MEMBERS
100
AcDbLine
 62
7
  6
CONTINUOUS
 10
3.7343415439
 20
5.9049973284
 11
3.7343415439
 21
5.8674973284
  0
LINE
  5
313
100
AcDbEntity
  8
ALL_ASSEMBLY_MEMBERS
100
AcDbLine
 62
7
  6
CONTINUOUS
 10
3.7416136882
 20
5.9049973284
 11
3.7416136882
 21
5.8674973284
  0
LINE
  5
314
100
AcDbEntity
  8
ALL_ASSEMBLY_MEMBERS
100
AcDbLine
 62
7
  6
CONTINUOUS
 10
3.7448137105
 20
5.9049973284
 11
3.7448137105
 21
5.8674973284
  0
LINE
  5
315
100
AcDbEntity
  8
ALL_ASSEMBLY_MEMBERS
100
AcDbLine
 62
7
  6
CONTINUOUS
 10
3.751623568
 20
5.9049973284
 11
3.751623568
 21
5.8674973284
  0
LINE
  5
316
100
AcDbEntity
  8
ALL_ASSEMBLY_MEMBERS
100
AcDbLine
 62
7
  6
CONTINUOUS
 10
3.754611603
 20
5.9049973284
 11
3.754611603
 21
5.8674973284
  0
LINE
  5
317
100
AcDbEntity
  8
ALL_ASSEMBLY_MEMBERS
100
AcDbLine
 62
7
  6
CONTINUOUS
 10
3.7609508769
 20
5.9049973284
 11
3.7609508769
 21
5.8674973284
  0
LINE
  5
318
100
AcDbEntity
  8
ALL_ASSEMBLY_MEMBERS
100
AcDbLine
 62
7
  6
CONTINUOUS
 10
3.7637232841
 20
5.9049973284
 11
3.7637232841
 21
5.8674973284
  0
LINE
  5
319
100
AcDbEntity
  8
ALL_ASSEMBLY_MEMBERS
100
AcDbLine
 62
7
  6
CONTINUOUS
 10
3.769584251
 20
5.9049973284
 11
3.769584251
 21
5.8674973284
  0
LINE
  5
31A
100
AcDbEntity
  8
ALL_ASSEMBLY_MEMBERS
100
AcDbLine
 62
7
  6
CONTINUOUS
 10
3.7721376527
 20
5.9049973284
 11
3.7721376527
 21
5.8674973284
  0
LINE
  5
31B
100
AcDbEntity
  8
ALL_ASSEMBLY_MEMBERS
100
AcDbLine
 62
7
  6
CONTINUOUS
 10
3.7775131719
 20
5.9049973284
 11
3.7775131719
 21
5.8674973284
  0
LINE
  5
31C
100
AcDbEntity
  8
ALL_ASSEMBLY_MEMBERS
100
AcDbLine
 62
7
  6
CONTINUOUS
 10
3.7798444571
 20
5.9049973284
 11
3.7798444571
 21
5.8674973284
  0
LINE
  5
31D
100
AcDbEntity
  8
ALL_ASSEMBLY_MEMBERS
100
AcDbLine
 62
7
  6
CONTINUOUS
 10
3.7847279794
 20
5.9049973284
 11
3.7847279794
 21
5.8674973284
  0
LINE
  5
31E
100
AcDbEntity
  8
ALL_ASSEMBLY_MEMBERS
100
AcDbLine
 62
7
  6
CONTINUOUS
 10
3.7868343078
 20
5.9049973284
 11
3.7868343078
 21
5.8674973284
  0
LINE
  5
31F
100
AcDbEntity
  8
ALL_ASSEMBLY_MEMBERS
100
AcDbLine
 62
7
  6
CONTINUOUS
 10
3.7912198834
 20
5.9049973284
 11
3.7912198834
 21
5.8674973284
  0
LINE
  5
320
100
AcDbEntity
  8
ALL_ASSEMBLY_MEMBERS
100
AcDbLine
 62
7
  6
CONTINUOUS
 10
3.7913796584
 20
5.9049973284
 11
3.7913796584
 21
6.0049973284
  0
LINE
  5
321
100
AcDbEntity
  8
ALL_ASSEMBLY_MEMBERS
100
AcDbLine
 62
7
  6
CONTINUOUS
 10
3.7930986888
 20
5.9049973284
 11
3.7930986888
 21
5.8674973284
  0
LINE
  5
322
100
AcDbEntity
  8
ALL_ASSEMBLY_MEMBERS
100
AcDbLine
 62
7
  6
CONTINUOUS
 10
3.7969809744
 20
5.9049973284
 11
3.7969809744
 21
5.8674973284
  0
LINE
  5
323
100
AcDbEntity
  8
ALL_ASSEMBLY_MEMBERS
100
AcDbLine
 62
7
  6
CONTINUOUS
 10
3.7986299677
 20
5.9049973284
 11
3.7986299677
 21
5.8674973284
  0
LINE
  5
324
100
AcDbEntity
  8
ALL_ASSEMBLY_MEMBERS
100
AcDbLine
 62
7
  6
CONTINUOUS
 10
3.8020042336
 20
5.9049973284
 11
3.8020042336
 21
5.8674973284
  0
LINE
  5
325
100
AcDbEntity
  8
ALL_ASSEMBLY_MEMBERS
100
AcDbLine
 62
7
  6
CONTINUOUS
 10
3.8034214058
 20
5.9049973284
 11
3.8034214058
 21
5.8674973284
  0
LINE
  5
326
100
AcDbEntity
  8
ALL_ASSEMBLY_MEMBERS
100
AcDbLine
 62
7
  6
CONTINUOUS
 10
3.8062835407
 20
5.9049973284
 11
3.8062835407
 21
5.8674973284
  0
LINE
  5
327
100
AcDbEntity
  8
ALL_ASSEMBLY_MEMBERS
100
AcDbLine
 62
7
  6
CONTINUOUS
 10
3.8074671652
 20
5.9049973284
 11
3.8074671652
 21
5.8674973284
  0
LINE
  5
328
100
AcDbEntity
  8
ALL_ASSEMBLY_MEMBERS
100
AcDbLine
 62
7
  6
CONTINUOUS
 10
3.8098136822
 20
5.9049973284
 11
3.8098136822
 21
5.8674973284
  0
LINE
  5
329
100
AcDbEntity
  8
ALL_ASSEMBLY_MEMBERS
100
AcDbLine
 62
7
  6
CONTINUOUS
 10
3.8107623169
 20
5.9049973284
 11
3.8107623169
 21
5.8674973284
  0
LINE
  5
32A
100
AcDbEntity
  8
ALL_ASSEMBLY_MEMBERS
100
AcDbLine
 62
7
  6
CONTINUOUS
 10
3.8125903571
 20
5.9049973284
 11
3.8125903571
 21
5.8674973284
  0
LINE
  5
32B
100
AcDbEntity
  8
ALL_ASSEMBLY_MEMBERS
100
AcDbLine
 62
7
  6
CONTINUOUS
 10
3.8133028462
 20
5.9049973284
 11
3.8133028462
 21
5.8674973284
  0
LINE
  5
32C
100
AcDbEntity
  8
ALL_ASSEMBLY_MEMBERS
100
AcDbLine
 62
7
  6
CONTINUOUS
 10
3.8146101824
 20
5.9049973284
 11
3.8146101824
 21
5.8674973284
  0
LINE
  5
32D
100
AcDbEntity
  8
ALL_ASSEMBLY_MEMBERS
100
AcDbLine
 62
7
  6
CONTINUOUS
 10
3.815085658
 20
5.9049973284
 11
3.815085658
 21
5.8674973284
  0
LINE
  5
32E
100
AcDbEntity
  8
ALL_ASSEMBLY_MEMBERS
100
AcDbLine
 62
7
  6
CONTINUOUS
 10
3.8158706973
 20
5.9049973284
 11
3.8158706973
 21
5.8674973284
  0
LINE
  5
32F
100
AcDbEntity
  8
ALL_ASSEMBLY_MEMBERS
100
AcDbLine
 62
7
  6
CONTINUOUS
 10
3.81610858
 20
5.9049973284
 11
3.81610858
 21
5.8674973284
  0
LINE
  5
330
100
AcDbEntity
  8
ALL_ASSEMBLY_MEMBERS
100
AcDbLine
 62
7
  6
CONTINUOUS
 10
3.8163703661
 20
5.9049973284
 11
3.8163703661
 21
5.8674973284
  0
LINE
  5
331
100
AcDbEntity
  8
ALL_ASSEMBLY_MEMBERS
100
AcDbLine
 62
7
  6
CONTINUOUS
 10
3.8163796584
 20
6.0299973284
 11
3.8163796584
 21
6.1049973284
  0
LINE
  5
332
100
AcDbEntity
  8
ALL_ASSEMBLY_MEMBERS
100
AcDbLine
 62
7
  6
CONTINUOUS
 10
3.3302323981
 20
5.0998087224
 11
3.3251418707
 21
5.1070078153
  0
LINE
  5
333
100
AcDbEntity
  8
ALL_FEATURES
100
AcDbLine
 62
7
  6
CONTINUOUS
 10
4.7848204188
 20
2.7609089308
 11
4.7848796584
 21
2.7601778522
  0
LINE
  5
334
100
AcDbEntity
  8
ALL_FEATURES
100
AcDbLine
 62
7
  6
CONTINUOUS
 10
4.7411296601
 20
3.7359973285
 11
4.7502748245
 21
3.7363775707
  0
LINE
  5
335
100
AcDbEntity
  8
ALL_FEATURES
100
AcDbLine
 62
7
  6
CONTINUOUS
 10
4.7502748245
 20
3.7363775707
 11
4.7723536798
 21
3.7372812382
  0
LINE
  5
336
100
AcDbEntity
  8
ALL_FEATURES
100
AcDbLine
 62
7
  6
CONTINUOUS
 10
4.7411816478
 20
3.7347231256
 11
4.7724056595
 21
3.7359973284
  0
LINE
  5
337
100
AcDbEntity
  8
ALL_FEATURES
100
AcDbLine
 62
7
  6
CONTINUOUS
 10
5.5473536573
 20
3.7359973284
 11
4.7724056595
 21
3.7359973284
  0
LINE
  5
338
100
AcDbEntity
  8
ALL_FEATURES
100
AcDbLine
 62
7
  6
CONTINUOUS
 10
5.5473536573
 20
3.7359973284
 11
5.5785776689
 21
3.7347231256
  0
LINE
  5
339
100
AcDbEntity
  8
ALL_FEATURES
100
AcDbLine
 62
7
  6
CONTINUOUS
 10
5.547405637
 20
3.7372812382
 11
5.5694844905
 21
3.7363775708
  0
LINE
  5
33A
100
AcDbEntity
  8
ALL_FEATURES
100
AcDbLine
 62
7
  6
CONTINUOUS
 10
5.5694844905
 20
3.7363775708
 11
5.5786296567
 21
3.7359973285
  0
LINE
  5
33B
100
AcDbEntity
  8
ALL_ASSEMBLY_MEMBERS
100
AcDbLine
 62
7
  6
CONTINUOUS
 10
2.5913796584
 20
6.0049973284
 11
2.5663796584
 21
6.0299973284
  0
LINE
  5
33C
100
AcDbEntity
  8
ALL_FEATURES
100
AcDbLine
 62
7
  6
CONTINUOUS
 10
4.7339389544
 20
3.8447232484
 11
4.7411296584
 21
3.7359973284
  0
LWPOLYLINE
  5
33D
100
AcDbEntity
  8
ALL_FEATURES
100
AcDbPolyline
 62
7
  6
CONTINUOUS
 90
9
 70
0
 10
4.7452367779
 20
3.636608014
 10
4.7497280275
 20
3.5305995058
 10
4.7543909535
 20
3.4230903949
 10
4.7592139228
 20
3.314225818
 10
4.7641839652
 20
3.2041187985
 10
4.7692856334
 20
3.0928803794
 10
4.7745008674
 20
2.980630561
 10
4.7798107947
 20
2.8674849058
 10
4.7848796616
 20
2.7601778524
  0
LINE
  5
33E
100
AcDbEntity
  8
ALL_FEATURES
100
AcDbLine
 62
7
  6
CONTINUOUS
 10
4.7452367779
 20
3.636608014
 11
4.7411296584
 21
3.7359973284
  0
LINE
  5
33F
100
AcDbEntity
  8
ALL_FEATURES
100
AcDbLine
 62
7
  6
CONTINUOUS
 10
4.7724056595
 20
3.7359973284
 11
4.7723536798
 21
3.7372812382
  0
LINE
  5
340
100
AcDbEntity
  8
ALL_FEATURES
100
AcDbLine
 62
7
  6
CONTINUOUS
 10
4.7724014487
 20
3.7359971856
 11
4.7723578951
 21
3.7372813811
  0
LWPOLYLINE
  5
341
100
AcDbEntity
  8
ALL_FEATURES
100
AcDbPolyline
 62
7
  6
CONTINUOUS
 90
20
 70
0
 10
4.7680406217
 20
3.1200270168
 10
4.7680807171
 20
3.1168041863
 10
4.7681270132
 20
3.1120304939
 10
4.7681580118
 20
3.1074513518
 10
4.7681739313
 20
3.1030683687
 10
4.7681750271
 20
3.0988839188
 10
4.7681615768
 20
3.0949026374
 10
4.7681339655
 20
3.0911245945
 10
4.7680925748
 20
3.0875518028
 10
4.7680380089
 20
3.0841922945
 10
4.7679708007
 20
3.081043281
 10
4.7678916922
 20
3.07810805
 10
4.767802064
 20
3.0754037141
 10
4.7677029639
 20
3.0729253127
 10
4.7675957885
 20
3.0706754774
 10
4.767483849
 20
3.0686821729
 10
4.7673690779
 20
3.0669353258
 10
4.767254584
 20
3.0654390646
 10
4.767148241
 20
3.0642407239
 10
4.7670806427
 20
3.06356799
  0
LWPOLYLINE
  5
342
100
AcDbEntity
  8
ALL_FEATURES
100
AcDbPolyline
 62
7
  6
CONTINUOUS
 90
18
 70
0
 10
4.5036296584
 20
6.0109973284
 10
4.5240706165
 20
5.8686026211
 10
4.544208283
 20
5.7227235492
 10
4.563153024
 20
5.5798295068
 10
4.5809348811
 20
5.4401231276
 10
4.5976260797
 20
5.3034707206
 10
4.6133329717
 20
5.1693988912
 10
4.6281003456
 20
5.0378940366
 10
4.6419630414
 20
4.9090205384
 10
4.6549987914
 20
4.782414556
 10
4.6672426294
 20
4.6580747045
 10
4.6787246651
 20
4.5360415072
 10
4.6895050965
 20
4.4160089454
 10
4.6996141101
 20
4.2979583159
 10
4.7090754906
 20
4.1819387897
 10
4.7179325849
 20
4.0677427517
 10
4.7262144758
 20
3.9553089222
 10
4.7339389544
 20
3.8447232484
  0
LINE
  5
343
100
AcDbEntity
  8
ALL_FEATURES
100
AcDbLine
 62
7
  6
CONTINUOUS
 10
4.4723796584
 20
6.1359973284
 11
4.4878796584
 21
6.0109973284
  0
LINE
  5
344
100
AcDbEntity
  8
ALL_ASSEMBLY_MEMBERS
100
AcDbLine
 62
7
  6
CONTINUOUS
 10
3.6663796584
 20
5.4674973284
 11
3.6288796584
 21
5.5049973284
  0
LWPOLYLINE
  5
345
100
AcDbEntity
  8
ALL_FEATURES
100
AcDbPolyline
 62
7
  6
CONTINUOUS
 90
5
 70
0
 10
5.5540387127
 20
3.0613312812
 10
5.5535543457
 20
3.0624524208
 10
5.5531485305
 20
3.0634059414
 10
5.5527617384
 20
3.0643309686
 10
5.5525586349
 20
3.0648273132
  0
LINE
  5
346
100
AcDbEntity
  8
ALL_FEATURES
100
AcDbLine
 62
7
  6
CONTINUOUS
 10
4.7672002276
 20
3.0648265416
 11
4.7669967982
 21
3.0643293588
  0
LWPOLYLINE
  5
347
100
AcDbEntity
  8
ALL_FEATURES
100
AcDbPolyline
 62
7
  6
CONTINUOUS
 90
3
 70
0
 10
4.7669967982
 20
3.0643293588
 10
4.7666100023
 20
3.0634042326
 10
4.766204416
 20
3.0624511735
  0
LINE
  5
348
100
AcDbEntity
  8
ALL_FEATURES
100
AcDbLine
 62
7
  6
CONTINUOUS
 10
4.766204416
 20
3.0624511735
 11
4.7657205803
 21
3.0613312266
  0
LINE
  5
349
100
AcDbEntity
  8
ALL_ASSEMBLY_MEMBERS
100
AcDbLine
 62
7
  6
CONTINUOUS
 10
6.6533796584
 20
5.4674973284
 11
6.6908796584
 21
5.5049973284
  0
LINE
  5
34A
100
AcDbEntity
  8
ALL_ASSEMBLY_MEMBERS
100
AcDbLine
 62
7
  6
CONTINUOUS
 10
7.355973686
 20
4.9689354428
 11
7.3538793157
 21
4.9685079355
  0
LINE
  5
34B
100
AcDbEntity
  8
ALL_ASSEMBLY_MEMBERS
100
AcDbLine
 62
7
  6
CONTINUOUS
 10
7.3559736482
 20
4.9689354104
 11
7.3538793157
 21
4.9685079355
  0
LINE
  5
34C
100
AcDbEntity
  8
ALL_ASSEMBLY_MEMBERS
100
AcDbLine
 62
7
  6
CONTINUOUS
 10
2.9658800007
 20
4.968507846
 11
2.9637856859
 21
4.9689354578
  0
LINE
  5
34D
100
AcDbEntity
  8
ALL_ASSEMBLY_MEMBERS
100
AcDbLine
 62
7
  6
CONTINUOUS
 10
2.9658800007
 20
4.968507846
 11
2.9637857415
 21
4.9689354113
  0
LWPOLYLINE
  5
34E
100
AcDbEntity
  8
ALL_FEATURES
100
AcDbPolyline
 62
7
  6
CONTINUOUS
 90
21
 70
0
 10
5.5528106168
 20
3.0624650234
 10
5.5527927679
 20
3.0625952876
 10
5.5527297322
 20
3.0631070574
 10
5.5526374846
 20
3.0639715747
 10
5.5525327401
 20
3.0651083442
 10
5.5524213764
 20
3.0665078523
 10
5.5523064233
 20
3.0681863117
 10
5.5521941044
 20
3.0701012051
 10
5.5520868339
 20
3.0722483373
 10
5.5519862021
 20
3.0746351098
 10
5.5518947211
 20
3.0772361036
 10
5.5518135174
 20
3.0800474319
 10
5.5517433592
 20
3.0830729379
 10
5.5516852579
 20
3.0862985891
 10
5.5516397736
 20
3.0897210355
 10
5.5516073196
 20
3.0933417483
 10
5.5515883251
 20
3.0971543927
 10
5.551583091
 20
3.1011566846
 10
5.5515919084
 20
3.1053479621
 10
5.5516149669
 20
3.1097250135
 10
5.5516524858
 20
3.1142853285
  0
LINE
  5
34F
100
AcDbEntity
  8
ALL_FEATURES
100
AcDbLine
 62
7
  6
CONTINUOUS
 10
5.5516524858
 20
3.1142853285
 11
5.5517180031
 21
3.1200123028
  0
LINE
  5
350
100
AcDbEntity
  8
ALL_FEATURES
100
AcDbLine
 62
7
  6
CONTINUOUS
 10
5.5473578681
 20
3.7359971856
 11
5.5474014216
 21
3.7372813811
  0
LINE
  5
351
100
AcDbEntity
  8
ALL_FEATURES
100
AcDbLine
 62
7
  6
CONTINUOUS
 10
5.5473536573
 20
3.7359973284
 11
5.547405637
 21
3.7372812382
  0
LWPOLYLINE
  5
352
100
AcDbEntity
  8
ALL_FEATURES
100
AcDbPolyline
 62
7
  6
CONTINUOUS
 90
10
 70
0
 10
5.5350043365
 20
2.7628121879
 10
5.5399449231
 20
2.8674078604
 10
5.5452554026
 20
2.980565149
 10
5.5504711635
 20
3.0928260046
 10
5.555573355
 20
3.2040750337
 10
5.5605438878
 20
3.3141921667
 10
5.5653673063
 20
3.4230662964
 10
5.5700306339
 20
3.5305842633
 10
5.5745222357
 20
3.6366008187
 10
5.578629657
 20
3.735997294
  0
LINE
  5
353
100
AcDbEntity
  8
ALL_FEATURES
100
AcDbLine
 62
7
  6
CONTINUOUS
 10
5.5348796569
 20
2.7601778523
 11
5.5350044659
 21
2.7628149871
  0
LWPOLYLINE
  5
354
100
AcDbEntity
  8
ALL_FEATURES
100
AcDbPolyline
 62
7
  6
CONTINUOUS
 90
19
 70
0
 10
5.5786296584
 20
3.7359973284
 10
5.5858203621
 20
3.8447232451
 10
5.5935448406
 20
3.9553089172
 10
5.6018267315
 20
4.0677427468
 10
5.610683826
 20
4.1819387874
 10
5.6201452068
 20
4.2979583178
 10
5.6302542207
 20
4.4160089505
 10
5.6410346522
 20
4.536041513
 10
5.6525166879
 20
4.6580747097
 10
5.6647605258
 20
4.7824145606
 10
5.6777962758
 20
4.9090205426
 10
5.6916589716
 20
5.0378940403
 10
5.7064263455
 20
5.1693988944
 10
5.7221332374
 20
5.3034707233
 10
5.738824436
 20
5.4401231299
 10
5.756606293
 20
5.5798295086
 10
5.7755510339
 20
5.7227235503
 10
5.7956887004
 20
5.8686026217
 10
5.8161296584
 20
6.0109973284
  0
LINE
  5
355
100
AcDbEntity
  8
ALL_FEATURES
100
AcDbLine
 62
7
  6
CONTINUOUS
 10
5.5350847605
 20
2.7628056312
 11
5.5348796584
 21
2.7601778522
  0
LINE
  5
356
100
AcDbEntity
  8
ALL_FEATURES
100
AcDbLine
 62
7
  6
CONTINUOUS
 10
5.5350925405
 20
2.7628050407
 11
5.5348796584
 21
2.7601778522
  0
LINE
  5
357
100
AcDbEntity
  8
ALL_FEATURES
100
AcDbLine
 62
7
  6
CONTINUOUS
 10
5.8473796584
 20
6.1359973284
 11
5.8318796584
 21
6.0109973284
  0
LINE
  5
358
100
AcDbEntity
  8
ALL_ASSEMBLY_MEMBERS
100
AcDbLine
 62
7
  6
CONTINUOUS
 10
7.2596296584
 20
4.6959973284
 11
6.9971296584
 21
4.6959973284
  0
LINE
  5
359
100
AcDbEntity
  8
ALL_ASSEMBLY_MEMBERS
100
AcDbLine
 62
7
  6
CONTINUOUS
 10
3.0601296584
 20
4.6959973284
 11
3.3226296584
 21
4.6959973284
  0
LINE
  5
35A
100
AcDbEntity
  8
ALL_ASSEMBLY_MEMBERS
100
AcDbLine
 62
7
  6
CONTINUOUS
 10
3.0601296584
 20
4.7109973284
 11
3.3226296584
 21
4.7109973284
  0
LINE
  5
35B
100
AcDbEntity
  8
ALL_ASSEMBLY_MEMBERS
100
AcDbLine
 62
7
  6
CONTINUOUS
 10
6.9971296584
 20
4.7109973284
 11
7.2596296584
 21
4.7109973284
  0
LINE
  5
35C
100
AcDbEntity
  8
ALL_ASSEMBLY_MEMBERS
100
AcDbLine
 62
7
  6
CONTINUOUS
 10
7.2846296584
 20
4.7209973284
 11
6.9721296584
 21
4.7209973284
  0
LINE
  5
35D
100
AcDbEntity
  8
ALL_ASSEMBLY_MEMBERS
100
AcDbLine
 62
7
  6
CONTINUOUS
 10
3.0351296584
 20
4.7209973284
 11
3.3476296584
 21
4.7209973284
  0
LINE
  5
35E
100
AcDbEntity
  8
ALL_ASSEMBLY_MEMBERS
100
AcDbLine
 62
7
  6
CONTINUOUS
 10
7.3283796584
 20
4.7584973284
 11
6.9283796584
 21
4.7584973284
  0
LINE
  5
35F
100
AcDbEntity
  8
ALL_ASSEMBLY_MEMBERS
100
AcDbLine
 62
7
  6
CONTINUOUS
 10
2.9913796584
 20
4.7584973284
 11
3.3913796584
 21
4.7584973284
  0
LINE
  5
360
100
AcDbEntity
  8
ALL_ASSEMBLY_MEMBERS
100
AcDbLine
 62
7
  6
CONTINUOUS
 10
8.5533796584
 20
4.7789953579
 11
8.5326783356
 21
4.7789953579
  0
LINE
  5
361
100
AcDbEntity
  8
ALL_ASSEMBLY_MEMBERS
100
AcDbLine
 62
7
  6
CONTINUOUS
 10
1.7663796584
 20
4.7789953579
 11
1.7870809812
 21
4.7789953579
  0
LINE
  5
362
100
AcDbEntity
  8
ALL_ASSEMBLY_MEMBERS
100
AcDbLine
 62
7
  6
CONTINUOUS
 10
7.7283796584
 20
6.0049973284
 11
7.7533796584
 21
6.0299973284
  0
LWPOLYLINE
  5
363
100
AcDbEntity
  8
ALL_ASSEMBLY_MEMBERS
100
AcDbPolyline
 62
7
  6
CONTINUOUS
 90
10
 70
0
 10
1.7869118409
 20
4.7503754292
 10
1.9008990478
 20
4.7535204159
 10
2.0218399219
 20
4.757070385
 10
2.146933578
 20
4.760924988
 10
2.2761782962
 20
4.7650490926
 10
2.4095757963
 20
4.7693976174
 10
2.5471312372
 20
4.7739146687
 10
2.6888463385
 20
4.7785324024
 10
2.8347193807
 20
4.783170086
 10
2.9630606286
 20
4.7870898866
  0
LWPOLYLINE
  5
364
100
AcDbEntity
  8
ALL_ASSEMBLY_MEMBERS
100
AcDbPolyline
 62
7
  6
CONTINUOUS
 90
10
 70
0
 10
8.5333723328
 20
4.9747862673
 10
8.419276841
 20
4.9746334607
 10
8.2982183124
 20
4.9742576368
 10
8.1729992493
 20
4.973685676
 10
8.0436198782
 20
4.9729527548
 10
7.9100799724
 20
4.9721041449
 10
7.7723788521
 20
4.9711960875
 10
7.6305162906
 20
4.9702967049
 10
7.4844925145
 20
4.9694869331
 10
7.3559738272
 20
4.9689354071
  0
LINE
  5
365
100
AcDbEntity
  8
ALL_ASSEMBLY_MEMBERS
100
AcDbLine
 62
7
  6
CONTINUOUS
 10
8.5533796584
 20
4.9461612083
 11
8.5326783356
 21
4.9461612083
  0
LINE
  5
366
100
AcDbEntity
  8
ALL_ASSEMBLY_MEMBERS
100
AcDbLine
 62
7
  6
CONTINUOUS
 10
1.7663796584
 20
4.9461612083
 11
1.7870809812
 21
4.9461612083
  0
LINE
  5
367
100
AcDbEntity
  8
ALL_ASSEMBLY_MEMBERS
100
AcDbLine
 62
7
  6
CONTINUOUS
 10
7.3283796608
 20
4.9959973284
 11
6.9283796584
 21
4.9959973284
  0
LINE
  5
368
100
AcDbEntity
  8
ALL_ASSEMBLY_MEMBERS
100
AcDbLine
 62
7
  6
CONTINUOUS
 10
2.9913796545
 20
4.9959973284
 11
3.3913796584
 21
4.9959973284
  0
LINE
  5
369
100
AcDbEntity
  8
ALL_ASSEMBLY_MEMBERS
100
AcDbLine
 62
7
  6
CONTINUOUS
 10
3.0351296584
 20
5.0059973284
 11
3.3476296584
 21
5.0059973284
  0
LINE
  5
36A
100
AcDbEntity
  8
ALL_ASSEMBLY_MEMBERS
100
AcDbLine
 62
7
  6
CONTINUOUS
 10
6.9721296584
 20
5.0059973284
 11
7.2846296584
 21
5.0059973284
  0
LINE
  5
36B
100
AcDbEntity
  8
ALL_ASSEMBLY_MEMBERS
100
AcDbLine
 62
7
  6
CONTINUOUS
 10
7.0046433272
 20
5.0419523285
 11
7.0050381518
 21
5.0419523285
  0
LINE
  5
36C
100
AcDbEntity
  8
ALL_ASSEMBLY_MEMBERS
100
AcDbLine
 62
7
  6
CONTINUOUS
 10
3.3155099663
 20
5.0544973284
 11
3.3270569716
 21
5.0544973284
  0
LINE
  5
36D
100
AcDbEntity
  8
ALL_ASSEMBLY_MEMBERS
100
AcDbLine
 62
7
  6
CONTINUOUS
 10
6.9927023451
 20
5.0544973284
 11
7.0042493505
 21
5.0544973284
  0
LINE
  5
36E
100
AcDbEntity
  8
ALL_ASSEMBLY_MEMBERS
100
AcDbLine
 62
7
  6
CONTINUOUS
 10
3.3328304743
 20
5.0744973284
 11
3.3097364636
 21
5.0744973284
  0
LINE
  5
36F
100
AcDbEntity
  8
ALL_ASSEMBLY_MEMBERS
100
AcDbLine
 62
7
  6
CONTINUOUS
 10
6.9869288424
 20
5.0744973284
 11
7.0100228532
 21
5.0744973284
  0
LWPOLYLINE
  5
370
100
AcDbEntity
  8
ALL_ASSEMBLY_MEMBERS
100
AcDbPolyline
 62
7
  6
CONTINUOUS
 90
10
 70
0
 10
2.9637854896
 20
4.9689354071
 10
2.8352668023
 20
4.9694869331
 10
2.6892430262
 20
4.9702967049
 10
2.5473804646
 20
4.9711960875
 10
2.4096793443
 20
4.9721041449
 10
2.2761394386
 20
4.9729527548
 10
2.1467600675
 20
4.973685676
 10
2.0215410043
 20
4.9742576368
 10
1.9004824758
 20
4.9746334607
 10
1.7863869839
 20
4.9747862673
  0
LWPOLYLINE
  5
371
100
AcDbEntity
  8
ALL_ASSEMBLY_MEMBERS
100
AcDbPolyline
 62
7
  6
CONTINUOUS
 90
18
 70
0
 10
7.355973125
 20
4.968935456
 10
7.3549116457
 20
4.9689521864
 10
7.3528428427
 20
4.9691030665
 10
7.3507235847
 20
4.9694222834
 10
7.3485756091
 20
4.9699220192
 10
7.3464349234
 20
4.9706067284
 10
7.3443203097
 20
4.971481056
 10
7.3422490216
 20
4.9725490499
 10
7.3402536907
 20
4.9738036818
 10
7.3383527746
 20
4.9752413747
 10
7.3365645317
 20
4.9768569367
 10
7.334917063
 20
4.9786317239
 10
7.3334253143
 20
4.9805541681
 10
7.3321034942
 20
4.9826110126
 10
7.3309711679
 20
4.9847737538
 10
7.3300363813
 20
4.9870248882
 10
7.3293055649
 20
4.9893463507
 10
7.3287861395
 20
4.9917045249
  0
LWPOLYLINE
  5
372
100
AcDbEntity
  8
ALL_ASSEMBLY_MEMBERS
100
AcDbPolyline
 62
7
  6
CONTINUOUS
 90
10
 70
0
 10
7.3566986882
 20
4.7870898866
 10
7.4850399361
 20
4.783170086
 10
7.6309129782
 20
4.7785324024
 10
7.7726280796
 20
4.7739146687
 10
7.9101835205
 20
4.7693976174
 10
8.0435810206
 20
4.7650490926
 10
8.1728257388
 20
4.760924988
 10
8.2979193948
 20
4.757070385
 10
8.418860269
 20
4.7535204159
 10
8.5328474758
 20
4.7503754292
  0
LINE
  5
373
100
AcDbEntity
  8
ALL_ASSEMBLY_MEMBERS
100
AcDbLine
 62
7
  6
CONTINUOUS
 10
6.9895269186
 20
5.0998087224
 11
6.9934969886
 21
5.1054232492
  0
LINE
  5
374
100
AcDbEntity
  8
ALL_ASSEMBLY_MEMBERS
100
AcDbLine
 62
7
  6
CONTINUOUS
 10
2.9913796584
 20
4.7596020859
 11
2.9915497028
 21
4.7596489106
  0
LINE
  5
375
100
AcDbEntity
  8
ALL_ASSEMBLY_MEMBERS
100
AcDbLine
 62
7
  6
CONTINUOUS
 10
2.9913796584
 20
4.7596020859
 11
2.9929162151
 21
4.7600133728
  0
LINE
  5
376
100
AcDbEntity
  8
ALL_ASSEMBLY_MEMBERS
100
AcDbLine
 62
7
  6
CONTINUOUS
 10
7.0042493505
 20
5.0944973284
 11
6.9927023451
 21
5.0944973284
  0
LINE
  5
377
100
AcDbEntity
  8
ALL_ASSEMBLY_MEMBERS
100
AcDbLine
 62
7
  6
CONTINUOUS
 10
3.3270569716
 20
5.0944973284
 11
3.3155099663
 21
5.0944973284
  0
LINE
  5
378
100
AcDbEntity
  8
ALL_ASSEMBLY_MEMBERS
100
AcDbLine
 62
7
  6
CONTINUOUS
 10
7.2846296584
 20
5.1524973284
 11
6.9721296584
 21
5.1524973284
  0
LINE
  5
379
100
AcDbEntity
  8
ALL_ASSEMBLY_MEMBERS
100
AcDbLine
 62
7
  6
CONTINUOUS
 10
3.0351296584
 20
5.1524973284
 11
3.3476296584
 21
5.1524973284
  0
LINE
  5
37A
100
AcDbEntity
  8
ALL_ASSEMBLY_MEMBERS
100
AcDbLine
 62
7
  6
CONTINUOUS
 10
3.3913796584
 20
5.1674973284
 11
2.9913796584
 21
5.1674973284
  0
LINE
  5
37B
100
AcDbEntity
  8
ALL_ASSEMBLY_MEMBERS
100
AcDbLine
 62
7
  6
CONTINUOUS
 10
6.9283796584
 20
5.1674973284
 11
7.3283796584
 21
5.1674973284
  0
LINE
  5
37C
100
AcDbEntity
  8
ALL_ASSEMBLY_MEMBERS
100
AcDbLine
 62
7
  6
CONTINUOUS
 10
3.5663796584
 20
5.2174973284
 11
2.8163796584
 21
5.2174973284
  0
LINE
  5
37D
100
AcDbEntity
  8
ALL_ASSEMBLY_MEMBERS
100
AcDbLine
 62
7
  6
CONTINUOUS
 10
6.7533796584
 20
5.2174973284
 11
7.5033796584
 21
5.2174973284
  0
LINE
  5
37E
100
AcDbEntity
  8
ALL_ASSEMBLY_MEMBERS
100
AcDbLine
 62
7
  6
CONTINUOUS
 10
3.6163796584
 20
5.2424973284
 11
2.7663796584
 21
5.2424973284
  0
LINE
  5
37F
100
AcDbEntity
  8
ALL_ASSEMBLY_MEMBERS
100
AcDbLine
 62
7
  6
CONTINUOUS
 10
6.7033796584
 20
5.2424973284
 11
7.5533796584
 21
5.2424973284
  0
LINE
  5
380
100
AcDbEntity
  8
ALL_ASSEMBLY_MEMBERS
100
AcDbLine
 62
7
  6
CONTINUOUS
 10
3.6663796584
 20
5.2924973284
 11
2.7163796584
 21
5.2924973284
  0
LINE
  5
381
100
AcDbEntity
  8
ALL_ASSEMBLY_MEMBERS
100
AcDbLine
 62
7
  6
CONTINUOUS
 10
6.6533796584
 20
5.2924973284
 11
7.6033796584
 21
5.2924973284
  0
LINE
  5
382
100
AcDbEntity
  8
ALL_ASSEMBLY_MEMBERS
100
AcDbLine
 62
7
  6
CONTINUOUS
 10
3.7038796584
 20
5.3174973284
 11
2.6788796584
 21
5.3174973284
  0
LINE
  5
383
100
AcDbEntity
  8
ALL_ASSEMBLY_MEMBERS
100
AcDbLine
 62
7
  6
CONTINUOUS
 10
6.6158796584
 20
5.3174973284
 11
7.6408796584
 21
5.3174973284
  0
LWPOLYLINE
  5
384
100
AcDbEntity
  8
ALL_ASSEMBLY_MEMBERS
100
AcDbPolyline
 62
7
  6
CONTINUOUS
 90
17
 70
0
 10
7.3550783764
 20
4.9689468554
 10
7.3530711381
 20
4.9690787063
 10
7.3509962139
 20
4.969371714
 10
7.348876089
 20
4.9698411155
 10
7.3467504209
 20
4.9704935856
 10
7.3446384459
 20
4.9713361885
 10
7.3425576742
 20
4.9723755936
 10
7.3405442819
 20
4.973605825
 10
7.3386179333
 20
4.9750249083
 10
7.3367980189
 20
4.9766293511
 10
7.3351158621
 20
4.9784003089
 10
7.3335877628
 20
4.9803269791
 10
7.3322295265
 20
4.9823965277
 10
7.3310635414
 20
4.984578483
 10
7.3300988896
 20
4.9868549963
 10
7.3293429986
 20
4.9892075091
 10
7.328804724
 20
4.991599321
  0
LINE
  5
385
100
AcDbEntity
  8
ALL_ASSEMBLY_MEMBERS
100
AcDbLine
 62
7
  6
CONTINUOUS
 10
3.7038796584
 20
5.4174973284
 11
2.6788796584
 21
5.4174973284
  0
LINE
  5
386
100
AcDbEntity
  8
ALL_ASSEMBLY_MEMBERS
100
AcDbLine
 62
7
  6
CONTINUOUS
 10
6.6158796584
 20
5.4174973284
 11
7.6408796584
 21
5.4174973284
  0
LINE
  5
387
100
AcDbEntity
  8
ALL_ASSEMBLY_MEMBERS
100
AcDbLine
 62
7
  6
CONTINUOUS
 10
3.6663796584
 20
5.4674973284
 11
2.7163796584
 21
5.4674973284
  0
LINE
  5
388
100
AcDbEntity
  8
ALL_ASSEMBLY_MEMBERS
100
AcDbLine
 62
7
  6
CONTINUOUS
 10
6.6533796584
 20
5.4674973284
 11
7.6033796584
 21
5.4674973284
  0
LINE
  5
389
100
AcDbEntity
  8
ALL_ASSEMBLY_MEMBERS
100
AcDbLine
 62
7
  6
CONTINUOUS
 10
3.6288796584
 20
5.5049973284
 11
2.7538796584
 21
5.5049973284
  0
LINE
  5
38A
100
AcDbEntity
  8
ALL_ASSEMBLY_MEMBERS
100
AcDbLine
 62
7
  6
CONTINUOUS
 10
6.6908796584
 20
5.5049973284
 11
7.5658796584
 21
5.5049973284
  0
LINE
  5
38B
100
AcDbEntity
  8
ALL_ASSEMBLY_MEMBERS
100
AcDbLine
 62
7
  6
CONTINUOUS
 10
6.5033796584
 20
6.0299973284
 11
6.5033796584
 21
6.1049973284
  0
LINE
  5
38C
100
AcDbEntity
  8
ALL_ASSEMBLY_MEMBERS
100
AcDbLine
 62
7
  6
CONTINUOUS
 10
6.5033889506
 20
5.9049973284
 11
6.5033889506
 21
5.8674973284
  0
LINE
  5
38D
100
AcDbEntity
  8
ALL_ASSEMBLY_MEMBERS
100
AcDbLine
 62
7
  6
CONTINUOUS
 10
6.5036507367
 20
5.9049973284
 11
6.5036507367
 21
5.8674973284
  0
LINE
  5
38E
100
AcDbEntity
  8
ALL_ASSEMBLY_MEMBERS
100
AcDbLine
 62
7
  6
CONTINUOUS
 10
6.5038886194
 20
5.9049973284
 11
6.5038886194
 21
5.8674973284
  0
LINE
  5
38F
100
AcDbEntity
  8
ALL_ASSEMBLY_MEMBERS
100
AcDbLine
 62
7
  6
CONTINUOUS
 10
6.5046736588
 20
5.9049973284
 11
6.5046736588
 21
5.8674973284
  0
LINE
  5
390
100
AcDbEntity
  8
ALL_ASSEMBLY_MEMBERS
100
AcDbLine
 62
7
  6
CONTINUOUS
 10
6.5051491344
 20
5.9049973284
 11
6.5051491344
 21
5.8674973284
  0
LINE
  5
391
100
AcDbEntity
  8
ALL_ASSEMBLY_MEMBERS
100
AcDbLine
 62
7
  6
CONTINUOUS
 10
6.5064564705
 20
5.9049973284
 11
6.5064564705
 21
5.8674973284
  0
LINE
  5
392
100
AcDbEntity
  8
ALL_ASSEMBLY_MEMBERS
100
AcDbLine
 62
7
  6
CONTINUOUS
 10
6.5071689597
 20
5.9049973284
 11
6.5071689597
 21
5.8674973284
  0
LINE
  5
393
100
AcDbEntity
  8
ALL_ASSEMBLY_MEMBERS
100
AcDbLine
 62
7
  6
CONTINUOUS
 10
6.5089969999
 20
5.9049973284
 11
6.5089969999
 21
5.8674973284
  0
LINE
  5
394
100
AcDbEntity
  8
ALL_ASSEMBLY_MEMBERS
100
AcDbLine
 62
7
  6
CONTINUOUS
 10
6.5099456346
 20
5.9049973284
 11
6.5099456346
 21
5.8674973284
  0
LINE
  5
395
100
AcDbEntity
  8
ALL_ASSEMBLY_MEMBERS
100
AcDbLine
 62
7
  6
CONTINUOUS
 10
6.5122921516
 20
5.9049973284
 11
6.5122921516
 21
5.8674973284
  0
LINE
  5
396
100
AcDbEntity
  8
ALL_ASSEMBLY_MEMBERS
100
AcDbLine
 62
7
  6
CONTINUOUS
 10
6.5134757761
 20
5.9049973284
 11
6.5134757761
 21
5.8674973284
  0
LINE
  5
397
100
AcDbEntity
  8
ALL_ASSEMBLY_MEMBERS
100
AcDbLine
 62
7
  6
CONTINUOUS
 10
6.516337911
 20
5.9049973284
 11
6.516337911
 21
5.8674973284
  0
LINE
  5
398
100
AcDbEntity
  8
ALL_ASSEMBLY_MEMBERS
100
AcDbLine
 62
7
  6
CONTINUOUS
 10
6.5177550832
 20
5.9049973284
 11
6.5177550832
 21
5.8674973284
  0
LINE
  5
399
100
AcDbEntity
  8
ALL_ASSEMBLY_MEMBERS
100
AcDbLine
 62
7
  6
CONTINUOUS
 10
6.521129349
 20
5.9049973284
 11
6.521129349
 21
5.8674973284
  0
LINE
  5
39A
100
AcDbEntity
  8
ALL_ASSEMBLY_MEMBERS
100
AcDbLine
 62
7
  6
CONTINUOUS
 10
6.5227783423
 20
5.9049973284
 11
6.5227783423
 21
5.8674973284
  0
LINE
  5
39B
100
AcDbEntity
  8
ALL_ASSEMBLY_MEMBERS
100
AcDbLine
 62
7
  6
CONTINUOUS
 10
6.526660628
 20
5.9049973284
 11
6.526660628
 21
5.8674973284
  0
LINE
  5
39C
100
AcDbEntity
  8
ALL_ASSEMBLY_MEMBERS
100
AcDbLine
 62
7
  6
CONTINUOUS
 10
6.5283796584
 20
5.9049973284
 11
6.5283796584
 21
6.0049973284
  0
LINE
  5
39D
100
AcDbEntity
  8
ALL_ASSEMBLY_MEMBERS
100
AcDbLine
 62
7
  6
CONTINUOUS
 10
6.5285394334
 20
5.9049973284
 11
6.5285394334
 21
5.8674973284
  0
LINE
  5
39E
100
AcDbEntity
  8
ALL_ASSEMBLY_MEMBERS
100
AcDbLine
 62
7
  6
CONTINUOUS
 10
6.532925009
 20
5.9049973284
 11
6.532925009
 21
5.8674973284
  0
LINE
  5
39F
100
AcDbEntity
  8
ALL_ASSEMBLY_MEMBERS
100
AcDbLine
 62
7
  6
CONTINUOUS
 10
6.5350313373
 20
5.9049973284
 11
6.5350313373
 21
5.8674973284
  0
LINE
  5
3A0
100
AcDbEntity
  8
ALL_ASSEMBLY_MEMBERS
100
AcDbLine
 62
7
  6
CONTINUOUS
 10
6.5399148597
 20
5.9049973284
 11
6.5399148597
 21
5.8674973284
  0
LINE
  5
3A1
100
AcDbEntity
  8
ALL_ASSEMBLY_MEMBERS
100
AcDbLine
 62
7
  6
CONTINUOUS
 10
6.5422461448
 20
5.9049973284
 11
6.5422461448
 21
5.8674973284
  0
LINE
  5
3A2
100
AcDbEntity
  8
ALL_ASSEMBLY_MEMBERS
100
AcDbLine
 62
7
  6
CONTINUOUS
 10
6.5476216641
 20
5.9049973284
 11
6.5476216641
 21
5.8674973284
  0
LINE
  5
3A3
100
AcDbEntity
  8
ALL_ASSEMBLY_MEMBERS
100
AcDbLine
 62
7
  6
CONTINUOUS
 10
6.5501750657
 20
5.9049973284
 11
6.5501750657
 21
5.8674973284
  0
LINE
  5
3A4
100
AcDbEntity
  8
ALL_ASSEMBLY_MEMBERS
100
AcDbLine
 62
7
  6
CONTINUOUS
 10
6.5560360327
 20
5.9049973284
 11
6.5560360327
 21
5.8674973284
  0
LINE
  5
3A5
100
AcDbEntity
  8
ALL_ASSEMBLY_MEMBERS
100
AcDbLine
 62
7
  6
CONTINUOUS
 10
6.5588084398
 20
5.9049973284
 11
6.5588084398
 21
5.8674973284
  0
LINE
  5
3A6
100
AcDbEntity
  8
ALL_ASSEMBLY_MEMBERS
100
AcDbLine
 62
7
  6
CONTINUOUS
 10
6.5651477138
 20
5.9049973284
 11
6.5651477138
 21
5.8674973284
  0
LINE
  5
3A7
100
AcDbEntity
  8
ALL_ASSEMBLY_MEMBERS
100
AcDbLine
 62
7
  6
CONTINUOUS
 10
6.5681357488
 20
5.9049973284
 11
6.5681357488
 21
5.8674973284
  0
LINE
  5
3A8
100
AcDbEntity
  8
ALL_ASSEMBLY_MEMBERS
100
AcDbLine
 62
7
  6
CONTINUOUS
 10
6.5749456063
 20
5.9049973284
 11
6.5749456063
 21
5.8674973284
  0
LINE
  5
3A9
100
AcDbEntity
  8
ALL_ASSEMBLY_MEMBERS
100
AcDbLine
 62
7
  6
CONTINUOUS
 10
6.5781456286
 20
5.9049973284
 11
6.5781456286
 21
5.8674973284
  0
LINE
  5
3AA
100
AcDbEntity
  8
ALL_ASSEMBLY_MEMBERS
100
AcDbLine
 62
7
  6
CONTINUOUS
 10
6.5854177729
 20
5.9049973284
 11
6.5854177729
 21
5.8674973284
  0
LINE
  5
3AB
100
AcDbEntity
  8
ALL_ASSEMBLY_MEMBERS
100
AcDbLine
 62
7
  6
CONTINUOUS
 10
6.5888258838
 20
5.9049973284
 11
6.5888258838
 21
5.8674973284
  0
LINE
  5
3AC
100
AcDbEntity
  8
ALL_ASSEMBLY_MEMBERS
100
AcDbLine
 62
7
  6
CONTINUOUS
 10
6.5965514549
 20
5.9049973284
 11
6.5965514549
 21
5.8674973284
  0
LINE
  5
3AD
100
AcDbEntity
  8
ALL_ASSEMBLY_MEMBERS
100
AcDbLine
 62
7
  6
CONTINUOUS
 10
6.6001635022
 20
5.9049973284
 11
6.6001635022
 21
5.8674973284
  0
LINE
  5
3AE
100
AcDbEntity
  8
ALL_ASSEMBLY_MEMBERS
100
AcDbLine
 62
7
  6
CONTINUOUS
 10
6.6083330877
 20
5.9049973284
 11
6.6083330877
 21
5.8674973284
  0
LINE
  5
3AF
100
AcDbEntity
  8
ALL_ASSEMBLY_MEMBERS
100
AcDbLine
 62
7
  6
CONTINUOUS
 10
6.6121446706
 20
5.9049973284
 11
6.6121446706
 21
5.8674973284
  0
LINE
  5
3B0
100
AcDbEntity
  8
ALL_ASSEMBLY_MEMBERS
100
AcDbLine
 62
7
  6
CONTINUOUS
 10
6.6158796584
 20
5.3174973284
 11
6.6158796584
 21
5.4174973284
  0
LINE
  5
3B1
100
AcDbEntity
  8
ALL_ASSEMBLY_MEMBERS
100
AcDbLine
 62
7
  6
CONTINUOUS
 10
6.6207483171
 20
5.9049973284
 11
6.6207483171
 21
5.8674973284
  0
LINE
  5
3B2
100
AcDbEntity
  8
ALL_ASSEMBLY_MEMBERS
100
AcDbLine
 62
7
  6
CONTINUOUS
 10
6.6247547918
 20
5.9049973284
 11
6.6247547918
 21
5.8674973284
  0
LINE
  5
3B3
100
AcDbEntity
  8
ALL_ASSEMBLY_MEMBERS
100
AcDbLine
 62
7
  6
CONTINUOUS
 10
6.6337820172
 20
5.9049973284
 11
6.6337820172
 21
5.8674973284
  0
LINE
  5
3B4
100
AcDbEntity
  8
ALL_ASSEMBLY_MEMBERS
100
AcDbLine
 62
7
  6
CONTINUOUS
 10
6.6379785024
 20
5.9049973284
 11
6.6379785024
 21
5.8674973284
  0
LINE
  5
3B5
100
AcDbEntity
  8
ALL_ASSEMBLY_MEMBERS
100
AcDbLine
 62
7
  6
CONTINUOUS
 10
6.6474183082
 20
5.9049973284
 11
6.6474183082
 21
5.8674973284
  0
LINE
  5
3B6
100
AcDbEntity
  8
ALL_ASSEMBLY_MEMBERS
100
AcDbLine
 62
7
  6
CONTINUOUS
 10
6.6517996912
 20
5.9049973284
 11
6.6517996912
 21
5.8674973284
  0
LINE
  5
3B7
100
AcDbEntity
  8
ALL_ASSEMBLY_MEMBERS
100
AcDbLine
 62
7
  6
CONTINUOUS
 10
6.6533796584
 20
5.2924973284
 11
6.6533796584
 21
5.3174973284
  0
LINE
  5
3B8
100
AcDbEntity
  8
ALL_ASSEMBLY_MEMBERS
100
AcDbLine
 62
7
  6
CONTINUOUS
 10
6.6533796584
 20
5.4174973284
 11
6.6533796584
 21
5.4674973284
  0
LINE
  5
3B9
100
AcDbEntity
  8
ALL_ASSEMBLY_MEMBERS
100
AcDbLine
 62
7
  6
CONTINUOUS
 10
6.6616405766
 20
5.9049973284
 11
6.6616405766
 21
5.8674973284
  0
LINE
  5
3BA
100
AcDbEntity
  8
ALL_ASSEMBLY_MEMBERS
100
AcDbLine
 62
7
  6
CONTINUOUS
 10
6.6662015193
 20
5.9049973284
 11
6.6662015193
 21
5.8674973284
  0
LINE
  5
3BB
100
AcDbEntity
  8
ALL_ASSEMBLY_MEMBERS
100
AcDbLine
 62
7
  6
CONTINUOUS
 10
6.6764314947
 20
5.9049973284
 11
6.6764314947
 21
5.8674973284
  0
LINE
  5
3BC
100
AcDbEntity
  8
ALL_ASSEMBLY_MEMBERS
100
AcDbLine
 62
7
  6
CONTINUOUS
 10
6.6811664402
 20
5.9049973284
 11
6.6811664402
 21
5.8674973284
  0
LINE
  5
3BD
100
AcDbEntity
  8
ALL_ASSEMBLY_MEMBERS
100
AcDbLine
 62
7
  6
CONTINUOUS
 10
6.6908796584
 20
5.5049973284
 11
6.6908796584
 21
5.7674973284
  0
LINE
  5
3BE
100
AcDbEntity
  8
ALL_ASSEMBLY_MEMBERS
100
AcDbLine
 62
7
  6
CONTINUOUS
 10
6.691773042
 20
5.9049973284
 11
6.691773042
 21
5.8674973284
  0
LINE
  5
3BF
100
AcDbEntity
  8
ALL_ASSEMBLY_MEMBERS
100
AcDbLine
 62
7
  6
CONTINUOUS
 10
6.6966762216
 20
5.9049973284
 11
6.6966762216
 21
5.8674973284
  0
LINE
  5
3C0
100
AcDbEntity
  8
ALL_ASSEMBLY_MEMBERS
100
AcDbLine
 62
7
  6
CONTINUOUS
 10
6.7072763621
 20
5.8674973284
 11
6.7072763621
 21
5.9049973284
  0
LINE
  5
3C1
100
AcDbEntity
  8
ALL_ASSEMBLY_MEMBERS
100
AcDbLine
 62
7
  6
CONTINUOUS
 10
6.7076465271
 20
5.9049973284
 11
6.7076465271
 21
5.8674973284
  0
LINE
  5
3C2
100
AcDbEntity
  8
ALL_ASSEMBLY_MEMBERS
100
AcDbLine
 62
7
  6
CONTINUOUS
 10
6.7127119671
 20
5.9049973284
 11
6.7127119671
 21
5.8674973284
  0
LINE
  5
3C3
100
AcDbEntity
  8
ALL_ASSEMBLY_MEMBERS
100
AcDbLine
 62
7
  6
CONTINUOUS
 10
6.7232927317
 20
5.8674973284
 11
6.7232927317
 21
5.9049973284
  0
LINE
  5
3C4
100
AcDbEntity
  8
ALL_ASSEMBLY_MEMBERS
100
AcDbLine
 62
7
  6
CONTINUOUS
 10
6.7240326108
 20
5.9049973284
 11
6.7240326108
 21
5.8674973284
  0
LINE
  5
3C5
100
AcDbEntity
  8
ALL_ASSEMBLY_MEMBERS
100
AcDbLine
 62
7
  6
CONTINUOUS
 10
6.7292541397
 20
5.9049973284
 11
6.7292541397
 21
5.8674973284
  0
LINE
  5
3C6
100
AcDbEntity
  8
ALL_ASSEMBLY_MEMBERS
100
AcDbLine
 62
7
  6
CONTINUOUS
 10
6.7398026373
 20
5.8674973284
 11
6.7398026373
 21
5.9049973284
  0
LINE
  5
3C7
100
AcDbEntity
  8
ALL_ASSEMBLY_MEMBERS
100
AcDbLine
 62
7
  6
CONTINUOUS
 10
6.7409113291
 20
5.9049973284
 11
6.7409113291
 21
5.8674973284
  0
LINE
  5
3C8
100
AcDbEntity
  8
ALL_ASSEMBLY_MEMBERS
100
AcDbLine
 62
7
  6
CONTINUOUS
 10
6.9927023451
 20
5.0944973284
 11
6.9869288424
 21
5.0744973284
  0
LINE
  5
3C9
100
AcDbEntity
  8
ALL_ASSEMBLY_MEMBERS
100
AcDbLine
 62
7
  6
CONTINUOUS
 10
7.0042493505
 20
5.0544973284
 11
7.0100228532
 21
5.0744973284
  0
LINE
  5
3CA
100
AcDbEntity
  8
ALL_ASSEMBLY_MEMBERS
100
AcDbLine
 62
7
  6
CONTINUOUS
 10
7.5908796584
 20
5.7674973284
 11
6.6658796584
 21
5.7674973284
  0
LINE
  5
3CB
100
AcDbEntity
  8
ALL_ASSEMBLY_MEMBERS
100
AcDbLine
 62
7
  6
CONTINUOUS
 10
2.7288796584
 20
5.7674973284
 11
3.6538796584
 21
5.7674973284
  0
LINE
  5
3CC
100
AcDbEntity
  8
ALL_ASSEMBLY_MEMBERS
100
AcDbLine
 62
7
  6
CONTINUOUS
 10
7.6658796584
 20
5.8174973284
 11
6.5908796584
 21
5.8174973284
  0
LINE
  5
3CD
100
AcDbEntity
  8
ALL_ASSEMBLY_MEMBERS
100
AcDbLine
 62
7
  6
CONTINUOUS
 10
2.6538796584
 20
5.8174973284
 11
3.7288796584
 21
5.8174973284
  0
LINE
  5
3CE
100
AcDbEntity
  8
ALL_ASSEMBLY_MEMBERS
100
AcDbLine
 62
7
  6
CONTINUOUS
 10
6.7462825852
 20
5.9049973284
 11
6.7462825852
 21
5.8674973284
  0
LINE
  5
3CF
100
AcDbEntity
  8
ALL_ASSEMBLY_MEMBERS
100
AcDbLine
 62
7
  6
CONTINUOUS
 10
6.7533796584
 20
5.2174973284
 11
6.7533796584
 21
5.2424973284
  0
LINE
  5
3D0
100
AcDbEntity
  8
ALL_ASSEMBLY_MEMBERS
100
AcDbLine
 62
7
  6
CONTINUOUS
 10
6.7567859642
 20
5.8674973284
 11
6.7567859642
 21
5.9049973284
  0
LINE
  5
3D1
100
AcDbEntity
  8
ALL_ASSEMBLY_MEMBERS
100
AcDbLine
 62
7
  6
CONTINUOUS
 10
6.7582621179
 20
5.9049973284
 11
6.7582621179
 21
5.8674973284
  0
LINE
  5
3D2
100
AcDbEntity
  8
ALL_ASSEMBLY_MEMBERS
100
AcDbLine
 62
7
  6
CONTINUOUS
 10
6.7637765572
 20
5.9049973284
 11
6.7637765572
 21
5.8674973284
  0
LINE
  5
3D3
100
AcDbEntity
  8
ALL_ASSEMBLY_MEMBERS
100
AcDbLine
 62
7
  6
CONTINUOUS
 10
6.7742220208
 20
5.8674973284
 11
6.7742220208
 21
5.9049973284
  0
LINE
  5
3D4
100
AcDbEntity
  8
ALL_ASSEMBLY_MEMBERS
100
AcDbLine
 62
7
  6
CONTINUOUS
 10
6.7760638379
 20
5.9049973284
 11
6.7760638379
 21
5.8674973284
  0
LINE
  5
3D5
100
AcDbEntity
  8
ALL_ASSEMBLY_MEMBERS
100
AcDbLine
 62
7
  6
CONTINUOUS
 10
6.7817147419
 20
5.9049973284
 11
6.7817147419
 21
5.8674973284
  0
LINE
  5
3D6
100
AcDbEntity
  8
ALL_ASSEMBLY_MEMBERS
100
AcDbLine
 62
7
  6
CONTINUOUS
 10
6.7920895639
 20
5.8674973284
 11
6.7920895639
 21
5.9049973284
  0
LINE
  5
3D7
100
AcDbEntity
  8
ALL_ASSEMBLY_MEMBERS
100
AcDbLine
 62
7
  6
CONTINUOUS
 10
6.7942948004
 20
5.9049973284
 11
6.7942948004
 21
5.8674973284
  0
LINE
  5
3D8
100
AcDbEntity
  8
ALL_ASSEMBLY_MEMBERS
100
AcDbLine
 62
7
  6
CONTINUOUS
 10
6.8000752844
 20
5.9049973284
 11
6.8000752844
 21
5.8674973284
  0
LINE
  5
3D9
100
AcDbEntity
  8
ALL_ASSEMBLY_MEMBERS
100
AcDbLine
 62
7
  6
CONTINUOUS
 10
6.8103668247
 20
5.8674973284
 11
6.8103668247
 21
5.9049973284
  0
LINE
  5
3DA
100
AcDbEntity
  8
ALL_ASSEMBLY_MEMBERS
100
AcDbLine
 62
7
  6
CONTINUOUS
 10
6.8129327939
 20
5.9049973284
 11
6.8129327939
 21
5.8674973284
  0
LINE
  5
3DB
100
AcDbEntity
  8
ALL_ASSEMBLY_MEMBERS
100
AcDbLine
 62
7
  6
CONTINUOUS
 10
6.8188358151
 20
5.9049973284
 11
6.8188358151
 21
5.8674973284
  0
LINE
  5
3DC
100
AcDbEntity
  8
ALL_ASSEMBLY_MEMBERS
100
AcDbLine
 62
7
  6
CONTINUOUS
 10
6.8290315351
 20
5.8674973284
 11
6.8290315351
 21
5.9049973284
  0
LINE
  5
3DD
100
AcDbEntity
  8
ALL_ASSEMBLY_MEMBERS
100
AcDbLine
 62
7
  6
CONTINUOUS
 10
6.8319551108
 20
5.9049973284
 11
6.8319551108
 21
5.8674973284
  0
LINE
  5
3DE
100
AcDbEntity
  8
ALL_ASSEMBLY_MEMBERS
100
AcDbLine
 62
7
  6
CONTINUOUS
 10
6.8379734774
 20
5.9049973284
 11
6.8379734774
 21
5.8674973284
  0
LINE
  5
3DF
100
AcDbEntity
  8
ALL_ASSEMBLY_MEMBERS
100
AcDbLine
 62
7
  6
CONTINUOUS
 10
6.8480609551
 20
5.8674973284
 11
6.8480609551
 21
5.9049973284
  0
LINE
  5
3E0
100
AcDbEntity
  8
ALL_ASSEMBLY_MEMBERS
100
AcDbLine
 62
7
  6
CONTINUOUS
 10
6.8513385753
 20
5.9049973284
 11
6.8513385753
 21
5.8674973284
  0
LINE
  5
3E1
100
AcDbEntity
  8
ALL_ASSEMBLY_MEMBERS
100
AcDbLine
 62
7
  6
CONTINUOUS
 10
6.8574649549
 20
5.9049973284
 11
6.8574649549
 21
5.8674973284
  0
LINE
  5
3E2
100
AcDbEntity
  8
ALL_ASSEMBLY_MEMBERS
100
AcDbLine
 62
7
  6
CONTINUOUS
 10
6.8674319003
 20
5.8674973284
 11
6.8674319003
 21
5.9049973284
  0
LINE
  5
3E3
100
AcDbEntity
  8
ALL_ASSEMBLY_MEMBERS
100
AcDbLine
 62
7
  6
CONTINUOUS
 10
6.8710595717
 20
5.9049973284
 11
6.8710595717
 21
5.8674973284
  0
LINE
  5
3E4
100
AcDbEntity
  8
ALL_ASSEMBLY_MEMBERS
100
AcDbLine
 62
7
  6
CONTINUOUS
 10
6.8772865002
 20
5.9049973284
 11
6.8772865002
 21
5.8674973284
  0
LINE
  5
3E5
100
AcDbEntity
  8
ALL_ASSEMBLY_MEMBERS
100
AcDbLine
 62
7
  6
CONTINUOUS
 10
6.8871207701
 20
5.8674973284
 11
6.8871207701
 21
5.9049973284
  0
LINE
  5
3E6
100
AcDbEntity
  8
ALL_ASSEMBLY_MEMBERS
100
AcDbLine
 62
7
  6
CONTINUOUS
 10
6.891094073
 20
5.9049973284
 11
6.891094073
 21
5.8674973284
  0
LINE
  5
3E7
100
AcDbEntity
  8
ALL_ASSEMBLY_MEMBERS
100
AcDbLine
 62
7
  6
CONTINUOUS
 10
6.8974139639
 20
5.9049973284
 11
6.8974139639
 21
5.8674973284
  0
LINE
  5
3E8
100
AcDbEntity
  8
ALL_ASSEMBLY_MEMBERS
100
AcDbLine
 62
7
  6
CONTINUOUS
 10
6.9071035767
 20
5.8674973284
 11
6.9071035767
 21
5.9049973284
  0
LINE
  5
3E9
100
AcDbEntity
  8
ALL_ASSEMBLY_MEMBERS
100
AcDbLine
 62
7
  6
CONTINUOUS
 10
6.9114176703
 20
5.9049973284
 11
6.9114176703
 21
5.8674973284
  0
LINE
  5
3EA
100
AcDbEntity
  8
ALL_ASSEMBLY_MEMBERS
100
AcDbLine
 62
7
  6
CONTINUOUS
 10
6.9178228236
 20
5.9049973284
 11
6.9178228236
 21
5.8674973284
  0
LINE
  5
3EB
100
AcDbEntity
  8
ALL_ASSEMBLY_MEMBERS
100
AcDbLine
 62
7
  6
CONTINUOUS
 10
6.9273559741
 20
5.8674973284
 11
6.9273559741
 21
5.9049973284
  0
LINE
  5
3EC
100
AcDbEntity
  8
ALL_ASSEMBLY_MEMBERS
100
AcDbLine
 62
7
  6
CONTINUOUS
 10
6.9283796584
 20
4.9959973284
 11
6.9283796584
 21
4.7584973284
  0
LINE
  5
3ED
100
AcDbEntity
  8
ALL_ASSEMBLY_MEMBERS
100
AcDbLine
 62
7
  6
CONTINUOUS
 10
6.9283796584
 20
5.1674973284
 11
6.9283796584
 21
5.2174973284
  0
LINE
  5
3EE
100
AcDbEntity
  8
ALL_ASSEMBLY_MEMBERS
100
AcDbLine
 62
7
  6
CONTINUOUS
 10
6.9320056023
 20
5.9049973284
 11
6.9320056023
 21
5.8674973284
  0
LINE
  5
3EF
100
AcDbEntity
  8
ALL_ASSEMBLY_MEMBERS
100
AcDbLine
 62
7
  6
CONTINUOUS
 10
6.9384882145
 20
5.9049973284
 11
6.9384882145
 21
5.8674973284
  0
LINE
  5
3F0
100
AcDbEntity
  8
ALL_ASSEMBLY_MEMBERS
100
AcDbLine
 62
7
  6
CONTINUOUS
 10
6.9478532879
 20
5.8674973284
 11
6.9478532879
 21
5.9049973284
  0
LINE
  5
3F1
100
AcDbEntity
  8
ALL_ASSEMBLY_MEMBERS
100
AcDbLine
 62
7
  6
CONTINUOUS
 10
6.9528327858
 20
5.9049973284
 11
6.9528327858
 21
5.8674973284
  0
LINE
  5
3F2
100
AcDbEntity
  8
ALL_ASSEMBLY_MEMBERS
100
AcDbLine
 62
7
  6
CONTINUOUS
 10
6.9593849588
 20
5.9049973284
 11
6.9593849588
 21
5.8674973284
  0
LINE
  5
3F3
100
AcDbEntity
  8
ALL_ASSEMBLY_MEMBERS
100
AcDbLine
 62
7
  6
CONTINUOUS
 10
6.9685705453
 20
5.8674973284
 11
6.9685705453
 21
5.9049973284
  0
LINE
  5
3F4
100
AcDbEntity
  8
ALL_ASSEMBLY_MEMBERS
100
AcDbLine
 62
7
  6
CONTINUOUS
 10
6.9721296584
 20
5.1524973284
 11
6.9721296584
 21
5.0059973284
  0
LINE
  5
3F5
100
AcDbEntity
  8
ALL_ASSEMBLY_MEMBERS
100
AcDbLine
 62
7
  6
CONTINUOUS
 10
6.9738738462
 20
5.9049973284
 11
6.9738738462
 21
5.8674973284
  0
LINE
  5
3F6
100
AcDbEntity
  8
ALL_ASSEMBLY_MEMBERS
100
AcDbLine
 62
7
  6
CONTINUOUS
 10
6.9804875971
 20
5.9049973284
 11
6.9804875971
 21
5.8674973284
  0
LINE
  5
3F7
100
AcDbEntity
  8
ALL_ASSEMBLY_MEMBERS
100
AcDbLine
 62
7
  6
CONTINUOUS
 10
6.9894825055
 20
5.8674973284
 11
6.9894825055
 21
5.9049973284
  0
LINE
  5
3F8
100
AcDbEntity
  8
ALL_ASSEMBLY_MEMBERS
100
AcDbLine
 62
7
  6
CONTINUOUS
 10
6.9951031481
 20
5.9049973284
 11
6.9951031481
 21
5.8674973284
  0
LINE
  5
3F9
100
AcDbEntity
  8
ALL_ASSEMBLY_MEMBERS
100
AcDbLine
 62
7
  6
CONTINUOUS
 10
6.9971296584
 20
4.7109973284
 11
6.9971296584
 21
4.6959973284
  0
LINE
  5
3FA
100
AcDbEntity
  8
ALL_ASSEMBLY_MEMBERS
100
AcDbLine
 62
7
  6
CONTINUOUS
 10
2.5663889506
 20
5.8674973284
 11
2.5666852129
 21
5.8674973284
  0
LINE
  5
3FB
100
AcDbEntity
  8
ALL_ASSEMBLY_MEMBERS
100
AcDbLine
 62
7
  6
CONTINUOUS
 10
2.5668886194
 20
5.8674973284
 11
3.8163703661
 21
5.8674973284
  0
LINE
  5
3FC
100
AcDbEntity
  8
ALL_ASSEMBLY_MEMBERS
100
AcDbLine
 62
7
  6
CONTINUOUS
 10
6.5033889506
 20
5.8674973284
 11
6.5036852196
 21
5.8674973284
  0
LINE
  5
3FD
100
AcDbEntity
  8
ALL_ASSEMBLY_MEMBERS
100
AcDbLine
 62
7
  6
CONTINUOUS
 10
6.5038886194
 20
5.8674973284
 11
7.7533703661
 21
5.8674973284
  0
LINE
  5
3FE
100
AcDbEntity
  8
ALL_ASSEMBLY_MEMBERS
100
AcDbLine
 62
7
  6
CONTINUOUS
 10
3.8160740872
 20
5.9049973284
 11
3.8163703661
 21
5.9049973284
  0
LINE
  5
3FF
100
AcDbEntity
  8
ALL_ASSEMBLY_MEMBERS
100
AcDbLine
 62
7
  6
CONTINUOUS
 10
2.5663889506
 20
5.9049973284
 11
3.8158706973
 21
5.9049973284
  0
LINE
  5
400
100
AcDbEntity
  8
ALL_ASSEMBLY_MEMBERS
100
AcDbLine
 62
7
  6
CONTINUOUS
 10
6.5033889506
 20
5.9049973284
 11
7.7528706973
 21
5.9049973284
  0
LINE
  5
401
100
AcDbEntity
  8
ALL_ASSEMBLY_MEMBERS
100
AcDbLine
 62
7
  6
CONTINUOUS
 10
7.7530740806
 20
5.9049973284
 11
7.7533703661
 21
5.9049973284
  0
LINE
  5
402
100
AcDbEntity
  8
ALL_ASSEMBLY_MEMBERS
100
AcDbLine
 62
7
  6
CONTINUOUS
 10
7.7283796584
 20
6.0049973284
 11
6.5283796584
 21
6.0049973284
  0
LINE
  5
403
100
AcDbEntity
  8
ALL_ASSEMBLY_MEMBERS
100
AcDbLine
 62
7
  6
CONTINUOUS
 10
2.5913796584
 20
6.0049973284
 11
3.7913796584
 21
6.0049973284
  0
LINE
  5
404
100
AcDbEntity
  8
ALL_FEATURES
100
AcDbLine
 62
7
  6
CONTINUOUS
 10
4.4878806801
 20
6.0109973284
 11
5.8318786367
 21
6.0109973284
  0
LINE
  5
405
100
AcDbEntity
  8
ALL_ASSEMBLY_MEMBERS
100
AcDbLine
 62
7
  6
CONTINUOUS
 10
7.7533796584
 20
6.0299973284
 11
6.5033796584
 21
6.0299973284
  0
LINE
  5
406
100
AcDbEntity
  8
ALL_ASSEMBLY_MEMBERS
100
AcDbLine
 62
7
  6
CONTINUOUS
 10
2.5663796584
 20
6.0299973284
 11
3.8163796584
 21
6.0299973284
  0
LINE
  5
407
100
AcDbEntity
  8
ALL_ASSEMBLY_MEMBERS
100
AcDbLine
 62
7
  6
CONTINUOUS
 10
7.7533796584
 20
6.1049973284
 11
6.5033796584
 21
6.1049973284
  0
LINE
  5
408
100
AcDbEntity
  8
ALL_ASSEMBLY_MEMBERS
100
AcDbLine
 62
7
  6
CONTINUOUS
 10
2.5663796584
 20
6.1049973284
 11
3.8163796584
 21
6.1049973284
  0
LINE
  5
409
100
AcDbEntity
  8
ALL_ASSEMBLY_MEMBERS
100
AcDbLine
 62
7
  6
CONTINUOUS
 10
7.0017704191
 20
5.9049973284
 11
7.0017704191
 21
5.8674973284
  0
LINE
  5
40A
100
AcDbEntity
  8
ALL_ASSEMBLY_MEMBERS
100
AcDbLine
 62
7
  6
CONTINUOUS
 10
7.0105636905
 20
5.8674973284
 11
7.0105636905
 21
5.9049973284
  0
LINE
  5
40B
100
AcDbEntity
  8
ALL_ASSEMBLY_MEMBERS
100
AcDbLine
 62
7
  6
CONTINUOUS
 10
7.0164948269
 20
5.9049973284
 11
7.0164948269
 21
5.8674973284
  0
LINE
  5
40C
100
AcDbEntity
  8
ALL_ASSEMBLY_MEMBERS
100
AcDbLine
 62
7
  6
CONTINUOUS
 10
7.023207495
 20
5.9049973284
 11
7.023207495
 21
5.8674973284
  0
LINE
  5
40D
100
AcDbEntity
  8
ALL_ASSEMBLY_MEMBERS
100
AcDbLine
 62
7
  6
CONTINUOUS
 10
7.031788416
 20
5.8674973284
 11
7.031788416
 21
5.9049973284
  0
LINE
  5
40E
100
AcDbEntity
  8
ALL_ASSEMBLY_MEMBERS
100
AcDbLine
 62
7
  6
CONTINUOUS
 10
7.0380228201
 20
5.9049973284
 11
7.0380228201
 21
5.8674973284
  0
LINE
  5
40F
100
AcDbEntity
  8
ALL_ASSEMBLY_MEMBERS
100
AcDbLine
 62
7
  6
CONTINUOUS
 10
7.0447727069
 20
5.9049973284
 11
7.0447727069
 21
5.8674973284
  0
LINE
  5
410
100
AcDbEntity
  8
ALL_ASSEMBLY_MEMBERS
100
AcDbLine
 62
7
  6
CONTINUOUS
 10
7.0531308232
 20
5.8674973284
 11
7.0531308232
 21
5.9049973284
  0
LINE
  5
411
100
AcDbEntity
  8
ALL_ASSEMBLY_MEMBERS
100
AcDbLine
 62
7
  6
CONTINUOUS
 10
7.0596608992
 20
5.9049973284
 11
7.0596608992
 21
5.8674973284
  0
LINE
  5
412
100
AcDbEntity
  8
ALL_ASSEMBLY_MEMBERS
100
AcDbLine
 62
7
  6
CONTINUOUS
 10
7.0664397811
 20
5.9049973284
 11
7.0664397811
 21
5.8674973284
  0
LINE
  5
413
100
AcDbEntity
  8
ALL_ASSEMBLY_MEMBERS
100
AcDbLine
 62
7
  6
CONTINUOUS
 10
7.0745649094
 20
5.8674973284
 11
7.0745649094
 21
5.9049973284
  0
LINE
  5
414
100
AcDbEntity
  8
ALL_ASSEMBLY_MEMBERS
100
AcDbLine
 62
7
  6
CONTINUOUS
 10
7.0813827016
 20
5.9049973284
 11
7.0813827016
 21
5.8674973284
  0
LINE
  5
415
100
AcDbEntity
  8
ALL_ASSEMBLY_MEMBERS
100
AcDbLine
 62
7
  6
CONTINUOUS
 10
7.0881823194
 20
5.9049973284
 11
7.0881823194
 21
5.8674973284
  0
LINE
  5
416
100
AcDbEntity
  8
ALL_ASSEMBLY_MEMBERS
100
AcDbLine
 62
7
  6
CONTINUOUS
 10
7.0960645606
 20
5.8674973284
 11
7.0960645606
 21
5.9049973284
  0
LINE
  5
417
100
AcDbEntity
  8
ALL_ASSEMBLY_MEMBERS
100
AcDbLine
 62
7
  6
CONTINUOUS
 10
7.1031617624
 20
5.9049973284
 11
7.1031617624
 21
5.8674973284
  0
LINE
  5
418
100
AcDbEntity
  8
ALL_ASSEMBLY_MEMBERS
100
AcDbLine
 62
7
  6
CONTINUOUS
 10
7.109973832
 20
5.9049973284
 11
7.109973832
 21
5.8674973284
  0
LINE
  5
419
100
AcDbEntity
  8
ALL_ASSEMBLY_MEMBERS
100
AcDbLine
 62
7
  6
CONTINUOUS
 10
7.1176035828
 20
5.8674973284
 11
7.1176035828
 21
5.9049973284
  0
LINE
  5
41A
100
AcDbEntity
  8
ALL_ASSEMBLY_MEMBERS
100
AcDbLine
 62
7
  6
CONTINUOUS
 10
7.1249715475
 20
5.9049973284
 11
7.1249715475
 21
5.8674973284
  0
LINE
  5
41B
100
AcDbEntity
  8
ALL_ASSEMBLY_MEMBERS
100
AcDbLine
 62
7
  6
CONTINUOUS
 10
7.1317877693
 20
5.9049973284
 11
7.1317877693
 21
5.8674973284
  0
LINE
  5
41C
100
AcDbEntity
  8
ALL_ASSEMBLY_MEMBERS
100
AcDbLine
 62
7
  6
CONTINUOUS
 10
7.139155734
 20
5.8674973284
 11
7.139155734
 21
5.9049973284
  0
LINE
  5
41D
100
AcDbEntity
  8
ALL_ASSEMBLY_MEMBERS
100
AcDbLine
 62
7
  6
CONTINUOUS
 10
7.1467854847
 20
5.9049973284
 11
7.1467854847
 21
5.8674973284
  0
LINE
  5
41E
100
AcDbEntity
  8
ALL_ASSEMBLY_MEMBERS
100
AcDbLine
 62
7
  6
CONTINUOUS
 10
7.1535975543
 20
5.9049973284
 11
7.1535975543
 21
5.8674973284
  0
LINE
  5
41F
100
AcDbEntity
  8
ALL_ASSEMBLY_MEMBERS
100
AcDbLine
 62
7
  6
CONTINUOUS
 10
7.1606947562
 20
5.8674973284
 11
7.1606947562
 21
5.9049973284
  0
LINE
  5
420
100
AcDbEntity
  8
ALL_ASSEMBLY_MEMBERS
100
AcDbLine
 62
7
  6
CONTINUOUS
 10
7.1685769973
 20
5.9049973284
 11
7.1685769973
 21
5.8674973284
  0
LINE
  5
421
100
AcDbEntity
  8
ALL_ASSEMBLY_MEMBERS
100
AcDbLine
 62
7
  6
CONTINUOUS
 10
7.1753766152
 20
5.9049973284
 11
7.1753766152
 21
5.8674973284
  0
LINE
  5
422
100
AcDbEntity
  8
ALL_ASSEMBLY_MEMBERS
100
AcDbLine
 62
7
  6
CONTINUOUS
 10
7.1821944074
 20
5.8674973284
 11
7.1821944074
 21
5.9049973284
  0
LINE
  5
423
100
AcDbEntity
  8
ALL_ASSEMBLY_MEMBERS
100
AcDbLine
 62
7
  6
CONTINUOUS
 10
7.1903195357
 20
5.9049973284
 11
7.1903195357
 21
5.8674973284
  0
LINE
  5
424
100
AcDbEntity
  8
ALL_ASSEMBLY_MEMBERS
100
AcDbLine
 62
7
  6
CONTINUOUS
 10
7.1970984176
 20
5.9049973284
 11
7.1970984176
 21
5.8674973284
  0
LINE
  5
425
100
AcDbEntity
  8
ALL_ASSEMBLY_MEMBERS
100
AcDbLine
 62
7
  6
CONTINUOUS
 10
7.2036284936
 20
5.8674973284
 11
7.2036284936
 21
5.9049973284
  0
LINE
  5
426
100
AcDbEntity
  8
ALL_ASSEMBLY_MEMBERS
100
AcDbLine
 62
7
  6
CONTINUOUS
 10
7.2119866098
 20
5.9049973284
 11
7.2119866098
 21
5.8674973284
  0
LINE
  5
427
100
AcDbEntity
  8
ALL_ASSEMBLY_MEMBERS
100
AcDbLine
 62
7
  6
CONTINUOUS
 10
7.2187364967
 20
5.9049973284
 11
7.2187364967
 21
5.8674973284
  0
LINE
  5
428
100
AcDbEntity
  8
ALL_ASSEMBLY_MEMBERS
100
AcDbLine
 62
7
  6
CONTINUOUS
 10
7.2249709007
 20
5.8674973284
 11
7.2249709007
 21
5.9049973284
  0
LINE
  5
429
100
AcDbEntity
  8
ALL_ASSEMBLY_MEMBERS
100
AcDbLine
 62
7
  6
CONTINUOUS
 10
7.2335518218
 20
5.9049973284
 11
7.2335518218
 21
5.8674973284
  0
LINE
  5
42A
100
AcDbEntity
  8
ALL_ASSEMBLY_MEMBERS
100
AcDbLine
 62
7
  6
CONTINUOUS
 10
7.2402644899
 20
5.9049973284
 11
7.2402644899
 21
5.8674973284
  0
LINE
  5
42B
100
AcDbEntity
  8
ALL_ASSEMBLY_MEMBERS
100
AcDbLine
 62
7
  6
CONTINUOUS
 10
7.2461956263
 20
5.8674973284
 11
7.2461956263
 21
5.9049973284
  0
LINE
  5
42C
100
AcDbEntity
  8
ALL_ASSEMBLY_MEMBERS
100
AcDbLine
 62
7
  6
CONTINUOUS
 10
7.2549888977
 20
5.9049973284
 11
7.2549888977
 21
5.8674973284
  0
LINE
  5
42D
100
AcDbEntity
  8
ALL_FEATURES
100
AcDbLine
 62
7
  6
CONTINUOUS
 10
4.4723807036
 20
6.1359973284
 11
5.8473786131
 21
6.1359973284
  0
LINE
  5
42E
100
AcDbEntity
  8
ALL_ASSEMBLY_MEMBERS
100
AcDbLine
 62
7
  6
CONTINUOUS
 10
6.9895269186
 20
5.0491859344
 11
6.991757871
 21
5.0460308913
  0
LINE
  5
42F
100
AcDbEntity
  8
ALL_ASSEMBLY_MEMBERS
100
AcDbLine
 62
7
  6
CONTINUOUS
 10
6.9869288424
 20
5.0744973284
 11
6.9927023451
 21
5.0544973284
  0
LINE
  5
430
100
AcDbEntity
  8
ALL_ASSEMBLY_MEMBERS
100
AcDbLine
 62
7
  6
CONTINUOUS
 10
7.0100228532
 20
5.0744973284
 11
7.0042493505
 21
5.0944973284
  0
LINE
  5
431
100
AcDbEntity
  8
ALL_ASSEMBLY_MEMBERS
100
AcDbLine
 62
7
  6
CONTINUOUS
 10
7.3284838329
 20
4.9940043566
 11
7.3283796688
 21
4.9959973284
  0
LINE
  5
432
100
AcDbEntity
  8
ALL_ASSEMBLY_MEMBERS
100
AcDbLine
 62
7
  6
CONTINUOUS
 10
7.2596296584
 20
4.7109973284
 11
7.2596296584
 21
4.6959973284
  0
LINE
  5
433
100
AcDbEntity
  8
ALL_ASSEMBLY_MEMBERS
100
AcDbLine
 62
7
  6
CONTINUOUS
 10
7.2616561687
 20
5.9049973284
 11
7.2616561687
 21
5.8674973284
  0
LINE
  5
434
100
AcDbEntity
  8
ALL_ASSEMBLY_MEMBERS
100
AcDbLine
 62
7
  6
CONTINUOUS
 10
7.2672768113
 20
5.8674973284
 11
7.2672768113
 21
5.9049973284
  0
LINE
  5
435
100
AcDbEntity
  8
ALL_ASSEMBLY_MEMBERS
100
AcDbLine
 62
7
  6
CONTINUOUS
 10
7.2762717197
 20
5.9049973284
 11
7.2762717197
 21
5.8674973284
  0
LINE
  5
436
100
AcDbEntity
  8
ALL_ASSEMBLY_MEMBERS
100
AcDbLine
 62
7
  6
CONTINUOUS
 10
7.2828854706
 20
5.9049973284
 11
7.2828854706
 21
5.8674973284
  0
LINE
  5
437
100
AcDbEntity
  8
ALL_ASSEMBLY_MEMBERS
100
AcDbLine
 62
7
  6
CONTINUOUS
 10
7.2846296584
 20
5.1524973284
 11
7.2846296584
 21
5.0059973284
  0
LINE
  5
438
100
AcDbEntity
  8
ALL_ASSEMBLY_MEMBERS
100
AcDbLine
 62
7
  6
CONTINUOUS
 10
7.2881887715
 20
5.8674973284
 11
7.2881887715
 21
5.9049973284
  0
LINE
  5
439
100
AcDbEntity
  8
ALL_ASSEMBLY_MEMBERS
100
AcDbLine
 62
7
  6
CONTINUOUS
 10
7.2900248116
 20
4.7690821799
 11
7.2900248116
 21
4.9881000009
  0
LINE
  5
43A
100
AcDbEntity
  8
ALL_ASSEMBLY_MEMBERS
100
AcDbLine
 62
7
  6
CONTINUOUS
 10
7.297374358
 20
5.9049973284
 11
7.297374358
 21
5.8674973284
  0
LINE
  5
43B
100
AcDbEntity
  8
ALL_ASSEMBLY_MEMBERS
100
AcDbLine
 62
7
  6
CONTINUOUS
 10
7.303926531
 20
5.9049973284
 11
7.303926531
 21
5.8674973284
  0
LINE
  5
43C
100
AcDbEntity
  8
ALL_ASSEMBLY_MEMBERS
100
AcDbLine
 62
7
  6
CONTINUOUS
 10
7.3089060289
 20
5.8674973284
 11
7.3089060289
 21
5.9049973284
  0
LINE
  5
43D
100
AcDbEntity
  8
ALL_ASSEMBLY_MEMBERS
100
AcDbLine
 62
7
  6
CONTINUOUS
 10
7.313215339
 20
4.8063116235
 11
7.313215339
 21
4.9503314028
  0
LINE
  5
43E
100
AcDbEntity
  8
ALL_ASSEMBLY_MEMBERS
100
AcDbLine
 62
7
  6
CONTINUOUS
 10
7.3182711023
 20
5.9049973284
 11
7.3182711023
 21
5.8674973284
  0
LINE
  5
43F
100
AcDbEntity
  8
ALL_ASSEMBLY_MEMBERS
100
AcDbLine
 62
7
  6
CONTINUOUS
 10
7.3247537145
 20
5.9049973284
 11
7.3247537145
 21
5.8674973284
  0
LINE
  5
440
100
AcDbEntity
  8
ALL_ASSEMBLY_MEMBERS
100
AcDbLine
 62
7
  6
CONTINUOUS
 10
7.3283796584
 20
4.7596020859
 11
7.3283796584
 21
4.7584973284
  0
LINE
  5
441
100
AcDbEntity
  8
ALL_ASSEMBLY_MEMBERS
100
AcDbLine
 62
7
  6
CONTINUOUS
 10
7.3283796584
 20
5.1674973284
 11
7.3283796584
 21
5.2174973284
  0
LINE
  5
442
100
AcDbEntity
  8
ALL_ASSEMBLY_MEMBERS
100
AcDbLine
 62
7
  6
CONTINUOUS
 10
7.3294033427
 20
5.8674973284
 11
7.3294033427
 21
5.9049973284
  0
LINE
  5
443
100
AcDbEntity
  8
ALL_ASSEMBLY_MEMBERS
100
AcDbLine
 62
7
  6
CONTINUOUS
 10
7.3389364931
 20
5.9049973284
 11
7.3389364931
 21
5.8674973284
  0
LINE
  5
444
100
AcDbEntity
  8
ALL_ASSEMBLY_MEMBERS
100
AcDbLine
 62
7
  6
CONTINUOUS
 10
7.3453416465
 20
5.9049973284
 11
7.3453416465
 21
5.8674973284
  0
LINE
  5
445
100
AcDbEntity
  8
ALL_ASSEMBLY_MEMBERS
100
AcDbLine
 62
7
  6
CONTINUOUS
 10
7.3496557401
 20
5.8674973284
 11
7.3496557401
 21
5.9049973284
  0
LINE
  5
446
100
AcDbEntity
  8
ALL_ASSEMBLY_MEMBERS
100
AcDbLine
 62
7
  6
CONTINUOUS
 10
7.3593453529
 20
5.9049973284
 11
7.3593453529
 21
5.8674973284
  0
LINE
  5
447
100
AcDbEntity
  8
ALL_ASSEMBLY_MEMBERS
100
AcDbLine
 62
7
  6
CONTINUOUS
 10
7.3656652438
 20
5.9049973284
 11
7.3656652438
 21
5.8674973284
  0
LINE
  5
448
100
AcDbEntity
  8
ALL_ASSEMBLY_MEMBERS
100
AcDbLine
 62
7
  6
CONTINUOUS
 10
7.3696385467
 20
5.8674973284
 11
7.3696385467
 21
5.9049973284
  0
LINE
  5
449
100
AcDbEntity
  8
ALL_ASSEMBLY_MEMBERS
100
AcDbLine
 62
7
  6
CONTINUOUS
 10
7.3794728166
 20
5.9049973284
 11
7.3794728166
 21
5.8674973284
  0
LINE
  5
44A
100
AcDbEntity
  8
ALL_ASSEMBLY_MEMBERS
100
AcDbLine
 62
7
  6
CONTINUOUS
 10
7.3856997451
 20
5.9049973284
 11
7.3856997451
 21
5.8674973284
  0
LINE
  5
44B
100
AcDbEntity
  8
ALL_ASSEMBLY_MEMBERS
100
AcDbLine
 62
7
  6
CONTINUOUS
 10
7.3893274165
 20
5.8674973284
 11
7.3893274165
 21
5.9049973284
  0
LINE
  5
44C
100
AcDbEntity
  8
ALL_ASSEMBLY_MEMBERS
100
AcDbLine
 62
7
  6
CONTINUOUS
 10
7.3992943619
 20
5.9049973284
 11
7.3992943619
 21
5.8674973284
  0
LINE
  5
44D
100
AcDbEntity
  8
ALL_ASSEMBLY_MEMBERS
100
AcDbLine
 62
7
  6
CONTINUOUS
 10
7.4054207415
 20
5.9049973284
 11
7.4054207415
 21
5.8674973284
  0
LINE
  5
44E
100
AcDbEntity
  8
ALL_ASSEMBLY_MEMBERS
100
AcDbLine
 62
7
  6
CONTINUOUS
 10
7.4086983617
 20
5.8674973284
 11
7.4086983617
 21
5.9049973284
  0
LINE
  5
44F
100
AcDbEntity
  8
ALL_ASSEMBLY_MEMBERS
100
AcDbLine
 62
7
  6
CONTINUOUS
 10
7.4187858393
 20
5.9049973284
 11
7.4187858393
 21
5.8674973284
  0
LINE
  5
450
100
AcDbEntity
  8
ALL_ASSEMBLY_MEMBERS
100
AcDbLine
 62
7
  6
CONTINUOUS
 10
7.424804206
 20
5.9049973284
 11
7.424804206
 21
5.8674973284
  0
LINE
  5
451
100
AcDbEntity
  8
ALL_ASSEMBLY_MEMBERS
100
AcDbLine
 62
7
  6
CONTINUOUS
 10
7.4277277817
 20
5.8674973284
 11
7.4277277817
 21
5.9049973284
  0
LINE
  5
452
100
AcDbEntity
  8
ALL_ASSEMBLY_MEMBERS
100
AcDbLine
 62
7
  6
CONTINUOUS
 10
7.4379235016
 20
5.9049973284
 11
7.4379235016
 21
5.8674973284
  0
LINE
  5
453
100
AcDbEntity
  8
ALL_ASSEMBLY_MEMBERS
100
AcDbLine
 62
7
  6
CONTINUOUS
 10
7.4438265229
 20
5.9049973284
 11
7.4438265229
 21
5.8674973284
  0
LINE
  5
454
100
AcDbEntity
  8
ALL_ASSEMBLY_MEMBERS
100
AcDbLine
 62
7
  6
CONTINUOUS
 10
7.4463924921
 20
5.8674973284
 11
7.4463924921
 21
5.9049973284
  0
LINE
  5
455
100
AcDbEntity
  8
ALL_ASSEMBLY_MEMBERS
100
AcDbLine
 62
7
  6
CONTINUOUS
 10
7.4566840324
 20
5.9049973284
 11
7.4566840324
 21
5.8674973284
  0
LINE
  5
456
100
AcDbEntity
  8
ALL_ASSEMBLY_MEMBERS
100
AcDbLine
 62
7
  6
CONTINUOUS
 10
7.4624645164
 20
5.9049973284
 11
7.4624645164
 21
5.8674973284
  0
LINE
  5
457
100
AcDbEntity
  8
ALL_ASSEMBLY_MEMBERS
100
AcDbLine
 62
7
  6
CONTINUOUS
 10
7.4646697529
 20
5.8674973284
 11
7.4646697529
 21
5.9049973284
  0
LINE
  5
458
100
AcDbEntity
  8
ALL_ASSEMBLY_MEMBERS
100
AcDbLine
 62
7
  6
CONTINUOUS
 10
7.4750445749
 20
5.9049973284
 11
7.4750445749
 21
5.8674973284
  0
LINE
  5
459
100
AcDbEntity
  8
ALL_ASSEMBLY_MEMBERS
100
AcDbLine
 62
7
  6
CONTINUOUS
 10
7.4806954789
 20
5.9049973284
 11
7.4806954789
 21
5.8674973284
  0
LINE
  5
45A
100
AcDbEntity
  8
ALL_ASSEMBLY_MEMBERS
100
AcDbLine
 62
7
  6
CONTINUOUS
 10
7.482537296
 20
5.8674973284
 11
7.482537296
 21
5.9049973284
  0
LINE
  5
45B
100
AcDbEntity
  8
ALL_ASSEMBLY_MEMBERS
100
AcDbLine
 62
7
  6
CONTINUOUS
 10
7.4929827596
 20
5.9049973284
 11
7.4929827596
 21
5.8674973284
  0
LINE
  5
45C
100
AcDbEntity
  8
ALL_ASSEMBLY_MEMBERS
100
AcDbLine
 62
7
  6
CONTINUOUS
 10
7.4984971989
 20
5.9049973284
 11
7.4984971989
 21
5.8674973284
  0
LINE
  5
45D
100
AcDbEntity
  8
ALL_ASSEMBLY_MEMBERS
100
AcDbLine
 62
7
  6
CONTINUOUS
 10
7.4999733525
 20
5.8674973284
 11
7.4999733525
 21
5.9049973284
  0
LINE
  5
45E
100
AcDbEntity
  8
ALL_ASSEMBLY_MEMBERS
100
AcDbLine
 62
7
  6
CONTINUOUS
 10
7.5033796584
 20
5.2174973284
 11
7.5033796584
 21
5.2424973284
  0
LINE
  5
45F
100
AcDbEntity
  8
ALL_ASSEMBLY_MEMBERS
100
AcDbLine
 62
7
  6
CONTINUOUS
 10
7.5104767315
 20
5.9049973284
 11
7.5104767315
 21
5.8674973284
  0
LINE
  5
460
100
AcDbEntity
  8
ALL_ASSEMBLY_MEMBERS
100
AcDbLine
 62
7
  6
CONTINUOUS
 10
6.5283796584
 20
6.0049973284
 11
6.5033796584
 21
6.0299973284
  0
LINE
  5
461
100
AcDbEntity
  8
ALL_ASSEMBLY_MEMBERS
100
AcDbLine
 62
7
  6
CONTINUOUS
 10
7.328804724
 20
4.991599321
 11
7.3284776499
 21
4.9940750447
  0
LINE
  5
462
100
AcDbEntity
  8
ALL_ASSEMBLY_MEMBERS
100
AcDbLine
 62
7
  6
CONTINUOUS
 10
7.5158479876
 20
5.9049973284
 11
7.5158479876
 21
5.8674973284
  0
LINE
  5
463
100
AcDbEntity
  8
ALL_ASSEMBLY_MEMBERS
100
AcDbLine
 62
7
  6
CONTINUOUS
 10
7.5169566794
 20
5.8674973284
 11
7.5169566794
 21
5.9049973284
  0
LINE
  5
464
100
AcDbEntity
  8
ALL_ASSEMBLY_MEMBERS
100
AcDbLine
 62
7
  6
CONTINUOUS
 10
7.5275051771
 20
5.9049973284
 11
7.5275051771
 21
5.8674973284
  0
LINE
  5
465
100
AcDbEntity
  8
ALL_ASSEMBLY_MEMBERS
100
AcDbLine
 62
7
  6
CONTINUOUS
 10
7.5327267059
 20
5.9049973284
 11
7.5327267059
 21
5.8674973284
  0
LINE
  5
466
100
AcDbEntity
  8
ALL_ASSEMBLY_MEMBERS
100
AcDbLine
 62
7
  6
CONTINUOUS
 10
7.5334665851
 20
5.8674973284
 11
7.5334665851
 21
5.9049973284
  0
LINE
  5
467
100
AcDbEntity
  8
ALL_ASSEMBLY_MEMBERS
100
AcDbLine
 62
7
  6
CONTINUOUS
 10
7.5440473496
 20
5.9049973284
 11
7.5440473496
 21
5.8674973284
  0
LINE
  5
468
100
AcDbEntity
  8
ALL_ASSEMBLY_MEMBERS
100
AcDbLine
 62
7
  6
CONTINUOUS
 10
7.5491127896
 20
5.9049973284
 11
7.5491127896
 21
5.8674973284
  0
LINE
  5
469
100
AcDbEntity
  8
ALL_ASSEMBLY_MEMBERS
100
AcDbLine
 62
7
  6
CONTINUOUS
 10
7.5494829547
 20
5.8674973284
 11
7.5494829547
 21
5.9049973284
  0
LINE
  5
46A
100
AcDbEntity
  8
ALL_ASSEMBLY_MEMBERS
100
AcDbLine
 62
7
  6
CONTINUOUS
 10
7.5600830952
 20
5.9049973284
 11
7.5600830952
 21
5.8674973284
  0
LINE
  5
46B
100
AcDbEntity
  8
ALL_ASSEMBLY_MEMBERS
100
AcDbLine
 62
7
  6
CONTINUOUS
 10
7.5649862748
 20
5.9049973284
 11
7.5649862748
 21
5.8674973284
  0
LINE
  5
46C
100
AcDbEntity
  8
ALL_ASSEMBLY_MEMBERS
100
AcDbLine
 62
7
  6
CONTINUOUS
 10
7.5658796584
 20
5.5049973284
 11
7.5658796584
 21
5.7674973284
  0
LINE
  5
46D
100
AcDbEntity
  8
ALL_ASSEMBLY_MEMBERS
100
AcDbLine
 62
7
  6
CONTINUOUS
 10
7.5755928765
 20
5.9049973284
 11
7.5755928765
 21
5.8674973284
  0
LINE
  5
46E
100
AcDbEntity
  8
ALL_ASSEMBLY_MEMBERS
100
AcDbLine
 62
7
  6
CONTINUOUS
 10
7.5803278221
 20
5.9049973284
 11
7.5803278221
 21
5.8674973284
  0
LINE
  5
46F
100
AcDbEntity
  8
ALL_ASSEMBLY_MEMBERS
100
AcDbLine
 62
7
  6
CONTINUOUS
 10
7.5905577975
 20
5.9049973284
 11
7.5905577975
 21
5.8674973284
  0
LINE
  5
470
100
AcDbEntity
  8
ALL_ASSEMBLY_MEMBERS
100
AcDbLine
 62
7
  6
CONTINUOUS
 10
7.5951187402
 20
5.9049973284
 11
7.5951187402
 21
5.8674973284
  0
LINE
  5
471
100
AcDbEntity
  8
ALL_ASSEMBLY_MEMBERS
100
AcDbLine
 62
7
  6
CONTINUOUS
 10
7.6033796584
 20
5.2924973284
 11
7.6033796584
 21
5.3174973284
  0
LINE
  5
472
100
AcDbEntity
  8
ALL_ASSEMBLY_MEMBERS
100
AcDbLine
 62
7
  6
CONTINUOUS
 10
7.6033796584
 20
5.4174973284
 11
7.6033796584
 21
5.4674973284
  0
LINE
  5
473
100
AcDbEntity
  8
ALL_ASSEMBLY_MEMBERS
100
AcDbLine
 62
7
  6
CONTINUOUS
 10
7.6049596256
 20
5.9049973284
 11
7.6049596256
 21
5.8674973284
  0
LINE
  5
474
100
AcDbEntity
  8
ALL_ASSEMBLY_MEMBERS
100
AcDbLine
 62
7
  6
CONTINUOUS
 10
7.6093410085
 20
5.9049973284
 11
7.6093410085
 21
5.8674973284
  0
LINE
  5
475
100
AcDbEntity
  8
ALL_ASSEMBLY_MEMBERS
100
AcDbLine
 62
7
  6
CONTINUOUS
 10
7.6187808144
 20
5.9049973284
 11
7.6187808144
 21
5.8674973284
  0
LINE
  5
476
100
AcDbEntity
  8
ALL_ASSEMBLY_MEMBERS
100
AcDbLine
 62
7
  6
CONTINUOUS
 10
7.6229772996
 20
5.9049973284
 11
7.6229772996
 21
5.8674973284
  0
LINE
  5
477
100
AcDbEntity
  8
ALL_ASSEMBLY_MEMBERS
100
AcDbLine
 62
7
  6
CONTINUOUS
 10
7.6320045249
 20
5.9049973284
 11
7.6320045249
 21
5.8674973284
  0
LINE
  5
478
100
AcDbEntity
  8
ALL_ASSEMBLY_MEMBERS
100
AcDbLine
 62
7
  6
CONTINUOUS
 10
7.6360109996
 20
5.9049973284
 11
7.6360109996
 21
5.8674973284
  0
LINE
  5
479
100
AcDbEntity
  8
ALL_ASSEMBLY_MEMBERS
100
AcDbLine
 62
7
  6
CONTINUOUS
 10
7.6408796584
 20
5.3174973284
 11
7.6408796584
 21
5.4174973284
  0
LINE
  5
47A
100
AcDbEntity
  8
ALL_ASSEMBLY_MEMBERS
100
AcDbLine
 62
7
  6
CONTINUOUS
 10
7.6446146462
 20
5.9049973284
 11
7.6446146462
 21
5.8674973284
  0
LINE
  5
47B
100
AcDbEntity
  8
ALL_ASSEMBLY_MEMBERS
100
AcDbLine
 62
7
  6
CONTINUOUS
 10
7.6484262291
 20
5.9049973284
 11
7.6484262291
 21
5.8674973284
  0
LINE
  5
47C
100
AcDbEntity
  8
ALL_ASSEMBLY_MEMBERS
100
AcDbLine
 62
7
  6
CONTINUOUS
 10
7.6565958146
 20
5.9049973284
 11
7.6565958146
 21
5.8674973284
  0
LINE
  5
47D
100
AcDbEntity
  8
ALL_ASSEMBLY_MEMBERS
100
AcDbLine
 62
7
  6
CONTINUOUS
 10
7.6602078618
 20
5.9049973284
 11
7.6602078618
 21
5.8674973284
  0
LINE
  5
47E
100
AcDbEntity
  8
ALL_ASSEMBLY_MEMBERS
100
AcDbLine
 62
7
  6
CONTINUOUS
 10
7.667933433
 20
5.9049973284
 11
7.667933433
 21
5.8674973284
  0
LINE
  5
47F
100
AcDbEntity
  8
ALL_ASSEMBLY_MEMBERS
100
AcDbLine
 62
7
  6
CONTINUOUS
 10
7.6713415439
 20
5.9049973284
 11
7.6713415439
 21
5.8674973284
  0
LINE
  5
480
100
AcDbEntity
  8
ALL_ASSEMBLY_MEMBERS
100
AcDbLine
 62
7
  6
CONTINUOUS
 10
7.6786136882
 20
5.9049973284
 11
7.6786136882
 21
5.8674973284
  0
LINE
  5
481
100
AcDbEntity
  8
ALL_ASSEMBLY_MEMBERS
100
AcDbLine
 62
7
  6
CONTINUOUS
 10
7.6818137105
 20
5.9049973284
 11
7.6818137105
 21
5.8674973284
  0
LINE
  5
482
100
AcDbEntity
  8
ALL_ASSEMBLY_MEMBERS
100
AcDbLine
 62
7
  6
CONTINUOUS
 10
7.688623568
 20
5.9049973284
 11
7.688623568
 21
5.8674973284
  0
LINE
  5
483
100
AcDbEntity
  8
ALL_ASSEMBLY_MEMBERS
100
AcDbLine
 62
7
  6
CONTINUOUS
 10
7.691611603
 20
5.9049973284
 11
7.691611603
 21
5.8674973284
  0
LINE
  5
484
100
AcDbEntity
  8
ALL_ASSEMBLY_MEMBERS
100
AcDbLine
 62
7
  6
CONTINUOUS
 10
7.6979508769
 20
5.9049973284
 11
7.6979508769
 21
5.8674973284
  0
LINE
  5
485
100
AcDbEntity
  8
ALL_ASSEMBLY_MEMBERS
100
AcDbLine
 62
7
  6
CONTINUOUS
 10
7.7007232841
 20
5.9049973284
 11
7.7007232841
 21
5.8674973284
  0
LINE
  5
486
100
AcDbEntity
  8
ALL_ASSEMBLY_MEMBERS
100
AcDbLine
 62
7
  6
CONTINUOUS
 10
7.706584251
 20
5.9049973284
 11
7.706584251
 21
5.8674973284
  0
LINE
  5
487
100
AcDbEntity
  8
ALL_ASSEMBLY_MEMBERS
100
AcDbLine
 62
7
  6
CONTINUOUS
 10
7.7091376527
 20
5.9049973284
 11
7.7091376527
 21
5.8674973284
  0
LINE
  5
488
100
AcDbEntity
  8
ALL_ASSEMBLY_MEMBERS
100
AcDbLine
 62
7
  6
CONTINUOUS
 10
7.7145131719
 20
5.9049973284
 11
7.7145131719
 21
5.8674973284
  0
LINE
  5
489
100
AcDbEntity
  8
ALL_ASSEMBLY_MEMBERS
100
AcDbLine
 62
7
  6
CONTINUOUS
 10
7.7168444571
 20
5.9049973284
 11
7.7168444571
 21
5.8674973284
  0
LINE
  5
48A
100
AcDbEntity
  8
ALL_ASSEMBLY_MEMBERS
100
AcDbLine
 62
7
  6
CONTINUOUS
 10
7.7217279794
 20
5.9049973284
 11
7.7217279794
 21
5.8674973284
  0
LINE
  5
48B
100
AcDbEntity
  8
ALL_ASSEMBLY_MEMBERS
100
AcDbLine
 62
7
  6
CONTINUOUS
 10
7.7238343078
 20
5.9049973284
 11
7.7238343078
 21
5.8674973284
  0
LINE
  5
48C
100
AcDbEntity
  8
ALL_ASSEMBLY_MEMBERS
100
AcDbLine
 62
7
  6
CONTINUOUS
 10
7.7282198834
 20
5.9049973284
 11
7.7282198834
 21
5.8674973284
  0
LINE
  5
48D
100
AcDbEntity
  8
ALL_ASSEMBLY_MEMBERS
100
AcDbLine
 62
7
  6
CONTINUOUS
 10
7.7283796584
 20
5.9049973284
 11
7.7283796584
 21
6.0049973284
  0
LINE
  5
48E
100
AcDbEntity
  8
ALL_ASSEMBLY_MEMBERS
100
AcDbLine
 62
7
  6
CONTINUOUS
 10
7.7300986888
 20
5.9049973284
 11
7.7300986888
 21
5.8674973284
  0
LINE
  5
48F
100
AcDbEntity
  8
ALL_ASSEMBLY_MEMBERS
100
AcDbLine
 62
7
  6
CONTINUOUS
 10
7.7339809744
 20
5.9049973284
 11
7.7339809744
 21
5.8674973284
  0
LINE
  5
490
100
AcDbEntity
  8
ALL_ASSEMBLY_MEMBERS
100
AcDbLine
 62
7
  6
CONTINUOUS
 10
7.7356299677
 20
5.9049973284
 11
7.7356299677
 21
5.8674973284
  0
LINE
  5
491
100
AcDbEntity
  8
ALL_ASSEMBLY_MEMBERS
100
AcDbLine
 62
7
  6
CONTINUOUS
 10
7.7390042336
 20
5.9049973284
 11
7.7390042336
 21
5.8674973284
  0
LINE
  5
492
100
AcDbEntity
  8
ALL_ASSEMBLY_MEMBERS
100
AcDbLine
 62
7
  6
CONTINUOUS
 10
7.7404214058
 20
5.9049973284
 11
7.7404214058
 21
5.8674973284
  0
LINE
  5
493
100
AcDbEntity
  8
ALL_ASSEMBLY_MEMBERS
100
AcDbLine
 62
7
  6
CONTINUOUS
 10
7.7432835407
 20
5.9049973284
 11
7.7432835407
 21
5.8674973284
  0
LINE
  5
494
100
AcDbEntity
  8
ALL_ASSEMBLY_MEMBERS
100
AcDbLine
 62
7
  6
CONTINUOUS
 10
7.7444671652
 20
5.9049973284
 11
7.7444671652
 21
5.8674973284
  0
LINE
  5
495
100
AcDbEntity
  8
ALL_ASSEMBLY_MEMBERS
100
AcDbLine
 62
7
  6
CONTINUOUS
 10
7.7468136822
 20
5.9049973284
 11
7.7468136822
 21
5.8674973284
  0
LINE
  5
496
100
AcDbEntity
  8
ALL_ASSEMBLY_MEMBERS
100
AcDbLine
 62
7
  6
CONTINUOUS
 10
7.7477623169
 20
5.9049973284
 11
7.7477623169
 21
5.8674973284
  0
LINE
  5
497
100
AcDbEntity
  8
ALL_ASSEMBLY_MEMBERS
100
AcDbLine
 62
7
  6
CONTINUOUS
 10
7.7495903571
 20
5.9049973284
 11
7.7495903571
 21
5.8674973284
  0
LINE
  5
498
100
AcDbEntity
  8
ALL_ASSEMBLY_MEMBERS
100
AcDbLine
 62
7
  6
CONTINUOUS
 10
7.7503028462
 20
5.9049973284
 11
7.7503028462
 21
5.8674973284
  0
LINE
  5
499
100
AcDbEntity
  8
ALL_ASSEMBLY_MEMBERS
100
AcDbLine
 62
7
  6
CONTINUOUS
 10
7.7516101824
 20
5.9049973284
 11
7.7516101824
 21
5.8674973284
  0
LINE
  5
49A
100
AcDbEntity
  8
ALL_ASSEMBLY_MEMBERS
100
AcDbLine
 62
7
  6
CONTINUOUS
 10
7.752085658
 20
5.9049973284
 11
7.752085658
 21
5.8674973284
  0
LINE
  5
49B
100
AcDbEntity
  8
ALL_ASSEMBLY_MEMBERS
100
AcDbLine
 62
7
  6
CONTINUOUS
 10
7.7528706973
 20
5.9049973284
 11
7.7528706973
 21
5.8674973284
  0
LINE
  5
49C
100
AcDbEntity
  8
ALL_ASSEMBLY_MEMBERS
100
AcDbLine
 62
7
  6
CONTINUOUS
 10
7.75310858
 20
5.9049973284
 11
7.75310858
 21
5.8674973284
  0
LINE
  5
49D
100
AcDbEntity
  8
ALL_ASSEMBLY_MEMBERS
100
AcDbLine
 62
7
  6
CONTINUOUS
 10
7.7533703661
 20
5.9049973284
 11
7.7533703661
 21
5.8674973284
  0
LINE
  5
49E
100
AcDbEntity
  8
ALL_ASSEMBLY_MEMBERS
100
AcDbLine
 62
7
  6
CONTINUOUS
 10
7.7533796584
 20
6.0299973284
 11
7.7533796584
 21
6.1049973284
  0
LINE
  5
49F
100
AcDbEntity
  8
ALL_ASSEMBLY_MEMBERS
100
AcDbLine
 62
7
  6
CONTINUOUS
 10
7.6033796584
 20
5.4674973284
 11
7.5658796584
 21
5.5049973284
  0
LINE
  5
4A0
100
AcDbEntity
  8
ALL_ASSEMBLY_MEMBERS
100
AcDbLine
 62
7
  6
CONTINUOUS
 10
8.5327756608
 20
4.7591824496
 11
8.5328474212
 21
4.7503748637
  0
LINE
  5
4A1
100
AcDbEntity
  8
ALL_ASSEMBLY_MEMBERS
100
AcDbLine
 62
7
  6
CONTINUOUS
 10
8.5326783356
 20
4.946155174
 11
8.5326783356
 21
4.7790014387
  0
LINE
  5
4A2
100
AcDbEntity
  8
ALL_ASSEMBLY_MEMBERS
100
AcDbLine
 62
7
  6
CONTINUOUS
 10
8.5333722954
 20
4.9747868343
 11
8.5332956535
 21
4.9659830621
  0
LINE
  5
4A3
100
AcDbEntity
  8
ALL_ASSEMBLY_MEMBERS
100
AcDbLine
 62
7
  6
CONTINUOUS
 10
8.5533796584
 20
4.9547823917
 11
8.5533796584
 21
4.7703722153
  0
ARC
  5
4A4
100
AcDbEntity
  8
ALL_ASSEMBLY_MEMBERS
100
AcDbCircle
 62
7
  6
CONTINUOUS
 10
3.2477530259
 20
3.8045483608
 40
0.9888656073
100
AcDbArc
 50
102.7368370785
 51
104.9340003573
  0
ARC
  5
4A5
100
AcDbEntity
  8
ALL_FEATURES
100
AcDbCircle
 62
7
  6
CONTINUOUS
 10
4.3122189301
 20
3.0854652521
 40
0.4560061415
100
AcDbArc
 50
357.4964785516
 51
358.3122372838
  0
ARC
  5
4A6
100
AcDbEntity
  8
0
100
AcDbCircle
 62
7
  6
CONTINUOUS
 10
5.1057765635
 20
2.7727055678
 40
0.4285496127
100
AcDbArc
 50
347.2338473657
 51
347.4973986873
  0
ARC
  5
4A7
100
AcDbEntity
  8
ALL_FEATURES
100
AcDbCircle
 62
7
  6
CONTINUOUS
 10
4.5984337416
 20
3.098975145
 40
0.1758557993
100
AcDbArc
 50
341.1614824498
 51
341.5370105874
  0
ARC
  5
4A8
100
AcDbEntity
  8
ALL_FEATURES
100
AcDbCircle
 62
7
  6
CONTINUOUS
 10
4.8275787029
 20
3.0478125598
 40
0.0625050742
100
AcDbArc
 50
168.3302834408
 51
184.1556838432
  0
ARC
  5
4A9
100
AcDbEntity
  8
ALL_FEATURES
100
AcDbCircle
 62
7
  6
CONTINUOUS
 10
4.8271238731
 20
3.0467825306
 40
0.0624236014
100
AcDbArc
 50
168.3847093968
 51
184.2182092589
  0
ARC
  5
4AA
100
AcDbEntity
  8
ALL_FEATURES
100
AcDbCircle
 62
7
  6
CONTINUOUS
 10
4.8269307971
 20
3.0479137863
 40
0.0618500938
100
AcDbArc
 50
162.9775317203
 51
168.3007160896
  0
ARC
  5
4AB
100
AcDbEntity
  8
ALL_FEATURES
100
AcDbCircle
 62
7
  6
CONTINUOUS
 10
4.8264184296
 20
3.0468964322
 40
0.0617096789
100
AcDbArc
 50
164.1496635058
 51
168.3564239826
  0
ARC
  5
4AC
100
AcDbEntity
  8
ALL_FEATURES
100
AcDbCircle
 62
7
  6
CONTINUOUS
 10
4.8212997345
 20
3.0371317645
 40
0.0606190505
100
AcDbArc
 50
156.471426772
 51
185.0143974354
  0
ARC
  5
4AD
100
AcDbEntity
  8
ALL_ASSEMBLY_MEMBERS
100
AcDbCircle
 62
7
  6
CONTINUOUS
 10
3.2180077799
 20
6.212177506
 40
1.268968765
100
AcDbArc
 50
258.5398028048
 51
259.3220872992
  0
ARC
  5
4AE
100
AcDbEntity
  8
ALL_ASSEMBLY_MEMBERS
100
AcDbCircle
 62
7
  6
CONTINUOUS
 10
3.2160669505
 20
5.9380587302
 40
0.9680592551
100
AcDbArc
 50
256.6913802858
 51
258.9024272512
  0
ARC
  5
4AF
100
AcDbEntity
  8
ALL_ASSEMBLY_MEMBERS
100
AcDbCircle
 62
7
  6
CONTINUOUS
 10
3.1414777715
 20
5.0745285388
 40
0.2011874111
100
AcDbArc
 50
359.9911116561
 51
2.4803164085
  0
ARC
  5
4B0
100
AcDbEntity
  8
ALL_ASSEMBLY_MEMBERS
100
AcDbCircle
 62
7
  6
CONTINUOUS
 10
3.2601325213
 20
5.0787882029
 40
0.0810944351
100
AcDbArc
 50
356.9669452705
 51
2.9894394529
  0
ARC
  5
4B1
100
AcDbEntity
  8
ALL_ASSEMBLY_MEMBERS
100
AcDbCircle
 62
7
  6
CONTINUOUS
 10
3.3687675533
 20
5.0753084811
 40
0.0678212653
100
AcDbArc
 50
162.5952565401
 51
166.1227794598
  0
ARC
  5
4B2
100
AcDbEntity
  8
ALL_ASSEMBLY_MEMBERS
100
AcDbCircle
 62
7
  6
CONTINUOUS
 10
3.2835329617
 20
5.0703122728
 40
0.0530275739
100
AcDbArc
 50
335.6134717332
 51
336.478329242
  0
ARC
  5
4B3
100
AcDbEntity
  8
ALL_ASSEMBLY_MEMBERS
100
AcDbCircle
 62
7
  6
CONTINUOUS
 10
3.7788796584
 20
5.8174973284
 40
0.05
100
AcDbArc
 50
94.2857142857
 51
180.0
  0
ARC
  5
4B4
100
AcDbEntity
  8
ALL_ASSEMBLY_MEMBERS
100
AcDbCircle
 62
7
  6
CONTINUOUS
 10
2.6038796584
 20
5.8174973284
 40
0.05
100
AcDbArc
 50
0.0
 51
85.7794654335
  0
ARC
  5
4B5
100
AcDbEntity
  8
ALL_ASSEMBLY_MEMBERS
100
AcDbCircle
 62
7
  6
CONTINUOUS
 10
3.7038796584
 20
5.7674973284
 40
0.05
100
AcDbArc
 50
90.0
 51
180.0
  0
ARC
  5
4B6
100
AcDbEntity
  8
ALL_ASSEMBLY_MEMBERS
100
AcDbCircle
 62
7
  6
CONTINUOUS
 10
2.6788796584
 20
5.7674973284
 40
0.05
100
AcDbArc
 50
0.0
 51
90.0
  0
ARC
  5
4B7
100
AcDbEntity
  8
ALL_ASSEMBLY_MEMBERS
100
AcDbCircle
 62
7
  6
CONTINUOUS
 10
3.6663796584
 20
5.2424973284
 40
0.05
100
AcDbArc
 50
90.0
 51
180.0
  0
ARC
  5
4B8
100
AcDbEntity
  8
ALL_ASSEMBLY_MEMBERS
100
AcDbCircle
 62
7
  6
CONTINUOUS
 10
2.7163796584
 20
5.2424973284
 40
0.05
100
AcDbArc
 50
0.0
 51
90.0
  0
ARC
  5
4B9
100
AcDbEntity
  8
ALL_ASSEMBLY_MEMBERS
100
AcDbCircle
 62
7
  6
CONTINUOUS
 10
3.3513639315
 20
5.0835531988
 40
0.0485016371
100
AcDbArc
 50
146.9493972181
 51
148.1857259326
  0
ARC
  5
4BA
100
AcDbEntity
  8
ALL_ASSEMBLY_MEMBERS
100
AcDbCircle
 62
7
  6
CONTINUOUS
 10
3.3491941353
 20
5.0849815487
 40
0.0459039466
100
AcDbArc
 50
144.7402420457
 51
146.9667031969
  0
ARC
  5
4BB
100
AcDbEntity
  8
ALL_ASSEMBLY_MEMBERS
100
AcDbCircle
 62
7
  6
CONTINUOUS
 10
3.3475062982
 20
5.0861710731
 40
0.043839061
100
AcDbArc
 50
143.9321500419
 51
144.7362378872
  0
ARC
  5
4BC
100
AcDbEntity
  8
ALL_ASSEMBLY_MEMBERS
100
AcDbCircle
 62
7
  6
CONTINUOUS
 10
2.9976296584
 20
4.7209973284
 40
0.0375
100
AcDbArc
 50
0.0
 51
90.0
  0
ARC
  5
4BD
100
AcDbEntity
  8
ALL_ASSEMBLY_MEMBERS
100
AcDbCircle
 62
7
  6
CONTINUOUS
 10
3.3851296584
 20
4.7209973284
 40
0.0375
100
AcDbArc
 50
90.0
 51
180.0
  0
ARC
  5
4BE
100
AcDbEntity
  8
ALL_ASSEMBLY_MEMBERS
100
AcDbCircle
 62
7
  6
CONTINUOUS
 10
2.9638831435
 20
4.9964352381
 40
0.0274999954
100
AcDbArc
 50
269.7965413965
 51
359.0875840874
  0
ARC
  5
4BF
100
AcDbEntity
  8
ALL_ASSEMBLY_MEMBERS
100
AcDbCircle
 62
7
  6
CONTINUOUS
 10
2.9638798892
 20
4.7596021761
 40
0.0274999721
100
AcDbArc
 50
359.9998120894
 51
91.7076154102
  0
ARC
  5
4C0
100
AcDbEntity
  8
ALL_ASSEMBLY_MEMBERS
100
AcDbCircle
 62
7
  6
CONTINUOUS
 10
3.3117582592
 20
5.0867483555
 40
0.0226244745
100
AcDbArc
 50
33.1317531746
 51
35.2585488321
  0
ARC
  5
4C1
100
AcDbEntity
  8
ALL_ASSEMBLY_MEMBERS
100
AcDbCircle
 62
7
  6
CONTINUOUS
 10
3.3248813421
 20
5.0559234501
 40
0.0213473014
100
AcDbArc
 50
223.0433018994
 51
226.8752205325
  0
ARC
  5
4C2
100
AcDbEntity
  8
ALL_ASSEMBLY_MEMBERS
100
AcDbCircle
 62
7
  6
CONTINUOUS
 10
1.7863796584
 20
4.9547868043
 40
0.02
100
AcDbArc
 50
89.9790132873
 51
180.0
  0
ARC
  5
4C3
100
AcDbEntity
  8
ALL_ASSEMBLY_MEMBERS
100
AcDbCircle
 62
7
  6
CONTINUOUS
 10
1.7863796584
 20
4.7703678119
 40
0.02
100
AcDbArc
 50
180.0
 51
271.5248114949
  0
ARC
  5
4C4
100
AcDbEntity
  8
ALL_ASSEMBLY_MEMBERS
100
AcDbCircle
 62
7
  6
CONTINUOUS
 10
3.0251296584
 20
5.0059973284
 40
0.01
100
AcDbArc
 50
270.000000002
 51
360.0
  0
ARC
  5
4C5
100
AcDbEntity
  8
ALL_ASSEMBLY_MEMBERS
100
AcDbCircle
 62
7
  6
CONTINUOUS
 10
3.3576296584
 20
5.0059973284
 40
0.01
100
AcDbArc
 50
180.0
 51
269.999999998
  0
ARC
  5
4C6
100
AcDbEntity
  8
ALL_ASSEMBLY_MEMBERS
100
AcDbCircle
 62
7
  6
CONTINUOUS
 10
3.0501296584
 20
4.7109973284
 40
0.01
100
AcDbArc
 50
0.0
 51
89.9999999968
  0
ARC
  5
4C7
100
AcDbEntity
  8
ALL_ASSEMBLY_MEMBERS
100
AcDbCircle
 62
7
  6
CONTINUOUS
 10
3.3326296584
 20
4.7109973284
 40
0.01
100
AcDbArc
 50
90.0000000032
 51
180.0
  0
ARC
  5
4C8
100
AcDbEntity
  8
ALL_FEATURES
100
AcDbCircle
 62
7
  6
CONTINUOUS
 10
6.0077180247
 20
3.0854735115
 40
0.4561838459
100
AcDbArc
 50
181.6870449595
 51
182.502661811
  0
ARC
  5
4C9
100
AcDbEntity
  8
0
100
AcDbCircle
 62
7
  6
CONTINUOUS
 10
5.211169142
 20
2.7720745082
 40
0.4256659829
100
AcDbArc
 50
192.5016637962
 51
193.2392179298
  0
ARC
  5
4CA
100
AcDbEntity
  8
ALL_FEATURES
100
AcDbCircle
 62
7
  6
CONTINUOUS
 10
5.7214548475
 20
3.0989976112
 40
0.1759854024
100
AcDbArc
 50
198.4563830893
 51
198.8318494426
  0
ARC
  5
4CB
100
AcDbEntity
  8
ALL_FEATURES
100
AcDbCircle
 62
7
  6
CONTINUOUS
 10
5.4921818627
 20
3.0478133195
 40
0.0625037505
100
AcDbArc
 50
355.844144926
 51
11.6696904785
  0
ARC
  5
4CC
100
AcDbEntity
  8
ALL_FEATURES
100
AcDbCircle
 62
7
  6
CONTINUOUS
 10
5.4927852832
 20
3.0467857898
 40
0.0622744084
100
AcDbArc
 50
355.7686612162
 51
15.8035327144
  0
ARC
  5
4CD
100
AcDbEntity
  8
ALL_FEATURES
100
AcDbCircle
 62
7
  6
CONTINUOUS
 10
5.4929589933
 20
3.0479450068
 40
0.0617160533
100
AcDbArc
 50
11.6958932107
 51
14.1302268896
  0
ARC
  5
4CE
100
AcDbEntity
  8
ALL_FEATURES
100
AcDbCircle
 62
7
  6
CONTINUOUS
 10
5.4981591621
 20
3.0370211766
 40
0.0609385292
100
AcDbArc
 50
21.7702543318
 51
23.5112014071
  0
ARC
  5
4CF
100
AcDbEntity
  8
ALL_FEATURES
100
AcDbCircle
 62
7
  6
CONTINUOUS
 10
5.4984792117
 20
3.0371340788
 40
0.0605995255
100
AcDbArc
 50
354.98180054
 51
21.7833511045
  0
ARC
  5
4D0
100
AcDbEntity
  8
ALL_ASSEMBLY_MEMBERS
100
AcDbCircle
 62
7
  6
CONTINUOUS
 10
7.1042398564
 20
6.1994591833
 40
1.2560096165
100
AcDbArc
 50
280.6738668616
 51
281.4642232374
  0
ARC
  5
4D1
100
AcDbEntity
  8
ALL_ASSEMBLY_MEMBERS
100
AcDbCircle
 62
7
  6
CONTINUOUS
 10
7.1031971804
 20
5.9403590473
 40
0.9704119701
100
AcDbArc
 50
281.1001209556
 51
283.3058071055
  0
ARC
  5
4D2
100
AcDbEntity
  8
ALL_ASSEMBLY_MEMBERS
100
AcDbCircle
 62
7
  6
CONTINUOUS
 10
6.9648819764
 20
5.067574307
 40
0.0526119382
100
AcDbArc
 50
329.0535042613
 51
331.809665556
  0
ARC
  5
4D3
100
AcDbEntity
  8
ALL_ASSEMBLY_MEMBERS
100
AcDbCircle
 62
7
  6
CONTINUOUS
 10
6.5408796584
 20
5.8174973284
 40
0.05
100
AcDbArc
 50
0.0
 51
85.7794654335
  0
ARC
  5
4D4
100
AcDbEntity
  8
ALL_ASSEMBLY_MEMBERS
100
AcDbCircle
 62
7
  6
CONTINUOUS
 10
7.7158796584
 20
5.8174973284
 40
0.05
100
AcDbArc
 50
94.2857142857
 51
180.0
  0
ARC
  5
4D5
100
AcDbEntity
  8
ALL_ASSEMBLY_MEMBERS
100
AcDbCircle
 62
7
  6
CONTINUOUS
 10
6.6158796584
 20
5.7674973284
 40
0.05
100
AcDbArc
 50
0.0
 51
90.0
  0
ARC
  5
4D6
100
AcDbEntity
  8
ALL_ASSEMBLY_MEMBERS
100
AcDbCircle
 62
7
  6
CONTINUOUS
 10
7.6408796584
 20
5.7674973284
 40
0.05
100
AcDbArc
 50
90.0
 51
180.0
  0
ARC
  5
4D7
100
AcDbEntity
  8
ALL_ASSEMBLY_MEMBERS
100
AcDbCircle
 62
7
  6
CONTINUOUS
 10
6.6533796584
 20
5.2424973284
 40
0.05
100
AcDbArc
 50
0.0
 51
90.0
  0
ARC
  5
4D8
100
AcDbEntity
  8
ALL_ASSEMBLY_MEMBERS
100
AcDbCircle
 62
7
  6
CONTINUOUS
 10
7.6033796584
 20
5.2424973284
 40
0.05
100
AcDbArc
 50
90.0
 51
180.0
  0
ARC
  5
4D9
100
AcDbEntity
  8
ALL_ASSEMBLY_MEMBERS
100
AcDbCircle
 62
7
  6
CONTINUOUS
 10
6.9683550844
 20
5.083527934
 40
0.048549191
100
AcDbArc
 50
32.0465222269
 51
33.1391435917
  0
ARC
  5
4DA
100
AcDbEntity
  8
ALL_ASSEMBLY_MEMBERS
100
AcDbCircle
 62
7
  6
CONTINUOUS
 10
6.9695008814
 20
5.0647470453
 40
0.0471966864
100
AcDbArc
 50
324.7585879912
 51
329.1136949041
  0
ARC
  5
4DB
100
AcDbEntity
  8
ALL_ASSEMBLY_MEMBERS
100
AcDbCircle
 62
7
  6
CONTINUOUS
 10
6.9701827172
 20
5.0847224391
 40
0.046365826
100
AcDbArc
 50
33.1377920259
 51
35.2483689106
  0
ARC
  5
4DC
100
AcDbEntity
  8
ALL_ASSEMBLY_MEMBERS
100
AcDbCircle
 62
7
  6
CONTINUOUS
 10
7.0315995741
 20
5.0654767563
 40
0.0457892084
100
AcDbArc
 50
197.3798489401
 51
198.9472339007
  0
ARC
  5
4DD
100
AcDbEntity
  8
ALL_ASSEMBLY_MEMBERS
100
AcDbCircle
 62
7
  6
CONTINUOUS
 10
7.0270180701
 20
5.0638553777
 40
0.040929508
100
AcDbArc
 50
198.8829419003
 51
202.5693643093
  0
ARC
  5
4DE
100
AcDbEntity
  8
ALL_ASSEMBLY_MEMBERS
100
AcDbCircle
 62
7
  6
CONTINUOUS
 10
7.3221296584
 20
4.7209973284
 40
0.0375
100
AcDbArc
 50
90.0
 51
180.0
  0
ARC
  5
4DF
100
AcDbEntity
  8
ALL_ASSEMBLY_MEMBERS
100
AcDbCircle
 62
7
  6
CONTINUOUS
 10
6.9346296584
 20
4.7209973284
 40
0.0375
100
AcDbArc
 50
0.0
 51
90.0
  0
ARC
  5
4E0
100
AcDbEntity
  8
ALL_ASSEMBLY_MEMBERS
100
AcDbCircle
 62
7
  6
CONTINUOUS
 10
7.0215960326
 20
5.0615665617
 40
0.035044278
100
AcDbArc
 50
202.5161603774
 51
206.6079617052
  0
ARC
  5
4E1
100
AcDbEntity
  8
ALL_ASSEMBLY_MEMBERS
100
AcDbCircle
 62
7
  6
CONTINUOUS
 10
7.3558761732
 20
4.9964352381
 40
0.0274999954
100
AcDbArc
 50
180.9124159126
 51
270.2034586035
  0
ARC
  5
4E2
100
AcDbEntity
  8
ALL_ASSEMBLY_MEMBERS
100
AcDbCircle
 62
7
  6
CONTINUOUS
 10
7.3558794276
 20
4.7596021761
 40
0.0274999721
100
AcDbArc
 50
88.2923845898
 51
180.0001879106
  0
ARC
  5
4E3
100
AcDbEntity
  8
ALL_ASSEMBLY_MEMBERS
100
AcDbCircle
 62
7
  6
CONTINUOUS
 10
8.5333796584
 20
4.9547868043
 40
0.02
100
AcDbArc
 50
0.0
 51
90.0209867127
  0
ARC
  5
4E4
100
AcDbEntity
  8
ALL_ASSEMBLY_MEMBERS
100
AcDbCircle
 62
7
  6
CONTINUOUS
 10
8.5333796584
 20
4.7703678119
 40
0.02
100
AcDbArc
 50
268.4751885051
 51
360.0
  0
ARC
  5
4E5
100
AcDbEntity
  8
ALL_ASSEMBLY_MEMBERS
100
AcDbCircle
 62
7
  6
CONTINUOUS
 10
6.9994907629
 20
5.0959351031
 40
0.0148228365
100
AcDbArc
 50
77.5930057384
 51
93.5962482016
  0
ARC
  5
4E6
100
AcDbEntity
  8
ALL_ASSEMBLY_MEMBERS
100
AcDbCircle
 62
7
  6
CONTINUOUS
 10
7.0023720194
 20
5.0527382383
 40
0.0115669673
100
AcDbArc
 50
309.4040646099
 51
313.6989158793
  0
ARC
  5
4E7
100
AcDbEntity
  8
ALL_ASSEMBLY_MEMBERS
100
AcDbCircle
 62
7
  6
CONTINUOUS
 10
6.9989339396
 20
5.0507843243
 40
0.0105218023
100
AcDbArc
 50
302.8678611457
 51
304.6359984173
  0
ARC
  5
4E8
100
AcDbEntity
  8
ALL_ASSEMBLY_MEMBERS
100
AcDbCircle
 62
7
  6
CONTINUOUS
 10
7.2946296584
 20
5.0059973284
 40
0.01
100
AcDbArc
 50
180.0
 51
269.999999998
  0
ARC
  5
4E9
100
AcDbEntity
  8
ALL_ASSEMBLY_MEMBERS
100
AcDbCircle
 62
7
  6
CONTINUOUS
 10
6.9621296584
 20
5.0059973284
 40
0.01
100
AcDbArc
 50
270.000000002
 51
360.0
  0
ARC
  5
4EA
100
AcDbEntity
  8
ALL_ASSEMBLY_MEMBERS
100
AcDbCircle
 62
7
  6
CONTINUOUS
 10
7.2696296584
 20
4.7109973284
 40
0.01
100
AcDbArc
 50
90.0000000032
 51
180.0
  0
ARC
  5
4EB
100
AcDbEntity
  8
ALL_ASSEMBLY_MEMBERS
100
AcDbCircle
 62
7
  6
CONTINUOUS
 10
6.9871296584
 20
4.7109973284
 40
0.01
100
AcDbArc
 50
0.0
 51
89.9999999968
  0
ARC
  5
4EC
100
AcDbEntity
  8
ALL_ASSEMBLY_MEMBERS
100
AcDbCircle
 62
7
  6
CONTINUOUS
 10
6.9984772383
 20
5.0977119865
 40
0.007785342
100
AcDbArc
 50
90.0102333135
 51
95.9856797066
  0
LINE
  5
4ED
100
AcDbEntity
  8
ALL_ASSEMBLY_MEMBERS
100
AcDbLine
 62
7
  6
CONTINUOUS
 10
3.305484424
 20
5.0493281692
 11
3.3076989982
 21
5.0462371035
  0
LINE
  5
4EE
100
AcDbEntity
  8
ALL_ASSEMBLY_MEMBERS
100
AcDbLine
 62
7
  6
CONTINUOUS
 10
3.3076989982
 20
5.0462371035
 11
3.3092411063
 21
5.0445658011
  0
SPLINE
  5
4EF
100
AcDbEntity
  8
ALL_ASSEMBLY_MEMBERS
100
AcDbSpline
 62
7
  6
CONTINUOUS
 70
0
 71
3
 72
31
 73
27
 74
0
 42
0.0000001
 43
0.0000001
 44
0.0000000001
 40
0.0
 40
0.0
 40
0.0
 40
0.0
 40
0.0675955829
 40
0.10024958
 40
0.1321770178
 40
0.1939957714
 40
0.224005946
 40
0.2534853555
 40
0.2824996787
 40
0.3111200373
 40
0.3394227325
 40
0.3674890891
 40
0.3954043373
 40
0.4232559848
 40
0.4511330541
 40
0.4791249752
 40
0.5357720679
 40
0.5938953658
 40
0.6540892188
 40
0.7168536445
 40
0.7493376196
 40
0.7826030619
 40
0.8166839109
 40
0.8516073216
 40
0.9240367482
 40
1.0
 40
1.0
 40
1.0
 40
1.0
 10
3.3092411063
 20
5.0445658011
 30
0.0
 10
3.3096216698
 20
5.0441959418
 30
0.0
 10
3.3102088236
 20
5.0436698421
 30
0.0
 10
3.3110282341
 20
5.0430326037
 30
0.0
 10
3.311840275
 20
5.0424617191
 30
0.0
 10
3.3126765383
 20
5.0419628612
 30
0.0
 10
3.313532674
 20
5.0415447208
 30
0.0
 10
3.3141738806
 20
5.0412759854
 30
0.0
 10
3.3148196287
 20
5.0410494476
 30
0.0
 10
3.3154691912
 20
5.040865453
 30
0.0
 10
3.316121809
 20
5.0407243681
 30
0.0
 10
3.3167767114
 20
5.0406265248
 30
0.0
 10
3.3174330936
 20
5.0405720454
 30
0.0
 10
3.3180901539
 20
5.040561058
 30
0.0
 10
3.3187471239
 20
5.0405937062
 30
0.0
 10
3.3196250864
 20
5.0406958639
 30
0.0
 10
3.3207235361
 20
5.0409351841
 30
0.0
 10
3.3220211992
 20
5.0413958325
 30
0.0
 10
3.3232978164
 20
5.0420283789
 30
0.0
 10
3.3243270989
 20
5.0426884979
 30
0.0
 10
3.3251335481
 20
5.0432953122
 30
0.0
 10
3.3257366669
 20
5.0437963109
 30
0.0
 10
3.3263302615
 20
5.0443373611
 30
0.0
 10
3.3271175484
 20
5.0451208093
 30
0.0
 10
3.3280726899
 20
5.0461995342
 30
0.0
 10
3.328777586
 20
5.0471285169
 30
0.0
 10
3.3291219026
 20
5.0476154572
 30
0.0
  0
SPLINE
  5
4F0
100
AcDbEntity
  8
ALL_ASSEMBLY_MEMBERS
100
AcDbSpline
 62
7
  6
CONTINUOUS
 70
0
 71
3
 72
21
 73
17
 74
0
 42
0.0000001
 43
0.0000001
 44
0.0000000001
 40
0.0
 40
0.0
 40
0.0
 40
0.0
 40
0.0697308383
 40
0.1393243434
 40
0.2771865865
 40
0.4120853488
 40
0.4780180745
 40
0.5427142836
 40
0.6060179606
 40
0.6677893778
 40
0.7278972869
 40
0.7862254717
 40
0.8426740382
 40
0.8971565679
 40
0.9496121506
 40
1.0
 40
1.0
 40
1.0
 40
1.0
 10
3.336783469
 20
5.0744973284
 30
0.0
 10
3.336783469
 20
5.0738809349
 30
0.0
 10
3.3367650439
 20
5.0726492723
 30
0.0
 10
3.3366553263
 20
5.0702012249
 30
0.0
 10
3.3363837932
 20
5.0671851603
 30
0.0
 10
3.3359306724
 20
5.06422351
 30
0.0
 10
3.3354611981
 20
5.0619233932
 30
0.0
 10
3.3350614176
 20
5.0602560057
 30
0.0
 10
3.3346125636
 20
5.0586392887
 30
0.0
 10
3.3341164265
 20
5.0570789261
 30
0.0
 10
3.3335746497
 20
5.0555804668
 30
0.0
 10
3.3329891299
 20
5.0541492227
 30
0.0
 10
3.3323620874
 20
5.0527902055
 30
0.0
 10
3.3316955046
 20
5.0515082952
 30
0.0
 10
3.3309919077
 20
5.050308017
 30
0.0
 10
3.3304895613
 20
5.0495496078
 30
0.0
 10
3.3302323968
 20
5.0491859381
 30
0.0
  0
SPLINE
  5
4F1
100
AcDbEntity
  8
ALL_ASSEMBLY_MEMBERS
100
AcDbSpline
 62
7
  6
CONTINUOUS
 70
0
 71
3
 72
21
 73
17
 74
0
 42
0.0000001
 43
0.0000001
 44
0.0000000001
 40
0.0
 40
0.0
 40
0.0
 40
0.0
 40
0.0512381848
 40
0.1044250032
 40
0.1595137161
 40
0.2164352173
 40
0.2751033436
 40
0.3354211718
 40
0.3972751437
 40
0.460542547
 40
0.5250911937
 40
0.5907747068
 40
0.7249257436
 40
0.8617983556
 40
0.9308381316
 40
1.0
 40
1.0
 40
1.0
 40
1.0
 10
3.3307043548
 20
5.0991141272
 30
0.0
 10
3.3309442085
 20
5.0987469355
 30
0.0
 10
3.3314123932
 20
5.0979849314
 30
0.0
 10
3.3320681335
 20
5.0967867255
 30
0.0
 10
3.3326883986
 20
5.0955154257
 30
0.0
 10
3.3332712355
 20
5.0941752773
 30
0.0
 10
3.3338148216
 20
5.092770663
 30
0.0
 10
3.3343172081
 20
5.0913061163
 30
0.0
 10
3.3347769172
 20
5.0897864678
 30
0.0
 10
3.3351923962
 20
5.0882166683
 30
0.0
 10
3.3355621848
 20
5.0866018429
 30
0.0
 10
3.3359959347
 20
5.084380399
 30
0.0
 10
3.3364144107
 20
5.0815268534
 30
0.0
 10
3.3366652032
 20
5.0786250457
 30
0.0
 10
3.3367664694
 20
5.0762723955
 30
0.0
 10
3.336783469
 20
5.0750893394
 30
0.0
 10
3.336783469
 20
5.0744973284
 30
0.0
  0
SPLINE
  5
4F2
100
AcDbEntity
  8
ALL_ASSEMBLY_MEMBERS
100
AcDbSpline
 62
7
  6
CONTINUOUS
 70
0
 71
3
 72
41
 73
37
 74
0
 42
0.0000001
 43
0.0000001
 44
0.0000000001
 40
0.0
 40
0.0
 40
0.0
 40
0.0
 40
0.0435772512
 40
0.087032409
 40
0.1301794658
 40
0.1728637099
 40
0.2149494797
 40
0.2563016289
 40
0.2967851582
 40
0.3362721018
 40
0.3746484794
 40
0.4118091565
 40
0.4476645394
 40
0.4821379769
 40
0.5151720746
 40
0.5467305404
 40
0.5767995781
 40
0.6053961315
 40
0.6325657955
 40
0.6456445495
 40
0.658401932
 40
0.6830127929
 40
0.7065750712
 40
0.7293011481
 40
0.7514436909
 40
0.773287342
 40
0.7951336257
 40
0.8172838908
 40
0.8400223739
 40
0.8636010599
 40
0.888231643
 40
0.9009998568
 40
0.9140899692
 40
0.9412836486
 40
0.9699053259
 40
1.0
 40
1.0
 40
1.0
 40
1.0
 10
3.305783469
 20
5.0744973284
 30
0.0
 10
3.305783469
 20
5.0752025875
 30
0.0
 10
3.3058075735
 20
5.076611247
 30
0.0
 10
3.3059155016
 20
5.0787157141
 30
0.0
 10
3.3060949851
 20
5.0808008206
 30
0.0
 10
3.3063450936
 20
5.0828563202
 30
0.0
 10
3.3066646361
 20
5.0848727912
 30
0.0
 10
3.3070521725
 20
5.0868410401
 30
0.0
 10
3.3075057587
 20
5.0887519568
 30
0.0
 10
3.3080235427
 20
5.0905965531
 30
0.0
 10
3.3086028355
 20
5.0923663178
 30
0.0
 10
3.3092412099
 20
5.0940530035
 30
0.0
 10
3.3099355163
 20
5.0956488671
 30
0.0
 10
3.3106826767
 20
5.0971465018
 30
0.0
 10
3.311479283
 20
5.0985389771
 30
0.0
 10
3.3123215924
 20
5.0998199456
 30
0.0
 10
3.3132060622
 20
5.1009833763
 30
0.0
 10
3.3141284105
 20
5.1020240207
 30
0.0
 10
3.3149356194
 20
5.1027943429
 30
0.0
 10
3.3155964768
 20
5.1033417933
 30
0.0
 10
3.3162499859
 20
5.1038316154
 30
0.0
 10
3.317083317
 20
5.1043626107
 30
0.0
 10
3.3181163287
 20
5.1048680178
 30
0.0
 10
3.3191657148
 20
5.1052311767
 30
0.0
 10
3.3202263496
 20
5.1054494595
 30
0.0
 10
3.3212926787
 20
5.1055217196
 30
0.0
 10
3.3223589568
 20
5.1054469267
 30
0.0
 10
3.3234194449
 20
5.1052261341
 30
0.0
 10
3.3244685891
 20
5.1048604919
 30
0.0
 10
3.3255012787
 20
5.1043526572
 30
0.0
 10
3.3263342597
 20
5.1038197105
 30
0.0
 10
3.326987467
 20
5.1033283576
 30
0.0
 10
3.3276480021
 20
5.1027793512
 30
0.0
 10
3.3284547527
 20
5.1020071214
 30
0.0
 10
3.3293764495
 20
5.1009643608
 30
0.0
 10
3.329951187
 20
5.1002063921
 30
0.0
 10
3.3302323968
 20
5.0998087187
 30
0.0
  0
LINE
  5
4F3
100
AcDbEntity
  8
ALL_ASSEMBLY_MEMBERS
100
AcDbLine
 62
7
  6
CONTINUOUS
 10
3.3302323968
 20
5.0491859381
 11
3.3290517625
 21
5.0476717443
  0
SPLINE
  5
4F4
100
AcDbEntity
  8
ALL_ASSEMBLY_MEMBERS
100
AcDbSpline
 62
7
  6
CONTINUOUS
 70
0
 71
3
 72
38
 73
34
 74
0
 42
0.0000001
 43
0.0000001
 44
0.0000000001
 40
0.0
 40
0.0
 40
0.0
 40
0.0
 40
0.0280967383
 40
0.0548485182
 40
0.0803434138
 40
0.1047028387
 40
0.1280895771
 40
0.150703182
 40
0.1727786017
 40
0.1945777887
 40
0.2163771291
 40
0.2384529994
 40
0.2610673305
 40
0.2844550332
 40
0.3088156226
 40
0.3343118378
 40
0.3475283274
 40
0.3610713219
 40
0.3891695716
 40
0.4186649977
 40
0.4495816122
 40
0.4819180829
 40
0.5156484259
 40
0.5507303861
 40
0.5871011582
 40
0.624685842
 40
0.6633961402
 40
0.7031326507
 40
0.7437874541
 40
0.82735435
 40
0.9131230974
 40
0.9565069902
 40
1.0
 40
1.0
 40
1.0
 40
1.0
 10
3.3290328155
 20
5.0476498317
 30
0.0
 10
3.3287470778
 20
5.0473199083
 30
0.0
 10
3.3281655298
 20
5.0466958178
 30
0.0
 10
3.3272412573
 20
5.0458549171
 30
0.0
 10
3.326290696
 20
5.045135981
 30
0.0
 10
3.3253174882
 20
5.0445426703
 30
0.0
 10
3.324325778
 20
5.0440776594
 30
0.0
 10
3.3233197123
 20
5.0437434987
 30
0.0
 10
3.3223038057
 20
5.0435422798
 30
0.0
 10
3.3212829083
 20
5.0434749577
 30
0.0
 10
3.3202620137
 20
5.0435424274
 30
0.0
 10
3.3192461148
 20
5.043743793
 30
0.0
 10
3.3182400641
 20
5.0440780978
 30
0.0
 10
3.317248366
 20
5.0445432547
 30
0.0
 10
3.3162752041
 20
5.0451366892
 30
0.0
 10
3.3154925495
 20
5.0457287556
 30
0.0
 10
3.3148793692
 20
5.046260988
 30
0.0
 10
3.3142604113
 20
5.046847069
 30
0.0
 10
3.3135062836
 20
5.0476565089
 30
0.0
 10
3.3126458633
 20
5.0487303618
 30
0.0
 10
3.3118226168
 20
5.0499140025
 30
0.0
 10
3.311040048
 20
5.0512023781
 30
0.0
 10
3.3103012093
 20
5.0525899648
 30
0.0
 10
3.3096094639
 20
5.0540709945
 30
0.0
 10
3.3089674592
 20
5.0556390734
 30
0.0
 10
3.3083781001
 20
5.0572876153
 30
0.0
 10
3.3078438176
 20
5.0590095861
 30
0.0
 10
3.3073668263
 20
5.0607976852
 30
0.0
 10
3.3068050844
 20
5.0632824452
 30
0.0
 10
3.3062623781
 20
5.0665019903
 30
0.0
 10
3.3059372275
 20
5.0697929924
 30
0.0
 10
3.305805593
 20
5.0724720294
 30
0.0
 10
3.305783469
 20
5.0738217031
 30
0.0
 10
3.305783469
 20
5.0744973284
 30
0.0
  0
SPLINE
  5
4F5
100
AcDbEntity
  8
ALL_ASSEMBLY_MEMBERS
100
AcDbSpline
 62
7
  6
CONTINUOUS
 70
0
 71
3
 72
11
 73
7
 74
0
 42
0.0000001
 43
0.0000001
 44
0.0000000001
 40
0.0
 40
0.0
 40
0.0
 40
0.0
 40
0.2435219719
 40
0.4908629285
 40
0.7427899528
 40
1.0
 40
1.0
 40
1.0
 40
1.0
 10
3.3121900192
 20
5.042260636
 30
0.0
 10
3.3119300125
 20
5.0423242408
 30
0.0
 10
3.311410385
 20
5.0424714561
 30
0.0
 10
3.3106416942
 20
5.042748434
 30
0.0
 10
3.3098796425
 20
5.0430825829
 30
0.0
 10
3.3093823667
 20
5.0433402528
 30
0.0
 10
3.3091354347
 20
5.0434779287
 30
0.0
  0
LINE
  5
4F6
100
AcDbEntity
  8
ALL_ASSEMBLY_MEMBERS
100
AcDbLine
 62
7
  6
CONTINUOUS
 10
3.3091354347
 20
5.0434779287
 11
3.3076683563
 21
5.0444151081
  0
SPLINE
  5
4F7
100
AcDbEntity
  8
ALL_ASSEMBLY_MEMBERS
100
AcDbSpline
 62
7
  6
CONTINUOUS
 70
0
 71
3
 72
21
 73
17
 74
0
 42
0.0000001
 43
0.0000001
 44
0.0000000001
 40
0.0
 40
0.0
 40
0.0
 40
0.0
 40
0.0697308383
 40
0.1393243434
 40
0.2771865865
 40
0.4120853488
 40
0.4780180745
 40
0.5427142836
 40
0.6060179606
 40
0.6677893778
 40
0.7278972869
 40
0.7862254717
 40
0.8426740382
 40
0.8971565679
 40
0.9496121506
 40
1.0
 40
1.0
 40
1.0
 40
1.0
 10
6.9829758478
 20
5.0744973284
 30
0.0
 10
6.9829758478
 20
5.075113722
 30
0.0
 10
6.9829942729
 20
5.0763453845
 30
0.0
 10
6.9831039905
 20
5.078793432
 30
0.0
 10
6.9833755235
 20
5.0818094965
 30
0.0
 10
6.9838286444
 20
5.0847711469
 30
0.0
 10
6.9842981187
 20
5.0870712637
 30
0.0
 10
6.9846978992
 20
5.0887386512
 30
0.0
 10
6.9851467532
 20
5.0903553681
 30
0.0
 10
6.9856428902
 20
5.0919157307
 30
0.0
 10
6.9861846671
 20
5.09341419
 30
0.0
 10
6.9867701869
 20
5.0948454341
 30
0.0
 10
6.9873972293
 20
5.0962044514
 30
0.0
 10
6.9880638121
 20
5.0974863616
 30
0.0
 10
6.9887674091
 20
5.0986866398
 30
0.0
 10
6.9892697554
 20
5.0994450491
 30
0.0
 10
6.98952692
 20
5.0998087187
 30
0.0
  0
LINE
  5
4F8
100
AcDbEntity
  8
ALL_ASSEMBLY_MEMBERS
100
AcDbLine
 62
7
  6
CONTINUOUS
 10
6.98952692
 20
5.0491859381
 11
6.9879117597
 21
5.0518125601
  0
SPLINE
  5
4F9
100
AcDbEntity
  8
ALL_ASSEMBLY_MEMBERS
100
AcDbSpline
 62
7
  6
CONTINUOUS
 70
0
 71
3
 72
15
 73
11
 74
0
 42
0.0000001
 43
0.0000001
 44
0.0000000001
 40
0.0
 40
0.0
 40
0.0
 40
0.0
 40
0.1120921143
 40
0.2283780086
 40
0.3486470159
 40
0.4726573678
 40
0.600123635
 40
0.7307356775
 40
0.8641520134
 40
1.0
 40
1.0
 40
1.0
 40
1.0
 10
6.9879117597
 20
5.0518125601
 30
0.0
 10
6.987667596
 20
5.0522673511
 30
0.0
 10
6.9871950403
 20
5.0532075033
 30
0.0
 10
6.9865448284
 20
5.0546760912
 30
0.0
 10
6.985942222
 20
5.0562238885
 30
0.0
 10
6.9853898725
 20
5.0578447525
 30
0.0
 10
6.9848897529
 20
5.059532185
 30
0.0
 10
6.9844439973
 20
5.0612794982
 30
0.0
 10
6.9840543927
 20
5.0630796435
 30
0.0
 10
6.9838347967
 20
5.064300313
 30
0.0
 10
6.9837344718
 20
5.0649178016
 30
0.0
  0
SPLINE
  5
4FA
100
AcDbEntity
  8
ALL_ASSEMBLY_MEMBERS
100
AcDbSpline
 62
7
  6
CONTINUOUS
 70
0
 71
3
 72
11
 73
7
 74
0
 42
0.0000001
 43
0.0000001
 44
0.0000000001
 40
0.0
 40
0.0
 40
0.0
 40
0.0
 40
0.2459354179
 40
0.4953660283
 40
0.747181397
 40
1.0
 40
1.0
 40
1.0
 40
1.0
 10
6.9837344718
 20
5.0649178016
 30
0.0
 10
6.9836080099
 20
5.0656961608
 30
0.0
 10
6.9833866986
 20
5.067269551
 30
0.0
 10
6.9831500494
 20
5.069654219
 30
0.0
 10
6.9830076566
 20
5.0720684617
 30
0.0
 10
6.9829758478
 20
5.0736866926
 30
0.0
 10
6.9829758478
 20
5.0744973284
 30
0.0
  0
SPLINE
  5
4FB
100
AcDbEntity
  8
ALL_ASSEMBLY_MEMBERS
100
AcDbSpline
 62
7
  6
CONTINUOUS
 70
0
 71
3
 72
24
 73
20
 74
0
 42
0.0000001
 43
0.0000001
 44
0.0000000001
 40
0.0
 40
0.0
 40
0.0
 40
0.0
 40
0.0781693173
 40
0.1529937796
 40
0.2245571843
 40
0.292989255
 40
0.3584816656
 40
0.390210634
 40
0.4213056288
 40
0.4817491955
 40
0.5402238236
 40
0.597189495
 40
0.6531657713
 40
0.7087160733
 40
0.7644255879
 40
0.8208775192
 40
0.8786268011
 40
0.9381855809
 40
1.0
 40
1.0
 40
1.0
 40
1.0
 10
6.9917578768
 20
5.0460309089
 30
0.0
 10
6.9919859064
 20
5.0457084102
 30
0.0
 10
6.9924496249
 20
5.0450892505
 30
0.0
 10
6.9931843988
 20
5.0442237023
 30
0.0
 10
6.9939409468
 20
5.0434441193
 30
0.0
 10
6.9947171725
 20
5.0427530875
 30
0.0
 10
6.9953855917
 20
5.042247521
 30
0.0
 10
6.9959275158
 20
5.0418912336
 30
0.0
 10
6.9964631079
 20
5.0415729653
 30
0.0
 10
6.9971415235
 20
5.0412319713
 30
0.0
 10
6.9979735464
 20
5.0409151167
 30
0.0
 10
6.9988133219
 20
5.0406958512
 30
0.0
 10
6.9996580415
 20
5.0405755096
 30
0.0
 10
7.0005047397
 20
5.0405546023
 30
0.0
 10
7.0013504093
 20
5.0406336969
 30
0.0
 10
7.0021919834
 20
5.0408126515
 30
0.0
 10
7.0030265871
 20
5.0410908434
 30
0.0
 10
7.0038512121
 20
5.0414676023
 30
0.0
 10
7.0043818113
 20
5.0417773144
 30
0.0
 10
7.0046441574
 20
5.0419468056
 30
0.0
  0
SPLINE
  5
4FC
100
AcDbEntity
  8
ALL_ASSEMBLY_MEMBERS
100
AcDbSpline
 62
7
  6
CONTINUOUS
 70
0
 71
3
 72
15
 73
11
 74
0
 42
0.0000001
 43
0.0000001
 44
0.0000000001
 40
0.0
 40
0.0
 40
0.0
 40
0.0
 40
0.1006428617
 40
0.2076929173
 40
0.3216744901
 40
0.442878316
 40
0.5714189859
 40
0.7072720442
 40
0.850274985
 40
1.0
 40
1.0
 40
1.0
 40
1.0
 10
7.0049141196
 20
5.0421272017
 30
0.0
 10
7.0052831416
 20
5.0423820298
 30
0.0
 10
7.0060123248
 20
5.0429558552
 30
0.0
 10
7.0070384758
 20
5.0439598868
 30
0.0
 10
7.0080229526
 20
5.0451272759
 30
0.0
 10
7.0089600514
 20
5.0464517401
 30
0.0
 10
7.0098440716
 20
5.0479267931
 30
0.0
 10
7.0106697243
 20
5.0495449327
 30
0.0
 10
7.0114312996
 20
5.0512973974
 30
0.0
 10
7.0118832171
 20
5.0525217838
 30
0.0
 10
7.0120981273
 20
5.053153387
 30
0.0
  0
SPLINE
  5
4FD
100
AcDbEntity
  8
ALL_ASSEMBLY_MEMBERS
100
AcDbSpline
 62
7
  6
CONTINUOUS
 70
0
 71
3
 72
11
 73
7
 74
0
 42
0.0000001
 43
0.0000001
 44
0.0000000001
 40
0.0
 40
0.0
 40
0.0
 40
0.0
 40
0.252818603
 40
0.5046339717
 40
0.7540645821
 40
1.0
 40
1.0
 40
1.0
 40
1.0
 10
7.0139758478
 20
5.0744973284
 30
0.0
 10
7.0139758478
 20
5.0736866926
 30
0.0
 10
7.013944039
 20
5.0720684617
 30
0.0
 10
7.0138016462
 20
5.069654219
 30
0.0
 10
7.013564997
 20
5.067269551
 30
0.0
 10
7.0133436857
 20
5.0656961608
 30
0.0
 10
7.0132172238
 20
5.0649178016
 30
0.0
  0
SPLINE
  5
4FE
100
AcDbEntity
  8
ALL_ASSEMBLY_MEMBERS
100
AcDbSpline
 62
7
  6
CONTINUOUS
 70
0
 71
3
 72
36
 73
32
 74
0
 42
0.0000001
 43
0.0000001
 44
0.0000000001
 40
0.0
 40
0.0
 40
0.0
 40
0.0
 40
0.0883659062
 40
0.1738167203
 40
0.2152577632
 40
0.2557454775
 40
0.2952155776
 40
0.3336128646
 40
0.3708876993
 40
0.4069979218
 40
0.4419140732
 40
0.4756151735
 40
0.5080911802
 40
0.539348623
 40
0.5982682604
 40
0.6260532115
 40
0.6528033939
 40
0.6786130939
 40
0.7036006779
 40
0.7279040429
 40
0.7516809524
 40
0.7751070287
 40
0.7983686425
 40
0.8216585045
 40
0.8451680487
 40
0.8690809976
 40
0.8935685577
 40
0.9187825232
 40
0.9448552781
 40
0.9718985881
 40
1.0
 40
1.0
 40
1.0
 40
1.0
 10
7.0132172238
 20
5.0649178016
 30
0.0
 10
7.0130513421
 20
5.0638968175
 30
0.0
 10
7.012668908
 20
5.0618971439
 30
0.0
 10
7.0120479586
 20
5.0594533493
 30
0.0
 10
7.0114728749
 20
5.0575800446
 30
0.0
 10
7.011010006
 20
5.0562361911
 30
0.0
 10
7.0105123504
 20
5.0549429185
 30
0.0
 10
7.0099814056
 20
5.0537037373
 30
0.0
 10
7.0094186271
 20
5.0525220675
 30
0.0
 10
7.0088254304
 20
5.0514012368
 30
0.0
 10
7.0082035712
 20
5.0503442576
 30
0.0
 10
7.007554758
 20
5.049354064
 30
0.0
 10
7.0068805379
 20
5.0484333758
 30
0.0
 10
7.0059685807
 20
5.0473239173
 30
0.0
 10
7.0049973041
 20
5.0463357468
 30
0.0
 10
7.003968797
 20
5.0454939236
 30
0.0
 10
7.0031967447
 20
5.04495507
 30
0.0
 10
7.0024110591
 20
5.0444982542
 30
0.0
 10
7.0016139524
 20
5.0441246602
 30
0.0
 10
7.0008075926
 20
5.0438355185
 30
0.0
 10
6.9999942207
 20
5.0436320042
 30
0.0
 10
6.999176291
 20
5.0435146033
 30
0.0
 10
6.9983562161
 20
5.0434838064
 30
0.0
 10
6.997536513
 20
5.0435399248
 30
0.0
 10
6.9967196634
 20
5.043682484
 30
0.0
 10
6.9959080849
 20
5.0439110448
 30
0.0
 10
6.9951042041
 20
5.0442249604
 30
0.0
 10
6.9943102012
 20
5.044622943
 30
0.0
 10
6.9935282608
 20
5.0451038352
 30
0.0
 10
6.9927606241
 20
5.0456662507
 30
0.0
 10
6.9922694009
 20
5.0460860264
 30
0.0
 10
6.9920267238
 20
5.0463080873
 30
0.0
  0
SPLINE
  5
4FF
100
AcDbEntity
  8
ALL_ASSEMBLY_MEMBERS
100
AcDbSpline
 62
7
  6
CONTINUOUS
 70
0
 71
3
 72
10
 73
6
 74
0
 42
0.0000001
 43
0.0000001
 44
0.0000000001
 40
0.0
 40
0.0
 40
0.0
 40
0.0
 40
0.482662079
 40
0.7369502828
 40
1.0
 40
1.0
 40
1.0
 40
1.0
 10
6.9920267238
 20
5.0463080873
 30
0.0
 10
6.9915735475
 20
5.0467227649
 30
0.0
 10
6.9909211544
 20
5.047400323
 30
0.0
 10
6.9901127686
 20
5.0483835942
 30
0.0
 10
6.9897202081
 20
5.0489125994
 30
0.0
 10
6.98952692
 20
5.0491859381
 30
0.0
  0
SPLINE
  5
500
100
AcDbEntity
  8
ALL_ASSEMBLY_MEMBERS
100
AcDbSpline
 62
7
  6
CONTINUOUS
 70
0
 71
3
 72
15
 73
11
 74
0
 42
0.0000001
 43
0.0000001
 44
0.0000000001
 40
0.0
 40
0.0
 40
0.0
 40
0.0
 40
0.1121665338
 40
0.2292643196
 40
0.3507151327
 40
0.4759214496
 40
0.6041974547
 40
0.7348077954
 40
0.8670170328
 40
1.0
 40
1.0
 40
1.0
 40
1.0
 10
7.0120981273
 20
5.053153387
 30
0.0
 10
7.012423701
 20
5.0539029083
 30
0.0
 10
7.0130376928
 20
5.0554576616
 30
0.0
 10
7.0138326022
 20
5.0578873484
 30
0.0
 10
7.0145162078
 20
5.0604490971
 30
0.0
 10
7.0150831231
 20
5.0631223313
 30
0.0
 10
7.0155287712
 20
5.0658859732
 30
0.0
 10
7.0158497107
 20
5.0687181656
 30
0.0
 10
7.0160432452
 20
5.0715961819
 30
0.0
 10
7.016086357
 20
5.073528494
 30
0.0
 10
7.016086357
 20
5.0744973284
 30
0.0
  0
SPLINE
  5
501
100
AcDbEntity
  8
ALL_ASSEMBLY_MEMBERS
100
AcDbSpline
 62
7
  6
CONTINUOUS
 70
0
 71
3
 72
12
 73
8
 74
0
 42
0.0000001
 43
0.0000001
 44
0.0000000001
 40
0.0
 40
0.0
 40
0.0
 40
0.0
 40
0.265078517
 40
0.394029641
 40
0.5204689132
 40
0.7655544429
 40
1.0
 40
1.0
 40
1.0
 40
1.0
 10
7.0170075164
 20
5.0907744451
 30
0.0
 10
7.0165458778
 20
5.0915876397
 30
0.0
 10
7.0158197117
 20
5.0927746356
 30
0.0
 10
7.0147752327
 20
5.0942850344
 30
0.0
 10
7.0137148958
 20
5.0956971351
 30
0.0
 10
7.012327269
 20
5.0973266651
 30
0.0
 10
7.0111140139
 20
5.0985100795
 30
0.0
 10
7.0104920039
 20
5.0990551326
 30
0.0
  0
SPLINE
  5
502
100
AcDbEntity
  8
ALL_ASSEMBLY_MEMBERS
100
AcDbSpline
 62
7
  6
CONTINUOUS
 70
0
 71
3
 72
18
 73
14
 74
0
 42
0.0000001
 43
0.0000001
 44
0.0000000001
 40
0.0
 40
0.0
 40
0.0
 40
0.0
 40
0.136454386
 40
0.2717543332
 40
0.4047383481
 40
0.5343241107
 40
0.6594861088
 40
0.7201250916
 40
0.7793211774
 40
0.8369835643
 40
0.8930359242
 40
0.9474020501
 40
1.0
 40
1.0
 40
1.0
 40
1.0
 10
7.016086357
 20
5.0744973284
 30
0.0
 10
7.016086357
 20
5.075654937
 30
0.0
 10
7.0160249422
 20
5.0779608421
 30
0.0
 10
7.0157493207
 20
5.0813849596
 30
0.0
 10
7.0152933553
 20
5.0847311742
 30
0.0
 10
7.0146623817
 20
5.0879612789
 30
0.0
 10
7.0139896347
 20
5.0905529664
 30
0.0
 10
7.0133672344
 20
5.0925363769
 30
0.0
 10
7.0128667228
 20
5.0939569046
 30
0.0
 10
7.0123290055
 20
5.0953220447
 30
0.0
 10
7.0117555719
 20
5.0966279872
 30
0.0
 10
7.0111481049
 20
5.0978708012
 30
0.0
 10
7.0107144154
 20
5.0986682994
 30
0.0
 10
7.0104920039
 20
5.0990551326
 30
0.0
  0
SPLINE
  5
503
100
AcDbEntity
  8
ALL_ASSEMBLY_MEMBERS
100
AcDbSpline
 62
7
  6
CONTINUOUS
 70
0
 71
3
 72
14
 73
10
 74
0
 42
0.0000001
 43
0.0000001
 44
0.0000000001
 40
0.0
 40
0.0
 40
0.0
 40
0.0
 40
0.1418216731
 40
0.2784938949
 40
0.5366596529
 40
0.6586647875
 40
0.7762863728
 40
0.8899057234
 40
1.0
 40
1.0
 40
1.0
 40
1.0
 10
6.98952692
 20
5.0998087187
 30
0.0
 10
6.9897371965
 20
5.1001060817
 30
0.0
 10
6.9901647986
 20
5.100679899
 30
0.0
 10
6.9910474386
 20
5.1017387966
 30
0.0
 10
6.9919850178
 20
5.1026843356
 30
0.0
 10
6.9929754525
 20
5.1034939887
 30
0.0
 10
6.9937189201
 20
5.1040153731
 30
0.0
 10
6.994475036
 20
5.1044606185
 30
0.0
 10
6.9949937549
 20
5.1047095765
 30
0.0
 10
6.9952539476
 20
5.1048201749
 30
0.0
  0
LINE
  5
504
100
AcDbEntity
  8
ALL_ASSEMBLY_MEMBERS
100
AcDbLine
 62
7
  6
CONTINUOUS
 10
6.9952539476
 20
5.1048201749
 11
6.9976653837
 21
5.1054548828
  0
SPLINE
  5
505
100
AcDbEntity
  8
ALL_ASSEMBLY_MEMBERS
100
AcDbSpline
 62
7
  6
CONTINUOUS
 70
0
 71
3
 72
32
 73
28
 74
0
 42
0.0000001
 43
0.0000001
 44
0.0000000001
 40
0.0
 40
0.0
 40
0.0
 40
0.0
 40
0.0202860603
 40
0.040717733
 40
0.0614358214
 40
0.0825735989
 40
0.104251914
 40
0.1265774551
 40
0.1496434788
 40
0.1735269164
 40
0.223951588
 40
0.2506012714
 40
0.2782326727
 40
0.3068569452
 40
0.3364756321
 40
0.3670785829
 40
0.3986489743
 40
0.4311638834
 40
0.4645910881
 40
0.5340193879
 40
0.5699416144
 40
0.6065983569
 40
0.6818863591
 40
0.7594036527
 40
0.8386317495
 40
0.9190435147
 40
1.0
 40
1.0
 40
1.0
 40
1.0
 10
6.9984758478
 20
5.1054973284
 30
0.0
 10
6.9987296694
 20
5.1054973284
 30
0.0
 10
6.9992394833
 20
5.1054721677
 30
0.0
 10
7.0000010102
 20
5.1053593976
 30
0.0
 10
7.0007586797
 20
5.1051719271
 30
0.0
 10
7.0015104238
 20
5.1049101219
 30
0.0
 10
7.0022544442
 20
5.104574875
 30
0.0
 10
7.0029889832
 20
5.1041671838
 30
0.0
 10
7.0037122562
 20
5.1036879487
 30
0.0
 10
7.0046766102
 20
5.1029419304
 30
0.0
 10
7.0055932708
 20
5.1020668727
 30
0.0
 10
7.0064593929
 20
5.1010834047
 30
0.0
 10
7.0071018128
 20
5.1002682583
 30
0.0
 10
7.0077233301
 20
5.0993912781
 30
0.0
 10
7.0083224786
 20
5.098454439
 30
0.0
 10
7.0088979422
 20
5.0974600893
 30
0.0
 10
7.0094483346
 20
5.0964105841
 30
0.0
 10
7.0099722482
 20
5.0953083684
 30
0.0
 10
7.0106423962
 20
5.0937524801
 30
0.0
 10
7.0112440768
 20
5.0921219938
 30
0.0
 10
7.0117799015
 20
5.0904276986
 30
0.0
 10
7.0122837014
 20
5.0886472071
 30
0.0
 10
7.0128273102
 20
5.0863383679
 30
0.0
 10
7.0133369614
 20
5.0834788686
 30
0.0
 10
7.0137045352
 20
5.0805330456
 30
0.0
 10
7.0139263375
 20
5.0775296767
 30
0.0
 10
7.0139758478
 20
5.0755102657
 30
0.0
 10
7.0139758478
 20
5.0744973284
 30
0.0
  0
SPLINE
  5
506
100
AcDbEntity
  8
ALL_ASSEMBLY_MEMBERS
100
AcDbSpline
 62
7
  6
CONTINUOUS
 70
0
 71
3
 72
36
 73
32
 74
0
 42
0.0000001
 43
0.0000001
 44
0.0000000001
 40
0.0
 40
0.0
 40
0.0
 40
0.0
 40
0.0288780075
 40
0.0587517632
 40
0.0895609277
 40
0.1212476963
 40
0.1537539027
 40
0.1870108015
 40
0.2554320693
 40
0.325804985
 40
0.3614831106
 40
0.3973471649
 40
0.4332906874
 40
0.4692054175
 40
0.5049824351
 40
0.540513217
 40
0.5756894061
 40
0.6104049617
 40
0.6780310965
 40
0.7107544008
 40
0.7426231639
 40
0.7735525311
 40
0.8034627135
 40
0.8322833297
 40
0.8599531003
 40
0.8864208594
 40
0.9116501496
 40
0.935616755
 40
0.9583167889
 40
0.979764586
 40
1.0
 40
1.0
 40
1.0
 40
1.0
 10
7.0104920039
 20
5.0990551326
 30
0.0
 10
7.0108035625
 20
5.0985941089
 30
0.0
 10
7.0114108575
 20
5.09763798
 30
0.0
 10
7.0122600465
 20
5.0961349315
 30
0.0
 10
7.0130600104
 20
5.0945443044
 30
0.0
 10
7.0138079223
 20
5.092872912
 30
0.0
 10
7.014501456
 20
5.0911274079
 30
0.0
 10
7.0153587065
 20
5.0886875473
 30
0.0
 10
7.0162757361
 20
5.0854984166
 30
0.0
 10
7.0169760685
 20
5.0822076337
 30
0.0
 10
7.0174121676
 20
5.0795077807
 30
0.0
 10
7.0176757774
 20
5.0774531862
 30
0.0
 10
7.0178737854
 20
5.0753866891
 30
0.0
 10
7.0180061239
 20
5.0733166289
 30
0.0
 10
7.0180726077
 20
5.071251366
 30
0.0
 10
7.0180737173
 20
5.069199274
 30
0.0
 10
7.0180098706
 20
5.0671685915
 30
0.0
 10
7.0178407639
 20
5.0645239505
 30
0.0
 10
7.0175471621
 20
5.0619356629
 30
0.0
 10
7.017125682
 20
5.0594227143
 30
0.0
 10
7.0167546095
 20
5.0576195185
 30
0.0
 10
7.0163274072
 20
5.0558845567
 30
0.0
 10
7.0158462115
 20
5.054224803
 30
0.0
 10
7.0153135608
 20
5.0526469422
 30
0.0
 10
7.0147322091
 20
5.0511572835
 30
0.0
 10
7.0141048775
 20
5.0497618548
 30
0.0
 10
7.0134348309
 20
5.048466147
 30
0.0
 10
7.0127250217
 20
5.0472754417
 30
0.0
 10
7.0119789427
 20
5.046194351
 30
0.0
 10
7.0111999734
 20
5.045227353
 30
0.0
 10
7.0106452786
 20
5.0446448012
 30
0.0
 10
7.0103632754
 20
5.0443755497
 30
0.0
  0
SPLINE
  5
507
100
AcDbEntity
  8
ALL_ASSEMBLY_MEMBERS
100
AcDbSpline
 62
7
  6
CONTINUOUS
 70
0
 71
3
 72
14
 73
10
 74
0
 42
0.0000001
 43
0.0000001
 44
0.0000000001
 40
0.0
 40
0.0
 40
0.0
 40
0.0
 40
0.2712316089
 40
0.4000310819
 40
0.524953426
 40
0.6466518197
 40
0.7658576727
 40
0.8833610333
 40
1.0
 40
1.0
 40
1.0
 40
1.0
 10
7.0097145606
 20
5.0438005751
 30
0.0
 10
7.0093559326
 20
5.0435067254
 30
0.0
 10
7.0087974085
 20
5.0431066479
 30
0.0
 10
7.0080106778
 20
5.042673461
 30
0.0
 10
7.0074241007
 20
5.0424111541
 30
0.0
 10
7.0068322986
 20
5.0422065725
 30
0.0
 10
7.0062364919
 20
5.0420600348
 30
0.0
 10
7.0056380473
 20
5.0419719225
 30
0.0
 10
7.005237533
 20
5.0419523433
 30
0.0
 10
7.005038152
 20
5.0419523548
 30
0.0
  0
SPLINE
  5
508
100
AcDbEntity
  8
ALL_ASSEMBLY_MEMBERS
100
AcDbSpline
 62
7
  6
CONTINUOUS
 70
0
 71
3
 72
11
 73
7
 74
0
 42
0.0000001
 43
0.0000001
 44
0.0000000001
 40
0.0
 40
0.0
 40
0.0
 40
0.0
 40
0.256892837
 40
0.5114128163
 40
0.7601004297
 40
1.0
 40
1.0
 40
1.0
 40
1.0
 10
7.0188980877
 20
5.0744973284
 30
0.0
 10
7.0188980877
 20
5.0770039668
 30
0.0
 10
7.0186353936
 20
5.0819978036
 30
0.0
 10
7.017480483
 20
5.0893373024
 30
0.0
 10
7.0156000639
 20
5.0963536723
 30
0.0
 10
7.0138747769
 20
5.1008103177
 30
0.0
 10
7.0129037084
 20
5.1029402222
 30
0.0
  0
SPLINE
  5
509
100
AcDbEntity
  8
ALL_ASSEMBLY_MEMBERS
100
AcDbSpline
 62
7
  6
CONTINUOUS
 70
0
 71
3
 72
9
 73
5
 74
0
 42
0.0000001
 43
0.0000001
 44
0.0000000001
 40
0.0
 40
0.0
 40
0.0
 40
0.0
 40
0.2564087861
 40
1.0
 40
1.0
 40
1.0
 40
1.0
 10
7.0129037084
 20
5.1029402222
 30
0.0
 10
7.0126483134
 20
5.103500396
 30
0.0
 10
7.011618648
 20
5.1056694887
 30
0.0
 10
7.0104536096
 20
5.1077752031
 30
0.0
 10
7.0095062302
 20
5.1092885074
 30
0.0
  0
SPLINE
  5
50A
100
AcDbEntity
  8
ALL_ASSEMBLY_MEMBERS
100
AcDbSpline
 62
7
  6
CONTINUOUS
 70
0
 71
3
 72
11
 73
7
 74
0
 42
0.0000001
 43
0.0000001
 44
0.0000000001
 40
0.0
 40
0.0
 40
0.0
 40
0.0
 40
0.2314916821
 40
0.471192174
 40
0.7258718476
 40
1.0
 40
1.0
 40
1.0
 40
1.0
 10
6.9974322875
 20
5.1169523178
 30
0.0
 10
6.9982087459
 20
5.1169522946
 30
0.0
 10
6.9997943084
 20
5.1167763482
 30
0.0
 10
7.0021167298
 20
5.1159929336
 30
0.0
 10
7.0043682339
 20
5.1147103574
 30
0.0
 10
7.0057500085
 20
5.1135855341
 30
0.0
 10
7.0064216565
 20
5.1129575933
 30
0.0
  0
SPLINE
  5
50B
100
AcDbEntity
  8
ALL_ASSEMBLY_MEMBERS
100
AcDbSpline
 62
7
  6
CONTINUOUS
 70
0
 71
3
 72
13
 73
9
 74
0
 42
0.0000001
 43
0.0000001
 44
0.0000000001
 40
0.0
 40
0.0
 40
0.0
 40
0.0
 40
0.2365451695
 40
0.3595200218
 40
0.4848773609
 40
0.6121484016
 40
0.7408447792
 40
1.0
 40
1.0
 40
1.0
 40
1.0
 10
7.0112532526
 20
5.0427203176
 30
0.0
 10
7.0124832748
 20
5.0450127171
 30
0.0
 10
7.0141103354
 20
5.0486326776
 30
0.0
 10
7.0158386999
 20
5.0536795869
 30
0.0
 10
7.0169366965
 20
5.0576647929
 30
0.0
 10
7.0178055779
 20
5.0617703987
 30
0.0
 10
7.0186426481
 20
5.0673758773
 30
0.0
 10
7.0188980877
 20
5.0716471132
 30
0.0
 10
7.0188980877
 20
5.0744973284
 30
0.0
  0
LINE
  5
50C
100
AcDbEntity
  8
ALL_ASSEMBLY_MEMBERS
100
AcDbLine
 62
7
  6
CONTINUOUS
 10
7.0099961807
 20
5.0405190503
 11
7.0089259099
 21
5.0394278782
  0
SPLINE
  5
50D
100
AcDbEntity
  8
ALL_ASSEMBLY_MEMBERS
100
AcDbSpline
 62
7
  6
CONTINUOUS
 70
0
 71
3
 72
20
 73
16
 74
0
 42
0.0000001
 43
0.0000001
 44
0.0000000001
 40
0.0
 40
0.0
 40
0.0
 40
0.0
 40
0.1285524996
 40
0.1883064915
 40
0.2456435222
 40
0.3012092731
 40
0.355735804
 40
0.4100209948
 40
0.4648929782
 40
0.5211420246
 40
0.5794835704
 40
0.7046587412
 40
0.7725556177
 40
0.84431897
 40
1.0
 40
1.0
 40
1.0
 40
1.0
 10
7.0089259099
 20
5.0394278782
 30
0.0
 10
7.0082560681
 20
5.0388031965
 30
0.0
 10
7.0071924705
 20
5.0379658973
 30
0.0
 10
7.0056523042
 20
5.0371277531
 30
0.0
 10
7.0045054351
 20
5.0366735626
 30
0.0
 10
7.0033452875
 20
5.0363810802
 30
0.0
 10
7.0021773737
 20
5.0362523349
 30
0.0
 10
7.001007797
 20
5.0362893581
 30
0.0
 10
6.9998431798
 20
5.0364930351
 30
0.0
 10
6.9986895599
 20
5.0368613063
 30
0.0
 10
6.9971380183
 20
5.0375854589
 30
0.0
 10
6.9956649785
 20
5.0386337465
 30
0.0
 10
6.9942960307
 20
5.0399343312
 30
0.0
 10
6.9929001067
 20
5.0415120919
 30
0.0
 10
6.9919759383
 20
5.0428521266
 30
0.0
 10
6.9914021228
 20
5.0438013815
 30
0.0
  0
LINE
  5
50E
100
AcDbEntity
  8
ALL_ASSEMBLY_MEMBERS
100
AcDbLine
 62
7
  6
CONTINUOUS
 10
6.9914021228
 20
5.0438013815
 11
6.9902632237
 21
5.0458708136
  0
LINE
  5
50F
100
AcDbEntity
  8
ALL_ASSEMBLY_MEMBERS
100
AcDbLine
 62
7
  6
CONTINUOUS
 10
7.0064216565
 20
5.1129575933
 11
7.0090062301
 21
5.1100707821
  0
SPLINE
  5
510
100
AcDbEntity
  8
ALL_ASSEMBLY_MEMBERS
100
AcDbSpline
 62
7
  6
CONTINUOUS
 70
0
 71
3
 72
17
 73
13
 74
0
 42
0.0000001
 43
0.0000001
 44
0.0000000001
 40
0.0
 40
0.0
 40
0.0
 40
0.0
 40
0.125297122
 40
0.1881630557
 40
0.250975931
 40
0.3762723327
 40
0.5014154883
 40
0.6263436684
 40
0.7510261752
 40
0.8134107623
 40
0.8757873947
 40
1.0
 40
1.0
 40
1.0
 40
1.0
 10
7.3265356997
 20
4.9959973284
 30
0.0
 10
7.3265425433
 20
4.9942023508
 30
0.0
 10
7.3268194375
 20
4.9914986935
 30
0.0
 10
7.3276965433
 20
4.98800773
 30
0.0
 10
7.3289108432
 20
4.9846180764
 30
0.0
 10
7.3310365205
 20
4.980630836
 30
0.0
 10
7.3344621432
 20
4.9764421826
 30
0.0
 10
7.3386253165
 20
4.9729991632
 30
0.0
 10
7.3425884044
 20
4.9708654258
 30
0.0
 10
7.3459549535
 20
4.9696512972
 30
0.0
 10
7.3494175814
 20
4.9687787922
 30
0.0
 10
7.3520998608
 20
4.9685087194
 30
0.0
 10
7.3538793147
 20
4.9685082105
 30
0.0
  0
SPLINE
  5
511
100
AcDbEntity
  8
ALL_ASSEMBLY_MEMBERS
100
AcDbSpline
 62
7
  6
CONTINUOUS
 70
0
 71
3
 72
16
 73
12
 74
0
 42
0.0000001
 43
0.0000001
 44
0.0000000001
 40
0.0
 40
0.0
 40
0.0
 40
0.0
 40
0.156443482
 40
0.3052685804
 40
0.4447666547
 40
0.5741750288
 40
0.6933497007
 40
0.8028674439
 40
0.9041794572
 40
0.95259715
 40
1.0
 40
1.0
 40
1.0
 40
1.0
 10
6.9782066809
 20
5.0924954176
 30
0.0
 10
6.9786862229
 20
5.0941487405
 30
0.0
 10
6.9797452359
 20
5.0973409896
 30
0.0
 10
6.9816747013
 20
5.1018456585
 30
0.0
 10
6.9838891248
 20
5.1058831337
 30
0.0
 10
6.9863526222
 20
5.1093839807
 30
0.0
 10
6.989035674
 20
5.1122885496
 30
0.0
 10
6.991899293
 20
5.1145492577
 30
0.0
 10
6.9944508058
 20
5.1158739114
 30
0.0
 10
6.9965178277
 20
5.1165443234
 30
0.0
 10
6.9975541903
 20
5.1167536756
 30
0.0
 10
6.998070743
 20
5.1168261258
 30
0.0
  0
LINE
  5
512
100
AcDbEntity
  8
ALL_ASSEMBLY_MEMBERS
100
AcDbLine
 62
7
  6
CONTINUOUS
 10
7.3375760786
 20
4.7913490337
 11
7.3566989013
 21
4.7870899131
  0
SPLINE
  5
513
100
AcDbEntity
  8
ALL_ASSEMBLY_MEMBERS
100
AcDbSpline
 62
7
  6
CONTINUOUS
 70
0
 71
3
 72
18
 73
14
 74
0
 42
0.0000001
 43
0.0000001
 44
0.0000000001
 40
0.0
 40
0.0
 40
0.0
 40
0.0
 40
0.163728737
 40
0.3177773084
 40
0.4600981165
 40
0.5898186976
 40
0.6499458886
 40
0.7069889177
 40
0.8123885409
 40
0.8615037379
 40
0.9087656016
 40
0.9547204483
 40
1.0
 40
1.0
 40
1.0
 40
1.0
 10
6.9782066809
 20
5.0924954176
 30
0.0
 10
6.9786201432
 20
5.0942620638
 30
0.0
 10
6.9795602125
 20
5.0976608811
 30
0.0
 10
6.9813572056
 20
5.1024407048
 30
0.0
 10
6.9834751441
 20
5.1066714248
 30
0.0
 10
6.985521498
 20
5.1097465725
 30
0.0
 10
6.9872930651
 20
5.1118356673
 30
0.0
 10
6.989041049
 20
5.1135779515
 30
0.0
 10
6.9909279168
 20
5.1150036703
 30
0.0
 10
6.9929250277
 20
5.1160199665
 30
0.0
 10
6.9944130965
 20
5.1165564904
 30
0.0
 10
6.9959180382
 20
5.1168802832
 30
0.0
 10
6.9969305154
 20
5.1169523328
 30
0.0
 10
6.9974322875
 20
5.1169523178
 30
0.0
  0
SPLINE
  5
514
100
AcDbEntity
  8
ALL_ASSEMBLY_MEMBERS
100
AcDbSpline
 62
7
  6
CONTINUOUS
 70
0
 71
3
 72
15
 73
11
 74
0
 42
0.0000001
 43
0.0000001
 44
0.0000000001
 40
0.0
 40
0.0
 40
0.0
 40
0.0
 40
0.1048578078
 40
0.2129072137
 40
0.3262500766
 40
0.4462683821
 40
0.5737000081
 40
0.708779124
 40
0.8512002929
 40
1.0
 40
1.0
 40
1.0
 40
1.0
 10
6.998560998
 20
5.110728751
 30
0.0
 10
6.997563157
 20
5.1106655653
 30
0.0
 10
6.9955452207
 20
5.1103291654
 30
0.0
 10
6.9926147288
 20
5.1092376576
 30
0.0
 10
6.9897916886
 20
5.1075880815
 30
0.0
 10
6.9871036878
 20
5.1054236089
 30
0.0
 10
6.9845747549
 20
5.102783164
 30
0.0
 10
6.9822241736
 20
5.0997113807
 30
0.0
 10
6.9800730826
 20
5.0962561643
 30
0.0
 10
6.9788060739
 20
5.0937814262
 30
0.0
 10
6.9782066809
 20
5.0924954176
 30
0.0
  0
SPLINE
  5
515
100
AcDbEntity
  8
ALL_ASSEMBLY_MEMBERS
100
AcDbSpline
 62
7
  6
CONTINUOUS
 70
0
 71
3
 72
35
 73
31
 74
0
 42
0.0000001
 43
0.0000001
 44
0.0000000001
 40
0.0
 40
0.0
 40
0.0
 40
0.0
 40
0.2264596151
 40
0.329930249
 40
0.4265943571
 40
0.5162367969
 40
0.5986955454
 40
0.673824638
 40
0.7414776753
 40
0.8015128999
 40
0.8538149872
 40
0.8770327695
 40
0.8982772398
 40
0.9175350334
 40
0.9347927756
 40
0.9500380803
 40
0.9632645951
 40
0.9744682279
 40
0.9836448894
 40
0.9874718276
 40
0.990790489
 40
0.993600362
 40
0.9959009351
 40
0.9976916967
 40
0.9983957384
 40
0.9989721353
 40
0.9994208235
 40
0.9997417392
 40
0.9999348187
 40
1.0
 40
1.0
 40
1.0
 40
1.0
 10
7.2900248116
 20
4.7690809219
 30
0.0
 10
7.2929339989
 20
4.7684233634
 30
0.0
 10
7.2971681011
 20
4.7674461411
 30
0.0
 10
7.3026341618
 20
4.7661464654
 30
0.0
 10
7.3063435944
 20
4.7652487845
 30
0.0
 10
7.309780969
 20
4.7644035578
 30
0.0
 10
7.3129402195
 20
4.763615151
 30
0.0
 10
7.3158161676
 20
4.7628876807
 30
0.0
 10
7.3184039049
 20
4.7622251702
 30
0.0
 10
7.3206989513
 20
4.7616316233
 30
0.0
 10
7.3224264005
 20
4.7611807375
 30
0.0
 10
7.3236590103
 20
4.7608569396
 30
0.0
 10
7.3244704956
 20
4.7606429657
 30
0.0
 10
7.3252059193
 20
4.7604484019
 30
0.0
 10
7.3258648384
 20
4.7602735901
 30
0.0
 10
7.3264469041
 20
4.7601188666
 30
0.0
 10
7.3269518496
 20
4.7599843976
 30
0.0
 10
7.3273795064
 20
4.7598702955
 30
0.0
 10
7.327687511
 20
4.7597879584
 30
0.0
 10
7.3278951678
 20
4.7597323571
 30
0.0
 10
7.3280218141
 20
4.759698408
 30
0.0
 10
7.328129038
 20
4.7596696383
 30
0.0
 10
7.3282168095
 20
4.7596460406
 30
0.0
 10
7.3282778129
 20
4.759629655
 30
0.0
 10
7.3283168442
 20
4.7596190884
 30
0.0
 10
7.3283388814
 20
4.7596132386
 30
0.0
 10
7.3283558644
 20
4.7596083957
 30
0.0
 10
7.3283683968
 20
4.75960557
 30
0.0
 10
7.3283752375
 20
4.7596027015
 30
0.0
 10
7.3283790585
 20
4.7596027
 30
0.0
 10
7.3283796584
 20
4.7596020859
 30
0.0
  0
SPLINE
  5
516
100
AcDbEntity
  8
ALL_ASSEMBLY_MEMBERS
100
AcDbSpline
 62
7
  6
CONTINUOUS
 70
0
 71
3
 72
32
 73
28
 74
0
 42
0.0000001
 43
0.0000001
 44
0.0000000001
 40
0.0
 40
0.0
 40
0.0
 40
0.0
 40
0.0851006932
 40
0.1691939736
 40
0.2509509252
 40
0.3292814824
 40
0.4032220348
 40
0.4718118792
 40
0.5038543512
 40
0.5342790549
 40
0.5630267671
 40
0.5900851526
 40
0.6155019743
 40
0.6393853981
 40
0.6619332804
 40
0.6834616243
 40
0.7043937881
 40
0.7252118716
 40
0.7464311059
 40
0.76853266
 40
0.7918739217
 40
0.8167076096
 40
0.8431923144
 40
0.871376348
 40
0.9012337608
 40
0.9326925982
 40
1.0
 40
1.0
 40
1.0
 40
1.0
 10
6.9770941366
 20
5.0744973284
 30
0.0
 10
6.9770941366
 20
5.07243371
 30
0.0
 10
6.9771548296
 20
5.0683306066
 30
0.0
 10
6.9774358725
 20
5.0622507185
 30
0.0
 10
6.9779147086
 20
5.0563475275
 30
0.0
 10
6.9786132688
 20
5.0507135143
 30
0.0
 10
6.9795527478
 20
5.0454380052
 30
0.0
 10
6.9805829227
 20
5.0413263938
 30
0.0
 10
6.9815776551
 20
5.0383066465
 30
0.0
 10
6.9823872444
 20
5.0362467683
 30
0.0
 10
6.9832804636
 20
5.0343541183
 30
0.0
 10
6.9842609041
 20
5.0326430459
 30
0.0
 10
6.9853321157
 20
5.0311286896
 30
0.0
 10
6.9864941833
 20
5.0298248771
 30
0.0
 10
6.9877472776
 20
5.0287459443
 30
0.0
 10
6.9890918184
 20
5.0279095815
 30
0.0
 10
6.9905207986
 20
5.0273293215
 30
0.0
 10
6.9920229226
 20
5.0270125865
 30
0.0
 10
6.9935855996
 20
5.0269676769
 30
0.0
 10
6.9951930051
 20
5.0271946699
 30
0.0
 10
6.9968314896
 20
5.027682908
 30
0.0
 10
6.9984878924
 20
5.0284249496
 30
0.0
 10
7.0001481478
 20
5.029412015
 30
0.0
 10
7.0018006634
 20
5.0306293922
 30
0.0
 10
7.0034330273
 20
5.0320633621
 30
0.0
 10
7.0056137948
 20
5.0342963405
 30
0.0
 10
7.0071053705
 20
5.0361808744
 30
0.0
 10
7.0080477392
 20
5.0375134822
 30
0.0
  0
SPLINE
  5
517
100
AcDbEntity
  8
ALL_ASSEMBLY_MEMBERS
100
AcDbSpline
 62
7
  6
CONTINUOUS
 70
0
 71
3
 72
9
 73
5
 74
0
 42
0.0000001
 43
0.0000001
 44
0.0000000001
 40
0.0
 40
0.0
 40
0.0
 40
0.0
 40
0.4762128285
 40
1.0
 40
1.0
 40
1.0
 40
1.0
 10
6.9972769499
 20
5.0375685653
 30
0.0
 10
6.9965792831
 20
5.0384647426
 30
0.0
 10
6.9952529272
 20
5.0404560765
 30
0.0
 10
6.9941666198
 20
5.0425844727
 30
0.0
 10
6.9936517226
 20
5.0437226059
 30
0.0
  0
SPLINE
  5
518
100
AcDbEntity
  8
ALL_ASSEMBLY_MEMBERS
100
AcDbSpline
 62
7
  6
CONTINUOUS
 70
0
 71
3
 72
14
 73
10
 74
0
 42
0.0000001
 43
0.0000001
 44
0.0000000001
 40
0.0
 40
0.0
 40
0.0
 40
0.0
 40
0.2198973051
 40
0.4564869608
 40
0.5822665236
 40
0.6473645815
 40
0.7141020369
 40
0.8532016232
 40
1.0
 40
1.0
 40
1.0
 40
1.0
 10
7.2900242846
 20
4.9881013125
 30
0.0
 10
7.292134158
 20
4.9862875549
 30
0.0
 10
7.2966252722
 20
4.9826501967
 30
0.0
 10
7.3026126408
 20
4.9783489591
 30
0.0
 10
7.3071579569
 20
4.9754152107
 30
0.0
 10
7.3099488388
 20
4.9737308095
 30
0.0
 10
7.3129223212
 20
4.9720243373
 30
0.0
 10
7.3168781343
 20
4.969955689
 30
0.0
 10
7.3201898847
 20
4.9684897756
 30
0.0
 10
7.321919351
 20
4.9678123402
 30
0.0
  0
SPLINE
  5
519
100
AcDbEntity
  8
ALL_ASSEMBLY_MEMBERS
100
AcDbSpline
 62
7
  6
CONTINUOUS
 70
0
 71
3
 72
15
 73
11
 74
0
 42
0.0000001
 43
0.0000001
 44
0.0000000001
 40
0.0
 40
0.0
 40
0.0
 40
0.0
 40
0.2408283807
 40
0.363687073
 40
0.4880761826
 40
0.6139853454
 40
0.6775126556
 40
0.7414129747
 40
0.8702780029
 40
1.0
 40
1.0
 40
1.0
 40
1.0
 10
7.2900248116
 20
4.9881000009
 30
0.0
 10
7.291181027
 20
4.9846919006
 30
0.0
 10
7.2931584387
 20
4.9796192748
 30
0.0
 10
7.2962653811
 20
4.9730181821
 30
0.0
 10
7.2988973261
 20
4.968098835
 30
0.0
 10
7.3013475639
 20
4.9640961151
 30
0.0
 10
7.3034865826
 20
4.9609715821
 30
0.0
 10
7.3057677657
 20
4.9578940073
 30
0.0
 10
7.3088891303
 20
4.9542130909
 30
0.0
 10
7.3117100349
 20
4.9515528713
 30
0.0
 10
7.313215339
 20
4.9503314028
 30
0.0
  0
SPLINE
  5
51A
100
AcDbEntity
  8
ALL_ASSEMBLY_MEMBERS
100
AcDbSpline
 62
7
  6
CONTINUOUS
 70
0
 71
3
 72
9
 73
5
 74
0
 42
0.0000001
 43
0.0000001
 44
0.0000000001
 40
0.0
 40
0.0
 40
0.0
 40
0.0
 40
0.4999957103
 40
1.0
 40
1.0
 40
1.0
 40
1.0
 10
7.3219192131
 20
4.967812039
 30
0.0
 10
7.3242871828
 20
4.9668844805
 30
0.0
 10
7.3292269811
 20
4.9655191866
 30
0.0
 10
7.3343332608
 20
4.9651316803
 30
0.0
 10
7.3368759618
 20
4.9651820726
 30
0.0
  0
SPLINE
  5
51B
100
AcDbEntity
  8
ALL_ASSEMBLY_MEMBERS
100
AcDbSpline
 62
7
  6
CONTINUOUS
 70
0
 71
3
 72
9
 73
5
 74
0
 42
0.0000001
 43
0.0000001
 44
0.0000000001
 40
0.0
 40
0.0
 40
0.0
 40
0.0
 40
0.4999933132
 40
1.0
 40
1.0
 40
1.0
 40
1.0
 10
7.313215339
 20
4.9503314028
 30
0.0
 10
7.3167954683
 20
4.9486531478
 30
0.0
 10
7.3243576684
 20
4.9460992635
 30
0.0
 10
7.3322894609
 20
4.945248595
 30
0.0
 10
7.3362435344
 20
4.9452507317
 30
0.0
  0
SPLINE
  5
51C
100
AcDbEntity
  8
ALL_ASSEMBLY_MEMBERS
100
AcDbSpline
 62
7
  6
CONTINUOUS
 70
0
 71
3
 72
15
 73
11
 74
0
 42
0.0000001
 43
0.0000001
 44
0.0000000001
 40
0.0
 40
0.0
 40
0.0
 40
0.0
 40
0.0263797833
 40
0.0591688645
 40
0.142945477
 40
0.2490817522
 40
0.3746459565
 40
0.5164222025
 40
0.6707459328
 40
1.0
 40
1.0
 40
1.0
 40
1.0
 10
7.3219192131
 20
4.967812039
 30
0.0
 10
7.3218296374
 20
4.9676654958
 30
0.0
 10
7.3216346442
 20
4.967333195
 30
0.0
 10
7.3211791828
 20
4.9665215503
 30
0.0
 10
7.3204961226
 20
4.9652424184
 30
0.0
 10
7.3195550667
 20
4.9634166627
 30
0.0
 10
7.3184632918
 20
4.9612438891
 30
0.0
 10
7.3172498373
 20
4.9587812559
 30
0.0
 10
7.3154737544
 20
4.9551175232
 30
0.0
 10
7.3141244503
 20
4.9522727718
 30
0.0
 10
7.31321534
 20
4.9503314028
 30
0.0
  0
SPLINE
  5
51D
100
AcDbEntity
  8
ALL_ASSEMBLY_MEMBERS
100
AcDbSpline
 62
7
  6
CONTINUOUS
 70
0
 71
3
 72
13
 73
9
 74
0
 42
0.0000001
 43
0.0000001
 44
0.0000000001
 40
0.0
 40
0.0
 40
0.0
 40
0.0
 40
0.2499999941
 40
0.3749999977
 40
0.4999999961
 40
0.6249999932
 40
0.749999999
 40
1.0
 40
1.0
 40
1.0
 40
1.0
 10
7.3362435344
 20
4.9452507317
 30
0.0
 10
7.4359464561
 20
4.9453044912
 30
0.0
 10
7.5855007903
 20
4.9454670591
 30
0.0
 10
7.7849065031
 20
4.9457193545
 30
0.0
 10
7.9344608027
 20
4.9458995086
 30
0.0
 10
8.0840151354
 20
4.946052002
 30
0.0
 10
8.2834209676
 20
4.9461899993
 30
0.0
 10
8.4329754076
 20
4.9462018804
 30
0.0
 10
8.5326783356
 20
4.946155174
 30
0.0
  0
SPLINE
  5
51E
100
AcDbEntity
  8
ALL_ASSEMBLY_MEMBERS
100
AcDbSpline
 62
7
  6
CONTINUOUS
 70
0
 71
3
 72
21
 73
17
 74
0
 42
0.0000001
 43
0.0000001
 44
0.0000000001
 40
0.0
 40
0.0
 40
0.0
 40
0.0
 40
0.0051936572
 40
0.0124671173
 40
0.0218305065
 40
0.0332745392
 40
0.0623337046
 40
0.0994645507
 40
0.1443382005
 40
0.1965611452
 40
0.2557288526
 40
0.3213252347
 40
0.4693930089
 40
0.6357397964
 40
0.8148376171
 40
1.0
 40
1.0
 40
1.0
 40
1.0
 10
7.3368759617
 20
4.9651819492
 30
0.0
 10
7.3368625551
 20
4.965150106
 30
0.0
 10
7.3368386039
 20
4.9650703726
 30
0.0
 10
7.3368076087
 20
4.9649285149
 30
0.0
 10
7.3367765536
 20
4.9647442227
 30
0.0
 10
7.3367315608
 20
4.9644155396
 30
0.0
 10
7.3366789663
 20
4.9639016404
 30
0.0
 10
7.3366211208
 20
4.9631650471
 30
0.0
 10
7.336565659
 20
4.962273798
 30
0.0
 10
7.3365130583
 20
4.9612355802
 30
0.0
 10
7.3364640071
 20
4.960059197
 30
0.0
 10
7.3364013568
 20
4.9582452754
 30
0.0
 10
7.3363370112
 20
4.9557180517
 30
0.0
 10
7.3362822146
 20
4.9524354271
 30
0.0
 10
7.3362494064
 20
4.9489057316
 30
0.0
 10
7.3362428693
 20
4.9464825092
 30
0.0
 10
7.3362435345
 20
4.9452507317
 30
0.0
  0
SPLINE
  5
51F
100
AcDbEntity
  8
ALL_ASSEMBLY_MEMBERS
100
AcDbSpline
 62
7
  6
CONTINUOUS
 70
0
 71
3
 72
13
 73
9
 74
0
 42
0.0000001
 43
0.0000001
 44
0.0000000001
 40
0.0
 40
0.0
 40
0.0
 40
0.0
 40
0.2499984554
 40
0.374996295
 40
0.4999942941
 40
0.6249931093
 40
0.749993373
 40
1.0
 40
1.0
 40
1.0
 40
1.0
 10
7.3368759617
 20
4.9651819492
 30
0.0
 10
7.4365770005
 20
4.9652307774
 30
0.0
 10
7.5861279624
 20
4.9653787469
 30
0.0
 10
7.7855288924
 20
4.9656025354
 30
0.0
 10
7.9350791788
 20
4.965759491
 30
0.0
 10
8.084630457
 20
4.9658915537
 30
0.0
 10
8.2840360305
 20
4.9660121731
 30
0.0
 10
8.4335913013
 20
4.9660238407
 30
0.0
 10
8.5332956027
 20
4.9659832487
 30
0.0
  0
SPLINE
  5
520
100
AcDbEntity
  8
ALL_ASSEMBLY_MEMBERS
100
AcDbSpline
 62
7
  6
CONTINUOUS
 70
0
 71
3
 72
23
 73
19
 74
0
 42
0.0000001
 43
0.0000001
 44
0.0000000001
 40
0.0
 40
0.0
 40
0.0
 40
0.0
 40
0.0073973775
 40
0.0166178593
 40
0.0277364133
 40
0.0407727404
 40
0.0725693343
 40
0.1118601808
 40
0.1583100339
 40
0.2115133999
 40
0.2710669913
 40
0.336491733
 40
0.4072358552
 40
0.4827403762
 40
0.6456239494
 40
0.7317341597
 40
0.8200592617
 40
1.0
 40
1.0
 40
1.0
 40
1.0
 10
8.5332956022
 20
4.965983262
 30
0.0
 10
8.5332760208
 20
4.9659384131
 30
0.0
 10
8.53324325
 20
4.9658328913
 30
0.0
 10
8.5332082258
 20
4.9656526811
 30
0.0
 10
8.5331798915
 20
4.9654335957
 30
0.0
 10
8.5331459059
 20
4.9650649868
 30
0.0
 10
8.5331109966
 20
4.9645095076
 30
0.0
 10
8.533059276
 20
4.9637336858
 30
0.0
 10
8.5330008124
 20
4.9628163531
 30
0.0
 10
8.5329431567
 20
4.9617646792
 30
0.0
 10
8.5328947147
 20
4.9605868808
 30
0.0
 10
8.5328556323
 20
4.9592926591
 30
0.0
 10
8.5328208469
 20
4.9578927671
 30
0.0
 10
8.5327726895
 20
4.9558482797
 30
0.0
 10
8.5327246887
 20
4.9537020688
 30
0.0
 10
8.53270066
 20
4.9514706295
 30
0.0
 10
8.5326966974
 20
4.9491262708
 30
0.0
 10
8.5326955014
 20
4.9473514797
 30
0.0
 10
8.5326783356
 20
4.9461612083
 30
0.0
  0
SPLINE
  5
521
100
AcDbEntity
  8
ALL_ASSEMBLY_MEMBERS
100
AcDbSpline
 62
7
  6
CONTINUOUS
 70
0
 71
3
 72
15
 73
11
 74
0
 42
0.0000001
 43
0.0000001
 44
0.0000000001
 40
0.0
 40
0.0
 40
0.0
 40
0.0
 40
0.2405534159
 40
0.3633621984
 40
0.4877505818
 40
0.6137030163
 40
0.6772652526
 40
0.7412082958
 40
0.8701703736
 40
1.0
 40
1.0
 40
1.0
 40
1.0
 10
7.2900248116
 20
4.7690821799
 30
0.0
 10
7.2911854521
 20
4.772445144
 30
0.0
 10
7.2931703873
 20
4.7774493762
 30
0.0
 10
7.2962849272
 20
4.7839580558
 30
0.0
 10
7.2989220226
 20
4.7888089968
 30
0.0
 10
7.3013744464
 20
4.7927547246
 30
0.0
 10
7.3035136597
 20
4.7958337432
 30
0.0
 10
7.3057935946
 20
4.7988660471
 30
0.0
 10
7.3089090694
 20
4.8024911366
 30
0.0
 10
7.3117182202
 20
4.8051093872
 30
0.0
 10
7.313215339
 20
4.8063116235
 30
0.0
  0
SPLINE
  5
522
100
AcDbEntity
  8
ALL_ASSEMBLY_MEMBERS
100
AcDbSpline
 62
7
  6
CONTINUOUS
 70
0
 71
3
 72
14
 73
10
 74
0
 42
0.0000001
 43
0.0000001
 44
0.0000000001
 40
0.0
 40
0.0
 40
0.0
 40
0.0
 40
0.2193261673
 40
0.4558284056
 40
0.5817104429
 40
0.6468881546
 40
0.7137187944
 40
0.8530188371
 40
1.0
 40
1.0
 40
1.0
 40
1.0
 10
7.2900243005
 20
4.7690809285
 30
0.0
 10
7.2921280196
 20
4.7708493387
 30
0.0
 10
7.2966096659
 20
4.7743959783
 30
0.0
 10
7.3025815891
 20
4.778583658
 30
0.0
 10
7.3071149067
 20
4.7814410751
 30
0.0
 10
7.309898815
 20
4.7830823603
 30
0.0
 10
7.3128642038
 20
4.7847453768
 30
0.0
 10
7.3168054363
 20
4.786761047
 30
0.0
 10
7.3201001194
 20
4.7881900859
 30
0.0
 10
7.3218191928
 20
4.7888509894
 30
0.0
  0
SPLINE
  5
523
100
AcDbEntity
  8
ALL_ASSEMBLY_MEMBERS
100
AcDbSpline
 62
7
  6
CONTINUOUS
 70
0
 71
3
 72
9
 73
5
 74
0
 42
0.0000001
 43
0.0000001
 44
0.0000000001
 40
0.0
 40
0.0
 40
0.0
 40
0.0
 40
0.4999968506
 40
1.0
 40
1.0
 40
1.0
 40
1.0
 10
7.313215339
 20
4.8063116235
 30
0.0
 10
7.3169825806
 20
4.8080595119
 30
0.0
 10
7.3249596548
 20
4.8106653032
 30
0.0
 10
7.3333149845
 20
4.8113829894
 30
0.0
 10
7.3374665166
 20
4.8112714603
 30
0.0
  0
SPLINE
  5
524
100
AcDbEntity
  8
ALL_ASSEMBLY_MEMBERS
100
AcDbSpline
 62
7
  6
CONTINUOUS
 70
0
 71
3
 72
9
 73
5
 74
0
 42
0.0000001
 43
0.0000001
 44
0.0000000001
 40
0.0
 40
0.0
 40
0.0
 40
0.0
 40
0.5000449705
 40
1.0
 40
1.0
 40
1.0
 40
1.0
 10
7.3218191384
 20
4.7888511096
 30
0.0
 10
7.324314371
 20
4.7898103509
 30
0.0
 10
7.3295280148
 20
4.7911826795
 30
0.0
 10
7.334906124
 20
4.7914719208
 30
0.0
 10
7.3375760569
 20
4.791348561
 30
0.0
  0
SPLINE
  5
525
100
AcDbEntity
  8
ALL_ASSEMBLY_MEMBERS
100
AcDbSpline
 62
7
  6
CONTINUOUS
 70
0
 71
3
 72
15
 73
11
 74
0
 42
0.0000001
 43
0.0000001
 44
0.0000000001
 40
0.0
 40
0.0
 40
0.0
 40
0.0
 40
0.3276642625
 40
0.4814127611
 40
0.622874715
 40
0.7484544052
 40
0.8549881978
 40
0.9395840876
 40
0.9729435042
 40
1.0
 40
1.0
 40
1.0
 40
1.0
 10
7.3132153444
 20
4.8063116235
 30
0.0
 10
7.3141095981
 20
4.8043823004
 30
0.0
 10
7.3154373863
 20
4.8015541003
 30
0.0
 10
7.3171861238
 20
4.7979095421
 30
0.0
 10
7.3183831689
 20
4.7954549887
 30
0.0
 10
7.3194626567
 20
4.7932840785
 30
0.0
 10
7.3203963476
 20
4.7914529623
 30
0.0
 10
7.3210765934
 20
4.7901644808
 30
0.0
 10
7.3215325388
 20
4.7893411714
 30
0.0
 10
7.3217287581
 20
4.789001656
 30
0.0
 10
7.3218191384
 20
4.7888511096
 30
0.0
  0
SPLINE
  5
526
100
AcDbEntity
  8
ALL_ASSEMBLY_MEMBERS
100
AcDbSpline
 62
7
  6
CONTINUOUS
 70
0
 71
3
 72
13
 73
9
 74
0
 42
0.0000001
 43
0.0000001
 44
0.0000000001
 40
0.0
 40
0.0
 40
0.0
 40
0.0
 40
0.2499984543
 40
0.3749963012
 40
0.4999943082
 40
0.624993129
 40
0.7499933932
 40
1.0
 40
1.0
 40
1.0
 40
1.0
 10
7.337576067
 20
4.7913489196
 30
0.0
 10
7.4371758957
 20
4.7886861011
 30
0.0
 10
7.5865730963
 20
4.7846175881
 30
0.0
 10
7.7857683253
 20
4.7791666573
 30
0.0
 10
7.935164626
 20
4.7750893497
 30
0.0
 10
8.0845625659
 20
4.7710368334
 30
0.0
 10
8.2837651213
 20
4.7656886274
 30
0.0
 10
8.4331701829
 20
4.7617559208
 30
0.0
 10
8.5327756057
 20
4.7591822647
 30
0.0
  0
SPLINE
  5
527
100
AcDbEntity
  8
ALL_ASSEMBLY_MEMBERS
100
AcDbSpline
 62
7
  6
CONTINUOUS
 70
0
 71
3
 72
21
 73
17
 74
0
 42
0.0000001
 43
0.0000001
 44
0.0000000001
 40
0.0
 40
0.0
 40
0.0
 40
0.0
 40
0.1852041651
 40
0.3643181945
 40
0.5306631126
 40
0.6787179223
 40
0.7443057572
 40
0.8034646323
 40
0.8556791732
 40
0.9005454256
 40
0.937670449
 40
0.9667258437
 40
0.978168848
 40
0.987531819
 40
0.9948054937
 40
1.0
 40
1.0
 40
1.0
 40
1.0
 10
7.3374665167
 20
4.8112714603
 30
0.0
 10
7.3374335972
 20
4.8100409826
 30
0.0
 10
7.3373766691
 20
4.8076202728
 30
0.0
 10
7.3373169954
 20
4.804093816
 30
0.0
 10
7.3372857477
 20
4.8008139052
 30
0.0
 10
7.3372838158
 20
4.7982883529
 30
0.0
 10
7.3372988707
 20
4.7964752898
 30
0.0
 10
7.3373170418
 20
4.7952992833
 30
0.0
 10
7.3373423753
 20
4.7942611664
 30
0.0
 10
7.3373744148
 20
4.7933697372
 30
0.0
 10
7.337412885
 20
4.7926326745
 30
0.0
 10
7.3374519444
 20
4.792118119
 30
0.0
 10
7.3374882639
 20
4.7917887078
 30
0.0
 10
7.3375144485
 20
4.7916038434
 30
0.0
 10
7.3375416851
 20
4.7914613483
 30
0.0
 10
7.3375635144
 20
4.7913810809
 30
0.0
 10
7.337576067
 20
4.7913489196
 30
0.0
  0
SPLINE
  5
528
100
AcDbEntity
  8
ALL_ASSEMBLY_MEMBERS
100
AcDbSpline
 62
7
  6
CONTINUOUS
 70
0
 71
3
 72
13
 73
9
 74
0
 42
0.0000001
 43
0.0000001
 44
0.0000000001
 40
0.0
 40
0.0
 40
0.0
 40
0.0
 40
0.2499999957
 40
0.3750000011
 40
0.5000000013
 40
0.6249999994
 40
0.7500000048
 40
1.0
 40
1.0
 40
1.0
 40
1.0
 10
7.3374665166
 20
4.8112714603
 30
0.0
 10
7.4370680842
 20
4.8086036582
 30
0.0
 10
7.5864682496
 20
4.8045204729
 30
0.0
 10
7.7856674793
 20
4.7990409579
 30
0.0
 10
7.9350671548
 20
4.7949403935
 30
0.0
 10
8.0844675863
 20
4.7908674153
 30
0.0
 10
8.2836699221
 20
4.7855018824
 30
0.0
 10
8.4330741334
 20
4.7815689877
 30
0.0
 10
8.5326783356
 20
4.7790014387
 30
0.0
  0
SPLINE
  5
529
100
AcDbEntity
  8
ALL_ASSEMBLY_MEMBERS
100
AcDbSpline
 62
7
  6
CONTINUOUS
 70
0
 71
3
 72
23
 73
19
 74
0
 42
0.0000001
 43
0.0000001
 44
0.0000000001
 40
0.0
 40
0.0
 40
0.0
 40
0.0
 40
0.1799813552
 40
0.2683165233
 40
0.3544321425
 40
0.5173153373
 40
0.5928148942
 40
0.6635518808
 40
0.7289681868
 40
0.7885130682
 40
0.8417084186
 40
0.8881510861
 40
0.9274354132
 40
0.9592264971
 40
0.9722607414
 40
0.9833780115
 40
0.9925987953
 40
1.0
 40
1.0
 40
1.0
 40
1.0
 10
8.5326783356
 20
4.7789953579
 30
0.0
 10
8.5326629561
 20
4.7778058895
 30
0.0
 10
8.5326175509
 20
4.7760329932
 30
0.0
 10
8.5325611078
 20
4.7736910951
 30
0.0
 10
8.532527436
 20
4.771461737
 30
0.0
 10
8.532519458
 20
4.7693169818
 30
0.0
 10
8.5325137834
 20
4.7672739001
 30
0.0
 10
8.5325115652
 20
4.7658750027
 30
0.0
 10
8.5325164324
 20
4.7645815524
 30
0.0
 10
8.5325339109
 20
4.7634041383
 30
0.0
 10
8.5325641206
 20
4.7623524459
 30
0.0
 10
8.532598668
 20
4.7614348924
 30
0.0
 10
8.5326300065
 20
4.7606588234
 30
0.0
 10
8.5326500581
 20
4.7601032159
 30
0.0
 10
8.5326741736
 20
4.7597342303
 30
0.0
 10
8.5326966801
 20
4.7595146929
 30
0.0
 10
8.5327269941
 20
4.759333781
 30
0.0
 10
8.5327571115
 20
4.7592275384
 30
0.0
 10
8.5327756048
 20
4.7591822513
 30
0.0
  0
SPLINE
  5
52A
100
AcDbEntity
  8
ALL_ASSEMBLY_MEMBERS
100
AcDbSpline
 62
7
  6
CONTINUOUS
 70
0
 71
3
 72
18
 73
14
 74
0
 42
0.0000001
 43
0.0000001
 44
0.0000000001
 40
0.0
 40
0.0
 40
0.0
 40
0.0
 40
0.1241895367
 40
0.186659162
 40
0.2490754184
 40
0.3736687229
 40
0.4984928226
 40
0.5610767469
 40
0.6236878411
 40
0.6863389101
 40
0.7490644327
 40
0.8746450578
 40
1.0
 40
1.0
 40
1.0
 40
1.0
 10
8.5533796584
 20
4.7789953579
 30
0.0
 10
8.5533796584
 20
4.7776771559
 30
0.0
 10
8.553175346
 20
4.7756888344
 30
0.0
 10
8.5525178089
 20
4.7731248853
 30
0.0
 10
8.5516016189
 20
4.7706358769
 30
0.0
 10
8.5499913314
 20
4.7677167707
 30
0.0
 10
8.5478277661
 20
4.7651783941
 30
0.0
 10
8.5458232847
 20
4.7634336761
 30
0.0
 10
8.5441932726
 20
4.762279321
 30
0.0
 10
8.5424544595
 20
4.7612936222
 30
0.0
 10
8.5400153259
 20
4.7602136551
 30
0.0
 10
8.5367834053
 20
4.7593255085
 30
0.0
 10
8.5341054201
 20
4.7591373817
 30
0.0
 10
8.5327756048
 20
4.7591822513
 30
0.0
  0
LINE
  5
52B
100
AcDbEntity
  8
ALL_ASSEMBLY_MEMBERS
100
AcDbLine
 62
7
  6
CONTINUOUS
 10
7.0080477392
 20
5.1114811746
 11
7.0058048984
 21
5.11437637
  0
LINE
  5
52C
100
AcDbEntity
  8
ALL_ASSEMBLY_MEMBERS
100
AcDbLine
 62
7
  6
CONTINUOUS
 10
7.0058048984
 20
5.11437637
 11
7.0039090193
 21
5.116429241
  0
SPLINE
  5
52D
100
AcDbEntity
  8
ALL_ASSEMBLY_MEMBERS
100
AcDbSpline
 62
7
  6
CONTINUOUS
 70
0
 71
3
 72
9
 73
5
 74
0
 42
0.0000001
 43
0.0000001
 44
0.0000000001
 40
0.0
 40
0.0
 40
0.0
 40
0.0
 40
0.5162848163
 40
1.0
 40
1.0
 40
1.0
 40
1.0
 10
7.0039090193
 20
5.116429241
 30
0.0
 10
7.0033114538
 20
5.1170232147
 30
0.0
 10
7.00210616
 20
5.1181269139
 30
0.0
 10
7.0007994069
 20
5.1191102705
 30
0.0
 10
7.0001420886
 20
5.1195473985
 30
0.0
  0
SPLINE
  5
52E
100
AcDbEntity
  8
ALL_ASSEMBLY_MEMBERS
100
AcDbSpline
 62
7
  6
CONTINUOUS
 70
0
 71
3
 72
28
 73
24
 74
0
 42
0.0000001
 43
0.0000001
 44
0.0000000001
 40
0.0
 40
0.0
 40
0.0
 40
0.0
 40
0.0519087088
 40
0.0758686888
 40
0.0986643086
 40
0.1205052976
 40
0.1416700112
 40
0.1625129877
 40
0.1834033418
 40
0.2046918489
 40
0.226698399
 40
0.2496931038
 40
0.2738709684
 40
0.3261883402
 40
0.384184553
 40
0.447759052
 40
0.5164790878
 40
0.5526011133
 40
0.5897838932
 40
0.6669725704
 40
0.7473706189
 40
0.8302651056
 40
1.0
 40
1.0
 40
1.0
 40
1.0
 10
7.0001420886
 20
5.1195473985
 30
0.0
 10
6.9992575518
 20
5.1201356309
 30
0.0
 10
6.997890496
 20
5.1208981066
 30
0.0
 10
6.9959871429
 20
5.1215826331
 30
0.0
 10
6.9946156204
 20
5.1218989514
 30
0.0
 10
6.9932708163
 20
5.1220269879
 30
0.0
 10
6.9919610137
 20
5.1219610544
 30
0.0
 10
6.9906949672
 20
5.1217030967
 30
0.0
 10
6.9894796308
 20
5.1212575465
 30
0.0
 10
6.9883212642
 20
5.1206289178
 30
0.0
 10
6.9872257492
 20
5.1198223616
 30
0.0
 10
6.9861942046
 20
5.1188482493
 30
0.0
 10
6.9848697394
 20
5.1172976807
 30
0.0
 10
6.983391443
 20
5.1149597225
 30
0.0
 10
6.9819181611
 20
5.1117124935
 30
0.0
 10
6.9806767027
 20
5.108016025
 30
0.0
 10
6.9798360644
 20
5.1046707799
 30
0.0
 10
6.9792537788
 20
5.1018230108
 30
0.0
 10
6.9787184182
 20
5.0987898198
 30
0.0
 10
6.9781675441
 20
5.0948408742
 30
0.0
 10
6.9776781332
 20
5.0899429819
 30
0.0
 10
6.9772214421
 20
5.0831423442
 30
0.0
 10
6.9770941366
 20
5.0779708246
 30
0.0
 10
6.9770941366
 20
5.0744973284
 30
0.0
  0
SPLINE
  5
52F
100
AcDbEntity
  8
ALL_ASSEMBLY_MEMBERS
100
AcDbSpline
 62
7
  6
CONTINUOUS
 70
0
 71
3
 72
18
 73
14
 74
0
 42
0.0000001
 43
0.0000001
 44
0.0000000001
 40
0.0
 40
0.0
 40
0.0
 40
0.0
 40
0.1242073456
 40
0.1866734917
 40
0.2490882163
 40
0.3736860846
 40
0.4985092069
 40
0.5610883415
 40
0.6236947894
 40
0.686341079
 40
0.7490615053
 40
0.8746371802
 40
1.0
 40
1.0
 40
1.0
 40
1.0
 10
8.5533796584
 20
4.9461612083
 30
0.0
 10
8.5533796584
 20
4.9474581421
 30
0.0
 10
8.5531820539
 20
4.9494140488
 30
0.0
 10
8.5525453886
 20
4.9519388927
 30
0.0
 10
8.5516581536
 20
4.9543923667
 30
0.0
 10
8.5500979298
 20
4.9572761569
 30
0.0
 10
8.5479987677
 20
4.9597968333
 30
0.0
 10
8.5460509148
 20
4.9615400207
 30
0.0
 10
8.5444653018
 20
4.962699971
 30
0.0
 10
8.5427717544
 20
4.9636984577
 30
0.0
 10
8.5403927104
 20
4.964805113
 30
0.0
 10
8.5372330904
 20
4.9657450379
 30
0.0
 10
8.5346045607
 20
4.9659935475
 30
0.0
 10
8.5332956022
 20
4.965983262
 30
0.0
  0
SPLINE
  5
530
100
AcDbEntity
  8
ALL_ASSEMBLY_MEMBERS
100
AcDbSpline
 62
7
  6
CONTINUOUS
 70
0
 71
3
 72
11
 73
7
 74
0
 42
0.0000001
 43
0.0000001
 44
0.0000000001
 40
0.0
 40
0.0
 40
0.0
 40
0.0
 40
0.2550681759
 40
0.508498396
 40
0.7575611613
 40
1.0
 40
1.0
 40
1.0
 40
1.0
 10
3.3008612291
 20
5.0744973284
 30
0.0
 10
3.3008612291
 20
5.07230975
 30
0.0
 10
3.3010620989
 20
5.0679462061
 30
0.0
 10
3.3019449692
 20
5.0615005038
 30
0.0
 10
3.3033932281
 20
5.0552689708
 30
0.0
 10
3.30472594
 20
5.0512620325
 30
0.0
 10
3.3054782745
 20
5.0493236492
 30
0.0
  0
SPLINE
  5
531
100
AcDbEntity
  8
ALL_ASSEMBLY_MEMBERS
100
AcDbSpline
 62
7
  6
CONTINUOUS
 70
0
 71
3
 72
9
 73
5
 74
0
 42
0.0000001
 43
0.0000001
 44
0.0000000001
 40
0.0
 40
0.0
 40
0.0
 40
0.0
 40
0.5158919965
 40
1.0
 40
1.0
 40
1.0
 40
1.0
 10
3.3054782745
 20
5.0493236492
 30
0.0
 10
3.3063107233
 20
5.047178852
 30
0.0
 10
3.3081507824
 20
5.0431050736
 30
0.0
 10
3.3104650515
 20
5.0392762
 30
0.0
 10
3.3117115775
 20
5.0375134823
 30
0.0
  0
SPLINE
  5
532
100
AcDbEntity
  8
ALL_ASSEMBLY_MEMBERS
100
AcDbSpline
 62
7
  6
CONTINUOUS
 70
0
 71
3
 72
26
 73
22
 74
0
 42
0.0000001
 43
0.0000001
 44
0.0000000001
 40
0.0
 40
0.0
 40
0.0
 40
0.0
 40
0.0843496129
 40
0.1678193348
 40
0.2493286296
 40
0.3280342945
 40
0.4032207824
 40
0.4742633558
 40
0.5406591832
 40
0.6021434744
 40
0.6587223821
 40
0.7107802796
 40
0.7353831063
 40
0.7592043851
 40
0.7824268652
 40
0.8052565937
 40
0.8279167672
 40
0.850642677
 40
0.8971389905
 40
0.9465021489
 40
1.0
 40
1.0
 40
1.0
 40
1.0
 10
3.3411133572
 20
5.0744973261
 30
0.0
 10
3.3410275147
 20
5.0728763261
 30
0.0
 10
3.3407590385
 20
5.0696555546
 30
0.0
 10
3.3400685441
 20
5.0649042249
 30
0.0
 10
3.3390934748
 20
5.0603134941
 30
0.0
 10
3.3378470057
 20
5.0559540437
 30
0.0
 10
3.3363421985
 20
5.0518903317
 30
0.0
 10
3.334599175
 20
5.0481820699
 30
0.0
 10
3.3326374652
 20
5.0448866271
 30
0.0
 10
3.3304822068
 20
5.0420544481
 30
0.0
 10
3.3281589837
 20
5.0397317477
 30
0.0
 10
3.3260647576
 20
5.0382263005
 30
0.0
 10
3.3243441712
 20
5.0373372747
 30
0.0
 10
3.3230575335
 20
5.0368341469
 30
0.0
 10
3.3217561266
 20
5.0364845878
 30
0.0
 10
3.3204451213
 20
5.0362901935
 30
0.0
 10
3.3191296324
 20
5.0362526789
 30
0.0
 10
3.3173651279
 20
5.0364146617
 30
0.0
 10
3.3151450453
 20
5.0370315079
 30
0.0
 10
3.3125915979
 20
5.038391345
 30
0.0
 10
3.3110401974
 20
5.039639213
 30
0.0
 10
3.3102885512
 20
5.0403427655
 30
0.0
  0
SPLINE
  5
533
100
AcDbEntity
  8
ALL_ASSEMBLY_MEMBERS
100
AcDbSpline
 62
7
  6
CONTINUOUS
 70
0
 71
3
 72
9
 73
5
 74
0
 42
0.0000001
 43
0.0000001
 44
0.0000000001
 40
0.0
 40
0.0
 40
0.0
 40
0.0
 40
0.2436290677
 40
1.0
 40
1.0
 40
1.0
 40
1.0
 10
3.3101491131
 20
5.1091216862
 30
0.0
 10
3.3098490814
 20
5.1086381575
 30
0.0
 10
3.3086518368
 20
5.1066323174
 30
0.0
 10
3.307588336
 20
5.1045473851
 30
0.0
 10
3.3068554578
 20
5.1029398923
 30
0.0
  0
SPLINE
  5
534
100
AcDbEntity
  8
ALL_ASSEMBLY_MEMBERS
100
AcDbSpline
 62
7
  6
CONTINUOUS
 70
0
 71
3
 72
9
 73
5
 74
0
 42
0.0000001
 43
0.0000001
 44
0.0000000001
 40
0.0
 40
0.0
 40
0.0
 40
0.0
 40
0.2454978485
 40
1.0
 40
1.0
 40
1.0
 40
1.0
 10
3.3068554578
 20
5.1029398923
 30
0.0
 10
3.3065884777
 20
5.1023542989
 30
0.0
 10
3.3055394284
 20
5.0999515721
 30
0.0
 10
3.3046432646
 20
5.097482507
 30
0.0
 10
3.3040514461
 20
5.0955951639
 30
0.0
  0
SPLINE
  5
535
100
AcDbEntity
  8
ALL_ASSEMBLY_MEMBERS
100
AcDbSpline
 62
7
  6
CONTINUOUS
 70
0
 71
3
 72
10
 73
6
 74
0
 42
0.0000001
 43
0.0000001
 44
0.0000000001
 40
0.0
 40
0.0
 40
0.0
 40
0.0
 40
0.2469709382
 40
0.4967949163
 40
1.0
 40
1.0
 40
1.0
 40
1.0
 10
3.302925861
 20
5.0915748751
 30
0.0
 10
3.302585194
 20
5.0901973415
 30
0.0
 10
3.3019851675
 20
5.0874042892
 30
0.0
 10
3.3011240198
 20
5.0817212687
 30
0.0
 10
3.3008612291
 20
5.0773886172
 30
0.0
 10
3.3008612291
 20
5.0744973284
 30
0.0
  0
LINE
  5
536
100
AcDbEntity
  8
ALL_ASSEMBLY_MEMBERS
100
AcDbLine
 62
7
  6
CONTINUOUS
 10
3.311617462
 20
5.1111525018
 11
3.3133618176
 21
5.1129795911
  0
SPLINE
  5
537
100
AcDbEntity
  8
ALL_ASSEMBLY_MEMBERS
100
AcDbSpline
 62
7
  6
CONTINUOUS
 70
0
 71
3
 72
11
 73
7
 74
0
 42
0.0000001
 43
0.0000001
 44
0.0000000001
 40
0.0
 40
0.0
 40
0.0
 40
0.0
 40
0.2744283378
 40
0.5288439739
 40
0.7684295132
 40
1.0
 40
1.0
 40
1.0
 40
1.0
 10
3.3133618176
 20
5.1129795911
 30
0.0
 10
3.3140329315
 20
5.1136052263
 30
0.0
 10
3.3154109634
 20
5.1147258832
 30
0.0
 10
3.3176580383
 20
5.1159989078
 30
0.0
 10
3.3199725169
 20
5.1167770923
 30
0.0
 10
3.3215528134
 20
5.116952341
 30
0.0
 10
3.3223270293
 20
5.1169523178
 30
0.0
  0
SPLINE
  5
538
100
AcDbEntity
  8
ALL_ASSEMBLY_MEMBERS
100
AcDbSpline
 62
7
  6
CONTINUOUS
 70
0
 71
3
 72
15
 73
11
 74
0
 42
0.0000001
 43
0.0000001
 44
0.0000000001
 40
0.0
 40
0.0
 40
0.0
 40
0.0
 40
0.0969739796
 40
0.203072828
 40
0.3180366294
 40
0.4413791708
 40
0.5723787195
 40
0.7099698552
 40
0.8529450645
 40
1.0
 40
1.0
 40
1.0
 40
1.0
 10
3.3313163984
 20
5.1129575933
 30
0.0
 10
3.3320106613
 20
5.1121890371
 30
0.0
 10
3.3333462261
 20
5.1104709433
 30
0.0
 10
3.3351063341
 20
5.1075588461
 30
0.0
 10
3.3366854022
 20
5.1042306012
 30
0.0
 10
3.3380617634
 20
5.1005296562
 30
0.0
 10
3.3392141059
 20
5.0965015585
 30
0.0
 10
3.340126025
 20
5.09219817
 30
0.0
 10
3.3407801488
 20
5.0876752326
 30
0.0
 10
3.3410343753
 20
5.0845858548
 30
0.0
 10
3.3411166002
 20
5.0830174311
 30
0.0
  0
SPLINE
  5
539
100
AcDbEntity
  8
ALL_ASSEMBLY_MEMBERS
100
AcDbSpline
 62
7
  6
CONTINUOUS
 70
0
 71
3
 72
23
 73
19
 74
0
 42
0.0000001
 43
0.0000001
 44
0.0000000001
 40
0.0
 40
0.0
 40
0.0
 40
0.0
 40
0.1799407383
 40
0.2682658403
 40
0.3543760506
 40
0.5172596238
 40
0.5927641449
 40
0.663508267
 40
0.7289330087
 40
0.7884866002
 40
0.8416899661
 40
0.8881398192
 40
0.9274306657
 40
0.9592272596
 40
0.9722635867
 40
0.9833821407
 40
0.9926026225
 40
1.0
 40
1.0
 40
1.0
 40
1.0
 10
1.7870809812
 20
4.9461612083
 30
0.0
 10
1.7870638154
 20
4.9473514797
 30
0.0
 10
1.7870626193
 20
4.9491262708
 30
0.0
 10
1.7870586568
 20
4.9514706295
 30
0.0
 10
1.7870346281
 20
4.9537020688
 30
0.0
 10
1.7869866273
 20
4.9558482797
 30
0.0
 10
1.7869384698
 20
4.9578927671
 30
0.0
 10
1.7869036845
 20
4.9592926591
 30
0.0
 10
1.786864602
 20
4.9605868808
 30
0.0
 10
1.7868161601
 20
4.9617646792
 30
0.0
 10
1.7867585044
 20
4.9628163531
 30
0.0
 10
1.7867000408
 20
4.9637336858
 30
0.0
 10
1.7866483201
 20
4.9645095076
 30
0.0
 10
1.7866134109
 20
4.9650649868
 30
0.0
 10
1.7865794253
 20
4.9654335957
 30
0.0
 10
1.7865510909
 20
4.9656526811
 30
0.0
 10
1.7865160668
 20
4.9658328913
 30
0.0
 10
1.786483296
 20
4.9659384131
 30
0.0
 10
1.7864637146
 20
4.965983262
 30
0.0
  0
SPLINE
  5
53A
100
AcDbEntity
  8
ALL_ASSEMBLY_MEMBERS
100
AcDbSpline
 62
7
  6
CONTINUOUS
 70
0
 71
3
 72
13
 73
9
 74
0
 42
0.0000001
 43
0.0000001
 44
0.0000000001
 40
0.0
 40
0.0
 40
0.0
 40
0.0
 40
0.2193254409
 40
0.4558281184
 40
0.581710737
 40
0.7137126888
 40
0.8530185676
 40
1.0
 40
1.0
 40
1.0
 40
1.0
 10
3.0297350053
 20
4.7690809259
 30
0.0
 10
3.0276314408
 20
4.7708494718
 30
0.0
 10
3.0231496073
 20
4.7743957583
 30
0.0
 10
3.0171779098
 20
4.7785838382
 30
0.0
 10
3.0119358849
 20
4.7818870988
 30
0.0
 10
3.0076222802
 20
4.7843730174
 30
0.0
 10
3.0029540373
 20
4.7867612027
 30
0.0
 10
2.9996591831
 20
4.7881900793
 30
0.0
 10
2.9979401352
 20
4.7888510173
 30
0.0
  0
SPLINE
  5
53B
100
AcDbEntity
  8
ALL_ASSEMBLY_MEMBERS
100
AcDbSpline
 62
7
  6
CONTINUOUS
 70
0
 71
3
 72
15
 73
11
 74
0
 42
0.0000001
 43
0.0000001
 44
0.0000000001
 40
0.0
 40
0.0
 40
0.0
 40
0.0
 40
0.2405508233
 40
0.3633585218
 40
0.487746922
 40
0.6136988022
 40
0.6772613571
 40
0.7412044501
 40
0.8701697216
 40
1.0
 40
1.0
 40
1.0
 40
1.0
 10
3.0297345052
 20
4.7690821645
 30
0.0
 10
3.0285738035
 20
4.7724450672
 30
0.0
 10
3.0265889822
 20
4.777449281
 30
0.0
 10
3.0234744822
 20
4.783957922
 30
0.0
 10
3.0208373928
 20
4.7888088428
 30
0.0
 10
3.0183848748
 20
4.7927545038
 30
0.0
 10
3.0162457891
 20
4.7958336073
 30
0.0
 10
3.0139658429
 20
4.7988659708
 30
0.0
 10
3.0108502701
 20
4.8024910601
 30
0.0
 10
3.0080410518
 20
4.8051093052
 30
0.0
 10
3.0065439778
 20
4.8063116128
 30
0.0
  0
SPLINE
  5
53C
100
AcDbEntity
  8
ALL_ASSEMBLY_MEMBERS
100
AcDbSpline
 62
7
  6
CONTINUOUS
 70
0
 71
3
 72
9
 73
5
 74
0
 42
0.0000001
 43
0.0000001
 44
0.0000000001
 40
0.0
 40
0.0
 40
0.0
 40
0.0
 40
0.5000304023
 40
1.0
 40
1.0
 40
1.0
 40
1.0
 10
2.9979402037
 20
4.7888511687
 30
0.0
 10
2.995445057
 20
4.7898104272
 30
0.0
 10
2.9902313581
 20
4.7911826442
 30
0.0
 10
2.9848532725
 20
4.7914718741
 30
0.0
 10
2.9821832513
 20
4.7913486542
 30
0.0
  0
SPLINE
  5
53D
100
AcDbEntity
  8
ALL_ASSEMBLY_MEMBERS
100
AcDbSpline
 62
7
  6
CONTINUOUS
 70
0
 71
3
 72
9
 73
5
 74
0
 42
0.0000001
 43
0.0000001
 44
0.0000000001
 40
0.0
 40
0.0
 40
0.0
 40
0.0
 40
0.4999869471
 40
1.0
 40
1.0
 40
1.0
 40
1.0
 10
3.0065439778
 20
4.8063116128
 30
0.0
 10
3.002776862
 20
4.8080595497
 30
0.0
 10
2.9947995897
 20
4.8106648099
 30
0.0
 10
2.9864444098
 20
4.8113825733
 30
0.0
 10
2.9822927956
 20
4.8112714599
 30
0.0
  0
SPLINE
  5
53E
100
AcDbEntity
  8
ALL_ASSEMBLY_MEMBERS
100
AcDbSpline
 62
7
  6
CONTINUOUS
 70
0
 71
3
 72
15
 73
11
 74
0
 42
0.0000001
 43
0.0000001
 44
0.0000000001
 40
0.0
 40
0.0
 40
0.0
 40
0.0
 40
0.0270563994
 40
0.0604157322
 40
0.145011491
 40
0.2515451986
 40
0.3771248457
 40
0.5185867981
 40
0.6723353502
 40
1.0
 40
1.0
 40
1.0
 40
1.0
 10
2.9979402037
 20
4.7888511687
 30
0.0
 10
2.9980305831
 20
4.7890017142
 30
0.0
 10
2.9982268007
 20
4.7893412275
 30
0.0
 10
2.9986827428
 20
4.7901645323
 30
0.0
 10
2.9993629848
 20
4.7914530073
 30
0.0
 10
3.0002966717
 20
4.793284115
 30
0.0
 10
3.0013761559
 20
4.7954550159
 30
0.0
 10
3.0025731979
 20
4.7979095593
 30
0.0
 10
3.0043219327
 20
4.801554105
 30
0.0
 10
3.0056497199
 20
4.8043822957
 30
0.0
 10
3.0065439733
 20
4.8063116128
 30
0.0
  0
SPLINE
  5
53F
100
AcDbEntity
  8
ALL_ASSEMBLY_MEMBERS
100
AcDbSpline
 62
7
  6
CONTINUOUS
 70
0
 71
3
 72
13
 73
9
 74
0
 42
0.0000001
 43
0.0000001
 44
0.0000000001
 40
0.0
 40
0.0
 40
0.0
 40
0.0
 40
0.2499999957
 40
0.3750000012
 40
0.5000000013
 40
0.6249999994
 40
0.7500000048
 40
1.0
 40
1.0
 40
1.0
 40
1.0
 10
2.9822927956
 20
4.8112714599
 30
0.0
 10
2.882691229
 20
4.8086036405
 30
0.0
 10
2.733291064
 20
4.8045204712
 30
0.0
 10
2.5340918353
 20
4.7990409604
 30
0.0
 10
2.3846921609
 20
4.7949403873
 30
0.0
 10
2.2352917301
 20
4.7908674089
 30
0.0
 10
2.0360893945
 20
4.7855019138
 30
0.0
 10
1.8866851829
 20
4.7815690629
 30
0.0
 10
1.7870809812
 20
4.779001514
 30
0.0
  0
SPLINE
  5
540
100
AcDbEntity
  8
ALL_ASSEMBLY_MEMBERS
100
AcDbSpline
 62
7
  6
CONTINUOUS
 70
0
 71
3
 72
21
 73
17
 74
0
 42
0.0000001
 43
0.0000001
 44
0.0000000001
 40
0.0
 40
0.0
 40
0.0
 40
0.0
 40
0.0051945017
 40
0.012468172
 40
0.0218311389
 40
0.0332741393
 40
0.0623295277
 40
0.0994545463
 40
0.1443207956
 40
0.1965353349
 40
0.2556942098
 40
0.321282046
 40
0.4693368612
 40
0.6356817878
 40
0.8147958266
 40
1.0
 40
1.0
 40
1.0
 40
1.0
 10
2.9821832441
 20
4.7913489167
 30
0.0
 10
2.9821957968
 20
4.7913810779
 30
0.0
 10
2.982217626
 20
4.7914613453
 30
0.0
 10
2.9822448627
 20
4.7916038403
 30
0.0
 10
2.9822710473
 20
4.7917887046
 30
0.0
 10
2.9823073669
 20
4.7921181157
 30
0.0
 10
2.9823464264
 20
4.7926326712
 30
0.0
 10
2.9823848967
 20
4.7933697339
 30
0.0
 10
2.9824169362
 20
4.7942611632
 30
0.0
 10
2.9824422698
 20
4.7952992801
 30
0.0
 10
2.982460441
 20
4.7964752868
 30
0.0
 10
2.982475496
 20
4.7982883502
 30
0.0
 10
2.9824735642
 20
4.8008139029
 30
0.0
 10
2.9824423166
 20
4.8040938143
 30
0.0
 10
2.982382643
 20
4.8076202717
 30
0.0
 10
2.9823257149
 20
4.810040982
 30
0.0
 10
2.9822927955
 20
4.8112714599
 30
0.0
  0
SPLINE
  5
541
100
AcDbEntity
  8
ALL_ASSEMBLY_MEMBERS
100
AcDbSpline
 62
7
  6
CONTINUOUS
 70
0
 71
3
 72
13
 73
9
 74
0
 42
0.0000001
 43
0.0000001
 44
0.0000000001
 40
0.0
 40
0.0
 40
0.0
 40
0.0
 40
0.2499984543
 40
0.3749963011
 40
0.4999943082
 40
0.6249931289
 40
0.7499933932
 40
1.0
 40
1.0
 40
1.0
 40
1.0
 10
2.9821832441
 20
4.7913489167
 30
0.0
 10
2.8825834162
 20
4.788686089
 30
0.0
 10
2.7331862161
 20
4.7846175839
 30
0.0
 10
2.5339909878
 20
4.7791666603
 30
0.0
 10
2.3845946879
 20
4.7750893538
 30
0.0
 10
2.2351967486
 20
4.7710368368
 30
0.0
 10
2.0359941943
 20
4.7656886283
 30
0.0
 10
1.8865891334
 20
4.7617559202
 30
0.0
 10
1.7869837111
 20
4.7591822646
 30
0.0
  0
SPLINE
  5
542
100
AcDbEntity
  8
ALL_ASSEMBLY_MEMBERS
100
AcDbSpline
 62
7
  6
CONTINUOUS
 70
0
 71
3
 72
23
 73
19
 74
0
 42
0.0000001
 43
0.0000001
 44
0.0000000001
 40
0.0
 40
0.0
 40
0.0
 40
0.0
 40
0.0074012047
 40
0.0166219885
 40
0.0277392585
 40
0.0407735029
 40
0.0725645868
 40
0.1118489139
 40
0.1582915814
 40
0.2114869318
 40
0.2710318132
 40
0.3364481192
 40
0.4071851058
 40
0.4826846627
 40
0.6455678575
 40
0.7316834767
 40
0.8200186448
 40
1.0
 40
1.0
 40
1.0
 40
1.0
 10
1.7869837119
 20
4.7591822513
 30
0.0
 10
1.7870022053
 20
4.7592275384
 30
0.0
 10
1.7870323226
 20
4.759333781
 30
0.0
 10
1.7870626367
 20
4.7595146929
 30
0.0
 10
1.7870851432
 20
4.7597342303
 30
0.0
 10
1.7871092587
 20
4.7601032159
 30
0.0
 10
1.7871293102
 20
4.7606588234
 30
0.0
 10
1.7871606488
 20
4.7614348924
 30
0.0
 10
1.7871951961
 20
4.7623524459
 30
0.0
 10
1.7872254059
 20
4.7634041383
 30
0.0
 10
1.7872428844
 20
4.7645815524
 30
0.0
 10
1.7872477516
 20
4.7658750027
 30
0.0
 10
1.7872455334
 20
4.7672739001
 30
0.0
 10
1.7872398588
 20
4.7693169818
 30
0.0
 10
1.7872318807
 20
4.771461737
 30
0.0
 10
1.787198209
 20
4.7736910951
 30
0.0
 10
1.7871417658
 20
4.7760329932
 30
0.0
 10
1.7870963607
 20
4.7778058895
 30
0.0
 10
1.7870809812
 20
4.7789953579
 30
0.0
  0
SPLINE
  5
543
100
AcDbEntity
  8
ALL_ASSEMBLY_MEMBERS
100
AcDbSpline
 62
7
  6
CONTINUOUS
 70
0
 71
3
 72
17
 73
13
 74
0
 42
0.0000001
 43
0.0000001
 44
0.0000000001
 40
0.0
 40
0.0
 40
0.0
 40
0.0
 40
0.1252971164
 40
0.1881630462
 40
0.2509759194
 40
0.376272323
 40
0.5014154837
 40
0.6263436674
 40
0.7510261774
 40
0.8134107657
 40
0.8757873986
 40
1.0
 40
1.0
 40
1.0
 40
1.0
 10
2.9932236222
 20
4.9959973284
 30
0.0
 10
2.9932167832
 20
4.9942023401
 30
0.0
 10
2.9929398962
 20
4.991498666
 30
0.0
 10
2.9920628
 20
4.9880076781
 30
0.0
 10
2.9908485093
 20
4.9846179983
 30
0.0
 10
2.9887228423
 20
4.980630722
 30
0.0
 10
2.9852972272
 20
4.9764420204
 30
0.0
 10
2.9811340546
 20
4.9729989493
 30
0.0
 10
2.9771709598
 20
4.9708651676
 30
0.0
 10
2.9738044001
 20
4.9696510045
 30
0.0
 10
2.9703417585
 20
4.9687784661
 30
0.0
 10
2.9676594653
 20
4.9685083696
 30
0.0
 10
2.9658800007
 20
4.968507846
 30
0.0
  0
SPLINE
  5
544
100
AcDbEntity
  8
ALL_ASSEMBLY_MEMBERS
100
AcDbSpline
 62
7
  6
CONTINUOUS
 70
0
 71
3
 72
15
 73
11
 74
0
 42
0.0000001
 43
0.0000001
 44
0.0000000001
 40
0.0
 40
0.0
 40
0.0
 40
0.0
 40
0.1449609804
 40
0.2863435741
 40
0.4229982744
 40
0.5538738727
 40
0.6779092094
 40
0.7941024338
 40
0.9016584394
 40
1.0
 40
1.0
 40
1.0
 40
1.0
 10
3.3424766997
 20
5.0832351591
 30
0.0
 10
3.3424060529
 20
5.0848419127
 30
0.0
 10
3.3422256864
 20
5.0880141508
 30
0.0
 10
3.3418250057
 20
5.0926908033
 30
0.0
 10
3.3412846696
 20
5.097196328
 30
0.0
 10
3.3405940153
 20
5.1014868398
 30
0.0
 10
3.3397396796
 20
5.1055165983
 30
0.0
 10
3.3387049714
 20
5.1092373218
 30
0.0
 10
3.3374752364
 20
5.1125970092
 30
0.0
 10
3.3364694379
 20
5.1146556147
 30
0.0
 10
3.3359209966
 20
5.115598831
 30
0.0
  0
SPLINE
  5
545
100
AcDbEntity
  8
ALL_ASSEMBLY_MEMBERS
100
AcDbSpline
 62
7
  6
CONTINUOUS
 70
0
 71
3
 72
18
 73
14
 74
0
 42
0.0000001
 43
0.0000001
 44
0.0000000001
 40
0.0
 40
0.0
 40
0.0
 40
0.0
 40
0.1392913503
 40
0.2666932197
 40
0.3267167855
 40
0.3848537051
 40
0.4416966439
 40
0.497896391
 40
0.5541506777
 40
0.6111823387
 40
0.7300523913
 40
0.8588506789
 40
1.0
 40
1.0
 40
1.0
 40
1.0
 10
3.3359209966
 20
5.115598831
 30
0.0
 10
3.33546903
 20
5.1163761286
 30
0.0
 10
3.3345128397
 20
5.1178150764
 30
0.0
 10
3.3330714603
 20
5.1193721429
 30
0.0
 10
3.3318264401
 20
5.1203578817
 30
0.0
 10
3.3308653655
 20
5.1209565637
 30
0.0
 10
3.3298613333
 20
5.1214246742
 30
0.0
 10
3.3288180697
 20
5.12175979
 30
0.0
 10
3.3277392174
 20
5.1219591242
 30
0.0
 10
3.326239226
 20
5.1220419344
 30
0.0
 10
3.3242706506
 20
5.1217760451
 30
0.0
 10
3.321895631
 20
5.1209215393
 30
0.0
 10
3.3203758385
 20
5.1200518928
 30
0.0
 10
3.3196171492
 20
5.119547346
 30
0.0
  0
SPLINE
  5
546
100
AcDbEntity
  8
ALL_ASSEMBLY_MEMBERS
100
AcDbSpline
 62
7
  6
CONTINUOUS
 70
0
 71
3
 72
11
 73
7
 74
0
 42
0.0000001
 43
0.0000001
 44
0.0000000001
 40
0.0
 40
0.0
 40
0.0
 40
0.0
 40
0.2273496599
 40
0.4704266663
 40
0.7283462247
 40
1.0
 40
1.0
 40
1.0
 40
1.0
 10
3.3196171492
 20
5.119547346
 30
0.0
 10
3.3189395671
 20
5.1190967375
 30
0.0
 10
3.3175928868
 20
5.1180795735
 30
0.0
 10
3.3156751434
 20
5.1163087193
 30
0.0
 10
3.3138105376
 20
5.1142623301
 30
0.0
 10
3.3126427454
 20
5.1127669369
 30
0.0
 10
3.3120702922
 20
5.1119810082
 30
0.0
  0
LINE
  5
547
100
AcDbEntity
  8
ALL_ASSEMBLY_MEMBERS
100
AcDbLine
 62
7
  6
CONTINUOUS
 10
3.3210361449
 20
5.1168746206
 11
3.3234278096
 21
5.1162133864
  0
SPLINE
  5
548
100
AcDbEntity
  8
ALL_ASSEMBLY_MEMBERS
100
AcDbSpline
 62
7
  6
CONTINUOUS
 70
0
 71
3
 72
11
 73
7
 74
0
 42
0.0000001
 43
0.0000001
 44
0.0000000001
 40
0.0
 40
0.0
 40
0.0
 40
0.0
 40
0.2166818164
 40
0.4533806522
 40
0.7138747419
 40
1.0
 40
1.0
 40
1.0
 40
1.0
 10
3.3234278096
 20
5.1162133864
 30
0.0
 10
3.3241393182
 20
5.1159133906
 30
0.0
 10
3.3255592457
 20
5.1151154411
 30
0.0
 10
3.3275191408
 20
5.1134763184
 30
0.0
 10
3.3293677887
 20
5.1113727371
 30
0.0
 10
3.3304608523
 20
5.1097543834
 30
0.0
 10
3.3309880559
 20
5.1088816216
 30
0.0
  0
SPLINE
  5
549
100
AcDbEntity
  8
ALL_ASSEMBLY_MEMBERS
100
AcDbSpline
 62
7
  6
CONTINUOUS
 70
0
 71
3
 72
21
 73
17
 74
0
 42
0.0000001
 43
0.0000001
 44
0.0000000001
 40
0.0
 40
0.0
 40
0.0
 40
0.0
 40
0.0485602011
 40
0.1006841871
 40
0.1561580302
 40
0.2147051609
 40
0.2759834802
 40
0.3395855049
 40
0.4050816428
 40
0.4720033471
 40
0.6081168272
 40
0.743993479
 40
0.8106410295
 40
0.8758010089
 40
0.9390440694
 40
1.0
 40
1.0
 40
1.0
 40
1.0
 10
3.3309880559
 20
5.1088816216
 30
0.0
 10
3.3315034488
 20
5.1080284116
 30
0.0
 10
3.3324842048
 20
5.1062053834
 30
0.0
 10
3.3337626971
 20
5.1032626721
 30
0.0
 10
3.3348902736
 20
5.100041051
 30
0.0
 10
3.3358524422
 20
5.096571244
 30
0.0
 10
3.3366377736
 20
5.0928866842
 30
0.0
 10
3.3372380044
 20
5.0890232693
 30
0.0
 10
3.3376431984
 20
5.0850181394
 30
0.0
 10
3.3379186194
 20
5.0795109134
 30
0.0
 10
3.337746653
 20
5.0725443767
 30
0.0
 10
3.3368963724
 20
5.0656326499
 30
0.0
 10
3.3358000415
 20
5.0602461068
 30
0.0
 10
3.3347890799
 20
5.0563697632
 30
0.0
 10
3.3335902701
 20
5.0526699901
 30
0.0
 10
3.3326538193
 20
5.0502964492
 30
0.0
 10
3.3321544316
 20
5.0491491857
 30
0.0
  0
SPLINE
  5
54A
100
AcDbEntity
  8
ALL_ASSEMBLY_MEMBERS
100
AcDbSpline
 62
7
  6
CONTINUOUS
 70
0
 71
3
 72
11
 73
7
 74
0
 42
0.0000001
 43
0.0000001
 44
0.0000000001
 40
0.0
 40
0.0
 40
0.0
 40
0.0
 40
0.2710920963
 40
0.5284863703
 40
0.7715362775
 40
1.0
 40
1.0
 40
1.0
 40
1.0
 10
3.3318294561
 20
5.0484177023
 30
0.0
 10
3.3313394811
 20
5.047337058
 30
0.0
 10
3.3303119002
 20
5.0452620044
 30
0.0
 10
3.3285808664
 20
5.0423581746
 30
0.0
 10
3.3267141213
 20
5.0397658005
 30
0.0
 10
3.3253455568
 20
5.038214901
 30
0.0
 10
3.3246414674
 20
5.0375048503
 30
0.0
  0
SPLINE
  5
54B
100
AcDbEntity
  8
ALL_ASSEMBLY_MEMBERS
100
AcDbSpline
 62
7
  6
CONTINUOUS
 70
0
 71
3
 72
11
 73
7
 74
0
 42
0.0000001
 43
0.0000001
 44
0.0000000001
 40
0.0
 40
0.0
 40
0.0
 40
0.0
 40
0.2314916821
 40
0.471192174
 40
0.7258718476
 40
1.0
 40
1.0
 40
1.0
 40
1.0
 10
3.3223270293
 20
5.1169523178
 30
0.0
 10
3.3231034877
 20
5.1169522946
 30
0.0
 10
3.3246890503
 20
5.1167763482
 30
0.0
 10
3.3270114717
 20
5.1159929336
 30
0.0
 10
3.3292629758
 20
5.1147103574
 30
0.0
 10
3.3306447504
 20
5.1135855341
 30
0.0
 10
3.3313163984
 20
5.1129575933
 30
0.0
  0
SPLINE
  5
54C
100
AcDbEntity
  8
ALL_ASSEMBLY_MEMBERS
100
AcDbSpline
 62
7
  6
CONTINUOUS
 70
0
 71
3
 72
10
 73
6
 74
0
 42
0.0000001
 43
0.0000001
 44
0.0000000001
 40
0.0
 40
0.0
 40
0.0
 40
0.0
 40
0.2337561388
 40
0.4757382338
 40
1.0
 40
1.0
 40
1.0
 40
1.0
 10
3.3141343362
 20
5.1107472212
 30
0.0
 10
3.3138571572
 20
5.1107284463
 30
0.0
 10
3.3132952886
 20
5.1106409686
 30
0.0
 10
3.3121621457
 20
5.1102701387
 30
0.0
 10
3.3113697796
 20
5.1097931021
 30
0.0
 10
3.3108732825
 20
5.1094166562
 30
0.0
  0
LINE
  5
54D
100
AcDbEntity
  8
ALL_ASSEMBLY_MEMBERS
100
AcDbLine
 62
7
  6
CONTINUOUS
 10
3.3108732825
 20
5.1094166562
 11
3.3098014698
 21
5.1084701505
  0
SPLINE
  5
54E
100
AcDbEntity
  8
ALL_ASSEMBLY_MEMBERS
100
AcDbSpline
 62
7
  6
CONTINUOUS
 70
0
 71
3
 72
32
 73
28
 74
0
 42
0.0000001
 43
0.0000001
 44
0.0000000001
 40
0.0
 40
0.0
 40
0.0
 40
0.0
 40
0.0673074137
 40
0.0987662461
 40
0.1286236471
 40
0.1568076668
 40
0.1832923589
 40
0.2081260378
 40
0.2314672907
 40
0.2535688332
 40
0.2747880614
 40
0.295606151
 40
0.3165383202
 40
0.3380666679
 40
0.3606145586
 40
0.3844979911
 40
0.4099148179
 40
0.4369732049
 40
0.4657209174
 40
0.4961456216
 40
0.5281880958
 40
0.5967779535
 40
0.6707185179
 40
0.7490490741
 40
0.8308060214
 40
0.9148993033
 40
1.0
 40
1.0
 40
1.0
 40
1.0
 10
3.3117115775
 20
5.0375134823
 30
0.0
 10
3.3126539465
 20
5.0361808743
 30
0.0
 10
3.3141455224
 20
5.0342963404
 30
0.0
 10
3.3163262895
 20
5.0320633618
 30
0.0
 10
3.3179586529
 20
5.0306293924
 30
0.0
 10
3.3196111677
 20
5.0294120157
 30
0.0
 10
3.3212714225
 20
5.0284249508
 30
0.0
 10
3.3229278242
 20
5.0276829088
 30
0.0
 10
3.3245663077
 20
5.0271946698
 30
0.0
 10
3.3261737126
 20
5.0269676765
 30
0.0
 10
3.3277363892
 20
5.0270125871
 30
0.0
 10
3.3292385136
 20
5.0273293206
 30
0.0
 10
3.3306674949
 20
5.0279095791
 30
0.0
 10
3.3320120359
 20
5.0287459423
 30
0.0
 10
3.3332651308
 20
5.0298248751
 30
0.0
 10
3.3344271993
 20
5.0311286876
 30
0.0
 10
3.3354984116
 20
5.0326430439
 30
0.0
 10
3.3364788523
 20
5.0343541163
 30
0.0
 10
3.3373720717
 20
5.0362467664
 30
0.0
 10
3.3381816611
 20
5.0383066446
 30
0.0
 10
3.3391763936
 20
5.0413263922
 30
0.0
 10
3.3402065687
 20
5.0454380043
 30
0.0
 10
3.341146048
 20
5.050713514
 30
0.0
 10
3.3418446082
 20
5.0563475273
 30
0.0
 10
3.3423234443
 20
5.0622507183
 30
0.0
 10
3.3426044872
 20
5.0683306063
 30
0.0
 10
3.3426651802
 20
5.0724337099
 30
0.0
 10
3.3426651802
 20
5.0744973284
 30
0.0
  0
LINE
  5
54F
100
AcDbEntity
  8
ALL_ASSEMBLY_MEMBERS
100
AcDbLine
 62
7
  6
CONTINUOUS
 10
2.9630604153
 20
4.7870899163
 11
2.9821832307
 21
4.7913490325
  0
SPLINE
  5
550
100
AcDbEntity
  8
ALL_ASSEMBLY_MEMBERS
100
AcDbSpline
 62
7
  6
CONTINUOUS
 70
0
 71
3
 72
18
 73
14
 74
0
 42
0.0000001
 43
0.0000001
 44
0.0000000001
 40
0.0
 40
0.0
 40
0.0
 40
0.0
 40
0.1241895318
 40
0.1866591557
 40
0.249075411
 40
0.3736687143
 40
0.4984928144
 40
0.5610767395
 40
0.6236878347
 40
0.6863389049
 40
0.7490644288
 40
0.8746450559
 40
1.0
 40
1.0
 40
1.0
 40
1.0
 10
1.7663796584
 20
4.7789953579
 30
0.0
 10
1.7663796584
 20
4.777677156
 30
0.0
 10
1.7665839708
 20
4.7756888345
 30
0.0
 10
1.7672415079
 20
4.7731248855
 30
0.0
 10
1.7681576979
 20
4.7706358772
 30
0.0
 10
1.7697679854
 20
4.7677167711
 30
0.0
 10
1.7719315507
 20
4.7651783946
 30
0.0
 10
1.7739360321
 20
4.7634336765
 30
0.0
 10
1.7755660441
 20
4.7622793214
 30
0.0
 10
1.7773048573
 20
4.7612936226
 30
0.0
 10
1.7797439908
 20
4.7602136554
 30
0.0
 10
1.7829759115
 20
4.7593255087
 30
0.0
 10
1.7856538966
 20
4.7591373818
 30
0.0
 10
1.7869837119
 20
4.7591822513
 30
0.0
  0
SPLINE
  5
551
100
AcDbEntity
  8
ALL_ASSEMBLY_MEMBERS
100
AcDbSpline
 62
7
  6
CONTINUOUS
 70
0
 71
3
 72
18
 73
14
 74
0
 42
0.0000001
 43
0.0000001
 44
0.0000000001
 40
0.0
 40
0.0
 40
0.0
 40
0.0
 40
0.1242073447
 40
0.1866734905
 40
0.2490882149
 40
0.373686083
 40
0.4985092054
 40
0.5610883401
 40
0.6236947881
 40
0.6863410779
 40
0.7490615045
 40
0.8746371798
 40
1.0
 40
1.0
 40
1.0
 40
1.0
 10
1.7663796584
 20
4.9461612083
 30
0.0
 10
1.7663796584
 20
4.9474581421
 30
0.0
 10
1.7665772628
 20
4.9494140488
 30
0.0
 10
1.7672139282
 20
4.9519388927
 30
0.0
 10
1.7681011632
 20
4.9543923667
 30
0.0
 10
1.769661387
 20
4.9572761568
 30
0.0
 10
1.771760549
 20
4.9597968332
 30
0.0
 10
1.773708402
 20
4.9615400206
 30
0.0
 10
1.775294015
 20
4.9626999709
 30
0.0
 10
1.7769875624
 20
4.9636984576
 30
0.0
 10
1.7793666063
 20
4.9648051129
 30
0.0
 10
1.7825262264
 20
4.9657450379
 30
0.0
 10
1.7851547561
 20
4.9659935475
 30
0.0
 10
1.7864637146
 20
4.965983262
 30
0.0
  0
SPLINE
  5
552
100
AcDbEntity
  8
ALL_ASSEMBLY_MEMBERS
100
AcDbSpline
 62
7
  6
CONTINUOUS
 70
0
 71
3
 72
15
 73
11
 74
0
 42
0.0000001
 43
0.0000001
 44
0.0000000001
 40
0.0
 40
0.0
 40
0.0
 40
0.0
 40
0.2408363224
 40
0.3636973501
 40
0.4880861385
 40
0.6139961926
 40
0.6775225476
 40
0.7414225025
 40
0.8702798058
 40
1.0
 40
1.0
 40
1.0
 40
1.0
 10
3.0297345052
 20
4.9881012955
 30
0.0
 10
3.0285785231
 20
4.9846928895
 30
0.0
 10
3.0266011599
 20
4.9796199089
 30
0.0
 10
3.0234941156
 20
4.9730184827
 30
0.0
 10
3.0208620544
 20
4.968098988
 30
0.0
 10
3.0184119744
 20
4.9640960216
 30
0.0
 10
3.0162726094
 20
4.9609716092
 30
0.0
 10
3.013991402
 20
4.9578940984
 30
0.0
 10
3.0108701868
 20
4.9542130945
 30
0.0
 10
3.0080493735
 20
4.9515528075
 30
0.0
 10
3.0065439778
 20
4.9503314129
 30
0.0
  0
SPLINE
  5
553
100
AcDbEntity
  8
ALL_ASSEMBLY_MEMBERS
100
AcDbSpline
 62
7
  6
CONTINUOUS
 70
0
 71
3
 72
14
 73
10
 74
0
 42
0.0000001
 43
0.0000001
 44
0.0000000001
 40
0.0
 40
0.0
 40
0.0
 40
0.0
 40
0.2199037694
 40
0.45649686
 40
0.5822776207
 40
0.6473767917
 40
0.7141139391
 40
0.8532024431
 40
1.0
 40
1.0
 40
1.0
 40
1.0
 10
3.0297345851
 20
4.988101303
 30
0.0
 10
3.0276246704
 20
4.9862875082
 30
0.0
 10
3.023133719
 20
4.9826498344
 30
0.0
 10
3.0171462112
 20
4.9783486637
 30
0.0
 10
3.0126009444
 20
4.9754147956
 30
0.0
 10
3.0098099579
 20
4.9737305768
 30
0.0
 10
3.0068365895
 20
4.9720242339
 30
0.0
 10
3.002880958
 20
4.9699556704
 30
0.0
 10
2.9995694038
 20
4.9684897604
 30
0.0
 10
2.9978399468
 20
4.9678123779
 30
0.0
  0
SPLINE
  5
554
100
AcDbEntity
  8
ALL_ASSEMBLY_MEMBERS
100
AcDbSpline
 62
7
  6
CONTINUOUS
 70
0
 71
3
 72
9
 73
5
 74
0
 42
0.0000001
 43
0.0000001
 44
0.0000000001
 40
0.0
 40
0.0
 40
0.0
 40
0.0
 40
0.4999938225
 40
1.0
 40
1.0
 40
1.0
 40
1.0
 10
3.0065439778
 20
4.9503314129
 30
0.0
 10
3.002963813
 20
4.9486532161
 30
0.0
 10
2.9954016792
 20
4.9460992981
 30
0.0
 10
2.9874698483
 20
4.9452482649
 30
0.0
 10
2.9835157756
 20
4.9452507321
 30
0.0
  0
SPLINE
  5
555
100
AcDbEntity
  8
ALL_ASSEMBLY_MEMBERS
100
AcDbSpline
 62
7
  6
CONTINUOUS
 70
0
 71
3
 72
9
 73
5
 74
0
 42
0.0000001
 43
0.0000001
 44
0.0000000001
 40
0.0
 40
0.0
 40
0.0
 40
0.0
 40
0.4999947093
 40
1.0
 40
1.0
 40
1.0
 40
1.0
 10
2.9978400858
 20
4.9678120743
 30
0.0
 10
2.9954721112
 20
4.966884543
 30
0.0
 10
2.99053235
 20
4.9655191737
 30
0.0
 10
2.9854260509
 20
4.9651316141
 30
0.0
 10
2.9828833473
 20
4.9651821129
 30
0.0
  0
SPLINE
  5
556
100
AcDbEntity
  8
ALL_ASSEMBLY_MEMBERS
100
AcDbSpline
 62
7
  6
CONTINUOUS
 70
0
 71
3
 72
15
 73
11
 74
0
 42
0.0000001
 43
0.0000001
 44
0.0000000001
 40
0.0
 40
0.0
 40
0.0
 40
0.0
 40
0.3292538881
 40
0.4835775849
 40
0.6253538208
 40
0.750918036
 40
0.8570543482
 40
0.9408310297
 40
0.9736201589
 40
1.0
 40
1.0
 40
1.0
 40
1.0
 10
3.0065439765
 20
4.9503314129
 30
0.0
 10
3.0056348652
 20
4.9522727838
 30
0.0
 10
3.0042855592
 20
4.9551175383
 30
0.0
 10
3.0025094737
 20
4.9587812751
 30
0.0
 10
3.0012960169
 20
4.9612439118
 30
0.0
 10
3.0002042397
 20
4.9634166887
 30
0.0
 10
2.9992631815
 20
4.9652424476
 30
0.0
 10
2.9985801192
 20
4.9665215821
 30
0.0
 10
2.998124656
 20
4.9673332288
 30
0.0
 10
2.9979296619
 20
4.9676655306
 30
0.0
 10
2.9978400858
 20
4.9678120743
 30
0.0
  0
SPLINE
  5
557
100
AcDbEntity
  8
ALL_ASSEMBLY_MEMBERS
100
AcDbSpline
 62
7
  6
CONTINUOUS
 70
0
 71
3
 72
13
 73
9
 74
0
 42
0.0000001
 43
0.0000001
 44
0.0000000001
 40
0.0
 40
0.0
 40
0.0
 40
0.0
 40
0.2499984554
 40
0.3749962949
 40
0.4999942941
 40
0.6249931093
 40
0.749993373
 40
1.0
 40
1.0
 40
1.0
 40
1.0
 10
2.9828833473
 20
4.9651819468
 30
0.0
 10
2.8831823091
 20
4.9652307658
 30
0.0
 10
2.7336313482
 20
4.9653787429
 30
0.0
 10
2.5342304195
 20
4.9656025383
 30
0.0
 10
2.3846801341
 20
4.9657594951
 30
0.0
 10
2.2351288568
 20
4.9658915571
 30
0.0
 10
2.0357232846
 20
4.9660121741
 30
0.0
 10
1.8861680149
 20
4.9660238401
 30
0.0
 10
1.7864637141
 20
4.9659832487
 30
0.0
  0
SPLINE
  5
558
100
AcDbEntity
  8
ALL_ASSEMBLY_MEMBERS
100
AcDbSpline
 62
7
  6
CONTINUOUS
 70
0
 71
3
 72
21
 73
17
 74
0
 42
0.0000001
 43
0.0000001
 44
0.0000000001
 40
0.0
 40
0.0
 40
0.0
 40
0.0
 40
0.1851624019
 40
0.3642602366
 40
0.5306070324
 40
0.6786748093
 40
0.7442711906
 40
0.8034388956
 40
0.8556618366
 40
0.9005354812
 40
0.9376663209
 40
0.9667254786
 40
0.978169507
 40
0.9875328919
 40
0.9948063473
 40
1.0
 40
1.0
 40
1.0
 40
1.0
 10
2.9835157755
 20
4.9452507321
 30
0.0
 10
2.9835164406
 20
4.9464825096
 30
0.0
 10
2.9835099035
 20
4.9489057318
 30
0.0
 10
2.9834770951
 20
4.9524354271
 30
0.0
 10
2.9834222984
 20
4.9557180514
 30
0.0
 10
2.9833579527
 20
4.9582452749
 30
0.0
 10
2.9832953023
 20
4.9600591962
 30
0.0
 10
2.9832462511
 20
4.9612355792
 30
0.0
 10
2.9831936503
 20
4.9622737968
 30
0.0
 10
2.9831381884
 20
4.9631650457
 30
0.0
 10
2.9830803428
 20
4.9639016387
 30
0.0
 10
2.9830277483
 20
4.9644155377
 30
0.0
 10
2.9829827555
 20
4.9647442206
 30
0.0
 10
2.9829517004
 20
4.9649285128
 30
0.0
 10
2.9829207051
 20
4.9650703703
 30
0.0
 10
2.9828967539
 20
4.9651501036
 30
0.0
 10
2.9828833473
 20
4.9651819468
 30
0.0
  0
SPLINE
  5
559
100
AcDbEntity
  8
ALL_ASSEMBLY_MEMBERS
100
AcDbSpline
 62
7
  6
CONTINUOUS
 70
0
 71
3
 72
13
 73
9
 74
0
 42
0.0000001
 43
0.0000001
 44
0.0000000001
 40
0.0
 40
0.0
 40
0.0
 40
0.0
 40
0.2499999941
 40
0.3749999977
 40
0.4999999961
 40
0.6249999932
 40
0.749999999
 40
1.0
 40
1.0
 40
1.0
 40
1.0
 10
2.9835157756
 20
4.9452507321
 30
0.0
 10
2.8838128545
 20
4.9453044742
 30
0.0
 10
2.7342585211
 20
4.9454670576
 30
0.0
 10
2.5348528094
 20
4.9457193569
 30
0.0
 10
2.3852985107
 20
4.9458995023
 30
0.0
 10
2.2357441788
 20
4.9460519956
 30
0.0
 10
2.0363383478
 20
4.9461900309
 30
0.0
 10
1.8867839086
 20
4.946201956
 30
0.0
 10
1.7870809812
 20
4.9461552497
 30
0.0
  0
SPLINE
  5
55A
100
AcDbEntity
  8
ALL_FEATURES
100
AcDbSpline
 62
7
  6
CONTINUOUS
 70
0
 71
3
 72
9
 73
5
 74
0
 42
0.0000001
 43
0.0000001
 44
0.0000000001
 40
0.0
 40
0.0
 40
0.0
 40
0.0
 40
0.5004528219
 40
1.0
 40
1.0
 40
1.0
 40
1.0
 10
5.5211983808
 20
2.6786469012
 30
0.0
 10
5.5252156519
 20
2.6918655274
 30
0.0
 10
5.5312922926
 20
2.7188945897
 30
0.0
 10
5.5341125534
 20
2.7464086146
 30
0.0
 10
5.5348811795
 20
2.7601777674
 30
0.0
  0
SPLINE
  5
55B
100
AcDbEntity
  8
ALL_FEATURES
100
AcDbSpline
 62
7
  6
CONTINUOUS
 70
0
 71
3
 72
10
 73
6
 74
0
 42
0.0000001
 43
0.0000001
 44
0.0000000001
 40
0.0
 40
0.0
 40
0.0
 40
0.0
 40
0.250001431
 40
0.5000040489
 40
1.0
 40
1.0
 40
1.0
 40
1.0
 10
5.5588464465
 20
3.0318333078
 30
0.0
 10
5.5568729702
 20
3.0094135525
 30
0.0
 10
5.5528150731
 20
2.9645836547
 30
0.0
 10
5.5445615221
 20
2.8749380675
 30
0.0
 10
5.5385965147
 20
2.807680699
 30
0.0
 10
5.5350847605
 20
2.7628056312
 30
0.0
  0
SPLINE
  5
55C
100
AcDbEntity
  8
ALL_FEATURES
100
AcDbSpline
 62
7
  6
CONTINUOUS
 70
0
 71
3
 72
10
 73
6
 74
0
 42
0.0000001
 43
0.0000001
 44
0.0000000001
 40
0.0
 40
0.0
 40
0.0
 40
0.0
 40
0.2500015215
 40
0.5000042133
 40
1.0
 40
1.0
 40
1.0
 40
1.0
 10
4.7609128703
 20
3.0318333078
 30
0.0
 10
4.7629002473
 20
3.0092556324
 30
0.0
 10
4.7669875101
 20
2.9641100306
 30
0.0
 10
4.7752995437
 20
2.8738330826
 30
0.0
 10
4.7812994829
 20
2.8061012672
 30
0.0
 10
4.7848226916
 20
2.7609091027
 30
0.0
  0
SPLINE
  5
55D
100
AcDbEntity
  8
0
100
AcDbSpline
 62
7
  6
CONTINUOUS
 70
0
 71
3
 72
9
 73
5
 74
0
 42
0.0000001
 43
0.0000001
 44
0.0000000001
 40
0.0
 40
0.0
 40
0.0
 40
0.0
 40
0.2499747269
 40
1.0
 40
1.0
 40
1.0
 40
1.0
 10
4.7865732601
 20
2.7377864158
 30
0.0
 10
4.7870398332
 20
2.7329280873
 30
0.0
 10
4.789170512
 20
2.7135199769
 30
0.0
 10
4.7924255363
 20
2.6942281911
 30
0.0
 10
4.7955958181
 20
2.6799314595
 30
0.0
  0
SPLINE
  5
55E
100
AcDbEntity
  8
0
100
AcDbSpline
 62
7
  6
CONTINUOUS
 70
0
 71
3
 72
48
 73
44
 74
0
 42
0.0000001
 43
0.0000001
 44
0.0000000001
 40
0.0
 40
0.0
 40
0.0
 40
0.0
 40
0.0309897939
 40
0.0619895493
 40
0.0930305272
 40
0.1241070917
 40
0.1396662058
 40
0.1552402134
 40
0.1708271345
 40
0.1864254609
 40
0.2020349868
 40
0.2176576955
 40
0.2332947372
 40
0.248944156
 40
0.2646013819
 40
0.280265618
 40
0.3116194916
 40
0.3430003409
 40
0.3743943408
 40
0.4058087616
 40
0.4372188477
 40
0.5000343718
 40
0.5314577239
 40
0.5628694421
 40
0.5942805925
 40
0.6256936113
 40
0.6570850159
 40
0.6884646923
 40
0.719813303
 40
0.7354754638
 40
0.7511313147
 40
0.766778169
 40
0.7824119261
 40
0.7980313373
 40
0.8136381551
 40
0.8292338905
 40
0.8448179652
 40
0.8603886375
 40
0.8759444263
 40
0.8914894455
 40
0.9070267797
 40
0.9380620914
 40
1.0
 40
1.0
 40
1.0
 40
1.0
 10
4.7968163509
 20
2.6745896708
 30
0.0
 10
4.7991089403
 20
2.6648461606
 30
0.0
 10
4.8043918577
 20
2.6455105455
 30
0.0
 10
4.8146086819
 20
2.617215122
 30
0.0
 10
4.8273133763
 20
2.5899074733
 30
0.0
 10
4.84004704
 20
2.5682367026
 30
0.0
 10
4.8515433575
 20
2.5517472267
 30
0.0
 10
4.860821991
 20
2.5398371682
 30
0.0
 10
4.8707267473
 20
2.528426175
 30
0.0
 10
4.8812345409
 20
2.517551574
 30
0.0
 10
4.8923238833
 20
2.5072535172
 30
0.0
 10
4.903960679
 20
2.4975593043
 30
0.0
 10
4.9160972228
 20
2.4884777189
 30
0.0
 10
4.9286893626
 20
2.4800197578
 30
0.0
 10
4.9416953697
 20
2.4721961162
 30
0.0
 10
4.9595340883
 20
2.4626117017
 30
0.0
 10
4.9826504139
 20
2.4521850779
 30
0.0
 10
5.0113483037
 20
2.442050267
 30
0.0
 10
5.0407535976
 20
2.4341427255
 30
0.0
 10
5.0706405102
 20
2.4282899875
 30
0.0
 10
5.1108932894
 20
2.4229783527
 30
0.0
 10
5.1515251555
 20
2.421131847
 30
0.0
 10
5.192105638
 20
2.4222328333
 30
0.0
 10
5.2224654261
 20
2.424679146
 30
0.0
 10
5.2526309839
 20
2.4288736405
 30
0.0
 10
5.2824709215
 20
2.4349564184
 30
0.0
 10
5.3118064647
 20
2.4431157522
 30
0.0
 10
5.3404051186
 20
2.4535206453
 30
0.0
 10
5.3634105427
 20
2.4641850983
 30
0.0
 10
5.3811391799
 20
2.4739661264
 30
0.0
 10
5.3940519633
 20
2.4819391504
 30
0.0
 10
5.4065416356
 20
2.4905436808
 30
0.0
 10
5.4185652418
 20
2.4997695511
 30
0.0
 10
5.4300786081
 20
2.5096055813
 30
0.0
 10
5.4410338499
 20
2.5200421766
 30
0.0
 10
5.4514028697
 20
2.5310454517
 30
0.0
 10
5.4611632069
 20
2.542576578
 30
0.0
 10
5.470291788
 20
2.5545978378
 30
0.0
 10
5.4787642015
 20
2.5670747275
 30
0.0
 10
5.4865799987
 20
2.5799599141
 30
0.0
 10
5.4961316994
 20
2.5976128812
 30
0.0
 10
5.5105915579
 20
2.6295877205
 30
0.0
 10
5.5193116877
 20
2.6584967639
 30
0.0
 10
5.523732457
 20
2.678007935
 30
0.0
  0
SPLINE
  5
55F
100
AcDbEntity
  8
0
100
AcDbSpline
 62
7
  6
CONTINUOUS
 70
0
 71
3
 72
9
 73
5
 74
0
 42
0.0000001
 43
0.0000001
 44
0.0000000001
 40
0.0
 40
0.0
 40
0.0
 40
0.0
 40
0.2501494681
 40
1.0
 40
1.0
 40
1.0
 40
1.0
 10
5.5241636276
 20
2.6799314596
 30
0.0
 10
5.5252211779
 20
2.6847006705
 30
0.0
 10
5.5291240917
 20
2.7038376039
 30
0.0
 10
5.5317874539
 20
2.7232199638
 30
0.0
 10
5.5331870273
 20
2.7377964236
 30
0.0
  0
SPLINE
  5
560
100
AcDbEntity
  8
ALL_FEATURES
100
AcDbSpline
 62
7
  6
CONTINUOUS
 70
0
 71
3
 72
9
 73
5
 74
0
 42
0.0000001
 43
0.0000001
 44
0.0000000001
 40
0.0
 40
0.0
 40
0.0
 40
0.0
 40
0.4995162363
 40
1.0
 40
1.0
 40
1.0
 40
1.0
 10
4.7848788799
 20
2.7601778088
 30
0.0
 10
4.7856802168
 20
2.7458267503
 30
0.0
 10
4.7886766271
 20
2.7171491171
 30
0.0
 10
4.795241936
 20
2.6890165768
 30
0.0
 10
4.7996039367
 20
2.6752918157
 30
0.0
  0
LINE
  5
561
100
AcDbEntity
  8
ALL_FEATURES
100
AcDbLine
 62
7
  6
CONTINUOUS
 10
5.5548899484
 20
3.0421909546
 11
5.5588464465
 21
3.0318333078
  0
SPLINE
  5
562
100
AcDbEntity
  8
ALL_FEATURES
100
AcDbSpline
 62
7
  6
CONTINUOUS
 70
0
 71
3
 72
45
 73
41
 74
0
 42
0.0000001
 43
0.0000001
 44
0.0000000001
 40
0.0
 40
0.0
 40
0.0
 40
0.0
 40
0.0305843456
 40
0.0612929926
 40
0.0766986857
 40
0.0921361319
 40
0.1076110385
 40
0.123121179
 40
0.1386620629
 40
0.1542300067
 40
0.1698280906
 40
0.1854562533
 40
0.2011067639
 40
0.2167718301
 40
0.2481527233
 40
0.2795862563
 40
0.3110485059
 40
0.3425349012
 40
0.3740352924
 40
0.4370491647
 40
0.4685651778
 40
0.5000817319
 40
0.5631100257
 40
0.5946236138
 40
0.6261313611
 40
0.6576296467
 40
0.6891121553
 40
0.720568522
 40
0.7519947751
 40
0.78336333
 40
0.799023887
 40
0.814669362
 40
0.8302899731
 40
0.8458798049
 40
0.8614405752
 40
0.8769738051
 40
0.9079242747
 40
0.9387359371
 40
0.9694271769
 40
1.0
 40
1.0
 40
1.0
 40
1.0
 10
4.7996039367
 20
2.6752918157
 30
0.0
 10
4.8022927171
 20
2.6668317375
 30
0.0
 10
4.8085111907
 20
2.6501250808
 30
0.0
 10
4.818563325
 20
2.6302023881
 30
0.0
 10
4.8280142204
 20
2.6150300904
 30
0.0
 10
4.8358291797
 20
2.6040794133
 30
0.0
 10
4.8443553859
 20
2.5936341004
 30
0.0
 10
4.8535497455
 20
2.5837311452
 30
0.0
 10
4.8633723533
 20
2.5744115308
 30
0.0
 10
4.8737869478
 20
2.5657190243
 30
0.0
 10
4.8847323239
 20
2.5576638574
 30
0.0
 10
4.8961440819
 20
2.5502417508
 30
0.0
 10
4.9079633762
 20
2.5434491667
 30
0.0
 10
4.9242006108
 20
2.5352177366
 30
0.0
 10
4.9452475561
 20
2.5264162653
 30
0.0
 10
4.9713069602
 20
2.5179852511
 30
0.0
 10
4.9979227631
 20
2.5114186843
 30
0.0
 10
5.0248952105
 20
2.5064445357
 30
0.0
 10
5.0611580596
 20
2.5016127782
 30
0.0
 10
5.0976821189
 20
2.4990348436
 30
0.0
 10
5.1342526437
 20
2.4979701094
 30
0.0
 10
5.170842003
 20
2.4977055647
 30
0.0
 10
5.2074390394
 20
2.4983691698
 30
0.0
 10
5.2439628653
 20
2.5005978119
 30
0.0
 10
5.2712773609
 20
2.5032299541
 30
0.0
 10
5.2984494707
 20
2.5070195544
 30
0.0
 10
5.325382033
 20
2.5121896312
 30
0.0
 10
5.3519358215
 20
2.5189864518
 30
0.0
 10
5.3779016697
 20
2.5276814997
 30
0.0
 10
5.3988362348
 20
2.5367331063
 30
0.0
 10
5.4149552565
 20
2.5451805495
 30
0.0
 10
5.4266718847
 20
2.5521393639
 30
0.0
 10
5.437965944
 20
2.5597288889
 30
0.0
 10
5.448777539
 20
2.5679519596
 30
0.0
 10
5.4590403376
 20
2.576813909
 30
0.0
 10
5.4719017161
 20
2.5894326274
 30
0.0
 10
5.4863979279
 20
2.6066441258
 30
0.0
 10
5.500932563
 20
2.6292834158
 30
0.0
 10
5.5126307751
 20
2.6533745385
 30
0.0
 10
5.5186180943
 20
2.6701565997
 30
0.0
 10
5.5211983808
 20
2.6786469012
 30
0.0
  0
SPLINE
  5
563
100
AcDbEntity
  8
ALL_FEATURES
100
AcDbSpline
 62
7
  6
CONTINUOUS
 70
0
 71
3
 72
10
 73
6
 74
0
 42
0.0000001
 43
0.0000001
 44
0.0000000001
 40
0.0
 40
0.0
 40
0.0
 40
0.0
 40
0.5451379142
 40
0.7847678519
 40
1.0
 40
1.0
 40
1.0
 40
1.0
 10
4.7681992907
 20
3.116574888
 30
0.0
 10
4.7683023653
 20
3.1084814625
 30
0.0
 10
4.7683833241
 20
3.0968289635
 30
0.0
 10
4.7682622392
 20
3.0819814602
 30
0.0
 10
4.7681220105
 20
3.075228926
 30
0.0
 10
4.7680272441
 20
3.0720346142
 30
0.0
  0
SPLINE
  5
564
100
AcDbEntity
  8
ALL_FEATURES
100
AcDbSpline
 62
7
  6
CONTINUOUS
 70
0
 71
3
 72
13
 73
9
 74
0
 42
0.0000001
 43
0.0000001
 44
0.0000000001
 40
0.0
 40
0.0
 40
0.0
 40
0.0
 40
0.3383332688
 40
0.6188865697
 40
0.7368626918
 40
0.8397283526
 40
0.927418886
 40
1.0
 40
1.0
 40
1.0
 40
1.0
 10
4.7677898315
 20
3.0655465438
 30
0.0
 10
4.7676775264
 20
3.0630164239
 30
0.0
 10
4.7674258668
 20
3.0583901681
 30
0.0
 10
4.7669569446
 20
3.052892504
 30
0.0
 10
4.7664906437
 20
3.0491678806
 30
0.0
 10
4.7661267397
 20
3.0468865317
 30
0.0
 10
4.7657282403
 20
3.0449568553
 30
0.0
 10
4.7654102331
 20
3.0437983029
 30
0.0
 10
4.7652379676
 20
3.0432830263
 30
0.0
  0
LINE
  5
565
100
AcDbEntity
  8
ALL_FEATURES
100
AcDbLine
 62
7
  6
CONTINUOUS
 10
4.7648693679
 20
3.0421909531
 11
4.7609128703
 21
3.0318333078
  0
SPLINE
  5
566
100
AcDbEntity
  8
ALL_FEATURES
100
AcDbSpline
 62
7
  6
CONTINUOUS
 70
0
 71
3
 72
18
 73
14
 74
0
 42
0.0000001
 43
0.0000001
 44
0.0000000001
 40
0.0
 40
0.0
 40
0.0
 40
0.0
 40
0.1283209146
 40
0.2561216743
 40
0.3830057296
 40
0.5087635988
 40
0.5711853262
 40
0.6332999858
 40
0.6951095831
 40
0.7566215278
 40
0.817849579
 40
0.8788080732
 40
1.0
 40
1.0
 40
1.0
 40
1.0
 10
4.7411296601
 20
3.7359973285
 30
0.0
 10
4.7371620045
 20
3.8332566633
 30
0.0
 10
4.729485216
 20
4.0273911452
 30
0.0
 10
4.7190323159
 20
4.3177400271
 30
0.0
 10
4.7100196435
 20
4.6061924882
 30
0.0
 10
4.703990517
 20
4.8451158202
 30
0.0
 10
4.7002265012
 20
5.0349442788
 30
0.0
 10
4.6979520367
 20
5.1762825674
 30
0.0
 10
4.6962431384
 20
5.3169386638
 30
0.0
 10
4.6951035329
 20
5.4569279319
 30
0.0
 10
4.6945100252
 20
5.5962749568
 30
0.0
 10
4.6944273899
 20
5.7808945697
 30
0.0
 10
4.6951108756
 20
5.919067823
 30
0.0
 10
4.6958408332
 20
6.0109973284
 30
0.0
  0
SPLINE
  5
567
100
AcDbEntity
  8
ALL_FEATURES
100
AcDbSpline
 62
7
  6
CONTINUOUS
 70
0
 71
3
 72
16
 73
12
 74
0
 42
0.0000001
 43
0.0000001
 44
0.0000000001
 40
0.0
 40
0.0
 40
0.0
 40
0.0
 40
0.2568777314
 40
0.3840031987
 40
0.5098702572
 40
0.6343573465
 40
0.6960789743
 40
0.7574612282
 40
0.8185218079
 40
0.8792795502
 40
1.0
 40
1.0
 40
1.0
 40
1.0
 10
4.7723536798
 20
3.7372812382
 30
0.0
 10
4.7644735424
 20
3.9319262174
 30
0.0
 10
4.7525356478
 20
4.2228921074
 30
0.0
 10
4.7372893248
 20
4.6092540337
 30
0.0
 10
4.7265238244
 20
4.8953151641
 30
0.0
 10
4.7182583983
 20
5.1318353817
 30
0.0
 10
4.7122393511
 20
5.3195007778
 30
0.0
 10
4.7080737921
 20
5.4591007505
 30
0.0
 10
4.7042959233
 20
5.597980607
 30
0.0
 10
4.6998536553
 20
5.7818575217
 30
0.0
 10
4.6972261545
 20
5.9194588939
 30
0.0
 10
4.6958408332
 20
6.0109973284
 30
0.0
  0
SPLINE
  5
568
100
AcDbEntity
  8
ALL_FEATURES
100
AcDbSpline
 62
7
  6
CONTINUOUS
 70
0
 71
3
 72
11
 73
7
 74
0
 42
0.0000001
 43
0.0000001
 44
0.0000000001
 40
0.0
 40
0.0
 40
0.0
 40
0.0
 40
0.2455044199
 40
0.4946914873
 40
0.7466079068
 40
1.0
 40
1.0
 40
1.0
 40
1.0
 10
4.8160900602
 20
2.75297246
 30
0.0
 10
4.8123121582
 20
2.8334089763
 30
0.0
 10
4.8047284717
 20
2.9954899452
 30
0.0
 10
4.7935467018
 20
3.2401212023
 30
0.0
 10
4.7826714699
 20
3.4873560228
 30
0.0
 10
4.7757606199
 20
3.6529527351
 30
0.0
 10
4.7724056595
 20
3.7359973284
 30
0.0
  0
SPLINE
  5
569
100
AcDbEntity
  8
ALL_FEATURES
100
AcDbSpline
 62
7
  6
CONTINUOUS
 70
0
 71
3
 72
11
 73
7
 74
0
 42
0.0000001
 43
0.0000001
 44
0.0000000001
 40
0.0
 40
0.0
 40
0.0
 40
0.0
 40
0.2174211322
 40
0.4483955639
 40
0.7060800799
 40
1.0
 40
1.0
 40
1.0
 40
1.0
 10
4.7848796616
 20
2.7601778524
 30
0.0
 10
4.7848934835
 20
2.7599101461
 30
0.0
 10
4.785005303
 20
2.7593593491
 30
0.0
 10
4.7854133994
 20
2.7585799003
 30
0.0
 10
4.7860509336
 20
2.7578465774
 30
0.0
 10
4.7865857457
 20
2.7574212772
 30
0.0
 10
4.7868828867
 20
2.7572138494
 30
0.0
  0
SPLINE
  5
56A
100
AcDbEntity
  8
ALL_FEATURES
100
AcDbSpline
 62
7
  6
CONTINUOUS
 70
0
 71
3
 72
16
 73
12
 74
0
 42
0.0000001
 43
0.0000001
 44
0.0000000001
 40
0.0
 40
0.0
 40
0.0
 40
0.0
 40
0.0761772557
 40
0.1695631946
 40
0.2794404297
 40
0.4041400719
 40
0.4713287593
 40
0.54131823
 40
0.6883757147
 40
0.8424918222
 40
1.0
 40
1.0
 40
1.0
 40
1.0
 10
4.7868828867
 20
2.7572138494
 30
0.0
 10
4.787504707
 20
2.75677977
 30
0.0
 10
4.7890103472
 20
2.7559906442
 30
0.0
 10
4.7916313146
 20
2.7550472183
 30
0.0
 10
4.7948001972
 20
2.7542428656
 30
0.0
 10
4.7977617147
 20
2.75372561
 30
0.0
 10
4.8003479989
 20
2.7533952425
 30
0.0
 10
4.8031646341
 20
2.7531209832
 30
0.0
 10
4.8068549038
 20
2.7529094034
 30
0.0
 10
4.8114211606
 20
2.7528235611
 30
0.0
 10
4.8145239838
 20
2.7528949667
 30
0.0
 10
4.8160900602
 20
2.75297246
 30
0.0
  0
SPLINE
  5
56B
100
AcDbEntity
  8
ALL_FEATURES
100
AcDbSpline
 62
7
  6
CONTINUOUS
 70
0
 71
3
 72
50
 73
46
 74
0
 42
0.0000001
 43
0.0000001
 44
0.0000000001
 40
0.0
 40
0.0
 40
0.0
 40
0.0
 40
0.0305248067
 40
0.0610262358
 40
0.0915292527
 40
0.106796856
 40
0.1220938832
 40
0.1527652562
 40
0.1681825271
 40
0.1836578238
 40
0.1991897839
 40
0.2147811473
 40
0.2304346612
 40
0.2461380251
 40
0.2776526239
 40
0.2934713823
 40
0.3093070132
 40
0.3410234499
 40
0.3727856109
 40
0.4045753654
 40
0.4363795402
 40
0.4681902575
 40
0.5000032388
 40
0.5159102574
 40
0.5318168414
 40
0.5636274958
 40
0.5954315598
 40
0.6272207695
 40
0.6589816447
 40
0.6906967799
 40
0.7065307909
 40
0.7223476739
 40
0.7538610765
 40
0.7695642616
 40
0.7852178982
 40
0.8008095216
 40
0.8163417064
 40
0.8318172339
 40
0.8472347529
 40
0.8779063276
 40
0.8932035188
 40
0.9084711752
 40
0.9389739809
 40
0.9694753151
 40
1.0
 40
1.0
 40
1.0
 40
1.0
 10
4.8160899843
 20
2.7529724751
 30
0.0
 10
4.8166273392
 20
2.7433431255
 30
0.0
 10
4.8183638491
 20
2.7241180007
 30
0.0
 10
4.8233999778
 20
2.6956027096
 30
0.0
 10
4.8299932565
 20
2.6723650142
 30
0.0
 10
4.8369647729
 20
2.6543595832
 30
0.0
 10
4.8451582981
 20
2.636821058
 30
0.0
 10
4.8552614438
 20
2.6201587024
 30
0.0
 10
4.8673035817
 20
2.6048608115
 30
0.0
 10
4.8772857171
 20
2.5940910888
 30
0.0
 10
4.8881402123
 20
2.5841207542
 30
0.0
 10
4.8997958629
 20
2.5750103623
 30
0.0
 10
4.9121327446
 20
2.5667515454
 30
0.0
 10
4.9293712876
 20
2.5568556356
 30
0.0
 10
4.9475641071
 20
2.5486194815
 30
0.0
 10
4.966337137
 20
2.5418307279
 30
0.0
 10
4.9854705845
 20
2.535908506
 30
0.0
 10
5.0098590824
 20
2.5300328985
 30
0.0
 10
5.0395485237
 20
2.5249742219
 30
0.0
 10
5.0694922394
 20
2.5215404727
 30
0.0
 10
5.0995676254
 20
2.5194128934
 30
0.0
 10
5.1297028896
 20
2.5183212757
 30
0.0
 10
5.1548316573
 20
2.5180739659
 30
0.0
 10
5.1749345445
 20
2.5181745577
 30
0.0
 10
5.1950343658
 20
2.5185008584
 30
0.0
 10
5.220146737
 20
2.5194099864
 30
0.0
 10
5.2502219265
 20
2.5215357818
 30
0.0
 10
5.2801653408
 20
2.5249669437
 30
0.0
 10
5.3098542067
 20
2.53002301
 30
0.0
 10
5.3342421592
 20
2.5358949827
 30
0.0
 10
5.3533752622
 20
2.5418131949
 30
0.0
 10
5.3721479667
 20
2.5485984942
 30
0.0
 10
5.390341476
 20
2.5568305147
 30
0.0
 10
5.4075818958
 20
2.5667223627
 30
0.0
 10
5.4199206806
 20
2.574978445
 30
0.0
 10
5.4315787505
 20
2.5840860304
 30
0.0
 10
5.4424361812
 20
2.5940535012
 30
0.0
 10
5.4524213626
 20
2.6048206983
 30
0.0
 10
5.4644681186
 20
2.6201152229
 30
0.0
 10
5.474575771
 20
2.6367751227
 30
0.0
 10
5.4827736946
 20
2.6543117367
 30
0.0
 10
5.4897496241
 20
2.672315465
 30
0.0
 10
5.496347984
 20
2.6955516694
 30
0.0
 10
5.5013894349
 20
2.7240659129
 30
0.0
 10
5.5031285871
 20
2.7432907694
 30
0.0
 10
5.5036668676
 20
2.7529200288
 30
0.0
  0
SPLINE
  5
56C
100
AcDbEntity
  8
ALL_FEATURES
100
AcDbSpline
 62
7
  6
CONTINUOUS
 70
0
 71
3
 72
22
 73
18
 74
0
 42
0.0000001
 43
0.0000001
 44
0.0000000001
 40
0.0
 40
0.0
 40
0.0
 40
0.0
 40
0.1792630538
 40
0.2668810483
 40
0.3519579756
 40
0.4338201426
 40
0.5118473344
 40
0.5854503843
 40
0.6540531327
 40
0.7171222493
 40
0.7742298703
 40
0.8250063327
 40
0.8693861306
 40
0.907951961
 40
0.941861095
 40
0.9722176539
 40
1.0
 40
1.0
 40
1.0
 40
1.0
 10
5.5036668676
 20
2.7529200288
 30
0.0
 10
5.5056740416
 20
2.7528185616
 30
0.0
 10
5.5086682799
 20
2.7527773283
 30
0.0
 10
5.5126130858
 20
2.7528690369
 30
0.0
 10
5.515464315
 20
2.7529994845
 30
0.0
 10
5.5182035033
 20
2.753204083
 30
0.0
 10
5.5208058382
 20
2.7534934733
 30
0.0
 10
5.5232472548
 20
2.7538668692
 30
0.0
 10
5.5255050805
 20
2.7543169425
 30
0.0
 10
5.5275574641
 20
2.7548380937
 30
0.0
 10
5.5293851421
 20
2.7554191996
 30
0.0
 10
5.5309740456
 20
2.756047783
 30
0.0
 10
5.5323150228
 20
2.7567243087
 30
0.0
 10
5.5333990908
 20
2.7574708346
 30
0.0
 10
5.5342038748
 20
2.7583105325
 30
0.0
 10
5.5347179498
 20
2.7592187531
 30
0.0
 10
5.5348651187
 20
2.759866711
 30
0.0
 10
5.5348811795
 20
2.7601777674
 30
0.0
  0
SPLINE
  5
56D
100
AcDbEntity
  8
ALL_FEATURES
100
AcDbSpline
 62
7
  6
CONTINUOUS
 70
0
 71
3
 72
11
 73
7
 74
0
 42
0.0000001
 43
0.0000001
 44
0.0000000001
 40
0.0
 40
0.0
 40
0.0
 40
0.0
 40
0.2455040144
 40
0.4946909989
 40
0.7466075766
 40
1.0
 40
1.0
 40
1.0
 40
1.0
 10
5.5036666803
 20
2.7529200094
 30
0.0
 10
5.5074447872
 20
2.833360685
 30
0.0
 10
5.5150289816
 20
2.9954501387
 30
0.0
 10
5.5262114411
 20
3.2400943386
 30
0.0
 10
5.5370872642
 20
3.4873424861
 30
0.0
 10
5.5439985082
 20
3.6529481952
 30
0.0
 10
5.5473536573
 20
3.7359973284
 30
0.0
  0
SPLINE
  5
56E
100
AcDbEntity
  8
ALL_FEATURES
100
AcDbSpline
 62
7
  6
CONTINUOUS
 70
0
 71
3
 72
16
 73
12
 74
0
 42
0.0000001
 43
0.0000001
 44
0.0000000001
 40
0.0
 40
0.0
 40
0.0
 40
0.0
 40
0.2568775566
 40
0.3840029668
 40
0.5098699653
 40
0.6343571061
 40
0.6960787233
 40
0.7574610391
 40
0.8185217074
 40
0.8792794888
 40
1.0
 40
1.0
 40
1.0
 40
1.0
 10
5.547405637
 20
3.7372812382
 30
0.0
 10
5.555285775
 20
3.9319260847
 30
0.0
 10
5.5672236722
 20
4.2228917987
 30
0.0
 10
5.5824699474
 20
4.6092535052
 30
0.0
 10
5.5932355286
 20
4.8953145829
 30
0.0
 10
5.6015008064
 20
5.1318347909
 30
0.0
 10
5.6075199902
 20
5.3195002606
 30
0.0
 10
5.6116855724
 20
5.4591003388
 30
0.0
 10
5.6154634046
 20
5.5979803403
 30
0.0
 10
5.6199055627
 20
5.7818574011
 30
0.0
 10
5.6225331209
 20
5.919458848
 30
0.0
 10
5.6239184835
 20
6.0109973284
 30
0.0
  0
SPLINE
  5
56F
100
AcDbEntity
  8
ALL_FEATURES
100
AcDbSpline
 62
7
  6
CONTINUOUS
 70
0
 71
3
 72
18
 73
14
 74
0
 42
0.0000001
 43
0.0000001
 44
0.0000000001
 40
0.0
 40
0.0
 40
0.0
 40
0.0
 40
0.128320871
 40
0.2561215098
 40
0.3830055113
 40
0.5087633293
 40
0.5711850608
 40
0.6332997563
 40
0.6951093574
 40
0.7566213586
 40
0.8178494832
 40
0.8788080147
 40
1.0
 40
1.0
 40
1.0
 40
1.0
 10
5.5786296567
 20
3.7359973285
 30
0.0
 10
5.5825973141
 20
3.8332566301
 30
0.0
 10
5.5902740945
 20
4.0273909875
 30
0.0
 10
5.600726977
 20
4.3177397041
 30
0.0
 10
5.6097396948
 20
4.6061919926
 30
0.0
 10
5.6157687084
 20
4.8451152507
 30
0.0
 10
5.6195328269
 20
5.0349436984
 30
0.0
 10
5.6218073867
 20
5.176282019
 30
0.0
 10
5.6235160592
 20
5.3169381911
 30
0.0
 10
5.6246557119
 20
5.4569275599
 30
0.0
 10
5.6252493265
 20
5.5962747112
 30
0.0
 10
5.625331893
 20
5.7808944527
 30
0.0
 10
5.6246484007
 20
5.9190677782
 30
0.0
 10
5.6239184835
 20
6.0109973284
 30
0.0
  0
SPLINE
  5
570
100
AcDbEntity
  8
ALL_FEATURES
100
AcDbSpline
 62
7
  6
CONTINUOUS
 70
0
 71
3
 72
10
 73
6
 74
0
 42
0.0000001
 43
0.0000001
 44
0.0000000001
 40
0.0
 40
0.0
 40
0.0
 40
0.0
 40
0.5451252556
 40
0.7847578773
 40
1.0
 40
1.0
 40
1.0
 40
1.0
 10
5.5515600273
 20
3.1165754084
 30
0.0
 10
5.5514569838
 20
3.1084836642
 30
0.0
 10
5.5513760465
 20
3.096833464
 30
0.0
 10
5.5514970514
 20
3.0819887003
 30
0.0
 10
5.5516372021
 20
3.0752372235
 30
0.0
 10
5.5517319152
 20
3.072043352
 30
0.0
  0
SPLINE
  5
571
100
AcDbEntity
  8
ALL_FEATURES
100
AcDbSpline
 62
7
  6
CONTINUOUS
 70
0
 71
3
 72
13
 73
9
 74
0
 42
0.0000001
 43
0.0000001
 44
0.0000000001
 40
0.0
 40
0.0
 40
0.0
 40
0.0
 40
0.3383236005
 40
0.618872551
 40
0.7368489657
 40
0.8397170049
 40
0.9274121069
 40
1.0
 40
1.0
 40
1.0
 40
1.0
 10
5.5519692897
 20
3.0655538787
 30
0.0
 10
5.5520815862
 20
3.0630230833
 30
0.0
 10
5.5523332375
 20
3.0583955637
 30
0.0
 10
5.5528021713
 20
3.0528963713
 30
0.0
 10
5.5532684959
 20
3.049170648
 30
0.0
 10
5.5536324254
 20
3.0468885588
 30
0.0
 10
5.5540309578
 20
3.0449581912
 30
0.0
 10
5.5543489883
 20
3.0437991911
 30
0.0
 10
5.5545212642
 20
3.0432836955
 30
0.0
  0
ENDSEC
  0
SECTION
  2
OBJECTS
  0
DICTIONARY
  5
C
100
AcDbDictionary
280
0
281
1
  3
ACAD_GROUP
350
D
  3
ACAD_MLINESTYLE
350
17
  3
ACAD_LAYOUT
350
1A
  3
ACAD_PLOTSETTINGS
350
19
  3
ACAD_PLOTSTYLENAME
350
E
  0
DICTIONARY
  5
D
102
{ACAD_REACTORS
330
C
102
}
100
AcDbDictionary
280
0
281
1
  0
ACDBDICTIONARYWDFLT
  5
E
102
{ACAD_REACTORS
330
C
102
}
100
AcDbDictionary
281
1
  3
Normal
350
F
100
AcDbDictionaryWithDefault
340
F
  0
DICTIONARY
  5
17
102
{ACAD_REACTORS
330
C
102
}
100
AcDbDictionary
280
0
281
1
  3
Standard
350
18
  0
DICTIONARY
  5
19
102
{ACAD_REACTORS
330
C
102
}
100
AcDbDictionary
281
1
  0
DICTIONARY
  5
1A
102
{ACAD_REACTORS
330
C
102
}
100
AcDbDictionary
281
1
  3
Model
350
572
  3
Layout1
350
573
  0
ACDBPLACEHOLDER
  5
F
102
{ACAD_REACTORS
330
E
102
}
  0
MLINESTYLE
  5
18
102
{ACAD_REACTORS
330
17
102
}
100
AcDbMlineStyle
  2
STANDARD
 70
0
  3

 62
256
 51
90.0
 52
90.0
 71
2
 49
0.5
 62
256
  6
BYLAYER
 49
-0.5
 62
256
  6
BYLAYER
  0
LAYOUT
  5
572
102
{ACAD_REACTORS
330
1A
102
}
100
AcDbPlotSettings
  1

  2
none_device
  4
ANSI_A_(11.00_x_8.50_Inches)
  6

 40
0.0
 41
0.0
 42
0.0
 43
0.0
 44
279.4
 45
215.9
 46
0.0
 47
0.0
 48
0.0
 49
0.0
140
0.0
141
0.0
142
1.0
143
1.0
 70
1024
 72
0
 73
0
 74
0
  7

 75
0
147
1.0
148
0.0
149
0.0
100
AcDbLayout
  1
Model
 70
0
 71
0
 10
0.0
 20
0.0
 11
11.0
 21
8.5
 12
0.0
 22
0.0
 32
0.0
 14
0.0
 24
0.0
 34
0.0
 15
0.0
 25
0.0
 35
0.0
146
0.0
 13
0.0
 23
0.0
 33
0.0
 16
1.0
 26
0.0
 36
0.0
 17
0.0
 27
1.0
 37
0.0
 76
0
330
21E
345
0
346
0
  0
LAYOUT
  5
573
102
{ACAD_REACTORS
330
1A
102
}
100
AcDbPlotSettings
  1

  2
none_device
  4
ANSI_A_(11.00_x_8.50_Inches)
  6

 40
0.0
 41
0.0
 42
0.0
 43
0.0
 44
279.4
 45
215.9
 46
0.0
 47
0.0
 48
0.0
 49
0.0
140
0.0
141
0.0
142
1.0
143
1.0
 70
0
 72
0
 73
0
 74
0
  7

 75
0
147
1.0
148
0.0
149
0.0
100
AcDbLayout
  1
Layout1
 70
0
 71
1
 10
0.0
 20
0.0
 11
11.0
 21
8.5
 12
0.0
 22
0.0
 32
0.0
 14
0.0
 24
0.0
 34
0.0
 15
0.0
 25
0.0
 35
0.0
146
0.0
 13
0.0
 23
0.0
 33
0.0
 16
1.0
 26
0.0
 36
0.0
 17
0.0
 27
1.0
 37
0.0
 76
0
330
21F
345
0
346
0
  0
ENDSEC
  0
EOF
