999
DXF file: E:\BT Custom\CADOUTPUT\_FRONT.dxf
999
Pro/ENGINEER 2018400 by Parametric Technology Corporation
  0
SECTION
  2
HEADER
  9
$ACADVER
  1
AC1018
  9
$DWGCODEPAGE
  3
ANSI_1252
  9
$EXTMAX
 10
22.0
 20
17.0
 30
0.0
  9
$EXTMIN
 10
0.0
 20
0.0
 30
0.0
  9
$LIMMIN
 10
0.0
 20
0.0
  9
$LIMMAX
 10
22.0
 20
17.0
  9
$VIEWCTR
 10
11.0
 20
8.5
  9
$VIEWSIZE
 40
17.0
  9
$CLAYER
  8
0
  9
$LTSCALE
 40
1.21
  9
$CELTYPE
  6
BYLAYER
  9
$DIMSCALE
 40
1.0
  9
$DIMASZ
 40
0.1
  9
$DIMEXO
 40
0.0625
  9
$DIMDLI
 40
0.836
  9
$DIMEXE
 40
0.125
  9
$DIMCEN
 40
0.198
  9
$DIMLFAC
 40
1.0
  9
$DIMBLK
  1
_FILLED
  9
$DIMALT
 70
1
  9
$DIMALTD
 70
2
  9
$DIMALTTD
 70
2
  9
$DIMALTF
 40
25.4
  9
$DIMTXT
 40
0.08
  9
$DIMTOL
 70
1
  9
$DIMLIM
 70
0
  9
$DIMTFAC
 40
1.0
  9
$DIMTP
 40
0.001
  9
$DIMTM
 40
0.001
  9
$DIMGAP
 40
0.09
  9
$DIMDSEP
 70
46
  9
$AUNITS
 70
0
  9
$PDMODE
 70
3
  9
$PDSIZE
 40
0.06
  9
$HANDSEED
  5
311
  9
$TILEMODE
 70
1
  9
$MEASUREMENT
 70
0
  9
$INSUNITS
 70
1
  0
ENDSEC
  0
SECTION
  2
CLASSES
  0
CLASS
  1
ACDBDICTIONARYWDFLT
  2
AcDbDictionaryWithDefault
  3
AutoCAD 2000
 90
0
 91
1
280
0
281
0
  0
CLASS
  1
ACDBPLACEHOLDER
  2
AcDbPlaceHolder
  3
AutoCAD 2000
 90
0
 91
1
280
0
281
0
  0
CLASS
  1
LAYOUT
  2
AcDbLayout
  3
AutoCAD 2000
 90
0
 91
0
280
0
281
0
  0
ENDSEC
  0
SECTION
  2
TABLES
  0
TABLE
  2
VPORT
  5
8
100
AcDbSymbolTable
 70
2
  0
VPORT
  5
1F4
100
AcDbSymbolTableRecord
100
AcDbViewportTableRecord
  2
*ACTIVE
 70
0
 10
0.0
 20
0.0
 11
1.0
 21
1.0
 12
11.0
 22
8.5
 13
0.0
 23
0.0
 14
1.0
 24
1.0
 15
0.0
 25
0.0
 16
0.0
 26
0.0
 36
1.0
 17
0.0
 27
0.0
 37
0.0
 40
17.0
 41
1.2941176471
 42
50.0
 43
0.0
 44
0.0
 50
0.0
 51
0.0
 71
0
 72
100
 73
1
 74
1
 75
0
 76
0
 77
0
 78
0
  0
ENDTAB
  0
TABLE
  2
LTYPE
  5
5
100
AcDbSymbolTable
 70
6
  0
LTYPE
  5
14
100
AcDbSymbolTableRecord
100
AcDbLinetypeTableRecord
  2
BYBLOCK
 70
0
  3

 72
65
 73
0
 40
0.0
  0
LTYPE
  5
15
100
AcDbSymbolTableRecord
100
AcDbLinetypeTableRecord
  2
BYLAYER
 70
0
  3

 72
65
 73
0
 40
0.0
  0
LTYPE
  5
16
100
AcDbSymbolTableRecord
100
AcDbLinetypeTableRecord
  2
CONTINUOUS
 70
64
  3
Solid line
 72
65
 73
0
 40
0.0
  0
LTYPE
  5
1F5
100
AcDbSymbolTableRecord
100
AcDbLinetypeTableRecord
  2
CENTER
 70
64
  3
____ _ ____ _ ____ _ ____ _ ____ _ ____ _ ____
 72
65
 73
4
 40
0.6
 49
0.375
 74
0
 49
-0.075
 74
0
 49
0.075
 74
0
 49
-0.075
 74
0
  0
LTYPE
  5
1F6
100
AcDbSymbolTableRecord
100
AcDbLinetypeTableRecord
  2
HIDDEN
 70
64
  3
- - - - - - - - - - - - - - - - - - - -
 72
65
 73
2
 40
0.2
 49
0.1
 74
0
 49
-0.1
 74
0
  0
LTYPE
  5
1F7
100
AcDbSymbolTableRecord
100
AcDbLinetypeTableRecord
  2
PHANTOM
 70
64
  3
_____ _ _ _____ _ _ _____ _ _ _____
 72
65
 73
6
 40
0.8
 49
0.45
 74
0
 49
-0.05
 74
0
 49
0.1
 74
0
 49
-0.05
 74
0
 49
0.1
 74
0
 49
-0.05
 74
0
  0
LTYPE
  5
1F8
100
AcDbSymbolTableRecord
100
AcDbLinetypeTableRecord
  2
DOT
 70
64
  3
. . . . . . . . . . . . . . . . . . . .
 72
65
 73
2
 40
0.2
 49
0.1
 74
0
 49
-0.1
 74
0
  0
LTYPE
  5
1F9
100
AcDbSymbolTableRecord
100
AcDbLinetypeTableRecord
  2
DASHED
 70
64
  3
- - - - - - - - - - - - - - - - - - - -
 72
65
 73
2
 40
0.2
 49
0.1
 74
0
 49
-0.1
 74
0
  0
ENDTAB
  0
TABLE
  2
LAYER
  5
2
100
AcDbSymbolTable
 70
36
  0
LAYER
  5
10
100
AcDbSymbolTableRecord
100
AcDbLayerTableRecord
  2
0
 70
0
 62
7
  6
CONTINUOUS
370
-3
390
F
  0
LAYER
  5
1FA
100
AcDbSymbolTableRecord
100
AcDbLayerTableRecord
  2
DEFAULT_1
 70
0
 62
7
  6
CENTER
370
-3
390
F
  0
LAYER
  5
1FB
100
AcDbSymbolTableRecord
100
AcDbLayerTableRecord
  2
DEFAULT_2
 70
0
 62
8
  6
HIDDEN
370
-3
390
F
  0
LAYER
  5
1FC
100
AcDbSymbolTableRecord
100
AcDbLayerTableRecord
  2
DEFAULT_3
 70
0
 62
7
  6
PHANTOM
370
-3
390
F
  0
LAYER
  5
1FD
100
AcDbSymbolTableRecord
100
AcDbLayerTableRecord
  2
ALL_FEATURES
 70
0
 62
7
  6
CONTINUOUS
370
-3
390
F
  0
LAYER
  5
1FE
100
AcDbSymbolTableRecord
100
AcDbLayerTableRecord
  2
AXES_FEATURES
 70
0
 62
7
  6
CONTINUOUS
370
-3
390
F
  0
LAYER
  5
1FF
100
AcDbSymbolTableRecord
100
AcDbLayerTableRecord
  2
DIMENSIONS
 70
0
 62
7
  6
CONTINUOUS
370
-3
390
F
  0
ENDTAB
  0
TABLE
  2
STYLE
  5
3
100
AcDbSymbolTable
 70
1
  0
STYLE
  5
11
100
AcDbSymbolTableRecord
100
AcDbTextStyleTableRecord
  2
STANDARD
 70
0
 40
0.0
 41
0.8
 50
0.0
 71
0
 42
0.2
  3
txt
  4

  0
STYLE
  5
200
100
AcDbSymbolTableRecord
100
AcDbTextStyleTableRecord
  2
TEXTSTYLE_1
 70
0
 40
0.0
 41
0.8
 50
0.0
 71
0
 42
0.2
  3
gdt
  4

  0
ENDTAB
  0
TABLE
  2
VIEW
  5
6
100
AcDbSymbolTable
 70
0
  0
ENDTAB
  0
TABLE
  2
UCS
  5
7
100
AcDbSymbolTable
 70
0
  0
ENDTAB
  0
TABLE
  2
APPID
  5
9
100
AcDbSymbolTable
 70
1
  0
APPID
  5
201
100
AcDbSymbolTableRecord
100
AcDbRegAppTableRecord
  2
ACAD
 70
0
  0
ENDTAB
  0
TABLE
  2
BLOCK_RECORD
  5
1
100
AcDbSymbolTable
 70
0
  0
BLOCK_RECORD
  5
202
100
AcDbSymbolTableRecord
100
AcDbBlockTableRecord
  2
*Model_Space
  0
BLOCK_RECORD
  5
203
100
AcDbSymbolTableRecord
100
AcDbBlockTableRecord
  2
*Paper_Space
  0
BLOCK_RECORD
  5
204
100
AcDbSymbolTableRecord
100
AcDbBlockTableRecord
  2
_FILLED
  0
ENDTAB
  0
TABLE
  2
DIMSTYLE
  5
A
100
AcDbSymbolTable
 70
1
100
AcDbDimStyleTable
 71
0
  0
DIMSTYLE
105
205
100
AcDbSymbolTableRecord
100
AcDbDimStyleTableRecord
  2
STANDARD
 70
0
  3

  4

 40
1.0
 41
0.1
 42
0.0625
 43
0.38
 44
0.125
 45
0.0
 46
0.0
 47
0.001
 48
0.001
140
0.08
141
0.09
142
0.0
143
25.4
144
1.0
145
0.0
146
1.0
147
0.09
 71
1.0
 72
0.0
 73
1
 74
1
 75
0
 76
0
 77
0
 78
4
 79
1
170
1
171
2
172
0
173
0
174
0
175
0
176
0
177
0
178
0
270
2
179
3
271
3
272
3
273
2
274
2
275
0
280
0
281
0
282
0
283
1
284
4
285
0
286
0
287
3
288
0
340
11
278
46
341
204
342
204
343
204
344
204
  0
ENDTAB
  0
ENDSEC
  0
SECTION
  2
BLOCKS
  0
BLOCK
  5
20
100
AcDbEntity
  8
0
100
AcDbBlockBegin
  2
*Model_Space
 70
0
 10
0.0
 20
0.0
 30
0.0
  3
*Model_Space
  1

  0
ENDBLK
  5
21
100
AcDbEntity
  8
0
100
AcDbBlockEnd
  0
BLOCK
  5
1C
100
AcDbEntity
  8
0
100
AcDbBlockBegin
  2
*Paper_Space
 70
0
 10
0.0
 20
0.0
 30
0.0
  3
*Paper_Space
  1

  0
ENDBLK
  5
1D
100
AcDbEntity
  8
0
100
AcDbBlockEnd
  0
BLOCK
  5
206
100
AcDbEntity
  8
0
100
AcDbBlockBegin
  2
_FILLED
 70
64
 10
0.0
 20
0.0
  3
_FILLED
  1

  0
SOLID
  5
207
100
AcDbEntity
  8
0
  6
BYBLOCK
 62
0
100
AcDbTrace
 10
0.0
 20
0.0
 11
-1.0
 21
0.2
 12
-1.0
 22
-0.2
 13
-1.0
 23
-0.2
  0
ENDBLK
  5
208
100
AcDbEntity
  8
0
  6
BYBLOCK
 62
0
100
AcDbBlockEnd
  0
ENDSEC
  0
SECTION
  2
ENTITIES
  0
LINE
  5
209
100
AcDbEntity
  8
0
100
AcDbLine
 62
7
  6
CONTINUOUS
 10
10.4831823866
 20
10.6436695021
 11
10.4244581905
 21
10.6245888542
  0
LINE
  5
20A
100
AcDbEntity
  8
0
100
AcDbLine
 62
7
  6
CONTINUOUS
 10
9.7576923427
 20
7.8166695021
 11
12.1176923427
 21
7.8166695021
  0
LINE
  5
20B
100
AcDbEntity
  8
0
100
AcDbLine
 62
7
  6
CONTINUOUS
 10
10.4370391303
 20
10.5181695021
 11
10.4101923427
 21
10.5026695021
  0
LINE
  5
20C
100
AcDbEntity
  8
0
100
AcDbLine
 62
7
  6
CONTINUOUS
 10
11.9376923427
 20
8.0036695021
 11
9.9376923427
 21
8.0036695021
  0
LINE
  5
20D
100
AcDbEntity
  8
0
100
AcDbLine
 62
7
  6
CONTINUOUS
 10
10.4244581905
 20
10.6245888542
 11
10.4101923427
 21
10.6049535993
  0
LINE
  5
20E
100
AcDbEntity
  8
0
100
AcDbLine
 62
7
  6
CONTINUOUS
 10
11.7506950166
 20
8.1916695021
 11
10.1246896689
 21
8.1916695021
  0
LINE
  5
20F
100
AcDbEntity
  8
0
100
AcDbLine
 62
7
  6
CONTINUOUS
 10
10.1796314393
 20
8.2536695021
 11
11.6957532462
 21
8.2536695021
  0
LINE
  5
210
100
AcDbEntity
  8
0
100
AcDbLine
 62
7
  6
CONTINUOUS
 10
10.4101923427
 20
10.5026695021
 11
10.3801923427
 21
10.4226695021
  0
LINE
  5
211
100
AcDbEntity
  8
0
100
AcDbLine
 62
7
  6
CONTINUOUS
 10
10.3541939831
 20
10.0978795484
 11
10.3246074572
 21
10.0568426594
  0
LINE
  5
212
100
AcDbEntity
  8
0
100
AcDbLine
 62
7
  6
CONTINUOUS
 10
10.1796322749
 20
8.5036142608
 11
10.1796314393
 21
8.2536695021
  0
LINE
  5
213
100
AcDbEntity
  8
0
100
AcDbLine
 62
7
  6
CONTINUOUS
 10
10.1966923427
 20
8.2536695021
 11
10.1966923427
 21
8.1916695021
  0
LINE
  5
214
100
AcDbEntity
  8
0
100
AcDbLine
 62
7
  6
CONTINUOUS
 10
11.4383455552
 20
10.5181695021
 11
11.4651923427
 21
10.5336695021
  0
LINE
  5
215
100
AcDbEntity
  8
0
100
AcDbLine
 62
9
  6
CONTINUOUS
 10
11.5788557824
 20
8.6201695021
 11
10.2965289031
 21
8.6201695021
  0
LINE
  5
216
100
AcDbEntity
  8
0
100
AcDbLine
 62
7
  6
CONTINUOUS
 10
10.4101923427
 20
10.6049535993
 11
10.4101923427
 21
10.5336695021
  0
LINE
  5
217
100
AcDbEntity
  8
0
100
AcDbLine
 62
7
  6
CONTINUOUS
 10
10.5586612113
 20
8.5036149989
 11
10.558661891
 21
8.2536695021
  0
LINE
  5
218
100
AcDbEntity
  8
0
100
AcDbLine
 62
7
  6
CONTINUOUS
 10
10.3971923427
 20
9.1692859409
 11
10.3230583485
 21
9.0633683137
  0
LINE
  5
219
100
AcDbEntity
  8
0
100
AcDbLine
 62
7
  6
CONTINUOUS
 10
11.3081923427
 20
9.8826695021
 11
11.4651923427
 21
9.9336695021
  0
LINE
  5
21A
100
AcDbEntity
  8
0
100
AcDbLine
 62
9
  6
CONTINUOUS
 10
11.5561923427
 20
8.8351695021
 11
10.3191923427
 21
8.8351695021
  0
LINE
  5
21B
100
AcDbEntity
  8
0
100
AcDbLine
 62
7
  6
CONTINUOUS
 10
10.5941923427
 20
9.8826695021
 11
10.5941923427
 21
9.5236695021
  0
LINE
  5
21C
100
AcDbEntity
  8
0
100
AcDbLine
 62
7
  6
CONTINUOUS
 10
10.3801923427
 20
10.0126695021
 11
10.4101923427
 21
9.9336695021
  0
LINE
  5
21D
100
AcDbEntity
  8
0
100
AcDbLine
 62
7
  6
CONTINUOUS
 10
10.7376923427
 20
9.5236695021
 11
10.7376923427
 21
9.5036695021
  0
LINE
  5
21E
100
AcDbEntity
  8
0
100
AcDbLine
 62
9
  6
CONTINUOUS
 10
10.804461973
 20
10.7105715434
 11
10.804461973
 21
10.7095662894
  0
LINE
  5
21F
100
AcDbEntity
  8
0
100
AcDbLine
 62
7
  6
CONTINUOUS
 10
10.8289584572
 20
10.712688391
 11
10.8289584572
 21
10.7116845165
  0
LINE
  5
220
100
AcDbEntity
  8
0
100
AcDbLine
 62
7
  6
CONTINUOUS
 10
11.5211907023
 20
10.3374594558
 11
11.5507772283
 21
10.3784963449
  0
LINE
  5
221
100
AcDbEntity
  8
0
100
AcDbLine
 62
9
  6
CONTINUOUS
 10
10.3230583485
 20
9.0633683137
 11
11.5523263369
 21
9.0633683137
  0
LINE
  5
222
100
AcDbEntity
  8
0
100
AcDbLine
 62
7
  6
CONTINUOUS
 10
10.920827106
 20
10.6916913225
 11
10.920827106
 21
10.690673605
  0
LINE
  5
223
100
AcDbEntity
  8
0
100
AcDbLine
 62
7
  6
CONTINUOUS
 10
10.2965289031
 20
8.6201695021
 11
10.1796358587
 21
8.5036131808
  0
LINE
  5
224
100
AcDbEntity
  8
0
100
AcDbLine
 62
9
  6
CONTINUOUS
 10
11.4781923427
 20
9.1692859409
 11
10.3971923427
 21
9.1692859409
  0
LINE
  5
225
100
AcDbEntity
  8
0
100
AcDbLine
 62
7
  6
CONTINUOUS
 10
11.5788557824
 20
8.6201695021
 11
11.6957498035
 21
8.5036122069
  0
LINE
  5
226
100
AcDbEntity
  8
0
100
AcDbLine
 62
7
  6
CONTINUOUS
 10
10.9545575795
 20
10.6916913225
 11
10.9545575795
 21
10.690673605
  0
LINE
  5
227
100
AcDbEntity
  8
0
100
AcDbLine
 62
7
  6
CONTINUOUS
 10
11.0464262283
 20
10.7116845165
 11
11.0464262283
 21
10.712688391
  0
LINE
  5
228
100
AcDbEntity
  8
0
100
AcDbLine
 62
9
  6
CONTINUOUS
 10
11.0709227124
 20
10.7105717455
 11
11.0709227124
 21
10.7095658981
  0
LINE
  5
229
100
AcDbEntity
  8
0
100
AcDbLine
 62
7
  6
CONTINUOUS
 10
11.1376923427
 20
9.5236695021
 11
11.1376923427
 21
9.5036695021
  0
LINE
  5
22A
100
AcDbEntity
  8
0
100
AcDbLine
 62
7
  6
CONTINUOUS
 10
11.4951923427
 20
10.0126695021
 11
11.4651923427
 21
9.9336695021
  0
LINE
  5
22B
100
AcDbEntity
  8
0
100
AcDbLine
 62
9
  6
CONTINUOUS
 10
11.3674320703
 20
9.4752687448
 11
10.5079526152
 21
9.4752687448
  0
LINE
  5
22C
100
AcDbEntity
  8
0
100
AcDbLine
 62
7
  6
CONTINUOUS
 10
11.3365412312
 20
9.5036695021
 11
10.5388434542
 21
9.5036695021
  0
LINE
  5
22D
100
AcDbEntity
  8
0
100
AcDbLine
 62
7
  6
CONTINUOUS
 10
10.5941924953
 20
9.5236695021
 11
11.2811921902
 21
9.5236695021
  0
LINE
  5
22E
100
AcDbEntity
  8
0
100
AcDbLine
 62
7
  6
CONTINUOUS
 10
10.3541939831
 20
10.3374594558
 11
10.3246074572
 21
10.3784963449
  0
LINE
  5
22F
100
AcDbEntity
  8
0
100
AcDbLine
 62
7
  6
CONTINUOUS
 10
11.2811923427
 20
9.8826695021
 11
11.2811923427
 21
9.5236695021
  0
LINE
  5
230
100
AcDbEntity
  8
0
100
AcDbLine
 62
7
  6
CONTINUOUS
 10
11.3167216946
 20
8.5036147209
 11
11.3167227945
 21
8.2536695021
  0
LINE
  5
231
100
AcDbEntity
  8
0
100
AcDbLine
 62
7
  6
CONTINUOUS
 10
11.4781923427
 20
9.1692859409
 11
11.5523263369
 21
9.0633683137
  0
LINE
  5
232
100
AcDbEntity
  8
0
100
AcDbLine
 62
7
  6
CONTINUOUS
 10
10.5671923427
 20
9.8826695021
 11
10.4101923427
 21
9.9336695021
  0
LINE
  5
233
100
AcDbEntity
  8
0
100
AcDbLine
 62
7
  6
CONTINUOUS
 10
11.4651923427
 20
10.6049535993
 11
11.4651923427
 21
10.5336695021
  0
LINE
  5
234
100
AcDbEntity
  8
0
100
AcDbLine
 62
7
  6
CONTINUOUS
 10
10.5671924944
 20
9.8826695021
 11
11.3081921911
 21
9.8826695021
  0
LINE
  5
235
100
AcDbEntity
  8
0
100
AcDbLine
 62
7
  6
CONTINUOUS
 10
11.6786923427
 20
8.2536695021
 11
11.6786923427
 21
8.1916695021
  0
LINE
  5
236
100
AcDbEntity
  8
0
100
AcDbLine
 62
7
  6
CONTINUOUS
 10
11.6957525946
 20
8.5036130456
 11
11.6957532462
 21
8.2536695021
  0
LINE
  5
237
100
AcDbEntity
  8
0
100
AcDbLine
 62
7
  6
CONTINUOUS
 10
11.4651923427
 20
9.9336695021
 11
10.4101923427
 21
9.9336695021
  0
LINE
  5
238
100
AcDbEntity
  8
0
100
AcDbLine
 62
7
  6
CONTINUOUS
 10
10.3801923427
 20
10.0126695021
 11
11.4951923427
 21
10.0126695021
  0
LINE
  5
239
100
AcDbEntity
  8
0
100
AcDbLine
 62
7
  6
CONTINUOUS
 10
10.5872631379
 20
10.0216695021
 11
10.5777707653
 21
10.0216695021
  0
LINE
  5
23A
100
AcDbEntity
  8
0
100
AcDbLine
 62
7
  6
CONTINUOUS
 10
11.2883452447
 20
10.0216695021
 11
11.2976139201
 21
10.0216695021
  0
LINE
  5
23B
100
AcDbEntity
  8
0
100
AcDbLine
 62
7
  6
CONTINUOUS
 10
10.4370391303
 20
10.5181695021
 11
10.4101923427
 21
10.5336695021
  0
LINE
  5
23C
100
AcDbEntity
  8
0
100
AcDbLine
 62
7
  6
CONTINUOUS
 10
11.5211907023
 20
10.0978795484
 11
11.5507772283
 21
10.0568426594
  0
LINE
  5
23D
100
AcDbEntity
  8
0
100
AcDbLine
 62
7
  6
CONTINUOUS
 10
11.4651923427
 20
10.5026695021
 11
11.4951923427
 21
10.4226695021
  0
LINE
  5
23E
100
AcDbEntity
  8
0
100
AcDbLine
 62
7
  6
CONTINUOUS
 10
10.5870318711
 20
10.4136695021
 11
10.5777707653
 21
10.4136695021
  0
LINE
  5
23F
100
AcDbEntity
  8
0
100
AcDbLine
 62
7
  6
CONTINUOUS
 10
11.2881161291
 20
10.4136695021
 11
11.2976139201
 21
10.4136695021
  0
LINE
  5
240
100
AcDbEntity
  8
0
100
AcDbLine
 62
7
  6
CONTINUOUS
 10
11.4951923427
 20
10.4226695021
 11
10.3801923427
 21
10.4226695021
  0
LINE
  5
241
100
AcDbEntity
  8
0
100
AcDbLine
 62
7
  6
CONTINUOUS
 10
10.4101923427
 20
10.5026695021
 11
11.4651923427
 21
10.5026695021
  0
LINE
  5
242
100
AcDbEntity
  8
0
100
AcDbLine
 62
7
  6
CONTINUOUS
 10
10.4370391303
 20
10.5181695021
 11
11.4383455552
 21
10.5181695021
  0
LINE
  5
243
100
AcDbEntity
  8
0
100
AcDbLine
 62
7
  6
CONTINUOUS
 10
11.450926495
 20
10.6245888542
 11
11.4651923427
 21
10.6049535993
  0
LINE
  5
244
100
AcDbEntity
  8
0
100
AcDbLine
 62
7
  6
CONTINUOUS
 10
10.4101923427
 20
10.5336695021
 11
11.4651923427
 21
10.5336695021
  0
LINE
  5
245
100
AcDbEntity
  8
0
100
AcDbLine
 62
7
  6
CONTINUOUS
 10
11.4651923427
 20
10.6049535993
 11
10.4101923427
 21
10.6049535993
  0
LINE
  5
246
100
AcDbEntity
  8
0
100
AcDbLine
 62
7
  6
CONTINUOUS
 10
10.4244581905
 20
10.6245888542
 11
11.450926495
 21
10.6245888542
  0
LINE
  5
247
100
AcDbEntity
  8
0
100
AcDbLine
 62
7
  6
CONTINUOUS
 10
11.3921825988
 20
10.6436695021
 11
10.4832020867
 21
10.6436695021
  0
LINE
  5
248
100
AcDbEntity
  8
0
100
AcDbLine
 62
7
  6
CONTINUOUS
 10
11.4383455552
 20
10.5181695021
 11
11.4651923427
 21
10.5026695021
  0
LINE
  5
249
100
AcDbEntity
  8
0
100
AcDbLine
 62
9
  6
CONTINUOUS
 10
11.3328369993
 20
10.6674787954
 11
10.5425476862
 21
10.6674787954
  0
LINE
  5
24A
100
AcDbEntity
  8
0
100
AcDbLine
 62
7
  6
CONTINUOUS
 10
11.3922022989
 20
10.6436695021
 11
11.450926495
 21
10.6245888542
  0
ARC
  5
24B
100
AcDbEntity
  8
0
100
AcDbCircle
 62
7
  6
CONTINUOUS
 10
10.4901674638
 20
8.9464050989
 40
0.2039751211
100
AcDbArc
 50
145.0110095297
 51
213.0478355063
  0
ARC
  5
24C
100
AcDbEntity
  8
0
100
AcDbCircle
 62
7
  6
CONTINUOUS
 10
9.9448284538
 20
7.8166695021
 40
0.1871361111
100
AcDbArc
 50
92.1854050713
 51
180.0
  0
ARC
  5
24D
100
AcDbEntity
  8
0
100
AcDbCircle
 62
7
  6
CONTINUOUS
 10
10.1246896689
 20
8.0046695021
 40
0.187
100
AcDbArc
 50
90.0
 51
180.3063960032
  0
ARC
  5
24E
100
AcDbEntity
  8
0
100
AcDbCircle
 62
7
  6
CONTINUOUS
 10
10.1754178091
 20
8.7416304776
 40
0.1715245336
100
AcDbArc
 50
314.9173576842
 51
33.0478355064
  0
ARC
  5
24F
100
AcDbEntity
  8
0
100
AcDbCircle
 62
7
  6
CONTINUOUS
 10
9.8851534407
 20
9.5276728307
 40
0.625
100
AcDbArc
 50
325.0110095299
 51
355.1903004544
  0
ARC
  5
250
100
AcDbEntity
  8
0
100
AcDbCircle
 62
7
  6
CONTINUOUS
 10
9.4575534538
 20
10.2176695021
 40
0.9451388889
100
AcDbArc
 50
347.4730187713
 51
350.6448301548
  0
ARC
  5
251
100
AcDbEntity
  8
0
100
AcDbCircle
 62
7
  6
CONTINUOUS
 10
9.4575534538
 20
10.2176695021
 40
0.9451388889
100
AcDbArc
 50
9.3454314595
 51
12.5269812287
  0
ARC
  5
252
100
AcDbEntity
  8
0
100
AcDbCircle
 62
7
  6
CONTINUOUS
 10
10.1015390082
 20
10.2176689164
 40
0.2749995718
100
AcDbArc
 50
35.7921392653
 51
324.207871201
  0
ARC
  5
253
100
AcDbEntity
  8
0
100
AcDbCircle
 62
7
  6
CONTINUOUS
 10
10.1015755409
 20
10.2174711372
 40
0.2747981765
100
AcDbArc
 50
275.8503204057
 51
280.0139717841
  0
ARC
  5
254
100
AcDbEntity
  8
0
100
AcDbCircle
 62
7
  6
CONTINUOUS
 10
10.9169207295
 20
9.4353144289
 40
1.2826049245
100
AcDbArc
 50
83.9811604005
 51
84.2063315123
  0
ARC
  5
255
100
AcDbEntity
  8
0
100
AcDbCircle
 62
7
  6
CONTINUOUS
 10
10.9254271603
 20
9.436117769
 40
1.2812928244
100
AcDbArc
 50
84.5811904066
 51
86.118159621
  0
ARC
  5
256
100
AcDbEntity
  8
0
100
AcDbCircle
 62
7
  6
CONTINUOUS
 10
10.9171441803
 20
9.4375490783
 40
1.2803591334
100
AcDbArc
 50
84.2061851655
 51
84.9345112755
  0
ARC
  5
257
100
AcDbEntity
  8
0
100
AcDbCircle
 62
7
  6
CONTINUOUS
 10
10.9255642353
 20
9.4382626818
 40
1.280143941
100
AcDbArc
 50
84.5824753128
 51
88.1128439483
  0
ARC
  5
258
100
AcDbEntity
  8
0
100
AcDbCircle
 62
7
  6
CONTINUOUS
 10
10.9171810251
 20
9.4378795446
 40
1.2800267046
100
AcDbArc
 50
84.9348479949
 51
85.8628514138
  0
ARC
  5
259
100
AcDbEntity
  8
0
100
AcDbCircle
 62
7
  6
CONTINUOUS
 10
10.9256856799
 20
9.4385526758
 40
1.2798501099
100
AcDbArc
 50
88.1178502575
 51
89.0595772409
  0
ARC
  5
25A
100
AcDbEntity
  8
0
100
AcDbCircle
 62
7
  6
CONTINUOUS
 10
10.9256022741
 20
9.4385499853
 40
1.2788543381
100
AcDbArc
 50
86.2806694889
 51
86.9321742866
  0
ARC
  5
25B
100
AcDbEntity
  8
0
100
AcDbCircle
 62
7
  6
CONTINUOUS
 10
10.9172538524
 20
9.4391554295
 40
1.278748879
100
AcDbArc
 50
85.905925204
 51
87.7394603851
  0
ARC
  5
25C
100
AcDbEntity
  8
0
100
AcDbCircle
 62
7
  6
CONTINUOUS
 10
10.9256426504
 20
9.4397360719
 40
1.2776674428
100
AcDbArc
 50
88.1143024878
 51
89.0129043401
  0
ARC
  5
25D
100
AcDbEntity
  8
0
100
AcDbCircle
 62
7
  6
CONTINUOUS
 10
10.7045247978
 20
10.1603339066
 40
0.2573731659
100
AcDbArc
 50
192.7830672669
 51
194.3569723376
  0
ARC
  5
25E
100
AcDbEntity
  8
0
100
AcDbCircle
 62
9
  6
CONTINUOUS
 10
10.6226256523
 20
10.1935891051
 40
0.187957318
100
AcDbArc
 50
209.5722258597
 51
210.8660655078
  0
ARC
  5
25F
100
AcDbEntity
  8
0
100
AcDbCircle
 62
7
  6
CONTINUOUS
 10
10.6018731451
 20
10.1317483558
 40
0.120026736
100
AcDbArc
 50
243.0276733467
 51
244.0315140771
  0
ARC
  5
260
100
AcDbEntity
  8
0
100
AcDbCircle
 62
7
  6
CONTINUOUS
 10
10.2982338191
 20
10.1272580333
 40
0.1055885312
100
AcDbArc
 50
267.8312473168
 51
269.9989942454
  0
ARC
  5
261
100
AcDbEntity
  8
0
100
AcDbCircle
 62
9
  6
CONTINUOUS
 10
10.5776910972
 20
10.120769534
 40
0.0991000639
100
AcDbArc
 50
270.0460609856
 51
280.3178691261
  0
ARC
  5
262
100
AcDbEntity
  8
0
100
AcDbCircle
 62
9
  6
CONTINUOUS
 10
10.5621012242
 20
10.1243373249
 40
0.0933457587
100
AcDbArc
 50
270.0000190796
 51
270.8742157274
  0
ARC
  5
263
100
AcDbEntity
  8
0
100
AcDbCircle
 62
7
  6
CONTINUOUS
 10
10.5388434542
 20
9.4726695021
 40
0.031
100
AcDbArc
 50
90.0
 51
175.1903004544
  0
ARC
  5
264
100
AcDbEntity
  8
0
100
AcDbCircle
 62
7
  6
CONTINUOUS
 10
10.879131667
 20
10.3179013985
 40
0.3987189528
100
AcDbArc
 50
98.6295216996
 51
100.6448856944
  0
ARC
  5
265
100
AcDbEntity
  8
0
100
AcDbCircle
 62
7
  6
CONTINUOUS
 10
10.8774955767
 20
10.3282559223
 40
0.3892285217
100
AcDbArc
 50
98.6120562419
 51
100.8149039659
  0
ARC
  5
266
100
AcDbEntity
  8
0
100
AcDbCircle
 62
7
  6
CONTINUOUS
 10
10.8942207717
 20
10.335998102
 40
0.3823020416
100
AcDbArc
 50
98.1072535252
 51
99.8290314885
  0
ARC
  5
267
100
AcDbEntity
  8
0
100
AcDbCircle
 62
7
  6
CONTINUOUS
 10
10.8682027345
 20
10.3888461103
 40
0.3269376018
100
AcDbArc
 50
96.2148554807
 51
98.6014248428
  0
ARC
  5
268
100
AcDbEntity
  8
0
100
AcDbCircle
 62
7
  6
CONTINUOUS
 10
10.8861908878
 20
10.3914943281
 40
0.3262280515
100
AcDbArc
 50
96.3158420082
 51
98.0856176006
  0
ARC
  5
269
100
AcDbEntity
  8
0
100
AcDbCircle
 62
7
  6
CONTINUOUS
 10
10.8667217134
 20
10.4010196767
 40
0.3156719654
100
AcDbArc
 50
96.1833416255
 51
98.6562533811
  0
ARC
  5
26A
100
AcDbEntity
  8
0
100
AcDbCircle
 62
7
  6
CONTINUOUS
 10
10.8809500448
 20
10.4376225004
 40
0.2798033424
100
AcDbArc
 50
94.4871148888
 51
96.2882973789
  0
ARC
  5
26B
100
AcDbEntity
  8
0
100
AcDbCircle
 62
7
  6
CONTINUOUS
 10
10.8619820536
 20
10.4435304892
 40
0.2719013022
100
AcDbArc
 50
94.4628630401
 51
96.1591933807
  0
ARC
  5
26C
100
AcDbEntity
  8
0
100
AcDbCircle
 62
7
  6
CONTINUOUS
 10
10.8603678655
 20
10.4617674325
 40
0.2545933461
100
AcDbArc
 50
93.4515640759
 51
96.2342647015
  0
ARC
  5
26D
100
AcDbEntity
  8
0
100
AcDbCircle
 62
7
  6
CONTINUOUS
 10
10.6960424908
 20
10.2770440864
 40
0.2486500822
100
AcDbArc
 50
165.1810804411
 51
167.2994788839
  0
ARC
  5
26E
100
AcDbEntity
  8
0
100
AcDbCircle
 62
7
  6
CONTINUOUS
 10
10.798881953
 20
10.9518957217
 40
0.2423494268
100
AcDbArc
 50
273.1559576072
 51
275.9432943895
  0
ARC
  5
26F
100
AcDbEntity
  8
0
100
AcDbCircle
 62
7
  6
CONTINUOUS
 10
10.8778964582
 20
10.4754802024
 40
0.241822793
100
AcDbArc
 50
92.6616432065
 51
94.4675836319
  0
ARC
  5
270
100
AcDbEntity
  8
0
100
AcDbCircle
 62
7
  6
CONTINUOUS
 10
10.8576381902
 20
10.5090044574
 40
0.2072777016
100
AcDbArc
 50
90.9085072369
 51
93.4845046582
  0
ARC
  5
271
100
AcDbEntity
  8
0
100
AcDbCircle
 62
7
  6
CONTINUOUS
 10
10.6335547624
 20
10.1976818631
 40
0.1997603529
100
AcDbArc
 50
208.9154124286
 51
210.069358541
  0
ARC
  5
272
100
AcDbEntity
  8
0
100
AcDbCircle
 62
7
  6
CONTINUOUS
 10
10.6321489772
 20
10.2384506875
 40
0.1981462426
100
AcDbArc
 50
149.4443565736
 51
151.1250499289
  0
ARC
  5
273
100
AcDbEntity
  8
0
100
AcDbCircle
 62
7
  6
CONTINUOUS
 10
10.2391227365
 20
10.2404672673
 40
0.1980936713
100
AcDbArc
 50
29.4922500935
 51
30.4309258348
  0
ARC
  5
274
100
AcDbEntity
  8
0
100
AcDbCircle
 62
7
  6
CONTINUOUS
 10
10.629790667
 20
10.2398357531
 40
0.1954112846
100
AcDbArc
 50
149.1450852046
 51
149.4425457153
  0
ARC
  5
275
100
AcDbEntity
  8
0
100
AcDbCircle
 62
7
  6
CONTINUOUS
 10
10.5223149145
 20
10.2331184963
 40
0.1927074037
100
AcDbArc
 50
64.1704422866
 51
67.7329608874
  0
ARC
  5
276
100
AcDbEntity
  8
0
100
AcDbCircle
 62
9
  6
CONTINUOUS
 10
10.6253258547
 20
10.2402111413
 40
0.1910651764
100
AcDbArc
 50
150.7109523887
 51
150.9685628899
  0
ARC
  5
277
100
AcDbEntity
  8
0
100
AcDbCircle
 62
9
  6
CONTINUOUS
 10
10.6245449315
 20
10.1946819015
 40
0.1901658982
100
AcDbArc
 50
209.2759859917
 51
209.5732018188
  0
ARC
  5
278
100
AcDbEntity
  8
0
100
AcDbCircle
 62
7
  6
CONTINUOUS
 10
10.8572721643
 20
10.5282268698
 40
0.1880519121
100
AcDbArc
 50
90.4434678285
 51
90.8898627446
  0
ARC
  5
279
100
AcDbEntity
  8
0
100
AcDbCircle
 62
7
  6
CONTINUOUS
 10
10.5244691695
 20
10.1972571962
 40
0.1872980916
100
AcDbArc
 50
292.2833125542
 51
294.5175146359
  0
ARC
  5
27A
100
AcDbEntity
  8
0
100
AcDbCircle
 62
9
  6
CONTINUOUS
 10
10.6215707309
 20
10.2423540298
 40
0.1867417649
100
AcDbArc
 50
148.5228185223
 51
150.7207343585
  0
ARC
  5
27B
100
AcDbEntity
  8
0
100
AcDbCircle
 62
7
  6
CONTINUOUS
 10
10.6018703849
 20
10.3035968562
 40
0.120019908
100
AcDbArc
 50
115.9522142486
 51
116.9754115298
  0
ARC
  5
27C
100
AcDbEntity
  8
0
100
AcDbCircle
 62
7
  6
CONTINUOUS
 10
10.2982337599
 20
10.3080778574
 40
0.1055916448
100
AcDbArc
 50
90.0009736039
 51
92.1462114796
  0
ARC
  5
27D
100
AcDbEntity
  8
0
100
AcDbCircle
 62
9
  6
CONTINUOUS
 10
10.5777498063
 20
10.3152848389
 40
0.0983846655
100
AcDbArc
 50
80.3853632036
 51
89.9877941909
  0
ARC
  5
27E
100
AcDbEntity
  8
0
100
AcDbCircle
 62
9
  6
CONTINUOUS
 10
10.5621012863
 20
10.3110016794
 40
0.0933457587
100
AcDbArc
 50
90.0000190796
 51
90.8742157274
  0
ARC
  5
27F
100
AcDbEntity
  8
0
100
AcDbCircle
 62
7
  6
CONTINUOUS
 10
10.5501923427
 20
10.6384691552
 40
0.03
100
AcDbArc
 50
104.7630312683
 51
170.0176441513
  0
ARC
  5
280
100
AcDbEntity
  8
0
100
AcDbCircle
 62
7
  6
CONTINUOUS
 10
10.9376923427
 20
9.1679994867
 40
1.5506700155
100
AcDbArc
 50
94.0281975387
 51
104.7630312681
  0
ARC
  5
281
100
AcDbEntity
  8
0
100
AcDbCircle
 62
7
  6
CONTINUOUS
 10
10.9376923427
 20
9.1679994867
 40
1.5506700155
100
AcDbArc
 50
87.3749870831
 51
92.6250254354
  0
ARC
  5
282
100
AcDbEntity
  8
0
100
AcDbCircle
 62
7
  6
CONTINUOUS
 10
10.9376923427
 20
9.1679994867
 40
1.5506700155
100
AcDbArc
 50
75.2369687319
 51
85.9683657429
  0
ARC
  5
283
100
AcDbEntity
  8
0
100
AcDbCircle
 62
7
  6
CONTINUOUS
 10
10.9376923427
 20
9.1679994867
 40
1.5237851708
100
AcDbArc
 50
89.3658380229
 51
90.6341619771
  0
ARC
  5
284
100
AcDbEntity
  8
0
100
AcDbCircle
 62
7
  6
CONTINUOUS
 10
10.9376923427
 20
9.1679994867
 40
1.5227675157
100
AcDbArc
 50
89.3654141994
 51
90.6345858006
  0
ARC
  5
285
100
AcDbEntity
  8
0
100
AcDbCircle
 62
7
  6
CONTINUOUS
 10
10.9376923427
 20
9.1679994867
 40
1.519875405
100
AcDbArc
 50
88.5861934599
 51
91.4138065401
  0
ARC
  5
286
100
AcDbEntity
  8
0
100
AcDbCircle
 62
7
  6
CONTINUOUS
 10
11.3852172217
 20
8.9464050989
 40
0.2039751211
100
AcDbArc
 50
326.9521644937
 51
34.9889904703
  0
ARC
  5
287
100
AcDbEntity
  8
0
100
AcDbCircle
 62
7
  6
CONTINUOUS
 10
11.9305562316
 20
7.8166695021
 40
0.1871361111
100
AcDbArc
 50
0.0
 51
87.8145949287
  0
ARC
  5
288
100
AcDbEntity
  8
0
100
AcDbCircle
 62
7
  6
CONTINUOUS
 10
11.7506950166
 20
8.0046695021
 40
0.187
100
AcDbArc
 50
359.6936039968
 51
90.0
  0
ARC
  5
289
100
AcDbEntity
  8
0
100
AcDbCircle
 62
7
  6
CONTINUOUS
 10
11.6999668764
 20
8.7416304776
 40
0.1715245336
100
AcDbArc
 50
146.9521644936
 51
225.0826423158
  0
ARC
  5
28A
100
AcDbEntity
  8
0
100
AcDbCircle
 62
7
  6
CONTINUOUS
 10
10.9583426158
 20
9.4364626301
 40
1.2814503296
100
AcDbArc
 50
95.7892701587
 51
96.0188272545
  0
ARC
  5
28B
100
AcDbEntity
  8
0
100
AcDbCircle
 62
7
  6
CONTINUOUS
 10
10.9582975624
 20
9.4369134515
 40
1.2809972631
100
AcDbArc
 50
95.0645064082
 51
95.7892992669
  0
ARC
  5
28C
100
AcDbEntity
  8
0
100
AcDbCircle
 62
7
  6
CONTINUOUS
 10
10.9498396942
 20
9.4379612085
 40
1.2804458846
100
AcDbArc
 50
91.8875724527
 51
95.4171083216
  0
ARC
  5
28D
100
AcDbEntity
  8
0
100
AcDbCircle
 62
7
  6
CONTINUOUS
 10
10.9582185936
 20
9.4378069651
 40
1.2801002666
100
AcDbArc
 50
94.0934106699
 51
95.0645160948
  0
ARC
  5
28E
100
AcDbEntity
  8
0
100
AcDbCircle
 62
7
  6
CONTINUOUS
 10
10.9498549986
 20
9.4375308595
 40
1.2798763672
100
AcDbArc
 50
93.9243170061
 51
95.4202142363
  0
ARC
  5
28F
100
AcDbEntity
  8
0
100
AcDbCircle
 62
7
  6
CONTINUOUS
 10
10.9496990009
 20
9.4385528108
 40
1.2798499749
100
AcDbArc
 50
90.9404226476
 51
91.8821497329
  0
ARC
  5
290
100
AcDbEntity
  8
0
100
AcDbCircle
 62
7
  6
CONTINUOUS
 10
10.958136207
 20
9.4390029889
 40
1.2789014129
100
AcDbArc
 50
92.2605108086
 51
94.0935539886
  0
ARC
  5
291
100
AcDbEntity
  8
0
100
AcDbCircle
 62
7
  6
CONTINUOUS
 10
10.9497790702
 20
9.4385810167
 40
1.2788234748
100
AcDbArc
 50
93.4654127973
 51
93.9241196947
  0
ARC
  5
292
100
AcDbEntity
  8
0
100
AcDbCircle
 62
7
  6
CONTINUOUS
 10
10.9497297474
 20
9.4396442084
 40
1.2777590825
100
AcDbArc
 50
90.9866813564
 51
91.8850610272
  0
ARC
  5
293
100
AcDbEntity
  8
0
100
AcDbCircle
 62
7
  6
CONTINUOUS
 10
11.1785803189
 20
10.1584756521
 40
0.2494329609
100
AcDbArc
 50
345.2876976313
 51
347.2588236001
  0
ARC
  5
294
100
AcDbEntity
  8
0
100
AcDbCircle
 62
9
  6
CONTINUOUS
 10
11.254455441
 20
10.1925934283
 40
0.1859903605
100
AcDbArc
 50
328.681262761
 51
330.0208401262
  0
ARC
  5
295
100
AcDbEntity
  8
0
100
AcDbCircle
 62
9
  6
CONTINUOUS
 10
11.2808946816
 20
10.1734141347
 40
0.1532833056
100
AcDbArc
 50
318.4624579164
 51
319.3474544134
  0
ARC
  5
296
100
AcDbEntity
  8
0
100
AcDbCircle
 62
7
  6
CONTINUOUS
 10
11.2735281672
 20
10.1317140926
 40
0.1199886118
100
AcDbArc
 50
295.952070003
 51
296.9310735003
  0
ARC
  5
297
100
AcDbEntity
  8
0
100
AcDbCircle
 62
9
  6
CONTINUOUS
 10
11.2976308391
 20
10.1201107082
 40
0.0984411961
100
AcDbArc
 50
260.6138649675
 51
269.9901526462
  0
ARC
  5
298
100
AcDbEntity
  8
0
100
AcDbCircle
 62
7
  6
CONTINUOUS
 10
11.3365412312
 20
9.4726695021
 40
0.031
100
AcDbArc
 50
4.8096995456
 51
90.0
  0
ARC
  5
299
100
AcDbEntity
  8
0
100
AcDbCircle
 62
7
  6
CONTINUOUS
 10
10.9946136549
 20
10.3092363463
 40
0.4075371566
100
AcDbArc
 50
79.3466529159
 51
80.5176051616
  0
ARC
  5
29A
100
AcDbEntity
  8
0
100
AcDbCircle
 62
7
  6
CONTINUOUS
 10
10.9955402459
 20
10.3145012385
 40
0.4031803105
100
AcDbArc
 50
79.2240131811
 51
81.2981529514
  0
ARC
  5
29B
100
AcDbEntity
  8
0
100
AcDbCircle
 62
7
  6
CONTINUOUS
 10
10.982638465
 20
10.3454312272
 40
0.3727552753
100
AcDbArc
 50
80.1467620109
 51
81.9126443991
  0
ARC
  5
29C
100
AcDbEntity
  8
0
100
AcDbCircle
 62
7
  6
CONTINUOUS
 10
11.005972547
 20
10.3795436181
 40
0.3363194426
100
AcDbArc
 50
80.4530293696
 51
83.0531463148
  0
ARC
  5
29D
100
AcDbEntity
  8
0
100
AcDbCircle
 62
7
  6
CONTINUOUS
 10
11.0068878915
 20
10.3874285518
 40
0.3293756982
100
AcDbArc
 50
81.3301000145
 51
83.7044321373
  0
ARC
  5
29E
100
AcDbEntity
  8
0
100
AcDbCircle
 62
7
  6
CONTINUOUS
 10
10.9903255652
 20
10.4004529296
 40
0.3171993629
100
AcDbArc
 50
81.8891707537
 51
83.7093227966
  0
ARC
  5
29F
100
AcDbEntity
  8
0
100
AcDbCircle
 62
7
  6
CONTINUOUS
 10
11.0106753672
 20
10.4103760418
 40
0.3051615651
100
AcDbArc
 50
84.4313552854
 51
85.6951743203
  0
ARC
  5
2A0
100
AcDbEntity
  8
0
100
AcDbCircle
 62
9
  6
CONTINUOUS
 10
11.4361997909
 20
10.2176694906
 40
0.2771787999
100
AcDbArc
 50
179.9999976147
 51
180.4371261494
  0
ARC
  5
2A1
100
AcDbEntity
  8
0
100
AcDbCircle
 62
7
  6
CONTINUOUS
 10
11.0131910552
 20
10.4398781655
 40
0.275554788
100
AcDbArc
 50
83.0257277456
 51
84.3567049287
  0
ARC
  5
2A2
100
AcDbEntity
  8
0
100
AcDbCircle
 62
7
  6
CONTINUOUS
 10
10.9950641202
 20
10.4442958401
 40
0.2731012399
100
AcDbArc
 50
83.6896107896
 51
85.5350024859
  0
ARC
  5
2A3
100
AcDbEntity
  8
0
100
AcDbCircle
 62
9
  6
CONTINUOUS
 10
11.4452779421
 20
10.2176694912
 40
0.2639957463
100
AcDbArc
 50
179.9999976148
 51
180.4371261493
  0
ARC
  5
2A4
100
AcDbEntity
  8
0
100
AcDbCircle
 62
7
  6
CONTINUOUS
 10
11.1742825
 20
10.2758113497
 40
0.2538569223
100
AcDbArc
 50
12.8295072677
 51
14.760182196
  0
ARC
  5
2A5
100
AcDbEntity
  8
0
100
AcDbCircle
 62
7
  6
CONTINUOUS
 10
11.0765086252
 20
10.9519565709
 40
0.2424105592
100
AcDbArc
 50
264.0568095042
 51
266.8284114468
  0
ARC
  5
2A6
100
AcDbEntity
  8
0
100
AcDbCircle
 62
7
  6
CONTINUOUS
 10
10.9978264896
 20
10.4808274018
 40
0.2364655151
100
AcDbArc
 50
85.5131958424
 51
87.3636267773
  0
ARC
  5
2A7
100
AcDbEntity
  8
0
100
AcDbCircle
 62
7
  6
CONTINUOUS
 10
11.0175583811
 20
10.5035024309
 40
0.2127812143
100
AcDbArc
 50
86.5510414696
 51
89.277534416
  0
ARC
  5
2A8
100
AcDbEntity
  8
0
100
AcDbCircle
 62
7
  6
CONTINUOUS
 10
11.242395438
 20
10.2379774482
 40
0.1991103434
100
AcDbArc
 50
28.8645261177
 51
30.567376583
  0
ARC
  5
2A9
100
AcDbEntity
  8
0
100
AcDbCircle
 62
7
  6
CONTINUOUS
 10
11.2430189273
 20
10.1970050999
 40
0.1983922569
100
AcDbArc
 50
329.5627664842
 51
331.117219135
  0
ARC
  5
2AA
100
AcDbEntity
  8
0
100
AcDbCircle
 62
7
  6
CONTINUOUS
 10
11.6355065136
 20
10.2409105646
 40
0.1972177858
100
AcDbArc
 50
149.6562523028
 51
150.1335373639
  0
ARC
  5
2AB
100
AcDbEntity
  8
0
100
AcDbCircle
 62
7
  6
CONTINUOUS
 10
11.6353331948
 20
10.1943293961
 40
0.1970181876
100
AcDbArc
 50
209.986249204
 51
210.318463703
  0
ARC
  5
2AC
100
AcDbEntity
  8
0
100
AcDbCircle
 62
7
  6
CONTINUOUS
 10
11.2457003995
 20
10.1954339934
 40
0.1952844194
100
AcDbArc
 50
328.9408339249
 51
329.5616415172
  0
ARC
  5
2AD
100
AcDbEntity
  8
0
100
AcDbCircle
 62
7
  6
CONTINUOUS
 10
11.2459908957
 20
10.2400792606
 40
0.1949456619
100
AcDbArc
 50
30.5728865521
 51
31.148701633
  0
ARC
  5
2AE
100
AcDbEntity
  8
0
100
AcDbCircle
 62
7
  6
CONTINUOUS
 10
11.3531455598
 20
10.2023911158
 40
0.1928940098
100
AcDbArc
 50
244.1049663158
 51
247.733433045
  0
ARC
  5
2AF
100
AcDbEntity
  8
0
100
AcDbCircle
 62
9
  6
CONTINUOUS
 10
11.2512761919
 20
10.2409106796
 40
0.1896611389
100
AcDbArc
 50
29.2870667636
 51
29.8442363158
  0
ARC
  5
2B0
100
AcDbEntity
  8
0
100
AcDbCircle
 62
9
  6
CONTINUOUS
 10
11.2514922655
 20
10.1943144438
 40
0.1894170503
100
AcDbArc
 50
330.0177845122
 51
330.69944446
  0
ARC
  5
2B1
100
AcDbEntity
  8
0
100
AcDbCircle
 62
7
  6
CONTINUOUS
 10
11.3508636013
 20
10.2382052463
 40
0.1871641671
100
AcDbArc
 50
112.2856828909
 51
114.4508930404
  0
ARC
  5
2B2
100
AcDbEntity
  8
0
100
AcDbCircle
 62
9
  6
CONTINUOUS
 10
11.2539886209
 20
10.2424716193
 40
0.1865316363
100
AcDbArc
 50
29.8429748562
 51
31.4738830415
  0
ARC
  5
2B3
100
AcDbEntity
  8
0
100
AcDbCircle
 62
7
  6
CONTINUOUS
 10
11.2735080074
 20
10.3035834931
 40
0.120034715
100
AcDbArc
 50
63.0164917601
 51
64.0315192466
  0
ARC
  5
2B4
100
AcDbEntity
  8
0
100
AcDbCircle
 62
9
  6
CONTINUOUS
 10
11.2976532186
 20
10.3148999667
 40
0.0987695318
100
AcDbArc
 50
90.0227968649
 51
100.5622229986
  0
ARC
  5
2B5
100
AcDbEntity
  8
0
100
AcDbCircle
 62
7
  6
CONTINUOUS
 10
11.3251923427
 20
10.6384691552
 40
0.03
100
AcDbArc
 50
9.9823558487
 51
75.2369687317
  0
ARC
  5
2B6
100
AcDbEntity
  8
0
100
AcDbCircle
 62
7
  6
CONTINUOUS
 10
11.9902312448
 20
9.5276728307
 40
0.625
100
AcDbArc
 50
184.8096995456
 51
214.9889904701
  0
ARC
  5
2B7
100
AcDbEntity
  8
0
100
AcDbCircle
 62
7
  6
CONTINUOUS
 10
12.4178312316
 20
10.2176695021
 40
0.9451388889
100
AcDbArc
 50
189.3556020554
 51
192.5269812287
  0
ARC
  5
2B8
100
AcDbEntity
  8
0
100
AcDbCircle
 62
7
  6
CONTINUOUS
 10
12.4178312316
 20
10.2176695021
 40
0.9451388889
100
AcDbArc
 50
167.4730187713
 51
170.6558033147
  0
ARC
  5
2B9
100
AcDbEntity
  8
0
100
AcDbCircle
 62
7
  6
CONTINUOUS
 10
11.773845693
 20
10.2176703455
 40
0.275000076
100
AcDbArc
 50
215.7908132521
 51
144.2091663967
  0
ARC
  5
2BA
100
AcDbEntity
  8
0
100
AcDbCircle
 62
7
  6
CONTINUOUS
 10
11.7027680964
 20
10.2176679882
 40
0.2688946
100
AcDbArc
 50
179.3749241882
 51
179.8019916726
  0
ARC
  5
2BB
100
AcDbEntity
  8
0
100
AcDbCircle
 62
7
  6
CONTINUOUS
 10
11.7024132175
 20
10.2176694326
 40
0.2685397182
100
AcDbArc
 50
179.80203817
 51
180.1976970706
  0
SPLINE
  5
2BC
100
AcDbEntity
  8
0
100
AcDbSpline
 62
7
  6
CONTINUOUS
 70
0
 71
3
 72
9
 73
5
 74
0
 42
0.0000001
 43
0.0000001
 44
0.0000000001
 40
0.0
 40
0.0
 40
0.0
 40
0.0
 40
0.4831443202
 40
1.0
 40
1.0
 40
1.0
 40
1.0
 10
11.3319043842
 20
10.4226695021
 30
0.0
 10
11.3261571932
 20
10.4226695021
 30
0.0
 10
11.3142510445
 20
10.4216652855
 30
0.0
 10
11.3026177803
 20
10.4190144787
 30
0.0
 10
11.2967147202
 20
10.417295684
 30
0.0
  0
SPLINE
  5
2BD
100
AcDbEntity
  8
0
100
AcDbSpline
 62
7
  6
CONTINUOUS
 70
0
 71
3
 72
9
 73
5
 74
0
 42
0.0000001
 43
0.0000001
 44
0.0000000001
 40
0.0
 40
0.0
 40
0.0
 40
0.0
 40
0.2453022281
 40
1.0
 40
1.0
 40
1.0
 40
1.0
 10
11.2967147202
 20
10.417295684
 30
0.0
 10
11.2953141809
 20
10.4168878888
 30
0.0
 10
11.2896283361
 20
10.415145032
 30
0.0
 10
11.2840390434
 20
10.4130906473
 30
0.0
 10
11.2798862783
 20
10.4113890939
 30
0.0
  0
SPLINE
  5
2BE
100
AcDbEntity
  8
0
100
AcDbSpline
 62
7
  6
CONTINUOUS
 70
0
 71
3
 72
20
 73
16
 74
0
 42
0.0000001
 43
0.0000001
 44
0.0000000001
 40
0.0
 40
0.0
 40
0.0
 40
0.0
 40
0.1148299256
 40
0.2348893233
 40
0.2964065655
 40
0.3586730992
 40
0.4848403238
 40
0.5485950557
 40
0.6126407499
 40
0.6769078889
 40
0.7413546714
 40
0.8059225523
 40
0.8706005674
 40
0.9353366206
 40
1.0
 40
1.0
 40
1.0
 40
1.0
 10
11.2733938852
 20
10.4085838498
 30
0.0
 10
11.264895378
 20
10.4047221369
 30
0.0
 10
11.248065893
 20
10.3955635797
 30
0.0
 10
11.2284588646
 20
10.3814544861
 30
0.0
 10
11.2134666357
 20
10.3684697335
 30
0.0
 10
11.1989356901
 20
10.3542537066
 30
0.0
 10
11.1856313327
 20
10.3385690393
 30
0.0
 10
11.1738821015
 20
10.3215777863
 30
0.0
 10
11.1659017654
 20
10.3081418147
 30
0.0
 10
11.1588946485
 20
10.2941098093
 30
0.0
 10
11.1529687228
 20
10.2795404479
 30
0.0
 10
11.1482180339
 20
10.2645099119
 30
0.0
 10
11.1447528402
 20
10.249105685
 30
0.0
 10
11.1426437851
 20
10.2334509817
 30
0.0
 10
11.1421635568
 20
10.2229261119
 30
0.0
 10
11.1421635568
 20
10.2176695021
 30
0.0
  0
SPLINE
  5
2BF
100
AcDbEntity
  8
0
100
AcDbSpline
 62
7
  6
CONTINUOUS
 70
0
 71
3
 72
18
 73
14
 74
0
 42
0.0000001
 43
0.0000001
 44
0.0000000001
 40
0.0
 40
0.0
 40
0.0
 40
0.0
 40
0.0645184633
 40
0.1290982546
 40
0.1936194301
 40
0.2580436773
 40
0.3223545029
 40
0.3865004314
 40
0.5140396722
 40
0.6401241307
 40
0.7639530202
 40
0.8843973782
 40
1.0
 40
1.0
 40
1.0
 40
1.0
 10
11.1421635568
 20
10.2176695021
 30
0.0
 10
11.1421635568
 20
10.212531877
 30
0.0
 10
11.1426212398
 20
10.2022463699
 30
0.0
 10
11.1446354143
 20
10.1869423297
 30
0.0
 10
11.1479501651
 20
10.1718733773
 30
0.0
 10
11.152494532
 20
10.157153301
 30
0.0
 10
11.1581713986
 20
10.1428647531
 30
0.0
 10
11.1671152638
 20
10.1245288634
 30
0.0
 10
11.1806187711
 20
10.1030266287
 30
0.0
 10
11.1998122725
 20
10.0797993875
 30
0.0
 10
11.2212512786
 20
10.0594445861
 30
0.0
 10
11.2442598128
 20
10.0422567401
 30
0.0
 10
11.2606220575
 20
10.0328829178
 30
0.0
 10
11.268904152
 20
10.0288645062
 30
0.0
  0
SPLINE
  5
2C0
100
AcDbEntity
  8
0
100
AcDbSpline
 62
7
  6
CONTINUOUS
 70
0
 71
3
 72
9
 73
5
 74
0
 42
0.0000001
 43
0.0000001
 44
0.0000000001
 40
0.0
 40
0.0
 40
0.0
 40
0.0
 40
0.2546012262
 40
1.0
 40
1.0
 40
1.0
 40
1.0
 10
11.2800548908
 20
10.0238810234
 30
0.0
 10
11.281431751
 20
10.0233184159
 30
0.0
 10
11.2868662972
 20
10.0211747597
 30
0.0
 10
11.2924082437
 20
10.0193006331
 30
0.0
 10
11.2965882235
 20
10.0180798826
 30
0.0
  0
SPLINE
  5
2C1
100
AcDbEntity
  8
0
100
AcDbSpline
 62
7
  6
CONTINUOUS
 70
0
 71
3
 72
9
 73
5
 74
0
 42
0.0000001
 43
0.0000001
 44
0.0000000001
 40
0.0
 40
0.0
 40
0.0
 40
0.0
 40
0.5169481406
 40
1.0
 40
1.0
 40
1.0
 40
1.0
 10
11.2965882235
 20
10.0180798826
 30
0.0
 10
11.3025126374
 20
10.0163496753
 30
0.0
 10
11.3141873312
 20
10.0136829638
 30
0.0
 10
11.3261370442
 20
10.0126695096
 30
0.0
 10
11.3319042489
 20
10.0126695021
 30
0.0
  0
SPLINE
  5
2C2
100
AcDbEntity
  8
0
100
AcDbSpline
 62
7
  6
CONTINUOUS
 70
0
 71
3
 72
9
 73
5
 74
0
 42
0.0000001
 43
0.0000001
 44
0.0000000001
 40
0.0
 40
0.0
 40
0.0
 40
0.0
 40
0.4831399088
 40
1.0
 40
1.0
 40
1.0
 40
1.0
 10
10.5434802412
 20
10.0126695021
 30
0.0
 10
10.5492287698
 20
10.0126694979
 30
0.0
 10
10.5611377838
 20
10.0136743412
 30
0.0
 10
10.5727737834
 20
10.0163261518
 30
0.0
 10
10.5786782321
 20
10.0180456847
 30
0.0
  0
SPLINE
  5
2C3
100
AcDbEntity
  8
0
100
AcDbSpline
 62
7
  6
CONTINUOUS
 70
0
 71
3
 72
9
 73
5
 74
0
 42
0.0000001
 43
0.0000001
 44
0.0000000001
 40
0.0
 40
0.0
 40
0.0
 40
0.0
 40
0.2453081774
 40
1.0
 40
1.0
 40
1.0
 40
1.0
 10
10.5786782321
 20
10.0180456847
 30
0.0
 10
10.5800774056
 20
10.0184531614
 30
0.0
 10
10.585757585
 20
10.0201945258
 30
0.0
 10
10.5913413853
 20
10.0222468187
 30
0.0
 10
10.5954901101
 20
10.0239464894
 30
0.0
  0
SPLINE
  5
2C4
100
AcDbEntity
  8
0
100
AcDbSpline
 62
7
  6
CONTINUOUS
 70
0
 71
3
 72
20
 73
16
 74
0
 42
0.0000001
 43
0.0000001
 44
0.0000000001
 40
0.0
 40
0.0
 40
0.0
 40
0.0
 40
0.1148628208
 40
0.2349366373
 40
0.2964560222
 40
0.3587220765
 40
0.4848834243
 40
0.5486330366
 40
0.6126724629
 40
0.6769338094
 40
0.7413744826
 40
0.8059366505
 40
0.8706110474
 40
0.9353426849
 40
1.0
 40
1.0
 40
1.0
 40
1.0
 10
10.6021925184
 20
10.0268469379
 30
0.0
 10
10.6106813134
 20
10.030715992
 30
0.0
 10
10.6274896481
 20
10.0398845734
 30
0.0
 10
10.6470707529
 20
10.0539988053
 30
0.0
 10
10.6620412176
 20
10.0669831521
 30
0.0
 10
10.6765495432
 20
10.0811954036
 30
0.0
 10
10.6898320928
 20
10.0968727346
 30
0.0
 10
10.7015613385
 20
10.1138532844
 30
0.0
 10
10.7095275676
 20
10.1272794992
 30
0.0
 10
10.7165217948
 20
10.1413003543
 30
0.0
 10
10.7224368773
 20
10.1558571338
 30
0.0
 10
10.7271786887
 20
10.1708741463
 30
0.0
 10
10.7306366039
 20
10.1862641403
 30
0.0
 10
10.7327417134
 20
10.2019036968
 30
0.0
 10
10.7332211287
 20
10.2124181549
 30
0.0
 10
10.7332211287
 20
10.2176695021
 30
0.0
  0
SPLINE
  5
2C5
100
AcDbEntity
  8
0
100
AcDbSpline
 62
7
  6
CONTINUOUS
 70
0
 71
3
 72
18
 73
14
 74
0
 42
0.0000001
 43
0.0000001
 44
0.0000000001
 40
0.0
 40
0.0
 40
0.0
 40
0.0
 40
0.0645242173
 40
0.1291082795
 40
0.1936333801
 40
0.2580633512
 40
0.3223799401
 40
0.3865318199
 40
0.5140816731
 40
0.6401718337
 40
0.7639989172
 40
0.8844292977
 40
1.0
 40
1.0
 40
1.0
 40
1.0
 10
10.7332211287
 20
10.2176695021
 30
0.0
 10
10.7332211287
 20
10.222812451
 30
0.0
 10
10.7327626381
 20
10.2331085081
 30
0.0
 10
10.7307444954
 20
10.2484279457
 30
0.0
 10
10.7274226605
 20
10.2635114689
 30
0.0
 10
10.7228695895
 20
10.2782454296
 30
0.0
 10
10.7171817612
 20
10.2925468254
 30
0.0
 10
10.7082207734
 20
10.3108978617
 30
0.0
 10
10.6946928926
 20
10.3324154183
 30
0.0
 10
10.6754667139
 20
10.3556543116
 30
0.0
 10
10.6539940879
 20
10.3760133672
 30
0.0
 10
10.6309528297
 20
10.3931967159
 30
0.0
 10
10.6145688689
 20
10.4025615997
 30
0.0
 10
10.6062766626
 20
10.4065732982
 30
0.0
  0
SPLINE
  5
2C6
100
AcDbEntity
  8
0
100
AcDbSpline
 62
7
  6
CONTINUOUS
 70
0
 71
3
 72
9
 73
5
 74
0
 42
0.0000001
 43
0.0000001
 44
0.0000000001
 40
0.0
 40
0.0
 40
0.0
 40
0.0
 40
0.2546072586
 40
1.0
 40
1.0
 40
1.0
 40
1.0
 10
10.595336345
 20
10.411455296
 30
0.0
 10
10.5939580607
 20
10.412018541
 30
0.0
 10
10.5885179939
 20
10.4141645165
 30
0.0
 10
10.5829703079
 20
10.4160404328
 30
0.0
 10
10.5787860002
 20
10.4172621557
 30
0.0
  0
SPLINE
  5
2C7
100
AcDbEntity
  8
0
100
AcDbSpline
 62
7
  6
CONTINUOUS
 70
0
 71
3
 72
9
 73
5
 74
0
 42
0.0000001
 43
0.0000001
 44
0.0000000001
 40
0.0
 40
0.0
 40
0.0
 40
0.0
 40
0.5169424585
 40
1.0
 40
1.0
 40
1.0
 40
1.0
 10
10.5787860002
 20
10.4172621557
 30
0.0
 10
10.5728633156
 20
10.4189914452
 30
0.0
 10
10.5611920044
 20
10.4216568302
 30
0.0
 10
10.5492458565
 20
10.4226695021
 30
0.0
 10
10.5434803122
 20
10.4226695021
 30
0.0
  0
SPLINE
  5
2C8
100
AcDbEntity
  8
0
100
AcDbSpline
 62
7
  6
CONTINUOUS
 70
0
 71
3
 72
25
 73
21
 74
0
 42
0.0000001
 43
0.0000001
 44
0.0000000001
 40
0.0
 40
0.0
 40
0.0
 40
0.0
 40
0.0262682963
 40
0.0526087623
 40
0.0791057379
 40
0.1058390636
 40
0.1602625623
 40
0.2164219868
 40
0.2746822188
 40
0.3352245963
 40
0.3980441561
 40
0.46295232
 40
0.5296097897
 40
0.5975487814
 40
0.6662222444
 40
0.7350307277
 40
0.8033700056
 40
0.8371919828
 40
0.8706863065
 40
1.0
 40
1.0
 40
1.0
 40
1.0
 10
10.2982319656
 20
10.0216695021
 30
0.0
 10
10.3016755938
 20
10.0216695021
 30
0.0
 10
10.308576984
 20
10.0220084048
 30
0.0
 10
10.3188518738
 20
10.0235190809
 30
0.0
 10
10.3289964722
 20
10.0260176275
 30
0.0
 10
10.342337912
 20
10.0306726058
 30
0.0
 10
10.3584548563
 20
10.0389189618
 30
0.0
 10
10.3762503516
 20
10.0522383965
 30
0.0
 10
10.3923436371
 20
10.068697997
 30
0.0
 10
10.4064872691
 20
10.0879395656
 30
0.0
 10
10.4184788241
 20
10.1095824238
 30
0.0
 10
10.4281464038
 20
10.1332195403
 30
0.0
 10
10.4353376509
 20
10.1584175076
 30
0.0
 10
10.4399458588
 20
10.1847109924
 30
0.0
 10
10.4418938973
 20
10.2116156199
 30
0.0
 10
10.4411480941
 20
10.2386312961
 30
0.0
 10
10.4382871157
 20
10.2609024796
 30
0.0
 10
10.434656681
 20
10.2783213361
 30
0.0
 10
10.4280841022
 20
10.3032427707
 30
0.0
 10
10.4198937755
 20
10.3232343657
 30
0.0
 10
10.4115478843
 20
10.3379899366
 30
0.0
  0
SPLINE
  5
2C9
100
AcDbEntity
  8
0
100
AcDbSpline
 62
7
  6
CONTINUOUS
 70
0
 71
3
 72
15
 73
11
 74
0
 42
0.0000001
 43
0.0000001
 44
0.0000000001
 40
0.0
 40
0.0
 40
0.0
 40
0.0
 40
0.1368892641
 40
0.2697293927
 40
0.398607576
 40
0.5238153005
 40
0.6458619358
 40
0.7653601005
 40
0.8831077912
 40
1.0
 40
1.0
 40
1.0
 40
1.0
 10
10.4099271045
 20
10.3408015611
 30
0.0
 10
10.4067015004
 20
10.3462922361
 30
0.0
 10
10.3998137376
 20
10.3568108637
 30
0.0
 10
10.3880594314
 20
10.371198472
 30
0.0
 10
10.375132315
 20
10.3837838307
 30
0.0
 10
10.3611630581
 20
10.394398852
 30
0.0
 10
10.3462923126
 20
10.4028685197
 30
0.0
 10
10.3307027417
 20
10.409057428
 30
0.0
 10
10.3146029279
 20
10.4128201586
 30
0.0
 10
10.3036697565
 20
10.4136695021
 30
0.0
 10
10.2982319656
 20
10.4136695021
 30
0.0
  0
SPLINE
  5
2CA
100
AcDbEntity
  8
0
100
AcDbSpline
 62
7
  6
CONTINUOUS
 70
0
 71
3
 72
31
 73
27
 74
0
 42
0.0000001
 43
0.0000001
 44
0.0000000001
 40
0.0
 40
0.0
 40
0.0
 40
0.0
 40
0.0210593245
 40
0.0373639825
 40
0.049063068
 40
0.0532298615
 40
0.0562972103
 40
0.0591974055
 40
0.0605084991
 40
0.0658762974
 40
0.0751012148
 40
0.087985581
 40
0.1043374686
 40
0.1239713007
 40
0.1467085204
 40
0.1723783305
 40
0.2008174573
 40
0.2318534395
 40
0.2653027499
 40
0.3387097347
 40
0.4196190775
 40
0.5066675578
 40
0.5986680794
 40
0.6947769637
 40
0.7942153972
 40
1.0
 40
1.0
 40
1.0
 40
1.0
 10
10.4645980201
 20
10.099617318
 30
0.0
 10
10.4647627725
 20
10.099447019
 30
0.0
 10
10.4650570772
 20
10.0991490318
 30
0.0
 10
10.4654592885
 20
10.0987628859
 30
0.0
 10
10.4657175394
 20
10.0985254441
 30
0.0
 10
10.4658899637
 20
10.0983757328
 30
0.0
 10
10.4659536342
 20
10.0983196134
 30
0.0
 10
10.4660794962
 20
10.0982189713
 30
0.0
 10
10.4659605495
 20
10.0983091532
 30
0.0
 10
10.4658412063
 20
10.0983939922
 30
0.0
 10
10.4655719914
 20
10.098582586
 30
0.0
 10
10.4652184326
 20
10.0988169047
 30
0.0
 10
10.464751317
 20
10.0991132946
 30
0.0
 10
10.4641859653
 20
10.0994531216
 30
0.0
 10
10.4635199819
 20
10.099831634
 30
0.0
 10
10.4627574192
 20
10.1002391428
 30
0.0
 10
10.4619001582
 20
10.100667156
 30
0.0
 10
10.4609524645
 20
10.101109038
 30
0.0
 10
10.4595302739
 20
10.1017294827
 30
0.0
 10
10.4575629964
 20
10.1025020393
 30
0.0
 10
10.4549901057
 20
10.1033743197
 30
0.0
 10
10.4521755516
 20
10.1041751561
 30
0.0
 10
10.4491558122
 20
10.1048639744
 30
0.0
 10
10.4459681879
 20
10.1054258623
 30
0.0
 10
10.4414870605
 20
10.1059917679
 30
0.0
 10
10.4380496299
 20
10.1061695021
 30
0.0
 10
10.4357342383
 20
10.1061695021
 30
0.0
  0
SPLINE
  5
2CB
100
AcDbEntity
  8
0
100
AcDbSpline
 62
7
  6
CONTINUOUS
 70
0
 71
3
 72
32
 73
28
 74
0
 42
0.0000001
 43
0.0000001
 44
0.0000000001
 40
0.0
 40
0.0
 40
0.0
 40
0.0
 40
0.1880312515
 40
0.3684331594
 40
0.4545374116
 40
0.5372030902
 40
0.6158909578
 40
0.6898697624
 40
0.7582347938
 40
0.8200328211
 40
0.8742752898
 40
0.9199510916
 40
0.93927922
 40
0.9561255101
 40
0.9703802656
 40
0.981928787
 40
0.9866511451
 40
0.9906518535
 40
0.9939153456
 40
0.996425822
 40
0.9981672843
 40
0.9987446074
 40
0.9991236835
 40
0.9993028153
 40
0.9993338106
 40
0.999563709
 40
1.0
 40
1.0
 40
1.0
 40
1.0
 10
10.4357342383
 20
10.3291695021
 30
0.0
 10
10.4377261049
 20
10.3291695021
 30
0.0
 10
10.4416308338
 20
10.3293446487
 30
0.0
 10
10.446411744
 20
10.3299634188
 30
0.0
 10
10.4500435327
 20
10.3306696752
 30
0.0
 10
10.4525938864
 20
10.3312795873
 30
0.0
 10
10.4549904559
 20
10.3319691398
 30
0.0
 10
10.4572104411
 20
10.3327157255
 30
0.0
 10
10.4592305931
 20
10.3334890731
 30
0.0
 10
10.4610259552
 20
10.3342602612
 30
0.0
 10
10.4625719581
 20
10.3349993225
 30
0.0
 10
10.4636869572
 20
10.3355941673
 30
0.0
 10
10.4644355096
 20
10.3360318835
 30
0.0
 10
10.4648904201
 20
10.3363120483
 30
0.0
 10
10.4652698735
 20
10.3365573022
 30
0.0
 10
10.4655378645
 20
10.336738387
 30
0.0
 10
10.4657139334
 20
10.3368611999
 30
0.0
 10
10.4658175338
 20
10.33693491
 30
0.0
 10
10.4659011594
 20
10.3369951794
 30
0.0
 10
10.4659661153
 20
10.3370432211
 30
0.0
 10
10.4660057828
 20
10.3370716447
 30
0.0
 10
10.4660306967
 20
10.3370910709
 30
0.0
 10
10.4660378067
 20
10.3370945092
 30
0.0
 10
10.4660466382
 20
10.337102968
 30
0.0
 10
10.4660453058
 20
10.3370977415
 30
0.0
 10
10.4660382686
 20
10.3370943046
 30
0.0
 10
10.4660337511
 20
10.3370888749
 30
0.0
 10
10.4660302901
 20
10.3370858119
 30
0.0
  0
SPLINE
  5
2CC
100
AcDbEntity
  8
0
100
AcDbSpline
 62
7
  6
CONTINUOUS
 70
0
 71
3
 72
11
 73
7
 74
0
 42
0.0000001
 43
0.0000001
 44
0.0000000001
 40
0.0
 40
0.0
 40
0.0
 40
0.0
 40
0.21590995
 40
0.4601652439
 40
0.7239080659
 40
1.0
 40
1.0
 40
1.0
 40
1.0
 10
10.4127415728
 20
10.3332994221
 30
0.0
 10
10.4143152185
 20
10.3326825595
 30
0.0
 10
10.4177327736
 20
10.3315247388
 30
0.0
 10
10.4232574343
 20
10.3302250348
 30
0.0
 10
10.4293444094
 20
10.3293744121
 30
0.0
 10
10.4335728785
 20
10.3291695021
 30
0.0
 10
10.4357342383
 20
10.3291695021
 30
0.0
  0
SPLINE
  5
2CD
100
AcDbEntity
  8
0
100
AcDbSpline
 62
7
  6
CONTINUOUS
 70
0
 71
3
 72
11
 73
7
 74
0
 42
0.0000001
 43
0.0000001
 44
0.0000000001
 40
0.0
 40
0.0
 40
0.0
 40
0.0
 40
0.2767983969
 40
0.5407164446
 40
0.7845899637
 40
1.0
 40
1.0
 40
1.0
 40
1.0
 10
10.4357342383
 20
10.1061695021
 30
0.0
 10
10.4335617009
 20
10.1061695021
 30
0.0
 10
10.4293151718
 20
10.1059619449
 30
0.0
 10
10.4232095795
 20
10.1051020225
 30
0.0
 10
10.4176753863
 20
10.1038019524
 30
0.0
 10
10.4142579476
 20
10.1026352289
 30
0.0
 10
10.4126854407
 20
10.102014158
 30
0.0
  0
SPLINE
  5
2CE
100
AcDbEntity
  8
0
100
AcDbSpline
 62
7
  6
CONTINUOUS
 70
0
 71
3
 72
15
 73
11
 74
0
 42
0.0000001
 43
0.0000001
 44
0.0000000001
 40
0.0
 40
0.0
 40
0.0
 40
0.0
 40
0.1194177728
 40
0.2392412557
 40
0.3602472146
 40
0.4830044543
 40
0.6079450162
 40
0.7355689019
 40
0.8661923446
 40
1.0
 40
1.0
 40
1.0
 40
1.0
 10
10.5777707653
 20
10.4136695021
 30
0.0
 10
10.572060329
 20
10.4136695021
 30
0.0
 10
10.5606019052
 20
10.4127984987
 30
0.0
 10
10.5437520191
 20
10.4089372848
 30
0.0
 10
10.5274946462
 20
10.4026083962
 30
0.0
 10
10.5120545014
 20
10.3939866577
 30
0.0
 10
10.4976285269
 20
10.3832284639
 30
0.0
 10
10.4843532773
 20
10.3705361172
 30
0.0
 10
10.4723427333
 20
10.3560936261
 30
0.0
 10
10.4653177953
 20
10.3455484812
 30
0.0
 10
10.4620361881
 20
10.3400555364
 30
0.0
  0
SPLINE
  5
2CF
100
AcDbEntity
  8
0
100
AcDbSpline
 62
7
  6
CONTINUOUS
 70
0
 71
3
 72
15
 73
11
 74
0
 42
0.0000001
 43
0.0000001
 44
0.0000000001
 40
0.0
 40
0.0
 40
0.0
 40
0.0
 40
0.1340301221
 40
0.2648137455
 40
0.392524329
 40
0.5174757284
 40
0.6401695104
 40
0.7610710668
 40
0.8807549879
 40
1.0
 40
1.0
 40
1.0
 40
1.0
 10
10.4606782573
 20
10.0975923403
 30
0.0
 10
10.4639496889
 20
10.0919424723
 30
0.0
 10
10.4709731719
 20
10.0810909116
 30
0.0
 10
10.4830408018
 20
10.0662117213
 30
0.0
 10
10.4964274723
 20
10.0531227069
 30
0.0
 10
10.5110158753
 20
10.0420180195
 30
0.0
 10
10.5266657049
 20
10.0331095431
 30
0.0
 10
10.5431741451
 20
10.026566318
 30
0.0
 10
10.560304888
 20
10.022571025
 30
0.0
 10
10.5719623026
 20
10.0216695021
 30
0.0
 10
10.5777707653
 20
10.0216695021
 30
0.0
  0
SPLINE
  5
2D0
100
AcDbEntity
  8
0
100
AcDbSpline
 62
7
  6
CONTINUOUS
 70
0
 71
3
 72
17
 73
13
 74
0
 42
0.0000001
 43
0.0000001
 44
0.0000000001
 40
0.0
 40
0.0
 40
0.0
 40
0.0
 40
0.0585152786
 40
0.1170900794
 40
0.1758453621
 40
0.2348930156
 40
0.3542230487
 40
0.4760612145
 40
0.6011102976
 40
0.7299353623
 40
0.8628630702
 40
1.0
 40
1.0
 40
1.0
 40
1.0
 10
11.5817547644
 20
10.413569141
 30
0.0
 10
11.5789394066
 20
10.4136919829
 30
0.0
 10
11.573293323
 20
10.413711681
 30
0.0
 10
11.5648412053
 20
10.4130632504
 30
0.0
 10
11.5564406064
 20
10.4117454418
 30
0.0
 10
11.5453212949
 20
10.4090989588
 30
0.0
 10
11.5316851893
 20
10.4041142796
 30
0.0
 10
11.5161327611
 20
10.3956749992
 30
0.0
 10
11.5015256724
 20
10.3849061037
 30
0.0
 10
11.4880274962
 20
10.3720002334
 30
0.0
 10
11.4757844635
 20
10.3571452056
 30
0.0
 10
11.4686420558
 20
10.346241992
 30
0.0
 10
11.4653055782
 20
10.3405423699
 30
0.0
  0
SPLINE
  5
2D1
100
AcDbEntity
  8
0
100
AcDbSpline
 62
7
  6
CONTINUOUS
 70
0
 71
3
 72
12
 73
8
 74
0
 42
0.0000001
 43
0.0000001
 44
0.0000000001
 40
0.0
 40
0.0
 40
0.0
 40
0.0
 40
0.2396713661
 40
0.4877462305
 40
0.7421549403
 40
0.8709197367
 40
1.0
 40
1.0
 40
1.0
 40
1.0
 10
11.4644815406
 20
10.3391211224
 30
0.0
 10
11.4595624262
 20
10.3305550417
 30
0.0
 10
11.4508400337
 20
10.3123566044
 30
0.0
 10
11.4413779556
 20
10.2831882366
 30
0.0
 10
11.4364765426
 20
10.2575643183
 30
0.0
 10
11.4343784216
 20
10.236547263
 30
0.0
 10
11.433947531
 20
10.2259211823
 30
0.0
 10
11.4338894981
 20
10.2206014709
 30
0.0
  0
SPLINE
  5
2D2
100
AcDbEntity
  8
0
100
AcDbSpline
 62
7
  6
CONTINUOUS
 70
0
 71
3
 72
12
 73
8
 74
0
 42
0.0000001
 43
0.0000001
 44
0.0000000001
 40
0.0
 40
0.0
 40
0.0
 40
0.0
 40
0.1290481751
 40
0.2578339708
 40
0.5123376491
 40
0.7604459715
 40
1.0
 40
1.0
 40
1.0
 40
1.0
 10
11.4338750978
 20
10.216742984
 30
0.0
 10
11.4338938065
 20
10.2113205155
 30
0.0
 10
11.43425901
 20
10.2004844662
 30
0.0
 10
11.436275386
 20
10.1790415012
 30
0.0
 10
11.4411645946
 20
10.152888065
 30
0.0
 10
11.450754066
 20
10.1231284952
 30
0.0
 10
11.4596559363
 20
10.1045797451
 30
0.0
 10
11.4646868024
 20
10.095861254
 30
0.0
  0
SPLINE
  5
2D3
100
AcDbEntity
  8
0
100
AcDbSpline
 62
7
  6
CONTINUOUS
 70
0
 71
3
 72
17
 73
13
 74
0
 42
0.0000001
 43
0.0000001
 44
0.0000000001
 40
0.0
 40
0.0
 40
0.0
 40
0.0
 40
0.1371266795
 40
0.2700543914
 40
0.3988869745
 40
0.523949067
 40
0.6457991326
 40
0.7057701811
 40
0.7652214381
 40
0.8829310139
 40
0.9414970289
 40
1.0
 40
1.0
 40
1.0
 40
1.0
 10
11.4652606094
 20
10.0948734666
 30
0.0
 10
11.4685876958
 20
10.0891840869
 30
0.0
 10
11.4757092786
 20
10.078298848
 30
0.0
 10
11.4879147891
 20
10.0634629972
 30
0.0
 10
11.5013714399
 20
10.0505654872
 30
0.0
 10
11.5159312881
 20
10.039794455
 30
0.0
 10
11.5289294608
 20
10.0327081991
 30
0.0
 10
11.5396682622
 20
10.0283056161
 30
0.0
 10
11.5505170737
 20
10.0247848339
 30
0.0
 10
11.5616788569
 20
10.0225414445
 30
0.0
 10
11.572935807
 20
10.0216411832
 30
0.0
 10
11.5785701107
 20
10.0216417479
 30
0.0
 10
11.5813797101
 20
10.0217544635
 30
0.0
  0
SPLINE
  5
2D4
100
AcDbEntity
  8
0
100
AcDbSpline
 62
7
  6
CONTINUOUS
 70
0
 71
3
 72
22
 73
18
 74
0
 42
0.0000001
 43
0.0000001
 44
0.0000000001
 40
0.0
 40
0.0
 40
0.0
 40
0.0
 40
0.0593474746
 40
0.1247109772
 40
0.1947612989
 40
0.2682847986
 40
0.3441402801
 40
0.4211868203
 40
0.498303993
 40
0.5744079732
 40
0.6483804025
 40
0.7190379106
 40
0.7851609397
 40
0.8455056471
 40
0.8987030308
 40
0.9432450554
 40
1.0
 40
1.0
 40
1.0
 40
1.0
 10
11.4624503737
 20
10.1021189116
 30
0.0
 10
11.4614441509
 20
10.1025072335
 30
0.0
 10
11.4593036293
 20
10.1032567885
 30
0.0
 10
11.4558992087
 20
10.1042323617
 30
0.0
 10
11.4521892796
 20
10.105053665
 30
0.0
 10
11.4482459991
 20
10.1056647982
 30
0.0
 10
11.444147252
 20
10.1060547428
 30
0.0
 10
11.439967338
 20
10.1062070251
 30
0.0
 10
11.4357809573
 20
10.1061061491
 30
0.0
 10
11.4316655612
 20
10.1057402465
 30
0.0
 10
11.4276958101
 20
10.1051472701
 30
0.0
 10
11.4239448932
 20
10.1043619946
 30
0.0
 10
11.4204856048
 20
10.1034213293
 30
0.0
 10
11.4173955761
 20
10.1023599418
 30
0.0
 10
11.4147373555
 20
10.101264729
 30
0.0
 10
11.4122062153
 20
10.1000496005
 30
0.0
 10
11.4106033401
 20
10.0991308182
 30
0.0
 10
11.4097584609
 20
10.0985391729
 30
0.0
  0
SPLINE
  5
2D5
100
AcDbEntity
  8
0
100
AcDbSpline
 62
7
  6
CONTINUOUS
 70
0
 71
3
 72
38
 73
34
 74
0
 42
0.0000001
 43
0.0000001
 44
0.0000000001
 40
0.0
 40
0.0
 40
0.0
 40
0.0
 40
0.0005821271
 40
0.0008800099
 40
0.0009234323
 40
0.0009501229
 40
0.0012112676
 40
0.0017471697
 40
0.0025548361
 40
0.0049737685
 40
0.0084423721
 40
0.0129256375
 40
0.0183869924
 40
0.0247903838
 40
0.0321003357
 40
0.0402819991
 40
0.0591239082
 40
0.0810521763
 40
0.1058158694
 40
0.1331778239
 40
0.1629043598
 40
0.1947628593
 40
0.2285246543
 40
0.3008627532
 40
0.3782390857
 40
0.4591285296
 40
0.542047135
 40
0.625523317
 40
0.7081345481
 40
0.7884441983
 40
0.8649220462
 40
0.9359833884
 40
1.0
 40
1.0
 40
1.0
 40
1.0
 10
11.4093783013
 20
10.3370638557
 30
0.0
 10
11.409370003
 20
10.3370706581
 30
0.0
 10
11.4093550536
 20
10.3370826281
 30
0.0
 10
11.4093466972
 20
10.3370894706
 30
0.0
 10
11.4093375597
 20
10.3370962771
 30
0.0
 10
11.4093438227
 20
10.3370903679
 30
0.0
 10
11.4093534428
 20
10.3370835307
 30
0.0
 10
11.4093783809
 20
10.3370634193
 30
0.0
 10
11.409432501
 20
10.3370228064
 30
0.0
 10
11.4095330027
 20
10.3369489257
 30
0.0
 10
11.4096890655
 20
10.3368396433
 30
0.0
 10
11.4098939101
 20
10.336700731
 30
0.0
 10
11.4101458637
 20
10.3365355829
 30
0.0
 10
11.4104443261
 20
10.3363461911
 30
0.0
 10
11.4107882806
 20
10.3361350597
 30
0.0
 10
11.4113325721
 20
10.3358121346
 30
0.0
 10
11.4121195484
 20
10.3353704186
 30
0.0
 10
11.4131915559
 20
10.3348132203
 30
0.0
 10
11.4144238598
 20
10.3342254616
 30
0.0
 10
11.4158088063
 20
10.3336261353
 30
0.0
 10
11.417334899
 20
10.3330261381
 30
0.0
 10
11.4189907953
 20
10.3324363298
 30
0.0
 10
11.4214127429
 20
10.3316602307
 30
0.0
 10
11.4246826396
 20
10.3307861729
 30
0.0
 10
11.428858711
 20
10.3299756842
 30
0.0
 10
11.4332733579
 20
10.3294252252
 30
0.0
 10
11.4378261473
 20
10.329150294
 30
0.0
 10
11.4424195004
 20
10.3291710404
 30
0.0
 10
11.4469521018
 20
10.3295117747
 30
0.0
 10
11.4513237663
 20
10.3301342227
 30
0.0
 10
11.4554385395
 20
10.3309891541
 30
0.0
 10
11.4591997329
 20
10.3320298435
 30
0.0
 10
11.4615480109
 20
10.3328644427
 30
0.0
 10
11.4626455417
 20
10.3332977936
 30
0.0
  0
SPLINE
  5
2D6
100
AcDbEntity
  8
0
100
AcDbSpline
 62
7
  6
CONTINUOUS
 70
0
 71
3
 72
15
 73
11
 74
0
 42
0.0000001
 43
0.0000001
 44
0.0000000001
 40
0.0
 40
0.0
 40
0.0
 40
0.0
 40
0.1337281524
 40
0.2642909066
 40
0.3918798841
 40
0.5168126581
 40
0.6395857292
 40
0.7606335584
 40
0.8805211035
 40
1.0
 40
1.0
 40
1.0
 40
1.0
 10
11.412830797
 20
10.3409170432
 30
0.0
 10
11.4095461367
 20
10.3463515386
 30
0.0
 10
11.4025218413
 20
10.356782242
 30
0.0
 10
11.390534028
 20
10.3710613389
 30
0.0
 10
11.3773021143
 20
10.3836052838
 30
0.0
 10
11.3629388482
 20
10.3942339179
 30
0.0
 10
11.3475790427
 20
10.4027494403
 30
0.0
 10
11.3314159438
 20
10.4089982177
 30
0.0
 10
11.3146713031
 20
10.4128095642
 30
0.0
 10
11.3032873193
 20
10.4136695021
 30
0.0
 10
11.2976139201
 20
10.4136695021
 30
0.0
  0
SPLINE
  5
2D7
100
AcDbEntity
  8
0
100
AcDbSpline
 62
7
  6
CONTINUOUS
 70
0
 71
3
 72
15
 73
11
 74
0
 42
0.0000001
 43
0.0000001
 44
0.0000000001
 40
0.0
 40
0.0
 40
0.0
 40
0.0
 40
0.1194589323
 40
0.2393238818
 40
0.3603590683
 40
0.4831273597
 40
0.6080628532
 40
0.7356633943
 40
0.8662458324
 40
1.0
 40
1.0
 40
1.0
 40
1.0
 10
11.2976139201
 20
10.0216695021
 30
0.0
 10
11.3032984574
 20
10.0216695021
 30
0.0
 10
11.314704761
 20
10.0225326056
 30
0.0
 10
11.3314810113
 20
10.0263591155
 30
0.0
 10
11.3476725644
 20
10.0326318825
 30
0.0
 10
11.3630568193
 20
10.0411793693
 30
0.0
 10
11.3774391778
 20
10.0518471813
 30
0.0
 10
11.3906844382
 20
10.0644359909
 30
0.0
 10
11.4026794123
 20
10.078764585
 30
0.0
 10
11.4097040767
 20
10.0892300123
 30
0.0
 10
11.4129878668
 20
10.0946822801
 30
0.0
  0
SPLINE
  5
2D8
100
AcDbEntity
  8
0
100
AcDbSpline
 62
7
  6
CONTINUOUS
 70
0
 71
3
 72
14
 73
10
 74
0
 42
0.0000001
 43
0.0000001
 44
0.0000000001
 40
0.0
 40
0.0
 40
0.0
 40
0.0
 40
0.0703880995
 40
0.1543703282
 40
0.2535143932
 40
0.368765012
 40
0.5007149429
 40
0.6497509869
 40
1.0
 40
1.0
 40
1.0
 40
1.0
 10
10.9466915226
 20
10.7182303924
 30
0.0
 10
10.9468876942
 20
10.7180843414
 30
0.0
 10
10.9472786221
 20
10.7177112222
 30
0.0
 10
10.9478140191
 20
10.7170092346
 30
0.0
 10
10.9483486619
 20
10.7161190608
 30
0.0
 10
10.9488828995
 20
10.7150397177
 30
0.0
 10
10.9494173139
 20
10.713770176
 30
0.0
 10
10.9501709916
 20
10.7117098407
 30
0.0
 10
10.9506707214
 20
10.7100468901
 30
0.0
 10
10.9509954298
 20
10.7088740387
 30
0.0
  0
SPLINE
  5
2D9
100
AcDbEntity
  8
0
100
AcDbSpline
 62
7
  6
CONTINUOUS
 70
0
 71
3
 72
10
 73
6
 74
0
 42
0.0000001
 43
0.0000001
 44
0.0000000001
 40
0.0
 40
0.0
 40
0.0
 40
0.0
 40
0.2057505928
 40
0.4409429926
 40
1.0
 40
1.0
 40
1.0
 40
1.0
 10
10.9509954298
 20
10.7088740387
 30
0.0
 10
10.9513166674
 20
10.7077137237
 30
0.0
 10
10.9519491236
 20
10.7052114838
 30
0.0
 10
10.9532028321
 20
10.6994952186
 30
0.0
 10
10.9540240151
 20
10.6949188724
 30
0.0
 10
10.9545575795
 20
10.6916913225
 30
0.0
  0
SPLINE
  5
2DA
100
AcDbEntity
  8
0
100
AcDbSpline
 62
7
  6
CONTINUOUS
 70
0
 71
3
 72
10
 73
6
 74
0
 42
0.0000001
 43
0.0000001
 44
0.0000000001
 40
0.0
 40
0.0
 40
0.0
 40
0.0
 40
0.5590570072
 40
0.794249407
 40
1.0
 40
1.0
 40
1.0
 40
1.0
 10
10.920827106
 20
10.6916913225
 30
0.0
 10
10.9213606704
 20
10.6949188724
 30
0.0
 10
10.9221818533
 20
10.6994952186
 30
0.0
 10
10.9234355619
 20
10.7052114838
 30
0.0
 10
10.9240680181
 20
10.7077137236
 30
0.0
 10
10.9243892557
 20
10.7088740387
 30
0.0
  0
SPLINE
  5
2DB
100
AcDbEntity
  8
0
100
AcDbSpline
 62
7
  6
CONTINUOUS
 70
0
 71
3
 72
14
 73
10
 74
0
 42
0.0000001
 43
0.0000001
 44
0.0000000001
 40
0.0
 40
0.0
 40
0.0
 40
0.0
 40
0.3502490133
 40
0.4992850573
 40
0.6312349883
 40
0.746485607
 40
0.845629672
 40
0.9296119006
 40
1.0
 40
1.0
 40
1.0
 40
1.0
 10
10.9243892557
 20
10.7088740387
 30
0.0
 10
10.924713964
 20
10.7100468901
 30
0.0
 10
10.9252136938
 20
10.7117098407
 30
0.0
 10
10.9259673716
 20
10.713770176
 30
0.0
 10
10.9265017859
 20
10.7150397177
 30
0.0
 10
10.9270360236
 20
10.7161190608
 30
0.0
 10
10.9275706663
 20
10.7170092346
 30
0.0
 10
10.9281060634
 20
10.7177112222
 30
0.0
 10
10.9284969913
 20
10.7180843414
 30
0.0
 10
10.9286931629
 20
10.7182303924
 30
0.0
  0
LINE
  5
2DC
100
AcDbEntity
  8
0
100
AcDbLine
 62
7
  6
CONTINUOUS
 10
11.0085492262
 20
10.7146411606
 11
11.0095274446
 21
10.7145707772
  0
LINE
  5
2DD
100
AcDbEntity
  8
0
100
AcDbLine
 62
7
  6
CONTINUOUS
 10
11.0630969221
 20
10.7099173067
 11
11.0714833686
 21
10.7097500995
  0
LINE
  5
2DE
100
AcDbEntity
  8
0
100
AcDbLine
 62
7
  6
CONTINUOUS
 10
11.0714833686
 20
10.7097500995
 11
11.0726570345
 21
10.7099516069
  0
SPLINE
  5
2DF
100
AcDbEntity
  8
0
100
AcDbSpline
 62
7
  6
CONTINUOUS
 70
0
 71
3
 72
16
 73
12
 74
0
 42
0.0000001
 43
0.0000001
 44
0.0000000001
 40
0.0
 40
0.0
 40
0.0
 40
0.0
 40
0.0244310317
 40
0.046324704
 40
0.0756222152
 40
0.1125048534
 40
0.1570206634
 40
0.2688858879
 40
0.4107242136
 40
0.5810450929
 40
1.0
 40
1.0
 40
1.0
 40
1.0
 10
10.8026923427
 20
10.710009955
 30
0.0
 10
10.802692333
 20
10.7099724893
 30
0.0
 10
10.8027666066
 20
10.7099212704
 30
0.0
 10
10.802869953
 20
10.7098847837
 30
0.0
 10
10.8030031966
 20
10.7098505664
 30
0.0
 10
10.8031695867
 20
10.7098210844
 30
0.0
 10
10.8034638322
 20
10.7097819444
 30
0.0
 10
10.8039196906
 20
10.7097454058
 30
0.0
 10
10.804569489
 20
10.709717075
 30
0.0
 10
10.8056905337
 20
10.7096967215
 30
0.0
 10
10.8065943562
 20
10.7097058237
 30
0.0
 10
10.8072367127
 20
10.7097183909
 30
0.0
  0
LINE
  5
2E0
100
AcDbEntity
  8
0
100
AcDbLine
 62
7
  6
CONTINUOUS
 10
10.8072367127
 20
10.7097183909
 11
10.8122242589
 21
10.7099138472
  0
SPLINE
  5
2E1
100
AcDbEntity
  8
0
100
AcDbSpline
 62
7
  6
CONTINUOUS
 70
0
 71
3
 72
19
 73
15
 74
0
 42
0.0000001
 43
0.0000001
 44
0.0000000001
 40
0.0
 40
0.0
 40
0.0
 40
0.0
 40
0.0513404232
 40
0.1035157628
 40
0.1568840162
 40
0.2117370324
 40
0.3265723777
 40
0.3869241461
 40
0.4492125411
 40
0.5792124487
 40
0.7155633744
 40
0.8565671853
 40
0.9281829456
 40
1.0
 40
1.0
 40
1.0
 40
1.0
 10
11.5740281832
 20
10.0293999139
 30
0.0
 10
11.569909907
 20
10.0299441181
 30
0.0
 10
11.5616683516
 20
10.0315834531
 30
0.0
 10
11.5496028957
 20
10.0356263269
 30
0.0
 10
11.5378599317
 20
10.041226414
 30
0.0
 10
11.5225448093
 20
10.050836331
 30
0.0
 10
11.5085122836
 20
10.0633009855
 30
0.0
 10
11.496074335
 20
10.0779692212
 30
0.0
 10
11.4842846828
 20
10.0947000318
 30
0.0
 10
11.4718111993
 20
10.1183248686
 30
0.0
 10
11.4609243155
 20
10.1495483026
 30
0.0
 10
11.4553874272
 20
10.1773328328
 30
0.0
 10
11.453136482
 20
10.2002490142
 30
0.0
 10
11.4527553641
 20
10.2118586115
 30
0.0
 10
11.4527553641
 20
10.2176695021
 30
0.0
  0
SPLINE
  5
2E2
100
AcDbEntity
  8
0
100
AcDbSpline
 62
7
  6
CONTINUOUS
 70
0
 71
3
 72
19
 73
15
 74
0
 42
0.0000001
 43
0.0000001
 44
0.0000000001
 40
0.0
 40
0.0
 40
0.0
 40
0.0
 40
0.0718367915
 40
0.1434703443
 40
0.2845002572
 40
0.4208652215
 40
0.5508617792
 40
0.6131430751
 40
0.6734842324
 40
0.7882928062
 40
0.8431325639
 40
0.8964901784
 40
0.9486590606
 40
1.0
 40
1.0
 40
1.0
 40
1.0
 10
11.4527553641
 20
10.2176695021
 30
0.0
 10
11.4527553641
 20
10.2234888484
 30
0.0
 10
11.4531375624
 20
10.2351151982
 30
0.0
 10
11.4553949014
 20
10.2580632724
 30
0.0
 10
11.4609473237
 20
10.2858838761
 30
0.0
 10
11.4718638742
 20
10.3171418612
 30
0.0
 10
11.484371211
 20
10.3407853188
 30
0.0
 10
11.496191226
 20
10.3575223375
 30
0.0
 10
11.5086604008
 20
10.3721891793
 30
0.0
 10
11.5227265081
 20
10.3846443156
 30
0.0
 10
11.538076066
 20
10.3942319873
 30
0.0
 10
11.5498435266
 20
10.399810942
 30
0.0
 10
11.5619327677
 20
10.4038262063
 30
0.0
 10
11.5701883177
 20
10.4054438051
 30
0.0
 10
11.5743131024
 20
10.4059763504
 30
0.0
  0
SPLINE
  5
2E3
100
AcDbEntity
  8
0
100
AcDbSpline
 62
9
  6
CONTINUOUS
 70
0
 71
3
 72
9
 73
5
 74
0
 42
0.0000001
 43
0.0000001
 44
0.0000000001
 40
0.0
 40
0.0
 40
0.0
 40
0.0
 40
0.4955658057
 40
1.0
 40
1.0
 40
1.0
 40
1.0
 10
11.5657325847
 20
10.3961704309
 30
0.0
 10
11.5623296241
 20
10.3953804593
 30
0.0
 10
11.5555470139
 20
10.3934013325
 30
0.0
 10
11.5490185015
 20
10.3907035202
 30
0.0
 10
11.5458054072
 20
10.3891800603
 30
0.0
  0
SPLINE
  5
2E4
100
AcDbEntity
  8
0
100
AcDbSpline
 62
9
  6
CONTINUOUS
 70
0
 71
3
 72
18
 73
14
 74
0
 42
0.0000001
 43
0.0000001
 44
0.0000000001
 40
0.0
 40
0.0
 40
0.0
 40
0.0
 40
0.0523246344
 40
0.10593526
 40
0.1609749294
 40
0.217535391
 40
0.3353140588
 40
0.4593346389
 40
0.5235533804
 40
0.5890604536
 40
0.7233029368
 40
0.8608687415
 40
1.0
 40
1.0
 40
1.0
 40
1.0
 10
11.5458054072
 20
10.3891800603
 30
0.0
 10
11.5426197044
 20
10.3876695877
 30
0.0
 10
11.5363205443
 20
10.3842835845
 30
0.0
 10
11.5272896668
 20
10.3782492184
 30
0.0
 10
11.5186229737
 20
10.37123888
 30
0.0
 10
11.5074720673
 20
10.3605136064
 30
0.0
 10
11.4947606848
 20
10.3448255218
 30
0.0
 10
11.4842088562
 20
10.3270315616
 30
0.0
 10
11.4769691855
 20
10.3115316923
 30
0.0
 10
11.4704743068
 20
10.2949624033
 30
0.0
 10
11.4641555837
 20
10.2730680453
 30
0.0
 10
11.4595785662
 20
10.2457049848
 30
0.0
 10
11.4585516325
 20
10.2270442174
 30
0.0
 10
11.4585516325
 20
10.2176695021
 30
0.0
  0
SPLINE
  5
2E5
100
AcDbEntity
  8
0
100
AcDbSpline
 62
9
  6
CONTINUOUS
 70
0
 71
3
 72
18
 73
14
 74
0
 42
0.0000001
 43
0.0000001
 44
0.0000000001
 40
0.0
 40
0.0
 40
0.0
 40
0.0
 40
0.1391220611
 40
0.2766770301
 40
0.4109117421
 40
0.4764168065
 40
0.5406344753
 40
0.6646564167
 40
0.7824418811
 40
0.8390076958
 40
0.8940531768
 40
0.9476695714
 40
1.0
 40
1.0
 40
1.0
 40
1.0
 10
11.4585516325
 20
10.2176695021
 30
0.0
 10
11.4585516325
 20
10.2082988095
 30
0.0
 10
11.4595776359
 20
10.1896461801
 30
0.0
 10
11.4641506806
 20
10.1622946143
 30
0.0
 10
11.4704639355
 20
10.1404088063
 30
0.0
 10
11.4769531047
 20
10.1238450201
 30
0.0
 10
11.4841866179
 20
10.1083492677
 30
0.0
 10
11.4947299913
 20
10.090558553
 30
0.0
 10
11.5074314874
 20
10.0748708911
 30
0.0
 10
11.5185741175
 20
10.0641434176
 30
0.0
 10
11.5272347337
 20
10.0571302047
 30
0.0
 10
11.5362598659
 20
10.0510922719
 30
0.0
 10
11.5425550801
 20
10.0477028277
 30
0.0
 10
11.5457388974
 20
10.0461904568
 30
0.0
  0
SPLINE
  5
2E6
100
AcDbEntity
  8
0
100
AcDbSpline
 62
9
  6
CONTINUOUS
 70
0
 71
3
 72
9
 73
5
 74
0
 42
0.0000001
 43
0.0000001
 44
0.0000000001
 40
0.0
 40
0.0
 40
0.0
 40
0.0
 40
0.50441824
 40
1.0
 40
1.0
 40
1.0
 40
1.0
 10
11.5457388974
 20
10.0461904568
 30
0.0
 10
11.5489270195
 20
10.044676041
 30
0.0
 10
11.555404008
 20
10.0419910767
 30
0.0
 10
11.5621322726
 20
10.040013433
 30
0.0
 10
11.565508216
 20
10.0392210066
 30
0.0
  0
SPLINE
  5
2E7
100
AcDbEntity
  8
0
100
AcDbSpline
 62
9
  6
CONTINUOUS
 70
0
 71
3
 72
13
 73
9
 74
0
 42
0.0000001
 43
0.0000001
 44
0.0000000001
 40
0.0
 40
0.0
 40
0.0
 40
0.0
 40
0.1312129435
 40
0.261965392
 40
0.5187445881
 40
0.6438278927
 40
0.7660283771
 40
1.0
 40
1.0
 40
1.0
 40
1.0
 10
11.4856222651
 20
10.2176695021
 30
0.0
 10
11.4856222651
 20
10.2121209067
 30
0.0
 10
11.4860135935
 20
10.2010384007
 30
0.0
 10
11.4883217417
 20
10.1792121658
 30
0.0
 10
11.4928991406
 20
10.1579285587
 30
0.0
 10
11.4997368311
 20
10.1377189521
 30
0.0
 10
11.507765084
 20
10.1190048452
 30
0.0
 10
11.5154050561
 20
10.1059058733
 30
0.0
 10
11.5211911699
 20
10.0978802226
 30
0.0
  0
SPLINE
  5
2E8
100
AcDbEntity
  8
0
100
AcDbSpline
 62
9
  6
CONTINUOUS
 70
0
 71
3
 72
10
 73
6
 74
0
 42
0.0000001
 43
0.0000001
 44
0.0000000001
 40
0.0
 40
0.0
 40
0.0
 40
0.0
 40
0.2559334653
 40
0.5096544517
 40
1.0
 40
1.0
 40
1.0
 40
1.0
 10
11.5030239794
 20
10.2176695021
 30
0.0
 10
11.5030239794
 20
10.2279864347
 30
0.0
 10
11.5040254585
 20
10.2485501678
 30
0.0
 10
11.5099031399
 20
10.2884633704
 30
0.0
 10
11.5187125575
 20
10.3174451338
 30
0.0
 10
11.5265864192
 20
10.3355754834
 30
0.0
  0
SPLINE
  5
2E9
100
AcDbEntity
  8
0
100
AcDbSpline
 62
9
  6
CONTINUOUS
 70
0
 71
3
 72
9
 73
5
 74
0
 42
0.0000001
 43
0.0000001
 44
0.0000000001
 40
0.0
 40
0.0
 40
0.0
 40
0.0
 40
0.2569919022
 40
1.0
 40
1.0
 40
1.0
 40
1.0
 10
11.5265864192
 20
10.3355754834
 30
0.0
 10
11.5282694413
 20
10.3394508092
 30
0.0
 10
11.5351891594
 20
10.35436448
 30
0.0
 10
11.5436342687
 20
10.3685871081
 30
0.0
 10
11.5507774263
 20
10.3784960593
 30
0.0
  0
SPLINE
  5
2EA
100
AcDbEntity
  8
0
100
AcDbSpline
 62
7
  6
CONTINUOUS
 70
0
 71
3
 72
9
 73
5
 74
0
 42
0.0000001
 43
0.0000001
 44
0.0000000001
 40
0.0
 40
0.0
 40
0.0
 40
0.0
 40
0.4955083279
 40
1.0
 40
1.0
 40
1.0
 40
1.0
 10
10.5722819842
 20
10.0155561865
 30
0.0
 10
10.5683545827
 20
10.016496898
 30
0.0
 10
10.560530586
 20
10.0188471866
 30
0.0
 10
10.5530128324
 20
10.0220397587
 30
0.0
 10
10.5493162314
 20
10.0238401162
 30
0.0
  0
SPLINE
  5
2EB
100
AcDbEntity
  8
0
100
AcDbSpline
 62
7
  6
CONTINUOUS
 70
0
 71
3
 72
9
 73
5
 74
0
 42
0.0000001
 43
0.0000001
 44
0.0000000001
 40
0.0
 40
0.0
 40
0.0
 40
0.0
 40
0.5045247203
 40
1.0
 40
1.0
 40
1.0
 40
1.0
 10
10.5493471067
 20
10.4115138779
 30
0.0
 10
10.5530834008
 20
10.4133322514
 30
0.0
 10
10.5606834053
 20
10.4165522116
 30
0.0
 10
10.5685952063
 20
10.4189107268
 30
0.0
 10
10.5725662845
 20
10.4198504445
 30
0.0
  0
SPLINE
  5
2EC
100
AcDbEntity
  8
0
100
AcDbSpline
 62
7
  6
CONTINUOUS
 70
0
 71
3
 72
27
 73
23
 74
0
 42
0.0000001
 43
0.0000001
 44
0.0000000001
 40
0.0
 40
0.0
 40
0.0
 40
0.0
 40
0.0699641876
 40
0.1378624009
 40
0.203509254
 40
0.2667911828
 40
0.3277248237
 40
0.3865287277
 40
0.4152876831
 40
0.4437169218
 40
0.4719170594
 40
0.4999995914
 40
0.528082124
 40
0.5562822605
 40
0.5847114968
 40
0.6134704481
 40
0.6722743457
 40
0.7332079778
 40
0.7964899096
 40
0.8621367308
 40
0.9300350354
 40
1.0
 40
1.0
 40
1.0
 40
1.0
 10
10.5586612113
 20
8.5036149989
 30
0.0
 10
10.5513812117
 20
8.5108740277
 30
0.0
 10
10.5367221514
 20
8.5248686791
 30
0.0
 10
10.5140227624
 20
8.5443613533
 30
0.0
 10
10.4908891655
 20
8.5617607102
 30
0.0
 10
10.4673090633
 20
8.5767374761
 30
0.0
 10
10.4432898125
 20
8.5889382018
 30
0.0
 10
10.4227735741
 20
8.5965498882
 30
0.0
 10
10.4062698793
 20
8.6008545873
 30
0.0
 10
10.3939266687
 20
8.6031676028
 30
0.0
 10
10.3815463272
 20
8.6045653931
 30
0.0
 10
10.3691466483
 20
8.6050323421
 30
0.0
 10
10.3567469693
 20
8.6045653931
 30
0.0
 10
10.3443666293
 20
8.6031675946
 30
0.0
 10
10.332023419
 20
8.6008545838
 30
0.0
 10
10.3155197284
 20
8.5965498752
 30
0.0
 10
10.295003493
 20
8.5889381907
 30
0.0
 10
10.2709842438
 20
8.5767374659
 30
0.0
 10
10.2474041513
 20
8.5617606915
 30
0.0
 10
10.2242705527
 20
8.5443613344
 30
0.0
 10
10.2015709444
 20
8.5248686991
 30
0.0
 10
10.1869123554
 20
8.5108733702
 30
0.0
 10
10.1796322749
 20
8.5036142608
 30
0.0
  0
SPLINE
  5
2ED
100
AcDbEntity
  8
0
100
AcDbSpline
 62
9
  6
CONTINUOUS
 70
0
 71
3
 72
15
 73
11
 74
0
 42
0.0000001
 43
0.0000001
 44
0.0000000001
 40
0.0
 40
0.0
 40
0.0
 40
0.0
 40
0.1171883458
 40
0.2354516052
 40
0.3554003745
 40
0.4776517423
 40
0.6028116268
 40
0.7313849162
 40
0.8637166906
 40
1.0
 40
1.0
 40
1.0
 40
1.0
 10
10.5606770773
 20
10.4043365726
 30
0.0
 10
10.557004172
 20
10.4042805277
 30
0.0
 10
10.5496242876
 20
10.4037272175
 30
0.0
 10
10.5386648906
 20
10.4016006313
 30
0.0
 10
10.5278681753
 20
10.3981872639
 30
0.0
 10
10.5173218169
 20
10.3935083002
 30
0.0
 10
10.5070959103
 20
10.3876073083
 30
0.0
 10
10.497261551
 20
10.3805217753
 30
0.0
 10
10.4878842683
 20
10.3723064124
 30
0.0
 10
10.4820638323
 20
10.3662049421
 30
0.0
 10
10.4792470493
 20
10.3629932993
 30
0.0
  0
SPLINE
  5
2EE
100
AcDbEntity
  8
0
100
AcDbSpline
 62
9
  6
CONTINUOUS
 70
0
 71
3
 72
9
 73
5
 74
0
 42
0.0000001
 43
0.0000001
 44
0.0000000001
 40
0.0
 40
0.0
 40
0.0
 40
0.0
 40
0.244460588
 40
1.0
 40
1.0
 40
1.0
 40
1.0
 10
10.4792470493
 20
10.3629932993
 30
0.0
 10
10.4777055583
 20
10.3612357204
 30
0.0
 10
10.4715651688
 20
10.3539020209
 30
0.0
 10
10.4660814618
 20
10.3460247543
 30
0.0
 10
10.4623083554
 20
10.3398629142
 30
0.0
  0
SPLINE
  5
2EF
100
AcDbEntity
  8
0
100
AcDbSpline
 62
9
  6
CONTINUOUS
 70
0
 71
3
 72
9
 73
5
 74
0
 42
0.0000001
 43
0.0000001
 44
0.0000000001
 40
0.0
 40
0.0
 40
0.0
 40
0.0
 40
0.2563672516
 40
1.0
 40
1.0
 40
1.0
 40
1.0
 10
10.4612889342
 20
10.0971608064
 30
0.0
 10
10.4626902677
 20
10.0948165175
 30
0.0
 10
10.4683568367
 20
10.0857946859
 30
0.0
 10
10.4748395295
 20
10.077276787
 30
0.0
 10
10.4801139986
 20
10.0713656064
 30
0.0
  0
SPLINE
  5
2F0
100
AcDbEntity
  8
0
100
AcDbSpline
 62
9
  6
CONTINUOUS
 70
0
 71
3
 72
15
 73
11
 74
0
 42
0.0000001
 43
0.0000001
 44
0.0000000001
 40
0.0
 40
0.0
 40
0.0
 40
0.0
 40
0.1361895047
 40
0.2684204205
 40
0.3969016393
 40
0.5219945633
 40
0.6442228357
 40
0.7642117503
 40
0.8825961899
 40
1.0
 40
1.0
 40
1.0
 40
1.0
 10
10.4801139986
 20
10.0713656064
 30
0.0
 10
10.4829596405
 20
10.0681764506
 30
0.0
 10
10.4888375547
 20
10.0621241421
 30
0.0
 10
10.4983001749
 20
10.0539971419
 30
0.0
 10
10.5082159465
 20
10.0470137726
 30
0.0
 10
10.5185183678
 20
10.0412287779
 30
0.0
 10
10.5291351968
 20
10.0366790665
 30
0.0
 10
10.5399951614
 20
10.0334076477
 30
0.0
 10
10.5510095
 20
10.0314348391
 30
0.0
 10
10.5584166691
 20
10.0309915662
 30
0.0
 10
10.5621012552
 20
10.0309915662
 30
0.0
  0
SPLINE
  5
2F1
100
AcDbEntity
  8
0
100
AcDbSpline
 62
9
  6
CONTINUOUS
 70
0
 71
3
 72
17
 73
13
 74
0
 42
0.0000001
 43
0.0000001
 44
0.0000000001
 40
0.0
 40
0.0
 40
0.0
 40
0.0
 40
0.1180494616
 40
0.2418117276
 40
0.3697059446
 40
0.434634662
 40
0.4998406387
 40
0.5650521638
 40
0.6299975652
 40
0.7579567758
 40
0.8818211266
 40
1.0
 40
1.0
 40
1.0
 40
1.0
 10
10.6806081771
 20
10.34906454
 30
0.0
 10
10.6864367326
 20
10.3399423943
 30
0.0
 10
10.696787673
 20
10.3202070368
 30
0.0
 10
10.7079351046
 20
10.2880791185
 30
0.0
 10
10.7136234755
 20
10.2595126893
 30
0.0
 10
10.7159521426
 20
10.2359530557
 30
0.0
 10
10.7165576431
 20
10.2180367675
 30
0.0
 10
10.7159996081
 20
10.2001174104
 30
0.0
 10
10.713732964
 20
10.1765436925
 30
0.0
 10
10.7081194545
 20
10.1479454248
 30
0.0
 10
10.6970569051
 20
10.1157596974
 30
0.0
 10
10.686759648
 20
10.0959727703
 30
0.0
 10
10.6809559155
 20
10.0868207563
 30
0.0
  0
SPLINE
  5
2F2
100
AcDbEntity
  8
0
100
AcDbSpline
 62
9
  6
CONTINUOUS
 70
0
 71
3
 72
35
 73
31
 74
0
 42
0.0000001
 43
0.0000001
 44
0.0000000001
 40
0.0
 40
0.0
 40
0.0
 40
0.0
 40
0.025714409
 40
0.0517327344
 40
0.0782382814
 40
0.1054185476
 40
0.1334385386
 40
0.1624143434
 40
0.1924068493
 40
0.2234394722
 40
0.2884536948
 40
0.3569880854
 40
0.3923108783
 40
0.4281266313
 40
0.4642758295
 40
0.5005881571
 40
0.5368908942
 40
0.5730115988
 40
0.608780608
 40
0.6440395913
 40
0.712401804
 40
0.7772015753
 40
0.8081197563
 40
0.8379982401
 40
0.8668650737
 40
0.8947860761
 40
0.9218822813
 40
0.9483233259
 40
0.9743006093
 40
1.0
 40
1.0
 40
1.0
 40
1.0
 10
10.5635254331
 20
10.0310024317
 30
0.0
 10
10.5678323633
 20
10.0310681512
 30
0.0
 10
10.5764991418
 20
10.0318079243
 30
0.0
 10
10.5893212025
 20
10.0346976537
 30
0.0
 10
10.6018756005
 20
10.039353401
 30
0.0
 10
10.6140309591
 20
10.0457190848
 30
0.0
 10
10.6256745749
 20
10.0537282997
 30
0.0
 10
10.6366983921
 20
10.0633007353
 30
0.0
 10
10.6470042993
 20
10.0743403911
 30
0.0
 10
10.6598455519
 20
10.091135177
 30
0.0
 10
10.6734720854
 20
10.1152731113
 30
0.0
 10
10.6832701176
 20
10.1419327701
 30
0.0
 10
10.6888873157
 20
10.1646619635
 30
0.0
 10
10.6919380251
 20
10.182389278
 30
0.0
 10
10.6937491865
 20
10.2004507052
 30
0.0
 10
10.6943114442
 20
10.2186757566
 30
0.0
 10
10.6936105095
 20
10.2368912373
 30
0.0
 10
10.6916619808
 20
10.2549241011
 30
0.0
 10
10.6884764929
 20
10.2726040986
 30
0.0
 10
10.6826878847
 20
10.2952414218
 30
0.0
 10
10.6726903074
 20
10.3217470972
 30
0.0
 10
10.6588774862
 20
10.3456838926
 30
0.0
 10
10.6459064937
 20
10.3622850648
 30
0.0
 10
10.635516176
 20
10.3731677137
 30
0.0
 10
10.6244188884
 20
10.3825721772
 30
0.0
 10
10.6127135053
 20
10.39040384
 30
0.0
 10
10.6005088157
 20
10.3965839071
 30
0.0
 10
10.5879182439
 20
10.4010476019
 30
0.0
 10
10.5750739088
 20
10.4037408655
 30
0.0
 10
10.5664061711
 20
10.4043474381
 30
0.0
 10
10.5621012552
 20
10.4043474381
 30
0.0
  0
SPLINE
  5
2F3
100
AcDbEntity
  8
0
100
AcDbSpline
 62
7
  6
CONTINUOUS
 70
0
 71
3
 72
32
 73
28
 74
0
 42
0.0000001
 43
0.0000001
 44
0.0000000001
 40
0.0
 40
0.0
 40
0.0
 40
0.0
 40
0.0256830575
 40
0.0517845871
 40
0.0784727308
 40
0.1059018479
 40
0.1341904136
 40
0.1634069362
 40
0.1935873444
 40
0.2247328159
 40
0.2897242198
 40
0.3578906659
 40
0.4283502241
 40
0.4641228418
 40
0.5000467898
 40
0.5359705286
 40
0.5717424051
 40
0.6421992564
 40
0.7103620491
 40
0.77534977
 40
0.8064937763
 40
0.8366726663
 40
0.894100683
 40
0.9215286273
 40
0.9482161049
 40
0.9743172895
 40
1.0
 40
1.0
 40
1.0
 40
1.0
 10
10.3016918942
 20
10.4058933405
 30
0.0
 10
10.3058050822
 20
10.4053346417
 30
0.0
 10
10.3140347749
 20
10.4036689264
 30
0.0
 10
10.3260779132
 20
10.3995934803
 30
0.0
 10
10.3377920362
 20
10.3939656708
 30
0.0
 10
10.3490784259
 20
10.3868422206
 30
0.0
 10
10.3598420047
 20
10.3782818626
 30
0.0
 10
10.369999719
 20
10.3683667237
 30
0.0
 10
10.3794606523
 20
10.3571746089
 30
0.0
 10
10.3912100645
 20
10.3404511073
 30
0.0
 10
10.4036448072
 20
10.3168455866
 30
0.0
 10
10.4144901418
 20
10.285662533
 30
0.0
 10
10.4200080457
 20
10.2579255612
 30
0.0
 10
10.4222515134
 20
10.23504681
 30
0.0
 10
10.4228186482
 20
10.2176493095
 30
0.0
 10
10.4222488313
 20
10.2002520237
 30
0.0
 10
10.4200020933
 20
10.1773741728
 30
0.0
 10
10.4144801314
 20
10.1496392826
 30
0.0
 10
10.4036298071
 20
10.1184591537
 30
0.0
 10
10.3911923487
 20
10.0948583286
 30
0.0
 10
10.3794383784
 20
10.0781357595
 30
0.0
 10
10.3670343833
 20
10.0634675326
 30
0.0
 10
10.3530400539
 20
10.0509931656
 30
0.0
 10
10.3377646867
 20
10.0413583571
 30
0.0
 10
10.3260484452
 20
10.0357333981
 30
0.0
 10
10.3140044374
 20
10.0316619879
 30
0.0
 10
10.3057742797
 20
10.0299988694
 30
0.0
 10
10.3016609681
 20
10.0294414982
 30
0.0
  0
SPLINE
  5
2F4
100
AcDbEntity
  8
0
100
AcDbSpline
 62
9
  6
CONTINUOUS
 70
0
 71
3
 72
9
 73
5
 74
0
 42
0.0000001
 43
0.0000001
 44
0.0000000001
 40
0.0
 40
0.0
 40
0.0
 40
0.0
 40
0.4957401705
 40
1.0
 40
1.0
 40
1.0
 40
1.0
 10
10.3100441984
 20
10.0392612413
 30
0.0
 10
10.313387208
 20
10.0400519933
 30
0.0
 10
10.3200479769
 20
10.0420176453
 30
0.0
 10
10.3264617516
 20
10.0446774043
 30
0.0
 10
10.3296184899
 20
10.0461757732
 30
0.0
  0
SPLINE
  5
2F5
100
AcDbEntity
  8
0
100
AcDbSpline
 62
9
  6
CONTINUOUS
 70
0
 71
3
 72
28
 73
24
 74
0
 42
0.0000001
 43
0.0000001
 44
0.0000000001
 40
0.0
 40
0.0
 40
0.0
 40
0.0
 40
0.0261614184
 40
0.0529659264
 40
0.0804878049
 40
0.1087712771
 40
0.1676650862
 40
0.2296746694
 40
0.2945047054
 40
0.3616351947
 40
0.4303849984
 40
0.4999715237
 40
0.5695583478
 40
0.6383089029
 40
0.7054409241
 40
0.7381970341
 40
0.7703067625
 40
0.8323205232
 40
0.8912193909
 40
0.9195054668
 40
0.9470297608
 40
0.9738364286
 40
1.0
 40
1.0
 40
1.0
 40
1.0
 10
10.3296184899
 20
10.0461757732
 30
0.0
 10
10.3328025056
 20
10.0476870896
 30
0.0
 10
10.339098018
 20
10.0510749426
 30
0.0
 10
10.3481237909
 20
10.0571111718
 30
0.0
 10
10.3567863305
 20
10.0641223594
 30
0.0
 10
10.3679325541
 20
10.0748475596
 30
0.0
 10
10.3806386568
 20
10.0905350567
 30
0.0
 10
10.3934372585
 20
10.1121253334
 30
0.0
 10
10.4037133951
 20
10.1362289778
 30
0.0
 10
10.4112261768
 20
10.162269548
 30
0.0
 10
10.4158067639
 20
10.1896280938
 30
0.0
 10
10.4173478239
 20
10.2176538414
 30
0.0
 10
10.4158101673
 20
10.2456805617
 30
0.0
 10
10.4112331115
 20
10.273038011
 30
0.0
 10
10.4049227397
 20
10.2949242535
 30
0.0
 10
10.3984327441
 20
10.3114919137
 30
0.0
 10
10.3911982346
 20
10.3269895402
 30
0.0
 10
10.3806532908
 20
10.3447824875
 30
0.0
 10
10.3679496226
 20
10.3604723314
 30
0.0
 10
10.3568042958
 20
10.3712006376
 30
0.0
 10
10.3481424324
 20
10.3782141556
 30
0.0
 10
10.3391170069
 20
10.384252551
 30
0.0
 10
10.3328216826
 20
10.387641967
 30
0.0
 10
10.3296377173
 20
10.3891540658
 30
0.0
  0
SPLINE
  5
2F6
100
AcDbEntity
  8
0
100
AcDbSpline
 62
9
  6
CONTINUOUS
 70
0
 71
3
 72
9
 73
5
 74
0
 42
0.0000001
 43
0.0000001
 44
0.0000000001
 40
0.0
 40
0.0
 40
0.0
 40
0.0
 40
0.5042603327
 40
1.0
 40
1.0
 40
1.0
 40
1.0
 10
10.3296377173
 20
10.3891540658
 30
0.0
 10
10.3264844896
 20
10.3906515669
 30
0.0
 10
10.3200779553
 20
10.3933103071
 30
0.0
 10
10.3134247305
 20
10.395276489
 30
0.0
 10
10.3100854733
 20
10.3960679401
 30
0.0
  0
SPLINE
  5
2F7
100
AcDbEntity
  8
0
100
AcDbSpline
 62
9
  6
CONTINUOUS
 70
0
 71
3
 72
14
 73
10
 74
0
 42
0.0000001
 43
0.0000001
 44
0.0000000001
 40
0.0
 40
0.0
 40
0.0
 40
0.0
 40
0.2339280142
 40
0.3561114484
 40
0.4811805221
 40
0.6086647213
 40
0.7380661543
 40
0.8687886704
 40
1.0
 40
1.0
 40
1.0
 40
1.0
 10
11.5507774263
 20
10.056842945
 30
0.0
 10
11.5430097392
 20
10.0676182404
 30
0.0
 10
11.5327503977
 20
10.0852041391
 30
0.0
 10
11.5219748352
 20
10.1103295463
 30
0.0
 10
11.5151461092
 20
10.1305084421
 30
0.0
 10
11.509768788
 20
10.1515397513
 30
0.0
 10
11.5058874468
 20
10.1732245445
 30
0.0
 10
11.5035487607
 20
10.1953402099
 30
0.0
 10
11.5030239794
 20
10.2102188808
 30
0.0
 10
11.5030239794
 20
10.2176695021
 30
0.0
  0
SPLINE
  5
2F8
100
AcDbEntity
  8
0
100
AcDbSpline
 62
9
  6
CONTINUOUS
 70
0
 71
3
 72
13
 73
9
 74
0
 42
0.0000001
 43
0.0000001
 44
0.0000000001
 40
0.0
 40
0.0
 40
0.0
 40
0.0
 40
0.2339716229
 40
0.3561721073
 40
0.4812554119
 40
0.738034608
 40
0.8687870565
 40
1.0
 40
1.0
 40
1.0
 40
1.0
 10
11.5211911699
 20
10.3374587817
 30
0.0
 10
11.5154050561
 20
10.329433131
 30
0.0
 10
11.507765084
 20
10.3163341591
 30
0.0
 10
11.4997368311
 20
10.2976200521
 30
0.0
 10
11.4928991406
 20
10.2774104456
 30
0.0
 10
11.4883217417
 20
10.2561268385
 30
0.0
 10
11.4860135935
 20
10.2343006036
 30
0.0
 10
11.4856222651
 20
10.2232180976
 30
0.0
 10
11.4856222651
 20
10.2176695021
 30
0.0
  0
SPLINE
  5
2F9
100
AcDbEntity
  8
0
100
AcDbSpline
 62
7
  6
CONTINUOUS
 70
0
 71
3
 72
27
 73
23
 74
0
 42
0.0000001
 43
0.0000001
 44
0.0000000001
 40
0.0
 40
0.0
 40
0.0
 40
0.0
 40
0.0699657873
 40
0.1378641396
 40
0.2035108755
 40
0.2667927561
 40
0.3277263378
 40
0.3865301799
 40
0.4152891021
 40
0.4437183056
 40
0.4719184059
 40
0.5000008984
 40
0.5280833892
 40
0.5562834818
 40
0.5847126724
 40
0.6134715763
 40
0.6722753756
 40
0.7332089067
 40
0.796490733
 40
0.8621374668
 40
0.9300356111
 40
1.0
 40
1.0
 40
1.0
 40
1.0
 10
11.6957525946
 20
8.5036130456
 30
0.0
 10
11.6884724102
 20
8.5108722585
 30
0.0
 10
11.6738143592
 20
8.5248684081
 30
0.0
 10
11.6511144768
 20
8.5443610496
 30
0.0
 10
11.627980855
 20
8.5617604595
 30
0.0
 10
11.6044007482
 20
8.5767372954
 30
0.0
 10
11.5803814734
 20
8.5889380666
 30
0.0
 10
11.5598652168
 20
8.5965497963
 30
0.0
 10
11.5433615057
 20
8.6008545266
 30
0.0
 10
11.531018283
 20
8.6031675643
 30
0.0
 10
11.5186379288
 20
8.6045653749
 30
0.0
 10
11.5062382369
 20
8.6050323424
 30
0.0
 10
11.4938385444
 20
8.60456541
 30
0.0
 10
11.4814581907
 20
8.6031676259
 30
0.0
 10
11.4691149665
 20
8.6008546273
 30
0.0
 10
11.4526112572
 20
8.596549932
 30
0.0
 10
11.4320949977
 20
8.5889382583
 30
0.0
 10
11.4080757215
 20
8.5767375353
 30
0.0
 10
11.384495598
 20
8.5617607615
 30
0.0
 10
11.3613619753
 20
8.5443613939
 30
0.0
 10
11.3386624756
 20
8.5248687193
 30
0.0
 10
11.3240035867
 20
8.5108737868
 30
0.0
 10
11.316723546
 20
8.5036147209
 30
0.0
  0
SPLINE
  5
2FA
100
AcDbEntity
  8
0
100
AcDbSpline
 62
7
  6
CONTINUOUS
 70
0
 71
3
 72
21
 73
17
 74
0
 42
0.0000001
 43
0.0000001
 44
0.0000000001
 40
0.0
 40
0.0
 40
0.0
 40
0.0
 40
0.0625075666
 40
0.1250150888
 40
0.2499846804
 40
0.3124897055
 40
0.374993837
 40
0.4374971785
 40
0.5000000213
 40
0.5625028623
 40
0.6250061946
 40
0.6875103172
 40
0.7500153318
 40
0.8749849127
 40
0.9374924327
 40
1.0
 40
1.0
 40
1.0
 40
1.0
 10
11.3167216946
 20
8.5036147209
 30
0.0
 10
11.3019590702
 20
8.5109747744
 30
0.0
 10
11.2721687477
 20
8.5251756077
 30
0.0
 10
11.2115242288
 20
8.5511663314
 30
0.0
 10
11.1491021122
 20
8.572956177
 30
0.0
 10
11.0851074291
 20
8.5891275758
 30
0.0
 10
11.0364048867
 20
8.5981067991
 30
0.0
 10
10.9871872379
 20
8.6036325307
 30
0.0
 10
10.9376925036
 20
8.6054990906
 30
0.0
 10
10.8881977709
 20
8.6036325535
 30
0.0
 10
10.8389801247
 20
8.5981068464
 30
0.0
 10
10.7902775852
 20
8.5891276478
 30
0.0
 10
10.7262829041
 20
8.5729562763
 30
0.0
 10
10.663860777
 20
8.55116647
 30
0.0
 10
10.6032162762
 20
8.5251757211
 30
0.0
 10
10.5734258769
 20
8.5109750493
 30
0.0
 10
10.5586632507
 20
8.5036149989
 30
0.0
  0
SPLINE
  5
2FB
100
AcDbEntity
  8
0
100
AcDbSpline
 62
9
  6
CONTINUOUS
 70
0
 71
3
 72
29
 73
25
 74
0
 42
0.0000001
 43
0.0000001
 44
0.0000000001
 40
0.0
 40
0.0
 40
0.0
 40
0.0
 40
0.0650824254
 40
0.1268318004
 40
0.1854005505
 40
0.2412761436
 40
0.2684853031
 40
0.2953553269
 40
0.3220292329
 40
0.3486572233
 40
0.3753928788
 40
0.4023835204
 40
0.4297683737
 40
0.4576715698
 40
0.4861969907
 40
0.5154315192
 40
0.5762047081
 40
0.6402993638
 40
0.7076470448
 40
0.7424618518
 40
0.7779400078
 40
0.8505569237
 40
0.9248802514
 40
1.0
 40
1.0
 40
1.0
 40
1.0
 10
11.4130773954
 20
10.3398616247
 30
0.0
 10
11.4088169934
 20
10.346819592
 30
0.0
 10
11.3995996914
 20
10.3598522991
 30
0.0
 10
11.3834150285
 20
10.3766650449
 30
0.0
 10
11.3655672953
 20
10.3898674166
 30
0.0
 10
11.3494652305
 20
10.3976454806
 30
0.0
 10
11.3362624528
 20
10.4016792238
 30
0.0
 10
11.3263065382
 20
10.4036156627
 30
0.0
 10
11.3162743014
 20
10.4044796431
 30
0.0
 10
11.3062237343
 20
10.4042599605
 30
0.0
 10
11.2962156442
 20
10.4029599353
 30
0.0
 10
11.2863081369
 20
10.4005918564
 30
0.0
 10
11.2765608735
 20
10.3971644552
 30
0.0
 10
11.267030473
 20
10.3927021208
 30
0.0
 10
11.2577693685
 20
10.387234278
 30
0.0
 10
11.2457041512
 20
10.3785310768
 30
0.0
 10
11.2315823584
 20
10.3652067791
 30
0.0
 10
11.2167834024
 20
10.3460863831
 30
0.0
 10
11.2064140319
 20
10.3279298789
 30
0.0
 10
11.1993109337
 20
10.3121956193
 30
0.0
 10
11.1929495702
 20
10.295437302
 30
0.0
 10
11.1867649401
 20
10.27336328
 30
0.0
 10
11.1822867953
 20
10.2458365461
 30
0.0
 10
11.1812821958
 20
10.2270864723
 30
0.0
 10
11.1812821958
 20
10.2176695021
 30
0.0
  0
SPLINE
  5
2FC
100
AcDbEntity
  8
0
100
AcDbSpline
 62
9
  6
CONTINUOUS
 70
0
 71
3
 72
12
 73
8
 74
0
 42
0.0000001
 43
0.0000001
 44
0.0000000001
 40
0.0
 40
0.0
 40
0.0
 40
0.0
 40
0.2364546582
 40
0.4840272096
 40
0.7398184351
 40
0.8697094425
 40
1.0
 40
1.0
 40
1.0
 40
1.0
 10
11.1941986084
 20
10.0871843005
 30
0.0
 10
11.1885336372
 20
10.096162334
 30
0.0
 10
11.17846192
 20
10.1155350987
 30
0.0
 10
11.1675487857
 20
10.1470099364
 30
0.0
 10
11.1619136909
 20
10.1749694728
 30
0.0
 10
11.1595353867
 20
10.1980235958
 30
0.0
 10
11.1590736855
 20
10.2097054705
 30
0.0
 10
11.1590290577
 20
10.2155548335
 30
0.0
  0
SPLINE
  5
2FD
100
AcDbEntity
  8
0
100
AcDbSpline
 62
7
  6
CONTINUOUS
 70
0
 71
3
 72
19
 73
15
 74
0
 42
0.0000001
 43
0.0000001
 44
0.0000000001
 40
0.0
 40
0.0
 40
0.0
 40
0.0
 40
0.127328126
 40
0.188246208
 40
0.2476646978
 40
0.3060367561
 40
0.3638454285
 40
0.4215573664
 40
0.4796528075
 40
0.5385815496
 40
0.5987219028
 40
0.723830507
 40
0.8571758986
 40
1.0
 40
1.0
 40
1.0
 40
1.0
 10
10.5434803034
 20
10.4226695021
 30
0.0
 10
10.5379316491
 20
10.4226695021
 30
0.0
 10
10.5296970706
 20
10.4219935238
 30
0.0
 10
10.5191663504
 20
10.4195700971
 30
0.0
 10
10.5117765479
 20
10.4170679831
 30
0.0
 10
10.5048060434
 20
10.4138785728
 30
0.0
 10
10.4982646257
 20
10.4100266712
 30
0.0
 10
10.4921612788
 20
10.4055338862
 30
0.0
 10
10.4864964247
 20
10.4004279723
 30
0.0
 10
10.4812623459
 20
10.3947381043
 30
0.0
 10
10.4747617298
 20
10.3862994308
 30
0.0
 10
10.467666851
 20
10.374300322
 30
0.0
 10
10.4608002589
 20
10.3581788596
 30
0.0
 10
10.4572560051
 20
10.3466566266
 30
0.0
 10
10.4556627626
 20
10.340640074
 30
0.0
  0
SPLINE
  5
2FE
100
AcDbEntity
  8
0
100
AcDbSpline
 62
7
  6
CONTINUOUS
 70
0
 71
3
 72
18
 73
14
 74
0
 42
0.0000001
 43
0.0000001
 44
0.0000000001
 40
0.0
 40
0.0
 40
0.0
 40
0.0
 40
0.143396034
 40
0.2771589497
 40
0.4024940151
 40
0.5214618875
 40
0.579487523
 40
0.6370977128
 40
0.6947671623
 40
0.7529770484
 40
0.8122343371
 40
0.8729919218
 40
1.0
 40
1.0
 40
1.0
 40
1.0
 10
10.4551894866
 20
10.0965150295
 30
0.0
 10
10.4567634236
 20
10.0903758399
 30
0.0
 10
10.4602719905
 20
10.0786190644
 30
0.0
 10
10.4671065144
 20
10.0621524797
 30
0.0
 10
10.4754958475
 20
10.0476362978
 30
0.0
 10
10.484005444
 20
10.0372348588
 30
0.0
 10
10.4916572737
 20
10.030215626
 30
0.0
 10
10.4978008667
 20
10.0256184124
 30
0.0
 10
10.504392518
 20
10.0216742328
 30
0.0
 10
10.5114251465
 20
10.0184070408
 30
0.0
 10
10.5188896369
 20
10.0158451868
 30
0.0
 10
10.5295356528
 20
10.0133628926
 30
0.0
 10
10.5378668005
 20
10.0126695063
 30
0.0
 10
10.5434802329
 20
10.0126695021
 30
0.0
  0
SPLINE
  5
2FF
100
AcDbEntity
  8
0
100
AcDbSpline
 62
7
  6
CONTINUOUS
 70
0
 71
3
 72
19
 73
15
 74
0
 42
0.0000001
 43
0.0000001
 44
0.0000000001
 40
0.0
 40
0.0
 40
0.0
 40
0.0
 40
0.1272476832
 40
0.1881197668
 40
0.2474928383
 40
0.3058241279
 40
0.3635976887
 40
0.42128208
 40
0.4793610226
 40
0.5382849026
 40
0.5984319311
 40
0.7235923333
 40
0.857036767
 40
1.0
 40
1.0
 40
1.0
 40
1.0
 10
11.3319042344
 20
10.0126695021
 30
0.0
 10
11.3374682045
 20
10.012669495
 30
0.0
 10
11.3457254051
 20
10.013349041
 30
0.0
 10
11.3562829381
 20
10.0157863885
 30
0.0
 10
11.363689836
 20
10.0183027771
 30
0.0
 10
11.3706750467
 20
10.0215099686
 30
0.0
 10
11.3772286344
 20
10.0253831935
 30
0.0
 10
11.3833414242
 20
10.0299007724
 30
0.0
 10
11.3890133253
 20
10.0350343611
 30
0.0
 10
11.3942521633
 20
10.0407546419
 30
0.0
 10
11.4007568624
 20
10.0492387632
 30
0.0
 10
11.4078511964
 20
10.0613011184
 30
0.0
 10
11.4147103181
 20
10.0775040383
 30
0.0
 10
11.4182464052
 20
10.0890823836
 30
0.0
 10
11.4198351823
 20
10.0951282537
 30
0.0
  0
SPLINE
  5
300
100
AcDbEntity
  8
0
100
AcDbSpline
 62
7
  6
CONTINUOUS
 70
0
 71
3
 72
18
 73
14
 74
0
 42
0.0000001
 43
0.0000001
 44
0.0000000001
 40
0.0
 40
0.0
 40
0.0
 40
0.0
 40
0.142864084
 40
0.2762477332
 40
0.4013859673
 40
0.5203465323
 40
0.5784370659
 40
0.6361530875
 40
0.6939580704
 40
0.7523262487
 40
0.8117564683
 40
0.8726855606
 40
1.0
 40
1.0
 40
1.0
 40
1.0
 10
11.4197623158
 20
10.3404874426
 30
0.0
 10
11.4181709049
 20
10.3465133129
 30
0.0
 10
11.4146303731
 20
10.3580532259
 30
0.0
 10
11.4077659992
 20
10.3742048502
 30
0.0
 10
11.39936978
 20
10.3884363419
 30
0.0
 10
11.3908844879
 20
10.3986235753
 30
0.0
 10
11.3832712415
 20
10.4054957424
 30
0.0
 10
11.3771637533
 20
10.4099969977
 30
0.0
 10
11.3706185086
 20
10.4138581921
 30
0.0
 10
11.3636422196
 20
10.4170558381
 30
0.0
 10
11.356243907
 20
10.4195621676
 30
0.0
 10
11.3457018923
 20
10.4219905593
 30
0.0
 10
11.3374584887
 20
10.4226695021
 30
0.0
 10
11.3319043732
 20
10.4226695021
 30
0.0
  0
LINE
  5
301
100
AcDbEntity
  8
0
100
AcDbLine
 62
7
  6
CONTINUOUS
 10
11.0085602537
 20
10.714710787
 11
11.0121695006
 21
10.7144710332
  0
SPLINE
  5
302
100
AcDbEntity
  8
0
100
AcDbSpline
 62
7
  6
CONTINUOUS
 70
0
 71
3
 72
9
 73
5
 74
0
 42
0.0000001
 43
0.0000001
 44
0.0000000001
 40
0.0
 40
0.0
 40
0.0
 40
0.0
 40
0.4955134291
 40
1.0
 40
1.0
 40
1.0
 40
1.0
 10
11.3031387283
 20
10.4197741839
 30
0.0
 10
11.3070598945
 20
10.4188335301
 30
0.0
 10
11.3148713774
 20
10.4164848214
 30
0.0
 10
11.3223774412
 20
10.4132965208
 30
0.0
 10
11.3260684052
 20
10.4114989108
 30
0.0
  0
SPLINE
  5
303
100
AcDbEntity
  8
0
100
AcDbSpline
 62
7
  6
CONTINUOUS
 70
0
 71
3
 72
9
 73
5
 74
0
 42
0.0000001
 43
0.0000001
 44
0.0000000001
 40
0.0
 40
0.0
 40
0.0
 40
0.0
 40
0.5045144194
 40
1.0
 40
1.0
 40
1.0
 40
1.0
 10
11.3260374778
 20
10.023825079
 30
0.0
 10
11.3223126444
 20
10.0220122878
 30
0.0
 10
11.3147364168
 20
10.0188009798
 30
0.0
 10
11.3068500747
 20
10.0164455847
 30
0.0
 10
11.3028916769
 20
10.0155059233
 30
0.0
  0
SPLINE
  5
304
100
AcDbEntity
  8
0
100
AcDbSpline
 62
9
  6
CONTINUOUS
 70
0
 71
3
 72
28
 73
24
 74
0
 42
0.0000001
 43
0.0000001
 44
0.0000000001
 40
0.0
 40
0.0
 40
0.0
 40
0.0
 40
0.0754035227
 40
0.1500960797
 40
0.2232682448
 40
0.2943559701
 40
0.3628699422
 40
0.3960582748
 40
0.4284880212
 40
0.4909934129
 40
0.5505096122
 40
0.6073799263
 40
0.6350361786
 40
0.6622824233
 40
0.6892330092
 40
0.7160100586
 40
0.7427412927
 40
0.769557474
 40
0.7965847306
 40
0.8239430638
 40
0.8800231178
 40
0.9385614136
 40
1.0
 40
1.0
 40
1.0
 40
1.0
 10
11.1812898789
 20
10.2156554104
 30
0.0
 10
11.1813559647
 20
10.2069935386
 30
0.0
 10
11.1823390631
 20
10.1897458329
 30
0.0
 10
11.1863307712
 20
10.1643683442
 30
0.0
 10
11.1927777926
 20
10.1400070496
 30
0.0
 10
11.2015524418
 20
10.1171419533
 30
0.0
 10
11.2107629257
 20
10.0994993366
 30
0.0
 10
11.2191625731
 20
10.0865695477
 30
0.0
 10
11.2279731503
 20
10.0747689933
 30
0.0
 10
11.2400221712
 20
10.0616549474
 30
0.0
 10
11.2561080933
 20
10.0487333725
 30
0.0
 10
11.2706365599
 20
10.040619799
 30
0.0
 10
11.2826121721
 20
10.035944212
 30
0.0
 10
11.2916678472
 20
10.0333579393
 30
0.0
 10
11.3008307236
 20
10.0316729808
 30
0.0
 10
11.3100558251
 20
10.0308951031
 30
0.0
 10
11.3192973877
 20
10.0310333612
 30
0.0
 10
11.3285083377
 20
10.0320859668
 30
0.0
 10
11.3376441022
 20
10.034043804
 30
0.0
 10
11.3497571647
 20
10.0378809867
 30
0.0
 10
11.3645483351
 20
10.0449824432
 30
0.0
 10
11.3810764299
 20
10.0567852908
 30
0.0
 10
11.3909503053
 20
10.0664874229
 30
0.0
 10
11.3956305145
 20
10.0717703428
 30
0.0
  0
SPLINE
  5
305
100
AcDbEntity
  8
0
100
AcDbSpline
 62
9
  6
CONTINUOUS
 70
0
 71
3
 72
9
 73
5
 74
0
 42
0.0000001
 43
0.0000001
 44
0.0000000001
 40
0.0
 40
0.0
 40
0.0
 40
0.0
 40
0.2446951327
 40
1.0
 40
1.0
 40
1.0
 40
1.0
 10
11.3971867659
 20
10.0735546188
 30
0.0
 10
11.3986537119
 20
10.0752628444
 30
0.0
 10
11.4044961024
 20
10.0823741261
 30
0.0
 10
11.4097320885
 20
10.0899784858
 30
0.0
 10
11.4133449392
 20
10.0959159152
 30
0.0
  0
SPLINE
  5
306
100
AcDbEntity
  8
0
100
AcDbSpline
 62
9
  6
CONTINUOUS
 70
0
 71
3
 72
12
 73
8
 74
0
 42
0.0000001
 43
0.0000001
 44
0.0000000001
 40
0.0
 40
0.0
 40
0.0
 40
0.0
 40
0.1302836329
 40
0.2602099495
 40
0.5161008296
 40
0.7637097327
 40
1.0
 40
1.0
 40
1.0
 40
1.0
 10
11.159020991
 20
10.2176695021
 30
0.0
 10
11.159020991
 20
10.2236316172
 30
0.0
 10
11.1594080334
 20
10.2355436387
 30
0.0
 10
11.1616944935
 20
10.2590628341
 30
0.0
 10
11.1673211129
 20
10.2875967081
 30
0.0
 10
11.1783852746
 20
10.3197019822
 30
0.0
 10
11.1886669126
 20
10.3394386655
 30
0.0
 10
11.1944607512
 20
10.3485687178
 30
0.0
  0
SPLINE
  5
307
100
AcDbEntity
  8
0
100
AcDbSpline
 62
9
  6
CONTINUOUS
 70
0
 71
3
 72
16
 73
12
 74
0
 42
0.0000001
 43
0.0000001
 44
0.0000000001
 40
0.0
 40
0.0
 40
0.0
 40
0.0
 40
0.1152660573
 40
0.2362055288
 40
0.3616939915
 40
0.4257189758
 40
0.4902992875
 40
0.6201824971
 40
0.7495866929
 40
0.8767312603
 40
1.0
 40
1.0
 40
1.0
 40
1.0
 10
10.3246071221
 20
10.3784958616
 30
0.0
 10
10.3311378902
 20
10.3694386495
 30
0.0
 10
10.3430191251
 20
10.3497612316
 30
0.0
 10
10.3567245718
 20
10.3174072828
 30
0.0
 10
10.3647696931
 20
10.2883367627
 30
0.0
 10
10.3691300774
 20
10.2640986951
 30
0.0
 10
10.3720699429
 20
10.2392177422
 30
0.0
 10
10.3729496171
 20
10.2077763164
 30
0.0
 10
10.3695735135
 20
10.1704057779
 30
0.0
 10
10.3618605724
 20
10.1343391978
 30
0.0
 10
10.3538042681
 20
10.111369015
 30
0.0
 10
10.3490761822
 20
10.1004034627
 30
0.0
  0
SPLINE
  5
308
100
AcDbEntity
  8
0
100
AcDbSpline
 62
9
  6
CONTINUOUS
 70
0
 71
3
 72
9
 73
5
 74
0
 42
0.0000001
 43
0.0000001
 44
0.0000000001
 40
0.0
 40
0.0
 40
0.0
 40
0.0
 40
0.2570611322
 40
1.0
 40
1.0
 40
1.0
 40
1.0
 10
10.3490761822
 20
10.1004034627
 30
0.0
 10
10.3473792775
 20
10.0964679383
 30
0.0
 10
10.3403958896
 20
10.0813282699
 30
0.0
 10
10.3318515574
 20
10.066890106
 30
0.0
 10
10.3246071221
 20
10.0568431427
 30
0.0
  0
SPLINE
  5
309
100
AcDbEntity
  8
0
100
AcDbSpline
 62
7
  6
CONTINUOUS
 70
0
 71
3
 72
14
 73
10
 74
0
 42
0.0000001
 43
0.0000001
 44
0.0000000001
 40
0.0
 40
0.0
 40
0.0
 40
0.0
 40
0.3610865421
 40
0.513584594
 40
0.6473955589
 40
0.7626101463
 40
0.8594705735
 40
0.938367129
 40
1.0
 40
1.0
 40
1.0
 40
1.0
 10
10.9751923427
 20
10.6874122011
 30
0.0
 10
10.9746326586
 20
10.6910506332
 30
0.0
 10
10.9737707733
 20
10.6962168495
 30
0.0
 10
10.9724586701
 20
10.7026858286
 30
0.0
 10
10.9715300457
 20
10.706673394
 30
0.0
 10
10.9706014685
 20
10.710076131
 30
0.0
 10
10.9696742695
 20
10.7128963464
 30
0.0
 10
10.9687503603
 20
10.7151350285
 30
0.0
 10
10.9680551682
 20
10.7163961847
 30
0.0
 10
10.9676923427
 20
10.7169091828
 30
0.0
  0
SPLINE
  5
30A
100
AcDbEntity
  8
0
100
AcDbSpline
 62
7
  6
CONTINUOUS
 70
0
 71
3
 72
12
 73
8
 74
0
 42
0.0000001
 43
0.0000001
 44
0.0000000001
 40
0.0
 40
0.0
 40
0.0
 40
0.0
 40
0.0338954307
 40
0.0893489819
 40
0.2814770156
 40
0.5860280351
 40
1.0
 40
1.0
 40
1.0
 40
1.0
 10
11.0726923427
 20
10.7100099323
 30
0.0
 10
11.0726923497
 20
10.7100312554
 30
0.0
 10
11.0726575039
 20
10.7100830821
 30
0.0
 10
11.0725074028
 20
10.71017492
 30
0.0
 10
11.0721758263
 20
10.7102914466
 30
0.0
 10
11.0716221901
 20
10.7104326311
 30
0.0
 10
11.0711785573
 20
10.7105229334
 30
0.0
 10
11.0709227124
 20
10.7105715508
 30
0.0
  0
LINE
  5
30B
100
AcDbEntity
  8
0
100
AcDbLine
 62
7
  6
CONTINUOUS
 10
11.0430063816
 20
10.7148179304
 11
11.0303591575
 21
10.7158982531
  0
SPLINE
  5
30C
100
AcDbEntity
  8
0
100
AcDbSpline
 62
7
  6
CONTINUOUS
 70
0
 71
3
 72
12
 73
8
 74
0
 42
0.0000001
 43
0.0000001
 44
0.0000000001
 40
0.0
 40
0.0
 40
0.0
 40
0.0
 40
0.4139480454
 40
0.7184885798
 40
0.9106314978
 40
0.966096835
 40
1.0
 40
1.0
 40
1.0
 40
1.0
 10
10.804461973
 20
10.7105715434
 30
0.0
 10
10.8042061471
 20
10.7105229268
 30
0.0
 10
10.8037625398
 20
10.710432639
 30
0.0
 10
10.8032089224
 20
10.7102914688
 30
0.0
 10
10.8028773372
 20
10.7101749427
 30
0.0
 10
10.8027272204
 20
10.7100831009
 30
0.0
 10
10.8026923483
 20
10.7100312826
 30
0.0
 10
10.8026923427
 20
10.710009955
 30
0.0
  0
SPLINE
  5
30D
100
AcDbEntity
  8
0
100
AcDbSpline
 62
7
  6
CONTINUOUS
 70
0
 71
3
 72
14
 73
10
 74
0
 42
0.0000001
 43
0.0000001
 44
0.0000000001
 40
0.0
 40
0.0
 40
0.0
 40
0.0
 40
0.0615949647
 40
0.1404585825
 40
0.2373446993
 40
0.3526141696
 40
0.4864256283
 40
0.6388936118
 40
1.0
 40
1.0
 40
1.0
 40
1.0
 10
10.9076923427
 20
10.7169091828
 30
0.0
 10
10.9073297384
 20
10.7163964974
 30
0.0
 10
10.9066340954
 20
10.7151364519
 30
0.0
 10
10.9057100921
 20
10.7128982202
 30
0.0
 10
10.9047831205
 20
10.7100774088
 30
0.0
 10
10.9038549095
 20
10.706673696
 30
0.0
 10
10.9029260881
 20
10.7026858981
 30
0.0
 10
10.9016136458
 20
10.6962170464
 30
0.0
 10
10.9007520607
 20
10.6910508531
 30
0.0
 10
10.9001923427
 20
10.6874122011
 30
0.0
  0
SPLINE
  5
30E
100
AcDbEntity
  8
0
100
AcDbSpline
 62
9
  6
CONTINUOUS
 70
0
 71
3
 72
21
 73
17
 74
0
 42
0.0000001
 43
0.0000001
 44
0.0000000001
 40
0.0
 40
0.0
 40
0.0
 40
0.0
 40
0.1169622274
 40
0.1780514929
 40
0.2405914347
 40
0.3043427364
 40
0.3690286
 40
0.4343532946
 40
0.5
 40
0.5656467054
 40
0.6309714
 40
0.6956572636
 40
0.7594085653
 40
0.8219485071
 40
0.8830377726
 40
1.0
 40
1.0
 40
1.0
 40
1.0
 10
10.3541935223
 20
10.0978802129
 30
0.0
 10
10.3599794148
 20
10.1059056878
 30
0.0
 10
10.3676196086
 20
10.1190045845
 30
0.0
 10
10.375648007
 20
10.1377180005
 30
0.0
 10
10.3807329092
 20
10.1527495759
 30
0.0
 10
10.3847380087
 20
10.1684144574
 30
0.0
 10
10.3876290384
 20
10.1845622442
 30
0.0
 10
10.3893722374
 20
10.2010344587
 30
0.0
 10
10.3899579916
 20
10.2176695021
 30
0.0
 10
10.3893722374
 20
10.2343045456
 30
0.0
 10
10.3876290384
 20
10.2507767601
 30
0.0
 10
10.3847380087
 20
10.2669245469
 30
0.0
 10
10.3807329092
 20
10.2825894284
 30
0.0
 10
10.375648007
 20
10.2976210037
 30
0.0
 10
10.3676196086
 20
10.3163344198
 30
0.0
 10
10.3599794148
 20
10.3294333164
 30
0.0
 10
10.3541935223
 20
10.3374587914
 30
0.0
  0
ENDSEC
  0
SECTION
  2
OBJECTS
  0
DICTIONARY
  5
C
100
AcDbDictionary
280
0
281
1
  3
ACAD_GROUP
350
D
  3
ACAD_MLINESTYLE
350
17
  3
ACAD_LAYOUT
350
1A
  3
ACAD_PLOTSETTINGS
350
19
  3
ACAD_PLOTSTYLENAME
350
E
  0
DICTIONARY
  5
D
102
{ACAD_REACTORS
330
C
102
}
100
AcDbDictionary
280
0
281
1
  0
ACDBDICTIONARYWDFLT
  5
E
102
{ACAD_REACTORS
330
C
102
}
100
AcDbDictionary
281
1
  3
Normal
350
F
100
AcDbDictionaryWithDefault
340
F
  0
DICTIONARY
  5
17
102
{ACAD_REACTORS
330
C
102
}
100
AcDbDictionary
280
0
281
1
  3
Standard
350
18
  0
DICTIONARY
  5
19
102
{ACAD_REACTORS
330
C
102
}
100
AcDbDictionary
281
1
  0
DICTIONARY
  5
1A
102
{ACAD_REACTORS
330
C
102
}
100
AcDbDictionary
281
1
  3
Model
350
30F
  3
Layout1
350
310
  0
ACDBPLACEHOLDER
  5
F
102
{ACAD_REACTORS
330
E
102
}
  0
MLINESTYLE
  5
18
102
{ACAD_REACTORS
330
17
102
}
100
AcDbMlineStyle
  2
STANDARD
 70
0
  3

 62
256
 51
90.0
 52
90.0
 71
2
 49
0.5
 62
256
  6
BYLAYER
 49
-0.5
 62
256
  6
BYLAYER
  0
LAYOUT
  5
30F
102
{ACAD_REACTORS
330
1A
102
}
100
AcDbPlotSettings
  1

  2
none_device
  4
ANSI_C_(22.00_x_17.00_Inches)
  6

 40
0.0
 41
0.0
 42
0.0
 43
0.0
 44
558.8
 45
431.8
 46
0.0
 47
0.0
 48
0.0
 49
0.0
140
0.0
141
0.0
142
1.0
143
1.0
 70
1024
 72
0
 73
0
 74
0
  7

 75
0
147
1.0
148
0.0
149
0.0
100
AcDbLayout
  1
Model
 70
0
 71
0
 10
0.0
 20
0.0
 11
22.0
 21
17.0
 12
0.0
 22
0.0
 32
0.0
 14
0.0
 24
0.0
 34
0.0
 15
0.0
 25
0.0
 35
0.0
146
0.0
 13
0.0
 23
0.0
 33
0.0
 16
1.0
 26
0.0
 36
0.0
 17
0.0
 27
1.0
 37
0.0
 76
0
330
202
345
0
346
0
  0
LAYOUT
  5
310
102
{ACAD_REACTORS
330
1A
102
}
100
AcDbPlotSettings
  1

  2
none_device
  4
ANSI_C_(22.00_x_17.00_Inches)
  6

 40
0.0
 41
0.0
 42
0.0
 43
0.0
 44
558.8
 45
431.8
 46
0.0
 47
0.0
 48
0.0
 49
0.0
140
0.0
141
0.0
142
1.0
143
1.0
 70
0
 72
0
 73
0
 74
0
  7

 75
0
147
1.0
148
0.0
149
0.0
100
AcDbLayout
  1
Layout1
 70
0
 71
1
 10
0.0
 20
0.0
 11
22.0
 21
17.0
 12
0.0
 22
0.0
 32
0.0
 14
0.0
 24
0.0
 34
0.0
 15
0.0
 25
0.0
 35
0.0
146
0.0
 13
0.0
 23
0.0
 33
0.0
 16
1.0
 26
0.0
 36
0.0
 17
0.0
 27
1.0
 37
0.0
 76
0
330
203
345
0
346
0
  0
ENDSEC
  0
EOF
