999
DXF file: E:\BT Custom\CADOUTPUT\_RIGHT.dxf
999
Pro/ENGINEER 2018400 by Parametric Technology Corporation
  0
SECTION
  2
HEADER
  9
$ACADVER
  1
AC1018
  9
$DWGCODEPAGE
  3
ANSI_1252
  9
$EXTMAX
 10
22.0
 20
17.0
 30
0.0
  9
$EXTMIN
 10
0.0
 20
0.0
 30
0.0
  9
$LIMMIN
 10
0.0
 20
0.0
  9
$LIMMAX
 10
22.0
 20
17.0
  9
$VIEWCTR
 10
11.0
 20
8.5
  9
$VIEWSIZE
 40
17.0
  9
$CLAYER
  8
0
  9
$LTSCALE
 40
1.21
  9
$CELTYPE
  6
BYLAYER
  9
$DIMSCALE
 40
1.0
  9
$DIMASZ
 40
0.1
  9
$DIMEXO
 40
0.0625
  9
$DIMDLI
 40
0.836
  9
$DIMEXE
 40
0.125
  9
$DIMCEN
 40
0.198
  9
$DIMLFAC
 40
1.0
  9
$DIMBLK
  1
_FILLED
  9
$DIMALT
 70
1
  9
$DIMALTD
 70
2
  9
$DIMALTTD
 70
2
  9
$DIMALTF
 40
25.4
  9
$DIMTXT
 40
0.08
  9
$DIMTOL
 70
1
  9
$DIMLIM
 70
0
  9
$DIMTFAC
 40
1.0
  9
$DIMTP
 40
0.001
  9
$DIMTM
 40
0.001
  9
$DIMGAP
 40
0.09
  9
$DIMDSEP
 70
46
  9
$AUNITS
 70
0
  9
$PDMODE
 70
3
  9
$PDSIZE
 40
0.06
  9
$HANDSEED
  5
2FF
  9
$TILEMODE
 70
1
  9
$MEASUREMENT
 70
0
  9
$INSUNITS
 70
1
  0
ENDSEC
  0
SECTION
  2
CLASSES
  0
CLASS
  1
ACDBDICTIONARYWDFLT
  2
AcDbDictionaryWithDefault
  3
AutoCAD 2000
 90
0
 91
1
280
0
281
0
  0
CLASS
  1
ACDBPLACEHOLDER
  2
AcDbPlaceHolder
  3
AutoCAD 2000
 90
0
 91
1
280
0
281
0
  0
CLASS
  1
LAYOUT
  2
AcDbLayout
  3
AutoCAD 2000
 90
0
 91
0
280
0
281
0
  0
ENDSEC
  0
SECTION
  2
TABLES
  0
TABLE
  2
VPORT
  5
8
100
AcDbSymbolTable
 70
2
  0
VPORT
  5
1F4
100
AcDbSymbolTableRecord
100
AcDbViewportTableRecord
  2
*ACTIVE
 70
0
 10
0.0
 20
0.0
 11
1.0
 21
1.0
 12
11.0
 22
8.5
 13
0.0
 23
0.0
 14
1.0
 24
1.0
 15
0.0
 25
0.0
 16
0.0
 26
0.0
 36
1.0
 17
0.0
 27
0.0
 37
0.0
 40
17.0
 41
1.2941176471
 42
50.0
 43
0.0
 44
0.0
 50
0.0
 51
0.0
 71
0
 72
100
 73
1
 74
1
 75
0
 76
0
 77
0
 78
0
  0
ENDTAB
  0
TABLE
  2
LTYPE
  5
5
100
AcDbSymbolTable
 70
6
  0
LTYPE
  5
14
100
AcDbSymbolTableRecord
100
AcDbLinetypeTableRecord
  2
BYBLOCK
 70
0
  3

 72
65
 73
0
 40
0.0
  0
LTYPE
  5
15
100
AcDbSymbolTableRecord
100
AcDbLinetypeTableRecord
  2
BYLAYER
 70
0
  3

 72
65
 73
0
 40
0.0
  0
LTYPE
  5
16
100
AcDbSymbolTableRecord
100
AcDbLinetypeTableRecord
  2
CONTINUOUS
 70
64
  3
Solid line
 72
65
 73
0
 40
0.0
  0
LTYPE
  5
1F5
100
AcDbSymbolTableRecord
100
AcDbLinetypeTableRecord
  2
CENTER
 70
64
  3
____ _ ____ _ ____ _ ____ _ ____ _ ____ _ ____
 72
65
 73
4
 40
0.6
 49
0.375
 74
0
 49
-0.075
 74
0
 49
0.075
 74
0
 49
-0.075
 74
0
  0
LTYPE
  5
1F6
100
AcDbSymbolTableRecord
100
AcDbLinetypeTableRecord
  2
HIDDEN
 70
64
  3
- - - - - - - - - - - - - - - - - - - -
 72
65
 73
2
 40
0.2
 49
0.1
 74
0
 49
-0.1
 74
0
  0
LTYPE
  5
1F7
100
AcDbSymbolTableRecord
100
AcDbLinetypeTableRecord
  2
PHANTOM
 70
64
  3
_____ _ _ _____ _ _ _____ _ _ _____
 72
65
 73
6
 40
0.8
 49
0.45
 74
0
 49
-0.05
 74
0
 49
0.1
 74
0
 49
-0.05
 74
0
 49
0.1
 74
0
 49
-0.05
 74
0
  0
LTYPE
  5
1F8
100
AcDbSymbolTableRecord
100
AcDbLinetypeTableRecord
  2
DOT
 70
64
  3
. . . . . . . . . . . . . . . . . . . .
 72
65
 73
2
 40
0.2
 49
0.1
 74
0
 49
-0.1
 74
0
  0
LTYPE
  5
1F9
100
AcDbSymbolTableRecord
100
AcDbLinetypeTableRecord
  2
DASHED
 70
64
  3
- - - - - - - - - - - - - - - - - - - -
 72
65
 73
2
 40
0.2
 49
0.1
 74
0
 49
-0.1
 74
0
  0
ENDTAB
  0
TABLE
  2
LAYER
  5
2
100
AcDbSymbolTable
 70
36
  0
LAYER
  5
10
100
AcDbSymbolTableRecord
100
AcDbLayerTableRecord
  2
0
 70
0
 62
7
  6
CONTINUOUS
370
-3
390
F
  0
LAYER
  5
1FA
100
AcDbSymbolTableRecord
100
AcDbLayerTableRecord
  2
DEFAULT_1
 70
0
 62
7
  6
CENTER
370
-3
390
F
  0
LAYER
  5
1FB
100
AcDbSymbolTableRecord
100
AcDbLayerTableRecord
  2
DEFAULT_2
 70
0
 62
8
  6
HIDDEN
370
-3
390
F
  0
LAYER
  5
1FC
100
AcDbSymbolTableRecord
100
AcDbLayerTableRecord
  2
DEFAULT_3
 70
0
 62
7
  6
PHANTOM
370
-3
390
F
  0
LAYER
  5
1FD
100
AcDbSymbolTableRecord
100
AcDbLayerTableRecord
  2
ALL_FEATURES
 70
0
 62
7
  6
CONTINUOUS
370
-3
390
F
  0
LAYER
  5
1FE
100
AcDbSymbolTableRecord
100
AcDbLayerTableRecord
  2
AXES_FEATURES
 70
0
 62
7
  6
CONTINUOUS
370
-3
390
F
  0
LAYER
  5
1FF
100
AcDbSymbolTableRecord
100
AcDbLayerTableRecord
  2
DIMENSIONS
 70
0
 62
7
  6
CONTINUOUS
370
-3
390
F
  0
ENDTAB
  0
TABLE
  2
STYLE
  5
3
100
AcDbSymbolTable
 70
1
  0
STYLE
  5
11
100
AcDbSymbolTableRecord
100
AcDbTextStyleTableRecord
  2
STANDARD
 70
0
 40
0.0
 41
0.8
 50
0.0
 71
0
 42
0.2
  3
txt
  4

  0
STYLE
  5
200
100
AcDbSymbolTableRecord
100
AcDbTextStyleTableRecord
  2
TEXTSTYLE_1
 70
0
 40
0.0
 41
0.8
 50
0.0
 71
0
 42
0.2
  3
gdt
  4

  0
ENDTAB
  0
TABLE
  2
VIEW
  5
6
100
AcDbSymbolTable
 70
0
  0
ENDTAB
  0
TABLE
  2
UCS
  5
7
100
AcDbSymbolTable
 70
0
  0
ENDTAB
  0
TABLE
  2
APPID
  5
9
100
AcDbSymbolTable
 70
1
  0
APPID
  5
201
100
AcDbSymbolTableRecord
100
AcDbRegAppTableRecord
  2
ACAD
 70
0
  0
ENDTAB
  0
TABLE
  2
BLOCK_RECORD
  5
1
100
AcDbSymbolTable
 70
0
  0
BLOCK_RECORD
  5
202
100
AcDbSymbolTableRecord
100
AcDbBlockTableRecord
  2
*Model_Space
  0
BLOCK_RECORD
  5
203
100
AcDbSymbolTableRecord
100
AcDbBlockTableRecord
  2
*Paper_Space
  0
BLOCK_RECORD
  5
204
100
AcDbSymbolTableRecord
100
AcDbBlockTableRecord
  2
_FILLED
  0
ENDTAB
  0
TABLE
  2
DIMSTYLE
  5
A
100
AcDbSymbolTable
 70
1
100
AcDbDimStyleTable
 71
0
  0
DIMSTYLE
105
205
100
AcDbSymbolTableRecord
100
AcDbDimStyleTableRecord
  2
STANDARD
 70
0
  3

  4

 40
1.0
 41
0.1
 42
0.0625
 43
0.38
 44
0.125
 45
0.0
 46
0.0
 47
0.001
 48
0.001
140
0.08
141
0.09
142
0.0
143
25.4
144
1.0
145
0.0
146
1.0
147
0.09
 71
1.0
 72
0.0
 73
1
 74
1
 75
0
 76
0
 77
0
 78
4
 79
1
170
1
171
2
172
0
173
0
174
0
175
0
176
0
177
0
178
0
270
2
179
3
271
3
272
3
273
2
274
2
275
0
280
0
281
0
282
0
283
1
284
4
285
0
286
0
287
3
288
0
340
11
278
46
341
204
342
204
343
204
344
204
  0
ENDTAB
  0
ENDSEC
  0
SECTION
  2
BLOCKS
  0
BLOCK
  5
20
100
AcDbEntity
  8
0
100
AcDbBlockBegin
  2
*Model_Space
 70
0
 10
0.0
 20
0.0
 30
0.0
  3
*Model_Space
  1

  0
ENDBLK
  5
21
100
AcDbEntity
  8
0
100
AcDbBlockEnd
  0
BLOCK
  5
1C
100
AcDbEntity
  8
0
100
AcDbBlockBegin
  2
*Paper_Space
 70
0
 10
0.0
 20
0.0
 30
0.0
  3
*Paper_Space
  1

  0
ENDBLK
  5
1D
100
AcDbEntity
  8
0
100
AcDbBlockEnd
  0
BLOCK
  5
206
100
AcDbEntity
  8
0
100
AcDbBlockBegin
  2
_FILLED
 70
64
 10
0.0
 20
0.0
  3
_FILLED
  1

  0
SOLID
  5
207
100
AcDbEntity
  8
0
  6
BYBLOCK
 62
0
100
AcDbTrace
 10
0.0
 20
0.0
 11
-1.0
 21
0.2
 12
-1.0
 22
-0.2
 13
-1.0
 23
-0.2
  0
ENDBLK
  5
208
100
AcDbEntity
  8
0
  6
BYBLOCK
 62
0
100
AcDbBlockEnd
  0
ENDSEC
  0
SECTION
  2
ENTITIES
  0
LINE
  5
209
100
AcDbEntity
  8
0
100
AcDbLine
 62
7
  6
CONTINUOUS
 10
10.6038629905
 20
10.4530712588
 11
10.6024834891
 21
10.4525004566
  0
LINE
  5
20A
100
AcDbEntity
  8
0
100
AcDbLine
 62
7
  6
CONTINUOUS
 10
10.255473533
 20
10.385891804
 11
10.1967493369
 21
10.3668111561
  0
LINE
  5
20B
100
AcDbEntity
  8
0
100
AcDbLine
 62
7
  6
CONTINUOUS
 10
9.529984141
 20
7.558891804
 11
11.8899828373
 21
7.558891804
  0
LINE
  5
20C
100
AcDbEntity
  8
0
100
AcDbLine
 62
7
  6
CONTINUOUS
 10
10.2093302767
 20
10.260391804
 11
10.1824834891
 21
10.244891804
  0
LINE
  5
20D
100
AcDbEntity
  8
0
100
AcDbLine
 62
7
  6
CONTINUOUS
 10
9.7099834891
 20
7.745891804
 11
11.7099834891
 21
7.745891804
  0
LINE
  5
20E
100
AcDbEntity
  8
0
100
AcDbLine
 62
7
  6
CONTINUOUS
 10
10.1967493369
 20
10.3668111561
 11
10.1824834891
 21
10.3471759012
  0
LINE
  5
20F
100
AcDbEntity
  8
0
100
AcDbLine
 62
7
  6
CONTINUOUS
 10
11.5229853013
 20
7.933891804
 11
9.896981677
 21
7.933891804
  0
LINE
  5
210
100
AcDbEntity
  8
0
100
AcDbLine
 62
7
  6
CONTINUOUS
 10
9.968984015
 20
7.995891804
 11
11.4509829633
 21
7.995891804
  0
LINE
  5
211
100
AcDbEntity
  8
0
100
AcDbLine
 62
7
  6
CONTINUOUS
 10
10.1824834891
 20
10.244891804
 11
10.1524834891
 21
10.164891804
  0
LINE
  5
212
100
AcDbEntity
  8
0
100
AcDbLine
 62
7
  6
CONTINUOUS
 10
10.1264851295
 20
9.8401018503
 11
10.0968986036
 21
9.7990649613
  0
LINE
  5
213
100
AcDbEntity
  8
0
100
AcDbLine
 62
7
  6
CONTINUOUS
 10
9.9689834891
 20
7.995891804
 11
9.9689834891
 21
7.933891804
  0
LINE
  5
214
100
AcDbEntity
  8
0
100
AcDbLine
 62
7
  6
CONTINUOUS
 10
11.2106367016
 20
10.260391804
 11
11.2374834891
 21
10.275891804
  0
LINE
  5
215
100
AcDbEntity
  8
0
100
AcDbLine
 62
7
  6
CONTINUOUS
 10
10.0534834891
 20
7.995891804
 11
10.0534834891
 21
8.3470992827
  0
LINE
  5
216
100
AcDbEntity
  8
0
100
AcDbLine
 62
9
  6
CONTINUOUS
 10
11.3511469288
 20
8.362391804
 11
10.0688200495
 21
8.362391804
  0
LINE
  5
217
100
AcDbEntity
  8
0
100
AcDbLine
 62
7
  6
CONTINUOUS
 10
10.1824834891
 20
10.3471759012
 11
10.1824834891
 21
10.275891804
  0
LINE
  5
218
100
AcDbEntity
  8
0
100
AcDbLine
 62
7
  6
CONTINUOUS
 10
10.1694834891
 20
8.9115082428
 11
10.0953494949
 21
8.8055906156
  0
LINE
  5
219
100
AcDbEntity
  8
0
100
AcDbLine
 62
7
  6
CONTINUOUS
 10
11.0804834891
 20
9.624891804
 11
11.2374834891
 21
9.675891804
  0
LINE
  5
21A
100
AcDbEntity
  8
0
100
AcDbLine
 62
9
  6
CONTINUOUS
 10
10.0914834891
 20
8.577391804
 11
11.3284834891
 21
8.577391804
  0
LINE
  5
21B
100
AcDbEntity
  8
0
100
AcDbLine
 62
7
  6
CONTINUOUS
 10
10.3664834891
 20
9.624891804
 11
10.3664834891
 21
9.265891804
  0
LINE
  5
21C
100
AcDbEntity
  8
0
100
AcDbLine
 62
7
  6
CONTINUOUS
 10
10.4024834891
 20
10.4300971815
 11
10.4024834891
 21
10.429634503
  0
LINE
  5
21D
100
AcDbEntity
  8
0
100
AcDbLine
 62
7
  6
CONTINUOUS
 10
10.1524834891
 20
9.754891804
 11
10.1824834891
 21
9.675891804
  0
LINE
  5
21E
100
AcDbEntity
  8
0
100
AcDbLine
 62
7
  6
CONTINUOUS
 10
10.5099834891
 20
9.265891804
 11
10.5099834891
 21
9.245891804
  0
LINE
  5
21F
100
AcDbEntity
  8
0
100
AcDbLine
 62
7
  6
CONTINUOUS
 10
11.2934818487
 20
10.0796817577
 11
11.3230683747
 21
10.1207186468
  0
LINE
  5
220
100
AcDbEntity
  8
0
100
AcDbLine
 62
9
  6
CONTINUOUS
 10
10.0953494949
 20
8.8055906156
 11
11.3246174833
 21
8.8055906156
  0
LINE
  5
221
100
AcDbEntity
  8
0
100
AcDbLine
 62
9
  6
CONTINUOUS
 10
10.6038629905
 20
10.4530712588
 11
10.6038629905
 21
10.4520661866
  0
LINE
  5
222
100
AcDbEntity
  8
0
100
AcDbLine
 62
7
  6
CONTINUOUS
 10
10.6281872319
 20
10.4539068184
 11
10.6281872319
 21
10.454910693
  0
LINE
  5
223
100
AcDbEntity
  8
0
100
AcDbLine
 62
7
  6
CONTINUOUS
 10
10.6424834891
 20
10.4591314847
 11
10.6424834891
 21
10.4581303475
  0
LINE
  5
224
100
AcDbEntity
  8
0
100
AcDbLine
 62
7
  6
CONTINUOUS
 10
10.7099823605
 20
8.2458353475
 11
10.7099834891
 21
7.995891804
  0
LINE
  5
225
100
AcDbEntity
  8
0
100
AcDbLine
 62
7
  6
CONTINUOUS
 10
10.0688200495
 20
8.362391804
 11
10.0534834891
 21
8.3470994223
  0
LINE
  5
226
100
AcDbEntity
  8
0
100
AcDbLine
 62
9
  6
CONTINUOUS
 10
11.2504834891
 20
8.9115082428
 11
10.1694834891
 21
8.9115082428
  0
LINE
  5
227
100
AcDbEntity
  8
0
100
AcDbLine
 62
7
  6
CONTINUOUS
 10
11.3511469288
 20
8.362391804
 11
11.3664834891
 21
8.3470994223
  0
LINE
  5
228
100
AcDbEntity
  8
0
100
AcDbLine
 62
7
  6
CONTINUOUS
 10
10.9099834891
 20
9.265891804
 11
10.9099834891
 21
9.245891804
  0
LINE
  5
229
100
AcDbEntity
  8
0
100
AcDbLine
 62
7
  6
CONTINUOUS
 10
11.2674834891
 20
9.754891804
 11
11.2374834891
 21
9.675891804
  0
LINE
  5
22A
100
AcDbEntity
  8
0
100
AcDbLine
 62
9
  6
CONTINUOUS
 10
11.1397232167
 20
9.2174910467
 11
10.2802437616
 21
9.2174910467
  0
LINE
  5
22B
100
AcDbEntity
  8
0
100
AcDbLine
 62
7
  6
CONTINUOUS
 10
11.1088222489
 20
9.245891804
 11
10.3111447294
 21
9.245891804
  0
LINE
  5
22C
100
AcDbEntity
  8
0
100
AcDbLine
 62
7
  6
CONTINUOUS
 10
10.3664840159
 20
9.265891804
 11
11.0534829624
 21
9.265891804
  0
LINE
  5
22D
100
AcDbEntity
  8
0
100
AcDbLine
 62
7
  6
CONTINUOUS
 10
10.1264851295
 20
10.0796817577
 11
10.0968986036
 21
10.1207186468
  0
LINE
  5
22E
100
AcDbEntity
  8
0
100
AcDbLine
 62
7
  6
CONTINUOUS
 10
11.0534834891
 20
9.624891804
 11
11.0534834891
 21
9.265891804
  0
LINE
  5
22F
100
AcDbEntity
  8
0
100
AcDbLine
 62
7
  6
CONTINUOUS
 10
11.2504834891
 20
8.9115082428
 11
11.3246174833
 21
8.8055906156
  0
LINE
  5
230
100
AcDbEntity
  8
0
100
AcDbLine
 62
7
  6
CONTINUOUS
 10
10.3394834891
 20
9.624891804
 11
10.1824834891
 21
9.675891804
  0
LINE
  5
231
100
AcDbEntity
  8
0
100
AcDbLine
 62
7
  6
CONTINUOUS
 10
11.2374834891
 20
10.3471759012
 11
11.2374834891
 21
10.275891804
  0
LINE
  5
232
100
AcDbEntity
  8
0
100
AcDbLine
 62
7
  6
CONTINUOUS
 10
10.3394840882
 20
9.624891804
 11
11.08048289
 21
9.624891804
  0
LINE
  5
233
100
AcDbEntity
  8
0
100
AcDbLine
 62
7
  6
CONTINUOUS
 10
11.3664834891
 20
8.3470992827
 11
11.3664834891
 21
7.995891804
  0
LINE
  5
234
100
AcDbEntity
  8
0
100
AcDbLine
 62
7
  6
CONTINUOUS
 10
11.4509834891
 20
7.995891804
 11
11.4509834891
 21
7.933891804
  0
LINE
  5
235
100
AcDbEntity
  8
0
100
AcDbLine
 62
7
  6
CONTINUOUS
 10
11.2374834891
 20
9.675891804
 11
10.1824834891
 21
9.675891804
  0
LINE
  5
236
100
AcDbEntity
  8
0
100
AcDbLine
 62
7
  6
CONTINUOUS
 10
10.1524834891
 20
9.754891804
 11
11.2674834891
 21
9.754891804
  0
LINE
  5
237
100
AcDbEntity
  8
0
100
AcDbLine
 62
7
  6
CONTINUOUS
 10
10.3595597072
 20
9.763891804
 11
10.3500619117
 21
9.763891804
  0
LINE
  5
238
100
AcDbEntity
  8
0
100
AcDbLine
 62
7
  6
CONTINUOUS
 10
11.0606367068
 20
9.763891804
 11
11.0699050665
 21
9.763891804
  0
LINE
  5
239
100
AcDbEntity
  8
0
100
AcDbLine
 62
7
  6
CONTINUOUS
 10
10.2093302767
 20
10.260391804
 11
10.1824834891
 21
10.275891804
  0
LINE
  5
23A
100
AcDbEntity
  8
0
100
AcDbLine
 62
7
  6
CONTINUOUS
 10
11.2934818487
 20
9.8401018503
 11
11.3230683747
 21
9.7990649613
  0
LINE
  5
23B
100
AcDbEntity
  8
0
100
AcDbLine
 62
7
  6
CONTINUOUS
 10
11.2374834891
 20
10.244891804
 11
11.2674834891
 21
10.164891804
  0
LINE
  5
23C
100
AcDbEntity
  8
0
100
AcDbLine
 62
7
  6
CONTINUOUS
 10
10.3593305931
 20
10.155891804
 11
10.3500619117
 21
10.155891804
  0
LINE
  5
23D
100
AcDbEntity
  8
0
100
AcDbLine
 62
7
  6
CONTINUOUS
 10
11.0604076225
 20
10.155891804
 11
11.0699050665
 21
10.155891804
  0
LINE
  5
23E
100
AcDbEntity
  8
0
100
AcDbLine
 62
7
  6
CONTINUOUS
 10
11.2674834891
 20
10.164891804
 11
10.1524834891
 21
10.164891804
  0
LINE
  5
23F
100
AcDbEntity
  8
0
100
AcDbLine
 62
7
  6
CONTINUOUS
 10
10.1824834891
 20
10.244891804
 11
11.2374834891
 21
10.244891804
  0
LINE
  5
240
100
AcDbEntity
  8
0
100
AcDbLine
 62
7
  6
CONTINUOUS
 10
10.2093302767
 20
10.260391804
 11
11.2106367016
 21
10.260391804
  0
LINE
  5
241
100
AcDbEntity
  8
0
100
AcDbLine
 62
7
  6
CONTINUOUS
 10
11.2232176414
 20
10.3668111561
 11
11.2374834891
 21
10.3471759012
  0
LINE
  5
242
100
AcDbEntity
  8
0
100
AcDbLine
 62
7
  6
CONTINUOUS
 10
10.1824834891
 20
10.275891804
 11
11.2374834891
 21
10.275891804
  0
LINE
  5
243
100
AcDbEntity
  8
0
100
AcDbLine
 62
7
  6
CONTINUOUS
 10
11.2374834891
 20
10.3471759012
 11
10.1824834891
 21
10.3471759012
  0
LINE
  5
244
100
AcDbEntity
  8
0
100
AcDbLine
 62
7
  6
CONTINUOUS
 10
10.1967493369
 20
10.3668111561
 11
11.2232176414
 21
10.3668111561
  0
LINE
  5
245
100
AcDbEntity
  8
0
100
AcDbLine
 62
7
  6
CONTINUOUS
 10
11.1644772051
 20
10.385891804
 11
10.2554897732
 21
10.385891804
  0
LINE
  5
246
100
AcDbEntity
  8
0
100
AcDbLine
 62
7
  6
CONTINUOUS
 10
11.2106367016
 20
10.260391804
 11
11.2374834891
 21
10.244891804
  0
LINE
  5
247
100
AcDbEntity
  8
0
100
AcDbLine
 62
9
  6
CONTINUOUS
 10
11.1051281457
 20
10.4097010973
 11
10.3148397983
 21
10.4097013517
  0
LINE
  5
248
100
AcDbEntity
  8
0
100
AcDbLine
 62
7
  6
CONTINUOUS
 10
11.0174834891
 20
10.4300971936
 11
11.1051281457
 21
10.4097010973
  0
LINE
  5
249
100
AcDbEntity
  8
0
100
AcDbLine
 62
7
  6
CONTINUOUS
 10
11.1644934452
 20
10.385891804
 11
11.2232176414
 21
10.3668111561
  0
ARC
  5
24A
100
AcDbEntity
  8
0
100
AcDbCircle
 62
7
  6
CONTINUOUS
 10
10.2624586102
 20
8.6886274008
 40
0.2039751211
100
AcDbArc
 50
145.0110095298
 51
213.0478355063
  0
ARC
  5
24B
100
AcDbEntity
  8
0
100
AcDbCircle
 62
7
  6
CONTINUOUS
 10
9.7171196002
 20
7.558891804
 40
0.1871361111
100
AcDbArc
 50
92.1854050713
 51
180.0
  0
ARC
  5
24C
100
AcDbEntity
  8
0
100
AcDbCircle
 62
7
  6
CONTINUOUS
 10
9.8969808153
 20
7.746891804
 40
0.187
100
AcDbArc
 50
90.0
 51
180.3063960032
  0
ARC
  5
24D
100
AcDbEntity
  8
0
100
AcDbCircle
 62
7
  6
CONTINUOUS
 10
9.9477089555
 20
8.4838527795
 40
0.1715245336
100
AcDbArc
 50
314.9173576842
 51
33.0478355063
  0
ARC
  5
24E
100
AcDbEntity
  8
0
100
AcDbCircle
 62
7
  6
CONTINUOUS
 10
9.657444587
 20
9.2698951326
 40
0.625
100
AcDbArc
 50
325.0110095299
 51
355.1903004544
  0
ARC
  5
24F
100
AcDbEntity
  8
0
100
AcDbCircle
 62
7
  6
CONTINUOUS
 10
9.2298446002
 20
9.959891804
 40
0.9451388889
100
AcDbArc
 50
347.4730187713
 51
350.6558033147
  0
ARC
  5
250
100
AcDbEntity
  8
0
100
AcDbCircle
 62
7
  6
CONTINUOUS
 10
9.2298446002
 20
9.959891804
 40
0.9451388889
100
AcDbArc
 50
9.3556020554
 51
12.5269812287
  0
ARC
  5
251
100
AcDbEntity
  8
0
100
AcDbCircle
 62
7
  6
CONTINUOUS
 10
9.873830143
 20
9.9598909482
 40
0.275000076
100
AcDbArc
 50
35.7908158678
 51
324.2091663967
  0
ARC
  5
252
100
AcDbEntity
  8
0
100
AcDbCircle
 62
7
  6
CONTINUOUS
 10
9.9449077357
 20
9.959893318
 40
0.2688945998
100
AcDbArc
 50
359.374924188
 51
359.8019916727
  0
ARC
  5
253
100
AcDbEntity
  8
0
100
AcDbCircle
 62
7
  6
CONTINUOUS
 10
9.9452626144
 20
9.9598918736
 40
0.2685397182
100
AcDbArc
 50
359.80203817
 51
0.1976970704
  0
ARC
  5
254
100
AcDbEntity
  8
0
100
AcDbCircle
 62
7
  6
CONTINUOUS
 10
10.4733933353
 20
9.9017499578
 40
0.2538569259
100
AcDbArc
 50
192.829507101
 51
194.7601825239
  0
ARC
  5
255
100
AcDbEntity
  8
0
100
AcDbCircle
 62
7
  6
CONTINUOUS
 10
10.3741677822
 20
9.8739777111
 40
0.1200346064
100
AcDbArc
 50
243.0164877817
 51
244.0314672324
  0
ARC
  5
256
100
AcDbEntity
  8
0
100
AcDbCircle
 62
9
  6
CONTINUOUS
 10
10.350022613
 20
9.8626613434
 40
0.0987695357
100
AcDbArc
 50
270.0227970013
 51
280.5622467127
  0
ARC
  5
257
100
AcDbEntity
  8
0
100
AcDbCircle
 62
7
  6
CONTINUOUS
 10
10.3111346006
 20
9.214891804
 40
0.031
100
AcDbArc
 50
90.0
 51
175.1903004544
  0
ARC
  5
258
100
AcDbEntity
  8
0
100
AcDbCircle
 62
7
  6
CONTINUOUS
 10
10.6679173519
 20
10.1720309703
 40
0.2872676167
100
AcDbArc
 50
100.8673646919
 51
102.8840062821
  0
ARC
  5
259
100
AcDbEntity
  8
0
100
AcDbCircle
 62
7
  6
CONTINUOUS
 10
10.6676985327
 20
10.1738802147
 40
0.286395907
100
AcDbArc
 50
100.9032078514
 51
102.8789891683
  0
ARC
  5
25A
100
AcDbEntity
  8
0
100
AcDbCircle
 62
7
  6
CONTINUOUS
 10
10.6853912482
 20
10.1766635095
 40
0.284066532
100
AcDbArc
 50
99.3305415997
 51
101.6174011995
  0
ARC
  5
25B
100
AcDbEntity
  8
0
100
AcDbCircle
 62
7
  6
CONTINUOUS
 10
10.666909255
 20
10.1771567715
 40
0.2820436786
100
AcDbArc
 50
98.8545984604
 51
100.8625665181
  0
ARC
  5
25C
100
AcDbEntity
  8
0
100
AcDbCircle
 62
7
  6
CONTINUOUS
 10
10.6668647862
 20
10.1782452302
 40
0.2819519849
100
AcDbArc
 50
98.9123333541
 51
100.9046199161
  0
ARC
  5
25D
100
AcDbEntity
  8
0
100
AcDbCircle
 62
7
  6
CONTINUOUS
 10
10.6665075206
 20
10.1805092148
 40
0.2796599857
100
AcDbArc
 50
97.976935697
 51
98.9118808333
  0
ARC
  5
25E
100
AcDbEntity
  8
0
100
AcDbCircle
 62
7
  6
CONTINUOUS
 10
10.666493688
 20
10.1797467629
 40
0.2794205874
100
AcDbArc
 50
97.9522016407
 51
98.8521494342
  0
ARC
  5
25F
100
AcDbEntity
  8
0
100
AcDbCircle
 62
7
  6
CONTINUOUS
 10
10.6662648368
 20
10.1822334896
 40
0.2779187166
100
AcDbArc
 50
96.9091588309
 51
97.9767191528
  0
ARC
  5
260
100
AcDbEntity
  8
0
100
AcDbCircle
 62
7
  6
CONTINUOUS
 10
10.6662841712
 20
10.1812413849
 40
0.2779113519
100
AcDbArc
 50
96.8647100524
 51
97.9520520231
  0
ARC
  5
261
100
AcDbEntity
  8
0
100
AcDbCircle
 62
7
  6
CONTINUOUS
 10
10.6843454367
 20
10.1829657442
 40
0.2776781224
100
AcDbArc
 50
93.5924549965
 51
99.3284380786
  0
ARC
  5
262
100
AcDbEntity
  8
0
100
AcDbCircle
 62
9
  6
CONTINUOUS
 10
10.211476041
 20
9.9598918156
 40
0.2771787999
100
AcDbArc
 50
359.9999976147
 51
0.4371261494
  0
ARC
  5
263
100
AcDbEntity
  8
0
100
AcDbCircle
 62
7
  6
CONTINUOUS
 10
10.6660041517
 20
10.1835737007
 40
0.2755622868
100
AcDbArc
 50
94.8964481476
 51
96.8648678096
  0
ARC
  5
264
100
AcDbEntity
  8
0
100
AcDbCircle
 62
7
  6
CONTINUOUS
 10
10.6659575064
 20
10.1848256261
 40
0.2753084336
100
AcDbArc
 50
94.8912309268
 51
96.9105581719
  0
ARC
  5
265
100
AcDbEntity
  8
0
100
AcDbCircle
 62
7
  6
CONTINUOUS
 10
10.6839514918
 20
10.1865841923
 40
0.2740421508
100
AcDbArc
 50
92.0398011197
 51
93.5576558707
  0
ARC
  5
266
100
AcDbEntity
  8
0
100
AcDbCircle
 62
9
  6
CONTINUOUS
 10
10.2023978898
 20
9.959891815
 40
0.2639957463
100
AcDbArc
 50
359.9999976148
 51
0.4371261493
  0
ARC
  5
267
100
AcDbEntity
  8
0
100
AcDbCircle
 62
7
  6
CONTINUOUS
 10
10.4690955168
 20
10.0190856534
 40
0.2494329649
100
AcDbArc
 50
165.2876982114
 51
167.2588227761
  0
ARC
  5
268
100
AcDbEntity
  8
0
100
AcDbCircle
 62
7
  6
CONTINUOUS
 10
10.4052803939
 20
9.9395838579
 40
0.1991103434
100
AcDbArc
 50
208.8645261176
 51
210.5673765831
  0
ARC
  5
269
100
AcDbEntity
  8
0
100
AcDbCircle
 62
7
  6
CONTINUOUS
 10
10.4046569046
 20
9.9805562063
 40
0.1983922568
100
AcDbArc
 50
149.5627664842
 51
151.1172191351
  0
ARC
  5
26A
100
AcDbEntity
  8
0
100
AcDbCircle
 62
7
  6
CONTINUOUS
 10
10.0121693184
 20
9.9366507415
 40
0.1972177856
100
AcDbArc
 50
329.6562523027
 51
330.1335373641
  0
ARC
  5
26B
100
AcDbEntity
  8
0
100
AcDbCircle
 62
7
  6
CONTINUOUS
 10
10.0123426373
 20
9.9832319102
 40
0.1970181873
100
AcDbArc
 50
29.9862492037
 51
30.3184637031
  0
ARC
  5
26C
100
AcDbEntity
  8
0
100
AcDbCircle
 62
7
  6
CONTINUOUS
 10
10.4019754324
 20
9.9821273128
 40
0.1952844194
100
AcDbArc
 50
148.940833925
 51
149.5616415171
  0
ARC
  5
26D
100
AcDbEntity
  8
0
100
AcDbCircle
 62
7
  6
CONTINUOUS
 10
10.4016849363
 20
9.9374820457
 40
0.194945662
100
AcDbArc
 50
210.5728865523
 51
211.148701633
  0
ARC
  5
26E
100
AcDbEntity
  8
0
100
AcDbCircle
 62
7
  6
CONTINUOUS
 10
10.2945302558
 20
9.9751701534
 40
0.1928940502
100
AcDbArc
 50
64.1049514244
 51
67.7334331543
  0
ARC
  5
26F
100
AcDbEntity
  8
0
100
AcDbCircle
 62
9
  6
CONTINUOUS
 10
10.3963996399
 20
9.9366506265
 40
0.1896611388
100
AcDbArc
 50
209.2870667634
 51
209.844236316
  0
ARC
  5
270
100
AcDbEntity
  8
0
100
AcDbCircle
 62
9
  6
CONTINUOUS
 10
10.3961835663
 20
9.9832468624
 40
0.1894170502
100
AcDbArc
 50
150.017784512
 51
150.69944446
  0
ARC
  5
271
100
AcDbEntity
  8
0
100
AcDbCircle
 62
7
  6
CONTINUOUS
 10
10.2968122727
 20
9.9393559793
 40
0.1871640763
100
AcDbArc
 50
292.2856816272
 51
294.4508552842
  0
ARC
  5
272
100
AcDbEntity
  8
0
100
AcDbCircle
 62
9
  6
CONTINUOUS
 10
10.393687211
 20
9.9350896869
 40
0.1865316363
100
AcDbArc
 50
209.8429748562
 51
211.4738830415
  0
ARC
  5
273
100
AcDbEntity
  8
0
100
AcDbCircle
 62
9
  6
CONTINUOUS
 10
10.3932203908
 20
9.9849678779
 40
0.1859903604
100
AcDbArc
 50
148.6812627608
 51
150.0208401264
  0
ARC
  5
274
100
AcDbEntity
  8
0
100
AcDbCircle
 62
7
  6
CONTINUOUS
 10
10.6067499947
 20
10.6288255086
 40
0.1769191515
100
AcDbArc
 50
271.5656016885
 51
273.4781141197
  0
ARC
  5
275
100
AcDbEntity
  8
0
100
AcDbCircle
 62
9
  6
CONTINUOUS
 10
10.3667811503
 20
10.0041471715
 40
0.1532833057
100
AcDbArc
 50
138.4624579166
 51
139.3474544133
  0
ARC
  5
276
100
AcDbEntity
  8
0
100
AcDbCircle
 62
7
  6
CONTINUOUS
 10
10.3741476213
 20
10.0458473171
 40
0.1199885014
100
AcDbArc
 50
115.9521262328
 51
116.9310772733
  0
ARC
  5
277
100
AcDbEntity
  8
0
100
AcDbCircle
 62
9
  6
CONTINUOUS
 10
10.3500449928
 20
10.0574505981
 40
0.098441196
100
AcDbArc
 50
80.6138660417
 51
89.9901526484
  0
ARC
  5
278
100
AcDbEntity
  8
0
100
AcDbCircle
 62
7
  6
CONTINUOUS
 10
10.3224834891
 20
10.3806914571
 40
0.03
100
AcDbArc
 50
104.7630312683
 51
170.0176441513
  0
ARC
  5
279
100
AcDbEntity
  8
0
100
AcDbCircle
 62
7
  6
CONTINUOUS
 10
10.7099873948
 20
8.9102047463
 40
1.5506874935
100
AcDbArc
 50
101.4376623321
 51
104.7630102158
  0
ARC
  5
27A
100
AcDbEntity
  8
0
100
AcDbCircle
 62
7
  6
CONTINUOUS
 10
10.7099834891
 20
8.9102217886
 40
1.5506700155
100
AcDbArc
 50
79.3153285428
 51
79.4702523047
  0
ARC
  5
27B
100
AcDbEntity
  8
0
100
AcDbCircle
 62
7
  6
CONTINUOUS
 10
10.7099834891
 20
8.9102217886
 40
1.5506700155
100
AcDbArc
 50
87.8558804751
 51
91.3220614647
  0
ARC
  5
27C
100
AcDbEntity
  8
0
100
AcDbCircle
 62
7
  6
CONTINUOUS
 10
10.7109480485
 20
8.9112322257
 40
1.549413025
100
AcDbArc
 50
93.2078196057
 51
93.9107336764
  0
ARC
  5
27D
100
AcDbEntity
  8
0
100
AcDbCircle
 62
7
  6
CONTINUOUS
 10
10.7102298005
 20
8.9117272889
 40
1.5491445141
100
AcDbArc
 50
91.3328087594
 51
100.7044727204
  0
ARC
  5
27E
100
AcDbEntity
  8
0
100
AcDbCircle
 62
7
  6
CONTINUOUS
 10
10.7107949019
 20
8.91207947
 40
1.5485571367
100
AcDbArc
 50
94.0238934401
 51
101.4840960704
  0
ARC
  5
27F
100
AcDbEntity
  8
0
100
AcDbCircle
 62
7
  6
CONTINUOUS
 10
10.7102298073
 20
8.9117255482
 40
1.5481462414
100
AcDbArc
 50
92.1336019757
 51
92.5068501248
  0
ARC
  5
280
100
AcDbEntity
  8
0
100
AcDbCircle
 62
7
  6
CONTINUOUS
 10
10.7106095894
 20
8.9173505805
 40
1.5432853017
100
AcDbArc
 50
92.5300615741
 51
93.0708886155
  0
ARC
  5
281
100
AcDbEntity
  8
0
100
AcDbCircle
 62
7
  6
CONTINUOUS
 10
11.1575083681
 20
8.6886274008
 40
0.2039751211
100
AcDbArc
 50
326.9521644937
 51
34.9889904702
  0
ARC
  5
282
100
AcDbEntity
  8
0
100
AcDbCircle
 62
7
  6
CONTINUOUS
 10
11.702847378
 20
7.558891804
 40
0.1871361111
100
AcDbArc
 50
0.0
 51
87.8145949287
  0
ARC
  5
283
100
AcDbEntity
  8
0
100
AcDbCircle
 62
7
  6
CONTINUOUS
 10
11.5229861629
 20
7.746891804
 40
0.187
100
AcDbArc
 50
359.6936039968
 51
90.0
  0
ARC
  5
284
100
AcDbEntity
  8
0
100
AcDbCircle
 62
7
  6
CONTINUOUS
 10
11.4722580228
 20
8.4838527795
 40
0.1715245336
100
AcDbArc
 50
146.9521644937
 51
225.0826423158
  0
ARC
  5
285
100
AcDbEntity
  8
0
100
AcDbCircle
 62
7
  6
CONTINUOUS
 10
10.7332565898
 20
9.2168476951
 40
1.2426347998
100
AcDbArc
 50
90.5931782718
 51
91.0721605629
  0
ARC
  5
286
100
AcDbEntity
  8
0
100
AcDbCircle
 62
7
  6
CONTINUOUS
 10
10.7331661145
 20
9.2210443176
 40
1.2374365455
100
AcDbArc
 50
90.7911070275
 51
91.0737030649
  0
ARC
  5
287
100
AcDbEntity
  8
0
100
AcDbCircle
 62
7
  6
CONTINUOUS
 10
10.7322710357
 20
9.258135969
 40
1.2003346508
100
AcDbArc
 50
91.064162272
 51
92.7662760144
  0
ARC
  5
288
100
AcDbEntity
  8
0
100
AcDbCircle
 62
7
  6
CONTINUOUS
 10
10.7316472743
 20
9.2818065977
 40
1.1776572229
100
AcDbArc
 50
91.0530136207
 51
95.0400706387
  0
ARC
  5
289
100
AcDbEntity
  8
0
100
AcDbCircle
 62
7
  6
CONTINUOUS
 10
10.7388791433
 20
9.2949607585
 40
1.1635190297
100
AcDbArc
 50
91.4238043402
 51
93.1770173384
  0
ARC
  5
28A
100
AcDbEntity
  8
0
100
AcDbCircle
 62
7
  6
CONTINUOUS
 10
10.7284895476
 20
9.3293266951
 40
1.129044432
100
AcDbArc
 50
92.7489568269
 51
95.0967751945
  0
ARC
  5
28B
100
AcDbEntity
  8
0
100
AcDbCircle
 62
7
  6
CONTINUOUS
 10
10.7356211894
 20
9.3513539736
 40
1.1070319351
100
AcDbArc
 50
93.1704143758
 51
94.8119975605
  0
ARC
  5
28C
100
AcDbEntity
  8
0
100
AcDbCircle
 62
7
  6
CONTINUOUS
 10
10.7324334009
 20
9.3894572045
 40
1.0687955938
100
AcDbArc
 50
94.8130586883
 51
95.5951662773
  0
ARC
  5
28D
100
AcDbEntity
  8
0
100
AcDbCircle
 62
7
  6
CONTINUOUS
 10
10.7310381592
 20
9.4038317253
 40
1.0543535241
100
AcDbArc
 50
95.5958676273
 51
95.7965893149
  0
ARC
  5
28E
100
AcDbEntity
  8
0
100
AcDbCircle
 62
7
  6
CONTINUOUS
 10
11.1088323776
 20
9.214891804
 40
0.031
100
AcDbArc
 50
4.8096995456
 51
90.0
  0
ARC
  5
28F
100
AcDbEntity
  8
0
100
AcDbCircle
 62
7
  6
CONTINUOUS
 10
10.9430794196
 20
10.0172099528
 40
0.2574468418
100
AcDbArc
 50
12.7784180826
 51
14.3564974675
  0
ARC
  5
290
100
AcDbEntity
  8
0
100
AcDbCircle
 62
7
  6
CONTINUOUS
 10
10.9515980163
 20
9.9005264322
 40
0.2486865846
100
AcDbArc
 50
345.1808060113
 51
347.3041899885
  0
ARC
  5
291
100
AcDbEntity
  8
0
100
AcDbCircle
 62
7
  6
CONTINUOUS
 10
11.0141210695
 20
9.9798794431
 40
0.1997603529
100
AcDbArc
 50
28.9154124286
 51
30.0693585411
  0
ARC
  5
292
100
AcDbEntity
  8
0
100
AcDbCircle
 62
7
  6
CONTINUOUS
 10
11.0155268547
 20
9.9391106187
 40
0.1981462426
100
AcDbArc
 50
329.4443565736
 51
331.1250499289
  0
ARC
  5
293
100
AcDbEntity
  8
0
100
AcDbCircle
 62
7
  6
CONTINUOUS
 10
11.4085530954
 20
9.9370940388
 40
0.1980936713
100
AcDbArc
 50
209.4922500935
 51
210.4309258349
  0
ARC
  5
294
100
AcDbEntity
  8
0
100
AcDbCircle
 62
7
  6
CONTINUOUS
 10
11.0178851654
 20
9.9377255528
 40
0.1954112841
100
AcDbArc
 50
329.1450852042
 51
329.4425457157
  0
ARC
  5
295
100
AcDbEntity
  8
0
100
AcDbCircle
 62
7
  6
CONTINUOUS
 10
11.1254363931
 20
9.9446127632
 40
0.192893284
100
AcDbArc
 50
244.1052061253
 51
247.7335030688
  0
ARC
  5
296
100
AcDbEntity
  8
0
100
AcDbCircle
 62
9
  6
CONTINUOUS
 10
11.0223499776
 20
9.9373501646
 40
0.1910651758
100
AcDbArc
 50
330.7109523883
 51
330.9685628903
  0
ARC
  5
297
100
AcDbEntity
  8
0
100
AcDbCircle
 62
9
  6
CONTINUOUS
 10
11.0231309005
 20
9.9828794047
 40
0.1901658981
100
AcDbArc
 50
29.2759859916
 51
29.573201819
  0
ARC
  5
298
100
AcDbEntity
  8
0
100
AcDbCircle
 62
9
  6
CONTINUOUS
 10
11.0250501796
 20
9.9839722011
 40
0.187957318
100
AcDbArc
 50
29.5722258595
 51
30.8660655079
  0
ARC
  5
299
100
AcDbEntity
  8
0
100
AcDbCircle
 62
7
  6
CONTINUOUS
 10
11.1231548918
 20
9.9804271509
 40
0.1871645882
100
AcDbArc
 50
112.2856054571
 51
114.4511686875
  0
ARC
  5
29A
100
AcDbEntity
  8
0
100
AcDbCircle
 62
9
  6
CONTINUOUS
 10
11.026105101
 20
9.9352072763
 40
0.1867417649
100
AcDbArc
 50
328.5228185224
 51
330.7207343584
  0
ARC
  5
29B
100
AcDbEntity
  8
0
100
AcDbCircle
 62
7
  6
CONTINUOUS
 10
11.0458026624
 20
10.0458128916
 40
0.1200267986
100
AcDbArc
 50
63.0276756054
 51
64.0315427076
  0
ARC
  5
29C
100
AcDbEntity
  8
0
100
AcDbCircle
 62
7
  6
CONTINUOUS
 10
11.045805422
 20
9.8739645096
 40
0.1200199716
100
AcDbArc
 50
295.9521816246
 51
296.9754093137
  0
ARC
  5
29D
100
AcDbEntity
  8
0
100
AcDbCircle
 62
7
  6
CONTINUOUS
 10
11.349442072
 20
9.8694834488
 40
0.1055916448
100
AcDbArc
 50
270.0009736039
 51
272.1462114796
  0
ARC
  5
29E
100
AcDbEntity
  8
0
100
AcDbCircle
 62
7
  6
CONTINUOUS
 10
11.3494420128
 20
10.0503032728
 40
0.1055885312
100
AcDbArc
 50
87.8312473168
 51
89.9989942454
  0
ARC
  5
29F
100
AcDbEntity
  8
0
100
AcDbCircle
 62
9
  6
CONTINUOUS
 10
11.0699854334
 20
10.0567827824
 40
0.0991090542
100
AcDbArc
 50
90.0464607551
 51
100.357603918
  0
ARC
  5
2A0
100
AcDbEntity
  8
0
100
AcDbCircle
 62
9
  6
CONTINUOUS
 10
11.0699259346
 20
9.8622736865
 40
0.0983818847
100
AcDbArc
 50
260.4043607092
 51
269.9878468353
  0
ARC
  5
2A1
100
AcDbEntity
  8
0
100
AcDbCircle
 62
9
  6
CONTINUOUS
 10
11.0855745455
 20
9.8665596268
 40
0.0933457587
100
AcDbArc
 50
270.0000190798
 51
270.8742157272
  0
ARC
  5
2A2
100
AcDbEntity
  8
0
100
AcDbCircle
 62
9
  6
CONTINUOUS
 10
11.0855746077
 20
10.0532239813
 40
0.0933457587
100
AcDbArc
 50
90.0000190798
 51
90.8742157272
  0
ARC
  5
2A3
100
AcDbEntity
  8
0
100
AcDbCircle
 62
7
  6
CONTINUOUS
 10
11.0974834891
 20
10.3806914571
 40
0.03
100
AcDbArc
 50
9.9823558487
 51
75.2369687317
  0
ARC
  5
2A4
100
AcDbEntity
  8
0
100
AcDbCircle
 62
7
  6
CONTINUOUS
 10
11.7625223912
 20
9.2698951326
 40
0.625
100
AcDbArc
 50
184.8096995456
 51
214.9889904701
  0
ARC
  5
2A5
100
AcDbEntity
  8
0
100
AcDbCircle
 62
7
  6
CONTINUOUS
 10
12.190122378
 20
9.959891804
 40
0.9451388889
100
AcDbArc
 50
189.3454314595
 51
192.5269812287
  0
ARC
  5
2A6
100
AcDbEntity
  8
0
100
AcDbCircle
 62
7
  6
CONTINUOUS
 10
12.190122378
 20
9.959891804
 40
0.9451388889
100
AcDbArc
 50
167.4730187713
 51
170.6448301548
  0
ARC
  5
2A7
100
AcDbEntity
  8
0
100
AcDbCircle
 62
7
  6
CONTINUOUS
 10
11.5461367942
 20
9.9598923855
 40
0.2749995817
100
AcDbArc
 50
215.7921391844
 51
144.2078711207
  0
ARC
  5
2A8
100
AcDbEntity
  8
0
100
AcDbCircle
 62
7
  6
CONTINUOUS
 10
11.5460109297
 20
9.9597079627
 40
0.2747775125
100
AcDbArc
 50
238.8989413411
 51
243.4062074567
  0
ARC
  5
2A9
100
AcDbEntity
  8
0
100
AcDbCircle
 62
7
  6
CONTINUOUS
 10
11.5460901402
 20
9.9594435954
 40
0.2745492976
100
AcDbArc
 50
261.5652496779
 51
266.9221367479
  0
ARC
  5
2AA
100
AcDbEntity
  8
0
100
AcDbCircle
 62
7
  6
CONTINUOUS
 10
11.5459390387
 20
9.9592349321
 40
0.2743139395
100
AcDbArc
 50
250.4375757212
 51
255.4267221862
  0
SPLINE
  5
2AB
100
AcDbEntity
  8
0
100
AcDbSpline
 62
7
  6
CONTINUOUS
 70
0
 71
3
 72
16
 73
12
 74
0
 42
0.0000001
 43
0.0000001
 44
0.0000000001
 40
0.0
 40
0.0
 40
0.0
 40
0.0
 40
0.0296438757
 40
0.0527665377
 40
0.0827449678
 40
0.1199280684
 40
0.1644621829
 40
0.2757440248
 40
0.416338847
 40
0.5849462927
 40
1.0
 40
1.0
 40
1.0
 40
1.0
 10
10.6024832631
 20
10.4524997204
 30
0.0
 10
10.6024830896
 20
10.4524571887
 30
0.0
 10
10.6025429199
 20
10.4523902741
 30
0.0
 10
10.602645231
 20
10.4523361787
 30
0.0
 10
10.6027670475
 20
10.4522883774
 30
0.0
 10
10.6029209074
 20
10.452244399
 30
0.0
 10
10.6031913479
 20
10.4521836331
 30
0.0
 10
10.6036119664
 20
10.4521189153
 30
0.0
 10
10.6042120996
 20
10.4520559079
 30
0.0
 10
10.6052487493
 20
10.4519821201
 30
0.0
 10
10.6060859951
 20
10.4519540663
 30
0.0
 10
10.6066813713
 20
10.4519416443
 30
0.0
  0
LINE
  5
2AC
100
AcDbEntity
  8
0
100
AcDbLine
 62
7
  6
CONTINUOUS
 10
10.6066813713
 20
10.4519416443
 11
10.611583692
 21
10.4519724014
  0
LINE
  5
2AD
100
AcDbEntity
  8
0
100
AcDbLine
 62
7
  6
CONTINUOUS
 10
11.0174834849
 20
10.4300972085
 11
11.0161187426
 21
10.430355337
  0
LINE
  5
2AE
100
AcDbEntity
  8
0
100
AcDbLine
 62
7
  6
CONTINUOUS
 10
11.0161187426
 20
10.430355337
 11
11.0142331539
 21
10.4307118983
  0
LINE
  5
2AF
100
AcDbEntity
  8
0
100
AcDbLine
 62
7
  6
CONTINUOUS
 10
11.0142331539
 20
10.4307118983
 11
11.0123121927
 21
10.431075076
  0
SPLINE
  5
2B0
100
AcDbEntity
  8
0
100
AcDbSpline
 62
7
  6
CONTINUOUS
 70
0
 71
3
 72
9
 73
5
 74
0
 42
0.0000001
 43
0.0000001
 44
0.0000000001
 40
0.0
 40
0.0
 40
0.0
 40
0.0
 40
0.4831441421
 40
1.0
 40
1.0
 40
1.0
 40
1.0
 10
10.3157713337
 20
9.754891804
 30
0.0
 10
10.32151854
 20
9.7548917967
 30
0.0
 10
10.3334247262
 20
9.7558960074
 30
0.0
 10
10.3450580263
 20
9.7585468208
 30
0.0
 10
10.3509611064
 20
9.7602656212
 30
0.0
  0
SPLINE
  5
2B1
100
AcDbEntity
  8
0
100
AcDbSpline
 62
7
  6
CONTINUOUS
 70
0
 71
3
 72
9
 73
5
 74
0
 42
0.0000001
 43
0.0000001
 44
0.0000000001
 40
0.0
 40
0.0
 40
0.0
 40
0.0
 40
0.2453022086
 40
1.0
 40
1.0
 40
1.0
 40
1.0
 10
10.3509611064
 20
9.7602656212
 30
0.0
 10
10.3523616464
 20
9.7606734166
 30
0.0
 10
10.3580474942
 20
9.7624162742
 30
0.0
 10
10.36363679
 20
9.7644706599
 30
0.0
 10
10.3677895574
 20
9.7661722142
 30
0.0
  0
SPLINE
  5
2B2
100
AcDbEntity
  8
0
100
AcDbSpline
 62
7
  6
CONTINUOUS
 70
0
 71
3
 72
20
 73
16
 74
0
 42
0.0000001
 43
0.0000001
 44
0.0000000001
 40
0.0
 40
0.0
 40
0.0
 40
0.0
 40
0.1148299079
 40
0.234889296
 40
0.2964065374
 40
0.3586730716
 40
0.4848402992
 40
0.5485950336
 40
0.6126407308
 40
0.6769078727
 40
0.7413546582
 40
0.8059225422
 40
0.8706005604
 40
0.935336617
 40
1.0
 40
1.0
 40
1.0
 40
1.0
 10
10.3742818389
 20
9.7689774074
 30
0.0
 10
10.3827803514
 20
9.7728391161
 30
0.0
 10
10.3996098476
 20
9.781997668
 30
0.0
 10
10.4192168895
 20
9.796106759
 30
0.0
 10
10.43420913
 20
9.8090915116
 30
0.0
 10
10.4487400878
 20
9.8233075405
 30
0.0
 10
10.4620444568
 20
9.8389922117
 30
0.0
 10
10.4737936988
 20
9.8559834703
 30
0.0
 10
10.4817740425
 20
9.8694194471
 30
0.0
 10
10.4887811662
 20
9.8834514583
 30
0.0
 10
10.4947070979
 20
9.8980208264
 30
0.0
 10
10.4994577916
 20
9.9130513696
 30
0.0
 10
10.502922989
 20
9.9284556044
 30
0.0
 10
10.5050320463
 20
9.9441103159
 30
0.0
 10
10.5055122751
 20
9.9546351914
 30
0.0
 10
10.5055122751
 20
9.959891804
 30
0.0
  0
SPLINE
  5
2B3
100
AcDbEntity
  8
0
100
AcDbSpline
 62
7
  6
CONTINUOUS
 70
0
 71
3
 72
18
 73
14
 74
0
 42
0.0000001
 43
0.0000001
 44
0.0000000001
 40
0.0
 40
0.0
 40
0.0
 40
0.0
 40
0.0645184619
 40
0.1290982519
 40
0.1936194261
 40
0.2580436718
 40
0.3223544959
 40
0.386500423
 40
0.5140396615
 40
0.6401241189
 40
0.7639530095
 40
0.8843973711
 40
1.0
 40
1.0
 40
1.0
 40
1.0
 10
10.5055122751
 20
9.959891804
 30
0.0
 10
10.5055122751
 20
9.9650294279
 30
0.0
 10
10.5050545922
 20
9.9753149326
 30
0.0
 10
10.5030404186
 20
9.9906189693
 30
0.0
 10
10.4997256694
 20
10.0056879183
 30
0.0
 10
10.4951813047
 20
10.0204079914
 30
0.0
 10
10.4895044407
 20
10.0346965363
 30
0.0
 10
10.4805605793
 20
10.0530324226
 30
0.0
 10
10.4670570776
 20
10.0745346539
 30
0.0
 10
10.4478635835
 20
10.0977618924
 30
0.0
 10
10.4264245851
 20
10.1181166929
 30
0.0
 10
10.4034160582
 20
10.13530454
 30
0.0
 10
10.3870538184
 20
10.1446783643
 30
0.0
 10
10.3787717262
 20
10.1486967774
 30
0.0
  0
SPLINE
  5
2B4
100
AcDbEntity
  8
0
100
AcDbSpline
 62
7
  6
CONTINUOUS
 70
0
 71
3
 72
9
 73
5
 74
0
 42
0.0000001
 43
0.0000001
 44
0.0000000001
 40
0.0
 40
0.0
 40
0.0
 40
0.0
 40
0.2546012226
 40
1.0
 40
1.0
 40
1.0
 40
1.0
 10
10.3676209397
 20
10.1536802834
 30
0.0
 10
10.3662440799
 20
10.1542428906
 30
0.0
 10
10.3608095353
 20
10.1563865462
 30
0.0
 10
10.3552675906
 20
10.1582606722
 30
0.0
 10
10.3510876121
 20
10.1594814224
 30
0.0
  0
SPLINE
  5
2B5
100
AcDbEntity
  8
0
100
AcDbSpline
 62
7
  6
CONTINUOUS
 70
0
 71
3
 72
9
 73
5
 74
0
 42
0.0000001
 43
0.0000001
 44
0.0000000001
 40
0.0
 40
0.0
 40
0.0
 40
0.0
 40
0.5169483154
 40
1.0
 40
1.0
 40
1.0
 40
1.0
 10
10.3510876121
 20
10.1594814224
 30
0.0
 10
10.345163175
 20
10.1612116365
 30
0.0
 10
10.3334884388
 20
10.1638783551
 30
0.0
 10
10.3215386818
 20
10.164891804
 30
0.0
 10
10.3157714586
 20
10.164891804
 30
0.0
  0
SPLINE
  5
2B6
100
AcDbEntity
  8
0
100
AcDbSpline
 62
7
  6
CONTINUOUS
 70
0
 71
3
 72
9
 73
5
 74
0
 42
0.0000001
 43
0.0000001
 44
0.0000000001
 40
0.0
 40
0.0
 40
0.0
 40
0.0
 40
0.4831442836
 40
1.0
 40
1.0
 40
1.0
 40
1.0
 10
11.1041955281
 20
10.164891804
 30
0.0
 10
11.0984483495
 20
10.164891804
 30
0.0
 10
11.0865422256
 20
10.1638875929
 30
0.0
 10
11.0749089853
 20
10.1612367937
 30
0.0
 10
11.0690059365
 20
10.1595180048
 30
0.0
  0
SPLINE
  5
2B7
100
AcDbEntity
  8
0
100
AcDbSpline
 62
7
  6
CONTINUOUS
 70
0
 71
3
 72
9
 73
5
 74
0
 42
0.0000001
 43
0.0000001
 44
0.0000000001
 40
0.0
 40
0.0
 40
0.0
 40
0.0
 40
0.2453022478
 40
1.0
 40
1.0
 40
1.0
 40
1.0
 10
11.0690059365
 20
10.1595180048
 30
0.0
 10
11.0676054097
 20
10.1591102139
 30
0.0
 10
11.0619196161
 20
10.157367376
 30
0.0
 10
11.0563303725
 20
10.1553130162
 30
0.0
 10
11.0521776432
 20
10.1536114841
 30
0.0
  0
SPLINE
  5
2B8
100
AcDbEntity
  8
0
100
AcDbSpline
 62
7
  6
CONTINUOUS
 70
0
 71
3
 72
20
 73
16
 74
0
 42
0.0000001
 43
0.0000001
 44
0.0000000001
 40
0.0
 40
0.0
 40
0.0
 40
0.0
 40
0.1148300742
 40
0.2348895222
 40
0.2964067753
 40
0.3586733225
 40
0.484840563
 40
0.5485952832
 40
0.6126409542
 40
0.6769080569
 40
0.7413547959
 40
0.8059226361
 40
0.87060062
 40
0.9353366473
 40
1.0
 40
1.0
 40
1.0
 40
1.0
 10
11.0456841818
 20
10.1508057651
 30
0.0
 10
11.0371857143
 20
10.1469440217
 30
0.0
 10
11.020356318
 20
10.1377854225
 30
0.0
 10
11.0007493993
 20
10.1236763061
 30
0.0
 10
10.9857572615
 20
10.110691555
 30
0.0
 10
10.9712264058
 20
10.0964755429
 30
0.0
 10
10.9579221327
 20
10.0807909053
 30
0.0
 10
10.9461729875
 20
10.0637996905
 30
0.0
 10
10.9381927155
 20
10.050363757
 30
0.0
 10
10.9311856566
 20
10.0363317992
 30
0.0
 10
10.9252597801
 20
10.0217624933
 30
0.0
 10
10.9205091312
 20
10.0067320178
 30
0.0
 10
10.917043967
 20
9.9913278544
 30
0.0
 10
10.9149349282
 20
9.9756732169
 30
0.0
 10
10.9144547032
 20
9.9651483916
 30
0.0
 10
10.9144547032
 20
9.959891804
 30
0.0
  0
SPLINE
  5
2B9
100
AcDbEntity
  8
0
100
AcDbSpline
 62
7
  6
CONTINUOUS
 70
0
 71
3
 72
18
 73
14
 74
0
 42
0.0000001
 43
0.0000001
 44
0.0000000001
 40
0.0
 40
0.0
 40
0.0
 40
0.0
 40
0.0645184927
 40
0.1290983205
 40
0.1936195259
 40
0.2580437857
 40
0.3223546203
 40
0.3865005628
 40
0.5140398464
 40
0.6401243507
 40
0.7639532226
 40
0.8843974957
 40
1.0
 40
1.0
 40
1.0
 40
1.0
 10
10.9144547032
 20
9.959891804
 30
0.0
 10
10.9144547032
 20
9.9547541592
 30
0.0
 10
10.9149123912
 20
9.9444686119
 30
0.0
 10
10.9169265831
 20
9.9291645134
 30
0.0
 10
10.9202413571
 20
9.9140955059
 30
0.0
 10
10.9247857573
 20
9.8993753808
 30
0.0
 10
10.930462663
 20
9.8850867893
 30
0.0
 10
10.9394065849
 20
9.8667508444
 30
0.0
 10
10.952910177
 20
9.8452485504
 30
0.0
 10
10.9721038054
 20
9.8220212735
 30
0.0
 10
10.9935429308
 20
9.8016664588
 30
0.0
 10
11.0165515769
 20
9.7844786281
 30
0.0
 10
11.0329138977
 20
9.7751048406
 30
0.0
 10
11.0411960287
 20
9.7710864539
 30
0.0
  0
SPLINE
  5
2BA
100
AcDbEntity
  8
0
100
AcDbSpline
 62
7
  6
CONTINUOUS
 70
0
 71
3
 72
9
 73
5
 74
0
 42
0.0000001
 43
0.0000001
 44
0.0000000001
 40
0.0
 40
0.0
 40
0.0
 40
0.0
 40
0.2546012383
 40
1.0
 40
1.0
 40
1.0
 40
1.0
 10
11.0523462173
 20
9.7661032531
 30
0.0
 10
11.0537230734
 20
9.7655406492
 30
0.0
 10
11.0591576025
 20
9.7633970066
 30
0.0
 10
11.0646995307
 20
9.7615228918
 30
0.0
 10
11.0688794964
 20
9.7603021487
 30
0.0
  0
SPLINE
  5
2BB
100
AcDbEntity
  8
0
100
AcDbSpline
 62
7
  6
CONTINUOUS
 70
0
 71
3
 72
9
 73
5
 74
0
 42
0.0000001
 43
0.0000001
 44
0.0000000001
 40
0.0
 40
0.0
 40
0.0
 40
0.0
 40
0.5169481491
 40
1.0
 40
1.0
 40
1.0
 40
1.0
 10
11.0688794964
 20
9.7603021487
 30
0.0
 10
11.0748038986
 20
9.7585719494
 30
0.0
 10
11.0864785681
 20
9.7559052502
 30
0.0
 10
11.0984282557
 20
9.7548918084
 30
0.0
 10
11.1041954475
 20
9.754891804
 30
0.0
  0
SPLINE
  5
2BC
100
AcDbEntity
  8
0
100
AcDbSpline
 62
7
  6
CONTINUOUS
 70
0
 71
3
 72
25
 73
21
 74
0
 42
0.0000001
 43
0.0000001
 44
0.0000000001
 40
0.0
 40
0.0
 40
0.0
 40
0.0
 40
0.0262682963
 40
0.0526087623
 40
0.0791057379
 40
0.1058390636
 40
0.1602625623
 40
0.2164219868
 40
0.2746822188
 40
0.3352245963
 40
0.3980441561
 40
0.46295232
 40
0.5296097897
 40
0.5975487814
 40
0.6662222444
 40
0.7350307277
 40
0.8033700056
 40
0.8371919828
 40
0.8706863065
 40
1.0
 40
1.0
 40
1.0
 40
1.0
 10
11.3494438662
 20
10.155891804
 30
0.0
 10
11.3460002381
 20
10.155891804
 30
0.0
 10
11.3390988479
 20
10.1555529014
 30
0.0
 10
11.3288239581
 20
10.1540422253
 30
0.0
 10
11.3186793596
 20
10.1515436787
 30
0.0
 10
11.3053379199
 20
10.1468887004
 30
0.0
 10
11.2892209756
 20
10.1386423444
 30
0.0
 10
11.2714254802
 20
10.1253229097
 30
0.0
 10
11.2553321947
 20
10.1088633092
 30
0.0
 10
11.2411885628
 20
10.0896217406
 30
0.0
 10
11.2291970078
 20
10.0679788824
 30
0.0
 10
11.2195294281
 20
10.0443417658
 30
0.0
 10
11.212338181
 20
10.0191437986
 30
0.0
 10
11.2077299731
 20
9.9928503138
 30
0.0
 10
11.2057819345
 20
9.9659456863
 30
0.0
 10
11.2065277378
 20
9.9389300101
 30
0.0
 10
11.2093887162
 20
9.9166588266
 30
0.0
 10
11.2130191509
 20
9.8992399701
 30
0.0
 10
11.2195917296
 20
9.8743185355
 30
0.0
 10
11.2277820564
 20
9.8543269405
 30
0.0
 10
11.2361279476
 20
9.8395713696
 30
0.0
  0
SPLINE
  5
2BD
100
AcDbEntity
  8
0
100
AcDbSpline
 62
7
  6
CONTINUOUS
 70
0
 71
3
 72
15
 73
11
 74
0
 42
0.0000001
 43
0.0000001
 44
0.0000000001
 40
0.0
 40
0.0
 40
0.0
 40
0.0
 40
0.1368892641
 40
0.2697293927
 40
0.398607576
 40
0.5238153005
 40
0.6458619358
 40
0.7653601005
 40
0.8831077912
 40
1.0
 40
1.0
 40
1.0
 40
1.0
 10
11.2377487274
 20
9.8367597451
 30
0.0
 10
11.2409743315
 20
9.8312690701
 30
0.0
 10
11.2478620942
 20
9.8207504425
 30
0.0
 10
11.2596164004
 20
9.8063628342
 30
0.0
 10
11.2725435169
 20
9.7937774754
 30
0.0
 10
11.2865127737
 20
9.7831624542
 30
0.0
 10
11.3013835193
 20
9.7746927865
 30
0.0
 10
11.3169730902
 20
9.7685038782
 30
0.0
 10
11.3330729039
 20
9.7647411476
 30
0.0
 10
11.3440060754
 20
9.763891804
 30
0.0
 10
11.3494438662
 20
9.763891804
 30
0.0
  0
SPLINE
  5
2BE
100
AcDbEntity
  8
0
100
AcDbSpline
 62
7
  6
CONTINUOUS
 70
0
 71
3
 72
31
 73
27
 74
0
 42
0.0000001
 43
0.0000001
 44
0.0000000001
 40
0.0
 40
0.0
 40
0.0
 40
0.0
 40
0.0210593245
 40
0.0373639825
 40
0.049063068
 40
0.0532298615
 40
0.0562972103
 40
0.0591974055
 40
0.0605084991
 40
0.0658762974
 40
0.0751012148
 40
0.087985581
 40
0.1043374686
 40
0.1239713007
 40
0.1467085204
 40
0.1723783305
 40
0.2008174573
 40
0.2318534395
 40
0.2653027499
 40
0.3387097347
 40
0.4196190774
 40
0.5066675578
 40
0.5986680794
 40
0.6947769637
 40
0.7942153972
 40
1.0
 40
1.0
 40
1.0
 40
1.0
 10
11.1830778118
 20
10.0779439882
 30
0.0
 10
11.1829130594
 20
10.0781142872
 30
0.0
 10
11.1826187546
 20
10.0784122744
 30
0.0
 10
11.1822165434
 20
10.0787984203
 30
0.0
 10
11.1819582925
 20
10.0790358621
 30
0.0
 10
11.1817858681
 20
10.0791855734
 30
0.0
 10
11.1817221977
 20
10.0792416927
 30
0.0
 10
11.1815963357
 20
10.0793423349
 30
0.0
 10
11.1817152824
 20
10.079252153
 30
0.0
 10
11.1818346256
 20
10.079167314
 30
0.0
 10
11.1821038405
 20
10.0789787202
 30
0.0
 10
11.1824573993
 20
10.0787444015
 30
0.0
 10
11.1829245149
 20
10.0784480116
 30
0.0
 10
11.1834898665
 20
10.0781081846
 30
0.0
 10
11.18415585
 20
10.0777296722
 30
0.0
 10
11.1849184127
 20
10.0773221634
 30
0.0
 10
11.1857756737
 20
10.0768941502
 30
0.0
 10
11.1867233674
 20
10.0764522682
 30
0.0
 10
11.188145558
 20
10.0758318234
 30
0.0
 10
11.1901128355
 20
10.0750592669
 30
0.0
 10
11.1926857262
 20
10.0741869865
 30
0.0
 10
11.1955002802
 20
10.07338615
 30
0.0
 10
11.1985200197
 20
10.0726973318
 30
0.0
 10
11.201707644
 20
10.0721354439
 30
0.0
 10
11.2061887714
 20
10.0715695383
 30
0.0
 10
11.209626202
 20
10.071391804
 30
0.0
 10
11.2119415935
 20
10.071391804
 30
0.0
  0
SPLINE
  5
2BF
100
AcDbEntity
  8
0
100
AcDbSpline
 62
7
  6
CONTINUOUS
 70
0
 71
3
 72
32
 73
28
 74
0
 42
0.0000001
 43
0.0000001
 44
0.0000000001
 40
0.0
 40
0.0
 40
0.0
 40
0.0
 40
0.1880312515
 40
0.3684331594
 40
0.4545374116
 40
0.5372030902
 40
0.6158909578
 40
0.6898697624
 40
0.7582347938
 40
0.8200328211
 40
0.8742752898
 40
0.9199510916
 40
0.93927922
 40
0.9561255101
 40
0.9703802656
 40
0.981928787
 40
0.9866511451
 40
0.9906518535
 40
0.9939153456
 40
0.996425822
 40
0.9981672843
 40
0.9987446074
 40
0.9991236835
 40
0.9993028153
 40
0.9993338106
 40
0.999563709
 40
1.0
 40
1.0
 40
1.0
 40
1.0
 10
11.2119415935
 20
9.848391804
 30
0.0
 10
11.2099497269
 20
9.848391804
 30
0.0
 10
11.2060449981
 20
9.8482166575
 30
0.0
 10
11.2012640879
 20
9.8475978874
 30
0.0
 10
11.1976322992
 20
9.846891631
 30
0.0
 10
11.1950819455
 20
9.8462817189
 30
0.0
 10
11.192685376
 20
9.8455921664
 30
0.0
 10
11.1904653908
 20
9.8448455806
 30
0.0
 10
11.1884452387
 20
9.8440722331
 30
0.0
 10
11.1866498767
 20
9.843301045
 30
0.0
 10
11.1851038738
 20
9.8425619837
 30
0.0
 10
11.1839888747
 20
9.8419671388
 30
0.0
 10
11.1832403222
 20
9.8415294226
 30
0.0
 10
11.1827854118
 20
9.8412492579
 30
0.0
 10
11.1824059584
 20
9.841004004
 30
0.0
 10
11.1821379674
 20
9.8408229192
 30
0.0
 10
11.1819618985
 20
9.8407001063
 30
0.0
 10
11.181858298
 20
9.8406263962
 30
0.0
 10
11.1817746724
 20
9.8405661268
 30
0.0
 10
11.1817097166
 20
9.8405180851
 30
0.0
 10
11.181670049
 20
9.8404896615
 30
0.0
 10
11.1816451352
 20
9.8404702353
 30
0.0
 10
11.1816380252
 20
9.840466797
 30
0.0
 10
11.1816291936
 20
9.8404583382
 30
0.0
 10
11.1816305261
 20
9.8404635647
 30
0.0
 10
11.1816375633
 20
9.8404670015
 30
0.0
 10
11.1816420807
 20
9.8404724313
 30
0.0
 10
11.1816455417
 20
9.8404754943
 30
0.0
  0
SPLINE
  5
2C0
100
AcDbEntity
  8
0
100
AcDbSpline
 62
7
  6
CONTINUOUS
 70
0
 71
3
 72
11
 73
7
 74
0
 42
0.0000001
 43
0.0000001
 44
0.0000000001
 40
0.0
 40
0.0
 40
0.0
 40
0.0
 40
0.21590995
 40
0.4601652439
 40
0.7239080659
 40
1.0
 40
1.0
 40
1.0
 40
1.0
 10
11.2349342591
 20
9.8442618841
 30
0.0
 10
11.2333606134
 20
9.8448787467
 30
0.0
 10
11.2299430583
 20
9.8460365674
 30
0.0
 10
11.2244183975
 20
9.8473362714
 30
0.0
 10
11.2183314224
 20
9.8481868941
 30
0.0
 10
11.2141029534
 20
9.848391804
 30
0.0
 10
11.2119415935
 20
9.848391804
 30
0.0
  0
SPLINE
  5
2C1
100
AcDbEntity
  8
0
100
AcDbSpline
 62
7
  6
CONTINUOUS
 70
0
 71
3
 72
11
 73
7
 74
0
 42
0.0000001
 43
0.0000001
 44
0.0000000001
 40
0.0
 40
0.0
 40
0.0
 40
0.0
 40
0.2767983969
 40
0.5407164446
 40
0.7845899637
 40
1.0
 40
1.0
 40
1.0
 40
1.0
 10
11.2119415935
 20
10.071391804
 30
0.0
 10
11.214114131
 20
10.071391804
 30
0.0
 10
11.2183606601
 20
10.0715993613
 30
0.0
 10
11.2244662524
 20
10.0724592837
 30
0.0
 10
11.2300004456
 20
10.0737593538
 30
0.0
 10
11.2334178842
 20
10.0749260773
 30
0.0
 10
11.2349903911
 20
10.0755471482
 30
0.0
  0
SPLINE
  5
2C2
100
AcDbEntity
  8
0
100
AcDbSpline
 62
7
  6
CONTINUOUS
 70
0
 71
3
 72
15
 73
11
 74
0
 42
0.0000001
 43
0.0000001
 44
0.0000000001
 40
0.0
 40
0.0
 40
0.0
 40
0.0
 40
0.1194177728
 40
0.2392412557
 40
0.3602472146
 40
0.4830044543
 40
0.6079450162
 40
0.7355689019
 40
0.8661923446
 40
1.0
 40
1.0
 40
1.0
 40
1.0
 10
11.0699050665
 20
9.763891804
 30
0.0
 10
11.0756155029
 20
9.763891804
 30
0.0
 10
11.0870739266
 20
9.7647628075
 30
0.0
 10
11.1039238128
 20
9.7686240214
 30
0.0
 10
11.1201811857
 20
9.77495291
 30
0.0
 10
11.1356213304
 20
9.7835746485
 30
0.0
 10
11.150047305
 20
9.7943328423
 30
0.0
 10
11.1633225545
 20
9.807025189
 30
0.0
 10
11.1753330986
 20
9.8214676801
 30
0.0
 10
11.1823580365
 20
9.832012825
 30
0.0
 10
11.1856396438
 20
9.8375057698
 30
0.0
  0
SPLINE
  5
2C3
100
AcDbEntity
  8
0
100
AcDbSpline
 62
7
  6
CONTINUOUS
 70
0
 71
3
 72
15
 73
11
 74
0
 42
0.0000001
 43
0.0000001
 44
0.0000000001
 40
0.0
 40
0.0
 40
0.0
 40
0.0
 40
0.1340301221
 40
0.2648137455
 40
0.392524329
 40
0.5174757284
 40
0.6401695104
 40
0.7610710668
 40
0.8807549879
 40
1.0
 40
1.0
 40
1.0
 40
1.0
 10
11.1869975746
 20
10.0799689659
 30
0.0
 10
11.183726143
 20
10.0856188339
 30
0.0
 10
11.1767026599
 20
10.0964703946
 30
0.0
 10
11.1646350301
 20
10.1113495849
 30
0.0
 10
11.1512483596
 20
10.1244385992
 30
0.0
 10
11.1366599565
 20
10.1355432866
 30
0.0
 10
11.121010127
 20
10.1444517631
 30
0.0
 10
11.1045016867
 20
10.1509949882
 30
0.0
 10
11.0873709439
 20
10.1549902812
 30
0.0
 10
11.0757135292
 20
10.155891804
 30
0.0
 10
11.0699050665
 20
10.155891804
 30
0.0
  0
SPLINE
  5
2C4
100
AcDbEntity
  8
0
100
AcDbSpline
 62
7
  6
CONTINUOUS
 70
0
 71
3
 72
12
 73
8
 74
0
 42
0.0000001
 43
0.0000001
 44
0.0000000001
 40
0.0
 40
0.0
 40
0.0
 40
0.0
 40
0.1290481751
 40
0.2578339708
 40
0.5123376491
 40
0.7604459715
 40
1.0
 40
1.0
 40
1.0
 40
1.0
 10
10.2138007341
 20
9.9608183222
 30
0.0
 10
10.2137820253
 20
9.9662407907
 30
0.0
 10
10.2134168218
 20
9.97707684
 30
0.0
 10
10.2114004459
 20
9.998519805
 30
0.0
 10
10.2065112372
 20
10.0246732412
 30
0.0
 10
10.1969217659
 20
10.054432811
 30
0.0
 10
10.1880198956
 20
10.0729815611
 30
0.0
 10
10.1829890294
 20
10.0817000522
 30
0.0
  0
SPLINE
  5
2C5
100
AcDbEntity
  8
0
100
AcDbSpline
 62
7
  6
CONTINUOUS
 70
0
 71
3
 72
17
 73
13
 74
0
 42
0.0000001
 43
0.0000001
 44
0.0000000001
 40
0.0
 40
0.0
 40
0.0
 40
0.0
 40
0.1371266795
 40
0.2700543914
 40
0.3988869745
 40
0.523949067
 40
0.6457991326
 40
0.7057701811
 40
0.7652214381
 40
0.8829310139
 40
0.9414970289
 40
1.0
 40
1.0
 40
1.0
 40
1.0
 10
10.1824152225
 20
10.0826878396
 30
0.0
 10
10.1790881361
 20
10.0883772193
 30
0.0
 10
10.1719665532
 20
10.0992624582
 30
0.0
 10
10.1597610427
 20
10.114098309
 30
0.0
 10
10.1463043919
 20
10.126995819
 30
0.0
 10
10.1317445438
 20
10.1377668512
 30
0.0
 10
10.118746371
 20
10.1448531071
 30
0.0
 10
10.1080075697
 20
10.1492556901
 30
0.0
 10
10.0971587582
 20
10.1527764723
 30
0.0
 10
10.0859969749
 20
10.1550198617
 30
0.0
 10
10.0747400248
 20
10.155920123
 30
0.0
 10
10.0691057211
 20
10.1559195583
 30
0.0
 10
10.0662961218
 20
10.1558068427
 30
0.0
  0
SPLINE
  5
2C6
100
AcDbEntity
  8
0
100
AcDbSpline
 62
7
  6
CONTINUOUS
 70
0
 71
3
 72
17
 73
13
 74
0
 42
0.0000001
 43
0.0000001
 44
0.0000000001
 40
0.0
 40
0.0
 40
0.0
 40
0.0
 40
0.0585152786
 40
0.1170900794
 40
0.1758453621
 40
0.2348930156
 40
0.3542230487
 40
0.4760612145
 40
0.6011102976
 40
0.7299353623
 40
0.8628630702
 40
1.0
 40
1.0
 40
1.0
 40
1.0
 10
10.0659210675
 20
9.7639921651
 30
0.0
 10
10.0687364253
 20
9.7638693233
 30
0.0
 10
10.0743825089
 20
9.7638496251
 30
0.0
 10
10.0828346266
 20
9.7644980558
 30
0.0
 10
10.0912352254
 20
9.7658158644
 30
0.0
 10
10.1023545369
 20
9.7684623474
 30
0.0
 10
10.1159906426
 20
9.7734470266
 30
0.0
 10
10.1315430708
 20
9.781886307
 30
0.0
 10
10.1461501594
 20
9.7926552025
 30
0.0
 10
10.1596483357
 20
9.8055610728
 30
0.0
 10
10.1718913684
 20
9.8204161006
 30
0.0
 10
10.179033776
 20
9.8313193142
 30
0.0
 10
10.1823702536
 20
9.8370189363
 30
0.0
  0
SPLINE
  5
2C7
100
AcDbEntity
  8
0
100
AcDbSpline
 62
7
  6
CONTINUOUS
 70
0
 71
3
 72
12
 73
8
 74
0
 42
0.0000001
 43
0.0000001
 44
0.0000000001
 40
0.0
 40
0.0
 40
0.0
 40
0.0
 40
0.2396713661
 40
0.4877462305
 40
0.7421549403
 40
0.8709197367
 40
1.0
 40
1.0
 40
1.0
 40
1.0
 10
10.1831942912
 20
9.8384401838
 30
0.0
 10
10.1881134056
 20
9.8470062645
 30
0.0
 10
10.1968357981
 20
9.8652047018
 30
0.0
 10
10.2062978763
 20
9.8943730696
 30
0.0
 10
10.2111992892
 20
9.9199969879
 30
0.0
 10
10.2132974103
 20
9.9410140432
 30
0.0
 10
10.2137283009
 20
9.9516401238
 30
0.0
 10
10.2137863338
 20
9.9569598353
 30
0.0
  0
SPLINE
  5
2C8
100
AcDbEntity
  8
0
100
AcDbSpline
 62
7
  6
CONTINUOUS
 70
0
 71
3
 72
38
 73
34
 74
0
 42
0.0000001
 43
0.0000001
 44
0.0000000001
 40
0.0
 40
0.0
 40
0.0
 40
0.0
 40
0.0005821271
 40
0.0008800099
 40
0.0009234323
 40
0.0009501229
 40
0.0012112676
 40
0.0017471697
 40
0.0025548361
 40
0.0049737685
 40
0.0084423721
 40
0.0129256375
 40
0.0183869924
 40
0.0247903838
 40
0.0321003357
 40
0.0402819991
 40
0.0591239082
 40
0.0810521763
 40
0.1058158694
 40
0.1331778239
 40
0.1629043598
 40
0.1947628593
 40
0.2285246543
 40
0.3008627532
 40
0.3782390857
 40
0.4591285296
 40
0.542047135
 40
0.625523317
 40
0.7081345481
 40
0.7884441983
 40
0.8649220462
 40
0.9359833884
 40
1.0
 40
1.0
 40
1.0
 40
1.0
 10
10.2382975305
 20
9.8404974505
 30
0.0
 10
10.2383058289
 20
9.8404906481
 30
0.0
 10
10.2383207782
 20
9.8404786781
 30
0.0
 10
10.2383291347
 20
9.8404718355
 30
0.0
 10
10.2383382722
 20
9.8404650291
 30
0.0
 10
10.2383320092
 20
9.8404709383
 30
0.0
 10
10.238322389
 20
9.8404777755
 30
0.0
 10
10.2382974509
 20
9.8404978869
 30
0.0
 10
10.2382433309
 20
9.8405384998
 30
0.0
 10
10.2381428291
 20
9.8406123805
 30
0.0
 10
10.2379867664
 20
9.8407216629
 30
0.0
 10
10.2377819218
 20
9.8408605752
 30
0.0
 10
10.2375299681
 20
9.8410257233
 30
0.0
 10
10.2372315058
 20
9.8412151151
 30
0.0
 10
10.2368875513
 20
9.8414262464
 30
0.0
 10
10.2363432598
 20
9.8417491716
 30
0.0
 10
10.2355562834
 20
9.8421908875
 30
0.0
 10
10.234484276
 20
9.8427480859
 30
0.0
 10
10.2332519721
 20
9.8433358446
 30
0.0
 10
10.2318670256
 20
9.8439351709
 30
0.0
 10
10.2303409329
 20
9.8445351681
 30
0.0
 10
10.2286850366
 20
9.8451249764
 30
0.0
 10
10.226263089
 20
9.8459010755
 30
0.0
 10
10.2229931923
 20
9.8467751333
 30
0.0
 10
10.2188171208
 20
9.847585622
 30
0.0
 10
10.2144024739
 20
9.848136081
 30
0.0
 10
10.2098496846
 20
9.8484110122
 30
0.0
 10
10.2052563315
 20
9.8483902658
 30
0.0
 10
10.2007237301
 20
9.8480495315
 30
0.0
 10
10.1963520655
 20
9.8474270835
 30
0.0
 10
10.1922372924
 20
9.846572152
 30
0.0
 10
10.188476099
 20
9.8455314627
 30
0.0
 10
10.1861278209
 20
9.8446968635
 30
0.0
 10
10.1850302902
 20
9.8442635126
 30
0.0
  0
SPLINE
  5
2C9
100
AcDbEntity
  8
0
100
AcDbSpline
 62
7
  6
CONTINUOUS
 70
0
 71
3
 72
22
 73
18
 74
0
 42
0.0000001
 43
0.0000001
 44
0.0000000001
 40
0.0
 40
0.0
 40
0.0
 40
0.0
 40
0.0593474746
 40
0.1247109772
 40
0.1947612989
 40
0.2682847986
 40
0.3441402801
 40
0.4211868203
 40
0.498303993
 40
0.5744079732
 40
0.6483804025
 40
0.7190379106
 40
0.7851609397
 40
0.8455056471
 40
0.8987030308
 40
0.9432450554
 40
1.0
 40
1.0
 40
1.0
 40
1.0
 10
10.1852254582
 20
10.0754423946
 30
0.0
 10
10.186231681
 20
10.0750540727
 30
0.0
 10
10.1883722026
 20
10.0743045177
 30
0.0
 10
10.1917766231
 20
10.0733289445
 30
0.0
 10
10.1954865523
 20
10.0725076412
 30
0.0
 10
10.1994298327
 20
10.071896508
 30
0.0
 10
10.2035285799
 20
10.0715065634
 30
0.0
 10
10.2077084938
 20
10.0713542811
 30
0.0
 10
10.2118948745
 20
10.0714551571
 30
0.0
 10
10.2160102707
 20
10.0718210597
 30
0.0
 10
10.2199800218
 20
10.0724140361
 30
0.0
 10
10.2237309387
 20
10.0731993116
 30
0.0
 10
10.2271902271
 20
10.0741399769
 30
0.0
 10
10.2302802558
 20
10.0752013644
 30
0.0
 10
10.2329384763
 20
10.0762965771
 30
0.0
 10
10.2354696166
 20
10.0775117057
 30
0.0
 10
10.2370724918
 20
10.078430488
 30
0.0
 10
10.237917371
 20
10.0790221332
 30
0.0
  0
LINE
  5
2CA
100
AcDbEntity
  8
0
100
AcDbLine
 62
7
  6
CONTINUOUS
 10
10.9994103778
 20
10.4335120715
 11
11.0065909792
 21
10.432156258
  0
LINE
  5
2CB
100
AcDbEntity
  8
0
100
AcDbLine
 62
7
  6
CONTINUOUS
 10
11.0065909792
 20
10.432156258
 11
11.0124258621
 21
10.4310535889
  0
LINE
  5
2CC
100
AcDbEntity
  8
0
100
AcDbLine
 62
7
  6
CONTINUOUS
 10
11.0124258621
 20
10.4310535889
 11
11.017483485
 21
10.4300972085
  0
SPLINE
  5
2CD
100
AcDbEntity
  8
0
100
AcDbSpline
 62
7
  6
CONTINUOUS
 70
0
 71
3
 72
11
 73
7
 74
0
 42
0.0000001
 43
0.0000001
 44
0.0000000001
 40
0.0
 40
0.0
 40
0.0
 40
0.0
 40
0.2422016426
 40
0.4905411461
 40
0.7436259654
 40
1.0
 40
1.0
 40
1.0
 40
1.0
 10
10.7099685855
 20
10.458120555
 30
0.0
 10
10.7333079625
 20
10.4587047805
 30
0.0
 10
10.7806218543
 20
10.4585094816
 30
0.0
 10
10.8522121594
 20
10.4543192589
 30
0.0
 10
10.9248447833
 20
10.4462655875
 30
0.0
 10
10.9733436049
 20
10.4384005204
 30
0.0
 10
10.9976331739
 20
10.4338463896
 30
0.0
  0
LINE
  5
2CE
100
AcDbEntity
  8
0
100
AcDbLine
 62
7
  6
CONTINUOUS
 10
10.9976331739
 20
10.4338463896
 11
10.9994103778
 21
10.4335120715
  0
SPLINE
  5
2CF
100
AcDbEntity
  8
0
100
AcDbSpline
 62
7
  6
CONTINUOUS
 70
0
 71
3
 72
15
 73
11
 74
0
 42
0.0000001
 43
0.0000001
 44
0.0000000001
 40
0.0
 40
0.0
 40
0.0
 40
0.0
 40
0.1194589323
 40
0.2393238818
 40
0.3603590683
 40
0.4831273597
 40
0.6080628532
 40
0.7356633943
 40
0.8662458324
 40
1.0
 40
1.0
 40
1.0
 40
1.0
 10
10.3500619117
 20
10.155891804
 30
0.0
 10
10.3443773745
 20
10.155891804
 30
0.0
 10
10.3329710709
 20
10.1550287006
 30
0.0
 10
10.3161948205
 20
10.1512021907
 30
0.0
 10
10.3000032674
 20
10.1449294237
 30
0.0
 10
10.2846190125
 20
10.1363819369
 30
0.0
 10
10.2702366541
 20
10.1257141249
 30
0.0
 10
10.2569913937
 20
10.1131253152
 30
0.0
 10
10.2449964196
 20
10.0987967212
 30
0.0
 10
10.2379717552
 20
10.0883312939
 30
0.0
 10
10.2346879651
 20
10.0828790261
 30
0.0
  0
SPLINE
  5
2D0
100
AcDbEntity
  8
0
100
AcDbSpline
 62
7
  6
CONTINUOUS
 70
0
 71
3
 72
15
 73
11
 74
0
 42
0.0000001
 43
0.0000001
 44
0.0000000001
 40
0.0
 40
0.0
 40
0.0
 40
0.0
 40
0.1337281524
 40
0.2642909066
 40
0.3918798841
 40
0.5168126581
 40
0.6395857292
 40
0.7606335584
 40
0.8805211035
 40
1.0
 40
1.0
 40
1.0
 40
1.0
 10
10.2348450348
 20
9.836644263
 30
0.0
 10
10.2381296952
 20
9.8312097676
 30
0.0
 10
10.2451539906
 20
9.8207790641
 30
0.0
 10
10.2571418039
 20
9.8064999673
 30
0.0
 10
10.2703737176
 20
9.7939560224
 30
0.0
 10
10.2847369837
 20
9.7833273882
 30
0.0
 10
10.3000967892
 20
9.7748118659
 30
0.0
 10
10.3162598881
 20
9.7685630885
 30
0.0
 10
10.3330045287
 20
9.764751742
 30
0.0
 10
10.3443885126
 20
9.763891804
 30
0.0
 10
10.3500619117
 20
9.763891804
 30
0.0
  0
LINE
  5
2D1
100
AcDbEntity
  8
0
100
AcDbLine
 62
7
  6
CONTINUOUS
 10
10.6021288211
 20
10.4568192178
 11
10.6034647515
 21
10.4569126871
  0
LINE
  5
2D2
100
AcDbEntity
  8
0
100
AcDbLine
 62
7
  6
CONTINUOUS
 10
10.6034647515
 20
10.4569126871
 11
10.6052746813
 21
10.4570374727
  0
LINE
  5
2D3
100
AcDbEntity
  8
0
100
AcDbLine
 62
7
  6
CONTINUOUS
 10
10.6242463515
 20
10.458217532
 11
10.6279335425
 21
10.4584197527
  0
LINE
  5
2D4
100
AcDbEntity
  8
0
100
AcDbLine
 62
7
  6
CONTINUOUS
 10
10.6174831961
 20
10.4522322342
 11
10.6245515382
 21
10.4527938527
  0
SPLINE
  5
2D5
100
AcDbEntity
  8
0
100
AcDbSpline
 62
9
  6
CONTINUOUS
 70
0
 71
3
 72
13
 73
9
 74
0
 42
0.0000001
 43
0.0000001
 44
0.0000000001
 40
0.0
 40
0.0
 40
0.0
 40
0.0
 40
0.1312129435
 40
0.261965392
 40
0.5187445881
 40
0.6438278927
 40
0.7660283771
 40
1.0
 40
1.0
 40
1.0
 40
1.0
 10
10.1620535668
 20
9.959891804
 30
0.0
 10
10.1620535668
 20
9.9654403995
 30
0.0
 10
10.1616622384
 20
9.9765229055
 30
0.0
 10
10.1593540902
 20
9.9983491404
 30
0.0
 10
10.1547766913
 20
10.0196327475
 30
0.0
 10
10.1479390008
 20
10.039842354
 30
0.0
 10
10.1399107478
 20
10.058556461
 30
0.0
 10
10.1322707758
 20
10.0716554329
 30
0.0
 10
10.126484662
 20
10.0796810836
 30
0.0
  0
SPLINE
  5
2D6
100
AcDbEntity
  8
0
100
AcDbSpline
 62
9
  6
CONTINUOUS
 70
0
 71
3
 72
10
 73
6
 74
0
 42
0.0000001
 43
0.0000001
 44
0.0000000001
 40
0.0
 40
0.0
 40
0.0
 40
0.0
 40
0.2559334653
 40
0.5096544517
 40
1.0
 40
1.0
 40
1.0
 40
1.0
 10
10.1446518525
 20
9.959891804
 30
0.0
 10
10.1446518525
 20
9.9495748715
 30
0.0
 10
10.1436503733
 20
9.9290111383
 30
0.0
 10
10.137772692
 20
9.8890979358
 30
0.0
 10
10.1289632743
 20
9.8601161724
 30
0.0
 10
10.1210894127
 20
9.8419858228
 30
0.0
  0
SPLINE
  5
2D7
100
AcDbEntity
  8
0
100
AcDbSpline
 62
9
  6
CONTINUOUS
 70
0
 71
3
 72
9
 73
5
 74
0
 42
0.0000001
 43
0.0000001
 44
0.0000000001
 40
0.0
 40
0.0
 40
0.0
 40
0.0
 40
0.2569919022
 40
1.0
 40
1.0
 40
1.0
 40
1.0
 10
10.1210894127
 20
9.8419858228
 30
0.0
 10
10.1194063906
 20
9.838110497
 30
0.0
 10
10.1124866725
 20
9.8231968262
 30
0.0
 10
10.1040415631
 20
9.8089741981
 30
0.0
 10
10.0968984055
 20
9.7990652469
 30
0.0
  0
SPLINE
  5
2D8
100
AcDbEntity
  8
0
100
AcDbSpline
 62
7
  6
CONTINUOUS
 70
0
 71
3
 72
9
 73
5
 74
0
 42
0.0000001
 43
0.0000001
 44
0.0000000001
 40
0.0
 40
0.0
 40
0.0
 40
0.0
 40
0.4955134705
 40
1.0
 40
1.0
 40
1.0
 40
1.0
 10
11.0754301646
 20
10.1619964162
 30
0.0
 10
11.0793512803
 20
10.161055763
 30
0.0
 10
11.087162662
 20
10.1587070673
 30
0.0
 10
11.0946686312
 20
10.1555188014
 30
0.0
 10
11.0983595496
 20
10.1537212137
 30
0.0
  0
SPLINE
  5
2D9
100
AcDbEntity
  8
0
100
AcDbSpline
 62
7
  6
CONTINUOUS
 70
0
 71
3
 72
9
 73
5
 74
0
 42
0.0000001
 43
0.0000001
 44
0.0000000001
 40
0.0
 40
0.0
 40
0.0
 40
0.0
 40
0.5045145611
 40
1.0
 40
1.0
 40
1.0
 40
1.0
 10
11.0983286666
 20
9.7660474008
 30
0.0
 10
11.0946036905
 20
9.7642345382
 30
0.0
 10
11.0870271667
 20
9.7610231189
 30
0.0
 10
11.0791405067
 20
9.7586676827
 30
0.0
 10
11.0751819506
 20
9.7577280196
 30
0.0
  0
SPLINE
  5
2DA
100
AcDbEntity
  8
0
100
AcDbSpline
 62
9
  6
CONTINUOUS
 70
0
 71
3
 72
15
 73
11
 74
0
 42
0.0000001
 43
0.0000001
 44
0.0000000001
 40
0.0
 40
0.0
 40
0.0
 40
0.0
 40
0.1171883458
 40
0.2354516052
 40
0.3554003745
 40
0.4776517423
 40
0.6028116268
 40
0.7313849162
 40
0.8637166906
 40
1.0
 40
1.0
 40
1.0
 40
1.0
 10
11.0869987545
 20
9.7732247336
 30
0.0
 10
11.0906716599
 20
9.7732807785
 30
0.0
 10
11.0980515443
 20
9.7738340887
 30
0.0
 10
11.1090109413
 20
9.7759606749
 30
0.0
 10
11.1198076566
 20
9.7793740423
 30
0.0
 10
11.1303540149
 20
9.784053006
 30
0.0
 10
11.1405799216
 20
9.7899539979
 30
0.0
 10
11.1504142809
 20
9.7970395309
 30
0.0
 10
11.1597915636
 20
9.8052548938
 30
0.0
 10
11.1656119996
 20
9.8113563641
 30
0.0
 10
11.1684287826
 20
9.8145680069
 30
0.0
  0
SPLINE
  5
2DB
100
AcDbEntity
  8
0
100
AcDbSpline
 62
9
  6
CONTINUOUS
 70
0
 71
3
 72
9
 73
5
 74
0
 42
0.0000001
 43
0.0000001
 44
0.0000000001
 40
0.0
 40
0.0
 40
0.0
 40
0.0
 40
0.244460588
 40
1.0
 40
1.0
 40
1.0
 40
1.0
 10
11.1684287826
 20
9.8145680069
 30
0.0
 10
11.1699702736
 20
9.8163255858
 30
0.0
 10
11.1761106631
 20
9.8236592853
 30
0.0
 10
11.1815943701
 20
9.8315365519
 30
0.0
 10
11.1853674765
 20
9.837698392
 30
0.0
  0
SPLINE
  5
2DC
100
AcDbEntity
  8
0
100
AcDbSpline
 62
9
  6
CONTINUOUS
 70
0
 71
3
 72
9
 73
5
 74
0
 42
0.0000001
 43
0.0000001
 44
0.0000000001
 40
0.0
 40
0.0
 40
0.0
 40
0.0
 40
0.2563672516
 40
1.0
 40
1.0
 40
1.0
 40
1.0
 10
11.1863868977
 20
10.0804004998
 30
0.0
 10
11.1849855642
 20
10.0827447887
 30
0.0
 10
11.1793189952
 20
10.0917666203
 30
0.0
 10
11.1728363024
 20
10.1002845192
 30
0.0
 10
11.1675618333
 20
10.1061956998
 30
0.0
  0
SPLINE
  5
2DD
100
AcDbEntity
  8
0
100
AcDbSpline
 62
9
  6
CONTINUOUS
 70
0
 71
3
 72
15
 73
11
 74
0
 42
0.0000001
 43
0.0000001
 44
0.0000000001
 40
0.0
 40
0.0
 40
0.0
 40
0.0
 40
0.1361895047
 40
0.2684204205
 40
0.3969016393
 40
0.5219945633
 40
0.6442228357
 40
0.7642117503
 40
0.8825961899
 40
1.0
 40
1.0
 40
1.0
 40
1.0
 10
11.1675618333
 20
10.1061956998
 30
0.0
 10
11.1647161913
 20
10.1093848556
 30
0.0
 10
11.1588382771
 20
10.1154371641
 30
0.0
 10
11.149375657
 20
10.1235641642
 30
0.0
 10
11.1394598854
 20
10.1305475336
 30
0.0
 10
11.1291574641
 20
10.1363325283
 30
0.0
 10
11.1185406351
 20
10.1408822397
 30
0.0
 10
11.1076806705
 20
10.1441536585
 30
0.0
 10
11.0966663318
 20
10.1461264671
 30
0.0
 10
11.0892591628
 20
10.14656974
 30
0.0
 10
11.0855745766
 20
10.14656974
 30
0.0
  0
SPLINE
  5
2DE
100
AcDbEntity
  8
0
100
AcDbSpline
 62
9
  6
CONTINUOUS
 70
0
 71
3
 72
17
 73
13
 74
0
 42
0.0000001
 43
0.0000001
 44
0.0000000001
 40
0.0
 40
0.0
 40
0.0
 40
0.0
 40
0.1180367262
 40
0.2417875669
 40
0.369673195
 40
0.4345990945
 40
0.4998034476
 40
0.5650146437
 40
0.6299611199
 40
0.7579269067
 40
0.8818036552
 40
1.0
 40
1.0
 40
1.0
 40
1.0
 10
10.9670957757
 20
9.828452768
 30
0.0
 10
10.961266324
 20
9.8375707727
 30
0.0
 10
10.950912752
 20
9.8572979609
 30
0.0
 10
10.9397593443
 20
9.8894144953
 30
0.0
 10
10.9340642736
 20
9.917972387
 30
0.0
 10
10.9317292102
 20
9.9415261407
 30
0.0
 10
10.9311183882
 20
9.9594387589
 30
0.0
 10
10.9316706691
 20
9.9773551613
 30
0.0
 10
10.9339292368
 20
10.0009262825
 30
0.0
 10
10.9395319763
 20
10.0295234352
 30
0.0
 10
10.9505806912
 20
10.0617112563
 30
0.0
 10
10.9608680498
 20
10.0815020359
 30
0.0
 10
10.9666668829
 20
10.0906568721
 30
0.0
  0
SPLINE
  5
2DF
100
AcDbEntity
  8
0
100
AcDbSpline
 62
9
  6
CONTINUOUS
 70
0
 71
3
 72
35
 73
31
 74
0
 42
0.0000001
 43
0.0000001
 44
0.0000000001
 40
0.0
 40
0.0
 40
0.0
 40
0.0
 40
0.025714409
 40
0.0517327344
 40
0.0782382814
 40
0.1054185476
 40
0.1334385386
 40
0.1624143434
 40
0.1924068493
 40
0.2234394722
 40
0.2884536948
 40
0.3569880854
 40
0.3923108783
 40
0.4281266313
 40
0.4642758295
 40
0.5005881571
 40
0.5368908942
 40
0.5730115988
 40
0.608780608
 40
0.6440395913
 40
0.712401804
 40
0.7772015753
 40
0.8081197563
 40
0.8379982401
 40
0.8668650737
 40
0.8947860761
 40
0.9218822813
 40
0.9483233259
 40
0.9743006093
 40
1.0
 40
1.0
 40
1.0
 40
1.0
 10
11.0841503987
 20
10.1465588745
 30
0.0
 10
11.0798434685
 20
10.146493155
 30
0.0
 10
11.0711766901
 20
10.1457533819
 30
0.0
 10
11.0583546294
 20
10.1428636524
 30
0.0
 10
11.0458002314
 20
10.1382079052
 30
0.0
 10
11.0336448727
 20
10.1318422214
 30
0.0
 10
11.022001257
 20
10.1238330064
 30
0.0
 10
11.0109774397
 20
10.1142605709
 30
0.0
 10
11.0006715325
 20
10.1032209151
 30
0.0
 10
10.9878302799
 20
10.0864261292
 30
0.0
 10
10.9742037465
 20
10.0622881949
 30
0.0
 10
10.9644057143
 20
10.0356285361
 30
0.0
 10
10.9587885161
 20
10.0128993427
 30
0.0
 10
10.9557378067
 20
9.9951720282
 30
0.0
 10
10.9539266453
 20
9.977110601
 30
0.0
 10
10.9533643877
 20
9.9588855496
 30
0.0
 10
10.9540653224
 20
9.9406700689
 30
0.0
 10
10.956013851
 20
9.9226372051
 30
0.0
 10
10.9591993389
 20
9.9049572076
 30
0.0
 10
10.9649879472
 20
9.8823198844
 30
0.0
 10
10.9749855245
 20
9.8558142089
 30
0.0
 10
10.9887983457
 20
9.8318774136
 30
0.0
 10
11.0017693382
 20
9.8152762414
 30
0.0
 10
11.0121596559
 20
9.8043935924
 30
0.0
 10
11.0232569435
 20
9.794989129
 30
0.0
 10
11.0349623266
 20
9.7871574662
 30
0.0
 10
11.0471670162
 20
9.7809773991
 30
0.0
 10
11.059757588
 20
9.7765137043
 30
0.0
 10
11.0726019231
 20
9.7738204407
 30
0.0
 10
11.0812696608
 20
9.7732138681
 30
0.0
 10
11.0855745766
 20
9.7732138681
 30
0.0
  0
SPLINE
  5
2E0
100
AcDbEntity
  8
0
100
AcDbSpline
 62
7
  6
CONTINUOUS
 70
0
 71
3
 72
32
 73
28
 74
0
 42
0.0000001
 43
0.0000001
 44
0.0000000001
 40
0.0
 40
0.0
 40
0.0
 40
0.0
 40
0.0256830575
 40
0.0517845871
 40
0.0784727308
 40
0.1059018479
 40
0.1341904136
 40
0.1634069362
 40
0.1935873444
 40
0.2247328159
 40
0.2897242198
 40
0.3578906659
 40
0.4283502241
 40
0.4641228418
 40
0.5000467898
 40
0.5359705286
 40
0.5717424051
 40
0.6421992564
 40
0.7103620491
 40
0.77534977
 40
0.8064937763
 40
0.8366726663
 40
0.894100683
 40
0.9215286273
 40
0.9482161049
 40
0.9743172895
 40
1.0
 40
1.0
 40
1.0
 40
1.0
 10
11.3459839376
 20
9.7716679657
 30
0.0
 10
11.3418707496
 20
9.7722266645
 30
0.0
 10
11.3336410569
 20
9.7738923798
 30
0.0
 10
11.3215979187
 20
9.7779678259
 30
0.0
 10
11.3098837957
 20
9.7835956354
 30
0.0
 10
11.298597406
 20
9.7907190855
 30
0.0
 10
11.2878338272
 20
9.7992794436
 30
0.0
 10
11.2776761129
 20
9.8091945825
 30
0.0
 10
11.2682151795
 20
9.8203866973
 30
0.0
 10
11.2564657673
 20
9.8371101989
 30
0.0
 10
11.2440310247
 20
9.8607157196
 30
0.0
 10
11.23318569
 20
9.8918987732
 30
0.0
 10
11.2276677862
 20
9.919635745
 30
0.0
 10
11.2254243185
 20
9.9425144962
 30
0.0
 10
11.2248571837
 20
9.9599119967
 30
0.0
 10
11.2254270006
 20
9.9773092825
 30
0.0
 10
11.2276737386
 20
10.0001871334
 30
0.0
 10
11.2331957005
 20
10.0279220236
 30
0.0
 10
11.2440460248
 20
10.0591021525
 30
0.0
 10
11.2564834832
 20
10.0827029775
 30
0.0
 10
11.2682374535
 20
10.0994255467
 30
0.0
 10
11.2806414486
 20
10.1140937736
 30
0.0
 10
11.2946357779
 20
10.1265681406
 30
0.0
 10
11.3099111452
 20
10.1362029491
 30
0.0
 10
11.3216273867
 20
10.1418279081
 30
0.0
 10
11.3336713944
 20
10.1458993183
 30
0.0
 10
11.3419015522
 20
10.1475624368
 30
0.0
 10
11.3460148637
 20
10.148119808
 30
0.0
  0
SPLINE
  5
2E1
100
AcDbEntity
  8
0
100
AcDbSpline
 62
9
  6
CONTINUOUS
 70
0
 71
3
 72
9
 73
5
 74
0
 42
0.0000001
 43
0.0000001
 44
0.0000000001
 40
0.0
 40
0.0
 40
0.0
 40
0.0
 40
0.4957401705
 40
1.0
 40
1.0
 40
1.0
 40
1.0
 10
11.3376316335
 20
10.1383000649
 30
0.0
 10
11.3342886238
 20
10.1375093129
 30
0.0
 10
11.327627855
 20
10.1355436609
 30
0.0
 10
11.3212140802
 20
10.1328839018
 30
0.0
 10
11.318057342
 20
10.131385533
 30
0.0
  0
SPLINE
  5
2E2
100
AcDbEntity
  8
0
100
AcDbSpline
 62
9
  6
CONTINUOUS
 70
0
 71
3
 72
28
 73
24
 74
0
 42
0.0000001
 43
0.0000001
 44
0.0000000001
 40
0.0
 40
0.0
 40
0.0
 40
0.0
 40
0.0261614184
 40
0.0529659264
 40
0.0804878049
 40
0.1087712771
 40
0.1676650862
 40
0.2296746694
 40
0.2945047054
 40
0.3616351947
 40
0.4303849984
 40
0.4999715237
 40
0.5695583478
 40
0.6383089029
 40
0.7054409241
 40
0.7381970341
 40
0.7703067625
 40
0.8323205232
 40
0.8912193909
 40
0.9195054668
 40
0.9470297608
 40
0.9738364286
 40
1.0
 40
1.0
 40
1.0
 40
1.0
 10
11.318057342
 20
10.131385533
 30
0.0
 10
11.3148733263
 20
10.1298742166
 30
0.0
 10
11.3085778139
 20
10.1264863636
 30
0.0
 10
11.299552041
 20
10.1204501344
 30
0.0
 10
11.2908895014
 20
10.1134389467
 30
0.0
 10
11.2797432778
 20
10.1027137466
 30
0.0
 10
11.2670371751
 20
10.0870262495
 30
0.0
 10
11.2542385733
 20
10.0654359728
 30
0.0
 10
11.2439624368
 20
10.0413323283
 30
0.0
 10
11.2364496551
 20
10.0152917582
 30
0.0
 10
11.2318690679
 20
9.9879332124
 30
0.0
 10
11.230328008
 20
9.9599074648
 30
0.0
 10
11.2318656646
 20
9.9318807445
 30
0.0
 10
11.2364427204
 20
9.9045232952
 30
0.0
 10
11.2427530922
 20
9.8826370527
 30
0.0
 10
11.2492430878
 20
9.8660693925
 30
0.0
 10
11.2564775973
 20
9.850571766
 30
0.0
 10
11.2670225411
 20
9.8327788187
 30
0.0
 10
11.2797262092
 20
9.8170889748
 30
0.0
 10
11.2908715361
 20
9.8063606686
 30
0.0
 10
11.2995333995
 20
9.7993471506
 30
0.0
 10
11.3085588249
 20
9.7933087552
 30
0.0
 10
11.3148541492
 20
9.7899193392
 30
0.0
 10
11.3180381146
 20
9.7884072404
 30
0.0
  0
SPLINE
  5
2E3
100
AcDbEntity
  8
0
100
AcDbSpline
 62
9
  6
CONTINUOUS
 70
0
 71
3
 72
9
 73
5
 74
0
 42
0.0000001
 43
0.0000001
 44
0.0000000001
 40
0.0
 40
0.0
 40
0.0
 40
0.0
 40
0.5042603327
 40
1.0
 40
1.0
 40
1.0
 40
1.0
 10
11.3180381146
 20
9.7884072404
 30
0.0
 10
11.3211913423
 20
9.7869097393
 30
0.0
 10
11.3275978765
 20
9.7842509991
 30
0.0
 10
11.3342511014
 20
9.7822848172
 30
0.0
 10
11.3375903586
 20
9.7814933661
 30
0.0
  0
SPLINE
  5
2E4
100
AcDbEntity
  8
0
100
AcDbSpline
 62
9
  6
CONTINUOUS
 70
0
 71
3
 72
14
 73
10
 74
0
 42
0.0000001
 43
0.0000001
 44
0.0000000001
 40
0.0
 40
0.0
 40
0.0
 40
0.0
 40
0.2339280142
 40
0.3561114484
 40
0.4811805221
 40
0.6086647213
 40
0.7380661543
 40
0.8687886704
 40
1.0
 40
1.0
 40
1.0
 40
1.0
 10
10.0968984055
 20
10.1207183612
 30
0.0
 10
10.1046660927
 20
10.1099430658
 30
0.0
 10
10.1149254341
 20
10.0923571671
 30
0.0
 10
10.1257009967
 20
10.0672317599
 30
0.0
 10
10.1325297227
 20
10.0470528641
 30
0.0
 10
10.1379070438
 20
10.0260215549
 30
0.0
 10
10.1417883851
 20
10.0043367617
 30
0.0
 10
10.1441270712
 20
9.9822210963
 30
0.0
 10
10.1446518525
 20
9.9673424254
 30
0.0
 10
10.1446518525
 20
9.959891804
 30
0.0
  0
SPLINE
  5
2E5
100
AcDbEntity
  8
0
100
AcDbSpline
 62
9
  6
CONTINUOUS
 70
0
 71
3
 72
13
 73
9
 74
0
 42
0.0000001
 43
0.0000001
 44
0.0000000001
 40
0.0
 40
0.0
 40
0.0
 40
0.0
 40
0.2339716229
 40
0.3561721073
 40
0.4812554119
 40
0.738034608
 40
0.8687870565
 40
1.0
 40
1.0
 40
1.0
 40
1.0
 10
10.126484662
 20
9.8401025245
 30
0.0
 10
10.1322707758
 20
9.8481281752
 30
0.0
 10
10.1399107478
 20
9.8612271471
 30
0.0
 10
10.1479390008
 20
9.879941254
 30
0.0
 10
10.1547766913
 20
9.9001508606
 30
0.0
 10
10.1593540902
 20
9.9214344677
 30
0.0
 10
10.1616622384
 20
9.9432607026
 30
0.0
 10
10.1620535668
 20
9.9543432086
 30
0.0
 10
10.1620535668
 20
9.959891804
 30
0.0
  0
SPLINE
  5
2E6
100
AcDbEntity
  8
0
100
AcDbSpline
 62
9
  6
CONTINUOUS
 70
0
 71
3
 72
29
 73
25
 74
0
 42
0.0000001
 43
0.0000001
 44
0.0000000001
 40
0.0
 40
0.0
 40
0.0
 40
0.0
 40
0.0650824254
 40
0.1268318004
 40
0.1854005505
 40
0.2412761436
 40
0.2684853031
 40
0.2953553269
 40
0.3220292329
 40
0.3486572233
 40
0.3753928788
 40
0.4023835204
 40
0.4297683737
 40
0.4576715698
 40
0.4861969907
 40
0.5154315192
 40
0.5762047081
 40
0.6402993638
 40
0.7076470448
 40
0.7424618518
 40
0.7779400078
 40
0.8505569237
 40
0.9248802514
 40
1.0
 40
1.0
 40
1.0
 40
1.0
 10
10.2345984365
 20
9.8376996815
 30
0.0
 10
10.2388588385
 20
9.8307417141
 30
0.0
 10
10.2480761405
 20
9.8177090071
 30
0.0
 10
10.2642608033
 20
9.8008962613
 30
0.0
 10
10.2821085366
 20
9.7876938896
 30
0.0
 10
10.2982106013
 20
9.7799158256
 30
0.0
 10
10.311413379
 20
9.7758820824
 30
0.0
 10
10.3213692936
 20
9.7739456435
 30
0.0
 10
10.3314015305
 20
9.7730816631
 30
0.0
 10
10.3414520976
 20
9.7733013457
 30
0.0
 10
10.3514601877
 20
9.7746013709
 30
0.0
 10
10.361367695
 20
9.7769694498
 30
0.0
 10
10.3711149584
 20
9.780396851
 30
0.0
 10
10.3806453589
 20
9.7848591854
 30
0.0
 10
10.3899064634
 20
9.7903270282
 30
0.0
 10
10.4019716807
 20
9.7990302294
 30
0.0
 10
10.4160934735
 20
9.8123545271
 30
0.0
 10
10.4308924295
 20
9.8314749231
 30
0.0
 10
10.4412618
 20
9.8496314273
 30
0.0
 10
10.4483648981
 20
9.8653656868
 30
0.0
 10
10.4547262617
 20
9.8821240042
 30
0.0
 10
10.4609108918
 20
9.9041980262
 30
0.0
 10
10.4653890366
 20
9.9317247601
 30
0.0
 10
10.466393636
 20
9.9504748339
 30
0.0
 10
10.466393636
 20
9.959891804
 30
0.0
  0
SPLINE
  5
2E7
100
AcDbEntity
  8
0
100
AcDbSpline
 62
9
  6
CONTINUOUS
 70
0
 71
3
 72
12
 73
8
 74
0
 42
0.0000001
 43
0.0000001
 44
0.0000000001
 40
0.0
 40
0.0
 40
0.0
 40
0.0
 40
0.2364546552
 40
0.484027206
 40
0.7398184328
 40
0.8697094412
 40
1.0
 40
1.0
 40
1.0
 40
1.0
 10
10.4534772155
 20
10.0903770183
 30
0.0
 10
10.459142188
 20
10.0813989843
 30
0.0
 10
10.4692139075
 20
10.0620262182
 30
0.0
 10
10.4801270443
 20
10.0305513776
 30
0.0
 10
10.4857621403
 20
10.0025918381
 30
0.0
 10
10.4881404451
 20
9.9795377125
 30
0.0
 10
10.4886021464
 20
9.9678558364
 30
0.0
 10
10.4886467741
 20
9.9620064727
 30
0.0
  0
SPLINE
  5
2E8
100
AcDbEntity
  8
0
100
AcDbSpline
 62
7
  6
CONTINUOUS
 70
0
 71
3
 72
19
 73
15
 74
0
 42
0.0000001
 43
0.0000001
 44
0.0000000001
 40
0.0
 40
0.0
 40
0.0
 40
0.0
 40
0.1273265861
 40
0.1882426411
 40
0.2476598199
 40
0.3060320661
 40
0.363841098
 40
0.4215530491
 40
0.4796489593
 40
0.5385783225
 40
0.5987191156
 40
0.7238286851
 40
0.8571752417
 40
1.0
 40
1.0
 40
1.0
 40
1.0
 10
11.1041954391
 20
9.754891804
 30
0.0
 10
11.1097439746
 20
9.7548917999
 30
0.0
 10
11.1179783335
 20
9.7555675926
 30
0.0
 10
11.128508753
 20
9.7579909628
 30
0.0
 10
11.1358983379
 20
9.7604930486
 30
0.0
 10
11.1428688171
 20
9.7636822483
 30
0.0
 10
11.1494102987
 20
9.7675339592
 30
0.0
 10
11.1555136474
 20
9.7720266877
 30
0.0
 10
11.1611785538
 20
9.777132506
 30
0.0
 10
11.1664127177
 20
9.7828222894
 30
0.0
 10
11.1729134375
 20
9.7912608703
 30
0.0
 10
11.1800084303
 20
9.803259894
 30
0.0
 10
11.1868751411
 20
9.819381262
 30
0.0
 10
11.1904194575
 20
9.8309034423
 30
0.0
 10
11.1920127282
 20
9.836919957
 30
0.0
  0
SPLINE
  5
2E9
100
AcDbEntity
  8
0
100
AcDbSpline
 62
7
  6
CONTINUOUS
 70
0
 71
3
 72
18
 73
14
 74
0
 42
0.0000001
 43
0.0000001
 44
0.0000000001
 40
0.0
 40
0.0
 40
0.0
 40
0.0
 40
0.143394888
 40
0.277156484
 40
0.4024905681
 40
0.5214568102
 40
0.579481941
 40
0.6370920738
 40
0.6947611831
 40
0.7529713326
 40
0.8122306701
 40
0.8729903759
 40
1.0
 40
1.0
 40
1.0
 40
1.0
 10
11.1924866349
 20
10.0810450317
 30
0.0
 10
11.1909127309
 20
10.0871842444
 30
0.0
 10
11.1874042654
 20
10.0989410665
 30
0.0
 10
11.1805698487
 20
10.1154077303
 30
0.0
 10
11.1721806522
 20
10.1299239788
 30
0.0
 10
11.1636712631
 20
10.1403255842
 30
0.0
 10
11.1560195145
 20
10.1473449231
 30
0.0
 10
11.1498759514
 20
10.1519422364
 30
0.0
 10
11.1432843493
 20
10.1558866353
 30
0.0
 10
11.1362516176
 20
10.1591540215
 30
0.0
 10
11.12878682
 20
10.1617158425
 30
0.0
 10
11.118140466
 20
10.1641982485
 30
0.0
 10
11.1098090779
 20
10.164891804
 30
0.0
 10
11.1041955196
 20
10.164891804
 30
0.0
  0
SPLINE
  5
2EA
100
AcDbEntity
  8
0
100
AcDbSpline
 62
7
  6
CONTINUOUS
 70
0
 71
3
 72
22
 73
18
 74
0
 42
0.0000001
 43
0.0000001
 44
0.0000000001
 40
0.0
 40
0.0
 40
0.0
 40
0.0
 40
0.0635382678
 40
0.1267749359
 40
0.1896911369
 40
0.252280898
 40
0.3145565643
 40
0.3765562313
 40
0.4383478437
 40
0.5000269504
 40
0.5617060543
 40
0.6234976547
 40
0.6854973085
 40
0.7477729588
 40
0.873225298
 40
0.9364619407
 40
1.0
 40
1.0
 40
1.0
 40
1.0
 10
10.7099823605
 20
8.2458353475
 30
0.0
 10
10.6972265281
 20
8.2531787163
 30
0.0
 10
10.671493349
 20
8.2673488398
 30
0.0
 10
10.632098072
 20
8.2868492224
 30
0.0
 10
10.5919596525
 20
8.3042395538
 30
0.0
 10
10.5510780882
 20
8.3191841051
 30
0.0
 10
10.5094917804
 20
8.3313266852
 30
0.0
 10
10.4672932412
 20
8.3403171693
 30
0.0
 10
10.4246367829
 20
8.3458521257
 30
0.0
 10
10.3817338791
 20
8.3477221736
 30
0.0
 10
10.3388308869
 20
8.3458521752
 30
0.0
 10
10.2961746929
 20
8.3403173536
 30
0.0
 10
10.2539751696
 20
8.3313266613
 30
0.0
 10
10.1984038744
 20
8.3151006632
 30
0.0
 10
10.1443479654
 20
8.2932742463
 30
0.0
 10
10.0919764264
 20
8.2673497494
 30
0.0
 10
10.066240583
 20
8.2531803646
 30
0.0
 10
10.0534847908
 20
8.2458370228
 30
0.0
  0
SPLINE
  5
2EB
100
AcDbEntity
  8
0
100
AcDbSpline
 62
7
  6
CONTINUOUS
 70
0
 71
3
 72
22
 73
18
 74
0
 42
0.0000001
 43
0.0000001
 44
0.0000000001
 40
0.0
 40
0.0
 40
0.0
 40
0.0
 40
0.0635380581
 40
0.1267747039
 40
0.2522270532
 40
0.3145027139
 40
0.3765023764
 40
0.4382939858
 40
0.4999730914
 40
0.5616521964
 40
0.6234437997
 40
0.6854434581
 40
0.747719114
 40
0.8103088714
 40
0.8732250659
 40
0.936461731
 40
1.0
 40
1.0
 40
1.0
 40
1.0
 10
11.3664821877
 20
8.2458370227
 30
0.0
 10
11.3537263957
 20
8.2531803644
 30
0.0
 10
11.3279905515
 20
8.2673497487
 30
0.0
 10
11.2756190104
 20
8.2932742476
 30
0.0
 10
11.2215630961
 20
8.315100666
 30
0.0
 10
11.1659917943
 20
8.3313266655
 30
0.0
 10
11.1237922644
 20
8.3403173583
 30
0.0
 10
11.0811360656
 20
8.3458521791
 30
0.0
 10
11.0382330711
 20
8.3477221736
 30
0.0
 10
10.9953301696
 20
8.3458521218
 30
0.0
 10
10.952673716
 20
8.3403171646
 30
0.0
 10
10.9104751834
 20
8.331326681
 30
0.0
 10
10.8688888807
 20
8.3191841021
 30
0.0
 10
10.8280073212
 20
8.3042395515
 30
0.0
 10
10.7878689043
 20
8.2868492216
 30
0.0
 10
10.7484736289
 20
8.2673488402
 30
0.0
 10
10.7227404504
 20
8.2531787164
 30
0.0
 10
10.7099846178
 20
8.2458353475
 30
0.0
  0
SPLINE
  5
2EC
100
AcDbEntity
  8
0
100
AcDbSpline
 62
7
  6
CONTINUOUS
 70
0
 71
3
 72
11
 73
7
 74
0
 42
0.0000001
 43
0.0000001
 44
0.0000000001
 40
0.0
 40
0.0
 40
0.0
 40
0.0
 40
0.2557422708
 40
0.5085102198
 40
0.7570118369
 40
1.0
 40
1.0
 40
1.0
 40
1.0
 10
10.9974834891
 20
10.4340069594
 30
0.0
 10
10.9741393482
 20
10.4384114127
 30
0.0
 10
10.9275121669
 20
10.446095275
 30
0.0
 10
10.8576396285
 20
10.4542372473
 30
0.0
 10
10.788634784
 20
10.4588891144
 30
0.0
 10
10.7429619955
 20
10.4596496866
 30
0.0
 10
10.7203919285
 20
10.4594159009
 30
0.0
  0
SPLINE
  5
2ED
100
AcDbEntity
  8
0
100
AcDbSpline
 62
7
  6
CONTINUOUS
 70
0
 71
3
 72
19
 73
15
 74
0
 42
0.0000001
 43
0.0000001
 44
0.0000000001
 40
0.0
 40
0.0
 40
0.0
 40
0.0
 40
0.127247536
 40
0.1881195735
 40
0.2474926294
 40
0.3058239259
 40
0.3635975043
 40
0.421281914
 40
0.4793608735
 40
0.5382847708
 40
0.5984318182
 40
0.7235922618
 40
0.8570367343
 40
1.0
 40
1.0
 40
1.0
 40
1.0
 10
10.3157714476
 20
10.164891804
 30
0.0
 10
10.3102074903
 20
10.164891804
 30
0.0
 10
10.3019503082
 20
10.164212248
 30
0.0
 10
10.2913927996
 20
10.1617748904
 30
0.0
 10
10.2839859156
 20
10.1592584957
 30
0.0
 10
10.2770007159
 20
10.1560513
 30
0.0
 10
10.2704471376
 20
10.1521780725
 30
0.0
 10
10.2643343566
 20
10.1476604921
 30
0.0
 10
10.2586624642
 20
10.1425269033
 30
0.0
 10
10.2534236345
 20
10.1368066236
 30
0.0
 10
10.2469189454
 20
10.1283225054
 30
0.0
 10
10.2398246215
 20
10.1162601577
 30
0.0
 10
10.232965508
 20
10.1000572506
 30
0.0
 10
10.2294294246
 20
10.0884789151
 30
0.0
 10
10.2278406489
 20
10.0824330504
 30
0.0
  0
SPLINE
  5
2EE
100
AcDbEntity
  8
0
100
AcDbSpline
 62
7
  6
CONTINUOUS
 70
0
 71
3
 72
18
 73
14
 74
0
 42
0.0000001
 43
0.0000001
 44
0.0000000001
 40
0.0
 40
0.0
 40
0.0
 40
0.0
 40
0.1428641051
 40
0.2762477821
 40
0.4013860478
 40
0.5203466433
 40
0.5784371894
 40
0.6361532207
 40
0.6939582093
 40
0.7523263869
 40
0.8117565966
 40
0.872685668
 40
1.0
 40
1.0
 40
1.0
 40
1.0
 10
10.2279135163
 20
9.8370738626
 30
0.0
 10
10.2295049258
 20
9.8310479979
 30
0.0
 10
10.2330454541
 20
9.8195080951
 30
0.0
 10
10.2399098196
 20
9.803356484
 30
0.0
 10
10.248306027
 20
9.7891250015
 30
0.0
 10
10.2567913061
 20
9.7789377718
 30
0.0
 10
10.2644045408
 20
9.7720656047
 30
0.0
 10
10.2705120194
 20
9.7675643481
 30
0.0
 10
10.2770572537
 20
9.763703151
 30
0.0
 10
10.2840335315
 20
9.7605055008
 30
0.0
 10
10.2914318318
 20
9.7579991653
 30
0.0
 10
10.3019738262
 20
9.7555707641
 30
0.0
 10
10.3102172144
 20
9.7548918112
 30
0.0
 10
10.3157713192
 20
9.754891804
 30
0.0
  0
SPLINE
  5
2EF
100
AcDbEntity
  8
0
100
AcDbSpline
 62
7
  6
CONTINUOUS
 70
0
 71
3
 72
9
 73
5
 74
0
 42
0.0000001
 43
0.0000001
 44
0.0000000001
 40
0.0
 40
0.0
 40
0.0
 40
0.0
 40
0.4955133869
 40
1.0
 40
1.0
 40
1.0
 40
1.0
 10
10.3445370869
 20
9.7577871299
 30
0.0
 10
10.3406159073
 20
9.7587277857
 30
0.0
 10
10.332804397
 20
9.761076502
 30
0.0
 10
10.3252983093
 20
9.764264819
 30
0.0
 10
10.321607334
 20
9.7660624387
 30
0.0
  0
SPLINE
  5
2F0
100
AcDbEntity
  8
0
100
AcDbSpline
 62
7
  6
CONTINUOUS
 70
0
 71
3
 72
9
 73
5
 74
0
 42
0.0000001
 43
0.0000001
 44
0.0000000001
 40
0.0
 40
0.0
 40
0.0
 40
0.0
 40
0.5045144619
 40
1.0
 40
1.0
 40
1.0
 40
1.0
 10
10.3216382531
 20
10.1537361798
 30
0.0
 10
10.3253630975
 20
10.155548981
 30
0.0
 10
10.3329393481
 20
10.1587603058
 30
0.0
 10
10.3408257169
 20
10.161115709
 30
0.0
 10
10.3447841277
 20
10.1620553727
 30
0.0
  0
SPLINE
  5
2F1
100
AcDbEntity
  8
0
100
AcDbSpline
 62
9
  6
CONTINUOUS
 70
0
 71
3
 72
16
 73
12
 74
0
 42
0.0000001
 43
0.0000001
 44
0.0000000001
 40
0.0
 40
0.0
 40
0.0
 40
0.0
 40
0.1152660573
 40
0.2362055288
 40
0.3616939915
 40
0.4257189758
 40
0.4902992875
 40
0.6201824971
 40
0.7495866929
 40
0.8767312603
 40
1.0
 40
1.0
 40
1.0
 40
1.0
 10
11.3230687098
 20
9.7990654446
 30
0.0
 10
11.3165379416
 20
9.8081226567
 30
0.0
 10
11.3046567068
 20
9.8278000746
 30
0.0
 10
11.2909512601
 20
9.8601540233
 30
0.0
 10
11.2829061388
 20
9.8892245435
 30
0.0
 10
11.2785457545
 20
9.9134626111
 30
0.0
 10
11.275605889
 20
9.938343564
 30
0.0
 10
11.2747262147
 20
9.9697849898
 30
0.0
 10
11.2781023184
 20
10.0071555283
 30
0.0
 10
11.2858152595
 20
10.0432221084
 30
0.0
 10
11.2938715638
 20
10.0661922911
 30
0.0
 10
11.2985996497
 20
10.0771578435
 30
0.0
  0
SPLINE
  5
2F2
100
AcDbEntity
  8
0
100
AcDbSpline
 62
9
  6
CONTINUOUS
 70
0
 71
3
 72
9
 73
5
 74
0
 42
0.0000001
 43
0.0000001
 44
0.0000000001
 40
0.0
 40
0.0
 40
0.0
 40
0.0
 40
0.2570611322
 40
1.0
 40
1.0
 40
1.0
 40
1.0
 10
11.2985996497
 20
10.0771578435
 30
0.0
 10
11.3002965544
 20
10.0810933679
 30
0.0
 10
11.3072799423
 20
10.0962330363
 30
0.0
 10
11.3158242744
 20
10.1106712002
 30
0.0
 10
11.3230687098
 20
10.1207181635
 30
0.0
  0
SPLINE
  5
2F3
100
AcDbEntity
  8
0
100
AcDbSpline
 62
9
  6
CONTINUOUS
 70
0
 71
3
 72
12
 73
8
 74
0
 42
0.0000001
 43
0.0000001
 44
0.0000000001
 40
0.0
 40
0.0
 40
0.0
 40
0.0
 40
0.1302836294
 40
0.260209943
 40
0.5161008197
 40
0.7637097244
 40
1.0
 40
1.0
 40
1.0
 40
1.0
 10
10.4886548408
 20
9.959891804
 30
0.0
 10
10.4886548408
 20
9.9539296909
 30
0.0
 10
10.4882677987
 20
9.9420176733
 30
0.0
 10
10.4859813401
 20
9.9184984853
 30
0.0
 10
10.4803547242
 20
9.8899646198
 30
0.0
 10
10.4692905695
 20
9.8578593538
 30
0.0
 10
10.4590089378
 20
9.8381226743
 30
0.0
 10
10.4532151027
 20
9.8289926231
 30
0.0
  0
SPLINE
  5
2F4
100
AcDbEntity
  8
0
100
AcDbSpline
 62
9
  6
CONTINUOUS
 70
0
 71
3
 72
21
 73
17
 74
0
 42
0.0000001
 43
0.0000001
 44
0.0000000001
 40
0.0
 40
0.0
 40
0.0
 40
0.0
 40
0.1169622274
 40
0.1780514929
 40
0.2405914347
 40
0.3043427364
 40
0.3690286
 40
0.4343532946
 40
0.5
 40
0.5656467054
 40
0.6309714
 40
0.6956572636
 40
0.7594085653
 40
0.8219485071
 40
0.8830377726
 40
1.0
 40
1.0
 40
1.0
 40
1.0
 10
11.2934823096
 20
10.0796810933
 30
0.0
 10
11.2876964171
 20
10.0716556183
 30
0.0
 10
11.2800562233
 20
10.0585567217
 30
0.0
 10
11.2720278248
 20
10.0398433056
 30
0.0
 10
11.2669429227
 20
10.0248117303
 30
0.0
 10
11.2629378232
 20
10.0091468488
 30
0.0
 10
11.2600467935
 20
9.992999062
 30
0.0
 10
11.2583035945
 20
9.9765268475
 30
0.0
 10
11.2577178403
 20
9.959891804
 30
0.0
 10
11.2583035945
 20
9.9432567606
 30
0.0
 10
11.2600467935
 20
9.9267845461
 30
0.0
 10
11.2629378232
 20
9.9106367593
 30
0.0
 10
11.2669429227
 20
9.8949718778
 30
0.0
 10
11.2720278248
 20
9.8799403024
 30
0.0
 10
11.2800562233
 20
9.8612268864
 30
0.0
 10
11.2876964171
 20
9.8481279898
 30
0.0
 10
11.2934823096
 20
9.8401025148
 30
0.0
  0
SPLINE
  5
2F5
100
AcDbEntity
  8
0
100
AcDbSpline
 62
9
  6
CONTINUOUS
 70
0
 71
3
 72
28
 73
24
 74
0
 42
0.0000001
 43
0.0000001
 44
0.0000000001
 40
0.0
 40
0.0
 40
0.0
 40
0.0
 40
0.0754035227
 40
0.1500960797
 40
0.2232682448
 40
0.2943559701
 40
0.3628699422
 40
0.3960582748
 40
0.4284880212
 40
0.4909934129
 40
0.5505096122
 40
0.6073799263
 40
0.6350361786
 40
0.6622824233
 40
0.6892330092
 40
0.7160100586
 40
0.7427412927
 40
0.769557474
 40
0.7965847306
 40
0.8239430638
 40
0.8800231178
 40
0.9385614136
 40
1.0
 40
1.0
 40
1.0
 40
1.0
 10
10.466385953
 20
9.9619058958
 30
0.0
 10
10.4663198672
 20
9.9705677676
 30
0.0
 10
10.4653367687
 20
9.9878154733
 30
0.0
 10
10.4613450607
 20
10.013192962
 30
0.0
 10
10.4548980393
 20
10.0375542566
 30
0.0
 10
10.4461233901
 20
10.0604193529
 30
0.0
 10
10.4369129062
 20
10.0780619696
 30
0.0
 10
10.4285132588
 20
10.0909917585
 30
0.0
 10
10.4197026815
 20
10.1027923128
 30
0.0
 10
10.4076536607
 20
10.1159063588
 30
0.0
 10
10.3915677385
 20
10.1288279337
 30
0.0
 10
10.377039272
 20
10.1369415072
 30
0.0
 10
10.3650636597
 20
10.1416170942
 30
0.0
 10
10.3560079847
 20
10.1442033669
 30
0.0
 10
10.3468451083
 20
10.1458883254
 30
0.0
 10
10.3376200068
 20
10.1466662031
 30
0.0
 10
10.3283784442
 20
10.146527945
 30
0.0
 10
10.3191674941
 20
10.1454753394
 30
0.0
 10
10.3100317297
 20
10.1435175022
 30
0.0
 10
10.2979186672
 20
10.1396803195
 30
0.0
 10
10.2831274967
 20
10.132578863
 30
0.0
 10
10.2665994019
 20
10.1207760154
 30
0.0
 10
10.2567255266
 20
10.1110738833
 30
0.0
 10
10.2520453174
 20
10.1057909634
 30
0.0
  0
SPLINE
  5
2F6
100
AcDbEntity
  8
0
100
AcDbSpline
 62
9
  6
CONTINUOUS
 70
0
 71
3
 72
9
 73
5
 74
0
 42
0.0000001
 43
0.0000001
 44
0.0000000001
 40
0.0
 40
0.0
 40
0.0
 40
0.0
 40
0.2446951327
 40
1.0
 40
1.0
 40
1.0
 40
1.0
 10
10.250489066
 20
10.1040066874
 30
0.0
 10
10.24902212
 20
10.1022984618
 30
0.0
 10
10.2431797295
 20
10.0951871801
 30
0.0
 10
10.2379437434
 20
10.0875828204
 30
0.0
 10
10.2343308926
 20
10.081645391
 30
0.0
  0
SPLINE
  5
2F7
100
AcDbEntity
  8
0
100
AcDbSpline
 62
7
  6
CONTINUOUS
 70
0
 71
3
 72
19
 73
15
 74
0
 42
0.0000001
 43
0.0000001
 44
0.0000000001
 40
0.0
 40
0.0
 40
0.0
 40
0.0
 40
0.0718367915
 40
0.1434703443
 40
0.2845002572
 40
0.4208652215
 40
0.5508617792
 40
0.6131430751
 40
0.6734842324
 40
0.7882928062
 40
0.8431325639
 40
0.8964901784
 40
0.9486590606
 40
1.0
 40
1.0
 40
1.0
 40
1.0
 10
10.1949204678
 20
9.959891804
 30
0.0
 10
10.1949204678
 20
9.9540724578
 30
0.0
 10
10.1945382694
 20
9.942446108
 30
0.0
 10
10.1922809305
 20
9.9194980338
 30
0.0
 10
10.1867285082
 20
9.8916774301
 30
0.0
 10
10.1758119576
 20
9.860419445
 30
0.0
 10
10.1633046209
 20
9.8367759874
 30
0.0
 10
10.1514846059
 20
9.8200389687
 30
0.0
 10
10.1390154311
 20
9.8053721269
 30
0.0
 10
10.1249493238
 20
9.7929169906
 30
0.0
 10
10.1095997658
 20
9.7833293189
 30
0.0
 10
10.0978323053
 20
9.7777503642
 30
0.0
 10
10.0857430642
 20
9.7737350999
 30
0.0
 10
10.0774875142
 20
9.7721175011
 30
0.0
 10
10.0733627295
 20
9.7715849558
 30
0.0
  0
SPLINE
  5
2F8
100
AcDbEntity
  8
0
100
AcDbSpline
 62
7
  6
CONTINUOUS
 70
0
 71
3
 72
19
 73
15
 74
0
 42
0.0000001
 43
0.0000001
 44
0.0000000001
 40
0.0
 40
0.0
 40
0.0
 40
0.0
 40
0.0513404232
 40
0.1035157628
 40
0.1568840162
 40
0.2117370324
 40
0.3265723777
 40
0.3869241461
 40
0.4492125411
 40
0.5792124487
 40
0.7155633744
 40
0.8565671853
 40
0.9281829456
 40
1.0
 40
1.0
 40
1.0
 40
1.0
 10
10.0736476487
 20
10.1481613923
 30
0.0
 10
10.0777659249
 20
10.1476171881
 30
0.0
 10
10.0860074803
 20
10.1459778531
 30
0.0
 10
10.0980729362
 20
10.1419349793
 30
0.0
 10
10.1098159001
 20
10.1363348922
 30
0.0
 10
10.1251310226
 20
10.1267249752
 30
0.0
 10
10.1391635483
 20
10.1142603207
 30
0.0
 10
10.1516014969
 20
10.099592085
 30
0.0
 10
10.1633911491
 20
10.0828612743
 30
0.0
 10
10.1758646326
 20
10.0592364376
 30
0.0
 10
10.1867515164
 20
10.0280130036
 30
0.0
 10
10.1922884047
 20
10.0002284734
 30
0.0
 10
10.1945393498
 20
9.977312292
 30
0.0
 10
10.1949204678
 20
9.9657026947
 30
0.0
 10
10.1949204678
 20
9.959891804
 30
0.0
  0
SPLINE
  5
2F9
100
AcDbEntity
  8
0
100
AcDbSpline
 62
9
  6
CONTINUOUS
 70
0
 71
3
 72
18
 73
14
 74
0
 42
0.0000001
 43
0.0000001
 44
0.0000000001
 40
0.0
 40
0.0
 40
0.0
 40
0.0
 40
0.1391220611
 40
0.2766770301
 40
0.4109117421
 40
0.4764168065
 40
0.5406344753
 40
0.6646564167
 40
0.7824418811
 40
0.8390076958
 40
0.8940531768
 40
0.9476695714
 40
1.0
 40
1.0
 40
1.0
 40
1.0
 10
10.1891241994
 20
9.959891804
 30
0.0
 10
10.1891241994
 20
9.9692624967
 30
0.0
 10
10.188098196
 20
9.9879151261
 30
0.0
 10
10.1835251512
 20
10.0152666919
 30
0.0
 10
10.1772118964
 20
10.0371524999
 30
0.0
 10
10.1707227272
 20
10.0537162861
 30
0.0
 10
10.163489214
 20
10.0692120385
 30
0.0
 10
10.1529458406
 20
10.0870027532
 30
0.0
 10
10.1402443445
 20
10.1026904151
 30
0.0
 10
10.1291017144
 20
10.1134178886
 30
0.0
 10
10.1204410982
 20
10.1204311015
 30
0.0
 10
10.1114159659
 20
10.1264690343
 30
0.0
 10
10.1051207517
 20
10.1298584785
 30
0.0
 10
10.1019369345
 20
10.1313708494
 30
0.0
  0
SPLINE
  5
2FA
100
AcDbEntity
  8
0
100
AcDbSpline
 62
9
  6
CONTINUOUS
 70
0
 71
3
 72
9
 73
5
 74
0
 42
0.0000001
 43
0.0000001
 44
0.0000000001
 40
0.0
 40
0.0
 40
0.0
 40
0.0
 40
0.50441824
 40
1.0
 40
1.0
 40
1.0
 40
1.0
 10
10.1019369345
 20
10.1313708494
 30
0.0
 10
10.0987488124
 20
10.1328852652
 30
0.0
 10
10.0922718239
 20
10.1355702295
 30
0.0
 10
10.0855435593
 20
10.1375478732
 30
0.0
 10
10.0821676159
 20
10.1383402996
 30
0.0
  0
SPLINE
  5
2FB
100
AcDbEntity
  8
0
100
AcDbSpline
 62
9
  6
CONTINUOUS
 70
0
 71
3
 72
9
 73
5
 74
0
 42
0.0000001
 43
0.0000001
 44
0.0000000001
 40
0.0
 40
0.0
 40
0.0
 40
0.0
 40
0.4955658057
 40
1.0
 40
1.0
 40
1.0
 40
1.0
 10
10.0819432471
 20
9.7813908753
 30
0.0
 10
10.0853462078
 20
9.7821808469
 30
0.0
 10
10.092128818
 20
9.7841599737
 30
0.0
 10
10.0986573304
 20
9.786857786
 30
0.0
 10
10.1018704246
 20
9.7883812459
 30
0.0
  0
SPLINE
  5
2FC
100
AcDbEntity
  8
0
100
AcDbSpline
 62
9
  6
CONTINUOUS
 70
0
 71
3
 72
18
 73
14
 74
0
 42
0.0000001
 43
0.0000001
 44
0.0000000001
 40
0.0
 40
0.0
 40
0.0
 40
0.0
 40
0.0523246344
 40
0.10593526
 40
0.1609749294
 40
0.217535391
 40
0.3353140588
 40
0.4593346389
 40
0.5235533804
 40
0.5890604536
 40
0.7233029368
 40
0.8608687415
 40
1.0
 40
1.0
 40
1.0
 40
1.0
 10
10.1018704246
 20
9.7883812459
 30
0.0
 10
10.1050561274
 20
9.7898917184
 30
0.0
 10
10.1113552876
 20
9.7932777217
 30
0.0
 10
10.1203861651
 20
9.7993120878
 30
0.0
 10
10.1290528582
 20
9.8063224262
 30
0.0
 10
10.1402037646
 20
9.8170476998
 30
0.0
 10
10.1529151471
 20
9.8327357844
 30
0.0
 10
10.1634669757
 20
9.8505297446
 30
0.0
 10
10.1707066464
 20
9.8660296139
 30
0.0
 10
10.177201525
 20
9.8825989029
 30
0.0
 10
10.1835202481
 20
9.9044932609
 30
0.0
 10
10.1880972656
 20
9.9318563214
 30
0.0
 10
10.1891241994
 20
9.9505170887
 30
0.0
 10
10.1891241994
 20
9.959891804
 30
0.0
  0
ENDSEC
  0
SECTION
  2
OBJECTS
  0
DICTIONARY
  5
C
100
AcDbDictionary
280
0
281
1
  3
ACAD_GROUP
350
D
  3
ACAD_MLINESTYLE
350
17
  3
ACAD_LAYOUT
350
1A
  3
ACAD_PLOTSETTINGS
350
19
  3
ACAD_PLOTSTYLENAME
350
E
  0
DICTIONARY
  5
D
102
{ACAD_REACTORS
330
C
102
}
100
AcDbDictionary
280
0
281
1
  0
ACDBDICTIONARYWDFLT
  5
E
102
{ACAD_REACTORS
330
C
102
}
100
AcDbDictionary
281
1
  3
Normal
350
F
100
AcDbDictionaryWithDefault
340
F
  0
DICTIONARY
  5
17
102
{ACAD_REACTORS
330
C
102
}
100
AcDbDictionary
280
0
281
1
  3
Standard
350
18
  0
DICTIONARY
  5
19
102
{ACAD_REACTORS
330
C
102
}
100
AcDbDictionary
281
1
  0
DICTIONARY
  5
1A
102
{ACAD_REACTORS
330
C
102
}
100
AcDbDictionary
281
1
  3
Model
350
2FD
  3
Layout1
350
2FE
  0
ACDBPLACEHOLDER
  5
F
102
{ACAD_REACTORS
330
E
102
}
  0
MLINESTYLE
  5
18
102
{ACAD_REACTORS
330
17
102
}
100
AcDbMlineStyle
  2
STANDARD
 70
0
  3

 62
256
 51
90.0
 52
90.0
 71
2
 49
0.5
 62
256
  6
BYLAYER
 49
-0.5
 62
256
  6
BYLAYER
  0
LAYOUT
  5
2FD
102
{ACAD_REACTORS
330
1A
102
}
100
AcDbPlotSettings
  1

  2
none_device
  4
ANSI_C_(22.00_x_17.00_Inches)
  6

 40
0.0
 41
0.0
 42
0.0
 43
0.0
 44
558.8
 45
431.8
 46
0.0
 47
0.0
 48
0.0
 49
0.0
140
0.0
141
0.0
142
1.0
143
1.0
 70
1024
 72
0
 73
0
 74
0
  7

 75
0
147
1.0
148
0.0
149
0.0
100
AcDbLayout
  1
Model
 70
0
 71
0
 10
0.0
 20
0.0
 11
22.0
 21
17.0
 12
0.0
 22
0.0
 32
0.0
 14
0.0
 24
0.0
 34
0.0
 15
0.0
 25
0.0
 35
0.0
146
0.0
 13
0.0
 23
0.0
 33
0.0
 16
1.0
 26
0.0
 36
0.0
 17
0.0
 27
1.0
 37
0.0
 76
0
330
202
345
0
346
0
  0
LAYOUT
  5
2FE
102
{ACAD_REACTORS
330
1A
102
}
100
AcDbPlotSettings
  1

  2
none_device
  4
ANSI_C_(22.00_x_17.00_Inches)
  6

 40
0.0
 41
0.0
 42
0.0
 43
0.0
 44
558.8
 45
431.8
 46
0.0
 47
0.0
 48
0.0
 49
0.0
140
0.0
141
0.0
142
1.0
143
1.0
 70
0
 72
0
 73
0
 74
0
  7

 75
0
147
1.0
148
0.0
149
0.0
100
AcDbLayout
  1
Layout1
 70
0
 71
1
 10
0.0
 20
0.0
 11
22.0
 21
17.0
 12
0.0
 22
0.0
 32
0.0
 14
0.0
 24
0.0
 34
0.0
 15
0.0
 25
0.0
 35
0.0
146
0.0
 13
0.0
 23
0.0
 33
0.0
 16
1.0
 26
0.0
 36
0.0
 17
0.0
 27
1.0
 37
0.0
 76
0
330
203
345
0
346
0
  0
ENDSEC
  0
EOF
