999
DXF file: 3-163_Top.dxf
999
Pro/ENGINEER 2023134 by Parametric Technology Corporation
  0
SECTION
  2
HEADER
  9
$ACADVER
  1
AC1032
  9
$DWGCODEPAGE
  3
ANSI_1252
  9
$EXTMAX
 10
22.0
 20
17.0
 30
0.0
  9
$EXTMIN
 10
0.0
 20
0.0
 30
0.0
  9
$LIMMIN
 10
0.0
 20
0.0
  9
$LIMMAX
 10
22.0
 20
17.0
  9
$VIEWCTR
 10
11.0
 20
8.5
  9
$VIEWSIZE
 40
17.0
  9
$CLAYER
  8
0
  9
$LTSCALE
 40
1.21
  9
$CELTYPE
  6
BYLAYER
  9
$DIMSCALE
 40
1.0
  9
$DIMASZ
 40
0.1
  9
$DIMEXO
 40
0.0625
  9
$DIMDLI
 40
0.836
  9
$DIMEXE
 40
0.125
  9
$DIMCEN
 40
0.198
  9
$DIMLFAC
 40
1.0
  9
$DIMBLK
  1
_FILLED
  9
$DIMALT
 70
1
  9
$DIMALTD
 70
2
  9
$DIMALTTD
 70
2
  9
$DIMALTF
 40
25.4
  9
$DIMTXT
 40
0.08
  9
$DIMTOL
 70
1
  9
$DIMLIM
 70
0
  9
$DIMTFAC
 40
1.0
  9
$DIMTP
 40
0.001
  9
$DIMTM
 40
0.001
  9
$DIMGAP
 40
0.09
  9
$DIMDSEP
 70
46
  9
$AUNITS
 70
0
  9
$PDMODE
 70
3
  9
$PDSIZE
 40
0.3125
  9
$HANDSEED
  5
2B3
  9
$TILEMODE
 70
1
  9
$MEASUREMENT
 70
0
  9
$INSUNITS
 70
1
  0
ENDSEC
  0
SECTION
  2
CLASSES
  0
CLASS
  1
ACDBDICTIONARYWDFLT
  2
AcDbDictionaryWithDefault
  3
AutoCAD 2000
 90
0
 91
1
280
0
281
0
  0
CLASS
  1
ACDBPLACEHOLDER
  2
AcDbPlaceHolder
  3
AutoCAD 2000
 90
0
 91
1
280
0
281
0
  0
CLASS
  1
LAYOUT
  2
AcDbLayout
  3
AutoCAD 2000
 90
0
 91
0
280
0
281
0
  0
ENDSEC
  0
SECTION
  2
TABLES
  0
TABLE
  2
VPORT
  5
8
100
AcDbSymbolTable
 70
2
  0
VPORT
  5
1F4
100
AcDbSymbolTableRecord
100
AcDbViewportTableRecord
  2
*ACTIVE
 70
0
 10
0.0
 20
0.0
 11
1.0
 21
1.0
 12
11.0
 22
8.5
 13
0.0
 23
0.0
 14
1.0
 24
1.0
 15
0.0
 25
0.0
 16
0.0
 26
0.0
 36
1.0
 17
0.0
 27
0.0
 37
0.0
 40
17.0
 41
1.2941176471
 42
50.0
 43
0.0
 44
0.0
 50
0.0
 51
0.0
 71
0
 72
100
 73
1
 74
1
 75
0
 76
0
 77
0
 78
0
  0
ENDTAB
  0
TABLE
  2
LTYPE
  5
5
100
AcDbSymbolTable
 70
6
  0
LTYPE
  5
14
100
AcDbSymbolTableRecord
100
AcDbLinetypeTableRecord
  2
BYBLOCK
 70
0
  3

 72
65
 73
0
 40
0.0
  0
LTYPE
  5
15
100
AcDbSymbolTableRecord
100
AcDbLinetypeTableRecord
  2
BYLAYER
 70
0
  3

 72
65
 73
0
 40
0.0
  0
LTYPE
  5
16
100
AcDbSymbolTableRecord
100
AcDbLinetypeTableRecord
  2
CONTINUOUS
 70
64
  3
Solid line
 72
65
 73
0
 40
0.0
  0
LTYPE
  5
1F5
100
AcDbSymbolTableRecord
100
AcDbLinetypeTableRecord
  2
CENTER
 70
64
  3
____ _ ____ _ ____ _ ____ _ ____ _ ____ _ ____
 72
65
 73
4
 40
0.6
 49
0.375
 74
0
 49
-0.075
 74
0
 49
0.075
 74
0
 49
-0.075
 74
0
  0
LTYPE
  5
1F6
100
AcDbSymbolTableRecord
100
AcDbLinetypeTableRecord
  2
HIDDEN
 70
64
  3
- - - - - - - - - - - - - - - - - - - -
 72
65
 73
2
 40
0.2
 49
0.1
 74
0
 49
-0.1
 74
0
  0
LTYPE
  5
1F7
100
AcDbSymbolTableRecord
100
AcDbLinetypeTableRecord
  2
PHANTOM
 70
64
  3
_____ _ _ _____ _ _ _____ _ _ _____
 72
65
 73
6
 40
0.8
 49
0.45
 74
0
 49
-0.05
 74
0
 49
0.1
 74
0
 49
-0.05
 74
0
 49
0.1
 74
0
 49
-0.05
 74
0
  0
LTYPE
  5
1F8
100
AcDbSymbolTableRecord
100
AcDbLinetypeTableRecord
  2
DOT
 70
64
  3
. . . . . . . . . . . . . . . . . . . .
 72
65
 73
2
 40
0.2
 49
0.1
 74
0
 49
-0.1
 74
0
  0
LTYPE
  5
1F9
100
AcDbSymbolTableRecord
100
AcDbLinetypeTableRecord
  2
DASHED
 70
64
  3
- - - - - - - - - - - - - - - - - - - -
 72
65
 73
2
 40
0.2
 49
0.1
 74
0
 49
-0.1
 74
0
  0
ENDTAB
  0
TABLE
  2
LAYER
  5
2
100
AcDbSymbolTable
 70
36
  0
LAYER
  5
10
100
AcDbSymbolTableRecord
100
AcDbLayerTableRecord
  2
0
 70
0
 62
7
  6
CONTINUOUS
370
-3
390
F
  0
LAYER
  5
1FA
100
AcDbSymbolTableRecord
100
AcDbLayerTableRecord
  2
DEFAULT_1
 70
0
 62
7
  6
CENTER
370
-3
390
F
  0
LAYER
  5
1FB
100
AcDbSymbolTableRecord
100
AcDbLayerTableRecord
  2
DEFAULT_2
 70
0
 62
8
  6
HIDDEN
370
-3
390
F
  0
LAYER
  5
1FC
100
AcDbSymbolTableRecord
100
AcDbLayerTableRecord
  2
DEFAULT_3
 70
0
 62
7
  6
PHANTOM
370
-3
390
F
  0
LAYER
  5
1FD
100
AcDbSymbolTableRecord
100
AcDbLayerTableRecord
  2
DEFAULT_COORDINATE_SYSTEM
 70
0
 62
7
  6
CONTINUOUS
370
-3
390
F
  0
LAYER
  5
1FE
100
AcDbSymbolTableRecord
100
AcDbLayerTableRecord
  2
DEFAULT_DATUM_AXES
 70
0
 62
7
  6
CONTINUOUS
370
-3
390
F
  0
LAYER
  5
1FF
100
AcDbSymbolTableRecord
100
AcDbLayerTableRecord
  2
DEFAULT_DATUM_CURVES
 70
0
 62
7
  6
CONTINUOUS
370
-3
390
F
  0
LAYER
  5
200
100
AcDbSymbolTableRecord
100
AcDbLayerTableRecord
  2
DEFAULT_DATUM_PLANES
 70
0
 62
7
  6
CONTINUOUS
370
-3
390
F
  0
ENDTAB
  0
TABLE
  2
STYLE
  5
3
100
AcDbSymbolTable
 70
1
  0
STYLE
  5
11
100
AcDbSymbolTableRecord
100
AcDbTextStyleTableRecord
  2
STANDARD
 70
0
 40
0.0
 41
0.8
 50
0.0
 71
0
 42
0.2
  3
txt
  4

  0
STYLE
  5
201
100
AcDbSymbolTableRecord
100
AcDbTextStyleTableRecord
  2
TEXTSTYLE_1
 70
0
 40
0.0
 41
0.8
 50
0.0
 71
0
 42
0.2
  3
gdt
  4

  0
ENDTAB
  0
TABLE
  2
VIEW
  5
6
100
AcDbSymbolTable
 70
0
  0
ENDTAB
  0
TABLE
  2
UCS
  5
7
100
AcDbSymbolTable
 70
0
  0
ENDTAB
  0
TABLE
  2
APPID
  5
9
100
AcDbSymbolTable
 70
1
  0
APPID
  5
202
100
AcDbSymbolTableRecord
100
AcDbRegAppTableRecord
  2
ACAD
 70
0
  0
ENDTAB
  0
TABLE
  2
BLOCK_RECORD
  5
1
100
AcDbSymbolTable
 70
0
  0
BLOCK_RECORD
  5
203
100
AcDbSymbolTableRecord
100
AcDbBlockTableRecord
  2
*Model_Space
  0
BLOCK_RECORD
  5
204
100
AcDbSymbolTableRecord
100
AcDbBlockTableRecord
  2
*Paper_Space
  0
BLOCK_RECORD
  5
205
100
AcDbSymbolTableRecord
100
AcDbBlockTableRecord
  2
_FILLED
  0
ENDTAB
  0
TABLE
  2
DIMSTYLE
  5
A
100
AcDbSymbolTable
 70
1
100
AcDbDimStyleTable
 71
0
  0
DIMSTYLE
105
206
100
AcDbSymbolTableRecord
100
AcDbDimStyleTableRecord
  2
STANDARD
 70
0
  3

  4

 40
1.0
 41
0.1
 42
0.0625
 43
0.38
 44
0.125
 45
0.0
 46
0.0
 47
0.001
 48
0.001
140
0.08
141
0.09
142
0.0
143
25.4
144
1.0
145
0.0
146
1.0
147
0.09
 71
1
 72
0
 73
1
 74
1
 75
0
 76
0
 77
0
 78
4
 79
1
170
1
171
2
172
0
173
0
174
0
175
0
176
0
177
0
178
0
270
2
179
3
271
3
272
3
273
2
274
2
275
0
280
0
281
0
282
0
283
1
284
4
285
0
286
0
287
3
288
0
340
11
278
46
341
205
342
205
343
205
344
205
  0
ENDTAB
  0
ENDSEC
  0
SECTION
  2
BLOCKS
  0
BLOCK
  5
20
100
AcDbEntity
  8
0
100
AcDbBlockBegin
  2
*Model_Space
 70
0
 10
0.0
 20
0.0
 30
0.0
  3
*Model_Space
  1

  0
ENDBLK
  5
21
100
AcDbEntity
  8
0
100
AcDbBlockEnd
  0
BLOCK
  5
1C
100
AcDbEntity
  8
0
100
AcDbBlockBegin
  2
*Paper_Space
 70
0
 10
0.0
 20
0.0
 30
0.0
  3
*Paper_Space
  1

  0
ENDBLK
  5
1D
100
AcDbEntity
  8
0
100
AcDbBlockEnd
  0
BLOCK
  5
207
100
AcDbEntity
  8
0
100
AcDbBlockBegin
  2
_FILLED
 70
64
 10
0.0
 20
0.0
  3
_FILLED
  1

  0
SOLID
  5
208
100
AcDbEntity
  8
0
  6
BYBLOCK
 62
0
100
AcDbTrace
 10
0.0
 20
0.0
 11
-1.0
 21
0.2
 12
-1.0
 22
-0.2
 13
-1.0
 23
-0.2
  0
ENDBLK
  5
209
100
AcDbEntity
  8
0
  6
BYBLOCK
 62
0
100
AcDbBlockEnd
  0
ENDSEC
  0
SECTION
  2
ENTITIES
  0
LINE
  5
20A
100
AcDbEntity
  8
0
100
AcDbLine
 62
7
  6
CONTINUOUS
 10
0.0
 20
0.0
 11
0.0
 21
17.0
  0
LINE
  5
20B
100
AcDbEntity
  8
0
100
AcDbLine
 62
7
  6
CONTINUOUS
 10
0.0
 20
0.0
 11
22.0
 21
0.0
  0
LINE
  5
20C
100
AcDbEntity
  8
0
100
AcDbLine
 62
7
  6
CONTINUOUS
 10
0.0
 20
17.0
 11
22.0
 21
17.0
  0
LINE
  5
20D
100
AcDbEntity
  8
0
100
AcDbLine
 62
7
  6
CONTINUOUS
 10
22.0
 20
0.0
 11
22.0
 21
17.0
  0
LINE
  5
20E
100
AcDbEntity
  8
0
100
AcDbLine
 62
7
  6
CONTINUOUS
 10
11.0702010237
 20
4.1881005487
 11
11.0700062935
 21
4.1880878741
  0
LINE
  5
20F
100
AcDbEntity
  8
0
100
AcDbLine
 62
7
  6
CONTINUOUS
 10
11.0701986674
 20
4.1880984088
 11
11.0700062935
 21
4.1880878741
  0
LINE
  5
210
100
AcDbEntity
  8
0
100
AcDbLine
 62
7
  6
CONTINUOUS
 10
11.0698779783
 20
4.1910853489
 11
11.0700062935
 21
4.1910923442
  0
LINE
  5
211
100
AcDbEntity
  8
0
100
AcDbLine
 62
7
  6
CONTINUOUS
 10
11.0698798066
 20
4.1910870097
 11
11.0700062935
 21
4.1910923442
  0
LINE
  5
212
100
AcDbEntity
  8
0
100
AcDbLine
 62
7
  6
CONTINUOUS
 10
12.0284209776
 20
4.3619553835
 11
9.6854739053
 21
4.3619553835
  0
LINE
  5
213
100
AcDbEntity
  8
0
100
AcDbLine
 62
7
  6
CONTINUOUS
 10
9.4934175732
 20
4.4282768187
 11
12.2204773097
 21
4.4282768187
  0
LINE
  5
214
100
AcDbEntity
  8
0
100
AcDbLine
 62
7
  6
CONTINUOUS
 10
10.6438885893
 20
4.1910923442
 11
10.644015059
 21
4.1910870112
  0
LINE
  5
215
100
AcDbEntity
  8
0
100
AcDbLine
 62
7
  6
CONTINUOUS
 10
10.6438885893
 20
4.1910923442
 11
10.6440168878
 21
4.1910853498
  0
LINE
  5
216
100
AcDbEntity
  8
0
100
AcDbLine
 62
7
  6
CONTINUOUS
 10
10.6438885893
 20
4.1880878741
 11
10.6436947239
 21
4.1880984908
  0
LINE
  5
217
100
AcDbEntity
  8
0
100
AcDbLine
 62
7
  6
CONTINUOUS
 10
11.0700517202
 20
4.1918122963
 11
11.0702405406
 21
4.1918003824
  0
LINE
  5
218
100
AcDbEntity
  8
0
100
AcDbLine
 62
7
  6
CONTINUOUS
 10
10.6438885893
 20
4.1880878741
 11
10.6436922211
 21
4.1881007638
  0
LINE
  5
219
100
AcDbEntity
  8
0
100
AcDbLine
 62
7
  6
CONTINUOUS
 10
11.0700040208
 20
4.191770387
 11
11.0701915195
 21
4.1917573067
  0
LINE
  5
21A
100
AcDbEntity
  8
0
100
AcDbLine
 62
7
  6
CONTINUOUS
 10
9.4934175731
 20
4.4282768187
 11
9.3172449847
 21
4.4855187627
  0
LINE
  5
21B
100
AcDbEntity
  8
0
100
AcDbLine
 62
7
  6
CONTINUOUS
 10
9.3172449847
 20
4.4855187627
 11
12.3966498982
 21
4.4855187627
  0
LINE
  5
21C
100
AcDbEntity
  8
0
100
AcDbLine
 62
7
  6
CONTINUOUS
 10
9.2744474414
 20
4.5444245274
 11
12.4394474414
 21
4.5444245274
  0
LINE
  5
21D
100
AcDbEntity
  8
0
100
AcDbLine
 62
7
  6
CONTINUOUS
 10
9.2744474414
 20
4.7582768187
 11
12.4394474414
 21
4.7582768187
  0
LINE
  5
21E
100
AcDbEntity
  8
0
100
AcDbLine
 62
7
  6
CONTINUOUS
 10
9.354987804
 20
4.8047768187
 11
12.3589070789
 21
4.8047768187
  0
LINE
  5
21F
100
AcDbEntity
  8
0
100
AcDbLine
 62
7
  6
CONTINUOUS
 10
9.354987804
 20
4.8047768187
 11
9.2744474414
 21
4.8512768187
  0
LINE
  5
220
100
AcDbEntity
  8
0
100
AcDbLine
 62
7
  6
CONTINUOUS
 10
9.2744474414
 20
4.8512768187
 11
12.4394474414
 21
4.8512768187
  0
LINE
  5
221
100
AcDbEntity
  8
0
100
AcDbLine
 62
7
  6
CONTINUOUS
 10
9.1844474414
 20
5.0912768187
 11
12.5294474414
 21
5.0912768187
  0
LINE
  5
222
100
AcDbEntity
  8
0
100
AcDbLine
 62
7
  6
CONTINUOUS
 10
9.3172449847
 20
4.4855187627
 11
9.2744474414
 21
4.5444245274
  0
LINE
  5
223
100
AcDbEntity
  8
0
100
AcDbLine
 62
7
  6
CONTINUOUS
 10
9.1064523626
 20
6.0656466798
 11
9.0176927848
 21
6.1887573469
  0
LINE
  5
224
100
AcDbEntity
  8
0
100
AcDbLine
 62
7
  6
CONTINUOUS
 10
9.2744474414
 20
4.8512768187
 11
9.1844474414
 21
5.0912768187
  0
LINE
  5
225
100
AcDbEntity
  8
0
100
AcDbLine
 62
7
  6
CONTINUOUS
 10
8.5827647311
 20
11.5982768187
 11
8.5827647311
 21
10.8484431926
  0
LINE
  5
226
100
AcDbEntity
  8
0
100
AcDbLine
 62
7
  6
CONTINUOUS
 10
8.6339474414
 20
11.7842768187
 11
8.6339474414
 21
11.5982768187
  0
LINE
  5
227
100
AcDbEntity
  8
0
100
AcDbLine
 62
7
  6
CONTINUOUS
 10
9.1844474414
 20
6.3212768187
 11
12.5294474414
 21
6.3212768187
  0
LINE
  5
228
100
AcDbEntity
  8
0
100
AcDbLine
 62
7
  6
CONTINUOUS
 10
12.4394474414
 20
4.7582768187
 11
12.3589070789
 21
4.8047768187
  0
LINE
  5
229
100
AcDbEntity
  8
0
100
AcDbLine
 62
7
  6
CONTINUOUS
 10
9.2744474414
 20
6.5582768187
 11
12.4394474414
 21
6.5582768187
  0
LINE
  5
22A
100
AcDbEntity
  8
0
100
AcDbLine
 62
7
  6
CONTINUOUS
 10
9.7454474416
 20
6.7112768187
 11
11.9684474413
 21
6.7112768187
  0
LINE
  5
22B
100
AcDbEntity
  8
0
100
AcDbLine
 62
7
  6
CONTINUOUS
 10
9.2744474414
 20
4.5444245274
 11
9.2744474414
 21
4.7582768187
  0
LINE
  5
22C
100
AcDbEntity
  8
0
100
AcDbLine
 62
7
  6
CONTINUOUS
 10
9.7198560863
 20
11.5982768187
 11
9.7198560863
 21
10.848444651
  0
LINE
  5
22D
100
AcDbEntity
  8
0
100
AcDbLine
 62
7
  6
CONTINUOUS
 10
12.4394474414
 20
6.5582768187
 11
11.9684474414
 21
6.7112768187
  0
LINE
  5
22E
100
AcDbEntity
  8
0
100
AcDbLine
 62
7
  6
CONTINUOUS
 10
9.0130454588
 20
9.1691803841
 11
9.2354474414
 21
8.8514275024
  0
LINE
  5
22F
100
AcDbEntity
  8
0
100
AcDbLine
 62
7
  6
CONTINUOUS
 10
9.8264474414
 20
6.7112768187
 11
9.8264474414
 21
7.7882768187
  0
LINE
  5
230
100
AcDbEntity
  8
0
100
AcDbLine
 62
7
  6
CONTINUOUS
 10
9.1844474414
 20
6.3212768187
 11
9.2744474414
 21
6.5582768187
  0
LINE
  5
231
100
AcDbEntity
  8
0
100
AcDbLine
 62
7
  6
CONTINUOUS
 10
9.8264474416
 20
7.7882768187
 11
11.8874474413
 21
7.7882768187
  0
LINE
  5
232
100
AcDbEntity
  8
0
100
AcDbLine
 62
7
  6
CONTINUOUS
 10
12.053494107
 20
7.8482768187
 11
9.6604007759
 21
7.8482768187
  0
LINE
  5
233
100
AcDbEntity
  8
0
100
AcDbLine
 62
7
  6
CONTINUOUS
 10
12.1461666241
 20
7.9334790908
 11
9.5677282587
 21
7.9334790908
  0
LINE
  5
234
100
AcDbEntity
  8
0
100
AcDbLine
 62
7
  6
CONTINUOUS
 10
12.6074425203
 20
5.3469069576
 11
12.696202098
 21
5.2237962906
  0
LINE
  5
235
100
AcDbEntity
  8
0
100
AcDbLine
 62
7
  6
CONTINUOUS
 10
10.8569474414
 20
4.2786235155
 11
10.8569474414
 21
4.2816993918
  0
LINE
  5
236
100
AcDbEntity
  8
0
100
AcDbLine
 62
7
  6
CONTINUOUS
 10
13.1311145127
 20
10.8484434087
 11
12.7804377604
 21
10.4987768187
  0
LINE
  5
237
100
AcDbEntity
  8
0
100
AcDbLine
 62
7
  6
CONTINUOUS
 10
8.5827892025
 20
10.8484346018
 11
8.9334571225
 21
10.4987768187
  0
LINE
  5
238
100
AcDbEntity
  8
0
100
AcDbLine
 62
7
  6
CONTINUOUS
 10
9.2354474414
 20
8.8514275024
 11
12.4784474414
 21
8.8514275024
  0
LINE
  5
239
100
AcDbEntity
  8
0
100
AcDbLine
 62
7
  6
CONTINUOUS
 10
9.1064523626
 20
5.3469069576
 11
9.0176927848
 21
5.2237962906
  0
LINE
  5
23A
100
AcDbEntity
  8
0
100
AcDbLine
 62
7
  6
CONTINUOUS
 10
9.0130454588
 20
9.1691803841
 11
12.700849424
 21
9.1691803841
  0
LINE
  5
23B
100
AcDbEntity
  8
0
100
AcDbLine
 62
7
  6
CONTINUOUS
 10
12.5294474414
 20
6.3212768187
 11
12.4394474414
 21
6.5582768187
  0
LINE
  5
23C
100
AcDbEntity
  8
0
100
AcDbLine
 62
7
  6
CONTINUOUS
 10
11.8874474414
 20
6.7112768187
 11
11.8874474414
 21
7.7882768187
  0
LINE
  5
23D
100
AcDbEntity
  8
0
100
AcDbLine
 62
7
  6
CONTINUOUS
 10
11.9940387966
 20
11.5982768187
 11
11.9940387966
 21
10.8484431926
  0
LINE
  5
23E
100
AcDbEntity
  8
0
100
AcDbLine
 62
7
  6
CONTINUOUS
 10
12.700849424
 20
9.1691803841
 11
12.4784474414
 21
8.8514275024
  0
LINE
  5
23F
100
AcDbEntity
  8
0
100
AcDbLine
 62
7
  6
CONTINUOUS
 10
9.2744474414
 20
6.5582768187
 11
9.7454474414
 21
6.7112768187
  0
LINE
  5
240
100
AcDbEntity
  8
0
100
AcDbLine
 62
7
  6
CONTINUOUS
 10
9.0014474414
 20
9.8537768187
 11
12.7124474414
 21
9.8537768187
  0
LINE
  5
241
100
AcDbEntity
  8
0
100
AcDbLine
 62
7
  6
CONTINUOUS
 10
12.4394474414
 20
4.5444245274
 11
12.4394474414
 21
4.7582768187
  0
LINE
  5
242
100
AcDbEntity
  8
0
100
AcDbLine
 62
7
  6
CONTINUOUS
 10
13.0799474414
 20
11.7842768187
 11
13.0799474414
 21
11.5982768187
  0
LINE
  5
243
100
AcDbEntity
  8
0
100
AcDbLine
 62
7
  6
CONTINUOUS
 10
13.1311301518
 20
11.5982768187
 11
13.1311301518
 21
10.848448968
  0
LINE
  5
244
100
AcDbEntity
  8
0
100
AcDbLine
 62
7
  6
CONTINUOUS
 10
8.9334571225
 20
10.4987768187
 11
12.7804377604
 21
10.4987768187
  0
LINE
  5
245
100
AcDbEntity
  8
0
100
AcDbLine
 62
7
  6
CONTINUOUS
 10
9.2744474414
 20
4.7582768187
 11
9.354987804
 21
4.8047768187
  0
LINE
  5
246
100
AcDbEntity
  8
0
100
AcDbLine
 62
7
  6
CONTINUOUS
 10
12.4394474414
 20
4.8512768187
 11
12.5294474414
 21
5.0912768187
  0
LINE
  5
247
100
AcDbEntity
  8
0
100
AcDbLine
 62
7
  6
CONTINUOUS
 10
12.6074425203
 20
6.0656466798
 11
12.696202098
 21
6.1887573469
  0
LINE
  5
248
100
AcDbEntity
  8
0
100
AcDbLine
 62
7
  6
CONTINUOUS
 10
13.1311301518
 20
11.5982768187
 11
8.5827647311
 21
11.5982768187
  0
LINE
  5
249
100
AcDbEntity
  8
0
100
AcDbLine
 62
7
  6
CONTINUOUS
 10
13.2959554629
 20
11.7842768187
 11
8.41793942
 21
11.7842768187
  0
LINE
  5
24A
100
AcDbEntity
  8
0
100
AcDbLine
 62
7
  6
CONTINUOUS
 10
12.3966498982
 20
4.4855187627
 11
12.4394474414
 21
4.5444245274
  0
LINE
  5
24B
100
AcDbEntity
  8
0
100
AcDbLine
 62
7
  6
CONTINUOUS
 10
12.3589070789
 20
4.8047768187
 11
12.4394474414
 21
4.8512768187
  0
LINE
  5
24C
100
AcDbEntity
  8
0
100
AcDbLine
 62
7
  6
CONTINUOUS
 10
13.8569474414
 20
12.3482768187
 11
7.8569474414
 21
12.3482768187
  0
LINE
  5
24D
100
AcDbEntity
  8
0
100
AcDbLine
 62
7
  6
CONTINUOUS
 10
12.2204773098
 20
4.4282768187
 11
12.3966498982
 21
4.4855187627
  0
LINE
  5
24E
100
AcDbEntity
  8
0
100
AcDbLine
 62
7
  6
CONTINUOUS
 10
14.3969474414
 20
12.9092768187
 11
7.3169474414
 21
12.9092768187
  0
ARC
  5
24F
100
AcDbEntity
  8
0
100
AcDbCircle
 62
7
  6
CONTINUOUS
 10
6.4165307748
 20
5.7062768187
 40
2.8354166667
100
AcDbArc
 50
9.1392787109
 51
12.5269812287
  0
ARC
  5
250
100
AcDbEntity
  8
0
100
AcDbCircle
 62
7
  6
CONTINUOUS
 10
6.4165307748
 20
5.7062768187
 40
2.8354166667
100
AcDbArc
 50
347.4730187713
 51
350.8611167309
  0
ARC
  5
251
100
AcDbEntity
  8
0
100
AcDbCircle
 62
7
  6
CONTINUOUS
 10
7.6993307352
 20
7.7762668331
 40
1.875
100
AcDbArc
 50
4.8096995456
 51
34.9889904702
  0
ARC
  5
252
100
AcDbEntity
  8
0
100
AcDbCircle
 62
7
  6
CONTINUOUS
 10
8.3484861352
 20
5.7062768187
 40
0.825
100
AcDbArc
 50
35.7906197352
 51
324.2093802648
  0
ARC
  5
253
100
AcDbEntity
  8
0
100
AcDbCircle
 62
7
  6
CONTINUOUS
 10
10.6784356798
 20
4.8098633677
 40
0.6227346916
100
AcDbArc
 50
263.7504270135
 51
266.8019380848
  0
ARC
  5
254
100
AcDbEntity
  8
0
100
AcDbCircle
 62
7
  6
CONTINUOUS
 10
9.9272979998
 20
5.6364478916
 40
0.5794256986
100
AcDbArc
 50
208.6253856175
 51
214.5304366898
  0
ARC
  5
255
100
AcDbEntity
  8
0
100
AcDbCircle
 62
7
  6
CONTINUOUS
 10
9.9272620942
 20
5.7761289968
 40
0.5793829484
100
AcDbArc
 50
145.4693564097
 51
151.3639876546
  0
ARC
  5
256
100
AcDbEntity
  8
0
100
AcDbCircle
 62
7
  6
CONTINUOUS
 10
9.8938880233
 20
5.6234798015
 40
0.5431326201
100
AcDbArc
 50
209.1737006346
 51
215.4216677188
  0
ARC
  5
257
100
AcDbEntity
  8
0
100
AcDbCircle
 62
7
  6
CONTINUOUS
 10
9.8938498638
 20
5.7890989273
 40
0.5430869801
100
AcDbArc
 50
144.5780662339
 51
150.8174145181
  0
ARC
  5
258
100
AcDbEntity
  8
0
100
AcDbCircle
 62
7
  6
CONTINUOUS
 10
9.8588226032
 20
5.8134523387
 40
0.5004281926
100
AcDbArc
 50
141.4126345102
 51
144.5258777285
  0
ARC
  5
259
100
AcDbEntity
  8
0
100
AcDbCircle
 62
7
  6
CONTINUOUS
 10
9.8548073017
 20
5.5960721808
 40
0.4954003359
100
AcDbArc
 50
215.458222259
 51
218.6031684624
  0
ARC
  5
25A
100
AcDbEntity
  8
0
100
AcDbCircle
 62
7
  6
CONTINUOUS
 10
10.6177627658
 20
4.5655560692
 40
0.3746977857
100
AcDbArc
 50
273.0208669901
 51
273.9673561774
  0
ARC
  5
25B
100
AcDbEntity
  8
0
100
AcDbCircle
 62
7
  6
CONTINUOUS
 10
10.6190643121
 20
4.5464826067
 40
0.3555799794
100
AcDbArc
 50
273.9707769452
 51
275.0606381262
  0
ARC
  5
25C
100
AcDbEntity
  8
0
100
AcDbCircle
 62
7
  6
CONTINUOUS
 10
9.6604007759
 20
7.9412768187
 40
0.093
100
AcDbArc
 50
184.8096995457
 51
270.0
  0
ARC
  5
25D
100
AcDbEntity
  8
0
100
AcDbCircle
 62
7
  6
CONTINUOUS
 10
9.7124474414
 20
4.4478182296
 40
0.09
100
AcDbArc
 50
192.5788909255
 51
252.5600569007
  0
ARC
  5
25E
100
AcDbEntity
  8
0
100
AcDbCircle
 62
7
  6
CONTINUOUS
 10
9.5143728046
 20
9.5200700284
 40
0.6119253632
100
AcDbArc
 50
146.9521644936
 51
214.9889904702
  0
ARC
  5
25F
100
AcDbEntity
  8
0
100
AcDbCircle
 62
7
  6
CONTINUOUS
 10
7.8783557748
 20
12.9092768187
 40
0.5614083333
100
AcDbArc
 50
180.0
 51
267.8145949287
  0
ARC
  5
260
100
AcDbEntity
  8
0
100
AcDbCircle
 62
7
  6
CONTINUOUS
 10
8.41793942
 20
12.3452768187
 40
0.561
100
AcDbArc
 50
179.6936039968
 51
270.0
  0
ARC
  5
261
100
AcDbEntity
  8
0
100
AcDbCircle
 62
7
  6
CONTINUOUS
 10
8.5701238405
 20
10.1343938924
 40
0.5145736009
100
AcDbArc
 50
326.9521644936
 51
45.0826423158
  0
ARC
  5
262
100
AcDbEntity
  8
0
100
AcDbCircle
 62
7
  6
CONTINUOUS
 10
10.8569474414
 20
8.0910197304
 40
3.9087429116
100
AcDbArc
 50
266.8753570186
 51
273.1246429814
  0
ARC
  5
263
100
AcDbEntity
  8
0
100
AcDbCircle
 62
7
  6
CONTINUOUS
 10
10.8569474414
 20
8.0910197304
 40
3.9087429116
100
AcDbArc
 50
274.0782005799
 51
287.4399430993
  0
ARC
  5
264
100
AcDbEntity
  8
0
100
AcDbCircle
 62
7
  6
CONTINUOUS
 10
10.8569474414
 20
8.0910197304
 40
3.9087429116
100
AcDbArc
 50
252.5600569007
 51
265.9217994201
  0
ARC
  5
265
100
AcDbEntity
  8
0
100
AcDbCircle
 62
7
  6
CONTINUOUS
 10
10.8569474414
 20
8.0910197304
 40
3.9057429116
100
AcDbArc
 50
273.1270454036
 51
273.2151766703
  0
ARC
  5
266
100
AcDbEntity
  8
0
100
AcDbCircle
 62
7
  6
CONTINUOUS
 10
10.8569474414
 20
8.0910197304
 40
3.9057429116
100
AcDbArc
 50
266.7883746195
 51
266.8729545964
  0
ARC
  5
267
100
AcDbEntity
  8
0
100
AcDbCircle
 62
7
  6
CONTINUOUS
 10
15.2973641081
 20
5.7062768187
 40
2.8354166667
100
AcDbArc
 50
167.4730187713
 51
170.8290585337
  0
ARC
  5
268
100
AcDbEntity
  8
0
100
AcDbCircle
 62
7
  6
CONTINUOUS
 10
15.2973641081
 20
5.7062768187
 40
2.8354166667
100
AcDbArc
 50
189.1701089548
 51
192.5269812287
  0
ARC
  5
269
100
AcDbEntity
  8
0
100
AcDbCircle
 62
7
  6
CONTINUOUS
 10
14.0145641477
 20
7.7762668331
 40
1.875
100
AcDbArc
 50
145.0110095298
 51
175.1903004544
  0
ARC
  5
26A
100
AcDbEntity
  8
0
100
AcDbCircle
 62
7
  6
CONTINUOUS
 10
13.3654087477
 20
5.7062768187
 40
0.825
100
AcDbArc
 50
215.7906197352
 51
144.2093802648
  0
ARC
  5
26B
100
AcDbEntity
  8
0
100
AcDbCircle
 62
7
  6
CONTINUOUS
 10
11.0354370271
 20
4.8101653504
 40
0.6230374398
100
AcDbArc
 50
273.1984114283
 51
276.2636851035
  0
ARC
  5
26C
100
AcDbEntity
  8
0
100
AcDbCircle
 62
7
  6
CONTINUOUS
 10
11.786444826
 20
5.6365446698
 40
0.5796058346
100
AcDbArc
 50
325.4701139487
 51
331.4134644934
  0
ARC
  5
26D
100
AcDbEntity
  8
0
100
AcDbCircle
 62
7
  6
CONTINUOUS
 10
11.786589103
 20
5.7761007769
 40
0.5794349246
100
AcDbArc
 50
28.6233367123
 51
34.5304053983
  0
ARC
  5
26E
100
AcDbEntity
  8
0
100
AcDbCircle
 62
7
  6
CONTINUOUS
 10
11.8200272596
 20
5.6234688724
 40
0.5431095219
100
AcDbArc
 50
324.5737785335
 51
330.830850435
  0
ARC
  5
26F
100
AcDbEntity
  8
0
100
AcDbCircle
 62
7
  6
CONTINUOUS
 10
11.8201706881
 20
5.7891792019
 40
0.5429379075
100
AcDbArc
 50
29.2031494538
 51
35.4267854169
  0
ARC
  5
270
100
AcDbEntity
  8
0
100
AcDbCircle
 62
7
  6
CONTINUOUS
 10
11.8551052378
 20
5.5990740593
 40
0.5003854411
100
AcDbArc
 50
321.4127187537
 51
324.5217167512
  0
ARC
  5
271
100
AcDbEntity
  8
0
100
AcDbCircle
 62
7
  6
CONTINUOUS
 10
11.8591396274
 20
5.816523322
 40
0.4953335418
100
AcDbArc
 50
35.4623282928
 51
38.6031401955
  0
ARC
  5
272
100
AcDbEntity
  8
0
100
AcDbCircle
 62
7
  6
CONTINUOUS
 10
11.0949207087
 20
4.5478129192
 40
0.3569133313
100
AcDbArc
 50
265.4001836718
 51
265.9968342274
  0
ARC
  5
273
100
AcDbEntity
  8
0
100
AcDbCircle
 62
7
  6
CONTINUOUS
 10
12.7753253869
 20
5.9763289799
 40
0.3179478388
100
AcDbArc
 50
87.8228018428
 51
89.9994258975
  0
ARC
  5
274
100
AcDbEntity
  8
0
100
AcDbCircle
 62
7
  6
CONTINUOUS
 10
12.7753254564
 20
5.436224495
 40
0.3179476763
100
AcDbArc
 50
270.000561584
 51
272.1627149266
  0
ARC
  5
275
100
AcDbEntity
  8
0
100
AcDbCircle
 62
7
  6
CONTINUOUS
 10
12.053494107
 20
7.9412768187
 40
0.093
100
AcDbArc
 50
270.0
 51
355.1903004543
  0
ARC
  5
276
100
AcDbEntity
  8
0
100
AcDbCircle
 62
7
  6
CONTINUOUS
 10
12.0014474414
 20
4.4478182296
 40
0.09
100
AcDbArc
 50
287.4399430993
 51
347.4211090745
  0
ARC
  5
277
100
AcDbEntity
  8
0
100
AcDbCircle
 62
7
  6
CONTINUOUS
 10
12.1995220782
 20
9.5200700284
 40
0.6119253632
100
AcDbArc
 50
325.0110095298
 51
33.0478355064
  0
ARC
  5
278
100
AcDbEntity
  8
0
100
AcDbCircle
 62
7
  6
CONTINUOUS
 10
13.8355391081
 20
12.9092768187
 40
0.5614083333
100
AcDbArc
 50
272.1854050713
 51
360.0
  0
ARC
  5
279
100
AcDbEntity
  8
0
100
AcDbCircle
 62
7
  6
CONTINUOUS
 10
13.2959554629
 20
12.3452768187
 40
0.561
100
AcDbArc
 50
270.0
 51
0.3063960032
  0
ARC
  5
27A
100
AcDbEntity
  8
0
100
AcDbCircle
 62
7
  6
CONTINUOUS
 10
13.1437710423
 20
10.1343938924
 40
0.5145736009
100
AcDbArc
 50
134.9173576842
 51
213.0478355064
  0
SPLINE
  5
27B
100
AcDbEntity
  8
0
100
AcDbSpline
 62
7
  6
CONTINUOUS
 70
0
 71
3
 72
36
 73
32
 74
0
 42
0.0000001
 43
0.0000001
 44
0.0000000001
 40
0.0
 40
0.0
 40
0.0
 40
0.0
 40
0.0296259093
 40
0.0607854692
 40
0.0933181843
 40
0.1270695532
 40
0.1618928452
 40
0.1976438841
 40
0.2341799355
 40
0.2713605288
 40
0.3090483343
 40
0.3471107188
 40
0.4238265724
 40
0.4622246295
 40
0.5004713671
 40
0.5384366467
 40
0.5759889197
 40
0.6493006922
 40
0.6847886481
 40
0.719306451
 40
0.7848442377
 40
0.8155641808
 40
0.8447010513
 40
0.8720886144
 40
0.8975575842
 40
0.9209358436
 40
0.9420446602
 40
0.9606978642
 40
0.9767028502
 40
0.9898641044
 40
1.0
 40
1.0
 40
1.0
 40
1.0
 10
9.2851486049
 20
6.0519839057
 30
0.0
 10
9.2866384519
 20
6.0514359294
 30
0.0
 10
9.2897123724
 20
6.0503575816
 30
0.0
 10
9.2944777098
 20
6.0488408558
 30
0.0
 10
9.2994985862
 20
6.0474053018
 30
0.0
 10
9.3047514271
 20
6.0460760838
 30
0.0
 10
9.3102100272
 20
6.0448673337
 30
0.0
 10
9.3158483053
 20
6.0437912552
 30
0.0
 10
9.3216403903
 20
6.042860572
 30
0.0
 10
9.3275603166
 20
6.0420875401
 30
0.0
 10
9.3335824137
 20
6.0414856874
 30
0.0
 10
9.3417332634
 20
6.0409205567
 30
0.0
 10
9.3499439062
 20
6.0407155814
 30
0.0
 10
9.3581607499
 20
6.0408703157
 30
0.0
 10
9.3642955989
 20
6.0411676673
 30
0.0
 10
9.3703733861
 20
6.0416482257
 30
0.0
 10
9.3783014523
 20
6.0425167898
 30
0.0
 10
9.3860572883
 20
6.0437110112
 30
0.0
 10
9.3935889143
 20
6.0452144211
 30
0.0
 10
9.4006665928
 20
6.0468474477
 30
0.0
 10
9.4074210052
 20
6.048731769
 30
0.0
 10
9.4138061242
 20
6.0508255664
 30
0.0
 10
9.4182045487
 20
6.0524110611
 30
0.0
 10
9.4222928911
 20
6.0540213612
 30
0.0
 10
9.4260467527
 20
6.0556337471
 30
0.0
 10
9.4294444836
 20
6.0572181116
 30
0.0
 10
9.4324680006
 20
6.0587372064
 30
0.0
 10
9.4350986225
 20
6.060155356
 30
0.0
 10
9.4373184337
 20
6.0614358753
 30
0.0
 10
9.439109291
 20
6.0625444964
 30
0.0
 10
9.4401504451
 20
6.0632335698
 30
0.0
 10
9.4405983403
 20
6.0635407395
 30
0.0
  0
SPLINE
  5
27C
100
AcDbEntity
  8
0
100
AcDbSpline
 62
7
  6
CONTINUOUS
 70
0
 71
3
 72
33
 73
29
 74
0
 42
0.0000001
 43
0.0000001
 44
0.0000000001
 40
0.0
 40
0.0
 40
0.0
 40
0.0
 40
0.0354974499
 40
0.0709682779
 40
0.1416123144
 40
0.2116239227
 40
0.2807229988
 40
0.3486495817
 40
0.4151892038
 40
0.4478924639
 40
0.4801919111
 40
0.5120759738
 40
0.5435376422
 40
0.6051678566
 40
0.6353629807
 40
0.665151276
 40
0.6945475724
 40
0.7235715664
 40
0.7522461001
 40
0.7805985157
 40
0.8086592976
 40
0.8364618168
 40
0.8640427892
 40
0.8914395312
 40
0.9186925592
 40
0.9458422601
 40
0.9729305962
 40
1.0
 40
1.0
 40
1.0
 40
1.0
 10
9.368403972
 20
5.7062768187
 30
0.0
 10
9.368403972
 20
5.7159406516
 30
0.0
 10
9.3680582916
 20
5.735263102
 30
0.0
 10
9.3659926147
 20
5.7737665488
 30
0.0
 10
9.3608506178
 20
5.8214846206
 30
0.0
 10
9.3506123154
 20
5.8777139081
 30
0.0
 10
9.3364009202
 20
5.9323132757
 30
0.0
 10
9.3183335511
 20
5.9847625941
 30
0.0
 10
9.3000786549
 20
6.0265134379
 30
0.0
 10
9.2836622974
 20
6.0583507618
 30
0.0
 10
9.2705608672
 20
6.0812533663
 30
0.0
 10
9.2566247693
 20
6.1032600703
 30
0.0
 10
9.2371075173
 20
6.1311393301
 30
0.0
 10
9.2159106643
 20
6.1572472341
 30
0.0
 10
9.1931168247
 20
6.1812760107
 30
0.0
 10
9.1754524786
 20
6.1980286489
 30
0.0
 10
9.1571430715
 20
6.213585665
 30
0.0
 10
9.1382249394
 20
6.22790077
 30
0.0
 10
9.1187403447
 20
6.2409313021
 30
0.0
 10
9.0987326164
 20
6.2526336182
 30
0.0
 10
9.0782499265
 20
6.2629677109
 30
0.0
 10
9.0573439941
 20
6.2718960327
 30
0.0
 10
9.0360702791
 20
6.2793820374
 30
0.0
 10
9.0144896514
 20
6.2853977288
 30
0.0
 10
8.9926655024
 20
6.2899128894
 30
0.0
 10
8.9706659838
 20
6.2929116653
 30
0.0
 10
8.948562307
 20
6.2943758046
 30
0.0
 10
8.9338044427
 20
6.2943260279
 30
0.0
 10
8.9264404104
 20
6.2940453381
 30
0.0
  0
SPLINE
  5
27D
100
AcDbEntity
  8
0
100
AcDbSpline
 62
7
  6
CONTINUOUS
 70
0
 71
3
 72
49
 73
45
 74
0
 42
0.0000001
 43
0.0000001
 44
0.0000000001
 40
0.0
 40
0.0
 40
0.0
 40
0.0
 40
0.0000926944
 40
0.0002669219
 40
0.0007047994
 40
0.0014031201
 40
0.0023587321
 40
0.0035681949
 40
0.0050274969
 40
0.0067325999
 40
0.0086795037
 40
0.0108642473
 40
0.0159315795
 40
0.0219037824
 40
0.0287507339
 40
0.036443082
 40
0.044952251
 40
0.0542489444
 40
0.0643024862
 40
0.0750825166
 40
0.0865591594
 40
0.1114846733
 40
0.1388521567
 40
0.1684429509
 40
0.2000429107
 40
0.233442601
 40
0.2684387402
 40
0.3048365045
 40
0.3424508915
 40
0.3810997501
 40
0.4607745526
 40
0.542483296
 40
0.5836886515
 40
0.6249019206
 40
0.6659566682
 40
0.7066880086
 40
0.7469292856
 40
0.7865082744
 40
0.8252489026
 40
0.8629724957
 40
0.8994989549
 40
0.934643864
 40
0.968211898
 40
1.0
 40
1.0
 40
1.0
 40
1.0
 10
9.442007578
 20
5.3480018605
 30
0.0
 10
9.442011498
 20
5.3479987123
 30
0.0
 10
9.4420297495
 20
5.347984364
 30
0.0
 10
9.4419737144
 20
5.3480289098
 30
0.0
 10
9.4419371552
 20
5.3480568497
 30
0.0
 10
9.4418364428
 20
5.3481340306
 30
0.0
 10
9.441716595
 20
5.3482235048
 30
0.0
 10
9.4415564892
 20
5.3483413036
 30
0.0
 10
9.4413648323
 20
5.3484797941
 30
0.0
 10
9.4411386894
 20
5.3486406134
 30
0.0
 10
9.4408793558
 20
5.3488220373
 30
0.0
 10
9.4404683318
 20
5.3491049467
 30
0.0
 10
9.4398726633
 20
5.3495045248
 30
0.0
 10
9.4390587591
 20
5.3500325511
 30
0.0
 10
9.4381159898
 20
5.3506232872
 30
0.0
 10
9.4370460321
 20
5.3512699067
 30
0.0
 10
9.4358505584
 20
5.3519653679
 30
0.0
 10
9.4345318879
 20
5.3527033303
 30
0.0
 10
9.4330930798
 20
5.3534783956
 30
0.0
 10
9.4315371479
 20
5.3542848989
 30
0.0
 10
9.429246665
 20
5.3554264251
 30
0.0
 10
9.4261136948
 20
5.3568934396
 30
0.0
 10
9.4220312252
 20
5.3586442133
 30
0.0
 10
9.4175560335
 20
5.360391239
 30
0.0
 10
9.412719297
 20
5.3621047496
 30
0.0
 10
9.4075512194
 20
5.3637529507
 30
0.0
 10
9.4020822623
 20
5.3653048222
 30
0.0
 10
9.3963427656
 20
5.3667287894
 30
0.0
 10
9.3903665399
 20
5.3680082233
 30
0.0
 10
9.3820428328
 20
5.3695150307
 30
0.0
 10
9.371278291
 20
5.370933974
 30
0.0
 10
9.3603051938
 20
5.3716492543
 30
0.0
 10
9.3514033796
 20
5.3718063978
 30
0.0
 10
9.3447058533
 20
5.3717116777
 30
0.0
 10
9.338040509
 20
5.3714035645
 30
0.0
 10
9.3314415071
 20
5.3708793125
 30
0.0
 10
9.3249428368
 20
5.370148196
 30
0.0
 10
9.3185777006
 20
5.3692256881
 30
0.0
 10
9.3123794915
 20
5.3681257068
 30
0.0
 10
9.3063814644
 20
5.3668629807
 30
0.0
 10
9.3006174433
 20
5.3654507305
 30
0.0
 10
9.2951206907
 20
5.3639083139
 30
0.0
 10
9.2899214054
 20
5.3622680432
 30
0.0
 10
9.2865755627
 20
5.3610950014
 30
0.0
 10
9.2849580741
 20
5.3604980256
 30
0.0
  0
SPLINE
  5
27E
100
AcDbEntity
  8
0
100
AcDbSpline
 62
7
  6
CONTINUOUS
 70
0
 71
3
 72
33
 73
29
 74
0
 42
0.0000001
 43
0.0000001
 44
0.0000000001
 40
0.0
 40
0.0
 40
0.0
 40
0.0
 40
0.0270709073
 40
0.0541601381
 40
0.0813103635
 40
0.1085633186
 40
0.1359596847
 40
0.1635399087
 40
0.1913413079
 40
0.2194008715
 40
0.2477517526
 40
0.2764247382
 40
0.3054470472
 40
0.3348416891
 40
0.3646284012
 40
0.3948220216
 40
0.4564496983
 40
0.4879103986
 40
0.5197937475
 40
0.5520927365
 40
0.5847958067
 40
0.6513358617
 40
0.7192639398
 40
0.7883654531
 40
0.858380211
 40
0.9290278938
 40
0.9645006278
 40
1.0
 40
1.0
 40
1.0
 40
1.0
 10
8.9261206441
 20
5.1185207678
 30
0.0
 10
8.9334876818
 20
5.1182325218
 30
0.0
 10
8.9482519401
 20
5.118167728
 30
0.0
 10
8.9703664463
 20
5.1196118072
 30
0.0
 10
8.9923777525
 20
5.1225911873
 30
0.0
 10
9.0142144398
 20
5.1270890369
 30
0.0
 10
9.035808226
 20
5.1330889883
 30
0.0
 10
9.057095716
 20
5.1405606738
 30
0.0
 10
9.0780156003
 20
5.1494768829
 30
0.0
 10
9.0985127194
 20
5.1598000087
 30
0.0
 10
9.1185347614
 20
5.1714935461
 30
0.0
 10
9.1380338866
 20
5.1845165445
 30
0.0
 10
9.1569663103
 20
5.1988259827
 30
0.0
 10
9.1752899085
 20
5.2143787713
 30
0.0
 10
9.1929682019
 20
5.2311287023
 30
0.0
 10
9.2157803065
 20
5.2551559351
 30
0.0
 10
9.2369945111
 20
5.2812650619
 30
0.0
 10
9.2565279543
 20
5.3091478606
 30
0.0
 10
9.270475724
 20
5.3311585687
 30
0.0
 10
9.2835882678
 20
5.3540662999
 30
0.0
 10
9.3000187336
 20
5.3859120746
 30
0.0
 10
9.3182894635
 20
5.4276760554
 30
0.0
 10
9.3363726089
 20
5.4801442309
 30
0.0
 10
9.35059652
 20
5.5347652167
 30
0.0
 10
9.360843903
 20
5.5910182015
 30
0.0
 10
9.3659904668
 20
5.6387571083
 30
0.0
 10
9.3680579838
 20
5.6772776189
 30
0.0
 10
9.368403972
 20
5.6966086789
 30
0.0
 10
9.368403972
 20
5.7062768187
 30
0.0
  0
SPLINE
  5
27F
100
AcDbEntity
  8
0
100
AcDbSpline
 62
7
  6
CONTINUOUS
 70
0
 71
3
 72
15
 73
11
 74
0
 42
0.0000001
 43
0.0000001
 44
0.0000000001
 40
0.0
 40
0.0
 40
0.0
 40
0.0
 40
0.1072583422
 40
0.2218143651
 40
0.3424199417
 40
0.4678553518
 40
0.5970426413
 40
0.7292417455
 40
0.8637804001
 40
1.0
 40
1.0
 40
1.0
 40
1.0
 10
12.4276339003
 20
5.3609781316
 30
0.0
 10
12.4254128868
 20
5.3617771706
 30
0.0
 10
12.4207808779
 20
5.3633232224
 30
0.0
 10
12.4135347869
 20
5.3653990896
 30
0.0
 10
12.4058189804
 20
5.3672633137
 30
0.0
 10
12.3977146113
 20
5.3688594637
 30
0.0
 10
12.3892954269
 20
5.3701350925
 30
0.0
 10
12.3806302006
 20
5.3710704082
 30
0.0
 10
12.3717786824
 20
5.3716460024
 30
0.0
 10
12.3658194624
 20
5.3717768187
 30
0.0
 10
12.3628217546
 20
5.3717768187
 30
0.0
  0
SPLINE
  5
280
100
AcDbEntity
  8
0
100
AcDbSpline
 62
7
  6
CONTINUOUS
 70
0
 71
3
 72
16
 73
12
 74
0
 42
0.0000001
 43
0.0000001
 44
0.0000000001
 40
0.0
 40
0.0
 40
0.0
 40
0.0
 40
0.136442391
 40
0.2711251485
 40
0.403367493
 40
0.5324710281
 40
0.5956287228
 40
0.6577311073
 40
0.7782156864
 40
0.8927271396
 40
1.0
 40
1.0
 40
1.0
 40
1.0
 10
12.3628217546
 20
6.0407768187
 30
0.0
 10
12.365826516
 20
6.0407768187
 30
0.0
 10
12.3717980872
 20
6.0409089418
 30
0.0
 10
12.3806647939
 20
6.0414883551
 30
0.0
 10
12.3893381954
 20
6.0424266951
 30
0.0
 10
12.3964061898
 20
6.0434977396
 30
0.0
 10
12.4019144006
 20
6.0445188271
 30
0.0
 10
12.4072126209
 20
6.0456237878
 30
0.0
 10
12.4135730806
 20
6.047166895
 30
0.0
 10
12.4208188627
 20
6.0492508841
 30
0.0
 10
12.4254538465
 20
6.050796641
 30
0.0
 10
12.4276774737
 20
6.051594351
 30
0.0
  0
SPLINE
  5
281
100
AcDbEntity
  8
0
100
AcDbSpline
 62
7
  6
CONTINUOUS
 70
0
 71
3
 72
57
 73
53
 74
0
 42
0.0000001
 43
0.0000001
 44
0.0000000001
 40
0.0
 40
0.0
 40
0.0
 40
0.0
 40
0.0135069132
 40
0.0270321409
 40
0.0405983027
 40
0.0542260799
 40
0.0679339751
 40
0.0817405212
 40
0.0956640136
 40
0.1097211016
 40
0.1239277322
 40
0.1382976199
 40
0.1528433049
 40
0.167575333
 40
0.1825021964
 40
0.1976305289
 40
0.2284981312
 40
0.2601980291
 40
0.2927065113
 40
0.3259689451
 40
0.3599033635
 40
0.3770934634
 40
0.3944102109
 40
0.4118375734
 40
0.4293584253
 40
0.464603334
 40
0.5000018441
 40
0.5354003261
 40
0.5706451472
 40
0.588165917
 40
0.6055931988
 40
0.6229098398
 40
0.6400998123
 40
0.674033969
 40
0.7072961018
 40
0.7398042487
 40
0.7715037998
 40
0.8023710309
 40
0.8174991835
 40
0.8324258757
 40
0.8471577275
 40
0.8617032595
 40
0.8760729847
 40
0.8902794726
 40
0.9043364355
 40
0.9182598071
 40
0.9320662536
 40
0.9457740462
 40
0.9594017507
 40
0.9729678994
 40
0.9864931472
 40
1.0
 40
1.0
 40
1.0
 40
1.0
 10
12.7753285727
 20
6.2942768187
 30
0.0
 10
12.7680835902
 20
6.2942768187
 30
0.0
 10
12.753578966
 20
6.2937800254
 30
0.0
 10
12.7319005844
 20
6.2915523806
 30
0.0
 10
12.7103584488
 20
6.2878487496
 30
0.0
 10
12.6890180595
 20
6.2826882019
 30
0.0
 10
12.6679420476
 20
6.2760919894
 30
0.0
 10
12.6471907492
 20
6.2680859111
 30
0.0
 10
12.6268184887
 20
6.2587036562
 30
0.0
 10
12.6068776461
 20
6.2479769029
 30
0.0
 10
12.5874144533
 20
6.2359454758
 30
0.0
 10
12.5684739112
 20
6.2226465916
 30
0.0
 10
12.5500961649
 20
6.2081222353
 30
0.0
 10
12.5323191541
 20
6.1924146715
 30
0.0
 10
12.5151783941
 20
6.175566428
 30
0.0
 10
12.4930710502
 20
6.1514848039
 30
0.0
 10
12.4672231004
 20
6.1187030333
 30
0.0
 10
12.4394674298
 20
6.0758403398
 30
0.0
 10
12.4149618352
 20
6.0295844056
 30
0.0
 10
12.3938930215
 20
5.9803667051
 30
0.0
 10
12.3793934775
 20
5.9374361475
 30
0.0
 10
12.3696273566
 20
5.9020406821
 30
0.0
 10
12.3632194948
 20
5.8749238545
 30
0.0
 10
12.3577756038
 20
5.8474165688
 30
0.0
 10
12.3518041956
 20
5.8102353301
 30
0.0
 10
12.3468199717
 20
5.7631646173
 30
0.0
 10
12.3448251145
 20
5.7062738578
 30
0.0
 10
12.3468203562
 20
5.6493831612
 30
0.0
 10
12.3518048571
 20
5.6023125808
 30
0.0
 10
12.3577766299
 20
5.5651315365
 30
0.0
 10
12.3632206672
 20
5.5376244289
 30
0.0
 10
12.3696286265
 20
5.5105077962
 30
0.0
 10
12.3793950614
 20
5.4751126929
 30
0.0
 10
12.3938947076
 20
5.4321825662
 30
0.0
 10
12.4149636484
 20
5.3829654416
 30
0.0
 10
12.4394692712
 20
5.3367101221
 30
0.0
 10
12.4672248906
 20
5.2938480659
 30
0.0
 10
12.4930727632
 20
5.2610668543
 30
0.0
 10
12.5151799237
 20
5.2369855864
 30
0.0
 10
12.5323206087
 20
5.220137672
 30
0.0
 10
12.5500974241
 20
5.2044302925
 30
0.0
 10
12.5684750667
 20
5.1899062301
 30
0.0
 10
12.587415413
 20
5.1766074976
 30
0.0
 10
12.6068784568
 20
5.1645762655
 30
0.0
 10
12.6268191456
 20
5.1538496706
 30
0.0
 10
12.6471912409
 20
5.1444674987
 30
0.0
 10
12.6679424024
 20
5.1364615486
 30
0.0
 10
12.6890182649
 20
5.1298653554
 30
0.0
 10
12.7103585629
 20
5.1247048559
 30
0.0
 10
12.7319006666
 20
5.1210012501
 30
0.0
 10
12.7535790204
 20
5.1187736182
 30
0.0
 10
12.7680836226
 20
5.1182768187
 30
0.0
 10
12.7753285727
 20
5.1182768187
 30
0.0
  0
SPLINE
  5
282
100
AcDbEntity
  8
0
100
AcDbSpline
 62
7
  6
CONTINUOUS
 70
0
 71
3
 72
49
 73
45
 74
0
 42
0.0000001
 43
0.0000001
 44
0.0000000001
 40
0.0
 40
0.0
 40
0.0
 40
0.0
 40
0.007133196
 40
0.0131904426
 40
0.0158209513
 40
0.0181888444
 40
0.0202961903
 40
0.0221450298
 40
0.0250751994
 40
0.0269951303
 40
0.0275810553
 40
0.02792017
 40
0.0280148738
 40
0.02816199
 40
0.0285482594
 40
0.0291710857
 40
0.0300278887
 40
0.0311161093
 40
0.0324332102
 40
0.0339766772
 40
0.0377327534
 40
0.0423647067
 40
0.0478532928
 40
0.0541796813
 40
0.0613254617
 40
0.0692714214
 40
0.0779964121
 40
0.0976988292
 40
0.1202670277
 40
0.1455397057
 40
0.1733607961
 40
0.2035790506
 40
0.2360455649
 40
0.2706141826
 40
0.3071421504
 40
0.3454906318
 40
0.427096732
 40
0.514313484
 40
0.6060175874
 40
0.6532149257
 40
0.7011531764
 40
0.7989321091
 40
0.8987476557
 40
1.0
 40
1.0
 40
1.0
 40
1.0
 10
12.2739173227
 20
6.062726447
 30
0.0
 10
12.2737485091
 20
6.0628872043
 30
0.0
 10
12.2734347416
 20
6.0631827981
 30
0.0
 10
12.2730542871
 20
6.0635329031
 30
0.0
 10
12.2727861474
 20
6.0637750785
 30
0.0
 10
12.2726129166
 20
6.0639296655
 30
0.0
 10
12.2724578003
 20
6.0640664234
 30
0.0
 10
12.2722884623
 20
6.0642139338
 30
0.0
 10
12.2721203859
 20
6.06435789
 30
0.0
 10
12.2719882234
 20
6.0644685058
 30
0.0
 10
12.2719117087
 20
6.064531509
 30
0.0
 10
12.27189128
 20
6.0645480412
 30
0.0
 10
12.2718697504
 20
6.064565793
 30
0.0
 10
12.2718980556
 20
6.0645436741
 30
0.0
 10
12.271918817
 20
6.0645277762
 30
0.0
 10
12.2719721678
 20
6.0644867344
 30
0.0
 10
12.2720368415
 20
6.0644376586
 30
0.0
 10
12.272122869
 20
6.0643729419
 30
0.0
 10
12.2722261268
 20
6.0642961613
 30
0.0
 10
12.2724004612
 20
6.0641679647
 30
0.0
 10
12.2726635528
 20
6.0639780685
 30
0.0
 10
12.2730342939
 20
6.0637168274
 30
0.0
 10
12.2734772653
 20
6.0634124233
 30
0.0
 10
12.273992153
 20
6.06306766
 30
0.0
 10
12.2745785578
 20
6.0626854701
 30
0.0
 10
12.2752358785
 20
6.0622686334
 30
0.0
 10
12.2762472797
 20
6.0616440763
 30
0.0
 10
12.2776810932
 20
6.0607943452
 30
0.0
 10
12.2796055347
 20
6.0597128907
 30
0.0
 10
12.281788998
 20
6.0585520786
 30
0.0
 10
12.2842233092
 20
6.0573321324
 30
0.0
 10
12.286899423
 20
6.0560719021
 30
0.0
 10
12.2898062013
 20
6.0547859847
 30
0.0
 10
12.2929328616
 20
6.0534896811
 30
0.0
 10
12.2962685214
 20
6.0521980806
 30
0.0
 10
12.3010805972
 20
6.0504661531
 30
0.0
 10
12.3075354888
 20
6.0484140783
 30
0.0
 10
12.3157638139
 20
6.0462161357
 30
0.0
 10
12.3229867307
 20
6.0446417438
 30
0.0
 10
12.3289956726
 20
6.0435551213
 30
0.0
 10
12.3352254669
 20
6.0425845659
 30
0.0
 10
12.3431963494
 20
6.041634823
 30
0.0
 10
12.3529408996
 20
6.0409360123
 30
0.0
 10
12.359512848
 20
6.0407768187
 30
0.0
 10
12.3628217546
 20
6.0407768187
 30
0.0
  0
SPLINE
  5
283
100
AcDbEntity
  8
0
100
AcDbSpline
 62
7
  6
CONTINUOUS
 70
0
 71
3
 72
23
 73
19
 74
0
 42
0.0000001
 43
0.0000001
 44
0.0000000001
 40
0.0
 40
0.0
 40
0.0
 40
0.0
 40
0.1730074595
 40
0.2576804867
 40
0.3406312847
 40
0.4214843661
 40
0.4998237275
 40
0.5750560215
 40
0.6465199282
 40
0.7135353066
 40
0.7754133372
 40
0.831484548
 40
0.8810652275
 40
0.9234393446
 40
0.9578784278
 40
0.9836545042
 40
0.9930558812
 40
1.0
 40
1.0
 40
1.0
 40
1.0
 10
12.3628217546
 20
5.3717768187
 30
0.0
 10
12.3573601447
 20
5.3717768187
 30
0.0
 10
12.3492207524
 20
5.3714507785
 30
0.0
 10
12.3385180228
 20
5.3703916497
 30
0.0
 10
12.3307458625
 20
5.3693159471
 30
0.0
 10
12.3232190817
 20
5.3679700993
 30
0.0
 10
12.3159912088
 20
5.3663718524
 30
0.0
 10
12.3091181424
 20
5.3645680687
 30
0.0
 10
12.3026613084
 20
5.362606533
 30
0.0
 10
12.2966828209
 20
5.3605366584
 30
0.0
 10
12.2912457556
 20
5.3584030675
 30
0.0
 10
12.2864026725
 20
5.3562748674
 30
0.0
 10
12.282199004
 20
5.3542312424
 30
0.0
 10
12.2786796975
 20
5.3523486609
 30
0.0
 10
12.2758883579
 20
5.3507047795
 30
0.0
 10
12.2740373007
 20
5.3495190562
 30
0.0
 10
12.2729391467
 20
5.3487691397
 30
0.0
 10
12.2725182109
 20
5.3484706259
 30
0.0
 10
12.2723408196
 20
5.3483418309
 30
0.0
  0
SPLINE
  5
284
100
AcDbEntity
  8
0
100
AcDbSpline
 62
7
  6
CONTINUOUS
 70
0
 71
3
 72
41
 73
37
 74
0
 42
0.0000001
 43
0.0000001
 44
0.0000000001
 40
0.0
 40
0.0
 40
0.0
 40
0.0
 40
0.0115934747
 40
0.0182585914
 40
0.0255929767
 40
0.0336455761
 40
0.0424484418
 40
0.0520210422
 40
0.0623747673
 40
0.0854368296
 40
0.1116020435
 40
0.140766463
 40
0.1727732556
 40
0.207420398
 40
0.2444718185
 40
0.283650461
 40
0.3246565297
 40
0.4107916929
 40
0.5
 40
0.5892083071
 40
0.6753434703
 40
0.716349539
 40
0.7555281815
 40
0.792579602
 40
0.8272267444
 40
0.859233537
 40
0.8883979565
 40
0.9145631704
 40
0.9376252327
 40
0.9479789578
 40
0.9575515581
 40
0.9663544239
 40
0.9744070233
 40
0.9817414086
 40
0.9884065253
 40
1.0
 40
1.0
 40
1.0
 40
1.0
 10
10.7972265581
 20
4.280403868
 30
0.0
 10
10.7974160337
 20
4.2808469309
 30
0.0
 10
10.7978446906
 20
4.2814902169
 30
0.0
 10
10.7985784654
 20
4.2822605244
 30
0.0
 10
10.7992749598
 20
4.282859044
 30
0.0
 10
10.8000901783
 20
4.2834489354
 30
0.0
 10
10.8010232667
 20
4.2840300443
 30
0.0
 10
10.802072501
 20
4.2846013344
 30
0.0
 10
10.8036829827
 20
4.2853766755
 30
0.0
 10
10.8059829368
 20
4.2863020245
 30
0.0
 10
10.8090795363
 20
4.2873209106
 30
0.0
 10
10.8125834682
 20
4.2882749437
 30
0.0
 10
10.8164685713
 20
4.2891555396
 30
0.0
 10
10.8207051922
 20
4.2899545022
 30
0.0
 10
10.8252595188
 20
4.2906638793
 30
0.0
 10
10.8300942567
 20
4.2912771108
 30
0.0
 10
10.8369732026
 20
4.2919688436
 30
0.0
 10
10.8459507217
 20
4.2925434146
 30
0.0
 10
10.8569474414
 20
4.2927731887
 30
0.0
 10
10.8679441612
 20
4.2925434146
 30
0.0
 10
10.8769216803
 20
4.2919688436
 30
0.0
 10
10.8838006262
 20
4.2912771108
 30
0.0
 10
10.8886353641
 20
4.2906638793
 30
0.0
 10
10.8931896907
 20
4.2899545022
 30
0.0
 10
10.8974263116
 20
4.2891555396
 30
0.0
 10
10.9013114146
 20
4.2882749437
 30
0.0
 10
10.9048153465
 20
4.2873209106
 30
0.0
 10
10.907911946
 20
4.2863020245
 30
0.0
 10
10.9102119002
 20
4.2853766755
 30
0.0
 10
10.9118223819
 20
4.2846013344
 30
0.0
 10
10.9128716161
 20
4.2840300443
 30
0.0
 10
10.9138047046
 20
4.2834489354
 30
0.0
 10
10.9146199231
 20
4.282859044
 30
0.0
 10
10.9153164174
 20
4.2822605244
 30
0.0
 10
10.9160501923
 20
4.2814902169
 30
0.0
 10
10.9164788492
 20
4.2808469309
 30
0.0
 10
10.9166683247
 20
4.280403868
 30
0.0
  0
SPLINE
  5
285
100
AcDbEntity
  8
0
100
AcDbSpline
 62
7
  6
CONTINUOUS
 70
0
 71
3
 72
23
 73
19
 74
0
 42
0.0000001
 43
0.0000001
 44
0.0000000001
 40
0.0
 40
0.0
 40
0.0
 40
0.0
 40
0.0574689373
 40
0.1140339905
 40
0.1700341633
 40
0.225826662
 40
0.2817782008
 40
0.3382541859
 40
0.3956118186
 40
0.4541933748
 40
0.5143206879
 40
0.5762907003
 40
0.6403732798
 40
0.7068103545
 40
0.7758161605
 40
0.8475783768
 40
0.9222597493
 40
1.0
 40
1.0
 40
1.0
 40
1.0
 10
10.9166683247
 20
4.280403868
 30
0.0
 10
10.9180495144
 20
4.2771741424
 30
0.0
 10
10.9210272581
 20
4.2708634394
 30
0.0
 10
10.9261825138
 20
4.2618272875
 30
0.0
 10
10.9319869637
 20
4.2533163064
 30
0.0
 10
10.9384421301
 20
4.2453357333
 30
0.0
 10
10.9455492752
 20
4.2378895512
 30
0.0
 10
10.9533085863
 20
4.2309813346
 30
0.0
 10
10.9617197289
 20
4.2246142769
 30
0.0
 10
10.9707816692
 20
4.218790786
 30
0.0
 10
10.9804930939
 20
4.2135128238
 30
0.0
 10
10.9908523595
 20
4.2087818566
 30
0.0
 10
11.001857558
 20
4.204599031
 30
0.0
 10
11.0135065082
 20
4.2009652651
 30
0.0
 10
11.0257966798
 20
4.1978813106
 30
0.0
 10
11.0387252561
 20
4.1953477854
 30
0.0
 10
11.052288615
 20
4.1933652274
 30
0.0
 10
11.0615613888
 20
4.1924302867
 30
0.0
 10
11.0662977839
 20
4.1920491574
 30
0.0
  0
SPLINE
  5
286
100
AcDbEntity
  8
0
100
AcDbSpline
 62
7
  6
CONTINUOUS
 70
0
 71
3
 72
11
 73
7
 74
0
 42
0.0000001
 43
0.0000001
 44
0.0000000001
 40
0.0
 40
0.0
 40
0.0
 40
0.0
 40
0.2353016639
 40
0.4802554793
 40
0.7350926197
 40
1.0
 40
1.0
 40
1.0
 40
1.0
 10
11.0701915195
 20
4.1917573067
 30
0.0
 10
11.0752609134
 20
4.1914049702
 30
0.0
 10
11.0856236239
 20
4.1909022062
 30
0.0
 10
11.1015012247
 20
4.1907328071
 30
0.0
 10
11.1180139958
 20
4.1911331006
 30
0.0
 10
11.1292226816
 20
4.1917672286
 30
0.0
 10
11.1349291901
 20
4.192174094
 30
0.0
  0
SPLINE
  5
287
100
AcDbEntity
  8
0
100
AcDbSpline
 62
7
  6
CONTINUOUS
 70
0
 71
3
 72
11
 73
7
 74
0
 42
0.0000001
 43
0.0000001
 44
0.0000000001
 40
0.0
 40
0.0
 40
0.0
 40
0.0
 40
0.2633128141
 40
0.517649416
 40
0.7631534954
 40
1.0
 40
1.0
 40
1.0
 40
1.0
 10
10.5789656928
 20
4.192174094
 30
0.0
 10
10.5840946314
 20
4.1918084084
 30
0.0
 10
10.5941877766
 20
4.191222409
 30
0.0
 10
10.6090863682
 20
4.1907863253
 30
0.0
 10
10.6234746505
 20
4.19080868
 30
0.0
 10
10.632890518
 20
4.1911350598
 30
0.0
 10
10.6375092084
 20
4.1913789606
 30
0.0
  0
SPLINE
  5
288
100
AcDbEntity
  8
0
100
AcDbSpline
 62
7
  6
CONTINUOUS
 70
0
 71
3
 72
23
 73
19
 74
0
 42
0.0000001
 43
0.0000001
 44
0.0000000001
 40
0.0
 40
0.0
 40
0.0
 40
0.0
 40
0.077402544
 40
0.1517975899
 40
0.2233257586
 40
0.2921502599
 40
0.3584586938
 40
0.4224645493
 40
0.4844081772
 40
0.5445568914
 40
0.603204023
 40
0.6606666344
 40
0.7172811769
 40
0.7733980657
 40
0.8293751654
 40
0.8855712617
 40
0.9423356988
 40
1.0
 40
1.0
 40
1.0
 40
1.0
 10
10.6504300226
 20
4.1922887136
 30
0.0
 10
10.6550695489
 20
4.1927001925
 30
0.0
 10
10.6641533911
 20
4.1936917338
 30
0.0
 10
10.6774387504
 20
4.19574705
 30
0.0
 10
10.6901041457
 20
4.1983398046
 30
0.0
 10
10.7021461494
 20
4.2014694452
 30
0.0
 10
10.7135621106
 20
4.205135344
 30
0.0
 10
10.7243496443
 20
4.2093367402
 30
0.0
 10
10.7345066977
 20
4.2140727065
 30
0.0
 10
10.7440314769
 20
4.2193420926
 30
0.0
 10
10.7529224509
 20
4.2251434262
 30
0.0
 10
10.7611784088
 20
4.2314747699
 30
0.0
 10
10.7687984202
 20
4.2383337572
 30
0.0
 10
10.775782234
 20
4.2457172817
 30
0.0
 10
10.782130095
 20
4.2536218892
 30
0.0
 10
10.7878432797
 20
4.2620437495
 30
0.0
 10
10.7929232892
 20
4.2709778454
 30
0.0
 10
10.7958621526
 20
4.27721339
 30
0.0
 10
10.7972265581
 20
4.280403868
 30
0.0
  0
SPLINE
  5
289
100
AcDbEntity
  8
0
100
AcDbSpline
 62
7
  6
CONTINUOUS
 70
0
 71
3
 72
27
 73
23
 74
0
 42
0.0000001
 43
0.0000001
 44
0.0000000001
 40
0.0
 40
0.0
 40
0.0
 40
0.0
 40
0.1169550606
 40
0.1473088769
 40
0.178052443
 40
0.2091591275
 40
0.2406001434
 40
0.3043461567
 40
0.3690281622
 40
0.4343476264
 40
0.4671535692
 40
0.5
 40
0.5328464308
 40
0.5656523736
 40
0.6309718378
 40
0.6956538433
 40
0.7593998566
 40
0.7908408725
 40
0.821947557
 40
0.8526911231
 40
0.8830449394
 40
1.0
 40
1.0
 40
1.0
 40
1.0
 10
12.696202112
 20
5.2237963107
 30
0.0
 10
12.6728969205
 20
5.2561204071
 30
0.0
 10
12.6474261249
 20
5.2997928037
 30
0.0
 10
12.6223321025
 20
5.3550205152
 30
0.0
 10
12.6105033889
 20
5.3841371605
 30
0.0
 10
12.5997124095
 20
5.4140441561
 30
0.0
 10
12.5866846407
 20
5.4550656232
 30
0.0
 10
12.5731749411
 20
5.507892485
 30
0.0
 10
12.5615370875
 20
5.5729285463
 30
0.0
 10
12.5556872842
 20
5.6281431232
 30
0.0
 10
12.553335581
 20
5.6727138694
 30
0.0
 10
12.5527456155
 20
5.7062768187
 30
0.0
 10
12.553335581
 20
5.739839768
 30
0.0
 10
12.5556872842
 20
5.7844105143
 30
0.0
 10
12.5615370875
 20
5.8396250912
 30
0.0
 10
12.5731749411
 20
5.9046611525
 30
0.0
 10
12.5866846407
 20
5.9574880143
 30
0.0
 10
12.5997124095
 20
5.9985094814
 30
0.0
 10
12.6105033889
 20
6.028416477
 30
0.0
 10
12.6223321025
 20
6.0575331223
 30
0.0
 10
12.6474261249
 20
6.1127608338
 30
0.0
 10
12.6728969205
 20
6.1564332304
 30
0.0
 10
12.696202112
 20
6.1887573267
 30
0.0
  0
SPLINE
  5
28A
100
AcDbEntity
  8
0
100
AcDbSpline
 62
7
  6
CONTINUOUS
 70
0
 71
3
 72
49
 73
45
 74
0
 42
0.0000001
 43
0.0000001
 44
0.0000000001
 40
0.0
 40
0.0
 40
0.0
 40
0.0
 40
0.0128137137
 40
0.0257401259
 40
0.0519983352
 40
0.0789215271
 40
0.0926717769
 40
0.1066261377
 40
0.1351708519
 40
0.1497808084
 40
0.1646173006
 40
0.194965512
 40
0.2262102362
 40
0.2421609093
 40
0.2583195385
 40
0.2912218767
 40
0.3248436418
 40
0.3590893259
 40
0.3764148913
 40
0.3938545995
 40
0.4290107416
 40
0.4644348449
 40
0.499994313
 40
0.5355538577
 40
0.5709781896
 40
0.606134708
 40
0.6235746572
 40
0.6409004975
 40
0.6751468274
 40
0.7087693548
 40
0.7416725545
 40
0.7578316453
 40
0.7737827968
 40
0.8050285177
 40
0.8353777551
 40
0.8502147611
 40
0.8648252275
 40
0.8933709329
 40
0.9073257656
 40
0.9210764655
 40
0.9480004755
 40
0.9742593651
 40
0.987186056
 40
1.0
 40
1.0
 40
1.0
 40
1.0
 10
12.7372902946
 20
5.1716749373
 30
0.0
 10
12.7317652111
 20
5.1730385322
 30
0.0
 10
12.7207459559
 20
5.1761129089
 30
0.0
 10
12.6988971478
 20
5.1836255914
 30
0.0
 10
12.6720094598
 20
5.1955878799
 30
0.0
 10
12.646303378
 20
5.2106345436
 30
0.0
 10
12.6263777274
 20
5.2244920493
 30
0.0
 10
12.6066150439
 20
5.2397880511
 30
0.0
 10
12.5877375458
 20
5.2567968787
 30
0.0
 10
12.5698384815
 20
5.2753248739
 30
0.0
 10
12.5522607204
 20
5.2952420582
 30
0.0
 10
12.5315031291
 20
5.3221549984
 30
0.0
 10
12.5127622808
 20
5.3510939031
 30
0.0
 10
12.4988594759
 20
5.3755627975
 30
0.0
 10
12.4855542365
 20
5.4011944239
 30
0.0
 10
12.47046516
 20
5.4347109701
 30
0.0
 10
12.4550016593
 20
5.4767447841
 30
0.0
 10
12.4443629177
 20
5.5130862573
 30
0.0
 10
12.4372021252
 20
5.5428919746
 30
0.0
 10
12.4309263281
 20
5.5733097516
 30
0.0
 10
12.4248708768
 20
5.6119583478
 30
0.0
 10
12.4204999096
 20
5.6589241221
 30
0.0
 10
12.4190379094
 20
5.7062500348
 30
0.0
 10
12.4204966113
 20
5.7535761507
 30
0.0
 10
12.4248643034
 20
5.8005425331
 30
0.0
 10
12.430917053
 20
5.8391919318
 30
0.0
 10
12.437190721
 20
5.8696105523
 30
0.0
 10
12.4443494401
 20
5.8994172982
 30
0.0
 10
12.4549856573
 20
5.9357602873
 30
0.0
 10
12.4704462236
 20
5.9777962523
 30
0.0
 10
12.4855329484
 20
6.0113148696
 30
0.0
 10
12.4988363863
 20
6.0369483319
 30
0.0
 10
12.5127374919
 20
6.0614191804
 30
0.0
 10
12.5314763253
 20
6.0903607088
 30
0.0
 10
12.5522320216
 20
6.1172765275
 30
0.0
 10
12.5698083858
 20
6.1371961574
 30
0.0
 10
12.5877061522
 20
6.1557266495
 30
0.0
 10
12.6065824542
 20
6.1727381062
 30
0.0
 10
12.626344071
 20
6.1880368726
 30
0.0
 10
12.6462687347
 20
6.2018971488
 30
0.0
 10
12.6719737207
 20
6.216947386
 30
0.0
 10
12.6988605901
 20
6.2289134429
 30
0.0
 10
12.7207089013
 20
6.2364291925
 30
0.0
 10
12.7317279597
 20
6.2395051139
 30
0.0
 10
12.7372529574
 20
6.2408694827
 30
0.0
  0
SPLINE
  5
28B
100
AcDbEntity
  8
0
100
AcDbSpline
 62
7
  6
CONTINUOUS
 70
0
 71
3
 72
53
 73
49
 74
0
 42
0.0000001
 43
0.0000001
 44
0.0000000001
 40
0.0
 40
0.0
 40
0.0
 40
0.0
 40
0.012796265
 40
0.0256725575
 40
0.0386543756
 40
0.0517658249
 40
0.0650280304
 40
0.0784598371
 40
0.1058873217
 40
0.1341694517
 40
0.1486595065
 40
0.1633873088
 40
0.1935588807
 40
0.2090111618
 40
0.2247018176
 40
0.2567715689
 40
0.28971771
 40
0.3234585752
 40
0.3405986336
 40
0.3578975613
 40
0.3753401439
 40
0.3929101487
 40
0.4283593256
 40
0.4641083838
 40
0.5000089829
 40
0.5359094507
 40
0.5716581177
 40
0.6071066516
 40
0.6246762453
 40
0.6421183592
 40
0.6594167641
 40
0.6765562482
 40
0.710295824
 40
0.7432405156
 40
0.7753086964
 40
0.790998536
 40
0.8064499878
 40
0.8366198871
 40
0.8513468616
 40
0.8658361042
 40
0.8941166853
 40
0.9215427792
 40
0.9349739698
 40
0.9482356213
 40
0.9613465847
 40
0.9743279959
 40
0.9872039676
 40
1.0
 40
1.0
 40
1.0
 40
1.0
 10
12.7642200692
 20
5.1416975119
 30
0.0
 10
12.758077403
 20
5.1425467295
 30
0.0
 10
12.7458052391
 20
5.1446501068
 30
0.0
 10
12.7275707201
 20
5.1489901006
 30
0.0
 10
12.7094983989
 20
5.154512219
 30
0.0
 10
12.6916274092
 20
5.161205991
 30
0.0
 10
12.6739939778
 20
5.1690555551
 30
0.0
 10
12.650692616
 20
5.1811218899
 30
0.0
 10
12.6223235633
 20
5.1990924034
 30
0.0
 10
12.5956740466
 20
5.2203411013
 30
0.0
 10
12.575254034
 20
5.2393147996
 30
0.0
 10
12.5551538901
 20
5.2599265243
 30
0.0
 10
12.5362613852
 20
5.2823168761
 30
0.0
 10
12.5186473523
 20
5.3062547688
 30
0.0
 10
12.5015715116
 20
5.3316973991
 30
0.0
 10
12.4818563872
 20
5.3655307175
 30
0.0
 10
12.461093249
 20
5.4086998909
 30
0.0
 10
12.4462771598
 20
5.4465674715
 30
0.0
 10
12.4359105355
 20
5.4779448804
 30
0.0
 10
12.4288711494
 20
5.5020868443
 30
0.0
 10
12.4226256066
 20
5.5266610216
 30
0.0
 10
12.4153513923
 20
5.5600287217
 30
0.0
 10
12.4083300275
 20
5.6025046243
 30
0.0
 10
12.4032627907
 20
5.6541933654
 30
0.0
 10
12.401570708
 20
5.7063218808
 30
0.0
 10
12.4032686374
 20
5.7584500168
 30
0.0
 10
12.4083416736
 20
5.8101376229
 30
0.0
 10
12.4153678194
 20
5.8526120269
 30
0.0
 10
12.4226457921
 20
5.8859781526
 30
0.0
 10
12.4288940987
 20
5.9105509264
 30
0.0
 10
12.4359361975
 20
5.9346913092
 30
0.0
 10
12.4463063295
 20
5.9660663416
 30
0.0
 10
12.4611266505
 20
6.0039305469
 30
0.0
 10
12.4818946427
 20
6.0470950744
 30
0.0
 10
12.5016135961
 20
6.0809240178
 30
0.0
 10
12.5186923158
 20
6.1063628402
 30
0.0
 10
12.5363090301
 20
6.1302967645
 30
0.0
 10
12.5552040623
 20
6.1526828829
 30
0.0
 10
12.5753065337
 20
6.1732900974
 30
0.0
 10
12.5957286934
 20
6.1922592165
 30
0.0
 10
12.6223806493
 20
6.2135019553
 30
0.0
 10
12.6507517204
 20
6.2314660831
 30
0.0
 10
12.6740544116
 20
6.2435271542
 30
0.0
 10
12.6916887286
 20
6.2513727583
 30
0.0
 10
12.7095604769
 20
6.258062509
 30
0.0
 10
12.7276334259
 20
6.2635805621
 30
0.0
 10
12.7458684429
 20
6.2679164568
 30
0.0
 10
12.7581408103
 20
6.2700170609
 30
0.0
 10
12.7642835537
 20
6.2708648951
 30
0.0
  0
SPLINE
  5
28C
100
AcDbEntity
  8
0
100
AcDbSpline
 62
7
  6
CONTINUOUS
 70
0
 71
3
 72
29
 73
25
 74
0
 42
0.0000001
 43
0.0000001
 44
0.0000000001
 40
0.0
 40
0.0
 40
0.0
 40
0.0
 40
0.0282837091
 40
0.0570825127
 40
0.0863736747
 40
0.1161409359
 40
0.1463679301
 40
0.1770309522
 40
0.2395335741
 40
0.3034008493
 40
0.3683286057
 40
0.4339806326
 40
0.4999999999
 40
0.5660193671
 40
0.631671394
 40
0.6965991505
 40
0.7604664259
 40
0.822969048
 40
0.8536320702
 40
0.8838590646
 40
0.9136263259
 40
0.9429174878
 40
0.971716291
 40
1.0
 40
1.0
 40
1.0
 40
1.0
 10
11.7212054143
 20
5.2869806092
 30
0.0
 10
11.7159332415
 20
5.2935822713
 30
0.0
 10
11.7056408113
 20
5.30718741
 30
0.0
 10
11.691117624
 20
5.3285238807
 30
0.0
 10
11.6774127105
 20
5.3509164874
 30
0.0
 10
11.6645649047
 20
5.3742986826
 30
0.0
 10
11.6526096934
 20
5.3986071719
 30
0.0
 10
11.637809303
 20
5.4323740448
 30
0.0
 10
11.6217703339
 20
5.4765174847
 30
0.0
 10
11.6066764547
 20
5.5316908167
 30
0.0
 10
11.5957746234
 20
5.5888005586
 30
0.0
 10
11.5891854703
 20
5.6472113574
 30
0.0
 10
11.5869809683
 20
5.7062768186
 30
0.0
 10
11.5891854703
 20
5.7653422798
 30
0.0
 10
11.5957746234
 20
5.8237530787
 30
0.0
 10
11.6066764547
 20
5.8808628207
 30
0.0
 10
11.621770334
 20
5.9360361528
 30
0.0
 10
11.637809303
 20
5.9801795929
 30
0.0
 10
11.6526096935
 20
6.0139464658
 30
0.0
 10
11.6645649049
 20
6.0382549553
 30
0.0
 10
11.6774127108
 20
6.0616371505
 30
0.0
 10
11.6911176242
 20
6.0840297571
 30
0.0
 10
11.7056408114
 20
6.1053662277
 30
0.0
 10
11.7159332416
 20
6.1189713662
 30
0.0
 10
11.7212054143
 20
6.1255730283
 30
0.0
  0
SPLINE
  5
28D
100
AcDbEntity
  8
0
100
AcDbSpline
 62
7
  6
CONTINUOUS
 70
0
 71
3
 72
23
 73
19
 74
0
 42
0.0000001
 43
0.0000001
 44
0.0000000001
 40
0.0
 40
0.0
 40
0.0
 40
0.0
 40
0.0608290085
 40
0.1223279207
 40
0.184387195
 40
0.2469211481
 40
0.3098459123
 40
0.3730663381
 40
0.4364838432
 40
0.4999999997
 40
0.5635161562
 40
0.6269336612
 40
0.6901540869
 40
0.7530788511
 40
0.8156128044
 40
0.877672079
 40
0.9391709914
 40
1.0
 40
1.0
 40
1.0
 40
1.0
 10
11.5618386558
 20
5.4519469319
 30
0.0
 10
11.5584682597
 20
5.4618826281
 30
0.0
 10
11.5521282927
 20
5.4820148052
 30
0.0
 10
11.5438720195
 20
5.5127367765
 30
0.0
 10
11.5368427585
 20
5.5440643437
 30
0.0
 10
11.5310614301
 20
5.5758956239
 30
0.0
 10
11.5265468375
 20
5.6081332304
 30
0.0
 10
11.523310966
 20
5.6406772048
 30
0.0
 10
11.5213662944
 20
5.6734258961
 30
0.0
 10
11.520716764
 20
5.7062768186
 30
0.0
 10
11.5213662944
 20
5.7391277411
 30
0.0
 10
11.5233109659
 20
5.7718764323
 30
0.0
 10
11.5265468375
 20
5.8044204067
 30
0.0
 10
11.53106143
 20
5.8366580133
 30
0.0
 10
11.5368427584
 20
5.8684892935
 30
0.0
 10
11.5438720195
 20
5.8998168608
 30
0.0
 10
11.5521282927
 20
5.9305388322
 30
0.0
 10
11.5584682597
 20
5.9506710093
 30
0.0
 10
11.5618386558
 20
5.9606067056
 30
0.0
  0
SPLINE
  5
28E
100
AcDbEntity
  8
0
100
AcDbSpline
 62
7
  6
CONTINUOUS
 70
0
 71
3
 72
28
 73
24
 74
0
 42
0.0000001
 43
0.0000001
 44
0.0000000001
 40
0.0
 40
0.0
 40
0.0
 40
0.0
 40
0.0256278638
 40
0.0514805675
 40
0.1039933678
 40
0.1578354058
 40
0.1853338386
 40
0.213240465
 40
0.2703259021
 40
0.2995440848
 40
0.32921559
 40
0.3899098669
 40
0.4523984738
 40
0.4842999346
 40
0.5166176613
 40
0.5824242763
 40
0.6496707882
 40
0.7181667978
 40
0.752821026
 40
0.787703172
 40
0.858018391
 40
0.9288806131
 40
1.0
 40
1.0
 40
1.0
 40
1.0
 10
8.9763527874
 20
5.1716132149
 30
0.0
 10
8.981881515
 20
5.1729723574
 30
0.0
 10
8.9929082155
 20
5.1760380965
 30
0.0
 10
9.0147719597
 20
5.1835348044
 30
0.0
 10
9.0416784762
 20
5.1954808839
 30
0.0
 10
9.0674036487
 20
5.2105152909
 30
0.0
 10
9.0873446121
 20
5.2243652399
 30
0.0
 10
9.1071228689
 20
5.2396552317
 30
0.0
 10
9.1260155875
 20
5.2566605329
 30
0.0
 10
9.1439293514
 20
5.2751870711
 30
0.0
 10
9.1615218757
 20
5.2951044504
 30
0.0
 10
9.1822972966
 20
5.3220203896
 30
0.0
 10
9.2010543319
 20
5.3509652697
 30
0.0
 10
9.2149692393
 20
5.3754407464
 30
0.0
 10
9.2282862835
 20
5.4010804734
 30
0.0
 10
9.2433887147
 20
5.434609202
 30
0.0
 10
9.2588659541
 20
5.4766601986
 30
0.0
 10
9.2695139178
 20
5.513017968
 30
0.0
 10
9.2766806906
 20
5.5428378236
 30
0.0
 10
9.2829615782
 20
5.573269733
 30
0.0
 10
9.2890225766
 20
5.6119388322
 30
0.0
 10
9.293395206
 20
5.6589266398
 30
0.0
 10
9.2943695721
 20
5.6904773471
 30
0.0
 10
9.2943695721
 20
5.7062768187
 30
0.0
  0
SPLINE
  5
28F
100
AcDbEntity
  8
0
100
AcDbSpline
 62
7
  6
CONTINUOUS
 70
0
 71
3
 72
28
 73
24
 74
0
 42
0.0000001
 43
0.0000001
 44
0.0000000001
 40
0.0
 40
0.0
 40
0.0
 40
0.0
 40
0.0256290251
 40
0.0514835597
 40
0.1040015779
 40
0.157850091
 40
0.1853519334
 40
0.2132619709
 40
0.2703538978
 40
0.2995749787
 40
0.3292490723
 40
0.3899474489
 40
0.4524384294
 40
0.4843403624
 40
0.5166580823
 40
0.5824632696
 40
0.649706513
 40
0.7181975854
 40
0.7528487827
 40
0.7877275728
 40
0.8580353026
 40
0.92888928
 40
1.0
 40
1.0
 40
1.0
 40
1.0
 10
8.976705946
 20
6.2408533644
 30
0.0
 10
8.9822301626
 20
6.239487815
 30
0.0
 10
8.993247627
 20
6.2364097645
 30
0.0
 10
9.0150921858
 20
6.2288904549
 30
0.0
 10
9.041973512
 20
6.2169201997
 30
0.0
 10
9.0676728106
 20
6.2018673624
 30
0.0
 10
9.0875931081
 20
6.1880057417
 30
0.0
 10
9.1073503274
 20
6.172706038
 30
0.0
 10
9.1262222877
 20
6.1556943045
 30
0.0
 10
9.144115938
 20
6.1371641909
 30
0.0
 10
9.1616881693
 20
6.1172454102
 30
0.0
 10
9.1824389919
 20
6.0903314813
 30
0.0
 10
9.2011734982
 20
6.061392666
 30
0.0
 10
9.2150714038
 20
6.0369244713
 30
0.0
 10
9.228371794
 20
6.0112941012
 30
0.0
 10
9.2434550812
 20
5.9777799558
 30
0.0
 10
9.258912495
 20
5.9357500371
 30
0.0
 10
9.2695466937
 20
5.8994124118
 30
0.0
 10
9.2767041114
 20
5.8696100994
 30
0.0
 10
9.2829767122
 20
5.839196933
 30
0.0
 10
9.2890296788
 20
5.8005525114
 30
0.0
 10
9.2933965007
 20
5.7535954879
 30
0.0
 10
9.2943695721
 20
5.7220657515
 30
0.0
 10
9.2943695721
 20
5.7062768187
 30
0.0
  0
SPLINE
  5
290
100
AcDbEntity
  8
0
100
AcDbSpline
 62
7
  6
CONTINUOUS
 70
0
 71
3
 72
30
 73
26
 74
0
 42
0.0000001
 43
0.0000001
 44
0.0000000001
 40
0.0
 40
0.0
 40
0.0
 40
0.0
 40
0.0255883021
 40
0.0513405103
 40
0.0773052354
 40
0.1035284907
 40
0.1300524592
 40
0.1569154894
 40
0.1841519652
 40
0.2117912138
 40
0.2683547498
 40
0.3267717693
 40
0.3871137983
 40
0.4180177348
 40
0.4493983757
 40
0.513536422
 40
0.5794271968
 40
0.6469071957
 40
0.6811863762
 40
0.7157835383
 40
0.7857975129
 40
0.8566913645
 40
0.9281950318
 40
0.9640859572
 40
1.0
 40
1.0
 40
1.0
 40
1.0
 10
8.9496902831
 20
5.1416993913
 30
0.0
 10
8.9558314838
 20
5.1425488941
 30
0.0
 10
8.9681016034
 20
5.1446529235
 30
0.0
 10
8.9863339711
 20
5.1489931668
 30
0.0
 10
9.0044053121
 20
5.154515238
 30
0.0
 10
9.0222753682
 20
5.1612090725
 30
0.0
 10
9.0399070132
 20
5.1690583954
 30
0.0
 10
9.0572626212
 20
5.1780464367
 30
0.0
 10
9.0743052258
 20
5.1881552221
 30
0.0
 10
9.0967332736
 20
5.2032091303
 30
0.0
 10
9.1238071434
 20
5.224794262
 30
0.0
 10
9.1542085556
 20
5.2545545387
 30
0.0
 10
9.1776286303
 20
5.2823109814
 30
0.0
 10
9.1952421658
 20
5.3062471365
 30
0.0
 10
9.2123169174
 20
5.3316871554
 30
0.0
 10
9.2320312347
 20
5.3655171785
 30
0.0
 10
9.2527937515
 20
5.4086820651
 30
0.0
 10
9.267609749
 20
5.4465457238
 30
0.0
 10
9.2779767453
 20
5.4779202518
 30
0.0
 10
9.2873993182
 20
5.510231675
 30
0.0
 10
9.2971579215
 20
5.5516566694
 30
0.0
 10
9.3055603572
 20
5.6024670803
 30
0.0
 10
9.3097797606
 20
5.6454916557
 30
0.0
 10
9.3114747062
 20
5.6801765293
 30
0.0
 10
9.3117583773
 20
5.6975753628
 30
0.0
 10
9.3117583773
 20
5.7062768187
 30
0.0
  0
SPLINE
  5
291
100
AcDbEntity
  8
0
100
AcDbSpline
 62
7
  6
CONTINUOUS
 70
0
 71
3
 72
30
 73
26
 74
0
 42
0.0000001
 43
0.0000001
 44
0.0000000001
 40
0.0
 40
0.0
 40
0.0
 40
0.0
 40
0.0255883813
 40
0.0513403495
 40
0.0773045587
 40
0.1035270668
 40
0.1300501071
 40
0.1569120705
 40
0.1841473886
 40
0.2117854315
 40
0.2683465468
 40
0.3267613819
 40
0.3871016774
 40
0.4180049706
 40
0.4493851314
 40
0.51352273
 40
0.5794137765
 40
0.6468947521
 40
0.6811746716
 40
0.7157727239
 40
0.7857888802
 40
0.8566853543
 40
0.9281919411
 40
0.9640844025
 40
1.0
 40
1.0
 40
1.0
 40
1.0
 10
8.9495516581
 20
6.2708733876
 30
0.0
 10
8.9556944717
 20
6.2700267072
 30
0.0
 10
8.9679679231
 20
6.2679281402
 30
0.0
 10
8.9862056214
 20
6.2635954026
 30
0.0
 10
9.0042824914
 20
6.2580802114
 30
0.0
 10
9.0221582459
 20
6.2513926187
 30
0.0
 10
9.0397957179
 20
6.2435488729
 30
0.0
 10
9.0571572656
 20
6.2345657718
 30
0.0
 10
9.0742058795
 20
6.2244612612
 30
0.0
 10
9.0966420644
 20
6.2094122196
 30
0.0
 10
9.1237262117
 20
6.1878314683
 30
0.0
 10
9.1541396331
 20
6.158073888
 30
0.0
 10
9.1775692344
 20
6.1303177377
 30
0.0
 10
9.1951900876
 20
6.1063807239
 30
0.0
 10
9.212272131
 20
6.080938953
 30
0.0
 10
9.2319950337
 20
6.0471053631
 30
0.0
 10
9.2527667292
 20
6.0039344212
 30
0.0
 10
9.2675893614
 20
5.9660644178
 30
0.0
 10
9.2779610583
 20
5.9346840808
 30
0.0
 10
9.2873879734
 20
5.9023662146
 30
0.0
 10
9.2971511021
 20
5.8609324374
 30
0.0
 10
9.3055574522
 20
5.8101107165
 30
0.0
 10
9.3097788308
 20
5.7670762381
 30
0.0
 10
9.3114745727
 20
5.7323832551
 30
0.0
 10
9.3117583773
 20
5.7149803252
 30
0.0
 10
9.3117583773
 20
5.7062768187
 30
0.0
  0
SPLINE
  5
292
100
AcDbEntity
  8
0
100
AcDbSpline
 62
7
  6
CONTINUOUS
 70
0
 71
3
 72
17
 73
13
 74
0
 42
0.0000001
 43
0.0000001
 44
0.0000000001
 40
0.0
 40
0.0
 40
0.0
 40
0.0
 40
0.2339098819
 40
0.2946178663
 40
0.3561047445
 40
0.41831807
 40
0.4811999454
 40
0.6086934369
 40
0.7380532242
 40
0.8687008632
 40
0.9343235444
 40
1.0
 40
1.0
 40
1.0
 40
1.0
 10
9.1064522302
 20
6.0656464889
 30
0.0
 10
9.1238104907
 20
6.0415700797
 30
0.0
 10
9.1427833158
 20
6.0090418847
 30
0.0
 10
9.1614731614
 20
5.9679057007
 30
0.0
 10
9.1702843539
 20
5.9462188078
 30
0.0
 10
9.178321249
 20
5.9239427722
 30
0.0
 10
9.1880254478
 20
5.8933884689
 30
0.0
 10
9.1980871763
 20
5.8540411725
 30
0.0
 10
9.2067563476
 20
5.8055993171
 30
0.0
 10
9.2111132683
 20
5.7644712287
 30
0.0
 10
9.2128644762
 20
5.7312731959
 30
0.0
 10
9.2131576745
 20
5.7146106523
 30
0.0
 10
9.2131576745
 20
5.7062768187
 30
0.0
  0
SPLINE
  5
293
100
AcDbEntity
  8
0
100
AcDbSpline
 62
7
  6
CONTINUOUS
 70
0
 71
3
 72
23
 73
19
 74
0
 42
0.0000001
 43
0.0000001
 44
0.0000000001
 40
0.0
 40
0.0
 40
0.0
 40
0.0
 40
0.0608290084
 40
0.1223279203
 40
0.1843871945
 40
0.2469211479
 40
0.3098459125
 40
0.3730663385
 40
0.4364838437
 40
0.5
 40
0.5635161563
 40
0.6269336615
 40
0.6901540875
 40
0.7530788521
 40
0.8156128055
 40
0.8776720797
 40
0.9391709916
 40
1.0
 40
1.0
 40
1.0
 40
1.0
 10
10.152056227
 20
5.9606067056
 30
0.0
 10
10.1554266231
 20
5.9506710094
 30
0.0
 10
10.1617665902
 20
5.9305388323
 30
0.0
 10
10.1700228633
 20
5.8998168612
 30
0.0
 10
10.1770521244
 20
5.868489294
 30
0.0
 10
10.1828334528
 20
5.8366580137
 30
0.0
 10
10.1873480453
 20
5.804420407
 30
0.0
 10
10.1905839169
 20
5.7718764325
 30
0.0
 10
10.1925285884
 20
5.7391277412
 30
0.0
 10
10.1931781189
 20
5.7062768187
 30
0.0
 10
10.1925285884
 20
5.6734258963
 30
0.0
 10
10.1905839169
 20
5.640677205
 30
0.0
 10
10.1873480453
 20
5.6081332305
 30
0.0
 10
10.1828334528
 20
5.5758956238
 30
0.0
 10
10.1770521244
 20
5.5440643435
 30
0.0
 10
10.1700228633
 20
5.5127367763
 30
0.0
 10
10.1617665902
 20
5.4820148051
 30
0.0
 10
10.1554266231
 20
5.4618826281
 30
0.0
 10
10.152056227
 20
5.4519469319
 30
0.0
  0
SPLINE
  5
294
100
AcDbEntity
  8
0
100
AcDbSpline
 62
7
  6
CONTINUOUS
 70
0
 71
3
 72
22
 73
18
 74
0
 42
0.0000001
 43
0.0000001
 44
0.0000000001
 40
0.0
 40
0.0
 40
0.0
 40
0.0
 40
0.0660607096
 40
0.1320486591
 40
0.2633395954
 40
0.3284964094
 40
0.3932063881
 40
0.4573849395
 40
0.5209538166
 40
0.583839266
 40
0.645973415
 40
0.7072933506
 40
0.7677421281
 40
0.8272706414
 40
0.8858452815
 40
0.9434362052
 40
1.0
 40
1.0
 40
1.0
 40
1.0
 10
10.1261778822
 20
5.7062768187
 30
0.0
 10
10.1261778822
 20
5.6964094376
 30
0.0
 10
10.1258087754
 20
5.6766831447
 30
0.0
 10
10.1236034746
 20
5.6374041417
 30
0.0
 10
10.1192041285
 20
5.5984066498
 30
0.0
 10
10.1126127138
 20
5.559951476
 30
0.0
 10
10.1066139083
 20
5.5315868383
 30
0.0
 10
10.0995631972
 20
5.503710218
 30
0.0
 10
10.0914817001
 20
5.4763984874
 30
0.0
 10
10.0823904362
 20
5.4497282767
 30
0.0
 10
10.0723160758
 20
5.4237733546
 30
0.0
 10
10.0612850526
 20
5.3986068877
 30
0.0
 10
10.0493299081
 20
5.3742985985
 30
0.0
 10
10.036482114
 20
5.3509164626
 30
0.0
 10
10.0227775147
 20
5.3285241727
 30
0.0
 10
10.0082544631
 20
5.3071877142
 30
0.0
 10
9.997961833
 20
5.2935825113
 30
0.0
 10
9.9926894686
 20
5.2869806092
 30
0.0
  0
SPLINE
  5
295
100
AcDbEntity
  8
0
100
AcDbSpline
 62
7
  6
CONTINUOUS
 70
0
 71
3
 72
22
 73
18
 74
0
 42
0.0000001
 43
0.0000001
 44
0.0000000001
 40
0.0
 40
0.0
 40
0.0
 40
0.0
 40
0.0565637947
 40
0.1141547179
 40
0.1727293574
 40
0.2322578703
 40
0.2927066478
 40
0.3540265835
 40
0.4161607326
 40
0.4790461822
 40
0.5426150596
 40
0.6067936111
 40
0.67150359
 40
0.736660404
 40
0.8679513404
 40
0.9339392902
 40
1.0
 40
1.0
 40
1.0
 40
1.0
 10
9.9926894686
 20
6.1255730283
 30
0.0
 10
9.997961833
 20
6.1189711262
 30
0.0
 10
10.008254463
 20
6.1053659233
 30
0.0
 10
10.0227775145
 20
6.084029465
 30
0.0
 10
10.0364821137
 20
6.0616371753
 30
0.0
 10
10.0493299078
 20
6.0382550395
 30
0.0
 10
10.0612850523
 20
6.0139467504
 30
0.0
 10
10.0723160756
 20
5.9887802835
 30
0.0
 10
10.082390436
 20
5.9628253613
 30
0.0
 10
10.0914817
 20
5.9361551505
 30
0.0
 10
10.0995631971
 20
5.9088434199
 30
0.0
 10
10.1066139082
 20
5.8809667995
 30
0.0
 10
10.1126127138
 20
5.8526021618
 30
0.0
 10
10.1192041285
 20
5.8141469879
 30
0.0
 10
10.1236034746
 20
5.7751494959
 30
0.0
 10
10.1258087754
 20
5.7358704929
 30
0.0
 10
10.1261778822
 20
5.7161441999
 30
0.0
 10
10.1261778822
 20
5.7062768187
 30
0.0
  0
SPLINE
  5
296
100
AcDbEntity
  8
0
100
AcDbSpline
 62
7
  6
CONTINUOUS
 70
0
 71
3
 72
17
 73
13
 74
0
 42
0.0000001
 43
0.0000001
 44
0.0000000001
 40
0.0
 40
0.0
 40
0.0
 40
0.0
 40
0.2339098819
 40
0.2946178663
 40
0.3561047445
 40
0.41831807
 40
0.4811999454
 40
0.6086934369
 40
0.7380532242
 40
0.8687008632
 40
0.9343235444
 40
1.0
 40
1.0
 40
1.0
 40
1.0
 10
9.1064522302
 20
5.3469071486
 30
0.0
 10
9.1238104907
 20
5.3709835578
 30
0.0
 10
9.1427833158
 20
5.4035117528
 30
0.0
 10
9.1614731614
 20
5.4446479368
 30
0.0
 10
9.1702843539
 20
5.4663348297
 30
0.0
 10
9.178321249
 20
5.4886108653
 30
0.0
 10
9.1880254478
 20
5.5191651686
 30
0.0
 10
9.1980871763
 20
5.558512465
 30
0.0
 10
9.2067563476
 20
5.6069543204
 30
0.0
 10
9.2111132683
 20
5.6480824088
 30
0.0
 10
9.2128644762
 20
5.6812804416
 30
0.0
 10
9.2131576745
 20
5.6979429851
 30
0.0
 10
9.2131576745
 20
5.7062768187
 30
0.0
  0
SPLINE
  5
297
100
AcDbEntity
  8
0
100
AcDbSpline
 62
7
  6
CONTINUOUS
 70
0
 71
3
 72
22
 73
18
 74
0
 42
0.0000001
 43
0.0000001
 44
0.0000000001
 40
0.0
 40
0.0
 40
0.0
 40
0.0
 40
0.0696140108
 40
0.1378586902
 40
0.2047786527
 40
0.2704447596
 40
0.3349550225
 40
0.3984116277
 40
0.4609295555
 40
0.5226268635
 40
0.5836199606
 40
0.6440308103
 40
0.7039728494
 40
0.7635535144
 40
0.8228734397
 40
0.8820171856
 40
1.0
 40
1.0
 40
1.0
 40
1.0
 10
12.0242030292
 20
5.1989897063
 30
0.0
 10
12.0298912822
 20
5.1989897063
 30
0.0
 10
12.0411576613
 20
5.1992358835
 30
0.0
 10
12.0578580345
 20
5.200365008
 30
0.0
 10
12.0741664023
 20
5.2022467428
 30
0.0
 10
12.0900624242
 20
5.2048730916
 30
0.0
 10
12.1055315081
 20
5.2082280129
 30
0.0
 10
12.1205616079
 20
5.2122986593
 30
0.0
 10
12.1351442638
 20
5.2170645068
 30
0.0
 10
12.149274291
 20
5.2225025207
 30
0.0
 10
12.1629480609
 20
5.2285909362
 30
0.0
 10
12.1761670034
 20
5.2353005373
 30
0.0
 10
12.1889343532
 20
5.2426038108
 30
0.0
 10
12.2012558548
 20
5.2504711006
 30
0.0
 10
12.2131418079
 20
5.258869532
 30
0.0
 10
12.2284060729
 20
5.2707211202
 30
0.0
 10
12.2392617155
 20
5.2803248372
 30
0.0
 10
12.2462359936
 20
5.2869806092
 30
0.0
  0
SPLINE
  5
298
100
AcDbEntity
  8
0
100
AcDbSpline
 62
7
  6
CONTINUOUS
 70
0
 71
3
 72
10
 73
6
 74
0
 42
0.0000001
 43
0.0000001
 44
0.0000000001
 40
0.0
 40
0.0
 40
0.0
 40
0.0
 40
0.2425506678
 40
0.6154069577
 40
1.0
 40
1.0
 40
1.0
 40
1.0
 10
12.2462359936
 20
5.2869806092
 30
0.0
 10
12.2478460718
 20
5.2885171574
 30
0.0
 10
12.2518164719
 20
5.2925373071
 30
0.0
 10
12.2578058859
 20
5.2995012308
 30
0.0
 10
12.2619394944
 20
5.3050967842
 30
0.0
 10
12.2639420648
 20
5.3080025242
 30
0.0
  0
SPLINE
  5
299
100
AcDbEntity
  8
0
100
AcDbSpline
 62
7
  6
CONTINUOUS
 70
0
 71
3
 72
22
 73
18
 74
0
 42
0.0000001
 43
0.0000001
 44
0.0000000001
 40
0.0
 40
0.0
 40
0.0
 40
0.0
 40
0.0589800275
 40
0.1180155216
 40
0.1771579785
 40
0.23647822
 40
0.2960608549
 40
0.3560031393
 40
0.416412739
 40
0.4774048294
 40
0.5390985185
 40
0.6016143075
 40
0.6650711136
 40
0.729579257
 40
0.7952437687
 40
0.8621611771
 40
1.0
 40
1.0
 40
1.0
 40
1.0
 10
12.2462359936
 20
6.1255730283
 30
0.0
 10
12.2427495675
 20
6.1289002338
 30
0.0
 10
12.235647379
 20
6.1354273488
 30
0.0
 10
12.224600179
 20
6.1447878771
 30
0.0
 10
12.2131403425
 20
6.153684989
 30
0.0
 10
12.2012550076
 20
6.1620835961
 30
0.0
 10
12.1889330861
 20
6.169950471
 30
0.0
 10
12.1761659527
 20
6.1772538585
 30
0.0
 10
12.1629474024
 20
6.1839635472
 30
0.0
 10
12.1492739029
 20
6.1900509358
 30
0.0
 10
12.1351448744
 20
6.1954894858
 30
0.0
 10
12.1205627488
 20
6.2002549904
 30
0.0
 10
12.1055329792
 20
6.20432491
 30
0.0
 10
12.0900647378
 20
6.207680982
 30
0.0
 10
12.0741687776
 20
6.2103062586
 30
0.0
 10
12.0522121345
 20
6.2128408793
 30
0.0
 10
12.0354658916
 20
6.2135639311
 30
0.0
 10
12.0242030292
 20
6.2135639311
 30
0.0
  0
SPLINE
  5
29A
100
AcDbEntity
  8
0
100
AcDbSpline
 62
7
  6
CONTINUOUS
 70
0
 71
3
 72
17
 73
13
 74
0
 42
0.0000001
 43
0.0000001
 44
0.0000000001
 40
0.0
 40
0.0
 40
0.0
 40
0.0
 40
0.1152466842
 40
0.1742488601
 40
0.2341179063
 40
0.3562621582
 40
0.481307801
 40
0.6087742061
 40
0.7381091479
 40
0.8687252867
 40
0.934333724
 40
1.0
 40
1.0
 40
1.0
 40
1.0
 10
9.0176927711
 20
6.1887573271
 30
0.0
 10
9.0291775393
 20
6.172828052
 30
0.0
 10
9.0453994615
 20
6.14789503
 30
0.0
 10
9.0649158173
 20
6.1130926355
 30
0.0
 10
9.0834541906
 20
6.0764332318
 30
0.0
 10
9.1041085507
 20
6.0282919888
 30
0.0
 10
9.1245840105
 20
5.967758806
 30
0.0
 10
9.1407193471
 20
5.9046624189
 30
0.0
 10
9.1523581758
 20
5.8396245702
 30
0.0
 10
9.1582078627
 20
5.7844079837
 30
0.0
 10
9.1605590145
 20
5.7398373729
 30
0.0
 10
9.1609525314
 20
5.7174661968
 30
0.0
 10
9.1609525314
 20
5.7062768187
 30
0.0
  0
SPLINE
  5
29B
100
AcDbEntity
  8
0
100
AcDbSpline
 62
7
  6
CONTINUOUS
 70
0
 71
3
 72
23
 73
19
 74
0
 42
0.0000001
 43
0.0000001
 44
0.0000000001
 40
0.0
 40
0.0
 40
0.0
 40
0.0
 40
0.0535622381
 40
0.1061716063
 40
0.158322812
 40
0.2105357302
 40
0.2633334625
 40
0.3172248333
 40
0.3726904318
 40
0.4301710141
 40
0.4900606901
 40
0.552704288
 40
0.6183979656
 40
0.6873920344
 40
0.7598948402
 40
0.836077083
 40
0.9160761016
 40
1.0
 40
1.0
 40
1.0
 40
1.0
 10
10.8569474414
 20
4.2786235155
 30
0.0
 10
10.8552095168
 20
4.2745615114
 30
0.0
 10
10.8513960447
 20
4.2666606383
 30
0.0
 10
10.8445974157
 20
4.2554864625
 30
0.0
 10
10.8367807013
 20
4.2451359101
 30
0.0
 10
10.8279445888
 20
4.2356197604
 30
0.0
 10
10.8180892036
 20
4.226945613
 30
0.0
 10
10.8072167367
 20
4.2191197968
 30
0.0
 10
10.7953306207
 20
4.2121464637
 30
0.0
 10
10.7824347931
 20
4.2060282423
 30
0.0
 10
10.7685334994
 20
4.2007666706
 30
0.0
 10
10.753631327
 20
4.1963626686
 30
0.0
 10
10.7377333931
 20
4.1928168598
 30
0.0
 10
10.7208455804
 20
4.1901297161
 30
0.0
 10
10.7029747863
 20
4.1883015888
 30
0.0
 10
10.6841289513
 20
4.1873326783
 30
0.0
 10
10.6643177239
 20
4.1872229278
 30
0.0
 10
10.6508009054
 20
4.1877105346
 30
0.0
 10
10.6438885893
 20
4.1880878741
 30
0.0
  0
SPLINE
  5
29C
100
AcDbEntity
  8
0
100
AcDbSpline
 62
7
  6
CONTINUOUS
 70
0
 71
3
 72
23
 73
19
 74
0
 42
0.0000001
 43
0.0000001
 44
0.0000000001
 40
0.0
 40
0.0
 40
0.0
 40
0.0
 40
0.0839238987
 40
0.1639229175
 40
0.2401051605
 40
0.3126079663
 40
0.3816020351
 40
0.4472957126
 40
0.5099393104
 40
0.5698289863
 40
0.6273095685
 40
0.682775167
 40
0.7366665377
 40
0.78946427
 40
0.8416771881
 40
0.8938283939
 40
0.9464377619
 40
1.0
 40
1.0
 40
1.0
 40
1.0
 10
11.0700062935
 20
4.1880878741
 30
0.0
 10
11.0630939774
 20
4.1877105346
 30
0.0
 10
11.0495771589
 20
4.1872229278
 30
0.0
 10
11.0297659314
 20
4.1873326783
 30
0.0
 10
11.0109200964
 20
4.1883015888
 30
0.0
 10
10.9930493023
 20
4.1901297161
 30
0.0
 10
10.9761614895
 20
4.1928168599
 30
0.0
 10
10.9602635557
 20
4.1963626686
 30
0.0
 10
10.9453613833
 20
4.2007666706
 30
0.0
 10
10.9314600897
 20
4.2060282423
 30
0.0
 10
10.9185642621
 20
4.2121464638
 30
0.0
 10
10.9066781461
 20
4.2191197968
 30
0.0
 10
10.8958056792
 20
4.226945613
 30
0.0
 10
10.885950294
 20
4.2356197604
 30
0.0
 10
10.8771141815
 20
4.2451359101
 30
0.0
 10
10.8692974672
 20
4.2554864625
 30
0.0
 10
10.8624988381
 20
4.2666606383
 30
0.0
 10
10.8586853661
 20
4.2745615114
 30
0.0
 10
10.8569474414
 20
4.2786235155
 30
0.0
  0
SPLINE
  5
29D
100
AcDbEntity
  8
0
100
AcDbSpline
 62
7
  6
CONTINUOUS
 70
0
 71
3
 72
45
 73
41
 74
0
 42
0.0000001
 43
0.0000001
 44
0.0000000001
 40
0.0
 40
0.0
 40
0.0
 40
0.0
 40
0.0352235561
 40
0.0699556821
 40
0.104171953
 40
0.1378472808
 40
0.1709595631
 40
0.2034914261
 40
0.2354311817
 40
0.266775745
 40
0.2975315229
 40
0.3126956853
 40
0.3277211585
 40
0.3573731054
 40
0.3865414988
 40
0.4009670404
 40
0.4152988689
 40
0.4437226
 40
0.4578441009
 40
0.4719219513
 40
0.4999990039
 40
0.5280760581
 40
0.5421539102
 40
0.5562754137
 40
0.5846991518
 40
0.5990309846
 40
0.6134565311
 40
0.6426249356
 40
0.6573885955
 40
0.6722801932
 40
0.7024669939
 40
0.7332227819
 40
0.7645673589
 40
0.7965071515
 40
0.8290390368
 40
0.862151237
 40
0.8958265095
 40
0.9300431285
 40
0.9647759998
 40
1.0
 40
1.0
 40
1.0
 40
1.0
 10
11.9940387966
 20
10.8484446503
 30
0.0
 10
12.0050364564
 20
10.8374786879
 30
0.0
 10
12.0271174366
 20
10.8159376219
 30
0.0
 10
12.0607651184
 20
10.7846656877
 30
0.0
 10
12.0947181453
 20
10.7547466605
 30
0.0
 10
12.1289842083
 20
10.7262903042
 30
0.0
 10
12.1635711317
 20
10.6994166542
 30
0.0
 10
12.1984811599
 20
10.6742486183
 30
0.0
 10
12.2337136531
 20
10.6509137703
 30
0.0
 10
12.2692621026
 20
10.6295428317
 30
0.0
 10
12.2992832385
 20
10.6134062649
 30
0.0
 10
12.3234413285
 20
10.6016316065
 30
0.0
 10
12.3474702762
 20
10.5907258765
 30
0.0
 10
12.3776867627
 20
10.5785433691
 30
0.0
 10
12.4083513782
 20
10.5683351449
 30
0.0
 10
12.4329601167
 20
10.5614828601
 30
0.0
 10
12.4574681561
 20
10.555550528
 30
0.0
 10
12.4821418054
 20
10.5509255504
 30
0.0
 10
12.5069001532
 20
10.5476759564
 30
0.0
 10
12.5316096852
 20
10.5453564438
 30
0.0
 10
12.5625849358
 20
10.5441860616
 30
0.0
 10
12.5935601856
 20
10.5453565017
 30
0.0
 10
12.6182697148
 20
10.5476760596
 30
0.0
 10
12.6430280661
 20
10.5509257019
 30
0.0
 10
12.6677016851
 20
10.5555507099
 30
0.0
 10
12.6922097874
 20
10.5614831209
 30
0.0
 10
12.7168182515
 20
10.5683353018
 30
0.0
 10
12.7412515263
 20
10.5764695046
 30
0.0
 10
12.7654581711
 20
10.5857904574
 30
0.0
 10
12.7897905513
 20
10.5960036613
 30
0.0
 10
12.8200511946
 20
10.6102701845
 30
0.0
 10
12.8559072845
 20
10.62954307
 30
0.0
 10
12.8914563232
 20
10.6509143615
 30
0.0
 10
12.9266886044
 20
10.6742492631
 30
0.0
 10
12.9615985865
 20
10.6994174249
 30
0.0
 10
12.9961856448
 20
10.7262907883
 30
0.0
 10
13.0304520156
 20
10.7547469353
 30
0.0
 10
13.0644048146
 20
10.7846669339
 30
0.0
 10
13.0980515813
 20
10.8159408532
 30
0.0
 10
13.120132362
 20
10.8374828586
 30
0.0
 10
13.1311301518
 20
10.848448968
 30
0.0
  0
SPLINE
  5
29E
100
AcDbEntity
  8
0
100
AcDbSpline
 62
7
  6
CONTINUOUS
 70
0
 71
3
 72
17
 73
13
 74
0
 42
0.0000001
 43
0.0000001
 44
0.0000000001
 40
0.0
 40
0.0
 40
0.0
 40
0.0
 40
0.1152466842
 40
0.1742488601
 40
0.2341179063
 40
0.3562621582
 40
0.481307801
 40
0.6087742061
 40
0.7381091479
 40
0.8687252867
 40
0.934333724
 40
1.0
 40
1.0
 40
1.0
 40
1.0
 10
9.0176927711
 20
5.2237963104
 30
0.0
 10
9.0291775393
 20
5.2397255855
 30
0.0
 10
9.0453994615
 20
5.2646586075
 30
0.0
 10
9.0649158173
 20
5.2994610019
 30
0.0
 10
9.0834541906
 20
5.3361204057
 30
0.0
 10
9.1041085507
 20
5.3842616486
 30
0.0
 10
9.1245840105
 20
5.4447948315
 30
0.0
 10
9.1407193471
 20
5.5078912185
 30
0.0
 10
9.1523581758
 20
5.5729290673
 30
0.0
 10
9.1582078627
 20
5.6281456537
 30
0.0
 10
9.1605590145
 20
5.6727162646
 30
0.0
 10
9.1609525314
 20
5.6950874407
 30
0.0
 10
9.1609525314
 20
5.7062768187
 30
0.0
  0
SPLINE
  5
29F
100
AcDbEntity
  8
0
100
AcDbSpline
 62
7
  6
CONTINUOUS
 70
0
 71
3
 72
43
 73
39
 74
0
 42
0.0000001
 43
0.0000001
 44
0.0000000001
 40
0.0
 40
0.0
 40
0.0
 40
0.0
 40
0.0312481344
 40
0.0624977533
 40
0.0937475689
 40
0.1249967491
 40
0.1874909996
 40
0.2187408181
 40
0.2499908708
 40
0.2812409668
 40
0.3124913597
 40
0.3281170316
 40
0.3437429439
 40
0.3749936233
 40
0.390619571
 40
0.406245694
 40
0.4374965931
 40
0.4531227384
 40
0.4687489661
 40
0.5000000001
 40
0.5312510341
 40
0.5468772618
 40
0.5625034071
 40
0.5937543061
 40
0.6093804291
 40
0.6250063769
 40
0.6562570562
 40
0.6718829685
 40
0.6875086404
 40
0.7187590333
 40
0.7500091293
 40
0.781259182
 40
0.8125090005
 40
0.875003251
 40
0.9062524311
 40
0.9375022467
 40
0.9687518656
 40
1.0
 40
1.0
 40
1.0
 40
1.0
 10
9.7198560863
 20
10.8484431916
 30
0.0
 10
9.7420003809
 20
10.8374029212
 30
0.0
 10
9.7864856971
 20
10.8157113601
 30
0.0
 10
9.8538147205
 20
10.7844362972
 30
0.0
 10
9.9217584677
 20
10.7545140275
 30
0.0
 10
10.0131790465
 20
10.7165730282
 30
0.0
 10
10.105895905
 20
10.6817975568
 30
0.0
 10
10.1998718304
 20
10.650703262
 30
0.0
 10
10.2709813957
 20
10.6293495712
 30
0.0
 10
10.3426898635
 20
10.6100997961
 30
0.0
 10
10.4029190086
 20
10.5959208092
 30
0.0
 10
10.4513587327
 20
10.5857585415
 30
0.0
 10
10.4999610448
 20
10.5764048966
 30
0.0
 10
10.548795676
 20
10.5682894867
 30
0.0
 10
10.5978182504
 20
10.5614673272
 30
0.0
 10
10.6469551113
 20
10.5555233107
 30
0.0
 10
10.6962462117
 20
10.5509125917
 30
0.0
 10
10.7456355893
 20
10.5476727807
 30
0.0
 10
10.7950770869
 20
10.5453536178
 30
0.0
 10
10.8569474418
 20
10.5441875351
 30
0.0
 10
10.9188177968
 20
10.5453536178
 30
0.0
 10
10.9682592943
 20
10.5476727807
 30
0.0
 10
11.0176486719
 20
10.5509125917
 30
0.0
 10
11.0669397723
 20
10.5555233108
 30
0.0
 10
11.1160766332
 20
10.5614673273
 30
0.0
 10
11.1650992076
 20
10.5682894867
 30
0.0
 10
11.2139338388
 20
10.5764048967
 30
0.0
 10
11.2625361508
 20
10.5857585417
 30
0.0
 10
11.3109758749
 20
10.5959208093
 30
0.0
 10
11.37120502
 20
10.6100997962
 30
0.0
 10
11.4429134877
 20
10.6293495714
 30
0.0
 10
11.514023053
 20
10.6507032621
 30
0.0
 10
11.6079989783
 20
10.681797557
 30
0.0
 10
11.7007158368
 20
10.7165730284
 30
0.0
 10
11.7921364157
 20
10.7545140275
 30
0.0
 10
11.8600801628
 20
10.7844362974
 30
0.0
 10
11.9274091859
 20
10.8157113609
 30
0.0
 10
11.971894502
 20
10.8374029222
 30
0.0
 10
11.9940387966
 20
10.8484431926
 30
0.0
  0
SPLINE
  5
2A0
100
AcDbEntity
  8
0
100
AcDbSpline
 62
7
  6
CONTINUOUS
 70
0
 71
3
 72
20
 73
16
 74
0
 42
0.0000001
 43
0.0000001
 44
0.0000000001
 40
0.0
 40
0.0
 40
0.0
 40
0.0
 40
0.0547100679
 40
0.1105627867
 40
0.225664707
 40
0.3452530955
 40
0.4066797812
 40
0.4691390221
 40
0.5325852939
 40
0.5969709443
 40
0.7283375573
 40
0.7952231248
 40
0.8628335713
 40
0.93111237
 40
1.0
 40
1.0
 40
1.0
 40
1.0
 10
12.0242030292
 20
6.2135639311
 30
0.0
 10
12.0183972848
 20
6.2135639311
 30
0.0
 10
12.006663018
 20
6.2133022869
 30
0.0
 10
11.9827597886
 20
6.2117618394
 30
0.0
 10
11.9521367002
 20
6.2079024732
 30
0.0
 10
11.9213022708
 20
6.2017163219
 30
0.0
 10
11.8962425024
 20
6.1954126512
 30
0.0
 10
11.8771186871
 20
6.1899725615
 30
0.0
 10
11.8578619792
 20
6.1838847402
 30
0.0
 10
11.8318683483
 20
6.174882236
 30
0.0
 10
11.8058921747
 20
6.1647467278
 30
0.0
 10
11.7799625497
 20
6.1536248156
 30
0.0
 10
11.7603656408
 20
6.1447332019
 30
0.0
 10
11.7407504101
 20
6.1353785591
 30
0.0
 10
11.7277222152
 20
6.1288852753
 30
0.0
 10
11.7212054143
 20
6.1255730283
 30
0.0
  0
SPLINE
  5
2A1
100
AcDbEntity
  8
0
100
AcDbSpline
 62
7
  6
CONTINUOUS
 70
0
 71
3
 72
17
 73
13
 74
0
 42
0.0000001
 43
0.0000001
 44
0.0000000001
 40
0.0
 40
0.0
 40
0.0
 40
0.0
 40
0.1190427978
 40
0.1795001652
 40
0.2404924486
 40
0.3638989043
 40
0.4889608001
 40
0.6153569286
 40
0.7428067127
 40
0.806869251
 40
0.8711142401
 40
1.0
 40
1.0
 40
1.0
 40
1.0
 10
11.7212054143
 20
6.1255730283
 30
0.0
 10
11.7129661216
 20
6.1213853029
 30
0.0
 10
11.7008449649
 20
6.1144547812
 30
0.0
 10
11.6852786396
 20
6.1041369688
 30
0.0
 10
11.6698913141
 20
6.0929639164
 30
0.0
 10
11.6513443724
 20
6.0776458132
 30
0.0
 10
11.6304085644
 20
6.0573876635
 30
0.0
 10
11.6108526748
 20
6.0353746221
 30
0.0
 10
11.595832107
 20
6.0157604095
 30
0.0
 10
11.5846023623
 20
5.9993796356
 30
0.0
 10
11.5738860791
 20
5.9825268523
 30
0.0
 10
11.566485944
 20
5.9694687582
 30
0.0
 10
11.5618386558
 20
5.9606067056
 30
0.0
  0
SPLINE
  5
2A2
100
AcDbEntity
  8
0
100
AcDbSpline
 62
7
  6
CONTINUOUS
 70
0
 71
3
 72
28
 73
24
 74
0
 42
0.0000001
 43
0.0000001
 44
0.0000000001
 40
0.0
 40
0.0
 40
0.0
 40
0.0
 40
0.0621718222
 40
0.1244985432
 40
0.1869284391
 40
0.2494410821
 40
0.280728452
 40
0.3120298811
 40
0.3433429699
 40
0.3746659279
 40
0.4373238873
 40
0.4999964812
 40
0.5626690678
 40
0.6253270058
 40
0.656649954
 40
0.6879630369
 40
0.7192644629
 40
0.7505518318
 40
0.7818216761
 40
0.8130715649
 40
0.8755014582
 40
0.937828178
 40
1.0
 40
1.0
 40
1.0
 40
1.0
 10
11.5618386558
 20
5.9606067056
 30
0.0
 10
11.5567379455
 20
5.9508800088
 30
0.0
 10
11.5470446202
 20
5.9311237983
 30
0.0
 10
11.534156975
 20
5.9007022349
 30
0.0
 10
11.5230174134
 20
5.8695323624
 30
0.0
 10
11.5152808656
 20
5.8430210644
 30
0.0
 10
11.5100673009
 20
5.8215420101
 30
0.0
 10
11.5066528526
 20
5.8053061552
 30
0.0
 10
11.5037463161
 20
5.7889652279
 30
0.0
 10
11.5005610752
 20
5.7670587258
 30
0.0
 10
11.4978859186
 20
5.7394939716
 30
0.0
 10
11.4968140989
 20
5.7062768054
 30
0.0
 10
11.497885919
 20
5.6730596447
 30
0.0
 10
11.500561078
 20
5.6454948932
 30
0.0
 10
11.5037463143
 20
5.6235884061
 30
0.0
 10
11.5066528671
 20
5.6072474568
 30
0.0
 10
11.5100672521
 20
5.5910116987
 30
0.0
 10
11.5139790184
 20
5.5748964639
 30
0.0
 10
11.5183783558
 20
5.5589168118
 30
0.0
 10
11.5248768465
 20
5.5378192516
 30
0.0
 10
11.534157046
 20
5.5118508971
 30
0.0
 10
11.5470446002
 20
5.4814299826
 30
0.0
 10
11.5567379455
 20
5.4616736287
 30
0.0
 10
11.5618386558
 20
5.4519469319
 30
0.0
  0
SPLINE
  5
2A3
100
AcDbEntity
  8
0
100
AcDbSpline
 62
7
  6
CONTINUOUS
 70
0
 71
3
 72
17
 73
13
 74
0
 42
0.0000001
 43
0.0000001
 44
0.0000000001
 40
0.0
 40
0.0
 40
0.0
 40
0.0
 40
0.1288857553
 40
0.1931307365
 40
0.2571932628
 40
0.3846430306
 40
0.5110391593
 40
0.6361010713
 40
0.7595075472
 40
0.8204998381
 40
0.8809572064
 40
1.0
 40
1.0
 40
1.0
 40
1.0
 10
11.5618386558
 20
5.4519469319
 30
0.0
 10
11.5664859439
 20
5.4430848796
 30
0.0
 10
11.5738860783
 20
5.4300267862
 30
0.0
 10
11.5846023606
 20
5.4131740046
 30
0.0
 10
11.5958321033
 20
5.3967932327
 30
0.0
 10
11.6108526699
 20
5.377179022
 30
0.0
 10
11.6304085584
 20
5.3551659796
 30
0.0
 10
11.6513443685
 20
5.334907828
 30
0.0
 10
11.6698913124
 20
5.3195897221
 30
0.0
 10
11.6852786397
 20
5.3084166685
 30
0.0
 10
11.7008449654
 20
5.2980988561
 30
0.0
 10
11.7129661219
 20
5.2911683344
 30
0.0
 10
11.7212054143
 20
5.2869806092
 30
0.0
  0
SPLINE
  5
2A4
100
AcDbEntity
  8
0
100
AcDbSpline
 62
7
  6
CONTINUOUS
 70
0
 71
3
 72
15
 73
11
 74
0
 42
0.0000001
 43
0.0000001
 44
0.0000000001
 40
0.0
 40
0.0
 40
0.0
 40
0.0
 40
0.13717772
 40
0.2716727891
 40
0.4030486964
 40
0.5308723969
 40
0.654745005
 40
0.7743390507
 40
0.88944343
 40
1.0
 40
1.0
 40
1.0
 40
1.0
 10
11.7212054143
 20
5.2869806092
 30
0.0
 10
11.734181669
 20
5.2803852626
 30
0.0
 10
11.7600867537
 20
5.267722486
 30
0.0
 10
11.7992088736
 20
5.2504139087
 30
0.0
 10
11.8381420776
 20
5.2352238479
 30
0.0
 10
11.87673396
 20
5.2223945132
 30
0.0
 10
11.9148002472
 20
5.2121419885
 30
0.0
 10
11.9521353708
 20
5.2046508867
 30
0.0
 10
11.9885166123
 20
5.2000659862
 30
0.0
 10
12.0124716848
 20
5.1989897063
 30
0.0
 10
12.0242030292
 20
5.1989897063
 30
0.0
  0
SPLINE
  5
2A5
100
AcDbEntity
  8
0
100
AcDbSpline
 62
7
  6
CONTINUOUS
 70
0
 71
3
 72
23
 73
19
 74
0
 42
0.0000001
 43
0.0000001
 44
0.0000000001
 40
0.0
 40
0.0
 40
0.0
 40
0.0
 40
0.0535939796
 40
0.1062313669
 40
0.1584063538
 40
0.2106384151
 40
0.2634504062
 40
0.3173510677
 40
0.3728210624
 40
0.4303013512
 40
0.4901863412
 40
0.5528212127
 40
0.6185024985
 40
0.687480885
 40
0.7599650761
 40
0.836126106
 40
0.9161016193
 40
1.0
 40
1.0
 40
1.0
 40
1.0
 10
10.8569474414
 20
4.2816993918
 30
0.0
 10
10.858684622
 20
4.2776358483
 30
0.0
 10
10.8624962828
 20
4.2697319462
 30
0.0
 10
10.8692915156
 20
4.2585528451
 30
0.0
 10
10.8771040588
 20
4.2481973337
 30
0.0
 10
10.8859352481
 20
4.2386761896
 30
0.0
 10
10.8957849797
 20
4.2299970211
 30
0.0
 10
10.9066510799
 20
4.2221661706
 30
0.0
 10
10.9185301266
 20
4.2151878056
 30
0.0
 10
10.9314181878
 20
4.209064568
 30
0.0
 10
10.9453110207
 20
4.2037980055
 30
0.0
 10
10.9602040408
 20
4.1993890436
 30
0.0
 10
10.9760921348
 20
4.1958383088
 30
0.0
 10
10.9929694261
 20
4.1931462741
 30
0.0
 10
11.0108290253
 20
4.1913132912
 30
0.0
 10
11.0296630017
 20
4.1903395609
 30
0.0
 10
11.0494617181
 20
4.1902250275
 30
0.0
 10
11.0629700309
 20
4.1907095478
 30
0.0
 10
11.0698779783
 20
4.1910853489
 30
0.0
  0
SPLINE
  5
2A6
100
AcDbEntity
  8
0
100
AcDbSpline
 62
7
  6
CONTINUOUS
 70
0
 71
3
 72
9
 73
5
 74
0
 42
0.0000001
 43
0.0000001
 44
0.0000000001
 40
0.0
 40
0.0
 40
0.0
 40
0.0
 40
0.2579193146
 40
1.0
 40
1.0
 40
1.0
 40
1.0
 10
12.2639425449
 20
6.1045504166
 30
0.0
 10
12.2626003363
 20
6.1064979902
 30
0.0
 10
12.2572318078
 20
6.1139322259
 30
0.0
 10
12.2511592081
 20
6.1208746504
 30
0.0
 10
12.2462359936
 20
6.1255730283
 30
0.0
  0
SPLINE
  5
2A7
100
AcDbEntity
  8
0
100
AcDbSpline
 62
7
  6
CONTINUOUS
 70
0
 71
3
 72
23
 73
19
 74
0
 42
0.0000001
 43
0.0000001
 44
0.0000000001
 40
0.0
 40
0.0
 40
0.0
 40
0.0
 40
0.0838983838
 40
0.1638739
 40
0.2400349322
 40
0.3125191252
 40
0.3814975128
 40
0.4471787989
 40
0.5098136701
 40
0.5696986595
 40
0.6271789477
 40
0.6826489415
 40
0.7365496017
 40
0.7893615915
 40
0.8415936515
 40
0.8937686362
 40
0.9464060214
 40
1.0
 40
1.0
 40
1.0
 40
1.0
 10
10.6440168878
 20
4.1910853498
 30
0.0
 10
10.650924836
 20
4.1907095485
 30
0.0
 10
10.6644331502
 20
4.1902250277
 30
0.0
 10
10.6842318686
 20
4.1903395605
 30
0.0
 10
10.7030658469
 20
4.1913132904
 30
0.0
 10
10.7209254477
 20
4.1931462729
 30
0.0
 10
10.7378027406
 20
4.1958383074
 30
0.0
 10
10.7536908358
 20
4.199389042
 30
0.0
 10
10.768583857
 20
4.2037980037
 30
0.0
 10
10.7824766909
 20
4.2090645661
 30
0.0
 10
10.7953647529
 20
4.2151878038
 30
0.0
 10
10.8072438004
 20
4.2221661689
 30
0.0
 10
10.8181099012
 20
4.2299970196
 30
0.0
 10
10.8279596334
 20
4.2386761883
 30
0.0
 10
10.8367908232
 20
4.2481973325
 30
0.0
 10
10.8446033667
 20
4.2585528443
 30
0.0
 10
10.8513985998
 20
4.2697319457
 30
0.0
 10
10.8552102608
 20
4.2776358481
 30
0.0
 10
10.8569474414
 20
4.2816993918
 30
0.0
  0
SPLINE
  5
2A8
100
AcDbEntity
  8
0
100
AcDbSpline
 62
7
  6
CONTINUOUS
 70
0
 71
3
 72
45
 73
41
 74
0
 42
0.0000001
 43
0.0000001
 44
0.0000000001
 40
0.0
 40
0.0
 40
0.0
 40
0.0
 40
0.0352240001
 40
0.0699568714
 40
0.1041734902
 40
0.1378487628
 40
0.170960963
 40
0.2034928484
 40
0.235432641
 40
0.2667772179
 40
0.2975330059
 40
0.3277198067
 40
0.3426114044
 40
0.3573750642
 40
0.3865434687
 40
0.4009690152
 40
0.4153008481
 40
0.4437245862
 40
0.4578460896
 40
0.4719239418
 40
0.5000009959
 40
0.5280780486
 40
0.5421558989
 40
0.5562773998
 40
0.584701131
 40
0.5990329595
 40
0.6134585011
 40
0.6426268944
 40
0.6722788413
 40
0.6873043145
 40
0.7024684769
 40
0.7332242547
 40
0.7645688181
 40
0.7965085737
 40
0.8290404367
 40
0.862152719
 40
0.8958280467
 40
0.9300443177
 40
0.9647764439
 40
1.0
 40
1.0
 40
1.0
 40
1.0
 10
8.5827647311
 20
10.8484489674
 30
0.0
 10
8.5937625208
 20
10.837482858
 30
0.0
 10
8.6158433016
 20
10.8159408528
 30
0.0
 10
8.6494900684
 20
10.7846669337
 30
0.0
 10
8.6834428675
 20
10.7547469352
 30
0.0
 10
8.7177092382
 20
10.7262907883
 30
0.0
 10
8.7522962965
 20
10.6994174248
 30
0.0
 10
8.7872062787
 20
10.6742492629
 30
0.0
 10
8.8224385598
 20
10.6509143614
 30
0.0
 10
8.8579875986
 20
10.6295430699
 30
0.0
 10
8.8938436885
 20
10.6102701844
 30
0.0
 10
8.9241043318
 20
10.5960036612
 30
0.0
 10
8.948436712
 20
10.5857904573
 30
0.0
 10
8.9726433568
 20
10.5764695045
 30
0.0
 10
8.9970766317
 20
10.5683353017
 30
0.0
 10
9.0216850957
 20
10.5614831208
 30
0.0
 10
9.0461931981
 20
10.5555507098
 30
0.0
 10
9.0708668171
 20
10.5509257019
 30
0.0
 10
9.0956251684
 20
10.5476760595
 30
0.0
 10
9.1203346975
 20
10.5453565017
 30
0.0
 10
9.1513099474
 20
10.5441860616
 30
0.0
 10
9.1822851979
 20
10.5453564438
 30
0.0
 10
9.2069947299
 20
10.5476759565
 30
0.0
 10
9.2317530777
 20
10.5509255504
 30
0.0
 10
9.2564267271
 20
10.555550528
 30
0.0
 10
9.2809347664
 20
10.5614828602
 30
0.0
 10
9.3055435049
 20
10.568335145
 30
0.0
 10
9.3362081203
 20
10.5785433692
 30
0.0
 10
9.3664246068
 20
10.5907258766
 30
0.0
 10
9.3904535545
 20
10.6016316066
 30
0.0
 10
9.4146116445
 20
10.613406265
 30
0.0
 10
9.4446327804
 20
10.6295428318
 30
0.0
 10
9.4801812299
 20
10.6509137704
 30
0.0
 10
9.5154137231
 20
10.6742486184
 30
0.0
 10
9.5503237513
 20
10.6994166543
 30
0.0
 10
9.5849106747
 20
10.7262903043
 30
0.0
 10
9.6191767377
 20
10.7547466605
 30
0.0
 10
9.6531297646
 20
10.7846656879
 30
0.0
 10
9.6867774462
 20
10.8159376224
 30
0.0
 10
9.7088584264
 20
10.8374786886
 30
0.0
 10
9.7198560863
 20
10.848444651
 30
0.0
  0
SPLINE
  5
2A9
100
AcDbEntity
  8
0
100
AcDbSpline
 62
7
  6
CONTINUOUS
 70
0
 71
3
 72
27
 73
23
 74
0
 42
0.0000001
 43
0.0000001
 44
0.0000000001
 40
0.0
 40
0.0
 40
0.0
 40
0.0
 40
0.1169549365
 40
0.147308897
 40
0.1780523496
 40
0.2091591223
 40
0.2406001127
 40
0.3043461576
 40
0.3690281556
 40
0.4343476113
 40
0.467153568
 40
0.5
 40
0.532846432
 40
0.5656523887
 40
0.6309718444
 40
0.6956538424
 40
0.7593998873
 40
0.7908408777
 40
0.8219476504
 40
0.852691103
 40
0.8830450635
 40
1.0
 40
1.0
 40
1.0
 40
1.0
 10
12.6074426528
 20
5.3469071488
 30
0.0
 10
12.5900843914
 20
5.3709835569
 30
0.0
 10
12.5711115841
 20
5.403511751
 30
0.0
 10
12.5524217137
 20
5.4446479186
 30
0.0
 10
12.5436105142
 20
5.4663348347
 30
0.0
 10
12.5355736371
 20
5.4886109258
 30
0.0
 10
12.5258695298
 20
5.5191651129
 30
0.0
 10
12.5158073737
 20
5.5585126797
 30
0.0
 10
12.5071389873
 20
5.6069539719
 30
0.0
 10
12.5027817655
 20
5.648079879
 30
0.0
 10
12.5010301631
 20
5.6812778602
 30
0.0
 10
12.5005906407
 20
5.7062768187
 30
0.0
 10
12.5010301631
 20
5.7312757773
 30
0.0
 10
12.5027817655
 20
5.7644737584
 30
0.0
 10
12.5071389873
 20
5.8055996656
 30
0.0
 10
12.5158073737
 20
5.8540409578
 30
0.0
 10
12.5258695298
 20
5.8933885246
 30
0.0
 10
12.5355736371
 20
5.9239427117
 30
0.0
 10
12.5436105142
 20
5.9462188028
 30
0.0
 10
12.5524217137
 20
5.9679057189
 30
0.0
 10
12.5711115841
 20
6.0090418865
 30
0.0
 10
12.5900843914
 20
6.0415700806
 30
0.0
 10
12.6074426528
 20
6.0656464887
 30
0.0
  0
SPLINE
  5
2AA
100
AcDbEntity
  8
0
100
AcDbSpline
 62
7
  6
CONTINUOUS
 70
0
 71
3
 72
9
 73
5
 74
0
 42
0.0000001
 43
0.0000001
 44
0.0000000001
 40
0.0
 40
0.0
 40
0.0
 40
0.0
 40
0.2579192854
 40
1.0
 40
1.0
 40
1.0
 40
1.0
 10
9.4499523379
 20
5.308003221
 30
0.0
 10
9.4512945464
 20
5.3060556476
 30
0.0
 10
9.4566630749
 20
5.2986214118
 30
0.0
 10
9.4627356745
 20
5.2916789873
 30
0.0
 10
9.4676588893
 20
5.2869806092
 30
0.0
  0
SPLINE
  5
2AB
100
AcDbEntity
  8
0
100
AcDbSpline
 62
7
  6
CONTINUOUS
 70
0
 71
3
 72
34
 73
30
 74
0
 42
0.0000001
 43
0.0000001
 44
0.0000000001
 40
0.0
 40
0.0
 40
0.0
 40
0.0
 40
0.051326729
 40
0.0770563431
 40
0.1028625806
 40
0.1287822654
 40
0.1548592087
 40
0.1811400802
 40
0.2076741335
 40
0.2345143637
 40
0.2617117454
 40
0.2893181643
 40
0.317383265
 40
0.3459499159
 40
0.3750593175
 40
0.435019304
 40
0.465934349
 40
0.4974872094
 40
0.5625139924
 40
0.6300806608
 40
0.6647855281
 40
0.7000735701
 40
0.73591945
 40
0.7722961906
 40
0.8465158808
 40
0.8843049643
 40
0.9225035883
 40
0.9610798227
 40
1.0
 40
1.0
 40
1.0
 40
1.0
 10
9.4676588893
 20
5.2869806092
 30
0.0
 10
9.474633169
 20
5.2803248357
 30
0.0
 10
9.4854888132
 20
5.2707211222
 30
0.0
 10
9.5007530692
 20
5.2588695362
 30
0.0
 10
9.5126390034
 20
5.2504711035
 30
0.0
 10
9.5249604991
 20
5.2426038155
 30
0.0
 10
9.5377278639
 20
5.2353005651
 30
0.0
 10
9.5509467922
 20
5.22859097
 30
0.0
 10
9.5646204892
 20
5.222502577
 30
0.0
 10
9.5787503968
 20
5.2170645351
 30
0.0
 10
9.5933330498
 20
5.2122986224
 30
0.0
 10
9.6083634378
 20
5.208228053
 30
0.0
 10
9.6238326285
 20
5.2048731988
 30
0.0
 10
9.6397284519
 20
5.2022468361
 30
0.0
 10
9.6616848932
 20
5.199713099
 30
0.0
 10
9.6842378251
 20
5.1987386606
 30
0.0
 10
9.7072322562
 20
5.1992512264
 30
0.0
 10
9.7311362048
 20
5.2007917631
 30
0.0
 10
9.7617578529
 20
5.2046513982
 30
0.0
 10
9.7925921446
 20
5.2108371541
 30
0.0
 10
9.8176521604
 20
5.2171408769
 30
0.0
 10
9.8367759345
 20
5.2225810058
 30
0.0
 10
9.856032624
 20
5.2286688434
 30
0.0
 10
9.8820263284
 20
5.2376713066
 30
0.0
 10
9.9080025635
 20
5.2478068486
 30
0.0
 10
9.933932245
 20
5.2589287739
 30
0.0
 10
9.9535291791
 20
5.2678204267
 30
0.0
 10
9.9731444453
 20
5.2771750717
 30
0.0
 10
9.9861726614
 20
5.283668359
 30
0.0
 10
9.9926894686
 20
5.2869806092
 30
0.0
  0
SPLINE
  5
2AC
100
AcDbEntity
  8
0
100
AcDbSpline
 62
7
  6
CONTINUOUS
 70
0
 71
3
 72
17
 73
13
 74
0
 42
0.0000001
 43
0.0000001
 44
0.0000000001
 40
0.0
 40
0.0
 40
0.0
 40
0.0
 40
0.1190428036
 40
0.1795001633
 40
0.2404924244
 40
0.3638988255
 40
0.488960674
 40
0.6153567966
 40
0.7428066375
 40
0.8068692164
 40
0.8711142298
 40
1.0
 40
1.0
 40
1.0
 40
1.0
 10
9.9926894686
 20
5.2869806092
 30
0.0
 10
10.0009287616
 20
5.2911683348
 30
0.0
 10
10.0130499183
 20
5.2980988564
 30
0.0
 10
10.028616242
 20
5.3084166679
 30
0.0
 10
10.0440035621
 20
5.3195897165
 30
0.0
 10
10.0625504976
 20
5.334907812
 30
0.0
 10
10.0834862995
 20
5.3551659558
 30
0.0
 10
10.1030421926
 20
5.3771789945
 30
0.0
 10
10.1180627641
 20
5.3967932133
 30
0.0
 10
10.1292925156
 20
5.413173994
 30
0.0
 10
10.1400088017
 20
5.4300267823
 30
0.0
 10
10.1474089384
 20
5.4430848786
 30
0.0
 10
10.152056227
 20
5.4519469319
 30
0.0
  0
SPLINE
  5
2AD
100
AcDbEntity
  8
0
100
AcDbSpline
 62
7
  6
CONTINUOUS
 70
0
 71
3
 72
17
 73
13
 74
0
 42
0.0000001
 43
0.0000001
 44
0.0000000001
 40
0.0
 40
0.0
 40
0.0
 40
0.0
 40
0.1288857665
 40
0.1931307699
 40
0.2571933316
 40
0.3846431481
 40
0.5110392739
 40
0.6361011415
 40
0.759507564
 40
0.8204998342
 40
0.8809571978
 40
1.0
 40
1.0
 40
1.0
 40
1.0
 10
10.152056227
 20
5.9606067056
 30
0.0
 10
10.1474089386
 20
5.9694687586
 30
0.0
 10
10.1400088025
 20
5.982526854
 30
0.0
 10
10.1292925176
 20
5.9993796403
 30
0.0
 10
10.118062769
 20
6.0157604182
 30
0.0
 10
10.103042199
 20
6.0353746343
 30
0.0
 10
10.0834863074
 20
6.0573876741
 30
0.0
 10
10.0625505031
 20
6.0776458203
 30
0.0
 10
10.0440035651
 20
6.0929639189
 30
0.0
 10
10.0286162428
 20
6.104136969
 30
0.0
 10
10.0130499184
 20
6.114454781
 30
0.0
 10
10.0009287616
 20
6.1213853028
 30
0.0
 10
9.9926894686
 20
6.1255730283
 30
0.0
  0
SPLINE
  5
2AE
100
AcDbEntity
  8
0
100
AcDbSpline
 62
7
  6
CONTINUOUS
 70
0
 71
3
 72
35
 73
31
 74
0
 42
0.0000001
 43
0.0000001
 44
0.0000000001
 40
0.0
 40
0.0
 40
0.0
 40
0.0
 40
0.0389195452
 40
0.077495117
 40
0.1156930634
 40
0.153481447
 40
0.2276998082
 40
0.2640758556
 40
0.2999210479
 40
0.335208418
 40
0.3699125928
 40
0.437477993
 40
0.5025036221
 40
0.5340561278
 40
0.5649707479
 40
0.595259813
 40
0.6249454609
 40
0.6540543392
 40
0.6826207063
 40
0.7106855335
 40
0.7382915718
 40
0.7654886936
 40
0.7923286101
 40
0.8188623343
 40
0.8451429013
 40
0.8712194882
 40
0.8971388358
 40
0.9229447482
 40
0.9486740238
 40
1.0
 40
1.0
 40
1.0
 40
1.0
 10
9.9926894686
 20
6.1255730283
 30
0.0
 10
9.9861726652
 20
6.1288852765
 30
0.0
 10
9.973144465
 20
6.1353785612
 30
0.0
 10
9.9535292309
 20
6.1447332036
 30
0.0
 10
9.9339323301
 20
6.1536248174
 30
0.0
 10
9.9080027188
 20
6.1647467376
 30
0.0
 10
9.8820265431
 20
6.1748822241
 30
0.0
 10
9.8560329319
 20
6.1838847156
 30
0.0
 10
9.8367763033
 20
6.1899725196
 30
0.0
 10
9.8176526043
 20
6.1954126294
 30
0.0
 10
9.7925926812
 20
6.2017164025
 30
0.0
 10
9.7617585784
 20
6.2079021691
 30
0.0
 10
9.7311366443
 20
6.2117617221
 30
0.0
 10
9.7072333163
 20
6.2133023964
 30
0.0
 10
9.6898097275
 20
6.2136907524
 30
0.0
 10
9.6727363753
 20
6.2133178777
 30
0.0
 10
9.6560359159
 20
6.2121887262
 30
0.0
 10
9.6397288281
 20
6.2103067691
 30
0.0
 10
9.6238332508
 20
6.2076805357
 30
0.0
 10
9.6083638828
 20
6.2043257646
 30
0.0
 10
9.5933334755
 20
6.2002550726
 30
0.0
 10
9.5787507275
 20
6.1954892429
 30
0.0
 10
9.5646207569
 20
6.1900511745
 30
0.0
 10
9.5509470172
 20
6.1839627415
 30
0.0
 10
9.5377280199
 20
6.1772531803
 30
0.0
 10
9.5249606299
 20
6.1699498864
 30
0.0
 10
9.5126390947
 20
6.1620825922
 30
0.0
 10
9.5007531195
 20
6.1536841475
 30
0.0
 10
9.4854888492
 20
6.1418325207
 30
0.0
 10
9.4746331759
 20
6.1322288084
 30
0.0
 10
9.4676588893
 20
6.1255730283
 30
0.0
  0
SPLINE
  5
2AF
100
AcDbEntity
  8
0
100
AcDbSpline
 62
7
  6
CONTINUOUS
 70
0
 71
3
 72
10
 73
6
 74
0
 42
0.0000001
 43
0.0000001
 44
0.0000000001
 40
0.0
 40
0.0
 40
0.0
 40
0.0
 40
0.2425506777
 40
0.615406992
 40
1.0
 40
1.0
 40
1.0
 40
1.0
 10
9.4676588893
 20
6.1255730283
 30
0.0
 10
9.4660488109
 20
6.12403648
 30
0.0
 10
9.4620784107
 20
6.12001633
 30
0.0
 10
9.4560889966
 20
6.1130524063
 30
0.0
 10
9.4519553882
 20
6.107456853
 30
0.0
 10
9.4499528181
 20
6.1045511132
 30
0.0
  0
SPLINE
  5
2B0
100
AcDbEntity
  8
0
100
AcDbSpline
 62
7
  6
CONTINUOUS
 70
0
 71
3
 72
27
 73
23
 74
0
 42
0.0000001
 43
0.0000001
 44
0.0000000001
 40
0.0
 40
0.0
 40
0.0
 40
0.0
 40
0.0621724592
 40
0.1245000275
 40
0.1869306255
 40
0.2494435822
 40
0.2807310392
 40
0.312032546
 40
0.3433456989
 40
0.3746687203
 40
0.4373269172
 40
0.5
 40
0.5626730828
 40
0.6253312797
 40
0.6566543011
 40
0.687967454
 40
0.7192689608
 40
0.7505564179
 40
0.8130693745
 40
0.8754999725
 40
0.9378275408
 40
1.0
 40
1.0
 40
1.0
 40
1.0
 10
10.152056227
 20
5.9606067056
 30
0.0
 10
10.1571569534
 20
5.9508799781
 30
0.0
 10
10.1668503041
 20
5.9311236621
 30
0.0
 10
10.1797380311
 20
5.9007019674
 30
0.0
 10
10.1908775673
 20
5.8695319855
 30
0.0
 10
10.1986141396
 20
5.843020696
 30
0.0
 10
10.2038276624
 20
5.8215417052
 30
0.0
 10
10.2072420679
 20
5.8053059205
 30
0.0
 10
10.2101485923
 20
5.788965074
 30
0.0
 10
10.2133338334
 20
5.7670586652
 30
0.0
 10
10.2160089697
 20
5.7394939652
 30
0.0
 10
10.2170807625
 20
5.7062768187
 30
0.0
 10
10.2160089697
 20
5.6730596722
 30
0.0
 10
10.2133338334
 20
5.6454949723
 30
0.0
 10
10.2101485923
 20
5.6235885635
 30
0.0
 10
10.2072420679
 20
5.607247717
 30
0.0
 10
10.2038276623
 20
5.5910119323
 30
0.0
 10
10.1986141396
 20
5.5695329415
 30
0.0
 10
10.1908775673
 20
5.543021652
 30
0.0
 10
10.1797380311
 20
5.5118516701
 30
0.0
 10
10.1668503041
 20
5.4814299754
 30
0.0
 10
10.1571569534
 20
5.4616736594
 30
0.0
 10
10.152056227
 20
5.4519469319
 30
0.0
  0
ENDSEC
  0
SECTION
  2
OBJECTS
  0
DICTIONARY
  5
C
100
AcDbDictionary
280
0
281
1
  3
ACAD_GROUP
350
D
  3
ACAD_MLINESTYLE
350
17
  3
ACAD_LAYOUT
350
1A
  3
ACAD_PLOTSETTINGS
350
19
  3
ACAD_PLOTSTYLENAME
350
E
  0
DICTIONARY
  5
D
102
{ACAD_REACTORS
330
C
102
}
100
AcDbDictionary
280
0
281
1
  0
ACDBDICTIONARYWDFLT
  5
E
102
{ACAD_REACTORS
330
C
102
}
100
AcDbDictionary
281
1
  3
Normal
350
F
100
AcDbDictionaryWithDefault
340
F
  0
DICTIONARY
  5
17
102
{ACAD_REACTORS
330
C
102
}
100
AcDbDictionary
280
0
281
1
  3
Standard
350
18
  0
DICTIONARY
  5
19
102
{ACAD_REACTORS
330
C
102
}
100
AcDbDictionary
281
1
  0
DICTIONARY
  5
1A
102
{ACAD_REACTORS
330
C
102
}
100
AcDbDictionary
281
1
  3
Model
350
2B1
  3
Layout1
350
2B2
  0
ACDBPLACEHOLDER
  5
F
102
{ACAD_REACTORS
330
E
102
}
  0
MLINESTYLE
  5
18
102
{ACAD_REACTORS
330
17
102
}
100
AcDbMlineStyle
  2
STANDARD
 70
0
  3

 62
256
 51
90.0
 52
90.0
 71
2
 49
0.5
 62
256
  6
BYLAYER
 49
-0.5
 62
256
  6
BYLAYER
  0
LAYOUT
  5
2B1
102
{ACAD_REACTORS
330
1A
102
}
100
AcDbPlotSettings
  1

  2
none_device
  4
ANSI_C_(22.00_x_17.00_Inches)
  6

 40
0.0
 41
0.0
 42
0.0
 43
0.0
 44
558.8
 45
431.8
 46
0.0
 47
0.0
 48
0.0
 49
0.0
140
0.0
141
0.0
142
1.0
143
1.0
 70
1024
 72
0
 73
0
 74
0
  7

 75
0
147
1.0
148
0.0
149
0.0
100
AcDbLayout
  1
Model
 70
0
 71
0
 10
0.0
 20
0.0
 11
22.0
 21
17.0
 12
0.0
 22
0.0
 32
0.0
 14
0.0
 24
0.0
 34
0.0
 15
0.0
 25
0.0
 35
0.0
146
0.0
 13
0.0
 23
0.0
 33
0.0
 16
1.0
 26
0.0
 36
0.0
 17
0.0
 27
1.0
 37
0.0
 76
0
330
203
345
0
346
0
  0
LAYOUT
  5
2B2
102
{ACAD_REACTORS
330
1A
102
}
100
AcDbPlotSettings
  1

  2
none_device
  4
ANSI_C_(22.00_x_17.00_Inches)
  6

 40
0.0
 41
0.0
 42
0.0
 43
0.0
 44
558.8
 45
431.8
 46
0.0
 47
0.0
 48
0.0
 49
0.0
140
0.0
141
0.0
142
1.0
143
1.0
 70
0
 72
0
 73
0
 74
0
  7

 75
0
147
1.0
148
0.0
149
0.0
100
AcDbLayout
  1
Layout1
 70
0
 71
1
 10
0.0
 20
0.0
 11
22.0
 21
17.0
 12
0.0
 22
0.0
 32
0.0
 14
0.0
 24
0.0
 34
0.0
 15
0.0
 25
0.0
 35
0.0
146
0.0
 13
0.0
 23
0.0
 33
0.0
 16
1.0
 26
0.0
 36
0.0
 17
0.0
 27
1.0
 37
0.0
 76
0
330
204
345
0
346
0
  0
ENDSEC
  0
EOF
