999
DXF file: E:\BT Custom\CADOUTPUT\_FRONT.dxf
999
Pro/ENGINEER 2018400 by Parametric Technology Corporation
  0
SECTION
  2
HEADER
  9
$ACADVER
  1
AC1018
  9
$DWGCODEPAGE
  3
ANSI_1252
  9
$EXTMAX
 10
22.0
 20
17.0
 30
0.0
  9
$EXTMIN
 10
0.0
 20
0.0
 30
0.0
  9
$LIMMIN
 10
0.0
 20
0.0
  9
$LIMMAX
 10
22.0
 20
17.0
  9
$VIEWCTR
 10
11.0
 20
8.5
  9
$VIEWSIZE
 40
17.0
  9
$CLAYER
  8
0
  9
$LTSCALE
 40
1.21
  9
$CELTYPE
  6
BYLAYER
  9
$DIMSCALE
 40
1.0
  9
$DIMASZ
 40
0.1
  9
$DIMEXO
 40
0.0625
  9
$DIMDLI
 40
0.836
  9
$DIMEXE
 40
0.125
  9
$DIMCEN
 40
0.198
  9
$DIMLFAC
 40
1.0
  9
$DIMBLK
  1
_FILLED
  9
$DIMALT
 70
1
  9
$DIMALTD
 70
2
  9
$DIMALTTD
 70
2
  9
$DIMALTF
 40
25.4
  9
$DIMTXT
 40
0.08
  9
$DIMTOL
 70
1
  9
$DIMLIM
 70
0
  9
$DIMTFAC
 40
1.0
  9
$DIMTP
 40
0.001
  9
$DIMTM
 40
0.001
  9
$DIMGAP
 40
0.09
  9
$DIMDSEP
 70
46
  9
$AUNITS
 70
0
  9
$PDMODE
 70
3
  9
$PDSIZE
 40
0.06
  9
$HANDSEED
  5
2E6
  9
$TILEMODE
 70
1
  9
$MEASUREMENT
 70
0
  9
$INSUNITS
 70
1
  0
ENDSEC
  0
SECTION
  2
CLASSES
  0
CLASS
  1
ACDBDICTIONARYWDFLT
  2
AcDbDictionaryWithDefault
  3
AutoCAD 2000
 90
0
 91
1
280
0
281
0
  0
CLASS
  1
ACDBPLACEHOLDER
  2
AcDbPlaceHolder
  3
AutoCAD 2000
 90
0
 91
1
280
0
281
0
  0
CLASS
  1
LAYOUT
  2
AcDbLayout
  3
AutoCAD 2000
 90
0
 91
0
280
0
281
0
  0
ENDSEC
  0
SECTION
  2
TABLES
  0
TABLE
  2
VPORT
  5
8
100
AcDbSymbolTable
 70
2
  0
VPORT
  5
1F4
100
AcDbSymbolTableRecord
100
AcDbViewportTableRecord
  2
*ACTIVE
 70
0
 10
0.0
 20
0.0
 11
1.0
 21
1.0
 12
11.0
 22
8.5
 13
0.0
 23
0.0
 14
1.0
 24
1.0
 15
0.0
 25
0.0
 16
0.0
 26
0.0
 36
1.0
 17
0.0
 27
0.0
 37
0.0
 40
17.0
 41
1.2941176471
 42
50.0
 43
0.0
 44
0.0
 50
0.0
 51
0.0
 71
0
 72
100
 73
1
 74
1
 75
0
 76
0
 77
0
 78
0
  0
ENDTAB
  0
TABLE
  2
LTYPE
  5
5
100
AcDbSymbolTable
 70
6
  0
LTYPE
  5
14
100
AcDbSymbolTableRecord
100
AcDbLinetypeTableRecord
  2
BYBLOCK
 70
0
  3

 72
65
 73
0
 40
0.0
  0
LTYPE
  5
15
100
AcDbSymbolTableRecord
100
AcDbLinetypeTableRecord
  2
BYLAYER
 70
0
  3

 72
65
 73
0
 40
0.0
  0
LTYPE
  5
16
100
AcDbSymbolTableRecord
100
AcDbLinetypeTableRecord
  2
CONTINUOUS
 70
64
  3
Solid line
 72
65
 73
0
 40
0.0
  0
LTYPE
  5
1F5
100
AcDbSymbolTableRecord
100
AcDbLinetypeTableRecord
  2
CENTER
 70
64
  3
____ _ ____ _ ____ _ ____ _ ____ _ ____ _ ____
 72
65
 73
4
 40
0.6
 49
0.375
 74
0
 49
-0.075
 74
0
 49
0.075
 74
0
 49
-0.075
 74
0
  0
LTYPE
  5
1F6
100
AcDbSymbolTableRecord
100
AcDbLinetypeTableRecord
  2
HIDDEN
 70
64
  3
- - - - - - - - - - - - - - - - - - - -
 72
65
 73
2
 40
0.2
 49
0.1
 74
0
 49
-0.1
 74
0
  0
LTYPE
  5
1F7
100
AcDbSymbolTableRecord
100
AcDbLinetypeTableRecord
  2
PHANTOM
 70
64
  3
_____ _ _ _____ _ _ _____ _ _ _____
 72
65
 73
6
 40
0.8
 49
0.45
 74
0
 49
-0.05
 74
0
 49
0.1
 74
0
 49
-0.05
 74
0
 49
0.1
 74
0
 49
-0.05
 74
0
  0
LTYPE
  5
1F8
100
AcDbSymbolTableRecord
100
AcDbLinetypeTableRecord
  2
DOT
 70
64
  3
. . . . . . . . . . . . . . . . . . . .
 72
65
 73
2
 40
0.2
 49
0.1
 74
0
 49
-0.1
 74
0
  0
LTYPE
  5
1F9
100
AcDbSymbolTableRecord
100
AcDbLinetypeTableRecord
  2
DASHED
 70
64
  3
- - - - - - - - - - - - - - - - - - - -
 72
65
 73
2
 40
0.2
 49
0.1
 74
0
 49
-0.1
 74
0
  0
ENDTAB
  0
TABLE
  2
LAYER
  5
2
100
AcDbSymbolTable
 70
36
  0
LAYER
  5
10
100
AcDbSymbolTableRecord
100
AcDbLayerTableRecord
  2
0
 70
0
 62
7
  6
CONTINUOUS
370
-3
390
F
  0
LAYER
  5
1FA
100
AcDbSymbolTableRecord
100
AcDbLayerTableRecord
  2
DEFAULT_1
 70
0
 62
7
  6
CENTER
370
-3
390
F
  0
LAYER
  5
1FB
100
AcDbSymbolTableRecord
100
AcDbLayerTableRecord
  2
DEFAULT_2
 70
0
 62
8
  6
HIDDEN
370
-3
390
F
  0
LAYER
  5
1FC
100
AcDbSymbolTableRecord
100
AcDbLayerTableRecord
  2
DEFAULT_3
 70
0
 62
7
  6
PHANTOM
370
-3
390
F
  0
LAYER
  5
1FD
100
AcDbSymbolTableRecord
100
AcDbLayerTableRecord
  2
ALL_FEATURES
 70
0
 62
7
  6
CONTINUOUS
370
-3
390
F
  0
LAYER
  5
1FE
100
AcDbSymbolTableRecord
100
AcDbLayerTableRecord
  2
AXES_FEATURES
 70
0
 62
7
  6
CONTINUOUS
370
-3
390
F
  0
LAYER
  5
1FF
100
AcDbSymbolTableRecord
100
AcDbLayerTableRecord
  2
DEFAULT_COORDINATE_SYSTEM
 70
0
 62
7
  6
CONTINUOUS
370
-3
390
F
  0
LAYER
  5
200
100
AcDbSymbolTableRecord
100
AcDbLayerTableRecord
  2
DEFAULT_DATUM_AXES
 70
0
 62
7
  6
CONTINUOUS
370
-3
390
F
  0
LAYER
  5
201
100
AcDbSymbolTableRecord
100
AcDbLayerTableRecord
  2
DEFAULT_DATUM_PLANES
 70
0
 62
7
  6
CONTINUOUS
370
-3
390
F
  0
LAYER
  5
202
100
AcDbSymbolTableRecord
100
AcDbLayerTableRecord
  2
DIMENSIONS
 70
0
 62
7
  6
CONTINUOUS
370
-3
390
F
  0
ENDTAB
  0
TABLE
  2
STYLE
  5
3
100
AcDbSymbolTable
 70
1
  0
STYLE
  5
11
100
AcDbSymbolTableRecord
100
AcDbTextStyleTableRecord
  2
STANDARD
 70
0
 40
0.0
 41
0.8
 50
0.0
 71
0
 42
0.2
  3
txt
  4

  0
STYLE
  5
203
100
AcDbSymbolTableRecord
100
AcDbTextStyleTableRecord
  2
TEXTSTYLE_1
 70
0
 40
0.0
 41
0.8
 50
0.0
 71
0
 42
0.2
  3
gdt
  4

  0
ENDTAB
  0
TABLE
  2
VIEW
  5
6
100
AcDbSymbolTable
 70
0
  0
ENDTAB
  0
TABLE
  2
UCS
  5
7
100
AcDbSymbolTable
 70
0
  0
ENDTAB
  0
TABLE
  2
APPID
  5
9
100
AcDbSymbolTable
 70
1
  0
APPID
  5
204
100
AcDbSymbolTableRecord
100
AcDbRegAppTableRecord
  2
ACAD
 70
0
  0
ENDTAB
  0
TABLE
  2
BLOCK_RECORD
  5
1
100
AcDbSymbolTable
 70
0
  0
BLOCK_RECORD
  5
205
100
AcDbSymbolTableRecord
100
AcDbBlockTableRecord
  2
*Model_Space
  0
BLOCK_RECORD
  5
206
100
AcDbSymbolTableRecord
100
AcDbBlockTableRecord
  2
*Paper_Space
  0
BLOCK_RECORD
  5
207
100
AcDbSymbolTableRecord
100
AcDbBlockTableRecord
  2
_FILLED
  0
ENDTAB
  0
TABLE
  2
DIMSTYLE
  5
A
100
AcDbSymbolTable
 70
1
100
AcDbDimStyleTable
 71
0
  0
DIMSTYLE
105
208
100
AcDbSymbolTableRecord
100
AcDbDimStyleTableRecord
  2
STANDARD
 70
0
  3

  4

 40
1.0
 41
0.1
 42
0.0625
 43
0.38
 44
0.125
 45
0.0
 46
0.0
 47
0.001
 48
0.001
140
0.08
141
0.09
142
0.0
143
25.4
144
1.0
145
0.0
146
1.0
147
0.09
 71
1.0
 72
0.0
 73
1
 74
1
 75
0
 76
0
 77
0
 78
4
 79
1
170
1
171
2
172
0
173
0
174
0
175
0
176
0
177
0
178
0
270
2
179
3
271
3
272
3
273
2
274
2
275
0
280
0
281
0
282
0
283
1
284
4
285
0
286
0
287
3
288
0
340
11
278
46
341
207
342
207
343
207
344
207
  0
ENDTAB
  0
ENDSEC
  0
SECTION
  2
BLOCKS
  0
BLOCK
  5
20
100
AcDbEntity
  8
0
100
AcDbBlockBegin
  2
*Model_Space
 70
0
 10
0.0
 20
0.0
 30
0.0
  3
*Model_Space
  1

  0
ENDBLK
  5
21
100
AcDbEntity
  8
0
100
AcDbBlockEnd
  0
BLOCK
  5
1C
100
AcDbEntity
  8
0
100
AcDbBlockBegin
  2
*Paper_Space
 70
0
 10
0.0
 20
0.0
 30
0.0
  3
*Paper_Space
  1

  0
ENDBLK
  5
1D
100
AcDbEntity
  8
0
100
AcDbBlockEnd
  0
BLOCK
  5
209
100
AcDbEntity
  8
0
100
AcDbBlockBegin
  2
_FILLED
 70
64
 10
0.0
 20
0.0
  3
_FILLED
  1

  0
SOLID
  5
20A
100
AcDbEntity
  8
0
  6
BYBLOCK
 62
0
100
AcDbTrace
 10
0.0
 20
0.0
 11
-1.0
 21
0.2
 12
-1.0
 22
-0.2
 13
-1.0
 23
-0.2
  0
ENDBLK
  5
20B
100
AcDbEntity
  8
0
  6
BYBLOCK
 62
0
100
AcDbBlockEnd
  0
ENDSEC
  0
SECTION
  2
ENTITIES
  0
LINE
  5
20C
100
AcDbEntity
  8
0
100
AcDbLine
 62
7
  6
CONTINUOUS
 10
10.4831823866
 20
11.2392945021
 11
10.4244581905
 21
11.2202138542
  0
LINE
  5
20D
100
AcDbEntity
  8
0
100
AcDbLine
 62
7
  6
CONTINUOUS
 10
10.4370391303
 20
11.1137945021
 11
10.4101923427
 21
11.0982945021
  0
LINE
  5
20E
100
AcDbEntity
  8
0
100
AcDbLine
 62
7
  6
CONTINUOUS
 10
9.9950151198
 20
10.6455072065
 11
9.9129258627
 21
10.58802769
  0
LINE
  5
20F
100
AcDbEntity
  8
0
100
AcDbLine
 62
7
  6
CONTINUOUS
 10
10.4244581905
 20
11.2202138542
 11
10.4101923427
 21
11.2005785993
  0
LINE
  5
210
100
AcDbEntity
  8
0
100
AcDbLine
 62
7
  6
CONTINUOUS
 10
11.4383455552
 20
11.1137945021
 11
11.4651923427
 21
11.1292945021
  0
LINE
  5
211
100
AcDbEntity
  8
0
100
AcDbLine
 62
9
  6
CONTINUOUS
 10
9.9129258627
 20
11.0385613143
 11
9.9129258627
 21
10.58802769
  0
LINE
  5
212
100
AcDbEntity
  8
0
100
AcDbLine
 62
7
  6
CONTINUOUS
 10
10.4101923427
 20
11.0982945021
 11
10.3801923427
 21
11.0182945021
  0
LINE
  5
213
100
AcDbEntity
  8
0
100
AcDbLine
 62
7
  6
CONTINUOUS
 10
11.3081923427
 20
10.4782945021
 11
11.4651923427
 21
10.5292945021
  0
LINE
  5
214
100
AcDbEntity
  8
0
100
AcDbLine
 62
9
  6
CONTINUOUS
 10
9.9950151198
 20
10.6455072065
 11
9.9950151198
 21
10.9810817977
  0
LINE
  5
215
100
AcDbEntity
  8
0
100
AcDbLine
 62
7
  6
CONTINUOUS
 10
10.0201923427
 20
11.0023848185
 11
10.0201923427
 21
10.6242041858
  0
LINE
  5
216
100
AcDbEntity
  8
0
100
AcDbLine
 62
9
  6
CONTINUOUS
 10
10.0450555013
 20
10.6223772089
 11
10.0450555013
 21
11.0042117954
  0
LINE
  5
217
100
AcDbEntity
  8
0
100
AcDbLine
 62
7
  6
CONTINUOUS
 10
11.8803695657
 20
10.9810817977
 11
11.9624588227
 21
11.0385613143
  0
LINE
  5
218
100
AcDbEntity
  8
0
100
AcDbLine
 62
7
  6
CONTINUOUS
 10
9.7577033742
 20
8.4010445021
 11
12.1176813113
 21
8.4010445021
  0
LINE
  5
219
100
AcDbEntity
  8
0
100
AcDbLine
 62
7
  6
CONTINUOUS
 10
10.1966923427
 20
8.8380445021
 11
10.1966923427
 21
8.7760445021
  0
LINE
  5
21A
100
AcDbEntity
  8
0
100
AcDbLine
 62
7
  6
CONTINUOUS
 10
10.2054625159
 20
9.0879897209
 11
10.2054617382
 21
8.8380445021
  0
LINE
  5
21B
100
AcDbEntity
  8
0
100
AcDbLine
 62
7
  6
CONTINUOUS
 10
10.3971923427
 20
9.7536609409
 11
10.3230583485
 21
9.6477433137
  0
LINE
  5
21C
100
AcDbEntity
  8
0
100
AcDbLine
 62
7
  6
CONTINUOUS
 10
9.9376923427
 20
8.5880445021
 11
11.9376923427
 21
8.5880445021
  0
LINE
  5
21D
100
AcDbEntity
  8
0
100
AcDbLine
 62
7
  6
CONTINUOUS
 10
10.4016620001
 20
9.0879880456
 11
10.4016623374
 21
8.8380445021
  0
LINE
  5
21E
100
AcDbEntity
  8
0
100
AcDbLine
 62
9
  6
CONTINUOUS
 10
10.4065263329
 20
10.6585622468
 11
10.4065263329
 21
10.967913901
  0
LINE
  5
21F
100
AcDbEntity
  8
0
100
AcDbLine
 62
7
  6
CONTINUOUS
 10
10.4101923427
 20
11.2005785993
 11
10.4101923427
 21
11.1292945021
  0
LINE
  5
220
100
AcDbEntity
  8
0
100
AcDbLine
 62
9
  6
CONTINUOUS
 10
10.4286863666
 20
10.9090543556
 11
10.4286863666
 21
10.7176068521
  0
LINE
  5
221
100
AcDbEntity
  8
0
100
AcDbLine
 62
7
  6
CONTINUOUS
 10
11.7506946464
 20
8.7760445021
 11
10.1246900391
 21
8.7760445021
  0
LINE
  5
222
100
AcDbEntity
  8
0
100
AcDbLine
 62
7
  6
CONTINUOUS
 10
10.5941923427
 20
10.4782945021
 11
10.5941923427
 21
10.1192945021
  0
LINE
  5
223
100
AcDbEntity
  8
0
100
AcDbLine
 62
7
  6
CONTINUOUS
 10
10.2965289031
 20
9.2045445021
 11
10.2580335303
 21
9.1661600194
  0
LINE
  5
224
100
AcDbEntity
  8
0
100
AcDbLine
 62
7
  6
CONTINUOUS
 10
10.1967027496
 20
8.8380445021
 11
11.6786819359
 21
8.8380445021
  0
LINE
  5
225
100
AcDbEntity
  8
0
100
AcDbLine
 62
7
  6
CONTINUOUS
 10
10.6296923427
 20
11.282378264
 11
10.6296923427
 21
11.2833985198
  0
LINE
  5
226
100
AcDbEntity
  8
0
100
AcDbLine
 62
9
  6
CONTINUOUS
 10
10.6356613602
 20
11.2842868877
 11
10.6356613602
 21
11.2832672085
  0
LINE
  5
227
100
AcDbEntity
  8
0
100
AcDbLine
 62
9
  6
CONTINUOUS
 10
10.668980108
 20
11.2896694733
 11
10.668980108
 21
11.2886533262
  0
LINE
  5
228
100
AcDbEntity
  8
0
100
AcDbLine
 62
7
  6
CONTINUOUS
 10
10.7376923427
 20
10.0880445021
 11
10.7376923427
 21
10.1192945021
  0
LINE
  5
229
100
AcDbEntity
  8
0
100
AcDbLine
 62
7
  6
CONTINUOUS
 10
10.7401422312
 20
11.3014721548
 11
10.7401422312
 21
11.3004638115
  0
LINE
  5
22A
100
AcDbEntity
  8
0
100
AcDbLine
 62
7
  6
CONTINUOUS
 10
10.8139923427
 20
11.3093527315
 11
10.8139923427
 21
11.3083495324
  0
LINE
  5
22B
100
AcDbEntity
  8
0
100
AcDbLine
 62
7
  6
CONTINUOUS
 10
10.8989923427
 20
11.3138115099
 11
10.8989923427
 21
11.3128111981
  0
LINE
  5
22C
100
AcDbEntity
  8
0
100
AcDbLine
 62
7
  6
CONTINUOUS
 10
10.9476923427
 20
11.3130619642
 11
10.9476923427
 21
11.3119308184
  0
LINE
  5
22D
100
AcDbEntity
  8
0
100
AcDbLine
 62
9
  6
CONTINUOUS
 10
11.5788557824
 20
9.2045445021
 11
10.2965289031
 21
9.2045445021
  0
LINE
  5
22E
100
AcDbEntity
  8
0
100
AcDbLine
 62
7
  6
CONTINUOUS
 10
10.3801923427
 20
10.6082945021
 11
10.4101923427
 21
10.5292945021
  0
LINE
  5
22F
100
AcDbEntity
  8
0
100
AcDbLine
 62
7
  6
CONTINUOUS
 10
10.9691923427
 20
11.3136394916
 11
10.9691923427
 21
11.3126390688
  0
LINE
  5
230
100
AcDbEntity
  8
0
100
AcDbLine
 62
7
  6
CONTINUOUS
 10
11.0051923427
 20
11.3114882325
 11
11.0051923427
 21
11.3124893986
  0
LINE
  5
231
100
AcDbEntity
  8
0
100
AcDbLine
 62
9
  6
CONTINUOUS
 10
11.0351923427
 20
11.3099746263
 11
11.0351923427
 21
11.3089718309
  0
LINE
  5
232
100
AcDbEntity
  8
0
100
AcDbLine
 62
9
  6
CONTINUOUS
 10
11.0591923427
 20
11.3072703056
 11
11.0591923427
 21
11.3082742056
  0
LINE
  5
233
100
AcDbEntity
  8
0
100
AcDbLine
 62
9
  6
CONTINUOUS
 10
11.0848575327
 20
11.3065563023
 11
11.0848575327
 21
11.3055512837
  0
LINE
  5
234
100
AcDbEntity
  8
0
100
AcDbLine
 62
7
  6
CONTINUOUS
 10
11.0981372794
 20
11.3057555251
 11
11.0981372794
 21
11.3047499843
  0
LINE
  5
235
100
AcDbEntity
  8
0
100
AcDbLine
 62
7
  6
CONTINUOUS
 10
11.4951923427
 20
10.6082945021
 11
11.4651923427
 21
10.5292945021
  0
LINE
  5
236
100
AcDbEntity
  8
0
100
AcDbLine
 62
9
  6
CONTINUOUS
 10
10.3191923427
 20
9.4195445021
 11
11.5561923427
 21
9.4195445021
  0
LINE
  5
237
100
AcDbEntity
  8
0
100
AcDbLine
 62
7
  6
CONTINUOUS
 10
11.1276923427
 20
11.3014009649
 11
11.1276923427
 21
11.3002612352
  0
LINE
  5
238
100
AcDbEntity
  8
0
100
AcDbLine
 62
7
  6
CONTINUOUS
 10
11.1338914903
 20
9.0879897208
 11
11.1338929419
 21
8.8380445021
  0
LINE
  5
239
100
AcDbEntity
  8
0
100
AcDbLine
 62
7
  6
CONTINUOUS
 10
11.1376923427
 20
11.3013427628
 11
11.1376923427
 21
11.2996789609
  0
LINE
  5
23A
100
AcDbEntity
  8
0
100
AcDbLine
 62
7
  6
CONTINUOUS
 10
11.1376923427
 20
10.0880445021
 11
11.1376923427
 21
10.1192945021
  0
LINE
  5
23B
100
AcDbEntity
  8
0
100
AcDbLine
 62
7
  6
CONTINUOUS
 10
11.1739742231
 20
11.2941874648
 11
11.1739742231
 21
11.2961871673
  0
LINE
  5
23C
100
AcDbEntity
  8
0
100
AcDbLine
 62
9
  6
CONTINUOUS
 10
11.1799742231
 20
11.294034885
 11
11.1799742231
 21
11.2930216383
  0
LINE
  5
23D
100
AcDbEntity
  8
0
100
AcDbLine
 62
9
  6
CONTINUOUS
 10
11.2078371309
 20
11.2883467402
 11
11.2078371309
 21
11.2893630915
  0
LINE
  5
23E
100
AcDbEntity
  8
0
100
AcDbLine
 62
9
  6
CONTINUOUS
 10
11.2533723487
 20
11.2815603586
 11
11.2533723487
 21
11.2805387793
  0
LINE
  5
23F
100
AcDbEntity
  8
0
100
AcDbLine
 62
7
  6
CONTINUOUS
 10
11.2583532627
 20
11.2797535977
 11
11.2583532627
 21
11.2807757057
  0
LINE
  5
240
100
AcDbEntity
  8
0
100
AcDbLine
 62
7
  6
CONTINUOUS
 10
11.2811923427
 20
10.4782945021
 11
11.2811923427
 21
10.1192945021
  0
LINE
  5
241
100
AcDbEntity
  8
0
100
AcDbLine
 62
9
  6
CONTINUOUS
 10
11.4466983189
 20
10.7175376824
 11
11.4466983189
 21
10.9090015707
  0
LINE
  5
242
100
AcDbEntity
  8
0
100
AcDbLine
 62
9
  6
CONTINUOUS
 10
10.3230583485
 20
9.6477433137
 11
11.5523263369
 21
9.6477433137
  0
LINE
  5
243
100
AcDbEntity
  8
0
100
AcDbLine
 62
9
  6
CONTINUOUS
 10
11.4781923427
 20
9.7536609409
 11
10.3971923427
 21
9.7536609409
  0
LINE
  5
244
100
AcDbEntity
  8
0
100
AcDbLine
 62
7
  6
CONTINUOUS
 10
11.5788557824
 20
9.2045445021
 11
11.6173511552
 21
9.1661600194
  0
LINE
  5
245
100
AcDbEntity
  8
0
100
AcDbLine
 62
7
  6
CONTINUOUS
 10
11.4651923427
 20
11.2005785993
 11
11.4651923427
 21
11.1292945021
  0
LINE
  5
246
100
AcDbEntity
  8
0
100
AcDbLine
 62
9
  6
CONTINUOUS
 10
11.4688583526
 20
10.9680315535
 11
11.4688583526
 21
10.6586799129
  0
LINE
  5
247
100
AcDbEntity
  8
0
100
AcDbLine
 62
7
  6
CONTINUOUS
 10
11.6699221696
 20
9.0879897209
 11
11.6699229473
 21
8.8380445021
  0
LINE
  5
248
100
AcDbEntity
  8
0
100
AcDbLine
 62
7
  6
CONTINUOUS
 10
11.6786923427
 20
8.8380445021
 11
11.6786923427
 21
8.7760445021
  0
LINE
  5
249
100
AcDbEntity
  8
0
100
AcDbLine
 62
9
  6
CONTINUOUS
 10
11.3674320703
 20
10.0596437448
 11
10.5079526152
 21
10.0596437448
  0
LINE
  5
24A
100
AcDbEntity
  8
0
100
AcDbLine
 62
7
  6
CONTINUOUS
 10
11.3365292043
 20
10.0880445021
 11
10.5388554812
 21
10.0880445021
  0
LINE
  5
24B
100
AcDbEntity
  8
0
100
AcDbLine
 62
7
  6
CONTINUOUS
 10
10.5941929974
 20
10.1192945021
 11
11.2811916881
 21
10.1192945021
  0
LINE
  5
24C
100
AcDbEntity
  8
0
100
AcDbLine
 62
7
  6
CONTINUOUS
 10
11.4781923427
 20
9.7536609409
 11
11.5523263369
 21
9.6477433137
  0
LINE
  5
24D
100
AcDbEntity
  8
0
100
AcDbLine
 62
9
  6
CONTINUOUS
 10
11.8303291842
 20
10.6223772089
 11
11.8303291842
 21
11.0042117954
  0
LINE
  5
24E
100
AcDbEntity
  8
0
100
AcDbLine
 62
7
  6
CONTINUOUS
 10
11.8551923427
 20
10.6242041858
 11
11.8551923427
 21
11.0023848185
  0
LINE
  5
24F
100
AcDbEntity
  8
0
100
AcDbLine
 62
9
  6
CONTINUOUS
 10
11.8803695657
 20
10.9810817977
 11
11.8803695657
 21
10.6455072065
  0
LINE
  5
250
100
AcDbEntity
  8
0
100
AcDbLine
 62
9
  6
CONTINUOUS
 10
11.9624588227
 20
10.58802769
 11
11.9624588227
 21
11.0385613143
  0
LINE
  5
251
100
AcDbEntity
  8
0
100
AcDbLine
 62
7
  6
CONTINUOUS
 10
9.9950151198
 20
10.9810817977
 11
9.9129258627
 21
11.0385613143
  0
LINE
  5
252
100
AcDbEntity
  8
0
100
AcDbLine
 62
7
  6
CONTINUOUS
 10
10.5671923427
 20
10.4782945021
 11
10.4101923427
 21
10.5292945021
  0
LINE
  5
253
100
AcDbEntity
  8
0
100
AcDbLine
 62
7
  6
CONTINUOUS
 10
11.4651923427
 20
11.0982945021
 11
11.4951923427
 21
11.0182945021
  0
LINE
  5
254
100
AcDbEntity
  8
0
100
AcDbLine
 62
7
  6
CONTINUOUS
 10
10.5671930596
 20
10.4782945021
 11
11.3081916259
 21
10.4782945021
  0
LINE
  5
255
100
AcDbEntity
  8
0
100
AcDbLine
 62
7
  6
CONTINUOUS
 10
11.4651923427
 20
10.5292945021
 11
10.4101923427
 21
10.5292945021
  0
LINE
  5
256
100
AcDbEntity
  8
0
100
AcDbLine
 62
7
  6
CONTINUOUS
 10
10.3801923427
 20
10.6082945021
 11
10.7566382543
 21
10.6082945021
  0
LINE
  5
257
100
AcDbEntity
  8
0
100
AcDbLine
 62
7
  6
CONTINUOUS
 10
11.1187464312
 20
10.6082945021
 11
11.4951923427
 21
10.6082945021
  0
LINE
  5
258
100
AcDbEntity
  8
0
100
AcDbLine
 62
7
  6
CONTINUOUS
 10
10.4370391303
 20
11.1137945021
 11
10.4101923427
 21
11.1292945021
  0
LINE
  5
259
100
AcDbEntity
  8
0
100
AcDbLine
 62
7
  6
CONTINUOUS
 10
11.8803695657
 20
10.6455072065
 11
11.9624588227
 21
10.58802769
  0
LINE
  5
25A
100
AcDbEntity
  8
0
100
AcDbLine
 62
7
  6
CONTINUOUS
 10
11.450926495
 20
11.2202138542
 11
11.4651923427
 21
11.2005785993
  0
LINE
  5
25B
100
AcDbEntity
  8
0
100
AcDbLine
 62
7
  6
CONTINUOUS
 10
11.4951923427
 20
11.0182945021
 11
11.1187464312
 21
11.0182945021
  0
LINE
  5
25C
100
AcDbEntity
  8
0
100
AcDbLine
 62
7
  6
CONTINUOUS
 10
10.7566382543
 20
11.0182945021
 11
10.3801923427
 21
11.0182945021
  0
LINE
  5
25D
100
AcDbEntity
  8
0
100
AcDbLine
 62
7
  6
CONTINUOUS
 10
10.4101923427
 20
11.0982945021
 11
11.4651923427
 21
11.0982945021
  0
LINE
  5
25E
100
AcDbEntity
  8
0
100
AcDbLine
 62
7
  6
CONTINUOUS
 10
10.4370391303
 20
11.1137945021
 11
11.4383455552
 21
11.1137945021
  0
LINE
  5
25F
100
AcDbEntity
  8
0
100
AcDbLine
 62
7
  6
CONTINUOUS
 10
10.4101923427
 20
11.1292945021
 11
11.4651923427
 21
11.1292945021
  0
LINE
  5
260
100
AcDbEntity
  8
0
100
AcDbLine
 62
7
  6
CONTINUOUS
 10
11.4383455552
 20
11.1137945021
 11
11.4651923427
 21
11.0982945021
  0
LINE
  5
261
100
AcDbEntity
  8
0
100
AcDbLine
 62
7
  6
CONTINUOUS
 10
11.4651923427
 20
11.2005785993
 11
10.4101923427
 21
11.2005785993
  0
LINE
  5
262
100
AcDbEntity
  8
0
100
AcDbLine
 62
7
  6
CONTINUOUS
 10
10.4244581905
 20
11.2202138542
 11
11.450926495
 21
11.2202138542
  0
LINE
  5
263
100
AcDbEntity
  8
0
100
AcDbLine
 62
7
  6
CONTINUOUS
 10
11.392190394
 20
11.2392945021
 11
10.4831942914
 21
11.2392945021
  0
LINE
  5
264
100
AcDbEntity
  8
0
100
AcDbLine
 62
9
  6
CONTINUOUS
 10
11.3328369993
 20
11.2631037954
 11
10.5425476862
 21
11.2631037954
  0
LINE
  5
265
100
AcDbEntity
  8
0
100
AcDbLine
 62
7
  6
CONTINUOUS
 10
11.3922022989
 20
11.2392945021
 11
11.450926495
 21
11.2202138542
  0
LINE
  5
266
100
AcDbEntity
  8
0
100
AcDbLine
 62
7
  6
CONTINUOUS
 10
10.8989923427
 20
11.3138115099
 11
10.8139923427
 21
11.3093527315
  0
LINE
  5
267
100
AcDbEntity
  8
0
100
AcDbLine
 62
7
  6
CONTINUOUS
 10
10.9691923427
 20
11.3129743203
 11
11.0051923427
 21
11.3118237332
  0
LINE
  5
268
100
AcDbEntity
  8
0
100
AcDbLine
 62
7
  6
CONTINUOUS
 10
11.1376923427
 20
11.3003343346
 11
11.1739742231
 21
11.2951753444
  0
ARC
  5
269
100
AcDbEntity
  8
0
100
AcDbCircle
 62
7
  6
CONTINUOUS
 10
9.8851534407
 20
10.1120478307
 40
0.625
100
AcDbArc
 50
325.0110095299
 51
355.1903004544
  0
ARC
  5
26A
100
AcDbEntity
  8
0
100
AcDbCircle
 62
7
  6
CONTINUOUS
 10
10.4901674638
 20
9.5307800989
 40
0.2039751211
100
AcDbArc
 50
145.0110095298
 51
213.0478355063
  0
ARC
  5
26B
100
AcDbEntity
  8
0
100
AcDbCircle
 62
7
  6
CONTINUOUS
 10
9.9448284538
 20
8.4010445021
 40
0.1871361111
100
AcDbArc
 50
92.1854050713
 51
180.0
  0
ARC
  5
26C
100
AcDbEntity
  8
0
100
AcDbCircle
 62
7
  6
CONTINUOUS
 10
10.1246896689
 20
8.5890445021
 40
0.187
100
AcDbArc
 50
90.0
 51
180.3063960032
  0
ARC
  5
26D
100
AcDbEntity
  8
0
100
AcDbCircle
 62
7
  6
CONTINUOUS
 10
10.1754178091
 20
9.3260054776
 40
0.1715245336
100
AcDbArc
 50
314.9173576842
 51
33.0478355063
  0
ARC
  5
26E
100
AcDbEntity
  8
0
100
AcDbCircle
 62
7
  6
CONTINUOUS
 10
10.5388434542
 20
10.0570445021
 40
0.031
100
AcDbArc
 50
90.0
 51
175.1903004544
  0
ARC
  5
26F
100
AcDbEntity
  8
0
100
AcDbCircle
 62
7
  6
CONTINUOUS
 10
9.7551923427
 20
10.8132945021
 40
0.275
100
AcDbArc
 50
55.0
 51
305.0
  0
ARC
  5
270
100
AcDbEntity
  8
0
100
AcDbCircle
 62
7
  6
CONTINUOUS
 10
10.2278163838
 20
10.4517945021
 40
0.25
100
AcDbArc
 50
47.6849467876
 51
136.9739483152
  0
ARC
  5
271
100
AcDbEntity
  8
0
100
AcDbCircle
 62
7
  6
CONTINUOUS
 10
10.2278163838
 20
11.1747945021
 40
0.25
100
AcDbArc
 50
223.0260516848
 51
312.3073607029
  0
ARC
  5
272
100
AcDbEntity
  8
0
100
AcDbCircle
 62
7
  6
CONTINUOUS
 10
10.5501923427
 20
11.2340941552
 40
0.03
100
AcDbArc
 50
104.7630312683
 51
170.0176441513
  0
ARC
  5
273
100
AcDbEntity
  8
0
100
AcDbCircle
 62
7
  6
CONTINUOUS
 10
10.0041923427
 20
10.6324007738
 40
0.016
100
AcDbArc
 50
0.0
 51
125.0
  0
ARC
  5
274
100
AcDbEntity
  8
0
100
AcDbCircle
 62
7
  6
CONTINUOUS
 10
10.0041923427
 20
10.9941882305
 40
0.016
100
AcDbArc
 50
235.0
 51
360.0
  0
ARC
  5
275
100
AcDbEntity
  8
0
100
AcDbCircle
 62
7
  6
CONTINUOUS
 10
10.0333588048
 20
10.9932945021
 40
0.016
100
AcDbArc
 50
43.0260516849
 51
145.3765489004
  0
ARC
  5
276
100
AcDbEntity
  8
0
100
AcDbCircle
 62
7
  6
CONTINUOUS
 10
10.0333588048
 20
10.6332945021
 40
0.016
100
AcDbArc
 50
214.6234510996
 51
316.9739483151
  0
ARC
  5
277
100
AcDbEntity
  8
0
100
AcDbCircle
 62
7
  6
CONTINUOUS
 10
11.4439578659
 20
7.1401948346
 40
4.219532491
100
AcDbArc
 50
99.373937267
 51
99.4945857817
  0
ARC
  5
278
100
AcDbEntity
  8
0
100
AcDbCircle
 62
7
  6
CONTINUOUS
 10
10.9376923427
 20
9.7636244867
 40
1.5506700155
100
AcDbArc
 50
78.2452598242
 51
81.2354682492
  0
ARC
  5
279
100
AcDbEntity
  8
0
100
AcDbCircle
 62
7
  6
CONTINUOUS
 10
10.9376923427
 20
9.7636244867
 40
1.5506700155
100
AcDbArc
 50
103.0445666344
 51
104.7630312681
  0
ARC
  5
27A
100
AcDbEntity
  8
0
100
AcDbCircle
 62
7
  6
CONTINUOUS
 10
10.9376923427
 20
9.7636244867
 40
1.5506700155
100
AcDbArc
 50
95.9223882121
 51
101.2405414428
  0
ARC
  5
27B
100
AcDbEntity
  8
0
100
AcDbCircle
 62
7
  6
CONTINUOUS
 10
10.9376923427
 20
9.7636244867
 40
1.5506700155
100
AcDbArc
 50
88.836024953
 51
90.1108472106
  0
ARC
  5
27C
100
AcDbEntity
  8
0
100
AcDbCircle
 62
7
  6
CONTINUOUS
 10
10.9376923427
 20
9.7636244867
 40
1.5506700155
100
AcDbArc
 50
84.2280819996
 51
87.505151011
  0
ARC
  5
27D
100
AcDbEntity
  8
0
100
AcDbCircle
 62
7
  6
CONTINUOUS
 10
10.9376923427
 20
9.7636244867
 40
1.5506700155
100
AcDbArc
 50
82.589547494
 51
83.7418701747
  0
ARC
  5
27E
100
AcDbEntity
  8
0
100
AcDbCircle
 62
7
  6
CONTINUOUS
 10
10.9376923427
 20
9.7636244867
 40
1.5506700155
100
AcDbArc
 50
75.2369687319
 51
76.6139015814
  0
ARC
  5
27F
100
AcDbEntity
  8
0
100
AcDbCircle
 62
7
  6
CONTINUOUS
 10
10.9376923427
 20
9.7636244867
 40
1.5496700155
100
AcDbArc
 50
77.4925826781
 51
78.0591795779
  0
ARC
  5
280
100
AcDbEntity
  8
0
100
AcDbCircle
 62
7
  6
CONTINUOUS
 10
10.9376923427
 20
9.7636244867
 40
1.5496700155
100
AcDbArc
 50
94.5784174525
 51
95.213560453
  0
ARC
  5
281
100
AcDbEntity
  8
0
100
AcDbCircle
 62
7
  6
CONTINUOUS
 10
10.9376923427
 20
9.7636244867
 40
1.5496700155
100
AcDbArc
 50
90.8291843918
 51
91.430999623
  0
ARC
  5
282
100
AcDbEntity
  8
0
100
AcDbCircle
 62
7
  6
CONTINUOUS
 10
10.9376923427
 20
9.7636244867
 40
1.5496700155
100
AcDbArc
 50
101.4639028364
 51
102.1588703003
  0
ARC
  5
283
100
AcDbEntity
  8
0
100
AcDbCircle
 62
7
  6
CONTINUOUS
 10
10.9376923427
 20
9.7636244867
 40
1.549469747
100
AcDbArc
 50
79.9593632588
 51
81.0040654587
  0
ARC
  5
284
100
AcDbEntity
  8
0
100
AcDbCircle
 62
7
  6
CONTINUOUS
 10
10.9376923427
 20
9.7636244867
 40
1.5494208609
100
AcDbArc
 50
85.5024540677
 51
86.3921798126
  0
ARC
  5
285
100
AcDbEntity
  8
0
100
AcDbCircle
 62
7
  6
CONTINUOUS
 10
10.9376923427
 20
9.7636244867
 40
1.5483386247
100
AcDbArc
 50
84.0880697177
 51
89.6299506004
  0
ARC
  5
286
100
AcDbEntity
  8
0
100
AcDbCircle
 62
7
  6
CONTINUOUS
 10
10.9376923427
 20
9.7636244867
 40
1.5483386247
100
AcDbArc
 50
79.7882367111
 51
82.9513441199
  0
ARC
  5
287
100
AcDbEntity
  8
0
100
AcDbCircle
 62
7
  6
CONTINUOUS
 10
10.8987789876
 20
9.9988800473
 40
1.3122163766
100
AcDbArc
 50
96.2161682461
 51
96.9435981609
  0
ARC
  5
288
100
AcDbEntity
  8
0
100
AcDbCircle
 62
7
  6
CONTINUOUS
 10
10.9687779947
 20
10.1727743013
 40
1.1403421758
100
AcDbArc
 50
83.0535751545
 51
83.4864024217
  0
ARC
  5
289
100
AcDbEntity
  8
0
100
AcDbCircle
 62
7
  6
CONTINUOUS
 10
11.3852172217
 20
9.5307800989
 40
0.2039751211
100
AcDbArc
 50
326.9521644937
 51
34.9889904702
  0
ARC
  5
28A
100
AcDbEntity
  8
0
100
AcDbCircle
 62
7
  6
CONTINUOUS
 10
11.7506950166
 20
8.5890445021
 40
0.187
100
AcDbArc
 50
359.6936039968
 51
90.0
  0
ARC
  5
28B
100
AcDbEntity
  8
0
100
AcDbCircle
 62
7
  6
CONTINUOUS
 10
11.6999668764
 20
9.3260054776
 40
0.1715245336
100
AcDbArc
 50
146.9521644937
 51
225.0826423158
  0
ARC
  5
28C
100
AcDbEntity
  8
0
100
AcDbCircle
 62
7
  6
CONTINUOUS
 10
11.3365412312
 20
10.0570445021
 40
0.031
100
AcDbArc
 50
4.8096995456
 51
90.0
  0
ARC
  5
28D
100
AcDbEntity
  8
0
100
AcDbCircle
 62
7
  6
CONTINUOUS
 10
10.7814621738
 20
13.5818497231
 40
2.2727604605
100
AcDbArc
 50
273.1008078795
 51
273.6332341429
  0
ARC
  5
28E
100
AcDbEntity
  8
0
100
AcDbCircle
 62
7
  6
CONTINUOUS
 10
10.9429315623
 20
12.3192135282
 40
1.0061628324
100
AcDbArc
 50
270.2711028851
 51
270.7705799494
  0
ARC
  5
28F
100
AcDbEntity
  8
0
100
AcDbCircle
 62
7
  6
CONTINUOUS
 10
11.066450764
 20
10.8908837253
 40
0.4160800951
100
AcDbArc
 50
85.6324201267
 51
86.2425603747
  0
ARC
  5
290
100
AcDbEntity
  8
0
100
AcDbCircle
 62
7
  6
CONTINUOUS
 10
11.0664504778
 20
10.8901472407
 40
0.4158118426
100
AcDbArc
 50
85.6295574434
 51
86.2409395044
  0
ARC
  5
291
100
AcDbEntity
  8
0
100
AcDbCircle
 62
7
  6
CONTINUOUS
 10
11.0664916304
 20
10.8915090674
 40
0.415453419
100
AcDbArc
 50
86.2425325337
 51
86.8541357158
  0
ARC
  5
292
100
AcDbEntity
  8
0
100
AcDbCircle
 62
7
  6
CONTINUOUS
 10
11.0664925416
 20
10.8907856002
 40
0.4151720987
100
AcDbArc
 50
86.2409563127
 51
86.8529666135
  0
ARC
  5
293
100
AcDbEntity
  8
0
100
AcDbCircle
 62
7
  6
CONTINUOUS
 10
11.0665226634
 20
10.8920668211
 40
0.4148948028
100
AcDbArc
 50
86.8541878905
 51
87.4671824176
  0
ARC
  5
294
100
AcDbEntity
  8
0
100
AcDbCircle
 62
7
  6
CONTINUOUS
 10
11.0665219913
 20
10.8913190065
 40
0.4146378801
100
AcDbArc
 50
86.8529834875
 51
87.4655190118
  0
CIRCLE
  5
295
100
AcDbEntity
  8
0
100
AcDbCircle
 62
7
  6
CONTINUOUS
 10
10.9376923427
 20
10.8132945021
 40
0.275
  0
ARC
  5
296
100
AcDbEntity
  8
0
100
AcDbCircle
 62
7
  6
CONTINUOUS
 10
11.6475683017
 20
10.4517945021
 40
0.25
100
AcDbArc
 50
43.0260516848
 51
132.3073253068
  0
ARC
  5
297
100
AcDbEntity
  8
0
100
AcDbCircle
 62
7
  6
CONTINUOUS
 10
11.6475683017
 20
11.1747945021
 40
0.25
100
AcDbArc
 50
227.6850112559
 51
316.9739483152
  0
ARC
  5
298
100
AcDbEntity
  8
0
100
AcDbCircle
 62
7
  6
CONTINUOUS
 10
11.2033311727
 20
11.4412051792
 40
0.1500130291
100
AcDbArc
 50
259.8699029976
 51
261.0426343266
  0
ARC
  5
299
100
AcDbEntity
  8
0
100
AcDbCircle
 62
7
  6
CONTINUOUS
 10
11.1071609827
 20
11.2560540485
 40
0.0487095646
100
AcDbArc
 50
98.0543578525
 51
101.8353111966
  0
ARC
  5
29A
100
AcDbEntity
  8
0
100
AcDbCircle
 62
7
  6
CONTINUOUS
 10
11.1069617941
 20
11.2573950559
 40
0.0473538776
100
AcDbArc
 50
94.1797778466
 51
98.0430668682
  0
ARC
  5
29B
100
AcDbEntity
  8
0
100
AcDbCircle
 62
7
  6
CONTINUOUS
 10
11.1069007063
 20
11.258138394
 40
0.0466080646
100
AcDbArc
 50
90.2561443687
 51
94.1714846586
  0
ARC
  5
29C
100
AcDbEntity
  8
0
100
AcDbCircle
 62
7
  6
CONTINUOUS
 10
11.3251923427
 20
11.2340941552
 40
0.03
100
AcDbArc
 50
9.9823558487
 51
75.2369687317
  0
ARC
  5
29D
100
AcDbEntity
  8
0
100
AcDbCircle
 62
7
  6
CONTINUOUS
 10
13.8870555307
 20
-7.3568265684
 40
18.9209778349
100
AcDbArc
 50
99.5895141494
 51
99.7795418169
  0
ARC
  5
29E
100
AcDbEntity
  8
0
100
AcDbCircle
 62
7
  6
CONTINUOUS
 10
11.9902312448
 20
10.1120478307
 40
0.625
100
AcDbArc
 50
184.8096995456
 51
214.9889904701
  0
ARC
  5
29F
100
AcDbEntity
  8
0
100
AcDbCircle
 62
7
  6
CONTINUOUS
 10
12.1201923427
 20
10.8132945021
 40
0.275
100
AcDbArc
 50
235.0
 51
125.0
  0
ARC
  5
2A0
100
AcDbEntity
  8
0
100
AcDbCircle
 62
7
  6
CONTINUOUS
 10
11.9305562316
 20
8.4010445021
 40
0.1871361111
100
AcDbArc
 50
0.0
 51
87.8145949287
  0
ARC
  5
2A1
100
AcDbEntity
  8
0
100
AcDbCircle
 62
7
  6
CONTINUOUS
 10
11.8711923427
 20
10.6324007738
 40
0.016
100
AcDbArc
 50
55.0
 51
180.0
  0
ARC
  5
2A2
100
AcDbEntity
  8
0
100
AcDbCircle
 62
7
  6
CONTINUOUS
 10
11.8711923427
 20
10.9941882305
 40
0.016
100
AcDbArc
 50
180.0
 51
305.0
  0
ARC
  5
2A3
100
AcDbEntity
  8
0
100
AcDbCircle
 62
7
  6
CONTINUOUS
 10
11.8420258806
 20
10.9932945021
 40
0.016
100
AcDbArc
 50
34.6234510996
 51
136.9739483151
  0
ARC
  5
2A4
100
AcDbEntity
  8
0
100
AcDbCircle
 62
7
  6
CONTINUOUS
 10
11.8420258806
 20
10.6332945021
 40
0.016
100
AcDbArc
 50
223.0260516849
 51
325.3765489004
  0
SPLINE
  5
2A5
100
AcDbEntity
  8
0
100
AcDbSpline
 62
7
  6
CONTINUOUS
 70
0
 71
3
 72
32
 73
28
 74
0
 42
0.0000001
 43
0.0000001
 44
0.0000000001
 40
0.0
 40
0.0
 40
0.0
 40
0.0
 40
0.0000650392
 40
0.0002600568
 40
0.0005849179
 40
0.001039488
 40
0.0023372166
 40
0.0041521657
 40
0.0064832587
 40
0.0093294191
 40
0.0126895707
 40
0.0165626376
 40
0.0258432141
 40
0.0371625451
 40
0.0505120306
 40
0.0658830742
 40
0.0832670831
 40
0.1026554681
 40
0.1474109731
 40
0.2000542611
 40
0.2604201489
 40
0.3283324518
 40
0.4036154225
 40
0.4860937918
 40
0.5755928019
 40
0.7749207555
 40
1.0
 40
1.0
 40
1.0
 40
1.0
 10
11.4951923533
 20
11.0182945021
 30
0.0
 10
11.4951917538
 20
11.0182945021
 30
0.0
 10
11.4951912441
 20
11.0182911862
 30
0.0
 10
11.4951878037
 20
11.0182877604
 30
0.0
 10
11.4951836115
 20
11.0182793497
 30
0.0
 10
11.4951736101
 20
11.0182632967
 30
0.0
 10
11.4951570261
 20
11.0182346974
 30
0.0
 10
11.49513138
 20
11.0181916664
 30
0.0
 10
11.4950986018
 20
11.0181361336
 30
0.0
 10
11.4950585527
 20
11.0180684058
 30
0.0
 10
11.4950113181
 20
11.0179883958
 30
0.0
 10
11.4949339708
 20
11.0178572955
 30
0.0
 10
11.4948194631
 20
11.0176629341
 30
0.0
 10
11.4946608151
 20
11.0173931971
 30
0.0
 10
11.4944739462
 20
11.0170749278
 30
0.0
 10
11.4942590502
 20
11.016708289
 30
0.0
 10
11.4940163218
 20
11.0162934423
 30
0.0
 10
11.4936373077
 20
11.0156445244
 30
0.0
 10
11.4930954701
 20
11.014714324
 30
0.0
 10
11.4923656061
 20
11.0134565256
 30
0.0
 10
11.4915321861
 20
11.0120120377
 30
0.0
 10
11.4905992603
 20
11.0103840411
 30
0.0
 10
11.4895709922
 20
11.0085757726
 30
0.0
 10
11.4884515299
 20
11.0065904768
 30
0.0
 10
11.4867819846
 20
11.0036027339
 30
0.0
 10
11.4844973868
 20
10.9994529787
 30
0.0
 10
11.482645072
 20
10.9960071569
 30
0.0
 10
11.4816727807
 20
10.9941743889
 30
0.0
  0
SPLINE
  5
2A6
100
AcDbEntity
  8
0
100
AcDbSpline
 62
7
  6
CONTINUOUS
 70
0
 71
3
 72
16
 73
12
 74
0
 42
0.0000001
 43
0.0000001
 44
0.0000000001
 40
0.0
 40
0.0
 40
0.0
 40
0.0
 40
0.1873976981
 40
0.3016155914
 40
0.4268173384
 40
0.5611983083
 40
0.702968917
 40
0.7760085099
 40
0.8501277283
 40
0.9249406629
 40
1.0
 40
1.0
 40
1.0
 40
1.0
 10
11.4816727807
 20
10.9941743889
 30
0.0
 10
11.476125202
 20
10.9837172096
 30
0.0
 10
11.4677121666
 20
10.9666020149
 30
0.0
 10
11.457251397
 20
10.941743967
 30
0.0
 10
11.449219142
 20
10.9195260718
 30
0.0
 10
11.4420674489
 20
10.8951841531
 30
0.0
 10
11.4373825744
 20
10.8736051636
 30
0.0
 10
11.43458151
 20
10.855565677
 30
0.0
 10
11.4330286945
 20
10.8416256509
 30
0.0
 10
11.4320764839
 20
10.8275043478
 30
0.0
 10
11.4318583068
 20
10.8180358661
 30
0.0
 10
11.4318583068
 20
10.8132945021
 30
0.0
  0
SPLINE
  5
2A7
100
AcDbEntity
  8
0
100
AcDbSpline
 62
7
  6
CONTINUOUS
 70
0
 71
3
 72
16
 73
12
 74
0
 42
0.0000001
 43
0.0000001
 44
0.0000000001
 40
0.0
 40
0.0
 40
0.0
 40
0.0
 40
0.0750885727
 40
0.1499137583
 40
0.2240298925
 40
0.297080395
 40
0.4388783017
 40
0.5732998554
 40
0.6985052716
 40
0.8127163615
 40
1.0
 40
1.0
 40
1.0
 40
1.0
 10
11.4318583068
 20
10.8132945021
 30
0.0
 10
11.4318583068
 20
10.8085481824
 30
0.0
 10
11.4320761353
 20
10.7990708791
 30
0.0
 10
11.4330285442
 20
10.7849377914
 30
0.0
 10
11.4345870766
 20
10.7709878673
 30
0.0
 10
11.437391531
 20
10.7529345885
 30
0.0
 10
11.4420844982
 20
10.7313373668
 30
0.0
 10
11.4492468969
 20
10.7069765396
 30
0.0
 10
11.4572907638
 20
10.6847438369
 30
0.0
 10
11.4677615557
 20
10.6598788879
 30
0.0
 10
11.4761802948
 20
10.6427610718
 30
0.0
 10
11.4817310122
 20
10.6323049358
 30
0.0
  0
SPLINE
  5
2A8
100
AcDbEntity
  8
0
100
AcDbSpline
 62
7
  6
CONTINUOUS
 70
0
 71
3
 72
26
 73
22
 74
0
 42
0.0000001
 43
0.0000001
 44
0.0000000001
 40
0.0
 40
0.0
 40
0.0
 40
0.0
 40
0.2250800765
 40
0.4243895959
 40
0.5963842541
 40
0.6716826915
 40
0.7396049243
 40
0.7999676751
 40
0.852587768
 40
0.8973209789
 40
0.934087293
 40
0.9494597025
 40
0.9628125841
 40
0.9741366611
 40
0.9834226524
 40
0.9906612732
 40
0.9958432342
 40
0.9976600633
 40
0.9989592422
 40
0.9997396086
 40
1.0
 40
1.0
 40
1.0
 40
1.0
 10
11.4817310122
 20
10.6323049358
 30
0.0
 10
11.4826994432
 20
10.6304806587
 30
0.0
 10
11.4845443257
 20
10.6270509741
 30
0.0
 10
11.4871835537
 20
10.6222567843
 30
0.0
 10
11.4891894835
 20
10.6186830787
 30
0.0
 10
11.4906197383
 20
10.6161689318
 30
0.0
 10
11.4915488237
 20
10.6145482113
 30
0.0
 10
11.4923785621
 20
10.6131104199
 30
0.0
 10
11.4931047516
 20
10.611858556
 30
0.0
 10
11.4937240085
 20
10.6107949849
 30
0.0
 10
11.4941725608
 20
10.6100275321
 30
0.0
 10
11.494476487
 20
10.6095090819
 30
0.0
 10
11.4946625961
 20
10.6091921864
 30
0.0
 10
11.4948206623
 20
10.6089235959
 30
0.0
 10
11.4949503872
 20
10.6087034159
 30
0.0
 10
11.4950518003
 20
10.6085320016
 30
0.0
 10
11.4951180654
 20
10.6084193639
 30
0.0
 10
11.4951572281
 20
10.6083541199
 30
0.0
 10
11.4951748927
 20
10.6083229312
 30
0.0
 10
11.4951868658
 20
10.6083052375
 30
0.0
 10
11.4951906926
 20
10.6082962279
 30
0.0
 10
11.4951923452
 20
10.6082945021
 30
0.0
  0
SPLINE
  5
2A9
100
AcDbEntity
  8
0
100
AcDbSpline
 62
7
  6
CONTINUOUS
 70
0
 71
3
 72
26
 73
22
 74
0
 42
0.0000001
 43
0.0000001
 44
0.0000000001
 40
0.0
 40
0.0
 40
0.0
 40
0.0
 40
0.0002599298
 40
0.0010391483
 40
0.0023365882
 40
0.0041511825
 40
0.0093275675
 40
0.0165597716
 40
0.0258392664
 40
0.0371575272
 40
0.0505060327
 40
0.0658762649
 40
0.1026478537
 40
0.1474041208
 40
0.2000477994
 40
0.2604129009
 40
0.3283238521
 40
0.4036055147
 40
0.5755825094
 40
0.7749147036
 40
1.0
 40
1.0
 40
1.0
 40
1.0
 10
10.3801923525
 20
10.6082945021
 30
0.0
 10
10.3801906956
 20
10.6082927718
 30
0.0
 10
10.3802025909
 20
10.6083102351
 30
0.0
 10
10.3802068106
 20
10.6083198582
 30
0.0
 10
10.3802289149
 20
10.6083557509
 30
0.0
 10
10.3802655028
 20
10.608418433
 30
0.0
 10
10.3803339334
 20
10.6085335568
 30
0.0
 10
10.3804346939
 20
10.6087046183
 30
0.0
 10
10.3805652152
 20
10.6089260467
 30
0.0
 10
10.3807237117
 20
10.609195585
 30
0.0
 10
10.3809105857
 20
10.6095138571
 30
0.0
 10
10.3812157913
 20
10.6100345908
 30
0.0
 10
10.3816664759
 20
10.6108056463
 30
0.0
 10
10.3822889274
 20
10.6118741973
 30
0.0
 10
10.3830187334
 20
10.6131318828
 30
0.0
 10
10.383852058
 20
10.6145762308
 30
0.0
 10
10.3847848662
 20
10.6162040614
 30
0.0
 10
10.3862207645
 20
10.6187292206
 30
0.0
 10
10.3882351596
 20
10.6223188185
 30
0.0
 10
10.3908862726
 20
10.6271341854
 30
0.0
 10
10.3927384827
 20
10.6305797686
 30
0.0
 10
10.3937107232
 20
10.6324124126
 30
0.0
  0
SPLINE
  5
2AA
100
AcDbEntity
  8
0
100
AcDbSpline
 62
7
  6
CONTINUOUS
 70
0
 71
3
 72
16
 73
12
 74
0
 42
0.0000001
 43
0.0000001
 44
0.0000000001
 40
0.0
 40
0.0
 40
0.0
 40
0.0
 40
0.1873977408
 40
0.3016171022
 40
0.4268208096
 40
0.5612043615
 40
0.7029757623
 40
0.7760141633
 40
0.8501300968
 40
0.9249410111
 40
1.0
 40
1.0
 40
1.0
 40
1.0
 10
10.3937107232
 20
10.6324124126
 30
0.0
 10
10.3992584423
 20
10.6428696959
 30
0.0
 10
10.4076716747
 20
10.6599851774
 30
0.0
 10
10.4181328369
 20
10.6848436831
 30
0.0
 10
10.4261652726
 20
10.7070622468
 30
0.0
 10
10.4333171708
 20
10.7314048062
 30
0.0
 10
10.4380019237
 20
10.7529842599
 30
0.0
 10
10.440803059
 20
10.7710237346
 30
0.0
 10
10.442356219
 20
10.7849634961
 30
0.0
 10
10.4433082781
 20
10.799084643
 30
0.0
 10
10.4435263787
 20
10.8085530981
 30
0.0
 10
10.4435263787
 20
10.8132945021
 30
0.0
  0
SPLINE
  5
2AB
100
AcDbEntity
  8
0
100
AcDbSpline
 62
7
  6
CONTINUOUS
 70
0
 71
3
 72
16
 73
12
 74
0
 42
0.0000001
 43
0.0000001
 44
0.0000000001
 40
0.0
 40
0.0
 40
0.0
 40
0.0
 40
0.0750880045
 40
0.1499142028
 40
0.2240321351
 40
0.2970822757
 40
0.4388779639
 40
0.5732960023
 40
0.6984998868
 40
0.8127105288
 40
1.0
 40
1.0
 40
1.0
 40
1.0
 10
10.4435263787
 20
10.8132945021
 30
0.0
 10
10.4435263787
 20
10.818040616
 30
0.0
 10
10.4433084828
 20
10.8275176085
 30
0.0
 10
10.4423559914
 20
10.8416503179
 30
0.0
 10
10.4407978441
 20
10.8555999355
 30
0.0
 10
10.4379933722
 20
10.8736525039
 30
0.0
 10
10.4333007994
 20
10.8952485933
 30
0.0
 10
10.4261391798
 20
10.9196082227
 30
0.0
 10
10.4180959882
 20
10.9418399014
 30
0.0
 10
10.4076257601
 20
10.9667043013
 30
0.0
 10
10.3992074251
 20
10.9838219371
 30
0.0
 10
10.3936568116
 20
10.9942780655
 30
0.0
  0
SPLINE
  5
2AC
100
AcDbEntity
  8
0
100
AcDbSpline
 62
7
  6
CONTINUOUS
 70
0
 71
3
 72
32
 73
28
 74
0
 42
0.0000001
 43
0.0000001
 44
0.0000000001
 40
0.0
 40
0.0
 40
0.0
 40
0.0
 40
0.2250737351
 40
0.424380272
 40
0.5138837055
 40
0.5963765969
 40
0.6716762063
 40
0.739599236
 40
0.7999618724
 40
0.8525806211
 40
0.8973135823
 40
0.9166976678
 40
0.934081037
 40
0.9494543457
 40
0.9628082452
 40
0.9741333829
 40
0.9834204016
 40
0.9872966913
 40
0.9906599403
 40
0.993508978
 40
0.9958426333
 40
0.9976597349
 40
0.9989591111
 40
0.999414286
 40
0.9997395902
 40
0.999934877
 40
1.0
 40
1.0
 40
1.0
 40
1.0
 10
10.3936568116
 20
10.9942780655
 30
0.0
 10
10.392688183
 20
10.9961027476
 30
0.0
 10
10.3908429162
 20
10.9995332154
 30
0.0
 10
10.3885682555
 20
11.0036652443
 30
0.0
 10
10.3869056475
 20
11.0066401922
 30
0.0
 10
10.3857904983
 20
11.0086171858
 30
0.0
 10
10.3847660936
 20
11.0104179334
 30
0.0
 10
10.3838367737
 20
11.0120390693
 30
0.0
 10
10.3830068475
 20
11.0134772173
 30
0.0
 10
10.3822805237
 20
11.0147293971
 30
0.0
 10
10.3817414218
 20
11.0156553559
 30
0.0
 10
10.381364185
 20
11.0163013246
 30
0.0
 10
10.3811225004
 20
11.0167143894
 30
0.0
 10
10.3809084649
 20
11.0170795051
 30
0.0
 10
10.3807222889
 20
11.0173964975
 30
0.0
 10
10.3805641859
 20
11.01766519
 30
0.0
 10
10.3804500375
 20
11.0178588187
 30
0.0
 10
10.3803729257
 20
11.0179894394
 30
0.0
 10
10.380325805
 20
11.0180691663
 30
0.0
 10
10.3802859096
 20
11.0181366592
 30
0.0
 10
10.3802530783
 20
11.0181920032
 30
0.0
 10
10.380227839
 20
11.0182348908
 30
0.0
 10
10.3802105741
 20
11.0182633962
 30
0.0
 10
10.3802015609
 20
11.0182793973
 30
0.0
 10
10.3801957878
 20
11.0182877817
 30
0.0
 10
10.380195164
 20
11.0182911962
 30
0.0
 10
10.380191745
 20
11.0182945021
 30
0.0
 10
10.3801923427
 20
11.0182945021
 30
0.0
  0
SPLINE
  5
2AD
100
AcDbEntity
  8
0
100
AcDbSpline
 62
7
  6
CONTINUOUS
 70
0
 71
3
 72
14
 73
10
 74
0
 42
0.0000001
 43
0.0000001
 44
0.0000000001
 40
0.0
 40
0.0
 40
0.0
 40
0.0
 40
0.1051271448
 40
0.2164278962
 40
0.3337277716
 40
0.4567758689
 40
0.5852665511
 40
0.7188644772
 40
1.0
 40
1.0
 40
1.0
 40
1.0
 10
11.6173511511
 20
9.166159958
 30
0.0
 10
11.619697083
 20
9.1638208034
 30
0.0
 10
11.624354912
 20
9.1588310708
 30
0.0
 10
11.6310744114
 20
9.1507351057
 30
0.0
 10
11.6377285556
 20
9.1418690764
 30
0.0
 10
11.6443162273
 20
9.1322896872
 30
0.0
 10
11.6508380173
 20
9.1220514687
 30
0.0
 10
11.6595966298
 20
9.1073410911
 30
0.0
 10
11.6658406157
 20
9.0958527085
 30
0.0
 10
11.6699225583
 20
9.0879897209
 30
0.0
  0
SPLINE
  5
2AE
100
AcDbEntity
  8
0
100
AcDbSpline
 62
7
  6
CONTINUOUS
 70
0
 71
3
 72
14
 73
10
 74
0
 42
0.0000001
 43
0.0000001
 44
0.0000000001
 40
0.0
 40
0.0
 40
0.0
 40
0.0
 40
0.1051271448
 40
0.2164278963
 40
0.3337277716
 40
0.456775869
 40
0.5852665511
 40
0.7188644772
 40
1.0
 40
1.0
 40
1.0
 40
1.0
 10
10.2580335344
 20
9.166159958
 30
0.0
 10
10.2556876025
 20
9.1638208034
 30
0.0
 10
10.2510297735
 20
9.1588310708
 30
0.0
 10
10.2443102741
 20
9.1507351057
 30
0.0
 10
10.2376561299
 20
9.1418690764
 30
0.0
 10
10.2310684582
 20
9.1322896872
 30
0.0
 10
10.2245466681
 20
9.1220514687
 30
0.0
 10
10.2157880557
 20
9.1073410911
 30
0.0
 10
10.2095440697
 20
9.0958527085
 30
0.0
 10
10.2054621272
 20
9.0879897209
 30
0.0
  0
LINE
  5
2AF
100
AcDbEntity
  8
0
100
AcDbLine
 62
7
  6
CONTINUOUS
 10
10.5876923427
 20
11.274279145
 11
10.5904204464
 21
11.2747606645
  0
LINE
  5
2B0
100
AcDbEntity
  8
0
100
AcDbLine
 62
7
  6
CONTINUOUS
 10
10.5904204464
 20
11.2747606645
 11
10.6113150172
 21
11.2784435049
  0
LINE
  5
2B1
100
AcDbEntity
  8
0
100
AcDbLine
 62
7
  6
CONTINUOUS
 10
10.6113150172
 20
11.2784435049
 11
10.6285703016
 21
11.2814681328
  0
LINE
  5
2B2
100
AcDbEntity
  8
0
100
AcDbLine
 62
7
  6
CONTINUOUS
 10
10.6285703016
 20
11.2814681328
 11
10.6297320958
 21
11.2816709827
  0
LINE
  5
2B3
100
AcDbEntity
  8
0
100
AcDbLine
 62
7
  6
CONTINUOUS
 10
10.6297320958
 20
11.2816709827
 11
10.6354625468
 21
11.2826702674
  0
LINE
  5
2B4
100
AcDbEntity
  8
0
100
AcDbLine
 62
7
  6
CONTINUOUS
 10
10.6354625468
 20
11.2826702674
 11
10.6689787368
 21
11.2884785678
  0
LINE
  5
2B5
100
AcDbEntity
  8
0
100
AcDbLine
 62
7
  6
CONTINUOUS
 10
10.6689787368
 20
11.2884785678
 11
10.6731829656
 21
11.2892031796
  0
LINE
  5
2B6
100
AcDbEntity
  8
0
100
AcDbLine
 62
7
  6
CONTINUOUS
 10
10.7350421085
 20
11.299759765
 11
10.7406625563
 21
11.300706491
  0
LINE
  5
2B7
100
AcDbEntity
  8
0
100
AcDbLine
 62
7
  6
CONTINUOUS
 10
10.7406625563
 20
11.300706491
 11
10.7479273939
 21
11.3019247664
  0
LINE
  5
2B8
100
AcDbEntity
  8
0
100
AcDbLine
 62
7
  6
CONTINUOUS
 10
10.7776923483
 20
11.3060179185
 11
10.7849346788
 21
11.3062634263
  0
LINE
  5
2B9
100
AcDbEntity
  8
0
100
AcDbLine
 62
7
  6
CONTINUOUS
 10
10.7849346788
 20
11.3062634263
 11
10.8109089169
 21
11.3074700248
  0
LINE
  5
2BA
100
AcDbEntity
  8
0
100
AcDbLine
 62
7
  6
CONTINUOUS
 10
10.8109089169
 20
11.3074700248
 11
10.8201992807
 21
11.3079522245
  0
LINE
  5
2BB
100
AcDbEntity
  8
0
100
AcDbLine
 62
7
  6
CONTINUOUS
 10
10.8201992807
 20
11.3079522245
 11
10.8964405747
 21
11.3119854687
  0
LINE
  5
2BC
100
AcDbEntity
  8
0
100
AcDbLine
 62
7
  6
CONTINUOUS
 10
10.8964405747
 20
11.3119854687
 11
10.9044023611
 21
11.3124167937
  0
LINE
  5
2BD
100
AcDbEntity
  8
0
100
AcDbLine
 62
7
  6
CONTINUOUS
 10
10.9254856623
 20
11.3136571948
 11
10.9345273056
 21
11.314279218
  0
LINE
  5
2BE
100
AcDbEntity
  8
0
100
AcDbLine
 62
7
  6
CONTINUOUS
 10
10.9345273056
 20
11.314279218
 11
10.9346923428
 21
11.3142916002
  0
LINE
  5
2BF
100
AcDbEntity
  8
0
100
AcDbLine
 62
7
  6
CONTINUOUS
 10
11.2121923427
 20
11.2874362358
 11
11.2533868204
 21
11.2800008567
  0
LINE
  5
2C0
100
AcDbEntity
  8
0
100
AcDbLine
 62
7
  6
CONTINUOUS
 10
11.2533868204
 20
11.2800008567
 11
11.2550174219
 21
11.2797059589
  0
LINE
  5
2C1
100
AcDbEntity
  8
0
100
AcDbLine
 62
7
  6
CONTINUOUS
 10
11.2550174219
 20
11.2797059589
 11
11.2582483468
 21
11.2791215152
  0
LINE
  5
2C2
100
AcDbEntity
  8
0
100
AcDbLine
 62
7
  6
CONTINUOUS
 10
11.2582483468
 20
11.2791215152
 11
11.2939057919
 21
11.2726654238
  0
LINE
  5
2C3
100
AcDbEntity
  8
0
100
AcDbLine
 62
7
  6
CONTINUOUS
 10
11.2939057919
 20
11.2726654238
 11
11.2966923426
 21
11.2721655844
  0
SPLINE
  5
2C4
100
AcDbEntity
  8
0
100
AcDbSpline
 62
7
  6
CONTINUOUS
 70
0
 71
3
 72
27
 73
23
 74
0
 42
0.0000001
 43
0.0000001
 44
0.0000000001
 40
0.0
 40
0.0
 40
0.0
 40
0.0
 40
0.0887132075
 40
0.1736949008
 40
0.2545846544
 40
0.3310184251
 40
0.4026732276
 40
0.4693095374
 40
0.5308405876
 40
0.587429554
 40
0.6396065382
 40
0.66435942
 40
0.6884286433
 40
0.7120166458
 40
0.7353478831
 40
0.758659989
 40
0.7821914179
 40
0.8061696031
 40
0.8308007949
 40
0.8826620975
 40
0.9388736849
 40
1.0
 40
1.0
 40
1.0
 40
1.0
 10
10.4016620001
 20
9.0879880456
 30
0.0
 10
10.398946936
 20
9.0932180375
 30
0.0
 10
10.3935000907
 20
9.1033910182
 30
0.0
 10
10.3850596389
 20
9.1180482708
 30
0.0
 10
10.3765109055
 20
9.1316906969
 30
0.0
 10
10.3678492275
 20
9.1442011047
 30
0.0
 10
10.3590735108
 20
9.1554567646
 30
0.0
 10
10.3501828078
 20
9.1653306658
 30
0.0
 10
10.3411739865
 20
9.1736952532
 30
0.0
 10
10.3320458458
 20
9.1804243168
 30
0.0
 10
10.3241944044
 20
9.1846384805
 30
0.0
 10
10.3179072137
 20
9.1870036632
 30
0.0
 10
10.3132585702
 20
9.1882680305
 30
0.0
 10
10.3085995415
 20
9.1890464527
 30
0.0
 10
10.3039345691
 20
9.1893321821
 30
0.0
 10
10.2992691818
 20
9.1891251808
 30
0.0
 10
10.2946088459
 20
9.1884251581
 30
0.0
 10
10.2899582604
 20
9.1872378329
 30
0.0
 10
10.2836700553
 20
9.1849766843
 30
0.0
 10
10.275812467
 20
9.1808872998
 30
0.0
 10
10.2666749817
 20
9.17429469
 30
0.0
 10
10.2609087444
 20
9.1690268616
 30
0.0
 10
10.2580335344
 20
9.166159958
 30
0.0
  0
SPLINE
  5
2C5
100
AcDbEntity
  8
0
100
AcDbSpline
 62
7
  6
CONTINUOUS
 70
0
 71
3
 72
21
 73
17
 74
0
 42
0.0000001
 43
0.0000001
 44
0.0000000001
 40
0.0
 40
0.0
 40
0.0
 40
0.0
 40
0.0627359039
 40
0.1254047401
 40
0.2504810687
 40
0.3129358961
 40
0.3753295874
 40
0.4376772403
 40
0.4999999915
 40
0.5623227413
 40
0.6246703856
 40
0.6870640692
 40
0.7495188875
 40
0.8745952139
 40
0.9372640457
 40
1.0
 40
1.0
 40
1.0
 40
1.0
 10
11.1338914903
 20
9.0879897208
 30
0.0
 10
11.1196392025
 20
9.0953459922
 30
0.0
 10
11.090879858
 20
9.1095399409
 30
0.0
 10
11.0323383676
 20
9.1355159484
 30
0.0
 10
10.9720430655
 20
9.1573142255
 30
0.0
 10
10.9101919147
 20
9.1734976086
 30
0.0
 10
10.8631434085
 20
9.1824793255
 30
0.0
 10
10.8155949022
 20
9.1880069947
 30
0.0
 10
10.7677771901
 20
9.1898742603
 30
0.0
 10
10.7199594833
 20
9.1880069231
 30
0.0
 10
10.6724109886
 20
9.1824791893
 30
0.0
 10
10.6253625034
 20
9.1734974079
 30
0.0
 10
10.5635113611
 20
9.1573139806
 30
0.0
 10
10.503216175
 20
9.1355154931
 30
0.0
 10
10.4446744403
 20
9.1095399149
 30
0.0
 10
10.4159158939
 20
9.095344326
 30
0.0
 10
10.4016635962
 20
9.0879880456
 30
0.0
  0
LINE
  5
2C6
100
AcDbEntity
  8
0
100
AcDbLine
 62
7
  6
CONTINUOUS
 10
11.258321501
 20
11.2797635226
 11
11.2577961116
 21
11.2798527726
  0
LINE
  5
2C7
100
AcDbEntity
  8
0
100
AcDbLine
 62
7
  6
CONTINUOUS
 10
11.2577961116
 20
11.2798527726
 11
11.2533723487
 21
11.2805388217
  0
SPLINE
  5
2C8
100
AcDbEntity
  8
0
100
AcDbSpline
 62
7
  6
CONTINUOUS
 70
0
 71
3
 72
23
 73
19
 74
0
 42
0.0000001
 43
0.0000001
 44
0.0000000001
 40
0.0
 40
0.0
 40
0.0
 40
0.0
 40
0.0654181823
 40
0.1299988374
 40
0.1936829598
 40
0.2564449588
 40
0.3183117867
 40
0.3793852019
 40
0.4398562392
 40
0.5000000204
 40
0.5601438001
 40
0.6206148287
 40
0.6816882355
 40
0.7435550531
 40
0.8063170486
 40
0.8700011644
 40
0.9345818163
 40
1.0
 40
1.0
 40
1.0
 40
1.0
 10
11.6699221696
 20
9.0879897209
 30
0.0
 10
11.6595467769
 20
9.0953051017
 30
0.0
 10
11.6386246415
 20
9.109418231
 30
0.0
 10
11.6064741024
 20
9.1289194828
 30
0.0
 10
11.5737121606
 20
9.1463159788
 30
0.0
 10
11.5403348946
 20
9.1612731937
 30
0.0
 10
11.5063678822
 20
9.1734346097
 30
0.0
 10
11.4718817159
 20
9.1824466765
 30
0.0
 10
11.4370019012
 20
9.1879994426
 30
0.0
 10
11.4019079331
 20
9.1898764447
 30
0.0
 10
11.3668139669
 20
9.1879994387
 30
0.0
 10
11.3319341561
 20
9.1824466718
 30
0.0
 10
11.2974479952
 20
9.1734346055
 30
0.0
 10
11.263480987
 20
9.1612731907
 30
0.0
 10
11.2301037251
 20
9.1463159764
 30
0.0
 10
11.1973417853
 20
9.1289194821
 30
0.0
 10
11.1651912472
 20
9.1094182317
 30
0.0
 10
11.1442691127
 20
9.0953051018
 30
0.0
 10
11.1338937198
 20
9.0879897208
 30
0.0
  0
LINE
  5
2C9
100
AcDbEntity
  8
0
100
AcDbLine
 62
7
  6
CONTINUOUS
 10
10.6356613602
 20
11.2832671398
 11
10.668980108
 21
11.2886533262
  0
LINE
  5
2CA
100
AcDbEntity
  8
0
100
AcDbLine
 62
7
  6
CONTINUOUS
 10
10.668980108
 20
11.2886533262
 11
10.702449497
 21
11.2942217147
  0
LINE
  5
2CB
100
AcDbEntity
  8
0
100
AcDbLine
 62
7
  6
CONTINUOUS
 10
10.6356613602
 20
11.2832672085
 11
10.6297383989
 21
11.2823861635
  0
LINE
  5
2CC
100
AcDbEntity
  8
0
100
AcDbLine
 62
7
  6
CONTINUOUS
 10
10.7401422312
 20
11.3014721548
 11
10.668980108
 21
11.2896694733
  0
LINE
  5
2CD
100
AcDbEntity
  8
0
100
AcDbLine
 62
7
  6
CONTINUOUS
 10
10.668980108
 20
11.2896694733
 11
10.6356613602
 21
11.2842868862
  0
LINE
  5
2CE
100
AcDbEntity
  8
0
100
AcDbLine
 62
7
  6
CONTINUOUS
 10
10.6356613602
 20
11.2842868877
 11
10.6296946085
 21
11.2833990862
  0
LINE
  5
2CF
100
AcDbEntity
  8
0
100
AcDbLine
 62
7
  6
CONTINUOUS
 10
10.9691923427
 20
11.3136394965
 11
10.9675753561
 21
11.3134389566
  0
LINE
  5
2D0
100
AcDbEntity
  8
0
100
AcDbLine
 62
7
  6
CONTINUOUS
 10
10.9675753561
 20
11.3134389566
 11
10.9564631965
 21
11.3131416918
  0
LINE
  5
2D1
100
AcDbEntity
  8
0
100
AcDbLine
 62
7
  6
CONTINUOUS
 10
10.8989923427
 20
11.3138115099
 11
10.8960408077
 21
11.3135063814
  0
SPLINE
  5
2D2
100
AcDbEntity
  8
0
100
AcDbSpline
 62
7
  6
CONTINUOUS
 70
0
 71
3
 72
22
 73
18
 74
0
 42
0.0000001
 43
0.0000001
 44
0.0000000001
 40
0.0
 40
0.0
 40
0.0
 40
0.0
 40
0.0347690047
 40
0.0856581075
 40
0.1534405379
 40
0.2354720595
 40
0.4292139044
 40
0.5335062381
 40
0.6351538647
 40
0.7294669398
 40
0.8131190091
 40
0.8822637132
 40
0.9333444904
 40
0.9671082472
 40
0.9869784416
 40
0.9968217787
 40
1.0
 40
1.0
 40
1.0
 40
1.0
 10
10.8960408077
 20
11.3135063814
 30
0.0
 10
10.8950924358
 20
11.3134210555
 30
0.0
 10
10.8927545182
 20
11.3132273151
 30
0.0
 10
10.8885636742
 20
11.3129180198
 30
0.0
 10
10.883079338
 20
11.3125511784
 30
0.0
 10
10.8736891536
 20
11.311959523
 30
0.0
 10
10.8632984949
 20
11.3113457304
 30
0.0
 10
10.8523680123
 20
11.3107643494
 30
0.0
 10
10.8441548621
 20
11.3103638142
 30
0.0
 10
10.8365052401
 20
11.310013667
 30
0.0
 10
10.8297439772
 20
11.3097232257
 30
0.0
 10
10.824164691
 20
11.309506073
 30
0.0
 10
10.8199493629
 20
11.3093756144
 30
0.0
 10
10.8170821153
 20
11.3093209492
 30
0.0
 10
10.8153434756
 20
11.3093132584
 30
0.0
 10
10.8144429242
 20
11.309330482
 30
0.0
 10
10.8140864222
 20
11.3093446652
 30
0.0
 10
10.813999697
 20
11.3093520663
 30
0.0
  0
LINE
  5
2D3
100
AcDbEntity
  8
0
100
AcDbLine
 62
7
  6
CONTINUOUS
 10
11.0848575327
 20
11.306556148
 11
11.0591923427
 21
11.3082742355
  0
SPLINE
  5
2D4
100
AcDbEntity
  8
0
100
AcDbSpline
 62
7
  6
CONTINUOUS
 70
0
 71
3
 72
22
 73
18
 74
0
 42
0.0000001
 43
0.0000001
 44
0.0000000001
 40
0.0
 40
0.0
 40
0.0
 40
0.0
 40
0.188624408
 40
0.3709602274
 40
0.5397408552
 40
0.6171995481
 40
0.6891023646
 40
0.7548340915
 40
0.8138011575
 40
0.865417599
 40
0.9092236276
 40
0.9448677313
 40
0.9720071726
 40
0.9823042214
 40
0.9904021078
 40
0.9962962934
 40
1.0
 40
1.0
 40
1.0
 40
1.0
 10
11.0351923427
 20
11.3099747451
 30
0.0
 10
11.0333050739
 20
11.3100937406
 30
0.0
 10
11.0295939052
 20
11.310334952
 30
0.0
 10
11.0241956534
 20
11.3107073099
 30
0.0
 10
11.0199105981
 20
11.3110222755
 30
0.0
 10
11.016730708
 20
11.3112693559
 30
0.0
 10
11.0145813488
 20
11.3114432091
 30
0.0
 10
11.0126173657
 20
11.3116093159
 30
0.0
 10
11.0108567068
 20
11.3117660631
 30
0.0
 10
11.0093157981
 20
11.311912023
 30
0.0
 10
11.0080085984
 20
11.3120456855
 30
0.0
 10
11.006946805
 20
11.3121658977
 30
0.0
 10
11.0062200547
 20
11.3122598707
 30
0.0
 10
11.0057690634
 20
11.3123302105
 30
0.0
 10
11.0055292327
 20
11.3123734397
 30
0.0
 10
11.0053564673
 20
11.312412606
 30
0.0
 10
11.0052635697
 20
11.3124400624
 30
0.0
 10
11.00523006
 20
11.3124560559
 30
0.0
  0
SPLINE
  5
2D5
100
AcDbEntity
  8
0
100
AcDbSpline
 62
7
  6
CONTINUOUS
 70
0
 71
3
 72
20
 73
16
 74
0
 42
0.0000001
 43
0.0000001
 44
0.0000000001
 40
0.0
 40
0.0
 40
0.0
 40
0.0
 40
0.0020022195
 40
0.0055661377
 40
0.0187326137
 40
0.0402812921
 40
0.0702055343
 40
0.1084240878
 40
0.1548257446
 40
0.209185774
 40
0.271208933
 40
0.4170489619
 40
0.5898285485
 40
0.7857027922
 40
1.0
 40
1.0
 40
1.0
 40
1.0
 10
11.1376923427
 20
11.3006878191
 30
0.0
 10
11.1376923427
 20
11.300681113
 30
0.0
 10
11.1376776014
 20
11.3006650871
 30
0.0
 10
11.1376182375
 20
11.3006469973
 30
0.0
 10
11.1374895925
 20
11.3006308049
 30
0.0
 10
11.1372737578
 20
11.3006234044
 30
0.0
 10
11.1369730402
 20
11.3006245647
 30
0.0
 10
11.1365896454
 20
11.3006361275
 30
0.0
 10
11.1361246159
 20
11.3006578856
 30
0.0
 10
11.1355803471
 20
11.300689979
 30
0.0
 10
11.1347040939
 20
11.3007496107
 30
0.0
 10
11.1334331423
 20
11.3008501358
 30
0.0
 10
11.1317166476
 20
11.3010021646
 30
0.0
 10
11.1297730329
 20
11.3011881719
 30
0.0
 10
11.1284062487
 20
11.3013268083
 30
0.0
 10
11.1276923427
 20
11.3014009649
 30
0.0
  0
LINE
  5
2D6
100
AcDbEntity
  8
0
100
AcDbLine
 62
7
  6
CONTINUOUS
 10
10.8139923427
 20
11.3083495324
 11
10.8171260423
 21
11.3083236678
  0
LINE
  5
2D7
100
AcDbEntity
  8
0
100
AcDbLine
 62
7
  6
CONTINUOUS
 10
10.8171260423
 20
11.3083236678
 11
10.8233884766
 21
11.3084828017
  0
LINE
  5
2D8
100
AcDbEntity
  8
0
100
AcDbLine
 62
7
  6
CONTINUOUS
 10
10.8884028705
 20
11.3119114934
 11
10.8989923427
 21
11.3128111981
  0
SPLINE
  5
2D9
100
AcDbEntity
  8
0
100
AcDbSpline
 62
7
  6
CONTINUOUS
 70
0
 71
3
 72
26
 73
22
 74
0
 42
0.0000001
 43
0.0000001
 44
0.0000000001
 40
0.0
 40
0.0
 40
0.0
 40
0.0
 40
0.0006071961
 40
0.0016731495
 40
0.0054868274
 40
0.0116345929
 40
0.0201290622
 40
0.0309635587
 40
0.0441258043
 40
0.0595912114
 40
0.0773144279
 40
0.1193409648
 40
0.1698166452
 40
0.2282981116
 40
0.2941689989
 40
0.3667768119
 40
0.4454567365
 40
0.5294653788
 40
0.6180277094
 40
0.805535746
 40
1.0
 40
1.0
 40
1.0
 40
1.0
 10
11.0051923427
 20
11.3114883943
 30
0.0
 10
11.0051923427
 20
11.3114822965
 30
0.0
 10
11.0052043868
 20
11.3114675166
 30
0.0
 10
11.005252568
 20
11.3114427083
 30
0.0
 10
11.0053599767
 20
11.311409903
 30
0.0
 10
11.0055403133
 20
11.3113701403
 30
0.0
 10
11.0057925151
 20
11.3113249419
 30
0.0
 10
11.0061149168
 20
11.311275353
 30
0.0
 10
11.0065076001
 20
11.3112214747
 30
0.0
 10
11.0069694681
 20
11.311163609
 30
0.0
 10
11.0077197741
 20
11.3110762519
 30
0.0
 10
11.0088206054
 20
11.3109597429
 30
0.0
 10
11.0103297923
 20
11.3108131398
 30
0.0
 10
11.0120783672
 20
11.3106545812
 30
0.0
 10
11.0140491424
 20
11.3104855443
 30
0.0
 10
11.0162227425
 20
11.3103077863
 30
0.0
 10
11.0185785217
 20
11.3101231089
 30
0.0
 10
11.0210945983
 20
11.3099332159
 30
0.0
 10
11.0247011932
 20
11.3096704152
 30
0.0
 10
11.0294153554
 20
11.3093441519
 30
0.0
 10
11.0332432807
 20
11.3090948989
 30
0.0
 10
11.0351923427
 20
11.3089718923
 30
0.0
  0
LINE
  5
2DA
100
AcDbEntity
  8
0
100
AcDbLine
 62
7
  6
CONTINUOUS
 10
11.0591923427
 20
11.307270378
 11
11.0848575327
 21
11.3055511715
  0
SPLINE
  5
2DB
100
AcDbEntity
  8
0
100
AcDbSpline
 62
7
  6
CONTINUOUS
 70
0
 71
3
 72
24
 73
20
 74
0
 42
0.0000001
 43
0.0000001
 44
0.0000000001
 40
0.0
 40
0.0
 40
0.0
 40
0.0
 40
0.2081512807
 40
0.4014208398
 40
0.490580438
 40
0.57397776
 40
0.6511297619
 40
0.7215535937
 40
0.7847889286
 40
0.84046996
 40
0.8882565705
 40
0.9278102036
 40
0.9588333033
 40
0.971100749
 40
0.9811910005
 40
0.9890967588
 40
0.9948185479
 40
0.9983840881
 40
1.0
 40
1.0
 40
1.0
 40
1.0
 10
10.9476923427
 20
11.3120611594
 30
0.0
 10
10.9491860413
 20
11.3120688977
 30
0.0
 10
10.952066623
 20
11.31208894
 30
0.0
 10
10.9555868895
 20
11.3121274256
 30
0.0
 10
10.9582118229
 20
11.3121660547
 30
0.0
 10
10.9600034921
 20
11.3121974217
 30
0.0
 10
10.961660632
 20
11.312231714
 30
0.0
 10
10.9631729894
 20
11.3122686996
 30
0.0
 10
10.9645311531
 20
11.3123081649
 30
0.0
 10
10.9657267082
 20
11.3123497834
 30
0.0
 10
10.9667521693
 20
11.3123931828
 30
0.0
 10
10.9676003192
 20
11.3124379708
 30
0.0
 10
10.9681936495
 20
11.3124786039
 30
0.0
 10
10.9685749327
 20
11.3125129675
 30
0.0
 10
10.9687913235
 20
11.3125371785
 30
0.0
 10
10.9689585552
 20
11.3125600958
 30
0.0
 10
10.9690829037
 20
11.3125853121
 30
0.0
 10
10.969152332
 20
11.3126037868
 30
0.0
 10
10.9691923427
 20
11.312627473
 30
0.0
 10
10.9691923427
 20
11.3126390689
 30
0.0
  0
LINE
  5
2DC
100
AcDbEntity
  8
0
100
AcDbLine
 62
7
  6
CONTINUOUS
 10
11.1009895882
 20
11.3044204662
 11
11.0981372794
 21
11.3047499843
  0
LINE
  5
2DD
100
AcDbEntity
  8
0
100
AcDbLine
 62
7
  6
CONTINUOUS
 10
11.1799742231
 20
11.294034885
 11
11.1739742231
 21
11.2951999402
  0
LINE
  5
2DE
100
AcDbEntity
  8
0
100
AcDbLine
 62
7
  6
CONTINUOUS
 10
11.2533723487
 20
11.2815603586
 11
11.2124374402
 21
11.2885502436
  0
LINE
  5
2DF
100
AcDbEntity
  8
0
100
AcDbLine
 62
7
  6
CONTINUOUS
 10
11.2124374402
 20
11.2885502436
 11
11.2078371309
 21
11.2893630915
  0
SPLINE
  5
2E0
100
AcDbEntity
  8
0
100
AcDbSpline
 62
7
  6
CONTINUOUS
 70
0
 71
3
 72
20
 73
16
 74
0
 42
0.0000001
 43
0.0000001
 44
0.0000000001
 40
0.0
 40
0.0
 40
0.0
 40
0.0
 40
0.2142969469
 40
0.4101719535
 40
0.5829533755
 40
0.7287941932
 40
0.7908173977
 40
0.8451774508
 40
0.8915791962
 40
0.9297971171
 40
0.9597201081
 40
0.9812674024
 40
0.9944329519
 40
0.9979969263
 40
1.0
 40
1.0
 40
1.0
 40
1.0
 10
11.1276923427
 20
11.3003925749
 30
0.0
 10
11.1284062472
 20
11.3003183698
 30
0.0
 10
11.1297730323
 20
11.3001796423
 30
0.0
 10
11.1317166551
 20
11.2999935122
 30
0.0
 10
11.1334331629
 20
11.2998413825
 30
0.0
 10
11.134704126
 20
11.2997407914
 30
0.0
 10
11.1355803849
 20
11.2996811206
 30
0.0
 10
11.1361246563
 20
11.2996490061
 30
0.0
 10
11.1365896861
 20
11.2996272326
 30
0.0
 10
11.1369730773
 20
11.2996156623
 30
0.0
 10
11.137273785
 20
11.2996145007
 30
0.0
 10
11.1374896111
 20
11.2996219092
 30
0.0
 10
11.1376182449
 20
11.2996381092
 30
0.0
 10
11.1376776092
 20
11.2996562172
 30
0.0
 10
11.1376923427
 20
11.2996722519
 30
0.0
 10
11.1376923427
 20
11.2996789609
 30
0.0
  0
LINE
  5
2E1
100
AcDbEntity
  8
0
100
AcDbLine
 62
7
  6
CONTINUOUS
 10
11.1739742231
 20
11.2941874648
 11
11.1769463031
 21
11.2935307144
  0
LINE
  5
2E2
100
AcDbEntity
  8
0
100
AcDbLine
 62
7
  6
CONTINUOUS
 10
11.2078371309
 20
11.2883467402
 11
11.212260921
 21
11.2875644987
  0
LINE
  5
2E3
100
AcDbEntity
  8
0
100
AcDbLine
 62
7
  6
CONTINUOUS
 10
11.2533723487
 20
11.2815603991
 11
11.2583210408
 21
11.2807846366
  0
ENDSEC
  0
SECTION
  2
OBJECTS
  0
DICTIONARY
  5
C
100
AcDbDictionary
280
0
281
1
  3
ACAD_GROUP
350
D
  3
ACAD_MLINESTYLE
350
17
  3
ACAD_LAYOUT
350
1A
  3
ACAD_PLOTSETTINGS
350
19
  3
ACAD_PLOTSTYLENAME
350
E
  0
DICTIONARY
  5
D
102
{ACAD_REACTORS
330
C
102
}
100
AcDbDictionary
280
0
281
1
  0
ACDBDICTIONARYWDFLT
  5
E
102
{ACAD_REACTORS
330
C
102
}
100
AcDbDictionary
281
1
  3
Normal
350
F
100
AcDbDictionaryWithDefault
340
F
  0
DICTIONARY
  5
17
102
{ACAD_REACTORS
330
C
102
}
100
AcDbDictionary
280
0
281
1
  3
Standard
350
18
  0
DICTIONARY
  5
19
102
{ACAD_REACTORS
330
C
102
}
100
AcDbDictionary
281
1
  0
DICTIONARY
  5
1A
102
{ACAD_REACTORS
330
C
102
}
100
AcDbDictionary
281
1
  3
Model
350
2E4
  3
Layout1
350
2E5
  0
ACDBPLACEHOLDER
  5
F
102
{ACAD_REACTORS
330
E
102
}
  0
MLINESTYLE
  5
18
102
{ACAD_REACTORS
330
17
102
}
100
AcDbMlineStyle
  2
STANDARD
 70
0
  3

 62
256
 51
90.0
 52
90.0
 71
2
 49
0.5
 62
256
  6
BYLAYER
 49
-0.5
 62
256
  6
BYLAYER
  0
LAYOUT
  5
2E4
102
{ACAD_REACTORS
330
1A
102
}
100
AcDbPlotSettings
  1

  2
none_device
  4
ANSI_C_(22.00_x_17.00_Inches)
  6

 40
0.0
 41
0.0
 42
0.0
 43
0.0
 44
558.8
 45
431.8
 46
0.0
 47
0.0
 48
0.0
 49
0.0
140
0.0
141
0.0
142
1.0
143
1.0
 70
1024
 72
0
 73
0
 74
0
  7

 75
0
147
1.0
148
0.0
149
0.0
100
AcDbLayout
  1
Model
 70
0
 71
0
 10
0.0
 20
0.0
 11
22.0
 21
17.0
 12
0.0
 22
0.0
 32
0.0
 14
0.0
 24
0.0
 34
0.0
 15
0.0
 25
0.0
 35
0.0
146
0.0
 13
0.0
 23
0.0
 33
0.0
 16
1.0
 26
0.0
 36
0.0
 17
0.0
 27
1.0
 37
0.0
 76
0
330
205
345
0
346
0
  0
LAYOUT
  5
2E5
102
{ACAD_REACTORS
330
1A
102
}
100
AcDbPlotSettings
  1

  2
none_device
  4
ANSI_C_(22.00_x_17.00_Inches)
  6

 40
0.0
 41
0.0
 42
0.0
 43
0.0
 44
558.8
 45
431.8
 46
0.0
 47
0.0
 48
0.0
 49
0.0
140
0.0
141
0.0
142
1.0
143
1.0
 70
0
 72
0
 73
0
 74
0
  7

 75
0
147
1.0
148
0.0
149
0.0
100
AcDbLayout
  1
Layout1
 70
0
 71
1
 10
0.0
 20
0.0
 11
22.0
 21
17.0
 12
0.0
 22
0.0
 32
0.0
 14
0.0
 24
0.0
 34
0.0
 15
0.0
 25
0.0
 35
0.0
146
0.0
 13
0.0
 23
0.0
 33
0.0
 16
1.0
 26
0.0
 36
0.0
 17
0.0
 27
1.0
 37
0.0
 76
0
330
206
345
0
346
0
  0
ENDSEC
  0
EOF
