999
DXF file: E:\BT Custom\CADOUTPUT\_FRONT.dxf
999
Pro/ENGINEER 2018400 by Parametric Technology Corporation
  0
SECTION
  2
HEADER
  9
$ACADVER
  1
AC1018
  9
$DWGCODEPAGE
  3
ANSI_1252
  9
$EXTMAX
 10
22.0
 20
17.0
 30
0.0
  9
$EXTMIN
 10
0.0
 20
0.0
 30
0.0
  9
$LIMMIN
 10
0.0
 20
0.0
  9
$LIMMAX
 10
22.0
 20
17.0
  9
$VIEWCTR
 10
11.0
 20
8.5
  9
$VIEWSIZE
 40
17.0
  9
$CLAYER
  8
0
  9
$LTSCALE
 40
1.21
  9
$CELTYPE
  6
BYLAYER
  9
$DIMSCALE
 40
1.0
  9
$DIMASZ
 40
0.1
  9
$DIMEXO
 40
0.0625
  9
$DIMDLI
 40
0.836
  9
$DIMEXE
 40
0.125
  9
$DIMCEN
 40
0.198
  9
$DIMLFAC
 40
1.0
  9
$DIMBLK
  1
_FILLED
  9
$DIMALT
 70
1
  9
$DIMALTD
 70
2
  9
$DIMALTTD
 70
2
  9
$DIMALTF
 40
25.4
  9
$DIMTXT
 40
0.08
  9
$DIMTOL
 70
1
  9
$DIMLIM
 70
0
  9
$DIMTFAC
 40
1.0
  9
$DIMTP
 40
0.001
  9
$DIMTM
 40
0.001
  9
$DIMGAP
 40
0.09
  9
$DIMDSEP
 70
46
  9
$AUNITS
 70
0
  9
$PDMODE
 70
3
  9
$PDSIZE
 40
0.06
  9
$HANDSEED
  5
2BA
  9
$TILEMODE
 70
1
  9
$MEASUREMENT
 70
0
  9
$INSUNITS
 70
1
  0
ENDSEC
  0
SECTION
  2
CLASSES
  0
CLASS
  1
ACDBDICTIONARYWDFLT
  2
AcDbDictionaryWithDefault
  3
AutoCAD 2000
 90
0
 91
1
280
0
281
0
  0
CLASS
  1
ACDBPLACEHOLDER
  2
AcDbPlaceHolder
  3
AutoCAD 2000
 90
0
 91
1
280
0
281
0
  0
CLASS
  1
LAYOUT
  2
AcDbLayout
  3
AutoCAD 2000
 90
0
 91
0
280
0
281
0
  0
ENDSEC
  0
SECTION
  2
TABLES
  0
TABLE
  2
VPORT
  5
8
100
AcDbSymbolTable
 70
2
  0
VPORT
  5
1F4
100
AcDbSymbolTableRecord
100
AcDbViewportTableRecord
  2
*ACTIVE
 70
0
 10
0.0
 20
0.0
 11
1.0
 21
1.0
 12
11.0
 22
8.5
 13
0.0
 23
0.0
 14
1.0
 24
1.0
 15
0.0
 25
0.0
 16
0.0
 26
0.0
 36
1.0
 17
0.0
 27
0.0
 37
0.0
 40
17.0
 41
1.2941176471
 42
50.0
 43
0.0
 44
0.0
 50
0.0
 51
0.0
 71
0
 72
100
 73
1
 74
1
 75
0
 76
0
 77
0
 78
0
  0
ENDTAB
  0
TABLE
  2
LTYPE
  5
5
100
AcDbSymbolTable
 70
6
  0
LTYPE
  5
14
100
AcDbSymbolTableRecord
100
AcDbLinetypeTableRecord
  2
BYBLOCK
 70
0
  3

 72
65
 73
0
 40
0.0
  0
LTYPE
  5
15
100
AcDbSymbolTableRecord
100
AcDbLinetypeTableRecord
  2
BYLAYER
 70
0
  3

 72
65
 73
0
 40
0.0
  0
LTYPE
  5
16
100
AcDbSymbolTableRecord
100
AcDbLinetypeTableRecord
  2
CONTINUOUS
 70
64
  3
Solid line
 72
65
 73
0
 40
0.0
  0
LTYPE
  5
1F5
100
AcDbSymbolTableRecord
100
AcDbLinetypeTableRecord
  2
CENTER
 70
64
  3
____ _ ____ _ ____ _ ____ _ ____ _ ____ _ ____
 72
65
 73
4
 40
0.6
 49
0.375
 74
0
 49
-0.075
 74
0
 49
0.075
 74
0
 49
-0.075
 74
0
  0
LTYPE
  5
1F6
100
AcDbSymbolTableRecord
100
AcDbLinetypeTableRecord
  2
HIDDEN
 70
64
  3
- - - - - - - - - - - - - - - - - - - -
 72
65
 73
2
 40
0.2
 49
0.1
 74
0
 49
-0.1
 74
0
  0
LTYPE
  5
1F7
100
AcDbSymbolTableRecord
100
AcDbLinetypeTableRecord
  2
PHANTOM
 70
64
  3
_____ _ _ _____ _ _ _____ _ _ _____
 72
65
 73
6
 40
0.8
 49
0.45
 74
0
 49
-0.05
 74
0
 49
0.1
 74
0
 49
-0.05
 74
0
 49
0.1
 74
0
 49
-0.05
 74
0
  0
LTYPE
  5
1F8
100
AcDbSymbolTableRecord
100
AcDbLinetypeTableRecord
  2
DOT
 70
64
  3
. . . . . . . . . . . . . . . . . . . .
 72
65
 73
2
 40
0.2
 49
0.1
 74
0
 49
-0.1
 74
0
  0
LTYPE
  5
1F9
100
AcDbSymbolTableRecord
100
AcDbLinetypeTableRecord
  2
DASHED
 70
64
  3
- - - - - - - - - - - - - - - - - - - -
 72
65
 73
2
 40
0.2
 49
0.1
 74
0
 49
-0.1
 74
0
  0
ENDTAB
  0
TABLE
  2
LAYER
  5
2
100
AcDbSymbolTable
 70
36
  0
LAYER
  5
10
100
AcDbSymbolTableRecord
100
AcDbLayerTableRecord
  2
0
 70
0
 62
7
  6
CONTINUOUS
370
-3
390
F
  0
LAYER
  5
1FA
100
AcDbSymbolTableRecord
100
AcDbLayerTableRecord
  2
DEFAULT_1
 70
0
 62
7
  6
CENTER
370
-3
390
F
  0
LAYER
  5
1FB
100
AcDbSymbolTableRecord
100
AcDbLayerTableRecord
  2
DEFAULT_2
 70
0
 62
8
  6
HIDDEN
370
-3
390
F
  0
LAYER
  5
1FC
100
AcDbSymbolTableRecord
100
AcDbLayerTableRecord
  2
DEFAULT_3
 70
0
 62
7
  6
PHANTOM
370
-3
390
F
  0
LAYER
  5
1FD
100
AcDbSymbolTableRecord
100
AcDbLayerTableRecord
  2
ALL_FEATURES
 70
0
 62
7
  6
CONTINUOUS
370
-3
390
F
  0
LAYER
  5
1FE
100
AcDbSymbolTableRecord
100
AcDbLayerTableRecord
  2
AXES_FEATURES
 70
0
 62
7
  6
CONTINUOUS
370
-3
390
F
  0
LAYER
  5
1FF
100
AcDbSymbolTableRecord
100
AcDbLayerTableRecord
  2
DEFAULT_COORDINATE_SYSTEM
 70
0
 62
7
  6
CONTINUOUS
370
-3
390
F
  0
LAYER
  5
200
100
AcDbSymbolTableRecord
100
AcDbLayerTableRecord
  2
DEFAULT_DATUM_AXES
 70
0
 62
7
  6
CONTINUOUS
370
-3
390
F
  0
LAYER
  5
201
100
AcDbSymbolTableRecord
100
AcDbLayerTableRecord
  2
DEFAULT_DATUM_PLANES
 70
0
 62
7
  6
CONTINUOUS
370
-3
390
F
  0
LAYER
  5
202
100
AcDbSymbolTableRecord
100
AcDbLayerTableRecord
  2
DIMENSIONS
 70
0
 62
7
  6
CONTINUOUS
370
-3
390
F
  0
ENDTAB
  0
TABLE
  2
STYLE
  5
3
100
AcDbSymbolTable
 70
1
  0
STYLE
  5
11
100
AcDbSymbolTableRecord
100
AcDbTextStyleTableRecord
  2
STANDARD
 70
0
 40
0.0
 41
0.8
 50
0.0
 71
0
 42
0.2
  3
txt
  4

  0
STYLE
  5
203
100
AcDbSymbolTableRecord
100
AcDbTextStyleTableRecord
  2
TEXTSTYLE_1
 70
0
 40
0.0
 41
0.8
 50
0.0
 71
0
 42
0.2
  3
gdt
  4

  0
ENDTAB
  0
TABLE
  2
VIEW
  5
6
100
AcDbSymbolTable
 70
0
  0
ENDTAB
  0
TABLE
  2
UCS
  5
7
100
AcDbSymbolTable
 70
0
  0
ENDTAB
  0
TABLE
  2
APPID
  5
9
100
AcDbSymbolTable
 70
1
  0
APPID
  5
204
100
AcDbSymbolTableRecord
100
AcDbRegAppTableRecord
  2
ACAD
 70
0
  0
ENDTAB
  0
TABLE
  2
BLOCK_RECORD
  5
1
100
AcDbSymbolTable
 70
0
  0
BLOCK_RECORD
  5
205
100
AcDbSymbolTableRecord
100
AcDbBlockTableRecord
  2
*Model_Space
  0
BLOCK_RECORD
  5
206
100
AcDbSymbolTableRecord
100
AcDbBlockTableRecord
  2
*Paper_Space
  0
BLOCK_RECORD
  5
207
100
AcDbSymbolTableRecord
100
AcDbBlockTableRecord
  2
_FILLED
  0
ENDTAB
  0
TABLE
  2
DIMSTYLE
  5
A
100
AcDbSymbolTable
 70
1
100
AcDbDimStyleTable
 71
0
  0
DIMSTYLE
105
208
100
AcDbSymbolTableRecord
100
AcDbDimStyleTableRecord
  2
STANDARD
 70
0
  3

  4

 40
1.0
 41
0.1
 42
0.0625
 43
0.38
 44
0.125
 45
0.0
 46
0.0
 47
0.001
 48
0.001
140
0.08
141
0.09
142
0.0
143
25.4
144
1.0
145
0.0
146
1.0
147
0.09
 71
1.0
 72
0.0
 73
1
 74
1
 75
0
 76
0
 77
0
 78
4
 79
1
170
1
171
2
172
0
173
0
174
0
175
0
176
0
177
0
178
0
270
2
179
3
271
3
272
3
273
2
274
2
275
0
280
0
281
0
282
0
283
1
284
4
285
0
286
0
287
3
288
0
340
11
278
46
341
207
342
207
343
207
344
207
  0
ENDTAB
  0
ENDSEC
  0
SECTION
  2
BLOCKS
  0
BLOCK
  5
20
100
AcDbEntity
  8
0
100
AcDbBlockBegin
  2
*Model_Space
 70
0
 10
0.0
 20
0.0
 30
0.0
  3
*Model_Space
  1

  0
ENDBLK
  5
21
100
AcDbEntity
  8
0
100
AcDbBlockEnd
  0
BLOCK
  5
1C
100
AcDbEntity
  8
0
100
AcDbBlockBegin
  2
*Paper_Space
 70
0
 10
0.0
 20
0.0
 30
0.0
  3
*Paper_Space
  1

  0
ENDBLK
  5
1D
100
AcDbEntity
  8
0
100
AcDbBlockEnd
  0
BLOCK
  5
209
100
AcDbEntity
  8
0
100
AcDbBlockBegin
  2
_FILLED
 70
64
 10
0.0
 20
0.0
  3
_FILLED
  1

  0
SOLID
  5
20A
100
AcDbEntity
  8
0
  6
BYBLOCK
 62
0
100
AcDbTrace
 10
0.0
 20
0.0
 11
-1.0
 21
0.2
 12
-1.0
 22
-0.2
 13
-1.0
 23
-0.2
  0
ENDBLK
  5
20B
100
AcDbEntity
  8
0
  6
BYBLOCK
 62
0
100
AcDbBlockEnd
  0
ENDSEC
  0
SECTION
  2
ENTITIES
  0
LINE
  5
20C
100
AcDbEntity
  8
0
100
AcDbLine
 62
7
  6
CONTINUOUS
 10
9.7577076333
 20
7.2210445021
 11
12.1176770522
 21
7.2210445021
  0
LINE
  5
20D
100
AcDbEntity
  8
0
100
AcDbLine
 62
7
  6
CONTINUOUS
 10
9.9376923427
 20
7.4080445021
 11
11.9376923427
 21
7.4080445021
  0
LINE
  5
20E
100
AcDbEntity
  8
0
100
AcDbLine
 62
7
  6
CONTINUOUS
 10
11.7506815596
 20
7.5960445021
 11
10.1247031259
 21
7.5960445021
  0
LINE
  5
20F
100
AcDbEntity
  8
0
100
AcDbLine
 62
7
  6
CONTINUOUS
 10
10.1966928686
 20
7.6580445021
 11
11.6786918169
 21
7.6580445021
  0
LINE
  5
210
100
AcDbEntity
  8
0
100
AcDbLine
 62
9
  6
CONTINUOUS
 10
11.5788557824
 20
8.0245445021
 11
10.2965289031
 21
8.0245445021
  0
LINE
  5
211
100
AcDbEntity
  8
0
100
AcDbLine
 62
9
  6
CONTINUOUS
 10
9.9129258627
 20
9.8573113143
 11
9.9129258627
 21
9.40677769
  0
LINE
  5
212
100
AcDbEntity
  8
0
100
AcDbLine
 62
9
  6
CONTINUOUS
 10
10.3191923427
 20
8.2395445021
 11
11.5561923427
 21
8.2395445021
  0
LINE
  5
213
100
AcDbEntity
  8
0
100
AcDbLine
 62
9
  6
CONTINUOUS
 10
9.9950151198
 20
9.4642572065
 11
9.9950151198
 21
9.7998317977
  0
LINE
  5
214
100
AcDbEntity
  8
0
100
AcDbLine
 62
7
  6
CONTINUOUS
 10
10.0201923427
 20
9.8211219288
 11
10.0201923427
 21
9.4429670755
  0
LINE
  5
215
100
AcDbEntity
  8
0
100
AcDbLine
 62
9
  6
CONTINUOUS
 10
10.0450555013
 20
9.4411272089
 11
10.0450555013
 21
9.8229617954
  0
LINE
  5
216
100
AcDbEntity
  8
0
100
AcDbLine
 62
7
  6
CONTINUOUS
 10
10.4244581905
 20
10.0389638542
 11
10.4101923427
 21
10.0193285993
  0
LINE
  5
217
100
AcDbEntity
  8
0
100
AcDbLine
 62
7
  6
CONTINUOUS
 10
10.4370391303
 20
9.9325445021
 11
10.4101923427
 21
9.9170445021
  0
LINE
  5
218
100
AcDbEntity
  8
0
100
AcDbLine
 62
7
  6
CONTINUOUS
 10
10.4831823866
 20
10.0580445021
 11
10.4244581905
 21
10.0389638542
  0
LINE
  5
219
100
AcDbEntity
  8
0
100
AcDbLine
 62
7
  6
CONTINUOUS
 10
10.1966923427
 20
7.6580445021
 11
10.1966923427
 21
7.5960445021
  0
LINE
  5
21A
100
AcDbEntity
  8
0
100
AcDbLine
 62
7
  6
CONTINUOUS
 10
10.2811923427
 20
7.6580445021
 11
10.2811923427
 21
8.0092521043
  0
LINE
  5
21B
100
AcDbEntity
  8
0
100
AcDbLine
 62
7
  6
CONTINUOUS
 10
10.4101923427
 20
9.9170445021
 11
10.3801923427
 21
9.8370445021
  0
LINE
  5
21C
100
AcDbEntity
  8
0
100
AcDbLine
 62
7
  6
CONTINUOUS
 10
9.9950151198
 20
9.4642572065
 11
9.9129258627
 21
9.40677769
  0
LINE
  5
21D
100
AcDbEntity
  8
0
100
AcDbLine
 62
9
  6
CONTINUOUS
 10
10.3230583485
 20
8.4677433137
 11
11.5523263369
 21
8.4677433137
  0
LINE
  5
21E
100
AcDbEntity
  8
0
100
AcDbLine
 62
9
  6
CONTINUOUS
 10
11.4781923427
 20
8.5736609409
 11
10.3971923427
 21
8.5736609409
  0
LINE
  5
21F
100
AcDbEntity
  8
0
100
AcDbLine
 62
9
  6
CONTINUOUS
 10
10.4065263329
 20
9.4774257855
 11
10.4065263329
 21
9.786663901
  0
LINE
  5
220
100
AcDbEntity
  8
0
100
AcDbLine
 62
7
  6
CONTINUOUS
 10
10.4101923427
 20
10.0193285993
 11
10.4101923427
 21
9.9480445021
  0
LINE
  5
221
100
AcDbEntity
  8
0
100
AcDbLine
 62
9
  6
CONTINUOUS
 10
10.4286863666
 20
9.7278043556
 11
10.4286863666
 21
9.5362823954
  0
LINE
  5
222
100
AcDbEntity
  8
0
100
AcDbLine
 62
7
  6
CONTINUOUS
 10
10.5941923427
 20
9.2970445021
 11
10.5941923427
 21
8.9380445021
  0
LINE
  5
223
100
AcDbEntity
  8
0
100
AcDbLine
 62
7
  6
CONTINUOUS
 10
11.4383455552
 20
9.9325445021
 11
11.4651923427
 21
9.9480445021
  0
LINE
  5
224
100
AcDbEntity
  8
0
100
AcDbLine
 62
9
  6
CONTINUOUS
 10
11.3674320703
 20
8.8796437448
 11
10.5079526152
 21
8.8796437448
  0
LINE
  5
225
100
AcDbEntity
  8
0
100
AcDbLine
 62
7
  6
CONTINUOUS
 10
11.336540051
 20
8.9080445021
 11
10.5388446344
 21
8.9080445021
  0
LINE
  5
226
100
AcDbEntity
  8
0
100
AcDbLine
 62
7
  6
CONTINUOUS
 10
10.5941929818
 20
8.9380445021
 11
11.2811917037
 21
8.9380445021
  0
LINE
  5
227
100
AcDbEntity
  8
0
100
AcDbLine
 62
7
  6
CONTINUOUS
 10
11.5788557824
 20
8.0245445021
 11
11.5941923427
 21
8.0092521204
  0
LINE
  5
228
100
AcDbEntity
  8
0
100
AcDbLine
 62
7
  6
CONTINUOUS
 10
10.3801923427
 20
9.4270445021
 11
10.4101923427
 21
9.3480445021
  0
LINE
  5
229
100
AcDbEntity
  8
0
100
AcDbLine
 62
7
  6
CONTINUOUS
 10
10.6726923427
 20
10.1090151317
 11
10.6726923427
 21
10.1078670848
  0
LINE
  5
22A
100
AcDbEntity
  8
0
100
AcDbLine
 62
7
  6
CONTINUOUS
 10
10.6891923427
 20
10.1125267649
 11
10.6891923427
 21
10.1115133472
  0
LINE
  5
22B
100
AcDbEntity
  8
0
100
AcDbLine
 62
7
  6
CONTINUOUS
 10
10.7291923427
 20
10.1174789178
 11
10.7291923427
 21
10.1184883999
  0
LINE
  5
22C
100
AcDbEntity
  8
0
100
AcDbLine
 62
7
  6
CONTINUOUS
 10
10.7376923427
 20
8.9080445021
 11
10.7376923427
 21
8.9380445021
  0
LINE
  5
22D
100
AcDbEntity
  8
0
100
AcDbLine
 62
7
  6
CONTINUOUS
 10
10.7456923427
 20
10.1187626516
 11
10.7456923427
 21
10.119902563
  0
LINE
  5
22E
100
AcDbEntity
  8
0
100
AcDbLine
 62
7
  6
CONTINUOUS
 10
10.7626923427
 20
10.1219301277
 11
10.7626923427
 21
10.1207917186
  0
LINE
  5
22F
100
AcDbEntity
  8
0
100
AcDbLine
 62
7
  6
CONTINUOUS
 10
10.7791923427
 20
10.124449684
 11
10.7791923427
 21
10.1234441068
  0
LINE
  5
230
100
AcDbEntity
  8
0
100
AcDbLine
 62
7
  6
CONTINUOUS
 10
10.8191923427
 20
10.1270348215
 11
10.8191923427
 21
10.1280380626
  0
LINE
  5
231
100
AcDbEntity
  8
0
100
AcDbLine
 62
7
  6
CONTINUOUS
 10
10.8356923427
 20
10.1273497406
 11
10.8356923427
 21
10.128483321
  0
LINE
  5
232
100
AcDbEntity
  8
0
100
AcDbLine
 62
7
  6
CONTINUOUS
 10
10.8939923427
 20
10.1324286183
 11
10.8939923427
 21
10.1314282207
  0
LINE
  5
233
100
AcDbEntity
  8
0
100
AcDbLine
 62
7
  6
CONTINUOUS
 10
10.9376908954
 20
7.9079892608
 11
10.9376923427
 21
7.6580445021
  0
LINE
  5
234
100
AcDbEntity
  8
0
100
AcDbLine
 62
7
  6
CONTINUOUS
 10
10.3971923427
 20
8.5736609409
 11
10.3230583485
 21
8.4677433137
  0
LINE
  5
235
100
AcDbEntity
  8
0
100
AcDbLine
 62
7
  6
CONTINUOUS
 10
10.5671923427
 20
9.2970445021
 11
10.4101923427
 21
9.3480445021
  0
LINE
  5
236
100
AcDbEntity
  8
0
100
AcDbLine
 62
7
  6
CONTINUOUS
 10
9.9950151198
 20
9.7998317977
 11
9.9129258627
 21
9.8573113143
  0
LINE
  5
237
100
AcDbEntity
  8
0
100
AcDbLine
 62
7
  6
CONTINUOUS
 10
10.9789923427
 20
10.1324944209
 11
10.9789923427
 21
10.1314940658
  0
LINE
  5
238
100
AcDbEntity
  8
0
100
AcDbLine
 62
7
  6
CONTINUOUS
 10
11.0756923427
 20
10.1256866866
 11
11.0756923427
 21
10.1245510506
  0
LINE
  5
239
100
AcDbEntity
  8
0
100
AcDbLine
 62
7
  6
CONTINUOUS
 10
11.0941923427
 20
10.1248441648
 11
11.0941923427
 21
10.123838845
  0
LINE
  5
23A
100
AcDbEntity
  8
0
100
AcDbLine
 62
7
  6
CONTINUOUS
 10
11.8803695657
 20
9.7998317977
 11
11.9624588227
 21
9.8573113143
  0
LINE
  5
23B
100
AcDbEntity
  8
0
100
AcDbLine
 62
7
  6
CONTINUOUS
 10
11.3081923427
 20
9.2970445021
 11
11.4651923427
 21
9.3480445021
  0
LINE
  5
23C
100
AcDbEntity
  8
0
100
AcDbLine
 62
7
  6
CONTINUOUS
 10
10.5671930415
 20
9.2970445021
 11
11.308191644
 21
9.2970445021
  0
LINE
  5
23D
100
AcDbEntity
  8
0
100
AcDbLine
 62
7
  6
CONTINUOUS
 10
11.4651923427
 20
9.3480445021
 11
10.4101923427
 21
9.3480445021
  0
LINE
  5
23E
100
AcDbEntity
  8
0
100
AcDbLine
 62
7
  6
CONTINUOUS
 10
10.3801923427
 20
9.4270445021
 11
10.7566382543
 21
9.4270445021
  0
LINE
  5
23F
100
AcDbEntity
  8
0
100
AcDbLine
 62
7
  6
CONTINUOUS
 10
11.1187464312
 20
9.4270445021
 11
11.4951923427
 21
9.4270445021
  0
LINE
  5
240
100
AcDbEntity
  8
0
100
AcDbLine
 62
7
  6
CONTINUOUS
 10
11.4781923427
 20
8.5736609409
 11
11.5523263369
 21
8.4677433137
  0
LINE
  5
241
100
AcDbEntity
  8
0
100
AcDbLine
 62
7
  6
CONTINUOUS
 10
11.1301923427
 20
10.1197581068
 11
11.1301923427
 21
10.1207660933
  0
LINE
  5
242
100
AcDbEntity
  8
0
100
AcDbLine
 62
7
  6
CONTINUOUS
 10
11.1376923427
 20
8.9080445021
 11
11.1376923427
 21
8.9380445021
  0
LINE
  5
243
100
AcDbEntity
  8
0
100
AcDbLine
 62
7
  6
CONTINUOUS
 10
11.1486923427
 20
10.1162687497
 11
11.1486923427
 21
10.1174105131
  0
LINE
  5
244
100
AcDbEntity
  8
0
100
AcDbLine
 62
7
  6
CONTINUOUS
 10
11.2811923427
 20
9.2970445021
 11
11.2811923427
 21
8.9380445021
  0
LINE
  5
245
100
AcDbEntity
  8
0
100
AcDbLine
 62
7
  6
CONTINUOUS
 10
10.4370391303
 20
9.9325445021
 11
10.4101923427
 21
9.9480445021
  0
LINE
  5
246
100
AcDbEntity
  8
0
100
AcDbLine
 62
9
  6
CONTINUOUS
 10
11.4466983189
 20
9.5362220489
 11
11.4466983189
 21
9.7277515707
  0
LINE
  5
247
100
AcDbEntity
  8
0
100
AcDbLine
 62
7
  6
CONTINUOUS
 10
11.4951923427
 20
9.4270445021
 11
11.4651923427
 21
9.3480445021
  0
LINE
  5
248
100
AcDbEntity
  8
0
100
AcDbLine
 62
7
  6
CONTINUOUS
 10
10.2965289031
 20
8.0245445021
 11
10.2811923427
 21
8.0092521204
  0
LINE
  5
249
100
AcDbEntity
  8
0
100
AcDbLine
 62
7
  6
CONTINUOUS
 10
11.4651923427
 20
10.0193285993
 11
11.4651923427
 21
9.9480445021
  0
LINE
  5
24A
100
AcDbEntity
  8
0
100
AcDbLine
 62
9
  6
CONTINUOUS
 10
11.4688583526
 20
9.7867815535
 11
11.4688583526
 21
9.4772342335
  0
LINE
  5
24B
100
AcDbEntity
  8
0
100
AcDbLine
 62
7
  6
CONTINUOUS
 10
11.5941923427
 20
8.0092521043
 11
11.5941923427
 21
7.6580445021
  0
LINE
  5
24C
100
AcDbEntity
  8
0
100
AcDbLine
 62
7
  6
CONTINUOUS
 10
11.4951923427
 20
9.8370445021
 11
11.1187464312
 21
9.8370445021
  0
LINE
  5
24D
100
AcDbEntity
  8
0
100
AcDbLine
 62
7
  6
CONTINUOUS
 10
10.7566382543
 20
9.8370445021
 11
10.3801923427
 21
9.8370445021
  0
LINE
  5
24E
100
AcDbEntity
  8
0
100
AcDbLine
 62
7
  6
CONTINUOUS
 10
10.4101923427
 20
9.9170445021
 11
11.4651923427
 21
9.9170445021
  0
LINE
  5
24F
100
AcDbEntity
  8
0
100
AcDbLine
 62
7
  6
CONTINUOUS
 10
10.4370391303
 20
9.9325445021
 11
11.4383455552
 21
9.9325445021
  0
LINE
  5
250
100
AcDbEntity
  8
0
100
AcDbLine
 62
7
  6
CONTINUOUS
 10
10.4101923427
 20
9.9480445021
 11
11.4651923427
 21
9.9480445021
  0
LINE
  5
251
100
AcDbEntity
  8
0
100
AcDbLine
 62
7
  6
CONTINUOUS
 10
11.6786923427
 20
7.6580445021
 11
11.6786923427
 21
7.5960445021
  0
LINE
  5
252
100
AcDbEntity
  8
0
100
AcDbLine
 62
7
  6
CONTINUOUS
 10
11.4651923427
 20
10.0193285993
 11
10.4101923427
 21
10.0193285993
  0
LINE
  5
253
100
AcDbEntity
  8
0
100
AcDbLine
 62
7
  6
CONTINUOUS
 10
10.4244581905
 20
10.0389638542
 11
11.450926495
 21
10.0389638542
  0
LINE
  5
254
100
AcDbEntity
  8
0
100
AcDbLine
 62
7
  6
CONTINUOUS
 10
11.3921903803
 20
10.0580445021
 11
10.4831943052
 21
10.0580445021
  0
LINE
  5
255
100
AcDbEntity
  8
0
100
AcDbLine
 62
9
  6
CONTINUOUS
 10
11.3328369823
 20
10.0818539151
 11
10.5425477032
 21
10.0818539151
  0
LINE
  5
256
100
AcDbEntity
  8
0
100
AcDbLine
 62
7
  6
CONTINUOUS
 10
11.4383455552
 20
9.9325445021
 11
11.4651923427
 21
9.9170445021
  0
LINE
  5
257
100
AcDbEntity
  8
0
100
AcDbLine
 62
7
  6
CONTINUOUS
 10
11.8803695657
 20
9.4642572065
 11
11.9624588227
 21
9.40677769
  0
LINE
  5
258
100
AcDbEntity
  8
0
100
AcDbLine
 62
7
  6
CONTINUOUS
 10
11.4651923427
 20
9.9170445021
 11
11.4951923427
 21
9.8370445021
  0
LINE
  5
259
100
AcDbEntity
  8
0
100
AcDbLine
 62
9
  6
CONTINUOUS
 10
11.8303291842
 20
9.4411272089
 11
11.8303291842
 21
9.8229617954
  0
LINE
  5
25A
100
AcDbEntity
  8
0
100
AcDbLine
 62
7
  6
CONTINUOUS
 10
11.8551923427
 20
9.4429670755
 11
11.8551923427
 21
9.8211219288
  0
LINE
  5
25B
100
AcDbEntity
  8
0
100
AcDbLine
 62
9
  6
CONTINUOUS
 10
11.8803695657
 20
9.7998317977
 11
11.8803695657
 21
9.4642572065
  0
LINE
  5
25C
100
AcDbEntity
  8
0
100
AcDbLine
 62
9
  6
CONTINUOUS
 10
11.9624588227
 20
9.40677769
 11
11.9624588227
 21
9.8573113143
  0
LINE
  5
25D
100
AcDbEntity
  8
0
100
AcDbLine
 62
7
  6
CONTINUOUS
 10
11.0941923427
 20
10.1241218591
 11
11.1301923427
 21
10.120041872
  0
LINE
  5
25E
100
AcDbEntity
  8
0
100
AcDbLine
 62
7
  6
CONTINUOUS
 10
11.3922022989
 20
10.0580445021
 11
11.450926495
 21
10.0389638542
  0
LINE
  5
25F
100
AcDbEntity
  8
0
100
AcDbLine
 62
7
  6
CONTINUOUS
 10
11.450926495
 20
10.0389638542
 11
11.4651923427
 21
10.0193285993
  0
ARC
  5
260
100
AcDbEntity
  8
0
100
AcDbCircle
 62
7
  6
CONTINUOUS
 10
10.8405977436
 20
9.3186271107
 40
0.8080376158
100
AcDbArc
 50
97.4953747162
 51
97.7110213899
  0
ARC
  5
261
100
AcDbEntity
  8
0
100
AcDbCircle
 62
7
  6
CONTINUOUS
 10
9.8851534407
 20
8.9320478307
 40
0.625
100
AcDbArc
 50
325.0110095299
 51
355.1903004544
  0
ARC
  5
262
100
AcDbEntity
  8
0
100
AcDbCircle
 62
7
  6
CONTINUOUS
 10
9.7551923427
 20
9.6320445021
 40
0.275
100
AcDbArc
 50
55.0
 51
305.0
  0
ARC
  5
263
100
AcDbEntity
  8
0
100
AcDbCircle
 62
7
  6
CONTINUOUS
 10
10.2278163838
 20
9.2705445021
 40
0.25
100
AcDbArc
 50
47.6927588705
 51
136.9739483152
  0
ARC
  5
264
100
AcDbEntity
  8
0
100
AcDbCircle
 62
7
  6
CONTINUOUS
 10
10.4901674638
 20
8.3507800989
 40
0.2039751211
100
AcDbArc
 50
145.0110095298
 51
213.0478355063
  0
ARC
  5
265
100
AcDbEntity
  8
0
100
AcDbCircle
 62
7
  6
CONTINUOUS
 10
9.9448284538
 20
7.2210445021
 40
0.1871361111
100
AcDbArc
 50
92.1854050713
 51
180.0
  0
ARC
  5
266
100
AcDbEntity
  8
0
100
AcDbCircle
 62
7
  6
CONTINUOUS
 10
10.1246896689
 20
7.4090445021
 40
0.187
100
AcDbArc
 50
90.0
 51
180.3063960032
  0
ARC
  5
267
100
AcDbEntity
  8
0
100
AcDbCircle
 62
7
  6
CONTINUOUS
 10
10.1754178091
 20
8.1460054776
 40
0.1715245336
100
AcDbArc
 50
314.9173576842
 51
33.0478355063
  0
ARC
  5
268
100
AcDbEntity
  8
0
100
AcDbCircle
 62
7
  6
CONTINUOUS
 10
10.5388434542
 20
8.8770445021
 40
0.031
100
AcDbArc
 50
90.0
 51
175.1903004544
  0
ARC
  5
269
100
AcDbEntity
  8
0
100
AcDbCircle
 62
7
  6
CONTINUOUS
 10
10.0041923427
 20
9.4511507738
 40
0.016
100
AcDbArc
 50
0.0
 51
124.9999999998
  0
ARC
  5
26A
100
AcDbEntity
  8
0
100
AcDbCircle
 62
7
  6
CONTINUOUS
 10
10.0333588048
 20
9.4520445021
 40
0.016
100
AcDbArc
 50
214.6234510999
 51
316.9739483152
  0
ARC
  5
26B
100
AcDbEntity
  8
0
100
AcDbCircle
 62
7
  6
CONTINUOUS
 10
10.2278163838
 20
9.9935445021
 40
0.25
100
AcDbArc
 50
223.0260516848
 51
312.3073607029
  0
ARC
  5
26C
100
AcDbEntity
  8
0
100
AcDbCircle
 62
7
  6
CONTINUOUS
 10
10.5501923427
 20
10.0528442704
 40
0.03
100
AcDbArc
 50
104.7629977427
 51
170.0178676887
  0
ARC
  5
26D
100
AcDbEntity
  8
0
100
AcDbCircle
 62
7
  6
CONTINUOUS
 10
10.0041923427
 20
9.8129382305
 40
0.016
100
AcDbArc
 50
235.0000000002
 51
360.0
  0
ARC
  5
26E
100
AcDbEntity
  8
0
100
AcDbCircle
 62
7
  6
CONTINUOUS
 10
10.0333588048
 20
9.8120445021
 40
0.016
100
AcDbArc
 50
43.0260516848
 51
145.3765489001
  0
ARC
  5
26F
100
AcDbEntity
  8
0
100
AcDbCircle
 62
7
  6
CONTINUOUS
 10
10.9376923427
 20
8.5823711101
 40
1.550673392
100
AcDbArc
 50
92.9572302825
 51
94.3827253199
  0
ARC
  5
270
100
AcDbEntity
  8
0
100
AcDbCircle
 62
7
  6
CONTINUOUS
 10
10.9376923427
 20
8.5823711101
 40
1.550673392
100
AcDbArc
 50
99.221579184
 51
104.7629977426
  0
ARC
  5
271
100
AcDbEntity
  8
0
100
AcDbCircle
 62
7
  6
CONTINUOUS
 10
10.9376923427
 20
8.5823711101
 40
1.550673392
100
AcDbArc
 50
75.2370022574
 51
82.8689275621
  0
ARC
  5
272
100
AcDbEntity
  8
0
100
AcDbCircle
 62
7
  6
CONTINUOUS
 10
10.9376923427
 20
8.5823711101
 40
1.550673392
100
AcDbArc
 50
84.2076250178
 51
87.1537590823
  0
ARC
  5
273
100
AcDbEntity
  8
0
100
AcDbCircle
 62
7
  6
CONTINUOUS
 10
10.9376923427
 20
8.5823711101
 40
1.550673392
100
AcDbArc
 50
88.473827208
 51
91.6148836456
  0
ARC
  5
274
100
AcDbEntity
  8
0
100
AcDbCircle
 62
7
  6
CONTINUOUS
 10
10.9376923427
 20
8.5823711101
 40
1.550668233
100
AcDbArc
 50
96.0895835634
 51
97.5036217175
  0
ARC
  5
275
100
AcDbEntity
  8
0
100
AcDbCircle
 62
7
  6
CONTINUOUS
 10
10.9376923427
 20
8.5823711101
 40
1.549673392
100
AcDbArc
 50
94.3855590149
 51
95.8659548868
  0
ARC
  5
276
100
AcDbEntity
  8
0
100
AcDbCircle
 62
7
  6
CONTINUOUS
 10
10.9376923427
 20
8.5823711101
 40
1.549673392
100
AcDbArc
 50
97.7282346163
 51
99.2275818147
  0
ARC
  5
277
100
AcDbEntity
  8
0
100
AcDbCircle
 62
7
  6
CONTINUOUS
 10
10.9376923427
 20
8.5823711101
 40
1.5483420064
100
AcDbArc
 50
82.1676580455
 51
84.8865797045
  0
ARC
  5
278
100
AcDbEntity
  8
0
100
AcDbCircle
 62
7
  6
CONTINUOUS
 10
10.9376923427
 20
8.5823711101
 40
1.5483420064
100
AcDbArc
 50
97.1232192299
 51
99.8547367444
  0
ARC
  5
279
100
AcDbEntity
  8
0
100
AcDbCircle
 62
7
  6
CONTINUOUS
 10
10.9376923427
 20
8.5823711101
 40
1.5483420064
100
AcDbArc
 50
93.7772047905
 51
96.4896726718
  0
ARC
  5
27A
100
AcDbEntity
  8
0
100
AcDbCircle
 62
7
  6
CONTINUOUS
 10
11.9902312448
 20
8.9320478307
 40
0.625
100
AcDbArc
 50
184.8096995456
 51
214.9889904701
  0
ARC
  5
27B
100
AcDbEntity
  8
0
100
AcDbCircle
 62
7
  6
CONTINUOUS
 10
12.1201923427
 20
9.6320445021
 40
0.275
100
AcDbArc
 50
235.0
 51
125.0
  0
CIRCLE
  5
27C
100
AcDbEntity
  8
0
100
AcDbCircle
 62
7
  6
CONTINUOUS
 10
10.9376923427
 20
9.6320445021
 40
0.275
  0
ARC
  5
27D
100
AcDbEntity
  8
0
100
AcDbCircle
 62
7
  6
CONTINUOUS
 10
11.6475683017
 20
9.2705445021
 40
0.25
100
AcDbArc
 50
43.0260516848
 51
132.3010572444
  0
ARC
  5
27E
100
AcDbEntity
  8
0
100
AcDbCircle
 62
7
  6
CONTINUOUS
 10
11.3852172217
 20
8.3507800989
 40
0.2039751211
100
AcDbArc
 50
326.9521644937
 51
34.9889904702
  0
ARC
  5
27F
100
AcDbEntity
  8
0
100
AcDbCircle
 62
7
  6
CONTINUOUS
 10
11.9305562316
 20
7.2210445021
 40
0.1871361111
100
AcDbArc
 50
0.0
 51
87.8145949287
  0
ARC
  5
280
100
AcDbEntity
  8
0
100
AcDbCircle
 62
7
  6
CONTINUOUS
 10
11.7506950166
 20
7.4090445021
 40
0.187
100
AcDbArc
 50
359.6936039968
 51
90.0
  0
ARC
  5
281
100
AcDbEntity
  8
0
100
AcDbCircle
 62
7
  6
CONTINUOUS
 10
11.6999668764
 20
8.1460054776
 40
0.1715245336
100
AcDbArc
 50
146.9521644937
 51
225.0826423158
  0
ARC
  5
282
100
AcDbEntity
  8
0
100
AcDbCircle
 62
7
  6
CONTINUOUS
 10
11.3365412312
 20
8.8770445021
 40
0.031
100
AcDbArc
 50
4.8096995456
 51
90.0
  0
ARC
  5
283
100
AcDbEntity
  8
0
100
AcDbCircle
 62
7
  6
CONTINUOUS
 10
11.8711923427
 20
9.4511507738
 40
0.016
100
AcDbArc
 50
55.0000000002
 51
180.0
  0
ARC
  5
284
100
AcDbEntity
  8
0
100
AcDbCircle
 62
7
  6
CONTINUOUS
 10
11.8420258806
 20
9.4520445021
 40
0.016
100
AcDbArc
 50
223.0260516849
 51
325.3765489001
  0
ARC
  5
285
100
AcDbEntity
  8
0
100
AcDbCircle
 62
7
  6
CONTINUOUS
 10
10.9805331638
 20
12.19363493
 40
2.0628152561
100
AcDbArc
 50
270.2380630848
 51
270.6386017813
  0
ARC
  5
286
100
AcDbEntity
  8
0
100
AcDbCircle
 62
7
  6
CONTINUOUS
 10
11.3052714499
 20
11.1003755507
 40
0.9953578663
100
AcDbArc
 50
260.3999456807
 51
260.9492438971
  0
ARC
  5
287
100
AcDbEntity
  8
0
100
AcDbCircle
 62
7
  6
CONTINUOUS
 10
11.1369299161
 20
11.0246073172
 40
0.9010040085
100
AcDbArc
 50
266.1028348451
 51
266.6275640303
  0
ARC
  5
288
100
AcDbEntity
  8
0
100
AcDbCircle
 62
7
  6
CONTINUOUS
 10
11.6475683017
 20
9.9935445021
 40
0.25
100
AcDbArc
 50
227.6850112559
 51
316.9739483152
  0
ARC
  5
289
100
AcDbEntity
  8
0
100
AcDbCircle
 62
7
  6
CONTINUOUS
 10
11.3251923427
 20
10.0528442704
 40
0.03
100
AcDbArc
 50
9.9821323113
 51
75.2370022573
  0
ARC
  5
28A
100
AcDbEntity
  8
0
100
AcDbCircle
 62
7
  6
CONTINUOUS
 10
11.8711923427
 20
9.8129382305
 40
0.016
100
AcDbArc
 50
180.0
 51
304.9999999998
  0
ARC
  5
28B
100
AcDbEntity
  8
0
100
AcDbCircle
 62
7
  6
CONTINUOUS
 10
11.8420258806
 20
9.8120445021
 40
0.016
100
AcDbArc
 50
34.6234510999
 51
136.9739483152
  0
SPLINE
  5
28C
100
AcDbEntity
  8
0
100
AcDbSpline
 62
7
  6
CONTINUOUS
 70
0
 71
3
 72
31
 73
27
 74
0
 42
0.0000001
 43
0.0000001
 44
0.0000000001
 40
0.0
 40
0.0
 40
0.0
 40
0.0
 40
0.0002600568
 40
0.0005849179
 40
0.001039488
 40
0.0023372166
 40
0.0041521657
 40
0.0064832587
 40
0.0093294191
 40
0.0126895707
 40
0.0165626376
 40
0.0258432141
 40
0.0371625451
 40
0.0505120306
 40
0.0658830742
 40
0.0832670831
 40
0.1026554681
 40
0.1474109731
 40
0.2000542611
 40
0.2604201489
 40
0.3283324518
 40
0.4036154225
 40
0.4860937918
 40
0.5755928019
 40
0.7749207555
 40
1.0
 40
1.0
 40
1.0
 40
1.0
 10
11.4951923533
 20
9.8370445021
 30
0.0
 10
11.4951899562
 20
9.8370445021
 30
0.0
 10
11.4951890552
 20
9.8370366146
 30
0.0
 10
11.4951832104
 20
9.8370300544
 30
0.0
 10
11.4951739913
 20
9.837012627
 30
0.0
 10
11.4951568257
 20
9.8369850495
 30
0.0
 10
11.4951314599
 20
9.8369415261
 30
0.0
 10
11.4950985725
 20
9.836886185
 30
0.0
 10
11.4950585628
 20
9.836818388
 30
0.0
 10
11.4950113148
 20
9.8367384017
 30
0.0
 10
11.4949339732
 20
9.8366072912
 30
0.0
 10
11.494819462
 20
9.836412936
 30
0.0
 10
11.4946608155
 20
9.8361431965
 30
0.0
 10
11.494473946
 20
9.835824928
 30
0.0
 10
11.4942590503
 20
9.835458289
 30
0.0
 10
11.4940163217
 20
9.8350434423
 30
0.0
 10
11.4936373078
 20
9.8343945244
 30
0.0
 10
11.4930954701
 20
9.833464324
 30
0.0
 10
11.4923656061
 20
9.8322065256
 30
0.0
 10
11.4915321861
 20
9.8307620377
 30
0.0
 10
11.4905992603
 20
9.8291340411
 30
0.0
 10
11.4895709922
 20
9.8273257726
 30
0.0
 10
11.4884515299
 20
9.8253404768
 30
0.0
 10
11.4867819846
 20
9.8223527339
 30
0.0
 10
11.4844973868
 20
9.8182029787
 30
0.0
 10
11.482645072
 20
9.8147571569
 30
0.0
 10
11.4816727807
 20
9.8129243889
 30
0.0
  0
SPLINE
  5
28D
100
AcDbEntity
  8
0
100
AcDbSpline
 62
7
  6
CONTINUOUS
 70
0
 71
3
 72
16
 73
12
 74
0
 42
0.0000001
 43
0.0000001
 44
0.0000000001
 40
0.0
 40
0.0
 40
0.0
 40
0.0
 40
0.1873976981
 40
0.3016155914
 40
0.4268173384
 40
0.5611983083
 40
0.702968917
 40
0.7760085099
 40
0.8501277283
 40
0.9249406629
 40
1.0
 40
1.0
 40
1.0
 40
1.0
 10
11.4816727807
 20
9.8129243889
 30
0.0
 10
11.476125202
 20
9.8024672096
 30
0.0
 10
11.4677121666
 20
9.7853520149
 30
0.0
 10
11.457251397
 20
9.760493967
 30
0.0
 10
11.449219142
 20
9.7382760718
 30
0.0
 10
11.4420674489
 20
9.7139341531
 30
0.0
 10
11.4373825744
 20
9.6923551636
 30
0.0
 10
11.43458151
 20
9.674315677
 30
0.0
 10
11.4330286945
 20
9.6603756509
 30
0.0
 10
11.4320764839
 20
9.6462543478
 30
0.0
 10
11.4318583068
 20
9.6367858661
 30
0.0
 10
11.4318583068
 20
9.6320445021
 30
0.0
  0
SPLINE
  5
28E
100
AcDbEntity
  8
0
100
AcDbSpline
 62
7
  6
CONTINUOUS
 70
0
 71
3
 72
16
 73
12
 74
0
 42
0.0000001
 43
0.0000001
 44
0.0000000001
 40
0.0
 40
0.0
 40
0.0
 40
0.0
 40
0.0750207358
 40
0.1498073097
 40
0.2239175065
 40
0.2969482477
 40
0.4387101725
 40
0.5730740938
 40
0.6982834579
 40
0.8125222637
 40
1.0
 40
1.0
 40
1.0
 40
1.0
 10
11.4318583068
 20
9.6320445021
 30
0.0
 10
11.4318583068
 20
9.6273066865
 30
0.0
 10
11.4320766782
 20
9.6178445193
 30
0.0
 10
11.4330289455
 20
9.6037312631
 30
0.0
 10
11.4345783868
 20
9.589796996
 30
0.0
 10
11.4373771723
 20
9.571763133
 30
0.0
 10
11.4420598111
 20
9.5501912844
 30
0.0
 10
11.4492038512
 20
9.5258544794
 30
0.0
 10
11.4572344096
 20
9.5036410572
 30
0.0
 10
11.4676905661
 20
9.4787805347
 30
0.0
 10
11.4761037421
 20
9.4616631488
 30
0.0
 10
11.4816524569
 20
9.4512039885
 30
0.0
  0
SPLINE
  5
28F
100
AcDbEntity
  8
0
100
AcDbSpline
 62
7
  6
CONTINUOUS
 70
0
 71
3
 72
25
 73
21
 74
0
 42
0.0000001
 43
0.0000001
 44
0.0000000001
 40
0.0
 40
0.0
 40
0.0
 40
0.0
 40
0.2249597048
 40
0.4242523353
 40
0.596315706
 40
0.6716453171
 40
0.7395767469
 40
0.7999119313
 40
0.8524859462
 40
0.8972049161
 40
0.9339839579
 40
0.9493694562
 40
0.9627380993
 40
0.9740792513
 40
0.9833822706
 40
0.9906365102
 40
0.9958313177
 40
0.9976531041
 40
0.9989560354
 40
1.0
 40
1.0
 40
1.0
 40
1.0
 10
11.4816524569
 20
9.4512039885
 30
0.0
 10
11.4826258008
 20
9.4493692647
 30
0.0
 10
11.4844797858
 20
9.4459188534
 30
0.0
 10
11.4871328284
 20
9.4410947455
 30
0.0
 10
11.4891517845
 20
9.4374987025
 30
0.0
 10
11.4905916237
 20
9.4349684807
 30
0.0
 10
11.4915265446
 20
9.4333377891
 30
0.0
 10
11.492360728
 20
9.431891519
 30
0.0
 10
11.4930902333
 20
9.430632276
 30
0.0
 10
11.4937127915
 20
9.4295624179
 30
0.0
 10
11.4941641342
 20
9.4287901707
 30
0.0
 10
11.4944702001
 20
9.4282682644
 30
0.0
 10
11.4946577784
 20
9.4279491348
 30
0.0
 10
11.4948171015
 20
9.4276785264
 30
0.0
 10
11.4949481331
 20
9.4274567955
 30
0.0
 10
11.4950500815
 20
9.4272837237
 30
0.0
 10
11.4951178531
 20
9.4271708342
 30
0.0
 10
11.4951562602
 20
9.4271041758
 30
0.0
 10
11.4951773347
 20
9.427072165
 30
0.0
 10
11.4951856794
 20
9.4270514634
 30
0.0
 10
11.4951923455
 20
9.4270445021
 30
0.0
  0
SPLINE
  5
290
100
AcDbEntity
  8
0
100
AcDbSpline
 62
7
  6
CONTINUOUS
 70
0
 71
3
 72
15
 73
11
 74
0
 42
0.0000001
 43
0.0000001
 44
0.0000000001
 40
0.0
 40
0.0
 40
0.0
 40
0.0
 40
0.0750939539
 40
0.1499260808
 40
0.2240498858
 40
0.2971058143
 40
0.4389127373
 40
0.573341426
 40
0.8126956894
 40
1.0
 40
1.0
 40
1.0
 40
1.0
 10
10.4435263787
 20
9.6320445021
 30
0.0
 10
10.4435263787
 20
9.636790616
 30
0.0
 10
10.4433084822
 20
9.646267609
 30
0.0
 10
10.4423559933
 20
9.660400316
 30
0.0
 10
10.4407978373
 20
9.6743499424
 30
0.0
 10
10.4379934071
 20
9.6924024683
 30
0.0
 10
10.4333005335
 20
9.7139988647
 30
0.0
 10
10.4241041998
 20
9.7452829307
 30
0.0
 10
10.4111177571
 20
9.7783576216
 30
0.0
 10
10.3992074251
 20
9.8025719371
 30
0.0
 10
10.3936568116
 20
9.8130280655
 30
0.0
  0
SPLINE
  5
291
100
AcDbEntity
  8
0
100
AcDbSpline
 62
7
  6
CONTINUOUS
 70
0
 71
3
 72
31
 73
27
 74
0
 42
0.0000001
 43
0.0000001
 44
0.0000000001
 40
0.0
 40
0.0
 40
0.0
 40
0.0
 40
0.2250737351
 40
0.424380272
 40
0.5138837055
 40
0.5963765969
 40
0.6716762063
 40
0.739599236
 40
0.7999618724
 40
0.8525806211
 40
0.8973135823
 40
0.9166976678
 40
0.934081037
 40
0.9494543457
 40
0.9628082452
 40
0.9741333829
 40
0.9834204016
 40
0.9872966913
 40
0.9906599403
 40
0.993508978
 40
0.9958426333
 40
0.9976597349
 40
0.9989591111
 40
0.999414286
 40
0.9997395902
 40
1.0
 40
1.0
 40
1.0
 40
1.0
 10
10.3936568116
 20
9.8130280655
 30
0.0
 10
10.392688183
 20
9.8148527476
 30
0.0
 10
10.3908429162
 20
9.8182832154
 30
0.0
 10
10.3885682555
 20
9.8224152443
 30
0.0
 10
10.3869056475
 20
9.8253901922
 30
0.0
 10
10.3857904983
 20
9.8273671858
 30
0.0
 10
10.3847660936
 20
9.8291679334
 30
0.0
 10
10.3838367737
 20
9.8307890693
 30
0.0
 10
10.3830068475
 20
9.8322272173
 30
0.0
 10
10.3822805237
 20
9.8334793971
 30
0.0
 10
10.3817414219
 20
9.8344053559
 30
0.0
 10
10.3813641849
 20
9.8350513246
 30
0.0
 10
10.3811225005
 20
9.8354643893
 30
0.0
 10
10.3809084645
 20
9.8358295053
 30
0.0
 10
10.3807222901
 20
9.8361464968
 30
0.0
 10
10.3805641826
 20
9.8364151918
 30
0.0
 10
10.380450045
 20
9.8366088144
 30
0.0
 10
10.3803729155
 20
9.8367394452
 30
0.0
 10
10.3803258361
 20
9.8368191486
 30
0.0
 10
10.3802858196
 20
9.8368867105
 30
0.0
 10
10.3802533241
 20
9.8369418633
 30
0.0
 10
10.3802272223
 20
9.8369852417
 30
0.0
 10
10.3802117473
 20
9.8370127286
 30
0.0
 10
10.3802003262
 20
9.8370300999
 30
0.0
 10
10.3801983935
 20
9.8370366391
 30
0.0
 10
10.3801899526
 20
9.8370445021
 30
0.0
 10
10.3801923427
 20
9.8370445021
 30
0.0
  0
SPLINE
  5
292
100
AcDbEntity
  8
0
100
AcDbSpline
 62
7
  6
CONTINUOUS
 70
0
 71
3
 72
16
 73
12
 74
0
 42
0.0000001
 43
0.0000001
 44
0.0000000001
 40
0.0
 40
0.0
 40
0.0
 40
0.0
 40
0.0750881694
 40
0.1499142339
 40
0.2240318192
 40
0.2970819272
 40
0.4388777192
 40
0.5732962242
 40
0.6984996617
 40
0.8127101878
 40
1.0
 40
1.0
 40
1.0
 40
1.0
 10
10.4435263787
 20
9.6320445021
 30
0.0
 10
10.4435263787
 20
9.6272983545
 30
0.0
 10
10.4433084804
 20
9.6178213134
 30
0.0
 10
10.4423559552
 20
9.603688555
 30
0.0
 10
10.4407976771
 20
9.5897389153
 30
0.0
 10
10.4379931318
 20
9.5716862858
 30
0.0
 10
10.4333003231
 20
9.550090094
 30
0.0
 10
10.4261384484
 20
9.5257304199
 30
0.0
 10
10.4180960661
 20
9.5034983445
 30
0.0
 10
10.4076262068
 20
9.4786336269
 30
0.0
 10
10.3992068432
 20
9.4615163786
 30
0.0
 10
10.3936562464
 20
9.4510601509
 30
0.0
  0
SPLINE
  5
293
100
AcDbEntity
  8
0
100
AcDbSpline
 62
7
  6
CONTINUOUS
 70
0
 71
3
 72
11
 73
7
 74
0
 42
0.0000001
 43
0.0000001
 44
0.0000000001
 40
0.0
 40
0.0
 40
0.0
 40
0.0
 40
0.4036365215
 40
0.7109498999
 40
0.9121377261
 40
1.0
 40
1.0
 40
1.0
 40
1.0
 10
10.3936562464
 20
9.4510601509
 30
0.0
 10
10.3919257551
 20
9.4478002473
 30
0.0
 10
10.3888219166
 20
9.4420878376
 30
0.0
 10
10.3847246624
 20
9.4348229955
 30
0.0
 10
10.3819903432
 20
9.4301050407
 30
0.0
 10
10.3806544581
 20
9.4278244888
 30
0.0
 10
10.380245
 20
9.4271332745
 30
0.0
  0
LINE
  5
294
100
AcDbEntity
  8
0
100
AcDbLine
 62
7
  6
CONTINUOUS
 10
10.7291923427
 20
10.1189308124
 11
10.7321778356
 21
10.1193579719
  0
LINE
  5
295
100
AcDbEntity
  8
0
100
AcDbLine
 62
7
  6
CONTINUOUS
 10
10.7731923427
 20
10.1242893047
 11
10.7791923427
 21
10.1248903867
  0
LINE
  5
296
100
AcDbEntity
  8
0
100
AcDbLine
 62
7
  6
CONTINUOUS
 10
10.8576923513
 20
10.130979508
 11
10.8656999921
 21
10.1308397725
  0
LINE
  5
297
100
AcDbEntity
  8
0
100
AcDbLine
 62
7
  6
CONTINUOUS
 10
10.8656999921
 20
10.1308397725
 11
10.8852717373
 21
10.130715831
  0
LINE
  5
298
100
AcDbEntity
  8
0
100
AcDbLine
 62
7
  6
CONTINUOUS
 10
10.8852717373
 20
10.130715831
 11
10.89424185
 21
10.1307098543
  0
LINE
  5
299
100
AcDbEntity
  8
0
100
AcDbLine
 62
7
  6
CONTINUOUS
 10
10.89424185
 20
10.1307098543
 11
10.9045150742
 21
10.1307136919
  0
LINE
  5
29A
100
AcDbEntity
  8
0
100
AcDbLine
 62
7
  6
CONTINUOUS
 10
10.9045150742
 20
10.1307136919
 11
10.9279720344
 21
10.1307316635
  0
LINE
  5
29B
100
AcDbEntity
  8
0
100
AcDbLine
 62
7
  6
CONTINUOUS
 10
10.9279720344
 20
10.1307316635
 11
10.940152971
 21
10.130744495
  0
LINE
  5
29C
100
AcDbEntity
  8
0
100
AcDbLine
 62
7
  6
CONTINUOUS
 10
10.940152971
 20
10.130744495
 11
10.9737304862
 21
10.1307948299
  0
LINE
  5
29D
100
AcDbEntity
  8
0
100
AcDbLine
 62
7
  6
CONTINUOUS
 10
10.9737304862
 20
10.1307948299
 11
10.982228329
 21
10.1308138199
  0
LINE
  5
29E
100
AcDbEntity
  8
0
100
AcDbLine
 62
7
  6
CONTINUOUS
 10
10.982228329
 20
10.1308138199
 11
10.9891041049
 21
10.13083748
  0
LINE
  5
29F
100
AcDbEntity
  8
0
100
AcDbLine
 62
7
  6
CONTINUOUS
 10
11.0035242154
 20
10.130947801
 11
11.0146923428
 21
10.1311315721
  0
SPLINE
  5
2A0
100
AcDbEntity
  8
0
100
AcDbSpline
 62
7
  6
CONTINUOUS
 70
0
 71
3
 72
21
 73
17
 74
0
 42
0.0000001
 43
0.0000001
 44
0.0000000001
 40
0.0
 40
0.0
 40
0.0
 40
0.0
 40
0.1267246291
 40
0.1896417788
 40
0.2522273054
 40
0.3145057432
 40
0.3765103847
 40
0.4383113769
 40
0.5000000354
 40
0.5616886937
 40
0.6234896867
 40
0.6854943318
 40
0.7477727662
 40
0.8103582931
 40
0.8732754378
 40
1.0
 40
1.0
 40
1.0
 40
1.0
 10
10.9376908954
 20
7.9079892608
 30
0.0
 10
10.9122501292
 20
7.922635183
 30
0.0
 10
10.8733174495
 20
7.9431495797
 30
0.0
 10
10.8196824818
 20
7.9663851541
 30
0.0
 10
10.7788020788
 20
7.9813345286
 30
0.0
 10
10.7372140595
 20
7.9934710424
 30
0.0
 10
10.6950137693
 20
8.0024716648
 30
0.0
 10
10.6523509557
 20
8.0079959511
 30
0.0
 10
10.6094423596
 20
8.0098796512
 30
0.0
 10
10.5665337634
 20
8.0079959485
 30
0.0
 10
10.5238709485
 20
8.0024716696
 30
0.0
 10
10.4816706527
 20
7.993471071
 30
0.0
 10
10.4400826386
 20
7.9813345326
 30
0.0
 10
10.3992022635
 20
7.966385089
 30
0.0
 10
10.3455672642
 20
7.9431496517
 30
0.0
 10
10.3066344005
 20
7.9226356295
 30
0.0
 10
10.2811936444
 20
7.9079897209
 30
0.0
  0
SPLINE
  5
2A1
100
AcDbEntity
  8
0
100
AcDbSpline
 62
7
  6
CONTINUOUS
 70
0
 71
3
 72
23
 73
19
 74
0
 42
0.0000001
 43
0.0000001
 44
0.0000000001
 40
0.0
 40
0.0
 40
0.0
 40
0.0
 40
0.0017474796
 40
0.0053714027
 40
0.0110614012
 40
0.0188487938
 40
0.0287379672
 40
0.0407252246
 40
0.0709641902
 40
0.1094651695
 40
0.1560120854
 40
0.2103629544
 40
0.272274046
 40
0.3414793478
 40
0.4176573013
 40
0.5896080823
 40
0.7851065757
 40
1.0
 40
1.0
 40
1.0
 40
1.0
 10
11.1301923427
 20
10.1197581068
 30
0.0
 10
11.1301923427
 20
10.119747144
 30
0.0
 10
11.1302237078
 20
10.1197221175
 30
0.0
 10
11.1302828161
 20
10.1196946138
 30
0.0
 10
11.1303855994
 20
10.1196566167
 30
0.0
 10
11.1305249775
 20
10.1196141882
 30
0.0
 10
11.1307048276
 20
10.1195649566
 30
0.0
 10
11.1310218346
 20
10.1194855562
 30
0.0
 10
11.1315159325
 20
10.119373698
 30
0.0
 10
11.1322238099
 20
10.1192255136
 30
0.0
 10
11.1330817265
 20
10.1190557468
 30
0.0
 10
11.134085203
 20
10.1188653142
 30
0.0
 10
11.135229611
 20
10.1186551801
 30
0.0
 10
11.1365097835
 20
10.1184263197
 30
0.0
 10
11.1384708416
 20
10.1180834502
 30
0.0
 10
11.1412146887
 20
10.1176175472
 30
0.0
 10
11.144819284
 20
10.1170226984
 30
0.0
 10
11.1473610666
 20
10.1166128807
 30
0.0
 10
11.1486923427
 20
10.1164003217
 30
0.0
  0
SPLINE
  5
2A2
100
AcDbEntity
  8
0
100
AcDbSpline
 62
7
  6
CONTINUOUS
 70
0
 71
3
 72
22
 73
18
 74
0
 42
0.0000001
 43
0.0000001
 44
0.0000000001
 40
0.0
 40
0.0
 40
0.0
 40
0.0
 40
0.2162051587
 40
0.4128373546
 40
0.5856123239
 40
0.6618890681
 40
0.7310300358
 40
0.7927665128
 40
0.8468303426
 40
0.8929553161
 40
0.9309361807
 40
0.9606639834
 40
0.9820474842
 40
0.9895909753
 40
0.9950371156
 40
0.9984228132
 40
1.0
 40
1.0
 40
1.0
 40
1.0
 10
11.0756923427
 20
10.1246820183
 30
0.0
 10
11.077025457
 20
10.1245920649
 30
0.0
 10
11.0795712735
 20
10.1244243173
 30
0.0
 10
11.0831834097
 20
10.1242001284
 30
0.0
 10
11.0859332405
 20
10.1240425878
 30
0.0
 10
11.0878970061
 20
10.1239402429
 30
0.0
 10
11.0891757433
 20
10.1238787023
 30
0.0
 10
11.0903176087
 20
10.1238293029
 30
0.0
 10
11.0913176486
 20
10.1237922285
 30
0.0
 10
11.0921711267
 20
10.1237675626
 30
0.0
 10
11.0928747188
 20
10.1237554435
 30
0.0
 10
11.0934248687
 20
10.1237551655
 30
0.0
 10
11.0937882908
 20
10.1237658246
 30
0.0
 10
11.0939988889
 20
10.1237812735
 30
0.0
 10
11.0941013278
 20
10.1237968675
 30
0.0
 10
11.0941600547
 20
10.123808573
 30
0.0
 10
11.0941923427
 20
10.1238290316
 30
0.0
 10
11.0941923427
 20
10.1238387786
 30
0.0
  0
LINE
  5
2A3
100
AcDbEntity
  8
0
100
AcDbLine
 62
7
  6
CONTINUOUS
 10
11.0941923427
 20
10.1248440646
 11
11.0897956153
 21
10.1248570831
  0
LINE
  5
2A4
100
AcDbEntity
  8
0
100
AcDbLine
 62
7
  6
CONTINUOUS
 10
11.0897956153
 20
10.1248570831
 11
11.0839273368
 21
10.1251636281
  0
SPLINE
  5
2A5
100
AcDbEntity
  8
0
100
AcDbSpline
 62
7
  6
CONTINUOUS
 70
0
 71
3
 72
18
 73
14
 74
0
 42
0.0000001
 43
0.0000001
 44
0.0000000001
 40
0.0
 40
0.0
 40
0.0
 40
0.0
 40
0.2174237009
 40
0.4108961635
 40
0.579032246
 40
0.7204498156
 40
0.8338870685
 40
0.8798733651
 40
0.9186081483
 40
0.9500239282
 40
0.9740627644
 40
0.9906936408
 40
1.0
 40
1.0
 40
1.0
 40
1.0
 10
11.1392759356
 20
10.1189567965
 30
0.0
 10
11.1386146922
 20
10.1190694191
 30
0.0
 10
11.1373654108
 20
10.1192844068
 30
0.0
 10
11.135606304
 20
10.1195952286
 30
0.0
 10
11.1340796621
 20
10.1198739959
 30
0.0
 10
11.1327978198
 20
10.1201185035
 30
0.0
 10
11.131888094
 20
10.1203026986
 30
0.0
 10
11.1312908619
 20
10.1204330776
 30
0.0
 10
11.130941714
 20
10.1205140003
 30
0.0
 10
11.1306602374
 20
10.120585177
 30
0.0
 10
11.1304453819
 20
10.1206452251
 30
0.0
 10
11.1303010161
 20
10.1206958113
 30
0.0
 10
11.1302255139
 20
10.1207278935
 30
0.0
 10
11.1302040704
 20
10.1207469849
 30
0.0
  0
LINE
  5
2A6
100
AcDbEntity
  8
0
100
AcDbLine
 62
7
  6
CONTINUOUS
 10
10.6891923427
 20
10.1125267649
 11
10.6847129721
 21
10.1113800471
  0
LINE
  5
2A7
100
AcDbEntity
  8
0
100
AcDbLine
 62
7
  6
CONTINUOUS
 10
10.6847129721
 20
10.1113800471
 11
10.6726923427
 21
10.1090151317
  0
LINE
  5
2A8
100
AcDbEntity
  8
0
100
AcDbLine
 62
7
  6
CONTINUOUS
 10
10.7456923427
 20
10.119902563
 11
10.7337235802
 21
10.1186836135
  0
LINE
  5
2A9
100
AcDbEntity
  8
0
100
AcDbLine
 62
7
  6
CONTINUOUS
 10
10.7337235802
 20
10.1186836135
 11
10.7291923427
 21
10.1184883999
  0
LINE
  5
2AA
100
AcDbEntity
  8
0
100
AcDbLine
 62
7
  6
CONTINUOUS
 10
10.7791923427
 20
10.124449684
 11
10.774701713
 21
10.1235717158
  0
LINE
  5
2AB
100
AcDbEntity
  8
0
100
AcDbLine
 62
7
  6
CONTINUOUS
 10
10.774701713
 20
10.1235717158
 11
10.7626923427
 21
10.1219301277
  0
LINE
  5
2AC
100
AcDbEntity
  8
0
100
AcDbLine
 62
7
  6
CONTINUOUS
 10
10.8356923427
 20
10.1284833622
 11
10.8237360915
 21
10.1279686006
  0
LINE
  5
2AD
100
AcDbEntity
  8
0
100
AcDbLine
 62
7
  6
CONTINUOUS
 10
10.8237360915
 20
10.1279686006
 11
10.8191923427
 21
10.1280380162
  0
LINE
  5
2AE
100
AcDbEntity
  8
0
100
AcDbLine
 62
7
  6
CONTINUOUS
 10
10.9789923427
 20
10.1324944209
 11
10.9753008616
 21
10.1323146038
  0
SPLINE
  5
2AF
100
AcDbEntity
  8
0
100
AcDbSpline
 62
7
  6
CONTINUOUS
 70
0
 71
3
 72
19
 73
15
 74
0
 42
0.0000001
 43
0.0000001
 44
0.0000000001
 40
0.0
 40
0.0
 40
0.0
 40
0.0
 40
0.091551007
 40
0.2424579081
 40
0.4326045462
 40
0.5340265445
 40
0.6326965578
 40
0.8063219929
 40
0.8748938863
 40
0.9267549943
 40
0.9621015537
 40
0.9838180481
 40
0.9954056545
 40
1.0
 40
1.0
 40
1.0
 40
1.0
 10
10.9753008616
 20
10.1323146038
 30
0.0
 10
10.9728219565
 20
10.1322283629
 30
0.0
 10
10.9662541007
 20
10.1320889253
 30
0.0
 10
10.954534304
 20
10.1319553941
 30
0.0
 10
10.9425464443
 20
10.1318692247
 30
0.0
 10
10.9319736244
 20
10.1318570037
 30
0.0
 10
10.9218484789
 20
10.1318883258
 30
0.0
 10
10.912613457
 20
10.1319511208
 30
0.0
 10
10.9046470683
 20
10.1320492146
 30
0.0
 10
10.9004272544
 20
10.1321323614
 30
0.0
 10
10.8974774847
 20
10.1322222589
 30
0.0
 10
10.8956192188
 20
10.1323048607
 30
0.0
 10
10.8945945351
 20
10.1323706136
 30
0.0
 10
10.8941576302
 20
10.1324084841
 30
0.0
 10
10.8940340331
 20
10.1324232432
 30
0.0
  0
LINE
  5
2B0
100
AcDbEntity
  8
0
100
AcDbLine
 62
7
  6
CONTINUOUS
 10
10.8191923427
 20
10.127034775
 11
10.8237353024
 21
10.1269652772
  0
LINE
  5
2B1
100
AcDbEntity
  8
0
100
AcDbLine
 62
7
  6
CONTINUOUS
 10
10.8237353024
 20
10.1269652772
 11
10.8356923427
 21
10.1274804042
  0
SPLINE
  5
2B2
100
AcDbEntity
  8
0
100
AcDbSpline
 62
7
  6
CONTINUOUS
 70
0
 71
3
 72
23
 73
19
 74
0
 42
0.0000001
 43
0.0000001
 44
0.0000000001
 40
0.0
 40
0.0
 40
0.0
 40
0.0
 40
0.2081142846
 40
0.400997944
 40
0.5730863556
 40
0.6500184292
 40
0.7202699647
 40
0.7833976921
 40
0.839035178
 40
0.8868508504
 40
0.9265154576
 40
0.9577306625
 40
0.9701210229
 40
0.9803525161
 40
0.9884193544
 40
0.9943259144
 40
0.9981101812
 40
1.0
 40
1.0
 40
1.0
 40
1.0
 10
10.7626923427
 20
10.1209229038
 30
0.0
 10
10.7638424856
 20
10.1210687264
 30
0.0
 10
10.7660580309
 20
10.1213542142
 30
0.0
 10
10.7692224512
 20
10.1217769017
 30
0.0
 10
10.7716606418
 20
10.1221166841
 30
0.0
 10
10.7734207597
 20
10.122372324
 30
0.0
 10
10.7745794296
 20
10.1225458616
 30
0.0
 10
10.7756199271
 20
10.1227074547
 30
0.0
 10
10.7765359298
 20
10.1228560824
 30
0.0
 10
10.7773217787
 20
10.1229907298
 30
0.0
 10
10.7779720565
 20
10.123110424
 30
0.0
 10
10.7784267945
 20
10.1232027419
 30
0.0
 10
10.7787190038
 20
10.123269812
 30
0.0
 10
10.7788849267
 20
10.1233121732
 30
0.0
 10
10.7790138455
 20
10.1233493342
 30
0.0
 10
10.779108546
 20
10.1233836639
 30
0.0
 10
10.7791642358
 20
10.1234090976
 30
0.0
 10
10.7791923427
 20
10.1234335791
 30
0.0
 10
10.7791923427
 20
10.1234441068
 30
0.0
  0
SPLINE
  5
2B3
100
AcDbEntity
  8
0
100
AcDbSpline
 62
7
  6
CONTINUOUS
 70
0
 71
3
 72
22
 73
18
 74
0
 42
0.0000001
 43
0.0000001
 44
0.0000000001
 40
0.0
 40
0.0
 40
0.0
 40
0.0
 40
0.0016953086
 40
0.0051932941
 40
0.0108096433
 40
0.01859555
 40
0.0406983981
 40
0.0714721052
 40
0.110793409
 40
0.1583723383
 40
0.2138771564
 40
0.276973798
 40
0.3473015664
 40
0.4244088304
 40
0.5970729573
 40
0.7908040424
 40
1.0
 40
1.0
 40
1.0
 40
1.0
 10
10.7291923427
 20
10.1174789178
 30
0.0
 10
10.7291923427
 20
10.117469546
 30
0.0
 10
10.7292211154
 20
10.1174490054
 30
0.0
 10
10.7292768284
 20
10.1174389425
 30
0.0
 10
10.729371112
 20
10.1174261126
 30
0.0
 10
10.7295663578
 20
10.1174170008
 30
0.0
 10
10.7299024922
 20
10.117417648
 30
0.0
 10
10.73041157
 20
10.1174356906
 30
0.0
 10
10.7310612757
 20
10.1174709289
 30
0.0
 10
10.731846705
 20
10.1175236471
 30
0.0
 10
10.73276273
 20
10.1175934746
 30
0.0
 10
10.7338035487
 20
10.1176801011
 30
0.0
 10
10.7349628289
 20
10.1177830476
 30
0.0
 10
10.736724704
 20
10.1179475456
 30
0.0
 10
10.7391644502
 20
10.1181897395
 30
0.0
 10
10.7423289538
 20
10.1185222552
 30
0.0
 10
10.7445430636
 20
10.118765409
 30
0.0
 10
10.7456923427
 20
10.11889401
 30
0.0
  0
SPLINE
  5
2B4
100
AcDbEntity
  8
0
100
AcDbSpline
 62
7
  6
CONTINUOUS
 70
0
 71
3
 72
23
 73
19
 74
0
 42
0.0000001
 43
0.0000001
 44
0.0000000001
 40
0.0
 40
0.0
 40
0.0
 40
0.0
 40
0.2070239495
 40
0.3991839148
 40
0.5710038036
 40
0.6479615294
 40
0.7183270852
 40
0.7816440308
 40
0.8375285845
 40
0.8856270255
 40
0.9255878214
 40
0.957091877
 40
0.9696191368
 40
0.9799800852
 40
0.9881668876
 40
0.9941813162
 40
0.9980565498
 40
1.0
 40
1.0
 40
1.0
 40
1.0
 10
10.6726923427
 20
10.1079993813
 30
0.0
 10
10.6738380538
 20
10.1082134604
 30
0.0
 10
10.6760463992
 20
10.1086306385
 30
0.0
 10
10.6792025386
 20
10.1092417027
 30
0.0
 10
10.6816371104
 20
10.1097270961
 30
0.0
 10
10.6833971944
 20
10.1100883422
 30
0.0
 10
10.6845578349
 20
10.1103318191
 30
0.0
 10
10.6856011893
 20
10.1105564708
 30
0.0
 10
10.6865206467
 20
10.1107608495
 30
0.0
 10
10.687310215
 20
10.1109435435
 30
0.0
 10
10.6879641244
 20
10.1111032017
 30
0.0
 10
10.6884215602
 20
10.1112235847
 30
0.0
 10
10.6887155786
 20
10.1113088083
 30
0.0
 10
10.6888827011
 20
10.1113615273
 30
0.0
 10
10.6890125995
 20
10.1114069294
 30
0.0
 10
10.6891080699
 20
10.1114471175
 30
0.0
 10
10.689164103
 20
10.1114766039
 30
0.0
 10
10.6891923427
 20
10.1115024056
 30
0.0
 10
10.6891923427
 20
10.1115133472
 30
0.0
  0
SPLINE
  5
2B5
100
AcDbEntity
  8
0
100
AcDbSpline
 62
7
  6
CONTINUOUS
 70
0
 71
3
 72
21
 73
17
 74
0
 42
0.0000001
 43
0.0000001
 44
0.0000000001
 40
0.0
 40
0.0
 40
0.0
 40
0.0
 40
0.1267245415
 40
0.1896416909
 40
0.2522272277
 40
0.3145056663
 40
0.3765103198
 40
0.4383112958
 40
0.4999999345
 40
0.5616885754
 40
0.6234895493
 40
0.6854941997
 40
0.7477726436
 40
0.8103581831
 40
0.8732753437
 40
1.0
 40
1.0
 40
1.0
 40
1.0
 10
11.5941911654
 20
7.9079899989
 30
0.0
 10
11.5687504174
 20
7.9226359106
 30
0.0
 10
11.5298174261
 20
7.9431496887
 30
0.0
 10
11.4761823979
 20
7.9663850368
 30
0.0
 10
11.4353020408
 20
7.9813345372
 30
0.0
 10
11.3937140278
 20
7.9934710998
 30
0.0
 10
11.3515137303
 20
8.0024716812
 30
0.0
 10
11.3088509204
 20
8.007995945
 30
0.0
 10
11.2659423374
 20
8.0098796105
 30
0.0
 10
11.2230337544
 20
8.0079959533
 30
0.0
 10
11.1803709454
 20
8.00247168
 30
0.0
 10
11.1381706561
 20
7.9934710626
 30
0.0
 10
11.0965826319
 20
7.981334545
 30
0.0
 10
11.0557022261
 20
7.9663851618
 30
0.0
 10
11.0020672463
 20
7.9431495894
 30
0.0
 10
10.9631345612
 20
7.9226351858
 30
0.0
 10
10.9376937901
 20
7.9079892608
 30
0.0
  0
LINE
  5
2B6
100
AcDbEntity
  8
0
100
AcDbLine
 62
7
  6
CONTINUOUS
 10
10.8939923427
 20
10.1314282207
 11
10.904792306
 21
10.1310522919
  0
LINE
  5
2B7
100
AcDbEntity
  8
0
100
AcDbLine
 62
7
  6
CONTINUOUS
 10
10.9709826834
 20
10.1311938319
 11
10.9789923427
 21
10.1314940658
  0
ENDSEC
  0
SECTION
  2
OBJECTS
  0
DICTIONARY
  5
C
100
AcDbDictionary
280
0
281
1
  3
ACAD_GROUP
350
D
  3
ACAD_MLINESTYLE
350
17
  3
ACAD_LAYOUT
350
1A
  3
ACAD_PLOTSETTINGS
350
19
  3
ACAD_PLOTSTYLENAME
350
E
  0
DICTIONARY
  5
D
102
{ACAD_REACTORS
330
C
102
}
100
AcDbDictionary
280
0
281
1
  0
ACDBDICTIONARYWDFLT
  5
E
102
{ACAD_REACTORS
330
C
102
}
100
AcDbDictionary
281
1
  3
Normal
350
F
100
AcDbDictionaryWithDefault
340
F
  0
DICTIONARY
  5
17
102
{ACAD_REACTORS
330
C
102
}
100
AcDbDictionary
280
0
281
1
  3
Standard
350
18
  0
DICTIONARY
  5
19
102
{ACAD_REACTORS
330
C
102
}
100
AcDbDictionary
281
1
  0
DICTIONARY
  5
1A
102
{ACAD_REACTORS
330
C
102
}
100
AcDbDictionary
281
1
  3
Model
350
2B8
  3
Layout1
350
2B9
  0
ACDBPLACEHOLDER
  5
F
102
{ACAD_REACTORS
330
E
102
}
  0
MLINESTYLE
  5
18
102
{ACAD_REACTORS
330
17
102
}
100
AcDbMlineStyle
  2
STANDARD
 70
0
  3

 62
256
 51
90.0
 52
90.0
 71
2
 49
0.5
 62
256
  6
BYLAYER
 49
-0.5
 62
256
  6
BYLAYER
  0
LAYOUT
  5
2B8
102
{ACAD_REACTORS
330
1A
102
}
100
AcDbPlotSettings
  1

  2
none_device
  4
ANSI_C_(22.00_x_17.00_Inches)
  6

 40
0.0
 41
0.0
 42
0.0
 43
0.0
 44
558.8
 45
431.8
 46
0.0
 47
0.0
 48
0.0
 49
0.0
140
0.0
141
0.0
142
1.0
143
1.0
 70
1024
 72
0
 73
0
 74
0
  7

 75
0
147
1.0
148
0.0
149
0.0
100
AcDbLayout
  1
Model
 70
0
 71
0
 10
0.0
 20
0.0
 11
22.0
 21
17.0
 12
0.0
 22
0.0
 32
0.0
 14
0.0
 24
0.0
 34
0.0
 15
0.0
 25
0.0
 35
0.0
146
0.0
 13
0.0
 23
0.0
 33
0.0
 16
1.0
 26
0.0
 36
0.0
 17
0.0
 27
1.0
 37
0.0
 76
0
330
205
345
0
346
0
  0
LAYOUT
  5
2B9
102
{ACAD_REACTORS
330
1A
102
}
100
AcDbPlotSettings
  1

  2
none_device
  4
ANSI_C_(22.00_x_17.00_Inches)
  6

 40
0.0
 41
0.0
 42
0.0
 43
0.0
 44
558.8
 45
431.8
 46
0.0
 47
0.0
 48
0.0
 49
0.0
140
0.0
141
0.0
142
1.0
143
1.0
 70
0
 72
0
 73
0
 74
0
  7

 75
0
147
1.0
148
0.0
149
0.0
100
AcDbLayout
  1
Layout1
 70
0
 71
1
 10
0.0
 20
0.0
 11
22.0
 21
17.0
 12
0.0
 22
0.0
 32
0.0
 14
0.0
 24
0.0
 34
0.0
 15
0.0
 25
0.0
 35
0.0
146
0.0
 13
0.0
 23
0.0
 33
0.0
 16
1.0
 26
0.0
 36
0.0
 17
0.0
 27
1.0
 37
0.0
 76
0
330
206
345
0
346
0
  0
ENDSEC
  0
EOF
