999
DXF file: E:\BT Custom\CADOUTPUT\_TOP.dxf
999
Pro/ENGINEER 2018400 by Parametric Technology Corporation
  0
SECTION
  2
HEADER
  9
$ACADVER
  1
AC1018
  9
$DWGCODEPAGE
  3
ANSI_1252
  9
$EXTMAX
 10
22.0
 20
17.0
 30
0.0
  9
$EXTMIN
 10
0.0
 20
0.0
 30
0.0
  9
$LIMMIN
 10
0.0
 20
0.0
  9
$LIMMAX
 10
22.0
 20
17.0
  9
$VIEWCTR
 10
11.0
 20
8.5
  9
$VIEWSIZE
 40
17.0
  9
$CLAYER
  8
0
  9
$LTSCALE
 40
1.21
  9
$CELTYPE
  6
BYLAYER
  9
$DIMSCALE
 40
1.0
  9
$DIMASZ
 40
0.1
  9
$DIMEXO
 40
0.0625
  9
$DIMDLI
 40
0.836
  9
$DIMEXE
 40
0.125
  9
$DIMCEN
 40
0.198
  9
$DIMLFAC
 40
1.0
  9
$DIMBLK
  1
_FILLED
  9
$DIMALT
 70
1
  9
$DIMALTD
 70
2
  9
$DIMALTTD
 70
2
  9
$DIMALTF
 40
25.4
  9
$DIMTXT
 40
0.08
  9
$DIMTOL
 70
1
  9
$DIMLIM
 70
0
  9
$DIMTFAC
 40
1.0
  9
$DIMTP
 40
0.001
  9
$DIMTM
 40
0.001
  9
$DIMGAP
 40
0.09
  9
$DIMDSEP
 70
46
  9
$AUNITS
 70
0
  9
$PDMODE
 70
3
  9
$PDSIZE
 40
0.06
  9
$HANDSEED
  5
332
  9
$TILEMODE
 70
1
  9
$MEASUREMENT
 70
0
  9
$INSUNITS
 70
1
  0
ENDSEC
  0
SECTION
  2
CLASSES
  0
CLASS
  1
ACDBDICTIONARYWDFLT
  2
AcDbDictionaryWithDefault
  3
AutoCAD 2000
 90
0
 91
1
280
0
281
0
  0
CLASS
  1
ACDBPLACEHOLDER
  2
AcDbPlaceHolder
  3
AutoCAD 2000
 90
0
 91
1
280
0
281
0
  0
CLASS
  1
LAYOUT
  2
AcDbLayout
  3
AutoCAD 2000
 90
0
 91
0
280
0
281
0
  0
ENDSEC
  0
SECTION
  2
TABLES
  0
TABLE
  2
VPORT
  5
8
100
AcDbSymbolTable
 70
2
  0
VPORT
  5
1F4
100
AcDbSymbolTableRecord
100
AcDbViewportTableRecord
  2
*ACTIVE
 70
0
 10
0.0
 20
0.0
 11
1.0
 21
1.0
 12
11.0
 22
8.5
 13
0.0
 23
0.0
 14
1.0
 24
1.0
 15
0.0
 25
0.0
 16
0.0
 26
0.0
 36
1.0
 17
0.0
 27
0.0
 37
0.0
 40
17.0
 41
1.2941176471
 42
50.0
 43
0.0
 44
0.0
 50
0.0
 51
0.0
 71
0
 72
100
 73
1
 74
1
 75
0
 76
0
 77
0
 78
0
  0
ENDTAB
  0
TABLE
  2
LTYPE
  5
5
100
AcDbSymbolTable
 70
6
  0
LTYPE
  5
14
100
AcDbSymbolTableRecord
100
AcDbLinetypeTableRecord
  2
BYBLOCK
 70
0
  3

 72
65
 73
0
 40
0.0
  0
LTYPE
  5
15
100
AcDbSymbolTableRecord
100
AcDbLinetypeTableRecord
  2
BYLAYER
 70
0
  3

 72
65
 73
0
 40
0.0
  0
LTYPE
  5
16
100
AcDbSymbolTableRecord
100
AcDbLinetypeTableRecord
  2
CONTINUOUS
 70
64
  3
Solid line
 72
65
 73
0
 40
0.0
  0
LTYPE
  5
1F5
100
AcDbSymbolTableRecord
100
AcDbLinetypeTableRecord
  2
CENTER
 70
64
  3
____ _ ____ _ ____ _ ____ _ ____ _ ____ _ ____
 72
65
 73
4
 40
0.6
 49
0.375
 74
0
 49
-0.075
 74
0
 49
0.075
 74
0
 49
-0.075
 74
0
  0
LTYPE
  5
1F6
100
AcDbSymbolTableRecord
100
AcDbLinetypeTableRecord
  2
HIDDEN
 70
64
  3
- - - - - - - - - - - - - - - - - - - -
 72
65
 73
2
 40
0.2
 49
0.1
 74
0
 49
-0.1
 74
0
  0
LTYPE
  5
1F7
100
AcDbSymbolTableRecord
100
AcDbLinetypeTableRecord
  2
PHANTOM
 70
64
  3
_____ _ _ _____ _ _ _____ _ _ _____
 72
65
 73
6
 40
0.8
 49
0.45
 74
0
 49
-0.05
 74
0
 49
0.1
 74
0
 49
-0.05
 74
0
 49
0.1
 74
0
 49
-0.05
 74
0
  0
LTYPE
  5
1F8
100
AcDbSymbolTableRecord
100
AcDbLinetypeTableRecord
  2
DOT
 70
64
  3
. . . . . . . . . . . . . . . . . . . .
 72
65
 73
2
 40
0.2
 49
0.1
 74
0
 49
-0.1
 74
0
  0
LTYPE
  5
1F9
100
AcDbSymbolTableRecord
100
AcDbLinetypeTableRecord
  2
DASHED
 70
64
  3
- - - - - - - - - - - - - - - - - - - -
 72
65
 73
2
 40
0.2
 49
0.1
 74
0
 49
-0.1
 74
0
  0
ENDTAB
  0
TABLE
  2
LAYER
  5
2
100
AcDbSymbolTable
 70
36
  0
LAYER
  5
10
100
AcDbSymbolTableRecord
100
AcDbLayerTableRecord
  2
0
 70
0
 62
7
  6
CONTINUOUS
370
-3
390
F
  0
LAYER
  5
1FA
100
AcDbSymbolTableRecord
100
AcDbLayerTableRecord
  2
DEFAULT_1
 70
0
 62
7
  6
CENTER
370
-3
390
F
  0
LAYER
  5
1FB
100
AcDbSymbolTableRecord
100
AcDbLayerTableRecord
  2
DEFAULT_2
 70
0
 62
8
  6
HIDDEN
370
-3
390
F
  0
LAYER
  5
1FC
100
AcDbSymbolTableRecord
100
AcDbLayerTableRecord
  2
DEFAULT_3
 70
0
 62
7
  6
PHANTOM
370
-3
390
F
  0
LAYER
  5
1FD
100
AcDbSymbolTableRecord
100
AcDbLayerTableRecord
  2
ALL_FEATURES
 70
0
 62
7
  6
CONTINUOUS
370
-3
390
F
  0
LAYER
  5
1FE
100
AcDbSymbolTableRecord
100
AcDbLayerTableRecord
  2
AXES_FEATURES
 70
0
 62
7
  6
CONTINUOUS
370
-3
390
F
  0
LAYER
  5
1FF
100
AcDbSymbolTableRecord
100
AcDbLayerTableRecord
  2
DEFAULT_COORDINATE_SYSTEM
 70
0
 62
7
  6
CONTINUOUS
370
-3
390
F
  0
LAYER
  5
200
100
AcDbSymbolTableRecord
100
AcDbLayerTableRecord
  2
DEFAULT_DATUM_AXES
 70
0
 62
7
  6
CONTINUOUS
370
-3
390
F
  0
LAYER
  5
201
100
AcDbSymbolTableRecord
100
AcDbLayerTableRecord
  2
DEFAULT_DATUM_PLANES
 70
0
 62
7
  6
CONTINUOUS
370
-3
390
F
  0
LAYER
  5
202
100
AcDbSymbolTableRecord
100
AcDbLayerTableRecord
  2
DIMENSIONS
 70
0
 62
7
  6
CONTINUOUS
370
-3
390
F
  0
ENDTAB
  0
TABLE
  2
STYLE
  5
3
100
AcDbSymbolTable
 70
1
  0
STYLE
  5
11
100
AcDbSymbolTableRecord
100
AcDbTextStyleTableRecord
  2
STANDARD
 70
0
 40
0.0
 41
0.8
 50
0.0
 71
0
 42
0.2
  3
txt
  4

  0
STYLE
  5
203
100
AcDbSymbolTableRecord
100
AcDbTextStyleTableRecord
  2
TEXTSTYLE_1
 70
0
 40
0.0
 41
0.8
 50
0.0
 71
0
 42
0.2
  3
gdt
  4

  0
ENDTAB
  0
TABLE
  2
VIEW
  5
6
100
AcDbSymbolTable
 70
0
  0
ENDTAB
  0
TABLE
  2
UCS
  5
7
100
AcDbSymbolTable
 70
0
  0
ENDTAB
  0
TABLE
  2
APPID
  5
9
100
AcDbSymbolTable
 70
1
  0
APPID
  5
204
100
AcDbSymbolTableRecord
100
AcDbRegAppTableRecord
  2
ACAD
 70
0
  0
ENDTAB
  0
TABLE
  2
BLOCK_RECORD
  5
1
100
AcDbSymbolTable
 70
0
  0
BLOCK_RECORD
  5
205
100
AcDbSymbolTableRecord
100
AcDbBlockTableRecord
  2
*Model_Space
  0
BLOCK_RECORD
  5
206
100
AcDbSymbolTableRecord
100
AcDbBlockTableRecord
  2
*Paper_Space
  0
BLOCK_RECORD
  5
207
100
AcDbSymbolTableRecord
100
AcDbBlockTableRecord
  2
_FILLED
  0
ENDTAB
  0
TABLE
  2
DIMSTYLE
  5
A
100
AcDbSymbolTable
 70
1
100
AcDbDimStyleTable
 71
0
  0
DIMSTYLE
105
208
100
AcDbSymbolTableRecord
100
AcDbDimStyleTableRecord
  2
STANDARD
 70
0
  3

  4

 40
1.0
 41
0.1
 42
0.0625
 43
0.38
 44
0.125
 45
0.0
 46
0.0
 47
0.001
 48
0.001
140
0.08
141
0.09
142
0.0
143
25.4
144
1.0
145
0.0
146
1.0
147
0.09
 71
1.0
 72
0.0
 73
1
 74
1
 75
0
 76
0
 77
0
 78
4
 79
1
170
1
171
2
172
0
173
0
174
0
175
0
176
0
177
0
178
0
270
2
179
3
271
3
272
3
273
2
274
2
275
0
280
0
281
0
282
0
283
1
284
4
285
0
286
0
287
3
288
0
340
11
278
46
341
207
342
207
343
207
344
207
  0
ENDTAB
  0
ENDSEC
  0
SECTION
  2
BLOCKS
  0
BLOCK
  5
20
100
AcDbEntity
  8
0
100
AcDbBlockBegin
  2
*Model_Space
 70
0
 10
0.0
 20
0.0
 30
0.0
  3
*Model_Space
  1

  0
ENDBLK
  5
21
100
AcDbEntity
  8
0
100
AcDbBlockEnd
  0
BLOCK
  5
1C
100
AcDbEntity
  8
0
100
AcDbBlockBegin
  2
*Paper_Space
 70
0
 10
0.0
 20
0.0
 30
0.0
  3
*Paper_Space
  1

  0
ENDBLK
  5
1D
100
AcDbEntity
  8
0
100
AcDbBlockEnd
  0
BLOCK
  5
209
100
AcDbEntity
  8
0
100
AcDbBlockBegin
  2
_FILLED
 70
64
 10
0.0
 20
0.0
  3
_FILLED
  1

  0
SOLID
  5
20A
100
AcDbEntity
  8
0
  6
BYBLOCK
 62
0
100
AcDbTrace
 10
0.0
 20
0.0
 11
-1.0
 21
0.2
 12
-1.0
 22
-0.2
 13
-1.0
 23
-0.2
  0
ENDBLK
  5
20B
100
AcDbEntity
  8
0
  6
BYBLOCK
 62
0
100
AcDbBlockEnd
  0
ENDSEC
  0
SECTION
  2
ENTITIES
  0
LINE
  5
20C
100
AcDbEntity
  8
0
100
AcDbLine
 62
7
  6
CONTINUOUS
 10
9.1423183383
 20
5.3277726261
 11
9.1423183383
 21
5.1983375589
  0
LINE
  5
20D
100
AcDbEntity
  8
0
100
AcDbLine
 62
7
  6
CONTINUOUS
 10
9.4273183383
 20
5.4851550294
 11
9.4273183383
 21
5.4611215783
  0
LINE
  5
20E
100
AcDbEntity
  8
0
100
AcDbLine
 62
7
  6
CONTINUOUS
 10
10.5473183383
 20
8.9582409815
 11
10.6410683383
 21
9.0123675692
  0
LINE
  5
20F
100
AcDbEntity
  8
0
100
AcDbLine
 62
7
  6
CONTINUOUS
 10
9.8573183383
 20
11.6072409815
 11
9.8573183383
 21
11.3750677343
  0
LWPOLYLINE
  5
210
100
AcDbEntity
  8
0
100
AcDbPolyline
 62
7
  6
CONTINUOUS
 90
7
 70
0
 10
10.0779997996
 20
8.4809757322
 10
10.092581039
 20
8.3242916142
 10
10.1174985352
 20
8.0410512494
 10
10.1400820546
 20
7.7693470359
 10
10.1604625864
 20
7.5097381565
 10
10.1787848598
 20
7.2626025147
 10
10.1951907001
 20
7.0283136871
  0
LINE
  5
211
100
AcDbEntity
  8
0
100
AcDbLine
 62
7
  6
CONTINUOUS
 10
10.1951907001
 20
7.0283136871
 11
10.2098183383
 21
6.8072409815
  0
LINE
  5
212
100
AcDbEntity
  8
0
100
AcDbLine
 62
7
  6
CONTINUOUS
 10
10.2182157093
 20
6.6040864943
 11
10.2200356765
 21
6.5611345076
  0
LINE
  5
213
100
AcDbEntity
  8
0
100
AcDbLine
 62
7
  6
CONTINUOUS
 10
10.2182157093
 20
6.6040864943
 11
10.2098183383
 21
6.8072409815
  0
LINE
  5
214
100
AcDbEntity
  8
0
100
AcDbLine
 62
9
  6
CONTINUOUS
 10
10.2723703406
 20
6.8072409815
 11
10.272266381
 21
6.8098088009
  0
LINE
  5
215
100
AcDbEntity
  8
0
100
AcDbLine
 62
7
  6
CONTINUOUS
 10
9.9973183383
 20
10.2782409815
 11
9.9973183383
 21
10.3782409815
  0
LINE
  5
216
100
AcDbEntity
  8
0
100
AcDbLine
 62
7
  6
CONTINUOUS
 10
11.0467417378
 20
6.5342424502
 11
11.0478241372
 21
6.534242382
  0
LWPOLYLINE
  5
217
100
AcDbEntity
  8
0
100
AcDbPolyline
 62
7
  6
CONTINUOUS
 90
8
 70
0
 10
9.8247736142
 20
10.7132280515
 10
9.8407429126
 20
10.5952023598
 10
9.8868127907
 20
10.2364421562
 10
9.9288939228
 20
9.8911355178
 10
9.9674232206
 20
9.5578964637
 10
10.0027867756
 20
9.2353624982
 10
10.0353219008
 20
8.9222253603
 10
10.0358094592
 20
8.917269167
  0
LINE
  5
218
100
AcDbEntity
  8
0
100
AcDbLine
 62
7
  6
CONTINUOUS
 10
10.4723183383
 20
6.6208627351
 11
10.4723183383
 21
5.9561823608
  0
LINE
  5
219
100
AcDbEntity
  8
0
100
AcDbLine
 62
7
  6
CONTINUOUS
 10
10.5098183383
 20
9.5782409815
 11
10.5098183383
 21
9.6282409815
  0
LINE
  5
21A
100
AcDbEntity
  8
0
100
AcDbLine
 62
7
  6
CONTINUOUS
 10
10.5473183383
 20
8.4582409815
 11
10.5473183383
 21
8.5579944721
  0
LINE
  5
21B
100
AcDbEntity
  8
0
100
AcDbLine
 62
7
  6
CONTINUOUS
 10
10.5473183383
 20
8.8584661059
 11
10.5473183383
 21
8.9582409815
  0
LINE
  5
21C
100
AcDbEntity
  8
0
100
AcDbLine
 62
7
  6
CONTINUOUS
 10
10.5948183383
 20
7.1370506854
 11
10.5948183383
 21
6.909271898
  0
LINE
  5
21D
100
AcDbEntity
  8
0
100
AcDbLine
 62
7
  6
CONTINUOUS
 10
10.6098183383
 20
9.4782409815
 11
10.6098183383
 21
9.5782409815
  0
LINE
  5
21E
100
AcDbEntity
  8
0
100
AcDbLine
 62
7
  6
CONTINUOUS
 10
10.6410683383
 20
11.1903838792
 11
10.6410683383
 21
7.3425012461
  0
LINE
  5
21F
100
AcDbEntity
  8
0
100
AcDbLine
 62
7
  6
CONTINUOUS
 10
10.6410683383
 20
7.2603898439
 11
10.6410683383
 21
7.2429926138
  0
LINE
  5
220
100
AcDbEntity
  8
0
100
AcDbLine
 62
7
  6
CONTINUOUS
 10
10.6410683383
 20
7.2091612713
 11
10.6410683383
 21
7.1932751954
  0
LINE
  5
221
100
AcDbEntity
  8
0
100
AcDbLine
 62
7
  6
CONTINUOUS
 10
10.6410683383
 20
7.1578614209
 11
10.6410683383
 21
7.1435459954
  0
LINE
  5
222
100
AcDbEntity
  8
0
100
AcDbLine
 62
7
  6
CONTINUOUS
 10
10.6410685839
 20
7.3119853632
 11
10.6410683383
 21
7.2927813287
  0
LINE
  5
223
100
AcDbEntity
  8
0
100
AcDbLine
 62
9
  6
CONTINUOUS
 10
10.2098183417
 20
6.8072409816
 11
10.272266381
 21
6.8098088009
  0
LINE
  5
224
100
AcDbEntity
  8
0
100
AcDbLine
 62
9
  6
CONTINUOUS
 10
10.2099223171
 20
6.8046925759
 11
10.2723703406
 21
6.8072409815
  0
LINE
  5
225
100
AcDbEntity
  8
0
100
AcDbLine
 62
9
  6
CONTINUOUS
 10
11.822266336
 20
6.8072409815
 11
11.5581106247
 21
6.8072409815
  0
LINE
  5
226
100
AcDbEntity
  8
0
100
AcDbLine
 62
9
  6
CONTINUOUS
 10
10.5365521244
 20
6.8072409815
 11
10.2723703406
 21
6.8072409815
  0
LINE
  5
227
100
AcDbEntity
  8
0
100
AcDbLine
 62
9
  6
CONTINUOUS
 10
11.822266336
 20
6.8072409815
 11
11.8847143584
 21
6.8046925759
  0
LINE
  5
228
100
AcDbEntity
  8
0
100
AcDbLine
 62
9
  6
CONTINUOUS
 10
11.8223702955
 20
6.8098088009
 11
11.8848183349
 21
6.8072409816
  0
LINE
  5
229
100
AcDbEntity
  8
0
100
AcDbLine
 62
9
  6
CONTINUOUS
 10
10.6410685839
 20
7.3119853632
 11
10.6434357041
 21
7.3129498961
  0
LINE
  5
22A
100
AcDbEntity
  8
0
100
AcDbLine
 62
7
  6
CONTINUOUS
 10
11.1568904109
 20
6.7382189364
 11
11.1568904109
 21
6.5988284967
  0
LINE
  5
22B
100
AcDbEntity
  8
0
100
AcDbLine
 62
7
  6
CONTINUOUS
 10
11.1770814628
 20
6.2247651893
 11
11.1770814628
 21
5.9772778159
  0
LINE
  5
22C
100
AcDbEntity
  8
0
100
AcDbLine
 62
7
  6
CONTINUOUS
 10
11.3727462656
 20
6.82634172
 11
11.3727462656
 21
6.6869512803
  0
LINE
  5
22D
100
AcDbEntity
  8
0
100
AcDbLine
 62
7
  6
CONTINUOUS
 10
11.4535683383
 20
7.2860343074
 11
11.4535683383
 21
7.2678936138
  0
LINE
  5
22E
100
AcDbEntity
  8
0
100
AcDbLine
 62
7
  6
CONTINUOUS
 10
11.4535683383
 20
7.2347689064
 11
11.4535683383
 21
7.2182144969
  0
LINE
  5
22F
100
AcDbEntity
  8
0
100
AcDbLine
 62
7
  6
CONTINUOUS
 10
11.4535683383
 20
7.1834307389
 11
11.4535683383
 21
7.1684124525
  0
LINE
  5
230
100
AcDbEntity
  8
0
100
AcDbLine
 62
7
  6
CONTINUOUS
 10
11.4675552138
 20
6.3433506016
 11
11.4675552138
 21
6.0958632282
  0
LINE
  5
231
100
AcDbEntity
  8
0
100
AcDbLine
 62
7
  6
CONTINUOUS
 10
11.4535683383
 20
11.1903838792
 11
11.4535680927
 21
7.3421853913
  0
LINE
  5
232
100
AcDbEntity
  8
0
100
AcDbLine
 62
7
  6
CONTINUOUS
 10
11.4848183383
 20
9.4782409815
 11
11.4848183383
 21
9.5782409815
  0
LINE
  5
233
100
AcDbEntity
  8
0
100
AcDbLine
 62
7
  6
CONTINUOUS
 10
11.4998183383
 20
7.1370506854
 11
11.4998183383
 21
6.909271898
  0
LINE
  5
234
100
AcDbEntity
  8
0
100
AcDbLine
 62
7
  6
CONTINUOUS
 10
11.5473183383
 20
8.4582409815
 11
11.5473183383
 21
8.5580158571
  0
LINE
  5
235
100
AcDbEntity
  8
0
100
AcDbLine
 62
7
  6
CONTINUOUS
 10
11.5473183383
 20
8.8584874909
 11
11.5473183383
 21
8.9582409815
  0
LINE
  5
236
100
AcDbEntity
  8
0
100
AcDbLine
 62
7
  6
CONTINUOUS
 10
11.5848183383
 20
9.5782409815
 11
11.5848183383
 21
9.6282409815
  0
LINE
  5
237
100
AcDbEntity
  8
0
100
AcDbLine
 62
7
  6
CONTINUOUS
 10
11.6223183383
 20
6.6208627351
 11
11.6223183383
 21
5.9561823608
  0
LINE
  5
238
100
AcDbEntity
  8
0
100
AcDbLine
 62
9
  6
CONTINUOUS
 10
11.822266336
 20
6.8072409815
 11
11.8223702955
 21
6.8098088009
  0
LINE
  5
239
100
AcDbEntity
  8
0
100
AcDbLine
 62
7
  6
CONTINUOUS
 10
12.0973183383
 20
10.2782409815
 11
12.0973183383
 21
10.3782409815
  0
LWPOLYLINE
  5
23A
100
AcDbEntity
  8
0
100
AcDbPolyline
 62
7
  6
CONTINUOUS
 90
3
 70
0
 10
11.8746045467
 20
6.5612182251
 10
11.8764202099
 20
6.604068501
 10
11.8848183383
 20
6.8072409815
  0
LWPOLYLINE
  5
23B
100
AcDbEntity
  8
0
100
AcDbPolyline
 62
7
  6
CONTINUOUS
 90
8
 70
0
 10
11.8848183383
 20
6.8072409815
 10
11.8994461044
 20
7.0283155686
 10
11.9158520203
 20
7.2626053399
 10
11.9341743258
 20
7.509741247
 10
11.9545548608
 20
7.7693499932
 10
11.9771383721
 20
8.0410539484
 10
12.0020558621
 20
8.3242940961
 10
12.0166368771
 20
8.4809757322
  0
LWPOLYLINE
  5
23C
100
AcDbEntity
  8
0
100
AcDbPolyline
 62
7
  6
CONTINUOUS
 90
8
 70
0
 10
12.0588272226
 20
8.9172691641
 10
12.0593149883
 20
8.9222274628
 10
12.0918501018
 20
9.2353643802
 10
12.1272136392
 20
9.5578980913
 10
12.1657429133
 20
9.8911368623
 10
12.2078240155
 20
10.2364431929
 10
12.2538938572
 20
10.5952030676
 10
12.2698630608
 20
10.7132280498
  0
LINE
  5
23D
100
AcDbEntity
  8
0
100
AcDbLine
 62
7
  6
CONTINUOUS
 10
10.6410683383
 20
8.4582409815
 11
10.5473187016
 21
8.4582409815
  0
LINE
  5
23E
100
AcDbEntity
  8
0
100
AcDbLine
 62
7
  6
CONTINUOUS
 10
11.4535683383
 20
8.4582409815
 11
11.5473179749
 21
8.4582409815
  0
LINE
  5
23F
100
AcDbEntity
  8
0
100
AcDbLine
 62
7
  6
CONTINUOUS
 10
10.6410683383
 20
8.5582409815
 11
10.5516385834
 21
8.5582409815
  0
LINE
  5
240
100
AcDbEntity
  8
0
100
AcDbLine
 62
7
  6
CONTINUOUS
 10
11.4535683383
 20
8.5582409815
 11
11.5429980931
 21
8.5582409815
  0
LINE
  5
241
100
AcDbEntity
  8
0
100
AcDbLine
 62
7
  6
CONTINUOUS
 10
12.2373183383
 20
11.6072409815
 11
12.2373183383
 21
11.3750677343
  0
LINE
  5
242
100
AcDbEntity
  8
0
100
AcDbLine
 62
7
  6
CONTINUOUS
 10
11.4675552138
 20
6.3433506016
 11
11.1770814628
 21
6.2247651893
  0
LINE
  5
243
100
AcDbEntity
  8
0
100
AcDbLine
 62
7
  6
CONTINUOUS
 10
11.4675552138
 20
6.0958632282
 11
11.1770814628
 21
5.9772778159
  0
LINE
  5
244
100
AcDbEntity
  8
0
100
AcDbLine
 62
7
  6
CONTINUOUS
 10
10.6410683383
 20
8.8582409815
 11
10.5516385834
 21
8.8582409815
  0
LINE
  5
245
100
AcDbEntity
  8
0
100
AcDbLine
 62
7
  6
CONTINUOUS
 10
11.4535683383
 20
8.8582409815
 11
11.5429980931
 21
8.8582409815
  0
LINE
  5
246
100
AcDbEntity
  8
0
100
AcDbLine
 62
7
  6
CONTINUOUS
 10
10.5473183383
 20
8.9582409815
 11
10.6410683383
 21
8.9582409815
  0
LINE
  5
247
100
AcDbEntity
  8
0
100
AcDbLine
 62
7
  6
CONTINUOUS
 10
11.4535683383
 20
8.9582409815
 11
11.5473183383
 21
8.9582409815
  0
LINE
  5
248
100
AcDbEntity
  8
0
100
AcDbLine
 62
7
  6
CONTINUOUS
 10
11.5473183383
 20
8.9582409815
 11
11.4535683383
 21
9.0123675692
  0
LINE
  5
249
100
AcDbEntity
  8
0
100
AcDbLine
 62
7
  6
CONTINUOUS
 10
12.6673183383
 20
5.4851550294
 11
12.6673183383
 21
5.4611215783
  0
LINE
  5
24A
100
AcDbEntity
  8
0
100
AcDbLine
 62
7
  6
CONTINUOUS
 10
12.9523183383
 20
5.3277726261
 11
12.9523183383
 21
5.1983375589
  0
LINE
  5
24B
100
AcDbEntity
  8
0
100
AcDbLine
 62
9
  6
CONTINUOUS
 10
11.4535683383
 20
9.3572409815
 11
10.6410683383
 21
9.3572409815
  0
LINE
  5
24C
100
AcDbEntity
  8
0
100
AcDbLine
 62
7
  6
CONTINUOUS
 10
10.6098183383
 20
9.4782409815
 11
10.6410683383
 21
9.4782409815
  0
LINE
  5
24D
100
AcDbEntity
  8
0
100
AcDbLine
 62
7
  6
CONTINUOUS
 10
11.4535683383
 20
9.4782409815
 11
11.4848183383
 21
9.4782409815
  0
LINE
  5
24E
100
AcDbEntity
  8
0
100
AcDbLine
 62
7
  6
CONTINUOUS
 10
10.5098183383
 20
9.5782409815
 11
10.6410683383
 21
9.5782409815
  0
LINE
  5
24F
100
AcDbEntity
  8
0
100
AcDbLine
 62
7
  6
CONTINUOUS
 10
11.4535683383
 20
9.5782409815
 11
11.5848183383
 21
9.5782409815
  0
LINE
  5
250
100
AcDbEntity
  8
0
100
AcDbLine
 62
7
  6
CONTINUOUS
 10
10.4098183383
 20
9.6282409815
 11
10.6410683383
 21
9.6282409815
  0
LINE
  5
251
100
AcDbEntity
  8
0
100
AcDbLine
 62
7
  6
CONTINUOUS
 10
11.4535683383
 20
9.6282409815
 11
11.6848183383
 21
9.6282409815
  0
LINE
  5
252
100
AcDbEntity
  8
0
100
AcDbLine
 62
7
  6
CONTINUOUS
 10
9.9973183383
 20
10.2782409815
 11
10.6410683383
 21
10.2782409815
  0
LINE
  5
253
100
AcDbEntity
  8
0
100
AcDbLine
 62
7
  6
CONTINUOUS
 10
11.4535683383
 20
10.2782409815
 11
12.0973183383
 21
10.2782409815
  0
LINE
  5
254
100
AcDbEntity
  8
0
100
AcDbLine
 62
7
  6
CONTINUOUS
 10
12.1723183383
 20
10.3782409815
 11
11.4535683383
 21
10.3782409815
  0
LINE
  5
255
100
AcDbEntity
  8
0
100
AcDbLine
 62
7
  6
CONTINUOUS
 10
10.6410683383
 20
10.3782409815
 11
9.9223183383
 21
10.3782409815
  0
LINE
  5
256
100
AcDbEntity
  8
0
100
AcDbLine
 62
9
  6
CONTINUOUS
 10
12.1828074467
 20
10.5226992642
 11
11.4535683383
 21
10.5226992642
  0
LINE
  5
257
100
AcDbEntity
  8
0
100
AcDbLine
 62
9
  6
CONTINUOUS
 10
10.6410683383
 20
10.5226992642
 11
9.9118292299
 21
10.5226992642
  0
LINE
  5
258
100
AcDbEntity
  8
0
100
AcDbLine
 62
7
  6
CONTINUOUS
 10
12.3098183383
 20
10.7532409815
 11
11.4535683383
 21
10.7532409815
  0
LINE
  5
259
100
AcDbEntity
  8
0
100
AcDbLine
 62
7
  6
CONTINUOUS
 10
10.6410683383
 20
10.7532409815
 11
9.7848183383
 21
10.7532409815
  0
LINE
  5
25A
100
AcDbEntity
  8
0
100
AcDbLine
 62
7
  6
CONTINUOUS
 10
13.800896524
 20
10.8532409815
 11
11.4535683383
 21
10.8532409815
  0
LINE
  5
25B
100
AcDbEntity
  8
0
100
AcDbLine
 62
7
  6
CONTINUOUS
 10
10.6410683383
 20
10.8532409815
 11
8.2937401526
 21
10.8532409815
  0
LINE
  5
25C
100
AcDbEntity
  8
0
100
AcDbLine
 62
7
  6
CONTINUOUS
 10
11.4945333056
 20
11.1903838792
 11
11.4978849088
 21
11.1905716878
  0
LINE
  5
25D
100
AcDbEntity
  8
0
100
AcDbLine
 62
9
  6
CONTINUOUS
 10
14.0191074311
 20
10.9812409815
 11
11.4535683383
 21
10.9812409815
  0
LINE
  5
25E
100
AcDbEntity
  8
0
100
AcDbLine
 62
9
  6
CONTINUOUS
 10
10.6410683383
 20
10.9812409815
 11
8.0755292454
 21
10.9812409815
  0
LINE
  5
25F
100
AcDbEntity
  8
0
100
AcDbLine
 62
7
  6
CONTINUOUS
 10
7.8541822079
 20
11.1092311463
 11
10.6410683383
 21
11.1092311463
  0
LINE
  5
260
100
AcDbEntity
  8
0
100
AcDbLine
 62
7
  6
CONTINUOUS
 10
11.4535683383
 20
11.1092311463
 11
14.2404544687
 21
11.1092311463
  0
LINE
  5
261
100
AcDbEntity
  8
0
100
AcDbLine
 62
7
  6
CONTINUOUS
 10
10.600103371
 20
11.1903838792
 11
11.4945333056
 21
11.1903838792
  0
LINE
  5
262
100
AcDbEntity
  8
0
100
AcDbLine
 62
9
  6
CONTINUOUS
 10
11.4978849088
 20
11.1905716878
 11
10.5967517678
 21
11.1905716878
  0
LINE
  5
263
100
AcDbEntity
  8
0
100
AcDbLine
 62
9
  6
CONTINUOUS
 10
14.4563911441
 20
11.2332387863
 11
11.7897512665
 21
11.2332387863
  0
LINE
  5
264
100
AcDbEntity
  8
0
100
AcDbLine
 62
9
  6
CONTINUOUS
 10
10.3048854101
 20
11.2332387863
 11
7.6382455324
 21
11.2332387863
  0
LINE
  5
265
100
AcDbEntity
  8
0
100
AcDbLine
 62
7
  6
CONTINUOUS
 10
10.600103371
 20
11.1903838792
 11
10.5967517678
 21
11.1905716878
  0
LINE
  5
266
100
AcDbEntity
  8
0
100
AcDbLine
 62
9
  6
CONTINUOUS
 10
12.2007135508
 20
11.3268954572
 11
9.8939231258
 21
11.3268954572
  0
LINE
  5
267
100
AcDbEntity
  8
0
100
AcDbLine
 62
7
  6
CONTINUOUS
 10
14.6723183383
 20
11.3572409815
 11
12.2339591988
 21
11.3572409815
  0
LINE
  5
268
100
AcDbEntity
  8
0
100
AcDbLine
 62
7
  6
CONTINUOUS
 10
9.8606774777
 20
11.3572409815
 11
7.4223183383
 21
11.3572409815
  0
LINE
  5
269
100
AcDbEntity
  8
0
100
AcDbLine
 62
9
  6
CONTINUOUS
 10
12.2373183383
 20
11.3750677343
 11
9.8573183383
 21
11.3750677343
  0
LINE
  5
26A
100
AcDbEntity
  8
0
100
AcDbLine
 62
7
  6
CONTINUOUS
 10
14.9223183383
 20
11.6072409815
 11
7.1723183383
 21
11.6072409815
  0
ARC
  5
26B
100
AcDbEntity
  8
0
100
AcDbCircle
 62
7
  6
CONTINUOUS
 10
9.9753445802
 20
4.8977696731
 40
1.0779603602
100
AcDbArc
 50
176.7935319936
 51
188.3560667724
  0
ARC
  5
26C
100
AcDbEntity
  8
0
100
AcDbCircle
 62
9
  6
CONTINUOUS
 10
10.2374466978
 20
5.4851552171
 40
0.8101283443
100
AcDbArc
 50
180.000013271
 51
181.6981275974
  0
ARC
  5
26D
100
AcDbEntity
  8
0
100
AcDbCircle
 62
7
  6
CONTINUOUS
 10
9.6914471262
 20
9.6282409815
 40
0.7183712121
100
AcDbArc
 50
0.0
 51
64.7996803478
  0
ARC
  5
26E
100
AcDbEntity
  8
0
100
AcDbCircle
 62
7
  6
CONTINUOUS
 10
10.2256179528
 20
8.4604824051
 40
0.4977673385
100
AcDbArc
 50
74.8068748358
 51
105.1931251642
  0
ARC
  5
26F
100
AcDbEntity
  8
0
100
AcDbCircle
 62
7
  6
CONTINUOUS
 10
10.2256179528
 20
8.9559995609
 40
0.4977673385
100
AcDbArc
 50
254.8068749303
 51
285.1931250697
  0
ARC
  5
270
100
AcDbEntity
  8
0
100
AcDbCircle
 62
7
  6
CONTINUOUS
 10
11.0473074232
 20
6.453978834
 40
0.4890127919
100
AcDbArc
 50
28.6907460704
 51
34.8890894344
  0
ARC
  5
271
100
AcDbEntity
  8
0
100
AcDbCircle
 62
7
  6
CONTINUOUS
 10
10.8452046863
 20
7.3425341617
 40
0.2041363505
100
AcDbArc
 50
180.0092385327
 51
188.6028627131
  0
ARC
  5
272
100
AcDbEntity
  8
0
100
AcDbCircle
 62
7
  6
CONTINUOUS
 10
10.8340215064
 20
7.2604625477
 40
0.1929556272
100
AcDbArc
 50
185.1833644973
 51
185.4522336322
  0
ARC
  5
273
100
AcDbEntity
  8
0
100
AcDbCircle
 62
7
  6
CONTINUOUS
 10
10.8333080985
 20
7.1578482491
 40
0.1922397607
100
AcDbArc
 50
174.7352678242
 51
179.996074224
  0
ARC
  5
274
100
AcDbEntity
  8
0
100
AcDbCircle
 62
7
  6
CONTINUOUS
 10
10.8332962155
 20
7.2604025023
 40
0.1922278777
100
AcDbArc
 50
180.003773
 51
185.1850710216
  0
ARC
  5
275
100
AcDbEntity
  8
0
100
AcDbCircle
 62
7
  6
CONTINUOUS
 10
10.833219689
 20
7.2091712547
 40
0.192151351
100
AcDbArc
 50
180.0029768663
 51
184.7357256975
  0
ARC
  5
276
100
AcDbEntity
  8
0
100
AcDbCircle
 62
7
  6
CONTINUOUS
 10
10.8330841077
 20
7.2603865515
 40
0.1920157695
100
AcDbArc
 50
174.8999902133
 51
179.9990175676
  0
ARC
  5
277
100
AcDbEntity
  8
0
100
AcDbCircle
 62
7
  6
CONTINUOUS
 10
10.8330738138
 20
7.2091580621
 40
0.1920054755
100
AcDbArc
 50
174.9457262266
 51
179.9990423514
  0
ARC
  5
278
100
AcDbEntity
  8
0
100
AcDbCircle
 62
7
  6
CONTINUOUS
 10
10.833039202
 20
7.3116752548
 40
0.1919708686
100
AcDbArc
 50
175.5245800186
 51
179.9074447539
  0
ARC
  5
279
100
AcDbEntity
  8
0
100
AcDbCircle
 62
7
  6
CONTINUOUS
 10
10.8330041754
 20
7.1578635159
 40
0.1919358372
100
AcDbArc
 50
180.0006253808
 51
184.2698840338
  0
ARC
  5
27A
100
AcDbEntity
  8
0
100
AcDbCircle
 62
7
  6
CONTINUOUS
 10
10.6598183383
 20
8.4484413285
 40
0.03
100
AcDbArc
 50
160.9043343386
 51
231.2345726034
  0
ARC
  5
27B
100
AcDbEntity
  8
0
100
AcDbCircle
 62
7
  6
CONTINUOUS
 10
10.9951444261
 20
15.6624003973
 40
4.5
100
AcDbArc
 50
276.4144817261
 51
285.5395954904
  0
ARC
  5
27C
100
AcDbEntity
  8
0
100
AcDbCircle
 62
7
  6
CONTINUOUS
 10
8.9223183383
 20
10.3782409815
 40
1.0
100
AcDbArc
 50
0.0
 51
8.3059108051
  0
ARC
  5
27D
100
AcDbEntity
  8
0
100
AcDbCircle
 62
7
  6
CONTINUOUS
 10
9.5407626455
 20
10.4685274082
 40
0.375
100
AcDbArc
 50
8.3059108051
 51
49.3969087652
  0
ARC
  5
27E
100
AcDbEntity
  8
0
100
AcDbCircle
 62
7
  6
CONTINUOUS
 10
7.8541822079
 20
11.3592421237
 40
0.2500109774
100
AcDbArc
 50
210.2644101313
 51
270.0
  0
ARC
  5
27F
100
AcDbEntity
  8
0
100
AcDbCircle
 62
7
  6
CONTINUOUS
 10
7.4223183383
 20
11.6072409815
 40
0.25
100
AcDbArc
 50
180.0
 51
270.0
  0
ARC
  5
280
100
AcDbEntity
  8
0
100
AcDbCircle
 62
7
  6
CONTINUOUS
 10
7.4223183383
 20
11.1072409815
 40
0.25
100
AcDbArc
 50
30.2644101313
 51
90.0
  0
ARC
  5
281
100
AcDbEntity
  8
0
100
AcDbCircle
 62
7
  6
CONTINUOUS
 10
8.2937401526
 20
11.1032409815
 40
0.25
100
AcDbArc
 50
209.2092119338
 51
270.0
  0
ARC
  5
282
100
AcDbEntity
  8
0
100
AcDbCircle
 62
7
  6
CONTINUOUS
 10
7.8573183383
 20
10.8592409815
 40
0.25
100
AcDbArc
 50
29.2092119338
 51
89.9304908545
  0
ARC
  5
283
100
AcDbEntity
  8
0
100
AcDbCircle
 62
7
  6
CONTINUOUS
 10
9.7848183383
 20
10.8032409815
 40
0.05
100
AcDbArc
 50
90.0
 51
270.0
  0
ARC
  5
284
100
AcDbEntity
  8
0
100
AcDbCircle
 62
7
  6
CONTINUOUS
 10
9.9073183383
 20
11.3750677343
 40
0.05
100
AcDbArc
 50
180.0
 51
254.4604045097
  0
ARC
  5
285
100
AcDbEntity
  8
0
100
AcDbCircle
 62
9
  6
CONTINUOUS
 10
11.0608370013
 20
6.5756722065
 40
2.5141454099
100
AcDbArc
 50
278.9562796847
 51
280.9080548068
  0
ARC
  5
286
100
AcDbEntity
  8
0
100
AcDbCircle
 62
7
  6
CONTINUOUS
 10
12.1192870865
 20
4.897769881
 40
1.0779653588
100
AcDbArc
 50
351.6439027056
 51
3.2064420707
  0
ARC
  5
287
100
AcDbEntity
  8
0
100
AcDbCircle
 62
7
  6
CONTINUOUS
 10
12.4031895504
 20
9.6282409815
 40
0.7183712121
100
AcDbArc
 50
115.2003196522
 51
180.0
  0
ARC
  5
288
100
AcDbEntity
  8
0
100
AcDbCircle
 62
7
  6
CONTINUOUS
 10
11.0760957639
 20
6.8458613592
 40
0.5621671206
100
AcDbArc
 50
291.1903979432
 51
292.2069249751
  0
ARC
  5
289
100
AcDbEntity
  8
0
100
AcDbCircle
 62
7
  6
CONTINUOUS
 10
11.0782932899
 20
6.8141243022
 40
0.5299282234
100
AcDbArc
 50
292.205436227
 51
293.2834206401
  0
ARC
  5
28A
100
AcDbEntity
  8
0
100
AcDbCircle
 62
7
  6
CONTINUOUS
 10
11.8690187238
 20
8.4604824051
 40
0.4977673385
100
AcDbArc
 50
74.8068748358
 51
105.1931251642
  0
ARC
  5
28B
100
AcDbEntity
  8
0
100
AcDbCircle
 62
7
  6
CONTINUOUS
 10
11.8690187238
 20
8.9559995609
 40
0.4977673385
100
AcDbArc
 50
254.8068749303
 51
285.1931250697
  0
ARC
  5
28C
100
AcDbEntity
  8
0
100
AcDbCircle
 62
7
  6
CONTINUOUS
 10
11.0473251952
 20
6.4539813033
 40
0.4890080465
100
AcDbArc
 50
145.1152517632
 51
151.3092794554
  0
ARC
  5
28D
100
AcDbEntity
  8
0
100
AcDbCircle
 62
7
  6
CONTINUOUS
 10
11.2375970522
 20
7.2860983212
 40
0.2159733052
100
AcDbArc
 50
354.8510666664
 51
355.1738847541
  0
ARC
  5
28E
100
AcDbEntity
  8
0
100
AcDbCircle
 62
7
  6
CONTINUOUS
 10
11.237911371
 20
7.2860106048
 40
0.2156569686
100
AcDbArc
 50
0.0062973078
 51
7.639018653
  0
ARC
  5
28F
100
AcDbEntity
  8
0
100
AcDbCircle
 62
7
  6
CONTINUOUS
 10
11.2382630989
 20
7.1834206282
 40
0.2153052396
100
AcDbArc
 50
0.0026906056
 51
4.6362147513
  0
ARC
  5
290
100
AcDbEntity
  8
0
100
AcDbCircle
 62
7
  6
CONTINUOUS
 10
11.238368379
 20
7.23475998
 40
0.2151999595
100
AcDbArc
 50
0.0023766051
 51
4.4223571216
  0
ARC
  5
291
100
AcDbEntity
  8
0
100
AcDbCircle
 62
7
  6
CONTINUOUS
 10
11.2384729293
 20
7.2860374079
 40
0.215095409
100
AcDbArc
 50
355.1704240145
 51
359.9991740915
  0
ARC
  5
292
100
AcDbEntity
  8
0
100
AcDbCircle
 62
7
  6
CONTINUOUS
 10
11.2385066483
 20
7.1834326705
 40
0.21506169
100
AcDbArc
 50
356.001765205
 51
359.9994853933
  0
ARC
  5
293
100
AcDbEntity
  8
0
100
AcDbCircle
 62
7
  6
CONTINUOUS
 10
11.238537028
 20
7.2347713712
 40
0.2150313103
100
AcDbArc
 50
355.5918083582
 51
359.9993432469
  0
ARC
  5
294
100
AcDbEntity
  8
0
100
AcDbCircle
 62
7
  6
CONTINUOUS
 10
11.4348183383
 20
8.4484413285
 40
0.03
100
AcDbArc
 50
308.7654273966
 51
19.0956656614
  0
ARC
  5
295
100
AcDbEntity
  8
0
100
AcDbCircle
 62
7
  6
CONTINUOUS
 10
11.0994922504
 20
15.6624003973
 40
4.5
100
AcDbArc
 50
254.4604045096
 51
263.5855182739
  0
ARC
  5
296
100
AcDbEntity
  8
0
100
AcDbCircle
 62
7
  6
CONTINUOUS
 10
13.1723183383
 20
10.3782409815
 40
1.0
100
AcDbArc
 50
171.6940891949
 51
180.0
  0
ARC
  5
297
100
AcDbEntity
  8
0
100
AcDbCircle
 62
7
  6
CONTINUOUS
 10
12.553874031
 20
10.4685274082
 40
0.375
100
AcDbArc
 50
130.6030912348
 51
171.6940891949
  0
ARC
  5
298
100
AcDbEntity
  8
0
100
AcDbCircle
 62
7
  6
CONTINUOUS
 10
14.2404544687
 20
11.3592421237
 40
0.2500109774
100
AcDbArc
 50
270.0
 51
329.7355898687
  0
ARC
  5
299
100
AcDbEntity
  8
0
100
AcDbCircle
 62
7
  6
CONTINUOUS
 10
14.6723183383
 20
11.6072409815
 40
0.25
100
AcDbArc
 50
270.0
 51
360.0
  0
ARC
  5
29A
100
AcDbEntity
  8
0
100
AcDbCircle
 62
7
  6
CONTINUOUS
 10
14.6723183383
 20
11.1072409815
 40
0.25
100
AcDbArc
 50
90.0
 51
149.7355898687
  0
ARC
  5
29B
100
AcDbEntity
  8
0
100
AcDbCircle
 62
7
  6
CONTINUOUS
 10
13.800896524
 20
11.1032409815
 40
0.25
100
AcDbArc
 50
270.0
 51
330.7907880662
  0
ARC
  5
29C
100
AcDbEntity
  8
0
100
AcDbCircle
 62
7
  6
CONTINUOUS
 10
14.2373183383
 20
10.8592409815
 40
0.25
100
AcDbArc
 50
90.0695091455
 51
150.7907880662
  0
ARC
  5
29D
100
AcDbEntity
  8
0
100
AcDbCircle
 62
7
  6
CONTINUOUS
 10
12.3098183383
 20
10.8032409815
 40
0.05
100
AcDbArc
 50
270.0
 51
90.0
  0
ARC
  5
29E
100
AcDbEntity
  8
0
100
AcDbCircle
 62
7
  6
CONTINUOUS
 10
12.1873183383
 20
11.3750677343
 40
0.05
100
AcDbArc
 50
285.5395954903
 51
360.0
  0
SPLINE
  5
29F
100
AcDbEntity
  8
0
100
AcDbSpline
 62
7
  6
CONTINUOUS
 70
0
 71
3
 72
28
 73
24
 74
0
 42
0.0000001
 43
0.0000001
 44
0.0000000001
 40
0.0
 40
0.0
 40
0.0
 40
0.0
 40
0.0253211372
 40
0.050708318
 40
0.076226456
 40
0.101938262
 40
0.1279032125
 40
0.1541767135
 40
0.1808094111
 40
0.2078466374
 40
0.23532797
 40
0.2632870127
 40
0.3207201279
 40
0.3803188084
 40
0.4421386933
 40
0.5061509501
 40
0.5722515869
 40
0.6402720044
 40
0.7099889599
 40
0.7811348486
 40
0.8534069696
 40
0.926476734
 40
1.0
 40
1.0
 40
1.0
 40
1.0
 10
10.6410683518
 20
7.1435459954
 30
0.0
 10
10.6410683395
 20
7.1389742191
 30
0.0
 10
10.6413957263
 20
7.1298153912
 30
0.0
 10
10.6428669292
 20
7.1161203527
 30
0.0
 10
10.6453148067
 20
7.1024935561
 30
0.0
 10
10.6487331727
 20
7.0889701178
 30
0.0
 10
10.6531133756
 20
7.0755836247
 30
0.0
 10
10.6584444167
 20
7.0623675536
 30
0.0
 10
10.6647130457
 20
7.0493547464
 30
0.0
 10
10.6719036755
 20
7.0365776078
 30
0.0
 10
10.6799988926
 20
7.024067405
 30
0.0
 10
10.6920775251
 20
7.0076404744
 30
0.0
 10
10.7094039122
 20
6.9879366116
 30
0.0
 10
10.733243019
 20
6.9660720281
 30
0.0
 10
10.7600881033
 20
6.9459787592
 30
0.0
 10
10.7896785939
 20
6.9278537805
 30
0.0
 10
10.8217314256
 20
6.9118727008
 30
0.0
 10
10.8559401199
 20
6.898192937
 30
0.0
 10
10.8919780541
 20
6.8869503529
 30
0.0
 10
10.9295009408
 20
6.8782585894
 30
0.0
 10
10.9681509366
 20
6.8722071827
 30
0.0
 10
11.0075563556
 20
6.8688609701
 30
0.0
 10
11.0340461006
 20
6.8684604632
 30
0.0
 10
11.0473183383
 20
6.8687190447
 30
0.0
  0
SPLINE
  5
2A0
100
AcDbEntity
  8
0
100
AcDbSpline
 62
7
  6
CONTINUOUS
 70
0
 71
3
 72
15
 73
11
 74
0
 42
0.0000001
 43
0.0000001
 44
0.0000000001
 40
0.0
 40
0.0
 40
0.0
 40
0.0
 40
0.1196855468
 40
0.2399227117
 40
0.3612465607
 40
0.4841601919
 40
0.6091213861
 40
0.7365326818
 40
0.8667343302
 40
1.0
 40
1.0
 40
1.0
 40
1.0
 10
10.6410683383
 20
7.1932751954
 30
0.0
 10
10.6410683403
 20
7.1871869256
 30
0.0
 10
10.6416501375
 20
7.1749744354
 30
0.0
 10
10.6442621389
 20
7.156758661
 30
0.0
 10
10.648601899
 20
7.1387056975
 30
0.0
 10
10.6546493527
 20
7.1208984452
 30
0.0
 10
10.6623767988
 20
7.1034154788
 30
0.0
 10
10.6717496361
 20
7.0863337764
 30
0.0
 10
10.6827252409
 20
7.0697292836
 30
0.0
 10
10.6909807057
 20
7.059151748
 30
0.0
 10
10.6953467171
 20
7.0539658238
 30
0.0
  0
SPLINE
  5
2A1
100
AcDbEntity
  8
0
100
AcDbSpline
 62
7
  6
CONTINUOUS
 70
0
 71
3
 72
28
 73
24
 74
0
 42
0.0000001
 43
0.0000001
 44
0.0000000001
 40
0.0
 40
0.0
 40
0.0
 40
0.0
 40
0.0253216841
 40
0.0507093264
 40
0.0762278471
 40
0.1019399588
 40
0.1279051497
 40
0.1541788215
 40
0.1808116227
 40
0.2078488892
 40
0.2353302224
 40
0.2632892223
 40
0.3207221171
 40
0.3803204882
 40
0.4421399814
 40
0.5061518404
 40
0.5722520792
 40
0.640272157
 40
0.7099888374
 40
0.7811345592
 40
0.8534066335
 40
0.9264764622
 40
1.0
 40
1.0
 40
1.0
 40
1.0
 10
10.6410683383
 20
7.2429926138
 30
0.0
 10
10.6410683383
 20
7.23842076
 30
0.0
 10
10.6413957092
 20
7.2292617922
 30
0.0
 10
10.6428669461
 20
7.215566568
 30
0.0
 10
10.6453148262
 20
7.2019396276
 30
0.0
 10
10.6487331623
 20
7.188416075
 30
0.0
 10
10.6531133811
 20
7.1750295185
 30
0.0
 10
10.6584444482
 20
7.1618134286
 30
0.0
 10
10.6647130891
 20
7.1488006388
 30
0.0
 10
10.6719036998
 20
7.1360235371
 30
0.0
 10
10.6799989316
 20
7.123513425
 30
0.0
 10
10.6920775899
 20
7.1070866899
 30
0.0
 10
10.7094039589
 20
7.0873831066
 30
0.0
 10
10.73324311
 20
7.065519033
 30
0.0
 10
10.760088198
 20
7.0454263556
 30
0.0
 10
10.7896787128
 20
7.0273021284
 30
0.0
 10
10.821731546
 20
7.0113218788
 30
0.0
 10
10.855940246
 20
6.997643075
 30
0.0
 10
10.8919781736
 20
6.9864015256
 30
0.0
 10
10.9295010517
 20
6.9777108988
 30
0.0
 10
10.968151027
 20
6.9716606995
 30
0.0
 10
11.0075564247
 20
6.9683157682
 30
0.0
 10
11.0340461221
 20
6.9679161572
 30
0.0
 10
11.0473183383
 20
6.9681751956
 30
0.0
  0
SPLINE
  5
2A2
100
AcDbEntity
  8
0
100
AcDbSpline
 62
7
  6
CONTINUOUS
 70
0
 71
3
 72
23
 73
19
 74
0
 42
0.0000001
 43
0.0000001
 44
0.0000000001
 40
0.0
 40
0.0
 40
0.0
 40
0.0
 40
0.0615515625
 40
0.1231124171
 40
0.1846916298
 40
0.2463038329
 40
0.307968349
 40
0.3697103773
 40
0.4315620909
 40
0.4935616211
 40
0.55575226
 40
0.6181801673
 40
0.6808921617
 40
0.743932252
 40
0.8073390913
 40
0.8711424353
 40
0.9353607838
 40
1.0
 40
1.0
 40
1.0
 40
1.0
 10
11.4998183383
 20
6.909271898
 30
0.0
 10
11.4998183383
 20
6.9001592408
 30
0.0
 10
11.4990390955
 20
6.8819229917
 30
0.0
 10
11.4955459372
 20
6.8547719904
 30
0.0
 10
11.4897669169
 20
6.8280034548
 30
0.0
 10
11.4817642772
 20
6.8017989469
 30
0.0
 10
11.4716201673
 20
6.7763217313
 30
0.0
 10
11.4594330178
 20
6.7517180172
 30
0.0
 10
11.4453129053
 20
6.7281140976
 30
0.0
 10
11.4293771589
 20
6.7056162225
 30
0.0
 10
11.4117463587
 20
6.6843115758
 30
0.0
 10
11.3925412959
 20
6.6642700345
 30
0.0
 10
11.371880654
 20
6.6455469285
 30
0.0
 10
11.3498798941
 20
6.6281856896
 30
0.0
 10
11.3266510574
 20
6.6122208507
 30
0.0
 10
11.3023027259
 20
6.5976802737
 30
0.0
 10
11.2769428202
 20
6.5845878389
 30
0.0
 10
11.2594855555
 20
6.5768622476
 30
0.0
 10
11.2506256592
 20
6.57324521
 30
0.0
  0
SPLINE
  5
2A3
100
AcDbEntity
  8
0
100
AcDbSpline
 62
7
  6
CONTINUOUS
 70
0
 71
3
 72
32
 73
28
 74
0
 42
0.0000001
 43
0.0000001
 44
0.0000000001
 40
0.0
 40
0.0
 40
0.0
 40
0.0
 40
0.0654490609
 40
0.1307316326
 40
0.1956965297
 40
0.2280255755
 40
0.2602306689
 40
0.3242166531
 40
0.3876163095
 40
0.4191001458
 40
0.4504382537
 40
0.5126825332
 40
0.5744301026
 40
0.6051541354
 40
0.6357879087
 40
0.6663432824
 40
0.6968321225
 40
0.7272655824
 40
0.7576538888
 40
0.788006336
 40
0.8183310711
 40
0.8486346742
 40
0.8789229556
 40
0.9092003058
 40
0.939470693
 40
0.9697359697
 40
1.0
 40
1.0
 40
1.0
 40
1.0
 10
11.0467417378
 20
6.5342424519
 30
0.0
 10
11.0325208426
 20
6.5342570518
 30
0.0
 10
11.004104198
 20
6.535364312
 30
0.0
 10
10.9618262093
 20
6.5402544272
 30
0.0
 10
10.9271140737
 20
6.5470162628
 30
0.0
 10
10.89985673
 20
6.5540260461
 30
0.0
 10
10.8731056026
 20
6.5620605038
 30
0.0
 10
10.8405242084
 20
6.574051236
 30
0.0
 10
10.8092071223
 20
6.5886800029
 30
0.0
 10
10.7851727379
 20
6.6019074368
 30
0.0
 10
10.7619719069
 20
6.61607124
 30
0.0
 10
10.7344014672
 20
6.63562878
 30
0.0
 10
10.7089423878
 20
6.6576725891
 30
0.0
 10
10.6901037354
 20
6.6766759723
 30
0.0
 10
10.6767913876
 20
6.6915757992
 30
0.0
 10
10.6643200803
 20
6.7071208713
 30
0.0
 10
10.6527347107
 20
6.7232840719
 30
0.0
 10
10.6420806483
 20
6.7400331764
 30
0.0
 10
10.6324024753
 20
6.757330978
 30
0.0
 10
10.6237434234
 20
6.7751349042
 30
0.0
 10
10.61614454
 20
6.7933969016
 30
0.0
 10
10.6096437261
 20
6.8120635343
 30
0.0
 10
10.604274999
 20
6.8310762733
 30
0.0
 10
10.6000673691
 20
6.8503719852
 30
0.0
 10
10.5970445927
 20
6.8698837395
 30
0.0
 10
10.5952237327
 20
6.8895405414
 30
0.0
 10
10.5948183383
 20
6.9026960691
 30
0.0
 10
10.5948183383
 20
6.909271898
 30
0.0
  0
SPLINE
  5
2A4
100
AcDbEntity
  8
0
100
AcDbSpline
 62
7
  6
CONTINUOUS
 70
0
 71
3
 72
13
 73
9
 74
0
 42
0.0000001
 43
0.0000001
 44
0.0000000001
 40
0.0
 40
0.0
 40
0.0
 40
0.0
 40
0.1277913289
 40
0.2553055253
 40
0.445448787
 40
0.6334847319
 40
0.8185849488
 40
1.0
 40
1.0
 40
1.0
 40
1.0
 10
11.0478241373
 20
6.5342423821
 30
0.0
 10
11.056469746
 20
6.5342501649
 30
0.0
 10
11.0737447161
 20
6.534664175
 30
0.0
 10
11.1038161876
 20
6.5367784647
 30
0.0
 10
11.1377771113
 20
6.5411579506
 30
0.0
 10
11.1751638039
 20
6.5487056059
 30
0.0
 10
11.2113327764
 20
6.5587965651
 30
0.0
 10
11.2346733423
 20
6.5672540618
 30
0.0
 10
11.2460363757
 20
6.5718930008
 30
0.0
  0
SPLINE
  5
2A5
100
AcDbEntity
  8
0
100
AcDbSpline
 62
7
  6
CONTINUOUS
 70
0
 71
3
 72
11
 73
7
 74
0
 42
0.0000001
 43
0.0000001
 44
0.0000000001
 40
0.0
 40
0.0
 40
0.0
 40
0.0
 40
0.2470586032
 40
0.4965273317
 40
0.7477859621
 40
1.0
 40
1.0
 40
1.0
 40
1.0
 10
11.2506256592
 20
6.57324521
 30
0.0
 10
11.2347883807
 20
6.5667796681
 30
0.0
 10
11.2022629971
 20
6.5554303408
 30
0.0
 10
11.1518566
 20
6.5432627634
 30
0.0
 10
11.1001678586
 20
6.5359140435
 30
0.0
 10
11.0652873059
 20
6.534258087
 30
0.0
 10
11.0478241373
 20
6.534242383
 30
0.0
  0
SPLINE
  5
2A6
100
AcDbEntity
  8
0
100
AcDbSpline
 62
7
  6
CONTINUOUS
 70
0
 71
3
 72
15
 73
11
 74
0
 42
0.0000001
 43
0.0000001
 44
0.0000000001
 40
0.0
 40
0.0
 40
0.0
 40
0.0
 40
0.1211620899
 40
0.2427142102
 40
0.3650375781
 40
0.4884965376
 40
0.6134309562
 40
0.7401501782
 40
0.8689281719
 40
1.0
 40
1.0
 40
1.0
 40
1.0
 10
11.4998183227
 20
7.1370506854
 30
0.0
 10
11.4998183088
 20
7.1431189041
 30
0.0
 10
11.4993283595
 20
7.1552805189
 30
0.0
 10
11.4971271804
 20
7.1734485473
 30
0.0
 10
11.4934669827
 20
7.1914979175
 30
0.0
 10
11.4883602768
 20
7.2093678762
 30
0.0
 10
11.4818244954
 20
7.227000389
 30
0.0
 10
11.4738815496
 20
7.2443382293
 30
0.0
 10
11.4645586961
 20
7.2613243319
 30
0.0
 10
11.4575083165
 20
7.2722776312
 30
0.0
 10
11.4537729839
 20
7.2776758145
 30
0.0
  0
SPLINE
  5
2A7
100
AcDbEntity
  8
0
100
AcDbSpline
 62
7
  6
CONTINUOUS
 70
0
 71
3
 72
15
 73
11
 74
0
 42
0.0000001
 43
0.0000001
 44
0.0000000001
 40
0.0
 40
0.0
 40
0.0
 40
0.0
 40
0.1210999943
 40
0.2425967539
 40
0.364877969
 40
0.4883138007
 40
0.6132491739
 40
0.7399974246
 40
0.8688354511
 40
1.0
 40
1.0
 40
1.0
 40
1.0
 10
10.5948183539
 20
7.1370506854
 30
0.0
 10
10.5948183399
 20
7.1431730897
 30
0.0
 10
10.5953171627
 20
7.1554437523
 30
0.0
 10
10.5975578862
 20
7.1737733216
 30
0.0
 10
10.6012837003
 20
7.1919809905
 30
0.0
 10
10.6064815983
 20
7.2100043671
 30
0.0
 10
10.6131335198
 20
7.227783867
 30
0.0
 10
10.6212167637
 20
7.2452607518
 30
0.0
 10
10.6307030788
 20
7.262376494
 30
0.0
 10
10.6378752222
 20
7.2734069722
 30
0.0
 10
10.6416746596
 20
7.2788418172
 30
0.0
  0
SPLINE
  5
2A8
100
AcDbEntity
  8
0
100
AcDbSpline
 62
7
  6
CONTINUOUS
 70
0
 71
3
 72
21
 73
17
 74
0
 42
0.0000001
 43
0.0000001
 44
0.0000000001
 40
0.0
 40
0.0
 40
0.0
 40
0.0
 40
0.0554311979
 40
0.11108802
 40
0.1671896935
 40
0.2239431554
 40
0.2815378346
 40
0.340141608
 40
0.3998977755
 40
0.4609232476
 40
0.5233076989
 40
0.5871135602
 40
0.7190405114
 40
0.7872257012
 40
0.8568297562
 40
1.0
 40
1.0
 40
1.0
 40
1.0
 10
11.5098183236
 20
6.6067205995
 30
0.0
 10
11.5098183086
 20
6.5997408668
 30
0.0
 10
11.5091835232
 20
6.5857447826
 30
0.0
 10
11.5063330499
 20
6.5648594329
 30
0.0
 10
11.5015962965
 20
6.5441476329
 30
0.0
 10
11.4949940531
 20
6.5236978721
 30
0.0
 10
11.4865550237
 20
6.5035941547
 30
0.0
 10
11.476315516
 20
6.4839193306
 30
0.0
 10
11.4643190206
 20
6.4647537199
 30
0.0
 10
11.4506163141
 20
6.4461755301
 30
0.0
 10
11.4352636289
 20
6.4282591867
 30
0.0
 10
11.4124316571
 20
6.4050989422
 30
0.0
 10
11.3867503956
 20
6.38383846
 30
0.0
 10
11.3587291959
 20
6.3646241373
 30
0.0
 10
11.3284194988
 20
6.3463474497
 30
0.0
 10
11.3043224982
 20
6.3344791633
 30
0.0
 10
11.2877631698
 20
6.3273530095
 30
0.0
  0
SPLINE
  5
2A9
100
AcDbEntity
  8
0
100
AcDbSpline
 62
7
  6
CONTINUOUS
 70
0
 71
3
 72
22
 73
18
 74
0
 42
0.0000001
 43
0.0000001
 44
0.0000000001
 40
0.0
 40
0.0
 40
0.0
 40
0.0
 40
0.0552228286
 40
0.1106806267
 40
0.1666014018
 40
0.2231997994
 40
0.2806715102
 40
0.3391889028
 40
0.3988979335
 40
0.4599162348
 40
0.5223324088
 40
0.5862061066
 40
0.651568928
 40
0.7184257296
 40
0.786756279
 40
0.8565174249
 40
1.0
 40
1.0
 40
1.0
 40
1.0
 10
11.6223183224
 20
5.9561823608
 30
0.0
 10
11.6223183395
 20
5.9473088597
 30
0.0
 10
11.6214928812
 20
5.9295131913
 30
0.0
 10
11.6177868167
 20
5.9029644139
 30
0.0
 10
11.6116291433
 20
5.8766465549
 30
0.0
 10
11.6030482181
 20
5.8506772343
 30
0.0
 10
11.5920831165
 20
5.8251679983
 30
0.0
 10
11.5787831957
 20
5.8002286968
 30
0.0
 10
11.5632076329
 20
5.7759657849
 30
0.0
 10
11.545425007
 20
5.7524823891
 30
0.0
 10
11.5255129241
 20
5.7298779363
 30
0.0
 10
11.5035577104
 20
5.7082479448
 30
0.0
 10
11.4796539003
 20
5.6876836297
 30
0.0
 10
11.4539046244
 20
5.668272017
 30
0.0
 10
11.4264183634
 20
5.6500940562
 30
0.0
 10
11.3872561992
 20
5.6273981423
 30
0.0
 10
11.3561636315
 20
5.6127823897
 30
0.0
 10
11.3348183383
 20
5.6040682103
 30
0.0
  0
SPLINE
  5
2AA
100
AcDbEntity
  8
0
100
AcDbSpline
 62
7
  6
CONTINUOUS
 70
0
 71
3
 72
21
 73
17
 74
0
 42
0.0000001
 43
0.0000001
 44
0.0000000001
 40
0.0
 40
0.0
 40
0.0
 40
0.0
 40
0.0587103919
 40
0.1175236443
 40
0.1765413634
 40
0.2358626617
 40
0.2955830447
 40
0.3557933652
 40
0.416578834
 40
0.4780183239
 40
0.5401837355
 40
0.6031394094
 40
0.6669418868
 40
0.7316396866
 40
0.8638384885
 40
1.0
 40
1.0
 40
1.0
 40
1.0
 10
10.4723183528
 20
6.6208627351
 30
0.0
 10
10.4723183633
 20
6.6265442317
 30
0.0
 10
10.4726557941
 20
6.6379200544
 30
0.0
 10
10.4741730709
 20
6.6549462226
 30
0.0
 10
10.4766987614
 20
6.671912529
 30
0.0
 10
10.4802282643
 20
6.6887881229
 30
0.0
 10
10.4847552318
 20
6.7055433387
 30
0.0
 10
10.4902714842
 20
6.722148504
 30
0.0
 10
10.4967670245
 20
6.7385743624
 30
0.0
 10
10.5042302013
 20
6.7547919779
 30
0.0
 10
10.5126477138
 20
6.7707728394
 30
0.0
 10
10.5220044143
 20
6.7864888547
 30
0.0
 10
10.5322838845
 20
6.8019127685
 30
0.0
 10
10.5473015112
 20
6.8221953035
 30
0.0
 10
10.5683425868
 20
6.8466758854
 30
0.0
 10
10.5870121286
 20
6.8647824735
 30
0.0
 10
10.5968483376
 20
6.8735500728
 30
0.0
  0
SPLINE
  5
2AB
100
AcDbEntity
  8
0
100
AcDbSpline
 62
7
  6
CONTINUOUS
 70
0
 71
3
 72
11
 73
7
 74
0
 42
0.0000001
 43
0.0000001
 44
0.0000000001
 40
0.0
 40
0.0
 40
0.0
 40
0.0
 40
0.2512352637
 40
0.501933874
 40
0.7516326656
 40
1.0
 40
1.0
 40
1.0
 40
1.0
 10
11.8848183349
 20
6.8072409816
 30
0.0
 10
11.8904772862
 20
6.9459590188
 30
0.0
 10
11.9015360187
 20
7.2231089676
 30
0.0
 10
11.9171387482
 20
7.638170904
 30
0.0
 10
11.9314914177
 20
8.0516923506
 30
0.0
 10
11.9400710109
 20
8.3267923594
 30
0.0
 10
11.9440642201
 20
8.4639828462
 30
0.0
  0
SPLINE
  5
2AC
100
AcDbEntity
  8
0
100
AcDbSpline
 62
7
  6
CONTINUOUS
 70
0
 71
3
 72
15
 73
11
 74
0
 42
0.0000001
 43
0.0000001
 44
0.0000000001
 40
0.0
 40
0.0
 40
0.0
 40
0.0
 40
0.1261938771
 40
0.2520460183
 40
0.3775547935
 40
0.502719712
 40
0.6275428089
 40
0.752027065
 40
0.8761774867
 40
1.0
 40
1.0
 40
1.0
 40
1.0
 10
11.9569514001
 20
8.9504523454
 30
0.0
 10
11.958204181
 20
9.0032621221
 30
0.0
 10
11.9606062904
 20
9.1087410699
 30
0.0
 10
11.9638913168
 20
9.2667510969
 30
0.0
 10
11.9668468634
 20
9.4243368444
 30
0.0
 10
11.9694661001
 20
9.581497728
 30
0.0
 10
11.9717415766
 20
9.7382350648
 30
0.0
 10
11.9736645598
 20
9.8945524286
 30
0.0
 10
11.9752377517
 20
10.050454829
 30
0.0
 10
11.9760578071
 20
10.1542529163
 30
0.0
 10
11.9764108964
 20
10.2060836972
 30
0.0
  0
SPLINE
  5
2AD
100
AcDbEntity
  8
0
100
AcDbSpline
 62
7
  6
CONTINUOUS
 70
0
 71
3
 72
38
 73
34
 74
0
 42
0.0000001
 43
0.0000001
 44
0.0000000001
 40
0.0
 40
0.0
 40
0.0
 40
0.0
 40
0.0627498115
 40
0.0951677384
 40
0.1282097751
 40
0.161817171
 40
0.195921121
 40
0.2304445146
 40
0.2653032326
 40
0.3004076242
 40
0.3356639653
 40
0.3709757146
 40
0.4062449889
 40
0.441373911
 40
0.4762658971
 40
0.5108271553
 40
0.544968012
 40
0.5786043271
 40
0.6116590521
 40
0.6440636572
 40
0.675759706
 40
0.7067005268
 40
0.7368527685
 40
0.7661980904
 40
0.7947348165
 40
0.8224793281
 40
0.8494673826
 40
0.8757549324
 40
0.9014182535
 40
0.9265533745
 40
0.951274269
 40
0.9757098741
 40
1.0
 40
1.0
 40
1.0
 40
1.0
 10
11.3431286757
 20
7.1147744769
 30
0.0
 10
11.3289737351
 20
7.1037391783
 30
0.0
 10
11.3062572847
 20
7.0885428439
 30
0.0
 10
11.2739492023
 20
7.0711643959
 30
0.0
 10
11.2481906802
 20
7.0593086452
 30
0.0
 10
11.2213229445
 20
7.0488421414
 30
0.0
 10
11.193491554
 20
7.0398170968
 30
0.0
 10
11.1648514053
 20
7.0322804
 30
0.0
 10
11.1355607733
 20
7.026270101
 30
0.0
 10
11.1057818456
 20
7.0218160599
 30
0.0
 10
11.0756794491
 20
7.0189395196
 30
0.0
 10
11.0454202243
 20
7.0176530535
 30
0.0
 10
11.0151716795
 20
7.0179604706
 30
0.0
 10
10.9851012616
 20
7.0198567946
 30
0.0
 10
10.9553754135
 20
7.0233282953
 30
0.0
 10
10.9261586578
 20
7.0283525715
 30
0.0
 10
10.897612674
 20
7.0348986879
 30
0.0
 10
10.8698954002
 20
7.0429273549
 30
0.0
 10
10.8431601674
 20
7.0523911728
 30
0.0
 10
10.8175548618
 20
7.0632349289
 30
0.0
 10
10.793221135
 20
7.0753959325
 30
0.0
 10
10.7702936677
 20
7.0888043915
 30
0.0
 10
10.7488994845
 20
7.1033838225
 30
0.0
 10
10.7291573448
 20
7.119051484
 30
0.0
 10
10.7111772045
 20
7.1357188061
 30
0.0
 10
10.695059725
 20
7.1532917969
 30
0.0
 10
10.6808958622
 20
7.1716714307
 30
0.0
 10
10.6687664504
 20
7.1907539242
 30
0.0
 10
10.6587417452
 20
7.2104311079
 30
0.0
 10
10.6508808724
 20
7.2305902637
 30
0.0
 10
10.6452311128
 20
7.2511158901
 30
0.0
 10
10.6418271319
 20
7.2718849786
 30
0.0
 10
10.6410683224
 20
7.2858336492
 30
0.0
 10
10.6410683455
 20
7.2927813287
 30
0.0
  0
SPLINE
  5
2AE
100
AcDbEntity
  8
0
100
AcDbSpline
 62
7
  6
CONTINUOUS
 70
0
 71
3
 72
18
 73
14
 74
0
 42
0.0000001
 43
0.0000001
 44
0.0000000001
 40
0.0
 40
0.0
 40
0.0
 40
0.0
 40
0.0580913843
 40
0.1164580602
 40
0.1751851584
 40
0.234353596
 40
0.2940392953
 40
0.3543126718
 40
0.476834553
 40
0.6023954872
 40
0.7313200123
 40
0.8638191305
 40
1.0
 40
1.0
 40
1.0
 40
1.0
 10
11.4449684678
 20
7.2837690667
 30
0.0
 10
11.4445131577
 20
7.2798771604
 30
0.0
 10
11.4433791346
 20
7.2720990104
 30
0.0
 10
11.4410207709
 20
7.2605140181
 30
0.0
 10
11.438006446
 20
7.2490067323
 30
0.0
 10
11.4343419077
 20
7.2375965671
 30
0.0
 10
11.4300339198
 20
7.2263016116
 30
0.0
 10
11.4234078314
 20
7.211340917
 30
0.0
 10
11.4135175805
 20
7.1929993057
 30
0.0
 10
11.3992937944
 20
7.1718737828
 30
0.0
 10
11.3827476415
 20
7.1516378112
 30
0.0
 10
11.3639959272
 20
7.1324197433
 30
0.0
 10
11.3502924797
 20
7.1205242113
 30
0.0
 10
11.3431286757
 20
7.1147744769
 30
0.0
  0
SPLINE
  5
2AF
100
AcDbEntity
  8
0
100
AcDbSpline
 62
7
  6
CONTINUOUS
 70
0
 71
3
 72
15
 73
11
 74
0
 42
0.0000001
 43
0.0000001
 44
0.0000000001
 40
0.0
 40
0.0
 40
0.0
 40
0.0
 40
0.1226655628
 40
0.2455747503
 40
0.3689374429
 40
0.4929811138
 40
0.6179164241
 40
0.7439423129
 40
0.8712462619
 40
1.0
 40
1.0
 40
1.0
 40
1.0
 10
11.4535680927
 20
7.3421853913
 30
0.0
 10
11.4535616526
 20
7.3380437973
 30
0.0
 10
11.4532948209
 20
7.329750552
 30
0.0
 10
11.4521343727
 20
7.3173407983
 30
0.0
 10
11.4502154936
 20
7.3049780144
 30
0.0
 10
11.44754206
 20
7.2926864175
 30
0.0
 10
11.4441192859
 20
7.2804888122
 30
0.0
 10
11.4399536508
 20
7.2684081142
 30
0.0
 10
11.4350533364
 20
7.256467491
 30
0.0
 10
11.4313250574
 20
7.2486615491
 30
0.0
 10
11.4293453112
 20
7.2447913588
 30
0.0
  0
SPLINE
  5
2B0
100
AcDbEntity
  8
0
100
AcDbSpline
 62
7
  6
CONTINUOUS
 70
0
 71
3
 72
21
 73
17
 74
0
 42
0.0000001
 43
0.0000001
 44
0.0000000001
 40
0.0
 40
0.0
 40
0.0
 40
0.0
 40
0.0525036382
 40
0.1063082459
 40
0.1615372481
 40
0.2182728521
 40
0.3363112845
 40
0.3976697995
 40
0.4604866795
 40
0.5246701094
 40
0.5901031243
 40
0.6566468384
 40
0.7241439468
 40
0.7924217956
 40
0.8612958867
 40
1.0
 40
1.0
 40
1.0
 40
1.0
 10
11.4293453112
 20
7.2447913588
 30
0.0
 10
11.425783156
 20
7.2378277295
 30
0.0
 10
11.4178741487
 20
7.2240737969
 30
0.0
 10
11.403982568
 20
7.2043853473
 30
0.0
 10
11.3880074986
 20
7.1855106964
 30
0.0
 10
11.3637483978
 20
7.1612672836
 30
0.0
 10
11.3359476618
 20
7.1394543801
 30
0.0
 10
11.3053639994
 20
7.1202705239
 30
0.0
 10
11.2806189894
 20
7.1069894613
 30
0.0
 10
11.2545185672
 20
7.0950859175
 30
0.0
 10
11.2272116882
 20
7.0846262449
 30
0.0
 10
11.1988579119
 20
7.0756713935
 30
0.0
 10
11.1696225429
 20
7.068272976
 30
0.0
 10
11.1396736525
 20
7.0624735858
 30
0.0
 10
11.0989420358
 20
7.0569064575
 30
0.0
 10
11.0679820591
 20
7.0552391163
 30
0.0
 10
11.0473183383
 20
7.0552391163
 30
0.0
  0
SPLINE
  5
2B1
100
AcDbEntity
  8
0
100
AcDbSpline
 62
7
  6
CONTINUOUS
 70
0
 71
3
 72
26
 73
22
 74
0
 42
0.0000001
 43
0.0000001
 44
0.0000000001
 40
0.0
 40
0.0
 40
0.0
 40
0.0
 40
0.0717254646
 40
0.1431507971
 40
0.2139843972
 40
0.2839454944
 40
0.3527729743
 40
0.4202315669
 40
0.4861185961
 40
0.5502711367
 40
0.6125730718
 40
0.6729625012
 40
0.7314383714
 40
0.7880668219
 40
0.8429852848
 40
0.8698773824
 40
0.8964269448
 40
0.9226711655
 40
0.9486512025
 40
0.974411741
 40
1.0
 40
1.0
 40
1.0
 40
1.0
 10
11.0473183383
 20
7.0552391163
 30
0.0
 10
11.0349349671
 20
7.0552391163
 30
0.0
 10
11.0102125248
 20
7.0560378933
 30
0.0
 10
10.9734177111
 20
7.0596250208
 30
0.0
 10
10.9372360592
 20
7.0655705559
 30
0.0
 10
10.9019703594
 20
7.073825527
 30
0.0
 10
10.8679133392
 20
7.0843217811
 30
0.0
 10
10.835348287
 20
7.0969730618
 30
0.0
 10
10.8045458426
 20
7.1116754026
 30
0.0
 10
10.7757622597
 20
7.12830845
 30
0.0
 10
10.7492373084
 20
7.1467364618
 30
0.0
 10
10.7251927247
 20
7.1668090648
 30
0.0
 10
10.7038304488
 20
7.1883638556
 30
0.0
 10
10.6853330708
 20
7.2112227783
 30
0.0
 10
10.6723448272
 20
7.2313513254
 30
0.0
 10
10.6635836239
 20
7.2478914395
 30
0.0
 10
10.6578610161
 20
7.2604116626
 30
0.0
 10
10.6529546563
 20
7.2731048929
 30
0.0
 10
10.6488748114
 20
7.2859450609
 30
0.0
 10
10.6456305917
 20
7.2989042847
 30
0.0
 10
10.6440247924
 20
7.3076302089
 30
0.0
 10
10.6433650926
 20
7.3119984777
 30
0.0
  0
SPLINE
  5
2B2
100
AcDbEntity
  8
0
100
AcDbSpline
 62
7
  6
CONTINUOUS
 70
0
 71
3
 72
43
 73
39
 74
0
 42
0.0000001
 43
0.0000001
 44
0.0000000001
 40
0.0
 40
0.0
 40
0.0
 40
0.0
 40
0.0125787728
 40
0.0252168588
 40
0.0379244843
 40
0.0507110832
 40
0.0635855011
 40
0.0765560048
 40
0.089630174
 40
0.1028148987
 40
0.1161163717
 40
0.1295400788
 40
0.1567679934
 40
0.184533673
 40
0.2128569968
 40
0.2417485443
 40
0.2712105774
 40
0.3012379214
 40
0.3318186894
 40
0.3629348206
 40
0.3945624932
 40
0.4266724499
 40
0.4592302999
 40
0.4921968357
 40
0.5255284047
 40
0.559177329
 40
0.5930923983
 40
0.6272194163
 40
0.6615017905
 40
0.6958811707
 40
0.730298103
 40
0.7646927062
 40
0.7990053538
 40
0.833177351
 40
0.8671515963
 40
0.9008732291
 40
0.9342902263
 40
1.0
 40
1.0
 40
1.0
 40
1.0
 10
8.9090529408
 20
4.7411487438
 30
0.0
 10
8.9113901746
 20
4.7251953697
 30
0.0
 10
8.9167666943
 20
4.6933103611
 30
0.0
 10
8.9268953981
 20
4.6457507684
 30
0.0
 10
8.939097768
 20
4.598404621
 30
0.0
 10
8.9533634308
 20
4.5513226363
 30
0.0
 10
8.9696795467
 20
4.5045545325
 30
0.0
 10
8.9880305066
 20
4.4581504984
 30
0.0
 10
9.0083980567
 20
4.4121604569
 30
0.0
 10
9.0307609385
 20
4.3666343158
 30
0.0
 10
9.0550958907
 20
4.3216207457
 30
0.0
 10
9.0902987285
 20
4.262076464
 30
0.0
 10
9.1391838543
 20
4.1891613053
 30
0.0
 10
9.2049626839
 20
4.1049160857
 30
0.0
 10
9.2778456838
 20
4.0238476632
 30
0.0
 10
9.3575062119
 20
3.9462870685
 30
0.0
 10
9.4435969664
 20
3.8725359875
 30
0.0
 10
9.5357513905
 20
3.8028729933
 30
0.0
 10
9.6335875926
 20
3.7375519454
 30
0.0
 10
9.7367108841
 20
3.6768041905
 30
0.0
 10
9.8447150093
 20
3.6208394912
 30
0.0
 10
9.9571830176
 20
3.5698475716
 30
0.0
 10
10.0736876189
 20
3.5239992378
 30
0.0
 10
10.1937912835
 20
3.4834467724
 30
0.0
 10
10.3170466709
 20
3.4483246628
 30
0.0
 10
10.4429969767
 20
3.4187492214
 30
0.0
 10
10.5711767809
 20
3.3948186413
 30
0.0
 10
10.7011130722
 20
3.3766126516
 30
0.0
 10
10.8323265501
 20
3.3641919398
 30
0.0
 10
10.9643332205
 20
3.3575982009
 30
0.0
 10
11.0966460595
 20
3.3568534588
 30
0.0
 10
11.2287769333
 20
3.3619602499
 30
0.0
 10
11.360238202
 20
3.3729014389
 30
0.0
 10
11.4905455075
 20
3.3896404649
 30
0.0
 10
11.6192160766
 20
3.4121208382
 30
0.0
 10
11.7457830045
 20
3.4402700513
 30
0.0
 10
11.9101385597
 20
3.4849700079
 30
0.0
 10
12.03031998
 20
3.527034652
 30
0.0
 10
12.1082998133
 20
3.5588697669
 30
0.0
  0
SPLINE
  5
2B3
100
AcDbEntity
  8
0
100
AcDbSpline
 62
7
  6
CONTINUOUS
 70
0
 71
3
 72
31
 73
27
 74
0
 42
0.0000001
 43
0.0000001
 44
0.0000000001
 40
0.0
 40
0.0
 40
0.0
 40
0.0
 40
0.07066958
 40
0.1403512737
 40
0.2089840461
 40
0.2765161131
 40
0.3429066163
 40
0.4081260453
 40
0.4402943089
 40
0.472164441
 40
0.5037363733
 40
0.5350109631
 40
0.5966681405
 40
0.6571711097
 40
0.6870078683
 40
0.7165748246
 40
0.745880804
 40
0.7749359423
 40
0.8037517238
 40
0.8323409843
 40
0.8607178727
 40
0.8888978327
 40
0.9168976117
 40
0.9447350199
 40
0.9724289945
 40
1.0
 40
1.0
 40
1.0
 40
1.0
 10
12.1082998137
 20
3.5588697671
 30
0.0
 10
12.1447755842
 20
3.5737609457
 30
0.0
 10
12.2165247417
 20
3.6050690297
 30
0.0
 10
12.3209167189
 20
3.6569104854
 30
0.0
 10
12.421003976
 20
3.7131623454
 30
0.0
 10
12.5164284267
 20
3.7736486073
 30
0.0
 10
12.6068423908
 20
3.8381749624
 30
0.0
 10
12.6780613673
 20
3.8954033699
 30
0.0
 10
12.7321663953
 20
3.9430143012
 30
0.0
 10
12.7711031748
 20
3.9794289636
 30
0.0
 10
12.8085426015
 20
4.0166789433
 30
0.0
 10
12.8561853967
 20
4.0671701465
 30
0.0
 10
12.9118759067
 20
4.1321833892
 30
0.0
 10
12.9626095755
 20
4.2001449799
 30
0.0
 10
12.9997374038
 20
4.255748644
 30
0.0
 10
13.0257284509
 20
4.2978368789
 30
0.0
 10
13.0499647051
 20
4.3404586762
 30
0.0
 10
13.0724223929
 20
4.3835726556
 30
0.0
 10
13.0930795038
 20
4.4271361876
 30
0.0
 10
13.1119163452
 20
4.4711063944
 30
0.0
 10
13.1289153381
 20
4.5154400874
 30
0.0
 10
13.1440612166
 20
4.5600939557
 30
0.0
 10
13.1573409995
 20
4.6050245072
 30
0.0
 10
13.1687439696
 20
4.6501886832
 30
0.0
 10
13.1782613982
 20
4.6955425883
 30
0.0
 10
13.1833554584
 20
4.7259391492
 30
0.0
 10
13.1855835798
 20
4.7411476543
 30
0.0
  0
SPLINE
  5
2B4
100
AcDbEntity
  8
0
100
AcDbSpline
 62
7
  6
CONTINUOUS
 70
0
 71
3
 72
30
 73
26
 74
0
 42
0.0000001
 43
0.0000001
 44
0.0000000001
 40
0.0
 40
0.0
 40
0.0
 40
0.0
 40
0.0277604557
 40
0.0555492846
 40
0.0833930901
 40
0.1113197167
 40
0.1393556917
 40
0.1675269339
 40
0.1958585035
 40
0.2243743614
 40
0.2530972887
 40
0.2820487492
 40
0.3112487841
 40
0.3407159268
 40
0.3704671255
 40
0.4005176902
 40
0.4615587984
 40
0.5239394351
 40
0.587720678
 40
0.6529366323
 40
0.7195954664
 40
0.7876808048
 40
0.8571533881
 40
0.9279527076
 40
1.0
 40
1.0
 40
1.0
 40
1.0
 10
9.4273183383
 20
5.4851550294
 30
0.0
 10
9.4273183383
 20
5.4977881939
 30
0.0
 10
9.4279029373
 20
5.5230713225
 30
0.0
 10
9.4305318162
 20
5.5609433247
 30
0.0
 10
9.4349097209
 20
5.598730067
 30
0.0
 10
9.4410309633
 20
5.6363874268
 30
0.0
 10
9.4488879871
 20
5.673873391
 30
0.0
 10
9.4584709367
 20
5.7111457744
 30
0.0
 10
9.4697679787
 20
5.7481630567
 30
0.0
 10
9.4827653765
 20
5.7848842484
 30
0.0
 10
9.4974473707
 20
5.8212690279
 30
0.0
 10
9.5137963675
 20
5.8572777453
 30
0.0
 10
9.5317930933
 20
5.8928714859
 30
0.0
 10
9.5514164169
 20
5.9280118902
 30
0.0
 10
9.572644021
 20
5.9626620562
 30
0.0
 10
9.6032094015
 20
6.0083926135
 30
0.0
 10
9.6453849449
 20
6.0641545066
 30
0.0
 10
9.7017107874
 20
6.1281651328
 30
0.0
 10
9.7637711515
 20
6.1893671057
 30
0.0
 10
9.8312923025
 20
6.2475072123
 30
0.0
 10
9.9039827236
 20
6.3023491442
 30
0.0
 10
9.9815299734
 20
6.3536689758
 30
0.0
 10
10.0636037725
 20
6.4012574861
 30
0.0
 10
10.1498517855
 20
6.4449186131
 30
0.0
 10
10.2094040774
 20
6.4710749633
 30
0.0
 10
10.2397590488
 20
6.4834673285
 30
0.0
  0
SPLINE
  5
2B5
100
AcDbEntity
  8
0
100
AcDbSpline
 62
7
  6
CONTINUOUS
 70
0
 71
3
 72
9
 73
5
 74
0
 42
0.0000001
 43
0.0000001
 44
0.0000000001
 40
0.0
 40
0.0
 40
0.0
 40
0.0
 40
0.2468611678
 40
1.0
 40
1.0
 40
1.0
 40
1.0
 10
10.2397590488
 20
6.4834673285
 30
0.0
 10
10.258445772
 20
6.4910961513
 30
0.0
 10
10.3346391303
 20
6.520774077
 30
0.0
 10
10.4127113928
 20
6.5455955442
 30
0.0
 10
10.4721675333
 20
6.561622828
 30
0.0
  0
SPLINE
  5
2B6
100
AcDbEntity
  8
0
100
AcDbSpline
 62
7
  6
CONTINUOUS
 70
0
 71
3
 72
30
 73
26
 74
0
 42
0.0000001
 43
0.0000001
 44
0.0000000001
 40
0.0
 40
0.0
 40
0.0
 40
0.0
 40
0.0728189165
 40
0.1445067799
 40
0.2149153105
 40
0.2839184346
 40
0.3514157146
 40
0.4173357195
 40
0.4816393418
 40
0.544322842
 40
0.6054204706
 40
0.6354031383
 40
0.6650206298
 40
0.694288621
 40
0.7232253249
 40
0.7518514461
 40
0.7801900985
 40
0.8082666891
 40
0.8361087788
 40
0.8637459011
 40
0.8912093471
 40
0.9185319851
 40
0.9457477264
 40
0.972892042
 40
1.0
 40
1.0
 40
1.0
 40
1.0
 10
11.6223297075
 20
6.5616604209
 30
0.0
 10
11.6600784598
 20
6.5514874941
 30
0.0
 10
11.7344373086
 20
6.529173837
 30
0.0
 10
11.8428804466
 20
6.4895645779
 30
0.0
 10
11.9468497683
 20
6.4442643792
 30
0.0
 10
12.0457558359
 20
6.3935211886
 30
0.0
 10
12.1390430738
 20
6.3376099386
 30
0.0
 10
12.2261841089
 20
6.2768331469
 30
0.0
 10
12.3066853783
 20
6.2115172287
 30
0.0
 10
12.380082875
 20
6.1420181711
 30
0.0
 10
12.4353268656
 20
6.0805328428
 30
0.0
 10
12.4754653538
 20
6.029637973
 30
0.0
 10
12.5033576868
 20
5.9909081385
 30
0.0
 10
12.5291813731
 20
5.9514389371
 30
0.0
 10
12.5528980132
 20
5.9112848694
 30
0.0
 10
12.5744711894
 20
5.8705026712
 30
0.0
 10
12.5938675486
 20
5.8291501977
 30
0.0
 10
12.6110566458
 20
5.7872866839
 30
0.0
 10
12.626011141
 20
5.7449726263
 30
0.0
 10
12.63870691
 20
5.7022697569
 30
0.0
 10
12.6491232558
 20
5.6592408847
 30
0.0
 10
12.6572429385
 20
5.6159500582
 30
0.0
 10
12.6630525828
 20
5.5724614201
 30
0.0
 10
12.6665422121
 20
5.5288421693
 30
0.0
 10
12.6673183383
 20
5.4997089221
 30
0.0
 10
12.6673183383
 20
5.4851550294
 30
0.0
  0
SPLINE
  5
2B7
100
AcDbEntity
  8
0
100
AcDbSpline
 62
7
  6
CONTINUOUS
 70
0
 71
3
 72
32
 73
28
 74
0
 42
0.0000001
 43
0.0000001
 44
0.0000000001
 40
0.0
 40
0.0
 40
0.0
 40
0.0
 40
0.0280959658
 40
0.056216362
 40
0.0843851526
 40
0.1126263853
 40
0.1409635152
 40
0.1694195121
 40
0.198016684
 40
0.2267765488
 40
0.2557197208
 40
0.2848657988
 40
0.3142332741
 40
0.3438394348
 40
0.3737002806
 40
0.4038304512
 40
0.4342431745
 40
0.4649502188
 40
0.5272765939
 40
0.5908842932
 40
0.6231863742
 40
0.6558214234
 40
0.7220851252
 40
0.7896758175
 40
0.8585627184
 40
0.9286941511
 40
1.0
 40
1.0
 40
1.0
 40
1.0
 10
9.1423183383
 20
5.3277726261
 30
0.0
 10
9.1423183383
 20
5.3429742622
 30
0.0
 10
9.1430193574
 20
5.3733954015
 30
0.0
 10
9.1461716907
 20
5.4189593106
 30
0.0
 10
9.1514199621
 20
5.4644096166
 30
0.0
 10
9.1587557606
 20
5.5096883774
 30
0.0
 10
9.168167624
 20
5.5547401805
 30
0.0
 10
9.1796409173
 20
5.5995101655
 30
0.0
 10
9.1931581574
 20
5.643944844
 30
0.0
 10
9.2086992215
 20
5.6879920546
 30
0.0
 10
9.2262415345
 20
5.7316010982
 30
0.0
 10
9.2457601814
 20
5.7747228256
 30
0.0
 10
9.2672281365
 20
5.8173096639
 30
0.0
 10
9.2906164748
 20
5.8593155688
 30
0.0
 10
9.3158945615
 20
5.9006960451
 30
0.0
 10
9.3430299227
 20
5.9414079171
 30
0.0
 10
9.3719891206
 20
5.9814100902
 30
0.0
 10
9.4131853665
 20
6.0340011825
 30
0.0
 10
9.4691449898
 20
6.0977594087
 30
0.0
 10
9.5300853546
 20
6.1579966651
 30
0.0
 10
9.5819627207
 20
6.2043383385
 30
0.0
 10
9.6364480051
 20
6.2498599465
 30
0.0
 10
9.7083630078
 20
6.3042171803
 30
0.0
 10
9.7998518448
 20
6.3648567186
 30
0.0
 10
9.8965855744
 20
6.4210130605
 30
0.0
 10
9.9981496267
 20
6.4724686949
 30
0.0
 10
10.0682520987
 20
6.5032685094
 30
0.0
 10
10.1039710028
 20
6.5178506909
 30
0.0
  0
SPLINE
  5
2B8
100
AcDbEntity
  8
0
100
AcDbSpline
 62
7
  6
CONTINUOUS
 70
0
 71
3
 72
11
 73
7
 74
0
 42
0.0000001
 43
0.0000001
 44
0.0000000001
 40
0.0
 40
0.0
 40
0.0
 40
0.0
 40
0.2461040751
 40
0.4949770526
 40
0.746368076
 40
1.0
 40
1.0
 40
1.0
 40
1.0
 10
10.1039710028
 20
6.5178506909
 30
0.0
 10
10.1333358564
 20
6.5298388422
 30
0.0
 10
10.1929261198
 20
6.5526720236
 30
0.0
 10
10.2841418369
 20
6.5832915715
 30
0.0
 10
10.3774699946
 20
6.6104069543
 30
0.0
 10
10.4406730397
 20
6.6260379405
 30
0.0
 10
10.4725534883
 20
6.6332582231
 30
0.0
  0
SPLINE
  5
2B9
100
AcDbEntity
  8
0
100
AcDbSpline
 62
7
  6
CONTINUOUS
 70
0
 71
3
 72
31
 73
27
 74
0
 42
0.0000001
 43
0.0000001
 44
0.0000000001
 40
0.0
 40
0.0
 40
0.0
 40
0.0
 40
0.0722202036
 40
0.143434868
 40
0.2134810405
 40
0.2822190724
 40
0.3495365231
 40
0.4153519233
 40
0.4796182462
 40
0.5423259957
 40
0.5731100699
 40
0.6035193877
 40
0.6335642035
 40
0.663257367
 40
0.6926142976
 40
0.7216529038
 40
0.7503934998
 40
0.7788587061
 40
0.8070732872
 40
0.8350639791
 40
0.8628593092
 40
0.8904893701
 40
0.9179855892
 40
0.9453804465
 40
0.9727073157
 40
1.0
 40
1.0
 40
1.0
 40
1.0
 10
11.622061884
 20
6.6332630426
 30
0.0
 10
11.669248337
 20
6.622576722
 30
0.0
 10
11.7623697308
 20
6.5986105293
 30
0.0
 10
11.8985517901
 20
6.5546569754
 30
0.0
 10
12.029572772
 20
6.503163482
 30
0.0
 10
12.1546338301
 20
6.4444194783
 30
0.0
 10
12.2729783585
 20
6.3787504271
 30
0.0
 10
12.3838865038
 20
6.306515576
 30
0.0
 10
12.4866717586
 20
6.2281131392
 30
0.0
 10
12.5655165612
 20
6.1575480168
 30
0.0
 10
12.6238034842
 20
6.0984242098
 30
0.0
 10
12.6648362537
 20
6.0530965725
 30
0.0
 10
12.7033812965
 20
6.0065807449
 30
0.0
 10
12.7393737478
 20
5.9589422057
 30
0.0
 10
12.7727505056
 20
5.9102499756
 30
0.0
 10
12.8034516903
 20
5.8605755914
 30
0.0
 10
12.8314205059
 20
5.8099936018
 30
0.0
 10
12.8566036064
 20
5.7585816421
 30
0.0
 10
12.8789514001
 20
5.7064205785
 30
0.0
 10
12.8984184624
 20
5.653594564
 30
0.0
 10
12.9149639821
 20
5.6001910324
 30
0.0
 10
12.9285522728
 20
5.5463004983
 30
0.0
 10
12.939153239
 20
5.4920165862
 30
0.0
 10
12.9467429163
 20
5.4374346552
 30
0.0
 10
12.9513037988
 20
5.3826549368
 30
0.0
 10
12.9523183383
 20
5.3460564014
 30
0.0
 10
12.9523183383
 20
5.3277726261
 30
0.0
  0
SPLINE
  5
2BA
100
AcDbEntity
  8
0
100
AcDbSpline
 62
7
  6
CONTINUOUS
 70
0
 71
3
 72
21
 73
17
 74
0
 42
0.0000001
 43
0.0000001
 44
0.0000000001
 40
0.0
 40
0.0
 40
0.0
 40
0.0
 40
0.0601416069
 40
0.1203943147
 40
0.1808058577
 40
0.241424009
 40
0.3022949746
 40
0.3634637478
 40
0.4249737456
 40
0.4868665795
 40
0.5491818588
 40
0.6119569889
 40
0.6752270205
 40
0.7390244887
 40
0.8682956188
 40
1.0
 40
1.0
 40
1.0
 40
1.0
 10
8.8990731305
 20
4.9580644672
 30
0.0
 10
8.9000027855
 20
4.9746243248
 30
0.0
 10
8.9026025731
 20
5.0077378671
 30
0.0
 10
8.9087082815
 20
5.057241107
 30
0.0
 10
8.917013947
 20
5.1065572288
 30
0.0
 10
8.9275074084
 20
5.1556284672
 30
0.0
 10
8.9401738172
 20
5.2043998333
 30
0.0
 10
8.9549953834
 20
5.2528170012
 30
0.0
 10
8.9719517343
 20
5.3008271111
 30
0.0
 10
8.9910200922
 20
5.3483786448
 30
0.0
 10
9.0121754898
 20
5.3954215855
 30
0.0
 10
9.0353907015
 20
5.4419072172
 30
0.0
 10
9.0606371006
 20
5.4877890567
 30
0.0
 10
9.0971217859
 20
5.5483580755
 30
0.0
 10
9.1477429955
 20
5.6223554709
 30
0.0
 10
9.1926880121
 20
5.678659852
 30
0.0
 10
9.2163253497
 20
5.7062376608
 30
0.0
  0
SPLINE
  5
2BB
100
AcDbEntity
  8
0
100
AcDbSpline
 62
7
  6
CONTINUOUS
 70
0
 71
3
 72
21
 73
17
 74
0
 42
0.0000001
 43
0.0000001
 44
0.0000000001
 40
0.0
 40
0.0
 40
0.0
 40
0.0
 40
0.1317102513
 40
0.2609852561
 40
0.3247839396
 40
0.3880547197
 40
0.4508301472
 40
0.5131452961
 40
0.5750376078
 40
0.636546725
 40
0.6977142938
 40
0.758583776
 40
0.8192002092
 40
0.8796098444
 40
0.9398605265
 40
1.0
 40
1.0
 40
1.0
 40
1.0
 10
12.8779893813
 20
5.7066131627
 30
0.0
 10
12.9016506438
 20
5.6790251381
 30
0.0
 10
12.9466414049
 20
5.622698671
 30
0.0
 10
12.9973150282
 20
5.5486684535
 30
0.0
 10
13.0338375444
 20
5.4880709925
 30
0.0
 10
13.0591100385
 20
5.4421670617
 30
0.0
 10
13.0823492338
 20
5.3956583997
 30
0.0
 10
13.1035264558
 20
5.3485915645
 30
0.0
 10
13.1226143964
 20
5.3010153342
 30
0.0
 10
13.1395880467
 20
5.2529798081
 30
0.0
 10
13.1544245876
 20
5.2045365889
 30
0.0
 10
13.1671036097
 20
5.1557386228
 30
0.0
 10
13.177607269
 20
5.1066403202
 30
0.0
 10
13.1859206937
 20
5.0572967581
 30
0.0
 10
13.1920316982
 20
5.0077658047
 30
0.0
 10
13.1946333684
 20
4.9746336343
 30
0.0
 10
13.1955635461
 20
4.9580644672
 30
0.0
  0
SPLINE
  5
2BC
100
AcDbEntity
  8
0
100
AcDbSpline
 62
7
  6
CONTINUOUS
 70
0
 71
3
 72
19
 73
15
 74
0
 42
0.0000001
 43
0.0000001
 44
0.0000000001
 40
0.0
 40
0.0
 40
0.0
 40
0.0
 40
0.0238219264
 40
0.0560646704
 40
0.095854069
 40
0.1424191782
 40
0.1949960714
 40
0.2528814394
 40
0.3819835708
 40
0.5250644708
 40
0.6005847857
 40
0.6781364316
 40
0.8374847728
 40
1.0
 40
1.0
 40
1.0
 40
1.0
 10
10.4647587413
 20
8.8842414903
 30
0.0
 10
10.465319548
 20
8.8837703657
 30
0.0
 10
10.4666687872
 20
8.8826964632
 30
0.0
 10
10.4690524592
 20
8.8809618005
 30
0.0
 10
10.4720931743
 20
8.8789470315
 30
0.0
 10
10.4757549993
 20
8.8767448883
 30
0.0
 10
10.4799992394
 20
8.8744401854
 30
0.0
 10
10.4866215948
 20
8.8712108355
 30
0.0
 10
10.496035619
 20
8.8673834758
 30
0.0
 10
10.5062619726
 20
8.864219877
 30
0.0
 10
10.5151162032
 20
8.8620848565
 30
0.0
 10
10.5245458175
 20
8.8602395077
 30
0.0
 10
10.5367406996
 20
8.8586641279
 30
0.0
 10
10.5466418421
 20
8.8582409815
 30
0.0
 10
10.5516385834
 20
8.8582409815
 30
0.0
  0
SPLINE
  5
2BD
100
AcDbEntity
  8
0
100
AcDbSpline
 62
7
  6
CONTINUOUS
 70
0
 71
3
 72
24
 73
20
 74
0
 42
0.0000001
 43
0.0000001
 44
0.0000000001
 40
0.0
 40
0.0
 40
0.0
 40
0.0
 40
0.081547331
 40
0.1625571309
 40
0.2427800905
 40
0.321889441
 40
0.3994361105
 40
0.474955854
 40
0.6180185718
 40
0.6846032709
 40
0.747137349
 40
0.8050172294
 40
0.8320124331
 40
0.8575972376
 40
0.904154272
 40
0.9439244471
 40
0.9762070926
 40
0.9892541433
 40
1.0
 40
1.0
 40
1.0
 40
1.0
 10
10.5516385834
 20
8.5582409815
 30
0.0
 10
10.5491310312
 20
8.5582409815
 30
0.0
 10
10.544131795
 20
8.5581332009
 30
0.0
 10
10.5366796835
 20
8.5576529297
 30
0.0
 10
10.5293294845
 20
8.5568605717
 30
0.0
 10
10.5221257466
 20
8.5557680718
 30
0.0
 10
10.515116816
 20
8.5543972801
 30
0.0
 10
10.5062627496
 20
8.5522621721
 30
0.0
 10
10.4978728382
 20
8.5496673438
 30
0.0
 10
10.4900573461
 20
8.5466670864
 30
0.0
 10
10.4847819998
 20
8.5443743677
 30
0.0
 10
10.4807065778
 20
8.5423865993
 30
0.0
 10
10.4777050821
 20
8.5407961026
 30
0.0
 10
10.4750438178
 20
8.5393088971
 30
0.0
 10
10.4720934046
 20
8.5375353058
 30
0.0
 10
10.4690522188
 20
8.5355200034
 30
0.0
 10
10.4669355047
 20
8.5339797983
 30
0.0
 10
10.4655779245
 20
8.5329165017
 30
0.0
 10
10.4650117438
 20
8.5324530159
 30
0.0
 10
10.4647587413
 20
8.5322404726
 30
0.0
  0
SPLINE
  5
2BE
100
AcDbEntity
  8
0
100
AcDbSpline
 62
7
  6
CONTINUOUS
 70
0
 71
3
 72
11
 73
7
 74
0
 42
0.0000001
 43
0.0000001
 44
0.0000000001
 40
0.0
 40
0.0
 40
0.0
 40
0.0
 40
0.2494912661
 40
0.4993634939
 40
0.7495565134
 40
1.0
 40
1.0
 40
1.0
 40
1.0
 10
10.4647587413
 20
8.8842414903
 30
0.0
 10
10.4568983399
 20
8.8908448875
 30
0.0
 10
10.4404091942
 20
8.9031884563
 30
0.0
 10
10.4137944374
 20
8.9188890956
 30
0.0
 10
10.3856126691
 20
8.9316558487
 30
0.0
 10
10.3660090248
 20
8.9381308348
 30
0.0
 10
10.3560673022
 20
8.9408435696
 30
0.0
  0
SPLINE
  5
2BF
100
AcDbEntity
  8
0
100
AcDbSpline
 62
7
  6
CONTINUOUS
 70
0
 71
3
 72
25
 73
21
 74
0
 42
0.0000001
 43
0.0000001
 44
0.0000000001
 40
0.0
 40
0.0
 40
0.0
 40
0.0
 40
0.0625829914
 40
0.1251297482
 40
0.1876317208
 40
0.2500835766
 40
0.3124756399
 40
0.3748007312
 40
0.4370596919
 40
0.4992500327
 40
0.5613859711
 40
0.62349142
 40
0.6856172628
 40
0.7478456618
 40
0.8102997954
 40
0.8731177413
 40
0.9047029653
 40
0.9363956603
 40
0.9681740499
 40
1.0
 40
1.0
 40
1.0
 40
1.0
 10
10.0951686034
 20
8.9408435696
 30
0.0
 10
10.0885983729
 20
8.9390507925
 30
0.0
 10
10.075581871
 20
8.9350076115
 30
0.0
 10
10.0565389153
 20
8.9275957624
 30
0.0
 10
10.038077036
 20
8.9188666311
 30
0.0
 10
10.0202968347
 20
8.9088557238
 30
0.0
 10
10.0032975225
 20
8.8976035457
 30
0.0
 10
9.9871788256
 20
8.8851560405
 30
0.0
 10
9.9720413065
 20
8.8715640983
 30
0.0
 10
9.9579861124
 20
8.8568830716
 30
0.0
 10
9.9451169825
 20
8.8411722698
 30
0.0
 10
9.9335400897
 20
8.8244932914
 30
0.0
 10
9.9233673211
 20
8.8069091396
 30
0.0
 10
9.9147188273
 20
8.7884826811
 30
0.0
 10
9.9077290392
 20
8.7692832978
 30
0.0
 10
9.903420227
 20
8.7527361712
 30
0.0
 10
9.9009561846
 20
8.7392322705
 30
0.0
 10
9.8996163003
 20
8.7289703608
 30
0.0
 10
9.8988049174
 20
8.7186273084
 30
0.0
 10
9.8986237632
 20
8.7117043579
 30
0.0
 10
9.8986237632
 20
8.7082409815
 30
0.0
  0
SPLINE
  5
2C0
100
AcDbEntity
  8
0
100
AcDbSpline
 62
7
  6
CONTINUOUS
 70
0
 71
3
 72
11
 73
7
 74
0
 42
0.0000001
 43
0.0000001
 44
0.0000000001
 40
0.0
 40
0.0
 40
0.0
 40
0.0
 40
0.2504447787
 40
0.5006353506
 40
0.7505057084
 40
1.0
 40
1.0
 40
1.0
 40
1.0
 10
10.3560673022
 20
8.4756383933
 30
0.0
 10
10.3660090764
 20
8.4783511422
 30
0.0
 10
10.3856126874
 20
8.4848260866
 30
0.0
 10
10.4137943156
 20
8.4975928432
 30
0.0
 10
10.4404090764
 20
8.5132933702
 30
0.0
 10
10.4568982444
 20
8.5256369952
 30
0.0
 10
10.4647587413
 20
8.5322404726
 30
0.0
  0
SPLINE
  5
2C1
100
AcDbEntity
  8
0
100
AcDbSpline
 62
7
  6
CONTINUOUS
 70
0
 71
3
 72
25
 73
21
 74
0
 42
0.0000001
 43
0.0000001
 44
0.0000000001
 40
0.0
 40
0.0
 40
0.0
 40
0.0
 40
0.0318273251
 40
0.063606799
 40
0.0953003323
 40
0.1268861066
 40
0.1897046721
 40
0.2521588503
 40
0.3143866881
 40
0.3765109601
 40
0.4386151835
 40
0.5007493838
 40
0.5629383902
 40
0.6251954304
 40
0.6875202477
 40
0.7499115942
 40
0.8123630485
 40
0.8748660242
 40
0.9374143268
 40
1.0
 40
1.0
 40
1.0
 40
1.0
 10
9.8986237632
 20
8.7082409815
 30
0.0
 10
9.8986237632
 20
8.7047774554
 30
0.0
 10
9.8988049323
 20
8.6978542371
 30
0.0
 10
9.8996163758
 20
8.687510829
 30
0.0
 10
9.9009563423
 20
8.6772486583
 30
0.0
 10
9.9034204924
 20
8.6637445546
 30
0.0
 10
9.9077294625
 20
8.6471973319
 30
0.0
 10
9.91471936
 20
8.6279979774
 30
0.0
 10
9.9233678743
 20
8.6095717787
 30
0.0
 10
9.9335405501
 20
8.5919879987
 30
0.0
 10
9.9451171773
 20
8.5753094378
 30
0.0
 10
9.9579860319
 20
8.5595990175
 30
0.0
 10
9.9720408047
 20
8.5449183406
 30
0.0
 10
9.987178018
 20
8.5313266352
 30
0.0
 10
10.0032963816
 20
8.5188792177
 30
0.0
 10
10.0202955237
 20
8.5076270566
 30
0.0
 10
10.0380756492
 20
8.4976160418
 30
0.0
 10
10.0565376977
 20
8.4888867187
 30
0.0
 10
10.0755811542
 20
8.481474584
 30
0.0
 10
10.0885980913
 20
8.4774312473
 30
0.0
 10
10.0951686034
 20
8.4756383933
 30
0.0
  0
SPLINE
  5
2C2
100
AcDbEntity
  8
0
100
AcDbSpline
 62
7
  6
CONTINUOUS
 70
0
 71
3
 72
24
 73
20
 74
0
 42
0.0000001
 43
0.0000001
 44
0.0000000001
 40
0.0
 40
0.0
 40
0.0
 40
0.0
 40
0.081547331
 40
0.1625571309
 40
0.2427800905
 40
0.321889441
 40
0.3994361105
 40
0.474955854
 40
0.6180185718
 40
0.6846032709
 40
0.747137349
 40
0.8050172294
 40
0.8320124331
 40
0.8575972376
 40
0.904154272
 40
0.9439244471
 40
0.9762070926
 40
0.9892541433
 40
1.0
 40
1.0
 40
1.0
 40
1.0
 10
11.5429980931
 20
8.8582409815
 30
0.0
 10
11.5455056454
 20
8.8582409815
 30
0.0
 10
11.5505048816
 20
8.858348762
 30
0.0
 10
11.5579569931
 20
8.8588290332
 30
0.0
 10
11.5653071921
 20
8.8596213913
 30
0.0
 10
11.57251093
 20
8.8607138912
 30
0.0
 10
11.5795198606
 20
8.8620846829
 30
0.0
 10
11.588373927
 20
8.8642197909
 30
0.0
 10
11.5967638384
 20
8.8668146191
 30
0.0
 10
11.6045793304
 20
8.8698148765
 30
0.0
 10
11.6098546767
 20
8.8721075952
 30
0.0
 10
11.6139300988
 20
8.8740953636
 30
0.0
 10
11.6169315944
 20
8.8756858603
 30
0.0
 10
11.6195928588
 20
8.8771730659
 30
0.0
 10
11.622543272
 20
8.8789466572
 30
0.0
 10
11.6255844577
 20
8.8809619595
 30
0.0
 10
11.6277011719
 20
8.8825021647
 30
0.0
 10
11.629058752
 20
8.8835654612
 30
0.0
 10
11.6296249328
 20
8.884028947
 30
0.0
 10
11.6298779352
 20
8.8842414903
 30
0.0
  0
SPLINE
  5
2C3
100
AcDbEntity
  8
0
100
AcDbSpline
 62
7
  6
CONTINUOUS
 70
0
 71
3
 72
19
 73
15
 74
0
 42
0.0000001
 43
0.0000001
 44
0.0000000001
 40
0.0
 40
0.0
 40
0.0
 40
0.0
 40
0.0238219264
 40
0.0560646704
 40
0.095854069
 40
0.1424191782
 40
0.1949960714
 40
0.2528814394
 40
0.3819835708
 40
0.5250644708
 40
0.6005847857
 40
0.6781364316
 40
0.8374847728
 40
1.0
 40
1.0
 40
1.0
 40
1.0
 10
11.6298779352
 20
8.5322404726
 30
0.0
 10
11.6293171286
 20
8.5327115973
 30
0.0
 10
11.6279678894
 20
8.5337854997
 30
0.0
 10
11.6255842173
 20
8.5355201625
 30
0.0
 10
11.6225435023
 20
8.5375349314
 30
0.0
 10
11.6188816772
 20
8.5397370747
 30
0.0
 10
11.6146374371
 20
8.5420417776
 30
0.0
 10
11.6080150818
 20
8.5452711275
 30
0.0
 10
11.5986010576
 20
8.5490984871
 30
0.0
 10
11.588374704
 20
8.5522620859
 30
0.0
 10
11.5795204734
 20
8.5543971064
 30
0.0
 10
11.570090859
 20
8.5562424552
 30
0.0
 10
11.557895977
 20
8.557817835
 30
0.0
 10
11.5479948345
 20
8.5582409815
 30
0.0
 10
11.5429980931
 20
8.5582409815
 30
0.0
  0
SPLINE
  5
2C4
100
AcDbEntity
  8
0
100
AcDbSpline
 62
7
  6
CONTINUOUS
 70
0
 71
3
 72
11
 73
7
 74
0
 42
0.0000001
 43
0.0000001
 44
0.0000000001
 40
0.0
 40
0.0
 40
0.0
 40
0.0
 40
0.2504447787
 40
0.5006353506
 40
0.7505057084
 40
1.0
 40
1.0
 40
1.0
 40
1.0
 10
11.7385693744
 20
8.9408435696
 30
0.0
 10
11.7286276002
 20
8.9381308207
 30
0.0
 10
11.7090239892
 20
8.9316558764
 30
0.0
 10
11.680842361
 20
8.9188891198
 30
0.0
 10
11.6542276002
 20
8.9031885927
 30
0.0
 10
11.6377384322
 20
8.8908449678
 30
0.0
 10
11.6298779352
 20
8.8842414903
 30
0.0
  0
SPLINE
  5
2C5
100
AcDbEntity
  8
0
100
AcDbSpline
 62
7
  6
CONTINUOUS
 70
0
 71
3
 72
25
 73
21
 74
0
 42
0.0000001
 43
0.0000001
 44
0.0000000001
 40
0.0
 40
0.0
 40
0.0
 40
0.0
 40
0.0318273251
 40
0.063606799
 40
0.0953003323
 40
0.1268861066
 40
0.1897046721
 40
0.2521588503
 40
0.3143866881
 40
0.3765109601
 40
0.4386151835
 40
0.5007493838
 40
0.5629383902
 40
0.6251954304
 40
0.6875202477
 40
0.7499115942
 40
0.8123630485
 40
0.8748660242
 40
0.9374143268
 40
1.0
 40
1.0
 40
1.0
 40
1.0
 10
12.1960129133
 20
8.7082409815
 30
0.0
 10
12.1960129133
 20
8.7117045076
 30
0.0
 10
12.1958317443
 20
8.7186277259
 30
0.0
 10
12.1950203008
 20
8.7289711339
 30
0.0
 10
12.1936803343
 20
8.7392333046
 30
0.0
 10
12.1912161842
 20
8.7527374084
 30
0.0
 10
12.1869072141
 20
8.769284631
 30
0.0
 10
12.1799173166
 20
8.7884839856
 30
0.0
 10
12.1712688023
 20
8.8069101842
 30
0.0
 10
12.1610961265
 20
8.8244939642
 30
0.0
 10
12.1495194992
 20
8.8411725252
 30
0.0
 10
12.1366506447
 20
8.8568829454
 30
0.0
 10
12.1225958718
 20
8.8715636223
 30
0.0
 10
12.1074586585
 20
8.8851553277
 30
0.0
 10
12.091340295
 20
8.8976027453
 30
0.0
 10
12.0743411528
 20
8.9088549064
 30
0.0
 10
12.0565610273
 20
8.9188659211
 30
0.0
 10
12.0380989788
 20
8.9275952443
 30
0.0
 10
12.0190555224
 20
8.935007379
 30
0.0
 10
12.0060385853
 20
8.9390507156
 30
0.0
 10
11.9994680731
 20
8.9408435696
 30
0.0
  0
SPLINE
  5
2C6
100
AcDbEntity
  8
0
100
AcDbSpline
 62
7
  6
CONTINUOUS
 70
0
 71
3
 72
11
 73
7
 74
0
 42
0.0000001
 43
0.0000001
 44
0.0000000001
 40
0.0
 40
0.0
 40
0.0
 40
0.0
 40
0.2494912661
 40
0.4993634939
 40
0.7495565134
 40
1.0
 40
1.0
 40
1.0
 40
1.0
 10
11.6298779352
 20
8.5322404726
 30
0.0
 10
11.6377383366
 20
8.5256370754
 30
0.0
 10
11.6542274824
 20
8.5132935066
 30
0.0
 10
11.6808422392
 20
8.4975928673
 30
0.0
 10
11.7090240075
 20
8.4848261142
 30
0.0
 10
11.7286276518
 20
8.4783511281
 30
0.0
 10
11.7385693744
 20
8.4756383933
 30
0.0
  0
SPLINE
  5
2C7
100
AcDbEntity
  8
0
100
AcDbSpline
 62
7
  6
CONTINUOUS
 70
0
 71
3
 72
25
 73
21
 74
0
 42
0.0000001
 43
0.0000001
 44
0.0000000001
 40
0.0
 40
0.0
 40
0.0
 40
0.0
 40
0.0625829914
 40
0.1251297482
 40
0.1876317208
 40
0.2500835766
 40
0.3124756399
 40
0.3748007312
 40
0.4370596919
 40
0.4992500327
 40
0.5613859711
 40
0.62349142
 40
0.6856172628
 40
0.7478456618
 40
0.8102997954
 40
0.8731177413
 40
0.9047029653
 40
0.9363956603
 40
0.9681740499
 40
1.0
 40
1.0
 40
1.0
 40
1.0
 10
11.9994680731
 20
8.4756383933
 30
0.0
 10
12.0060383037
 20
8.4774311705
 30
0.0
 10
12.0190548055
 20
8.4814743514
 30
0.0
 10
12.0380977613
 20
8.4888862005
 30
0.0
 10
12.0565596406
 20
8.4976153318
 30
0.0
 10
12.0743398418
 20
8.5076262391
 30
0.0
 10
12.0913391541
 20
8.5188784172
 30
0.0
 10
12.107457851
 20
8.5313259225
 30
0.0
 10
12.12259537
 20
8.5449178646
 30
0.0
 10
12.1366505642
 20
8.5595988914
 30
0.0
 10
12.1495196941
 20
8.5753096932
 30
0.0
 10
12.1610965868
 20
8.5919886716
 30
0.0
 10
12.1712693555
 20
8.6095728233
 30
0.0
 10
12.1799178493
 20
8.6279992819
 30
0.0
 10
12.1869076373
 20
8.6471986651
 30
0.0
 10
12.1912164495
 20
8.6637457918
 30
0.0
 10
12.1936804919
 20
8.6772496925
 30
0.0
 10
12.1950203763
 20
8.6875116022
 30
0.0
 10
12.1958317591
 20
8.6978546546
 30
0.0
 10
12.1960129133
 20
8.704777605
 30
0.0
 10
12.1960129133
 20
8.7082409815
 30
0.0
  0
SPLINE
  5
2C8
100
AcDbEntity
  8
0
100
AcDbSpline
 62
7
  6
CONTINUOUS
 70
0
 71
3
 72
20
 73
16
 74
0
 42
0.0000001
 43
0.0000001
 44
0.0000000001
 40
0.0
 40
0.0
 40
0.0
 40
0.0
 40
0.0536614201
 40
0.1086677724
 40
0.1650482397
 40
0.2228078809
 40
0.3423209529
 40
0.4040319398
 40
0.466935226
 40
0.5309417991
 40
0.5959494548
 40
0.7284643759
 40
0.7957567969
 40
0.8635448484
 40
1.0
 40
1.0
 40
1.0
 40
1.0
 10
10.6953467171
 20
7.0539658238
 30
0.0
 10
10.6998294566
 20
7.0486439361
 30
0.0
 10
10.7093207698
 20
7.0382086529
 30
0.0
 10
10.7248291162
 20
7.0234362862
 30
0.0
 10
10.7417179845
 20
7.0094154322
 30
0.0
 10
10.7662513902
 20
6.9916087878
 30
0.0
 10
10.7930048644
 20
6.9757966685
 30
0.0
 10
10.8215279203
 20
6.9620411697
 30
0.0
 10
10.8441193286
 20
6.9526351632
 30
0.0
 10
10.8675784947
 20
6.9442955425
 30
0.0
 10
10.9000836307
 20
6.9345871152
 30
0.0
 10
10.9336953918
 20
6.9272480742
 30
0.0
 10
10.9680470198
 20
6.9222787692
 30
0.0
 10
11.003102769
 20
6.9188843805
 30
0.0
 10
11.0296276176
 20
6.9181814579
 30
0.0
 10
11.0473183383
 20
6.9185277047
 30
0.0
  0
SPLINE
  5
2C9
100
AcDbEntity
  8
0
100
AcDbSpline
 62
7
  6
CONTINUOUS
 70
0
 71
3
 72
13
 73
9
 74
0
 42
0.0000001
 43
0.0000001
 44
0.0000000001
 40
0.0
 40
0.0
 40
0.0
 40
0.0
 40
0.2570861841
 40
0.3848494847
 40
0.5115176927
 40
0.636711834
 40
0.7600815049
 40
1.0
 40
1.0
 40
1.0
 40
1.0
 10
11.0473183383
 20
6.8687190447
 30
0.0
 10
11.0692774378
 20
6.8691468714
 30
0.0
 10
11.1021553651
 20
6.8716707447
 30
0.0
 10
11.1452874347
 20
6.8787978986
 30
0.0
 10
11.1769376436
 20
6.8859677268
 30
0.0
 10
11.2077388493
 20
6.8949303671
 30
0.0
 10
11.2470231184
 20
6.9090591476
 30
0.0
 10
11.2752055823
 20
6.9223478143
 30
0.0
 10
11.2930762739
 20
6.9323852039
 30
0.0
  0
SPLINE
  5
2CA
100
AcDbEntity
  8
0
100
AcDbSpline
 62
7
  6
CONTINUOUS
 70
0
 71
3
 72
21
 73
17
 74
0
 42
0.0000001
 43
0.0000001
 44
0.0000000001
 40
0.0
 40
0.0
 40
0.0
 40
0.0
 40
0.1403464073
 40
0.2087297778
 40
0.2758692458
 40
0.4063494646
 40
0.4697873363
 40
0.5320610634
 40
0.59323671
 40
0.6533991961
 40
0.7126519005
 40
0.7711156456
 40
0.828927026
 40
0.8862362311
 40
0.9432043418
 40
1.0
 40
1.0
 40
1.0
 40
1.0
 10
11.2930762739
 20
6.9323852039
 30
0.0
 10
11.3052830235
 20
6.9392413405
 30
0.0
 10
11.3229605586
 20
6.9503353905
 30
0.0
 10
11.3450290175
 20
6.9667951818
 30
0.0
 10
11.3654004625
 20
6.9838148522
 30
0.0
 10
11.3839450455
 20
7.0022034747
 30
0.0
 10
11.4003359341
 20
7.0218298795
 30
0.0
 10
11.411348769
 20
7.0368899416
 30
0.0
 10
11.421155713
 20
7.0523762987
 30
0.0
 10
11.4297243083
 20
7.0682400684
 30
0.0
 10
11.4370252413
 20
7.0844301286
 30
0.0
 10
11.4430335618
 20
7.1008943444
 30
0.0
 10
11.4477285403
 20
7.1175792618
 30
0.0
 10
11.4510938771
 20
7.1344309675
 30
0.0
 10
11.4531178167
 20
7.1513930027
 30
0.0
 10
11.4535683383
 20
7.1627467412
 30
0.0
 10
11.4535683383
 20
7.1684124525
 30
0.0
  0
SPLINE
  5
2CB
100
AcDbEntity
  8
0
100
AcDbSpline
 62
7
  6
CONTINUOUS
 70
0
 71
3
 72
28
 73
24
 74
0
 42
0.0000001
 43
0.0000001
 44
0.0000000001
 40
0.0
 40
0.0
 40
0.0
 40
0.0
 40
0.0717758352
 40
0.1433044613
 40
0.2142516742
 40
0.2842991604
 40
0.3531545237
 40
0.4205600353
 40
0.4863011593
 40
0.5502160705
 40
0.6122043653
 40
0.6722362176
 40
0.7303597653
 40
0.7587553035
 40
0.7867305755
 40
0.8143155012
 40
0.8415452405
 40
0.8684599285
 40
0.895104262
 40
0.9215269765
 40
0.9477802589
 40
0.9739190141
 40
1.0
 40
1.0
 40
1.0
 40
1.0
 10
11.0473183383
 20
6.9185277047
 30
0.0
 10
11.0606085426
 20
6.9187878235
 30
0.0
 10
11.0871344351
 20
6.9202271286
 30
0.0
 10
11.1265404408
 20
6.9251301932
 30
0.0
 10
11.1651914786
 20
6.9327383636
 30
0.0
 10
11.2027157185
 20
6.9429869403
 30
0.0
 10
11.2387550869
 20
6.9557866614
 30
0.0
 10
11.2729649933
 20
6.9710240307
 30
0.0
 10
11.3050183579
 20
6.9885633336
 30
0.0
 10
11.3346082098
 20
7.0082470552
 30
0.0
 10
11.3614507606
 20
7.0298993437
 30
0.0
 10
11.3852850941
 20
7.0533225686
 30
0.0
 10
11.4025848726
 20
7.0743115921
 30
0.0
 10
11.4146475319
 20
7.0917622188
 30
0.0
 10
11.422741433
 20
7.1050486375
 30
0.0
 10
11.4299306134
 20
7.1186016762
 30
0.0
 10
11.4361977808
 20
7.1323900083
 30
0.0
 10
11.4415273988
 20
7.1463812221
 30
0.0
 10
11.4459062734
 20
7.1605424837
 30
0.0
 10
11.4493234521
 20
7.174840348
 30
0.0
 10
11.4517704404
 20
7.1892412401
 30
0.0
 10
11.4532411151
 20
7.2037101764
 30
0.0
 10
11.4535683382
 20
7.2133843474
 30
0.0
 10
11.4535683383
 20
7.2182144969
 30
0.0
  0
SPLINE
  5
2CC
100
AcDbEntity
  8
0
100
AcDbSpline
 62
7
  6
CONTINUOUS
 70
0
 71
3
 72
28
 73
24
 74
0
 42
0.0000001
 43
0.0000001
 44
0.0000000001
 40
0.0
 40
0.0
 40
0.0
 40
0.0
 40
0.071772306
 40
0.1432972819
 40
0.2142409001
 40
0.284284998
 40
0.3531373457
 40
0.4205403376
 40
0.4862795785
 40
0.5501933508
 40
0.6121813448
 40
0.6722138162
 40
0.7303389338
 40
0.7587356285
 40
0.7867122889
 40
0.8142988309
 40
0.8415304163
 40
0.8684471655
 40
0.8950937498
 40
0.9215188843
 40
0.9477747423
 40
0.9739162059
 40
1.0
 40
1.0
 40
1.0
 40
1.0
 10
11.0473183383
 20
6.9681751956
 30
0.0
 10
11.0606085732
 20
6.9684345856
 30
0.0
 10
11.0871345523
 20
6.9698726738
 30
0.0
 10
11.1265407181
 20
6.9747746036
 30
0.0
 10
11.1651918816
 20
6.9823822857
 30
0.0
 10
11.202716214
 20
6.9926309824
 30
0.0
 10
11.2387556414
 20
7.0054313926
 30
0.0
 10
11.2729655778
 20
7.020669983
 30
0.0
 10
11.3050189441
 20
7.0382110014
 30
0.0
 10
11.3346087731
 20
7.057896896
 30
0.0
 10
11.3614512783
 20
7.0795517785
 30
0.0
 10
11.3852855464
 20
7.1029779792
 30
0.0
 10
11.4025851812
 20
7.123969702
 30
0.0
 10
11.4146477386
 20
7.1414226246
 30
0.0
 10
11.4227416048
 20
7.1547108848
 30
0.0
 10
11.4299307514
 20
7.1682658328
 30
0.0
 10
11.4361978866
 20
7.1820561406
 30
0.0
 10
11.4415274762
 20
7.196049392
 30
0.0
 10
11.4459063251
 20
7.2102127468
 30
0.0
 10
11.4493234826
 20
7.224512756
 30
0.0
 10
11.4517704543
 20
7.2389158428
 30
0.0
 10
11.4532411184
 20
7.2533870212
 30
0.0
 10
11.4535683383
 20
7.2630627007
 30
0.0
 10
11.4535683383
 20
7.2678936138
 30
0.0
  0
SPLINE
  5
2CD
100
AcDbEntity
  8
0
100
AcDbSpline
 62
7
  6
CONTINUOUS
 70
0
 71
3
 72
18
 73
14
 74
0
 42
0.0000001
 43
0.0000001
 44
0.0000000001
 40
0.0
 40
0.0
 40
0.0
 40
0.0
 40
0.1411494211
 40
0.2778051356
 40
0.4096090123
 40
0.5364152299
 40
0.6583243669
 40
0.717579802
 40
0.7757740653
 40
0.8329977333
 40
0.8893584566
 40
0.9449798775
 40
1.0
 40
1.0
 40
1.0
 40
1.0
 10
11.2201279562
 20
6.4869480864
 30
0.0
 10
11.2311093158
 20
6.4914312077
 30
0.0
 10
11.2523454094
 20
6.5012214571
 30
0.0
 10
11.28213145
 20
6.5185786526
 30
0.0
 10
11.3090204673
 20
6.5381870119
 30
0.0
 10
11.3326716978
 20
6.559807332
 30
0.0
 10
11.3495999911
 20
6.5794807741
 30
0.0
 10
11.3611718151
 20
6.5959482807
 30
0.0
 10
11.3687919827
 20
6.6085075088
 30
0.0
 10
11.3754087827
 20
6.6213501613
 30
0.0
 10
11.3810014391
 20
6.6344369437
 30
0.0
 10
11.3855515009
 20
6.647725727
 30
0.0
 10
11.3878911329
 20
6.656735223
 30
0.0
 10
11.3888787884
 20
6.6612520135
 30
0.0
  0
SPLINE
  5
2CE
100
AcDbEntity
  8
0
100
AcDbSpline
 62
7
  6
CONTINUOUS
 70
0
 71
3
 72
36
 73
32
 74
0
 42
0.0000001
 43
0.0000001
 44
0.0000000001
 40
0.0
 40
0.0
 40
0.0
 40
0.0
 40
0.0667160243
 40
0.1007471552
 40
0.1351374898
 40
0.2047054185
 40
0.2397594673
 40
0.274888609
 40
0.345052922
 40
0.3799575937
 40
0.4146402131
 40
0.4490305586
 40
0.4830616537
 40
0.5166706514
 40
0.5497996592
 40
0.5823966469
 40
0.6144163288
 40
0.6458210807
 40
0.6765818839
 40
0.7066792162
 40
0.7361040024
 40
0.7648584167
 40
0.7929566882
 40
0.8204256737
 40
0.8473052493
 40
0.8736483861
 40
0.899520774
 40
0.9250000236
 40
0.9501742217
 40
0.9751399983
 40
1.0
 40
1.0
 40
1.0
 40
1.0
 10
11.2785683383
 20
6.323498348
 30
0.0
 10
11.2608348349
 20
6.3162586755
 30
0.0
 10
11.2334462009
 20
6.3067527998
 30
0.0
 10
11.1959400141
 20
6.296782702
 30
0.0
 10
11.1571888386
 20
6.2884798172
 30
0.0
 10
11.117594219
 20
6.2829350704
 30
0.0
 10
11.077556563
 20
6.2801497271
 30
0.0
 10
11.0372615408
 20
6.2792179125
 30
0.0
 10
10.9969841352
 20
6.2810766692
 30
0.0
 10
10.9571200202
 20
6.2857255013
 30
0.0
 10
10.9276527662
 20
6.2905785207
 30
0.0
 10
10.8986971408
 20
6.2967825354
 30
0.0
 10
10.8703755925
 20
6.3043113124
 30
0.0
 10
10.8428092686
 20
6.3131328415
 30
0.0
 10
10.8161157109
 20
6.3232096894
 30
0.0
 10
10.7904088413
 20
6.334499122
 30
0.0
 10
10.7657983581
 20
6.346953307
 30
0.0
 10
10.7423893219
 20
6.3605195315
 30
0.0
 10
10.7202817283
 20
6.3751404331
 30
0.0
 10
10.6995701108
 20
6.3907542503
 30
0.0
 10
10.6803431929
 20
6.4072950769
 30
0.0
 10
10.662683548
 20
6.4246931227
 30
0.0
 10
10.646667312
 20
6.4428749639
 30
0.0
 10
10.6323638986
 20
6.4617637847
 30
0.0
 10
10.6198357328
 20
6.4812796075
 30
0.0
 10
10.6091379759
 20
6.501339481
 30
0.0
 10
10.6003182241
 20
6.521857781
 30
0.0
 10
10.5934161763
 20
6.5427461465
 30
0.0
 10
10.5884632633
 20
6.5639148588
 30
0.0
 10
10.5854822982
 20
6.5852693102
 30
0.0
 10
10.5848183376
 20
6.5995832176
 30
0.0
 10
10.584818353
 20
6.6067205995
 30
0.0
  0
SPLINE
  5
2CF
100
AcDbEntity
  8
0
100
AcDbSpline
 62
7
  6
CONTINUOUS
 70
0
 71
3
 72
38
 73
34
 74
0
 42
0.0000001
 43
0.0000001
 44
0.0000000001
 40
0.0
 40
0.0
 40
0.0
 40
0.0
 40
0.066713459
 40
0.1007433074
 40
0.1351323209
 40
0.1698136198
 40
0.2047169559
 40
0.2397696626
 40
0.2748974637
 40
0.3100252602
 40
0.3450779716
 40
0.3799813055
 40
0.4146626033
 40
0.4490516325
 40
0.4830814267
 40
0.5166891392
 40
0.549816878
 40
0.5824126199
 40
0.614431073
 40
0.6458346276
 40
0.6765942491
 40
0.7066904362
 40
0.7361140926
 40
0.7648674118
 40
0.7929646076
 40
0.8204325408
 40
0.8473110915
 40
0.8736532153
 40
0.8995246183
 40
0.9250028888
 40
0.9501761278
 40
0.9751409474
 40
1.0
 40
1.0
 40
1.0
 40
1.0
 10
11.3348183383
 20
5.6040682103
 30
0.0
 10
11.3127712847
 20
5.5950675383
 30
0.0
 10
11.2787201554
 20
5.5832493393
 30
0.0
 10
11.2320919049
 20
5.5708543182
 30
0.0
 10
11.1960912427
 20
5.5631407335
 30
0.0
 10
11.1594575649
 20
5.557107479
 30
0.0
 10
11.1223447182
 20
5.5527794656
 30
0.0
 10
11.0849117779
 20
5.5501752977
 30
0.0
 10
11.047318337
 20
5.5493060023
 30
0.0
 10
11.0097249046
 20
5.5501752904
 30
0.0
 10
10.9722919337
 20
5.5527794624
 30
0.0
 10
10.935179199
 20
5.5571074405
 30
0.0
 10
10.8985451008
 20
5.5631408191
 30
0.0
 10
10.8625459847
 20
5.5708539474
 30
0.0
 10
10.8273354732
 20
5.580214046
 30
0.0
 10
10.7930638131
 20
5.5911813577
 30
0.0
 10
10.7598772348
 20
5.603709336
 30
0.0
 10
10.7279173449
 20
5.6177448491
 30
0.0
 10
10.6973205298
 20
5.6332284334
 30
0.0
 10
10.6682174065
 20
5.6500945509
 30
0.0
 10
10.6407322884
 20
5.6682718878
 30
0.0
 10
10.6149827109
 20
5.6876836592
 30
0.0
 10
10.5910789713
 20
5.7082479287
 30
0.0
 10
10.569123736
 20
5.7298779298
 30
0.0
 10
10.5492116573
 20
5.7524823803
 30
0.0
 10
10.5314290364
 20
5.77596578
 30
0.0
 10
10.5158534816
 20
5.8002286946
 30
0.0
 10
10.5025535704
 20
5.8251679991
 30
0.0
 10
10.4915884754
 20
5.8506772351
 30
0.0
 10
10.4830075504
 20
5.8766465558
 30
0.0
 10
10.4768498783
 20
5.9029644126
 30
0.0
 10
10.4731437888
 20
5.9295131902
 30
0.0
 10
10.4723183714
 20
5.9473088585
 30
0.0
 10
10.4723183542
 20
5.9561823608
 30
0.0
  0
SPLINE
  5
2D0
100
AcDbEntity
  8
0
100
AcDbSpline
 62
7
  6
CONTINUOUS
 70
0
 71
3
 72
21
 73
17
 74
0
 42
0.0000001
 43
0.0000001
 44
0.0000000001
 40
0.0
 40
0.0
 40
0.0
 40
0.0
 40
0.1361706429
 40
0.2683752826
 40
0.3330750209
 40
0.3968787776
 40
0.459835029
 40
0.5220003217
 40
0.5834390887
 40
0.6442232364
 40
0.7044316637
 40
0.7641497057
 40
0.8234682757
 40
0.8824829464
 40
0.9412929537
 40
1.0
 40
1.0
 40
1.0
 40
1.0
 10
11.4976595037
 20
6.8736648659
 30
0.0
 10
11.5075054451
 20
6.8648950925
 30
0.0
 10
11.5261935706
 20
6.8467833581
 30
0.0
 10
11.5472562838
 20
6.8222938788
 30
0.0
 10
11.5622894422
 20
6.8020030893
 30
0.0
 10
11.5725796253
 20
6.7865726342
 30
0.0
 10
11.5819461253
 20
6.7708496022
 30
0.0
 10
11.5903724515
 20
6.754861276
 30
0.0
 10
11.5978435339
 20
6.7386358468
 30
0.0
 10
11.6043460051
 20
6.7222018448
 30
0.0
 10
11.6098681059
 20
6.7055882254
 30
0.0
 10
11.6143998989
 20
6.6888243222
 30
0.0
 10
11.617933223
 20
6.6719398568
 30
0.0
 10
11.6204616306
 20
6.6549645226
 30
0.0
 10
11.621980477
 20
6.6379292278
 30
0.0
 10
11.6223183343
 20
6.6265472832
 30
0.0
 10
11.6223183238
 20
6.6208627351
 30
0.0
  0
SPLINE
  5
2D1
100
AcDbEntity
  8
0
100
AcDbSpline
 62
9
  6
CONTINUOUS
 70
0
 71
3
 72
31
 73
27
 74
0
 42
0.0000001
 43
0.0000001
 44
0.0000000001
 40
0.0
 40
0.0
 40
0.0
 40
0.0
 40
0.0251788573
 40
0.050438338
 40
0.0758572699
 40
0.1015109853
 40
0.1274698025
 40
0.1537977504
 40
0.18055157
 40
0.2077800032
 40
0.2355233538
 40
0.2638132933
 40
0.2926728716
 40
0.3221166928
 40
0.3827520097
 40
0.4139567758
 40
0.4457269911
 40
0.4780409986
 40
0.5108713938
 40
0.5779290544
 40
0.6466040935
 40
0.7165233082
 40
0.7872707062
 40
0.8584028391
 40
0.9294637153
 40
1.0
 40
1.0
 40
1.0
 40
1.0
 10
10.5948183454
 20
6.909271898
 30
0.0
 10
10.5948183624
 20
6.9032196709
 30
0.0
 10
10.5953057192
 20
6.8910902381
 30
0.0
 10
10.5974952984
 20
6.8729698912
 30
0.0
 10
10.6011362505
 20
6.8549672555
 30
0.0
 10
10.6062161849
 20
6.8371426189
 30
0.0
 10
10.6127179
 20
6.8195535003
 30
0.0
 10
10.6206195524
 20
6.8022569316
 30
0.0
 10
10.6298948063
 20
6.7853086073
 30
0.0
 10
10.6405129647
 20
6.7687629392
 30
0.0
 10
10.6524391877
 20
6.7526728161
 30
0.0
 10
10.6656343344
 20
6.7370897425
 30
0.0
 10
10.6800562202
 20
6.7220627788
 30
0.0
 10
10.7010590674
 20
6.7026466005
 30
0.0
 10
10.7241596575
 20
6.6847463184
 30
0.0
 10
10.7490144901
 20
6.668449747
 30
0.0
 10
10.768795681
 20
6.6568823047
 30
0.0
 10
10.7894701425
 20
6.6461273232
 30
0.0
 10
10.8183396475
 20
6.6328233869
 30
0.0
 10
10.8562909785
 20
6.6184609145
 30
0.0
 10
10.9039368836
 20
6.6050722274
 30
0.0
 10
10.953410673
 20
6.595572653
 30
0.0
 10
11.00407938
 20
6.5900827493
 30
0.0
 10
11.0552998599
 20
6.588671561
 30
0.0
 10
11.1064150663
 20
6.5913561513
 30
0.0
 10
11.1401936543
 20
6.5958819076
 30
0.0
 10
11.1568904109
 20
6.5988284967
 30
0.0
  0
SPLINE
  5
2D2
100
AcDbEntity
  8
0
100
AcDbSpline
 62
7
  6
CONTINUOUS
 70
0
 71
3
 72
13
 73
9
 74
0
 42
0.0000001
 43
0.0000001
 44
0.0000000001
 40
0.0
 40
0.0
 40
0.0
 40
0.0
 40
0.1222453218
 40
0.2449420238
 40
0.368270801
 40
0.4924057983
 40
0.7436609038
 40
1.0
 40
1.0
 40
1.0
 40
1.0
 10
10.5855318958
 20
6.5895246016
 30
0.0
 10
10.5858697588
 20
6.5938203227
 30
0.0
 10
10.586786513
 20
6.6024106795
 30
0.0
 10
10.588876247
 20
6.6152286895
 30
0.0
 10
10.5916792408
 20
6.6279786488
 30
0.0
 10
10.5963793413
 20
6.6449254736
 30
0.0
 10
10.6040500534
 20
6.6658762194
 30
0.0
 10
10.6119142109
 20
6.6819858562
 30
0.0
 10
10.6162686379
 20
6.689903011
 30
0.0
  0
SPLINE
  5
2D3
100
AcDbEntity
  8
0
100
AcDbSpline
 62
7
  6
CONTINUOUS
 70
0
 71
3
 72
9
 73
5
 74
0
 42
0.0000001
 43
0.0000001
 44
0.0000000001
 40
0.0
 40
0.0
 40
0.0
 40
0.0
 40
0.4938917513
 40
1.0
 40
1.0
 40
1.0
 40
1.0
 10
10.6162686379
 20
6.689903011
 30
0.0
 10
10.6204850158
 20
6.697569167
 30
0.0
 10
10.6297588885
 20
6.7126953362
 30
0.0
 10
10.6403393514
 20
6.7269339691
 30
0.0
 10
10.6459823542
 20
6.7339008903
 30
0.0
  0
SPLINE
  5
2D4
100
AcDbEntity
  8
0
100
AcDbSpline
 62
7
  6
CONTINUOUS
 70
0
 71
3
 72
15
 73
11
 74
0
 42
0.0000001
 43
0.0000001
 44
0.0000000001
 40
0.0
 40
0.0
 40
0.0
 40
0.0
 40
0.1194658493
 40
0.2397611983
 40
0.3613054336
 40
0.4844883429
 40
0.6096632157
 40
0.7371387843
 40
0.8671809707
 40
1.0
 40
1.0
 40
1.0
 40
1.0
 10
10.6416010742
 20
7.143573015
 30
0.0
 10
10.6420105778
 20
7.138084818
 30
0.0
 10
10.6433061165
 20
7.1270999725
 30
0.0
 10
10.6466532122
 20
7.1107766036
 30
0.0
 10
10.6513964829
 20
7.0946237583
 30
0.0
 10
10.6575182677
 20
7.0787014678
 30
0.0
 10
10.6649962117
 20
7.0630667547
 30
0.0
 10
10.6738033664
 20
7.047775423
 30
0.0
 10
10.6839075588
 20
7.0328830061
 30
0.0
 10
10.691403755
 20
7.0233584747
 30
0.0
 10
10.6953467171
 20
7.0186797703
 30
0.0
  0
SPLINE
  5
2D5
100
AcDbEntity
  8
0
100
AcDbSpline
 62
9
  6
CONTINUOUS
 70
0
 71
3
 72
11
 73
7
 74
0
 42
0.0000001
 43
0.0000001
 44
0.0000000001
 40
0.0
 40
0.0
 40
0.0
 40
0.0
 40
0.2512352614
 40
0.5019338738
 40
0.7516326633
 40
1.0
 40
1.0
 40
1.0
 40
1.0
 10
10.2098183417
 20
6.8072409816
 30
0.0
 10
10.2041593951
 20
6.9459590172
 30
0.0
 10
10.1931006449
 20
7.2231089639
 30
0.0
 10
10.1774979412
 20
7.6381708982
 30
0.0
 10
10.1631452442
 20
8.0516923433
 30
0.0
 10
10.1545656636
 20
8.3267923515
 30
0.0
 10
10.1505724677
 20
8.4639828393
 30
0.0
  0
SPLINE
  5
2D6
100
AcDbEntity
  8
0
100
AcDbSpline
 62
9
  6
CONTINUOUS
 70
0
 71
3
 72
15
 73
11
 74
0
 42
0.0000001
 43
0.0000001
 44
0.0000000001
 40
0.0
 40
0.0
 40
0.0
 40
0.0
 40
0.1261938701
 40
0.2520460117
 40
0.3775547919
 40
0.5027197155
 40
0.6275428158
 40
0.7520270721
 40
0.8761774909
 40
1.0
 40
1.0
 40
1.0
 40
1.0
 10
10.1376852305
 20
8.9504523383
 30
0.0
 10
10.1364324331
 20
9.0032621141
 30
0.0
 10
10.1340303033
 20
9.1087410634
 30
0.0
 10
10.1307453537
 20
9.2667510986
 30
0.0
 10
10.1277899015
 20
9.4243368594
 30
0.0
 10
10.1251706959
 20
9.5814977563
 30
0.0
 10
10.1228951835
 20
9.7382351032
 30
0.0
 10
10.120972085
 20
9.894552473
 30
0.0
 10
10.1193987778
 20
10.0504548765
 30
0.0
 10
10.1185787252
 20
10.1542529656
 30
0.0
 10
10.1182256583
 20
10.2060837473
 30
0.0
  0
SPLINE
  5
2D7
100
AcDbEntity
  8
0
100
AcDbSpline
 62
9
  6
CONTINUOUS
 70
0
 71
3
 72
9
 73
5
 74
0
 42
0.0000001
 43
0.0000001
 44
0.0000000001
 40
0.0
 40
0.0
 40
0.0
 40
0.0
 40
0.502135761
 40
1.0
 40
1.0
 40
1.0
 40
1.0
 10
10.272266381
 20
6.8098088009
 30
0.0
 10
10.2610924057
 20
7.0858139136
 30
0.0
 10
10.2386281524
 20
7.6354675943
 30
0.0
 10
10.2166159242
 20
8.1851399227
 30
0.0
 10
10.2059872391
 20
8.4588149973
 30
0.0
  0
SPLINE
  5
2D8
100
AcDbEntity
  8
0
100
AcDbSpline
 62
9
  6
CONTINUOUS
 70
0
 71
3
 72
13
 73
9
 74
0
 42
0.0000001
 43
0.0000001
 44
0.0000000001
 40
0.0
 40
0.0
 40
0.0
 40
0.0
 40
0.252277058
 40
0.3778456592
 40
0.5030317524
 40
0.6278365419
 40
0.7522624156
 40
1.0
 40
1.0
 40
1.0
 40
1.0
 10
10.1870619783
 20
8.9568440537
 30
0.0
 10
10.1832379963
 20
9.0600520283
 30
0.0
 10
10.1776134398
 20
9.2146346777
 30
0.0
 10
10.1703735002
 20
9.4204417406
 30
0.0
 10
10.1651013085
 20
9.5741002791
 30
0.0
 10
10.159993291
 20
9.727296296
 30
0.0
 10
10.153431553
 20
9.9306425079
 30
0.0
 10
10.148783767
 20
10.0829304642
 30
0.0
 10
10.1458278665
 20
10.1843077734
 30
0.0
  0
SPLINE
  5
2D9
100
AcDbEntity
  8
0
100
AcDbSpline
 62
7
  6
CONTINUOUS
 70
0
 71
3
 72
29
 73
25
 74
0
 42
0.0000001
 43
0.0000001
 44
0.0000000001
 40
0.0
 40
0.0
 40
0.0
 40
0.0
 40
0.0260116222
 40
0.0521330762
 40
0.0784153896
 40
0.1049071691
 40
0.1316539592
 40
0.1586977312
 40
0.186076421
 40
0.2138235249
 40
0.2419678718
 40
0.2705335294
 40
0.2995397363
 40
0.3290008512
 40
0.3893040968
 40
0.451484369
 40
0.5154951419
 40
0.5812285004
 40
0.6485229823
 40
0.7171713219
 40
0.7869286663
 40
0.8575199643
 40
0.9286474831
 40
1.0
 40
1.0
 40
1.0
 40
1.0
 10
11.4530449209
 20
7.168437335
 30
0.0
 10
11.4527181067
 20
7.1637591257
 30
0.0
 10
11.4517566174
 20
7.1544015311
 30
0.0
 10
11.4494025978
 20
7.1404520158
 30
0.0
 10
11.4461399418
 20
7.1265972459
 30
0.0
 10
11.4419762984
 20
7.11286865
 30
0.0
 10
11.4369213952
 20
7.099296276
 30
0.0
 10
11.4309869522
 20
7.0859100235
 30
0.0
 10
11.4241866192
 20
7.0727392501
 30
0.0
 10
11.4165360395
 20
7.0598127818
 30
0.0
 10
11.4080527611
 20
7.0471587895
 30
0.0
 10
11.3987562135
 20
7.0348049028
 30
0.0
 10
11.3886672322
 20
7.0227777288
 30
0.0
 10
11.3740785425
 20
7.007092633
 30
0.0
 10
11.3539381341
 20
6.9884553265
 30
0.0
 10
11.3272112599
 20
6.9679826307
 30
0.0
 10
11.2979755432
 20
6.949395955
 30
0.0
 10
11.2664953497
 20
6.9328536041
 30
0.0
 10
11.2330525221
 20
6.9184937963
 30
0.0
 10
11.1979466768
 20
6.9064365776
 30
0.0
 10
11.1614922937
 20
6.896781747
 30
0.0
 10
11.124015293
 20
6.8896079552
 30
0.0
 10
11.085853453
 20
6.88497205
 30
0.0
 10
11.0601798436
 20
6.8835962181
 30
0.0
 10
11.0473183383
 20
6.8833389507
 30
0.0
  0
LINE
  5
2DA
100
AcDbEntity
  8
0
100
AcDbLine
 62
9
  6
CONTINUOUS
 10
10.2816248172
 20
6.5814728409
 11
10.2723703406
 21
6.8072409815
  0
LINE
  5
2DB
100
AcDbEntity
  8
0
100
AcDbLine
 62
9
  6
CONTINUOUS
 10
11.8130220693
 20
6.5817186928
 11
11.822266336
 21
6.8072409815
  0
SPLINE
  5
2DC
100
AcDbEntity
  8
0
100
AcDbSpline
 62
9
  6
CONTINUOUS
 70
0
 71
3
 72
9
 73
5
 74
0
 42
0.0000001
 43
0.0000001
 44
0.0000000001
 40
0.0
 40
0.0
 40
0.0
 40
0.0
 40
0.5021357608
 40
1.0
 40
1.0
 40
1.0
 40
1.0
 10
11.8223702955
 20
6.8098088009
 30
0.0
 10
11.8335442794
 20
7.0858139136
 30
0.0
 10
11.8560085285
 20
7.6354675957
 30
0.0
 10
11.8780207303
 20
8.1851399262
 30
0.0
 10
11.8886494343
 20
8.4588150008
 30
0.0
  0
SPLINE
  5
2DD
100
AcDbEntity
  8
0
100
AcDbSpline
 62
9
  6
CONTINUOUS
 70
0
 71
3
 72
13
 73
9
 74
0
 42
0.0000001
 43
0.0000001
 44
0.0000000001
 40
0.0
 40
0.0
 40
0.0
 40
0.0
 40
0.2522770739
 40
0.3778456777
 40
0.5030317671
 40
0.6278365489
 40
0.7522624148
 40
1.0
 40
1.0
 40
1.0
 40
1.0
 10
11.9075746861
 20
8.9568440532
 30
0.0
 10
11.9113986432
 20
9.0600520328
 30
0.0
 10
11.9170231975
 20
9.2146346863
 30
0.0
 10
11.9242632079
 20
9.420441748
 30
0.0
 10
11.9295354348
 20
9.5741002781
 30
0.0
 10
11.9346434531
 20
9.7272962836
 30
0.0
 10
11.9412050962
 20
9.930642488
 30
0.0
 10
11.9458527936
 20
10.0829304405
 30
0.0
 10
11.9488087178
 20
10.184307747
 30
0.0
  0
SPLINE
  5
2DE
100
AcDbEntity
  8
0
100
AcDbSpline
 62
7
  6
CONTINUOUS
 70
0
 71
3
 72
21
 73
17
 74
0
 42
0.0000001
 43
0.0000001
 44
0.0000000001
 40
0.0
 40
0.0
 40
0.0
 40
0.0
 40
0.1178092513
 40
0.1786819676
 40
0.2406488707
 40
0.3035396002
 40
0.367169229
 40
0.431342088
 40
0.4958550292
 40
0.5605008853
 40
0.6250719784
 40
0.6893632457
 40
0.7531757717
 40
0.8163201527
 40
0.8786198041
 40
1.0
 40
1.0
 40
1.0
 40
1.0
 10
10.8143017536
 20
6.965624589
 30
0.0
 10
10.8306507859
 20
6.9570302315
 30
0.0
 10
10.8564184276
 20
6.945759914
 30
0.0
 10
10.8922785347
 20
6.9339863284
 30
0.0
 10
10.9204732317
 20
6.9266265583
 30
0.0
 10
10.9494794499
 20
6.9208897478
 30
0.0
 10
10.979114866
 20
6.9168152134
 30
0.0
 10
11.0091886804
 20
6.9144334045
 30
0.0
 10
11.0395084637
 20
6.9137635168
 30
0.0
 10
11.0698798986
 20
6.9148139451
 30
0.0
 10
11.1001083473
 20
6.9175820561
 30
0.0
 10
11.1300003932
 20
6.9220544005
 30
0.0
 10
11.1593636917
 20
6.9282062332
 30
0.0
 10
11.1880134224
 20
6.9360037864
 30
0.0
 10
11.2246802951
 20
6.9484190532
 30
0.0
 10
11.2510777225
 20
6.9601953876
 30
0.0
 10
11.2678805338
 20
6.9691292784
 30
0.0
  0
SPLINE
  5
2DF
100
AcDbEntity
  8
0
100
AcDbSpline
 62
9
  6
CONTINUOUS
 70
0
 71
3
 72
9
 73
5
 74
0
 42
0.0000001
 43
0.0000001
 44
0.0000000001
 40
0.0
 40
0.0
 40
0.0
 40
0.0
 40
0.2468332766
 40
1.0
 40
1.0
 40
1.0
 40
1.0
 10
10.2451611418
 20
6.4814021058
 30
0.0
 10
10.2634173565
 20
6.4888551742
 30
0.0
 10
10.3378564828
 20
6.5178707812
 30
0.0
 10
10.4141053538
 20
6.5422127088
 30
0.0
 10
10.4721714173
 20
6.5579803985
 30
0.0
  0
SPLINE
  5
2E0
100
AcDbEntity
  8
0
100
AcDbSpline
 62
9
  6
CONTINUOUS
 70
0
 71
3
 72
42
 73
38
 74
0
 42
0.0000001
 43
0.0000001
 44
0.0000000001
 40
0.0
 40
0.0
 40
0.0
 40
0.0
 40
0.0751709754
 40
0.1120694926
 40
0.1484468514
 40
0.1842661659
 40
0.2194960617
 40
0.2541112424
 40
0.2880930609
 40
0.3214300839
 40
0.3378570036
 40
0.3541220287
 40
0.3861667056
 40
0.4175807999
 40
0.4483866723
 40
0.4786159877
 40
0.5083097839
 40
0.5375183319
 40
0.566300751
 40
0.5947243424
 40
0.6228636172
 40
0.650799017
 40
0.6786153613
 40
0.7064000776
 40
0.7342412928
 40
0.7622258864
 40
0.7904376113
 40
0.8189553789
 40
0.8333544755
 40
0.8478566854
 40
0.8624698995
 40
0.877201479
 40
0.9070419641
 40
0.9374305157
 40
0.9528447037
 40
0.9684095099
 40
1.0
 40
1.0
 40
1.0
 40
1.0
 10
11.6224391275
 20
6.5579874961
 30
0.0
 10
11.6780953687
 20
6.5428749236
 30
0.0
 10
11.7601885327
 20
6.5168326846
 30
0.0
 10
11.8662137814
 20
6.4751712826
 30
0.0
 10
11.9426603067
 20
6.441013492
 30
0.0
 10
12.0162663854
 20
6.4038648942
 30
0.0
 10
12.0868018427
 20
6.3638414387
 30
0.0
 10
12.154042477
 20
6.3210691399
 30
0.0
 10
12.2177738388
 20
6.2756835786
 30
0.0
 10
12.2680378671
 20
6.2356057601
 30
0.0
 10
12.3062716904
 20
6.2023641025
 30
0.0
 10
12.3428031022
 20
6.1687075012
 30
0.0
 10
12.3859552835
 20
6.1253045557
 30
0.0
 10
12.433747065
 20
6.0709646903
 30
0.0
 10
12.4771396487
 20
6.0147962992
 30
0.0
 10
12.515992242
 20
5.9569773246
 30
0.0
 10
12.5501793346
 20
5.897690061
 30
0.0
 10
12.5795894474
 20
5.8371222933
 30
0.0
 10
12.6041260496
 20
5.7754664701
 30
0.0
 10
12.6237079504
 20
5.7129193369
 30
0.0
 10
12.6382699187
 20
5.6496813708
 30
0.0
 10
12.6477630997
 20
5.5859560847
 30
0.0
 10
12.6521554678
 20
5.5219492588
 30
0.0
 10
12.6514321059
 20
5.4578679749
 30
0.0
 10
12.6455955309
 20
5.3939198667
 30
0.0
 10
12.6346652764
 20
5.3303112254
 30
0.0
 10
12.6186790745
 20
5.2672493248
 30
0.0
 10
12.6012411946
 20
5.2154805361
 30
0.0
 10
12.5848655912
 20
5.1745763804
 30
0.0
 10
12.57132119
 20
5.1440542903
 30
0.0
 10
12.5565655646
 20
5.1138152789
 30
0.0
 10
12.535203029
 20
5.0737378487
 30
0.0
 10
12.5054765163
 20
5.0244484618
 30
0.0
 10
12.4721758321
 20
4.9768647592
 30
0.0
 10
12.4433262765
 20
4.939648481
 30
0.0
 10
12.4127111011
 20
4.9026668057
 30
0.0
 10
12.3883258398
 20
4.8759014327
 30
0.0
 10
12.3714745709
 20
4.8584819933
 30
0.0
  0
SPLINE
  5
2E1
100
AcDbEntity
  8
0
100
AcDbSpline
 62
9
  6
CONTINUOUS
 70
0
 71
3
 72
15
 73
11
 74
0
 42
0.0000001
 43
0.0000001
 44
0.0000000001
 40
0.0
 40
0.0
 40
0.0
 40
0.0
 40
0.1170376393
 40
0.2364020326
 40
0.358101428
 40
0.4821152717
 40
0.6083959755
 40
0.7368711155
 40
0.8674442106
 40
1.0
 40
1.0
 40
1.0
 40
1.0
 10
12.3714745709
 20
4.8584819933
 30
0.0
 10
12.3544291315
 20
4.8408618364
 30
0.0
 10
12.3189140468
 20
4.8063055442
 30
0.0
 10
12.2622011798
 20
4.7571534783
 30
0.0
 10
12.201698144
 20
4.7103217296
 30
0.0
 10
12.1375965544
 20
4.6659577326
 30
0.0
 10
12.0700960297
 20
4.6241980093
 30
0.0
 10
11.9994069516
 20
4.5851718953
 30
0.0
 10
11.9257516216
 20
4.5490008308
 30
0.0
 10
11.875182044
 20
4.5270209192
 30
0.0
 10
11.8494755348
 20
4.5165262808
 30
0.0
  0
SPLINE
  5
2E2
100
AcDbEntity
  8
0
100
AcDbSpline
 62
9
  6
CONTINUOUS
 70
0
 71
3
 72
29
 73
25
 74
0
 42
0.0000001
 43
0.0000001
 44
0.0000000001
 40
0.0
 40
0.0
 40
0.0
 40
0.0
 40
0.0723997304
 40
0.143516807
 40
0.2132683356
 40
0.2815896009
 40
0.3484372776
 40
0.4137911756
 40
0.4776561642
 40
0.5400638131
 40
0.6010737912
 40
0.6607746684
 40
0.6901759435
 40
0.7192964737
 40
0.7481553784
 40
0.776773429
 40
0.8051729656
 40
0.833377802
 40
0.8614130878
 40
0.8893051581
 40
0.9170813763
 40
0.9447699499
 40
0.972399729
 40
1.0
 40
1.0
 40
1.0
 40
1.0
 10
11.8573183383
 20
4.4690782324
 30
0.0
 10
11.8876674757
 20
4.4814682159
 30
0.0
 10
11.9471976505
 20
4.5076113388
 30
0.0
 10
12.0333987993
 20
4.551233838
 30
0.0
 10
12.1153941403
 20
4.5987524592
 30
0.0
 10
12.1928303295
 20
4.6499650975
 30
0.0
 10
12.2653770085
 20
4.7046556406
 30
0.0
 10
12.3327231727
 20
4.7625933145
 30
0.0
 10
12.3945795991
 20
4.8235333066
 30
0.0
 10
12.4506799894
 20
4.8872194994
 30
0.0
 10
12.5007795167
 20
4.9533792975
 30
0.0
 10
12.5375380714
 20
5.0106414122
 30
0.0
 10
12.5636667857
 20
5.0573737902
 30
0.0
 10
12.5815421395
 20
5.0926825121
 30
0.0
 10
12.5977739365
 20
5.1283868521
 30
0.0
 10
12.6123449994
 20
5.1644491537
 30
0.0
 10
12.6252393416
 20
5.2008306144
 30
0.0
 10
12.6364430319
 20
5.2374922114
 30
0.0
 10
12.6459438825
 20
5.2743945501
 30
0.0
 10
12.6537314778
 20
5.3114979995
 30
0.0
 10
12.6597973262
 20
5.3487625609
 30
0.0
 10
12.6641348466
 20
5.3861483966
 30
0.0
 10
12.6667392811
 20
5.4236141901
 30
0.0
 10
12.6673183123
 20
5.4486248553
 30
0.0
 10
12.6673183231
 20
5.4611215783
 30
0.0
  0
SPLINE
  5
2E3
100
AcDbEntity
  8
0
100
AcDbSpline
 62
7
  6
CONTINUOUS
 70
0
 71
3
 72
29
 73
25
 74
0
 42
0.0000001
 43
0.0000001
 44
0.0000000001
 40
0.0
 40
0.0
 40
0.0
 40
0.0
 40
0.0259946323
 40
0.0521132918
 40
0.0784053255
 40
0.1049175547
 40
0.1316936764
 40
0.1587737779
 40
0.1861939237
 40
0.2139858264
 40
0.2421766136
 40
0.2707887685
 40
0.2998400921
 40
0.3293436776
 40
0.3897200924
 40
0.4519516134
 40
0.515987368
 40
0.5817175457
 40
0.6489808746
 40
0.7175721399
 40
0.7872500181
 40
0.8577441934
 40
0.9287625182
 40
1.0
 40
1.0
 40
1.0
 40
1.0
 10
11.452698858
 20
7.2667158118
 30
0.0
 10
11.4522816467
 20
7.2620857005
 30
0.0
 10
11.451145111
 20
7.2528276881
 30
0.0
 10
11.4485483538
 20
7.2390391023
 30
0.0
 10
11.4450624232
 20
7.2253520927
 30
0.0
 10
11.4406953078
 20
7.2117970869
 30
0.0
 10
11.4354569358
 20
7.1984031778
 30
0.0
 10
11.429359248
 20
7.1851992698
 30
0.0
 10
11.4224160143
 20
7.1722137259
 30
0.0
 10
11.4146428246
 20
7.1594744321
 30
0.0
 10
11.4060571515
 20
7.147008604
 30
0.0
 10
11.3966782906
 20
7.1348429094
 30
0.0
 10
11.3865268578
 20
7.1230030283
 30
0.0
 10
11.3718815081
 20
7.1075683247
 30
0.0
 10
11.3517205755
 20
7.0892376424
 30
0.0
 10
11.3250394508
 20
7.0691099099
 30
0.0
 10
11.2959165398
 20
7.0508438832
 30
0.0
 10
11.2646100614
 20
7.0345922066
 30
0.0
 10
11.2313949608
 20
7.020488013
 30
0.0
 10
11.1965631086
 20
7.0086469884
 30
0.0
 10
11.1604206023
 20
6.9991651586
 30
0.0
 10
11.1232844104
 20
6.9921182607
 30
0.0
 10
11.0854828602
 20
6.9875609522
 30
0.0
 10
11.0600558518
 20
6.9862044416
 30
0.0
 10
11.0473183383
 20
6.9859484935
 30
0.0
  0
SPLINE
  5
2E4
100
AcDbEntity
  8
0
100
AcDbSpline
 62
9
  6
CONTINUOUS
 70
0
 71
3
 72
36
 73
32
 74
0
 42
0.0000001
 43
0.0000001
 44
0.0000000001
 40
0.0
 40
0.0
 40
0.0
 40
0.0
 40
0.0739852439
 40
0.1103338812
 40
0.1462247051
 40
0.2165618472
 40
0.2510004591
 40
0.2849391848
 40
0.3512956479
 40
0.383736196
 40
0.4156905994
 40
0.4471721896
 40
0.4781984606
 40
0.5087911074
 40
0.5389760134
 40
0.5687831805
 40
0.5982465913
 40
0.627403999
 40
0.6562966385
 40
0.6849688572
 40
0.7134676681
 40
0.7418422305
 40
0.7701432686
 40
0.7984224441
 40
0.8267316989
 40
0.8551225894
 40
0.883645633
 40
0.9123496863
 40
0.941281373
 40
0.9704845756
 40
1.0
 40
1.0
 40
1.0
 40
1.0
 10
12.0484360611
 20
3.774667227
 30
0.0
 10
12.0974502048
 20
3.7946771674
 30
0.0
 10
12.1695603816
 20
3.8270372381
 30
0.0
 10
12.2625556646
 20
3.8750364977
 30
0.0
 10
12.3514302345
 20
3.9251737191
 30
0.0
 10
12.4362534623
 20
3.9795915989
 30
0.0
 10
12.5164049825
 20
4.0381835285
 30
0.0
 10
12.5918279025
 20
4.0982705177
 30
0.0
 10
12.662314751
 20
4.1621530142
 30
0.0
 10
12.7271921527
 20
4.2296038494
 30
0.0
 10
12.7724054563
 20
4.2812396058
 30
0.0
 10
12.8144483249
 20
4.3342013526
 30
0.0
 10
12.853244387
 20
4.3883935868
 30
0.0
 10
12.8887212482
 20
4.4437167497
 30
0.0
 10
12.9208129934
 20
4.5000695548
 30
0.0
 10
12.9494597024
 20
4.5573485713
 30
0.0
 10
12.9746077464
 20
4.615448533
 30
0.0
 10
12.9962098786
 20
4.6742624657
 30
0.0
 10
13.0142253755
 20
4.733681876
 30
0.0
 10
13.0286201601
 20
4.7935969412
 30
0.0
 10
13.0393669202
 20
4.8538967201
 30
0.0
 10
13.0464452114
 20
4.9144693808
 30
0.0
 10
13.0498415409
 20
4.9752024471
 30
0.0
 10
13.049549427
 20
5.0359830572
 30
0.0
 10
13.0455694261
 20
5.0966982385
 30
0.0
 10
13.0379091383
 20
5.1572351618
 30
0.0
 10
13.0265831422
 20
5.2174814775
 30
0.0
 10
13.0116130496
 20
5.2773253221
 30
0.0
 10
12.9930269736
 20
5.3366565079
 30
0.0
 10
12.9708611024
 20
5.395363174
 30
0.0
 10
12.9538203157
 20
5.433797489
 30
0.0
 10
12.9447348239
 20
5.4528636409
 30
0.0
  0
SPLINE
  5
2E5
100
AcDbEntity
  8
0
100
AcDbSpline
 62
9
  6
CONTINUOUS
 70
0
 71
3
 72
69
 73
65
 74
0
 42
0.0000001
 43
0.0000001
 44
0.0000000001
 40
0.0
 40
0.0
 40
0.0
 40
0.0
 40
0.0343847342
 40
0.0518513372
 40
0.0694757472
 40
0.0872395314
 40
0.1051233286
 40
0.1231070296
 40
0.1411699007
 40
0.1592907225
 40
0.1774479224
 40
0.1956197079
 40
0.2137841982
 40
0.2319195567
 40
0.2500041228
 40
0.2680165443
 40
0.2859359112
 40
0.3037418896
 40
0.321414858
 40
0.3389360452
 40
0.3562876697
 40
0.3734530818
 40
0.3904169083
 40
0.4071651986
 40
0.4236855746
 40
0.4399673803
 40
0.4560018347
 40
0.4717821832
 40
0.4873038472
 40
0.5025645707
 40
0.5175645588
 40
0.5323066046
 40
0.5467962002
 40
0.5610416245
 40
0.5750540007
 40
0.5888473149
 40
0.602438388
 40
0.6158467913
 40
0.6290946983
 40
0.6422066683
 40
0.6552093581
 40
0.6681311642
 40
0.6810018031
 40
0.6938518408
 40
0.7067121888
 40
0.7196135853
 40
0.7325860843
 40
0.7456585718
 40
0.7588583277
 40
0.7722106458
 40
0.7857385225
 40
0.7994624163
 40
0.813400077
 40
0.8275664416
 40
0.8419735873
 40
0.8566307366
 40
0.871544302
 40
0.8867179653
 40
0.9021527807
 40
0.9178472972
 40
0.9337976969
 40
0.949997926
 40
0.9664398867
 40
1.0
 40
1.0
 40
1.0
 40
1.0
 10
11.8494755348
 20
4.5165262808
 30
0.0
 10
11.8034941629
 20
4.4977544643
 30
0.0
 10
11.7329843635
 20
4.472212986
 30
0.0
 10
11.6368380237
 20
4.4434175382
 30
0.0
 10
11.5629211643
 20
4.4242444563
 30
0.0
 10
11.4877667454
 20
4.4076584894
 30
0.0
 10
11.411552596
 20
4.3936984961
 30
0.0
 10
11.3344627526
 20
4.3823982175
 30
0.0
 10
11.2566823713
 20
4.3737847038
 30
0.0
 10
11.1783985422
 20
4.3678786445
 30
0.0
 10
11.099799498
 20
4.3646942106
 30
0.0
 10
11.0210742512
 20
4.364239047
 30
0.0
 10
10.9424121141
 20
4.3665142462
 30
0.0
 10
10.8640022477
 20
4.3715143473
 30
0.0
 10
10.7860332043
 20
4.3792273492
 30
0.0
 10
10.7086924725
 20
4.3896347409
 30
0.0
 10
10.6321660253
 20
4.4027115478
 30
0.0
 10
10.5566378721
 20
4.4184263944
 30
0.0
 10
10.4822896151
 20
4.4367415814
 30
0.0
 10
10.4093000135
 20
4.4576131819
 30
0.0
 10
10.337844555
 20
4.4809911515
 30
0.0
 10
10.2680950358
 20
4.5068194536
 30
0.0
 10
10.2002191517
 20
4.5350361997
 30
0.0
 10
10.1343801004
 20
4.5655738039
 30
0.0
 10
10.0707361967
 20
4.5983591513
 30
0.0
 10
10.0094405021
 20
4.6333137788
 30
0.0
 10
9.9506404695
 20
4.6703540679
 30
0.0
 10
9.8944776048
 20
4.7093914475
 30
0.0
 10
9.8410871457
 20
4.7503326062
 30
0.0
 10
9.7905977583
 20
4.7930797105
 30
0.0
 10
9.7431312524
 20
4.837530629
 30
0.0
 10
9.6988023129
 20
4.8835791581
 30
0.0
 10
9.6577182487
 20
4.9311152496
 30
0.0
 10
9.619978754
 20
4.9800252357
 30
0.0
 10
9.5856756785
 20
5.0301920525
 30
0.0
 10
9.5548928068
 20
5.0814954639
 30
0.0
 10
9.5277056377
 20
5.1338122853
 30
0.0
 10
9.5041811619
 20
5.1870166153
 30
0.0
 10
9.4843776358
 20
5.2409800807
 30
0.0
 10
9.4683443541
 20
5.2955721053
 30
0.0
 10
9.4561214252
 20
5.3506602109
 30
0.0
 10
9.4477395621
 20
5.4061103583
 30
0.0
 10
9.4432199023
 20
5.4617873295
 30
0.0
 10
9.4425738708
 20
5.5175551501
 30
0.0
 10
9.4458031027
 20
5.5732775377
 30
0.0
 10
9.4528994313
 20
5.6288183642
 30
0.0
 10
9.4638449448
 20
5.6840421109
 30
0.0
 10
9.4786121044
 20
5.7388143008
 30
0.0
 10
9.4971639118
 20
5.7930018952
 30
0.0
 10
9.5194541105
 20
5.846473648
 30
0.0
 10
9.5454274047
 20
5.8991004206
 30
0.0
 10
9.5750196887
 20
5.9507554595
 30
0.0
 10
9.6081582736
 20
6.0013146487
 30
0.0
 10
9.6447621113
 20
6.0506567446
 30
0.0
 10
9.6847420149
 20
6.0986636018
 30
0.0
 10
9.7280008809
 20
6.1452203961
 30
0.0
 10
9.7744339107
 20
6.1902158464
 30
0.0
 10
9.8239288618
 20
6.2335424478
 30
0.0
 10
9.8763662311
 20
6.2750966646
 30
0.0
 10
9.9316197617
 20
6.3147792864
 30
0.0
 10
9.9895557822
 20
6.3524951649
 30
0.0
 10
10.0500371062
 20
6.3881552723
 30
0.0
 10
10.1344381672
 20
6.433145978
 30
0.0
 10
10.2002825033
 20
6.4630804783
 30
0.0
 10
10.2451611418
 20
6.4814021058
 30
0.0
  0
SPLINE
  5
2E6
100
AcDbEntity
  8
0
100
AcDbSpline
 62
9
  6
CONTINUOUS
 70
0
 71
3
 72
47
 73
43
 74
0
 42
0.0000001
 43
0.0000001
 44
0.0000000001
 40
0.0
 40
0.0
 40
0.0
 40
0.0
 40
0.0330546032
 40
0.0665837071
 40
0.1005310927
 40
0.1348352811
 40
0.1694309101
 40
0.2042494258
 40
0.2392198688
 40
0.2742696685
 40
0.3093254175
 40
0.3443136461
 40
0.3791615942
 40
0.4137979924
 40
0.4481538383
 40
0.4821631974
 40
0.5157640069
 40
0.5488988941
 40
0.5815160297
 40
0.6135699698
 40
0.6450225464
 40
0.6758437481
 40
0.7060126016
 40
0.7355180627
 40
0.7500235131
 40
0.7643639567
 40
0.7785411596
 40
0.7925576453
 40
0.8201177267
 40
0.8470844826
 40
0.8603626924
 40
0.8735118389
 40
0.8865399334
 40
0.8994557309
 40
0.9122686901
 40
0.9249889345
 40
0.9376272075
 40
0.9501948082
 40
0.962703524
 40
0.9751655604
 40
0.987593457
 40
1.0
 40
1.0
 40
1.0
 40
1.0
 10
11.8573183383
 20
4.4931116836
 30
0.0
 10
11.8267847579
 20
4.4806464016
 30
0.0
 10
11.7646060543
 20
4.4571546535
 30
0.0
 10
11.6690597441
 20
4.4264983506
 30
0.0
 10
11.5709100277
 20
4.4002766318
 30
0.0
 10
11.4705706001
 20
4.3786000741
 30
0.0
 10
11.3684603496
 20
4.3615585426
 30
0.0
 10
11.265006638
 20
4.3492232728
 30
0.0
 10
11.1606421917
 20
4.341645545
 30
0.0
 10
11.0558036362
 20
4.338857043
 30
0.0
 10
10.9509295812
 20
4.34086938
 30
0.0
 10
10.8464587837
 20
4.3476741086
 30
0.0
 10
10.7428283142
 20
4.3592429599
 30
0.0
 10
10.6404716876
 20
4.375527585
 30
0.0
 10
10.5398170819
 20
4.3964601967
 30
0.0
 10
10.4412855126
 20
4.4219535679
 30
0.0
 10
10.3452890696
 20
4.4519015023
 30
0.0
 10
10.2522292629
 20
4.4861794937
 30
0.0
 10
10.162495265
 20
4.5246448954
 30
0.0
 10
10.0764623946
 20
4.5671380506
 30
0.0
 10
9.9944907551
 20
4.6134824332
 30
0.0
 10
9.9169228802
 20
4.6634863957
 30
0.0
 10
9.8440859699
 20
4.7169409935
 30
0.0
 10
9.7872603357
 20
4.7644500219
 30
0.0
 10
9.7445057327
 20
4.8039804948
 30
0.0
 10
9.7139854869
 20
4.8341781211
 30
0.0
 10
9.6848637016
 20
4.8650600064
 30
0.0
 10
9.6481504656
 20
4.9068653095
 30
0.0
 10
9.6058250994
 20
4.96066654
 30
0.0
 10
9.5681035532
 20
5.0169141278
 30
0.0
 10
9.5411141674
 20
5.0628592309
 30
0.0
 10
9.5225548028
 20
5.0975889771
 30
0.0
 10
9.5055962473
 20
5.1327265801
 30
0.0
 10
9.4902560608
 20
5.1682356453
 30
0.0
 10
9.4765506639
 20
5.2040787517
 30
0.0
 10
9.4644946713
 20
5.2402182741
 30
0.0
 10
9.4541008739
 20
5.276616151
 30
0.0
 10
9.4453803544
 20
5.3132340808
 30
0.0
 10
9.438342505
 20
5.3500334152
 30
0.0
 10
9.4329948142
 20
5.3869756122
 30
0.0
 10
9.4293429854
 20
5.4240206633
 30
0.0
 10
9.4280409455
 20
5.4487750954
 30
0.0
 10
9.4276741383
 20
5.4611482149
 30
0.0
  0
SPLINE
  5
2E7
100
AcDbEntity
  8
0
100
AcDbSpline
 62
9
  6
CONTINUOUS
 70
0
 71
3
 72
46
 73
42
 74
0
 42
0.0000001
 43
0.0000001
 44
0.0000000001
 40
0.0
 40
0.0
 40
0.0
 40
0.0
 40
0.0331256873
 40
0.0667311516
 40
0.1007587559
 40
0.1351455688
 40
0.1698246304
 40
0.204725716
 40
0.2397761659
 40
0.2749017014
 40
0.3100272366
 40
0.3450776867
 40
0.3799787723
 40
0.4146578337
 40
0.4490446455
 40
0.4830722489
 40
0.5166777944
 40
0.5498034015
 40
0.5823970421
 40
0.6144134335
 40
0.6458149631
 40
0.6765726026
 40
0.7066668485
 40
0.7360886079
 40
0.7648400727
 40
0.7929354558
 40
0.8204016208
 40
0.8339132778
 40
0.8472836915
 40
0.8605198914
 40
0.8736297036
 40
0.8866217318
 40
0.8995053292
 40
0.9122905559
 40
0.9249881298
 40
0.9376093717
 40
0.9501661401
 40
0.9626707538
 40
0.97513591
 40
0.987574597
 40
1.0
 40
1.0
 40
1.0
 40
1.0
 10
11.9998183383
 20
4.1612031361
 30
0.0
 10
11.9635475389
 20
4.1463956443
 30
0.0
 10
11.8896725697
 20
4.1185075662
 30
0.0
 10
11.7761316043
 20
4.0821734349
 30
0.0
 10
11.6594770324
 20
4.0511628014
 30
0.0
 10
11.5402105874
 20
4.0256089186
 30
0.0
 10
11.4188401702
 20
4.0056200792
 30
0.0
 10
11.2958840861
 20
3.9912812648
 30
0.0
 10
11.1718670195
 20
3.9826535422
 30
0.0
 10
11.0473183386
 20
3.9797735213
 30
0.0
 10
10.9227696557
 20
3.9826535382
 30
0.0
 10
10.7987525943
 20
3.9912812728
 30
0.0
 10
10.6757964934
 20
4.0056200711
 30
0.0
 10
10.5544261344
 20
4.0256089194
 30
0.0
 10
10.4351594947
 20
4.0511628419
 30
0.0
 10
10.3185055367
 20
4.0821732521
 30
0.0
 10
10.2049620225
 20
4.1185084114
 30
0.0
 10
10.0950134445
 20
4.1600141537
 30
0.0
 10
9.9891289211
 20
4.206514395
 30
0.0
 10
9.8877603531
 20
4.2578122046
 30
0.0
 10
9.7913404199
 20
4.3136903636
 30
0.0
 10
9.7002810648
 20
4.3739126965
 30
0.0
 10
9.6149715465
 20
4.438224762
 30
0.0
 10
9.53577757
 20
4.5063549534
 30
0.0
 10
9.463038504
 20
4.5780166805
 30
0.0
 10
9.3970703862
 20
4.652904008
 30
0.0
 10
9.3477028692
 20
4.7180988457
 30
0.0
 10
9.3119485035
 20
4.7715297329
 30
0.0
 10
9.2871339883
 20
4.8119857939
 30
0.0
 10
9.2642046625
 20
4.8529954586
 30
0.0
 10
9.2431848269
 20
4.8945154795
 30
0.0
 10
9.2240973856
 20
4.9365012579
 30
0.0
 10
9.2069629453
 20
4.9789078351
 30
0.0
 10
9.1918001059
 20
5.0216897306
 30
0.0
 10
9.1786253835
 20
5.0648010489
 30
0.0
 10
9.1674531351
 20
5.108195478
 30
0.0
 10
9.158295496
 20
5.1518263835
 30
0.0
 10
9.1511624629
 20
5.1956467409
 30
0.0
 10
9.1460618725
 20
5.239609718
 30
0.0
 10
9.142999312
 20
5.2836667177
 30
0.0
 10
9.1423183422
 20
5.3130774056
 30
0.0
 10
9.1423183533
 20
5.3277726261
 30
0.0
  0
SPLINE
  5
2E8
100
AcDbEntity
  8
0
100
AcDbSpline
 62
9
  6
CONTINUOUS
 70
0
 71
3
 72
38
 73
34
 74
0
 42
0.0000001
 43
0.0000001
 44
0.0000000001
 40
0.0
 40
0.0
 40
0.0
 40
0.0
 40
0.0740845442
 40
0.1103967971
 40
0.1461875185
 40
0.1814392589
 40
0.2161387779
 40
0.2502774462
 40
0.2838515132
 40
0.3168623914
 40
0.3493169088
 40
0.381227528
 40
0.4126125174
 40
0.4434960591
 40
0.4739082785
 40
0.5038851776
 40
0.5334684569
 40
0.5627052084
 40
0.591647472
 40
0.6203516489
 40
0.6488777774
 40
0.6772886827
 40
0.7056490256
 40
0.7340242799
 40
0.762479679
 40
0.7910791717
 40
0.8198844277
 40
0.8489539289
 40
0.8783421742
 40
0.9080990169
 40
0.9382691427
 40
0.9688916894
 40
1.0
 40
1.0
 40
1.0
 40
1.0
 10
12.0978596418
 20
3.6610013494
 30
0.0
 10
12.1554652959
 20
3.6845187592
 30
0.0
 10
12.240019443
 20
3.7228801087
 30
0.0
 10
12.3485101443
 20
3.7804165302
 30
0.0
 10
12.4263441243
 20
3.8259869478
 30
0.0
 10
12.5009920374
 20
3.8741510044
 30
0.0
 10
12.5722841871
 20
3.9247995215
 30
0.0
 10
12.6400549988
 20
3.977815864
 30
0.0
 10
12.704147835
 20
4.0330784675
 30
0.0
 10
12.7644141646
 20
4.0904605043
 30
0.0
 10
12.8207141803
 20
4.1498303113
 30
0.0
 10
12.8729170178
 20
4.211051617
 30
0.0
 10
12.920901061
 20
4.2739838181
 30
0.0
 10
12.9645542007
 20
4.3384822488
 30
0.0
 10
13.0037740982
 20
4.4043984472
 30
0.0
 10
13.0384684442
 20
4.4715804232
 30
0.0
 10
13.0685552203
 20
4.5398729364
 30
0.0
 10
13.093962963
 20
4.6091177891
 30
0.0
 10
13.114631029
 20
4.6791541471
 30
0.0
 10
13.1305098549
 20
4.7498188957
 30
0.0
 10
13.1415611992
 20
4.8209470408
 30
0.0
 10
13.1477583571
 20
4.8923721563
 30
0.0
 10
13.1490863232
 20
4.9639268762
 30
0.0
 10
13.1455418797
 20
5.0354434187
 30
0.0
 10
13.1371336195
 20
5.106754126
 30
0.0
 10
13.1238818904
 20
5.1776919963
 30
0.0
 10
13.1058186648
 20
5.2480912003
 30
0.0
 10
13.0829873683
 20
5.3177875342
 30
0.0
 10
13.0554425999
 20
5.3866189185
 30
0.0
 10
13.0232500822
 20
5.4544255046
 30
0.0
 10
12.986485626
 20
5.5210510511
 30
0.0
 10
12.9452378135
 20
5.5863392789
 30
0.0
 10
12.9150567066
 20
5.6285347262
 30
0.0
 10
12.8992767521
 20
5.6493579385
 30
0.0
  0
SPLINE
  5
2E9
100
AcDbEntity
  8
0
100
AcDbSpline
 62
9
  6
CONTINUOUS
 70
0
 71
3
 72
57
 73
53
 74
0
 42
0.0000001
 43
0.0000001
 44
0.0000000001
 40
0.0
 40
0.0
 40
0.0
 40
0.0
 40
0.0141170953
 40
0.0280473601
 40
0.0418010106
 40
0.0553898358
 40
0.0688271536
 40
0.0821277418
 40
0.095307744
 40
0.1083845473
 40
0.1213766342
 40
0.1343034081
 40
0.1471849967
 40
0.1600420362
 40
0.1728954412
 40
0.1857661679
 40
0.1986749754
 40
0.2116421927
 40
0.2246874977
 40
0.2378297129
 40
0.2510866233
 40
0.2644748184
 40
0.2780095614
 40
0.2917046852
 40
0.3055725149
 40
0.3196238152
 40
0.3338677611
 40
0.3483119284
 40
0.3629623026
 40
0.3778233022
 40
0.4081808753
 40
0.4236851872
 40
0.4394029803
 40
0.4714615097
 40
0.4877985659
 40
0.5043310683
 40
0.537947671
 40
0.5550190895
 40
0.5722513506
 40
0.6071506344
 40
0.6425562093
 40
0.6783653662
 40
0.7144684635
 40
0.7507509297
 40
0.7870952322
 40
0.8233828258
 40
0.8594960941
 40
0.8953202965
 40
0.9307455345
 40
0.9482780943
 40
0.965672928
 40
1.0
 40
1.0
 40
1.0
 40
1.0
 10
9.1953850127
 20
5.6493910439
 30
0.0
 10
9.1821085563
 20
5.631872509
 30
0.0
 10
9.1565346626
 20
5.5964490962
 30
0.0
 10
9.121000136
 20
5.5418900097
 30
0.0
 10
9.0886097656
 20
5.4863549623
 30
0.0
 10
9.05941822
 20
5.4299359396
 30
0.0
 10
9.0334736185
 20
5.3727246132
 30
0.0
 10
9.0108191825
 20
5.3148145763
 30
0.0
 10
8.9914926752
 20
5.2563005826
 30
0.0
 10
8.9755264279
 20
5.1972785644
 30
0.0
 10
8.9629472176
 20
5.1378454308
 30
0.0
 10
8.9537761946
 20
5.0780989106
 30
0.0
 10
8.9480288093
 20
5.018137367
 30
0.0
 10
8.945714756
 20
4.9580596062
 30
0.0
 10
8.9468379408
 20
4.8979646759
 30
0.0
 10
8.9513964661
 20
4.8379516597
 30
0.0
 10
8.959382638
 20
4.7781194701
 30
0.0
 10
8.9707829949
 20
4.7185666457
 30
0.0
 10
8.9855783558
 20
4.6593911558
 30
0.0
 10
9.003743885
 20
4.6006902143
 30
0.0
 10
9.02524917
 20
4.5425601063
 30
0.0
 10
9.0500583089
 20
4.4850960267
 30
0.0
 10
9.0781300048
 20
4.4283919288
 30
0.0
 10
9.1094176612
 20
4.3725403865
 30
0.0
 10
9.143869492
 20
4.3176324518
 30
0.0
 10
9.1814285857
 20
4.2637575622
 30
0.0
 10
9.2220331519
 20
4.2110032861
 30
0.0
 10
9.2656160793
 20
4.1594556932
 30
0.0
 10
9.3121071376
 20
4.1091973653
 30
0.0
 10
9.3783302378
 20
4.0435583986
 30
0.0
 10
9.4496726342
 20
3.9813201159
 30
0.0
 10
9.5255465104
 20
3.9226680871
 30
0.0
 10
9.6057927252
 20
3.8654576026
 30
0.0
 10
9.6903306589
 20
3.8121644556
 30
0.0
 10
9.7786173001
 20
3.7628788559
 30
0.0
 10
9.8707315354
 20
3.7155979885
 30
0.0
 10
9.9662664099
 20
3.6726173963
 30
0.0
 10
10.0647240319
 20
3.6339761632
 30
0.0
 10
10.1662543711
 20
3.5978414772
 30
0.0
 10
10.2967766561
 20
3.5582510319
 30
0.0
 10
10.4576101841
 20
3.5199919127
 30
0.0
 10
10.6222777051
 20
3.4910251552
 30
0.0
 10
10.7897055918
 20
3.4715390713
 30
0.0
 10
10.958807328
 20
3.461659216
 30
0.0
 10
11.1284840991
 20
3.4614495698
 30
0.0
 10
11.2976333479
 20
3.4709113925
 30
0.0
 10
11.4651571868
 20
3.4899837688
 30
0.0
 10
11.6299635642
 20
3.5185425612
 30
0.0
 10
11.7646195675
 20
3.5502046786
 30
0.0
 10
11.8700080853
 20
3.5801428601
 30
0.0
 10
11.9727864387
 20
3.6128071784
 30
0.0
 10
12.0483756171
 20
3.6407995809
 30
0.0
 10
12.0978596418
 20
3.6610013494
 30
0.0
  0
SPLINE
  5
2EA
100
AcDbEntity
  8
0
100
AcDbSpline
 62
7
  6
CONTINUOUS
 70
0
 71
3
 72
44
 73
40
 74
0
 42
0.0000001
 43
0.0000001
 44
0.0000000001
 40
0.0
 40
0.0
 40
0.0
 40
0.0
 40
0.0327677792
 40
0.0659894923
 40
0.0996139694
 40
0.1335854085
 40
0.1678444931
 40
0.202328992
 40
0.2369744267
 40
0.2717147398
 40
0.306482949
 40
0.3412118021
 40
0.3758344294
 40
0.4102849942
 40
0.444499356
 40
0.4784157296
 40
0.5119753647
 40
0.5451232301
 40
0.5778087121
 40
0.6099863366
 40
0.6416164862
 40
0.6726661591
 40
0.7031096992
 40
0.7329295632
 40
0.7621170354
 40
0.7906729338
 40
0.8186082284
 40
0.8459445547
 40
0.872714572
 40
0.8859028776
 40
0.898966966
 40
0.9119140259
 40
0.9247518989
 40
0.9374890563
 40
0.9501345687
 40
0.9626980621
 40
0.9751896708
 40
0.9876199871
 40
1.0
 40
1.0
 40
1.0
 40
1.0
 10
12.122286909
 20
3.5812019778
 30
0.0
 10
12.0833841058
 20
3.5653199748
 30
0.0
 10
12.0042167458
 20
3.5353145264
 30
0.0
 10
11.8826575452
 20
3.495908296
 30
0.0
 10
11.7578718395
 20
3.4619185547
 30
0.0
 10
11.6303448816
 20
3.4334774298
 30
0.0
 10
11.5005677391
 20
3.4106938662
 30
0.0
 10
11.3690414872
 20
3.3936555903
 30
0.0
 10
11.236273605
 20
3.3824280655
 30
0.0
 10
11.1027764865
 20
3.3770545837
 30
0.0
 10
10.9690653352
 20
3.3775556988
 30
0.0
 10
10.8356561912
 20
3.3839296249
 30
0.0
 10
10.7030639132
 20
3.3961516899
 30
0.0
 10
10.5718002062
 20
3.4141750044
 30
0.0
 10
10.4423716004
 20
3.4379301399
 30
0.0
 10
10.3152775302
 20
3.4673258189
 30
0.0
 10
10.1910083796
 20
3.5022490439
 30
0.0
 10
10.0700435924
 20
3.5425656288
 30
0.0
 10
9.9528498878
 20
3.588120876
 30
0.0
 10
9.8398793796
 20
3.6387399122
 30
0.0
 10
9.7315680484
 20
3.6942288482
 30
0.0
 10
9.6283338967
 20
3.7543750255
 30
0.0
 10
9.5305756885
 20
3.8189484395
 30
0.0
 10
9.4386712731
 20
3.8877020766
 30
0.0
 10
9.3529764403
 20
3.9603733991
 30
0.0
 10
9.2738238111
 20
4.0366845364
 30
0.0
 10
9.2015208309
 20
4.1163450348
 30
0.0
 10
9.1363522709
 20
4.1990466581
 30
0.0
 10
9.0879579736
 20
4.270600562
 30
0.0
 10
9.0531340107
 20
4.3290154465
 30
0.0
 10
9.0290730551
 20
4.37316544
 30
0.0
 10
9.0069661035
 20
4.417824342
 30
0.0
 10
8.9868343034
 20
4.4629495996
 30
0.0
 10
8.9686975179
 20
4.5084973441
 30
0.0
 10
8.952573429
 20
4.554423482
 30
0.0
 10
8.9384778771
 20
4.6006833767
 30
0.0
 10
8.9264247121
 20
4.647232467
 30
0.0
 10
8.9164259642
 20
4.6940243542
 30
0.0
 10
8.9111266796
 20
4.7254074897
 30
0.0
 10
8.908825429
 20
4.7411153497
 30
0.0
  0
SPLINE
  5
2EB
100
AcDbEntity
  8
0
100
AcDbSpline
 62
7
  6
CONTINUOUS
 70
0
 71
3
 72
15
 73
11
 74
0
 42
0.0000001
 43
0.0000001
 44
0.0000000001
 40
0.0
 40
0.0
 40
0.0
 40
0.0
 40
0.1209789441
 40
0.2423678706
 40
0.3645670327
 40
0.4879580149
 40
0.6128954521
 40
0.7397004282
 40
0.8686553052
 40
1.0
 40
1.0
 40
1.0
 40
1.0
 10
10.584818353
 20
6.6067205995
 30
0.0
 10
10.5848183667
 20
6.6130853937
 30
0.0
 10
10.5853458263
 20
6.6258427831
 30
0.0
 10
10.5877152835
 20
6.6448966332
 30
0.0
 10
10.5916547863
 20
6.6638193106
 30
0.0
 10
10.5971501125
 20
6.6825437129
 30
0.0
 10
10.6041814785
 20
6.7010058007
 30
0.0
 10
10.6127240348
 20
6.719142483
 30
0.0
 10
10.6227468883
 20
6.7368909669
 30
0.0
 10
10.6303207774
 20
6.748316269
 30
0.0
 10
10.6343322804
 20
6.7539428077
 30
0.0
  0
SPLINE
  5
2EC
100
AcDbEntity
  8
0
100
AcDbSpline
 62
9
  6
CONTINUOUS
 70
0
 71
3
 72
15
 73
11
 74
0
 42
0.0000001
 43
0.0000001
 44
0.0000000001
 40
0.0
 40
0.0
 40
0.0
 40
0.0
 40
0.1338075128
 40
0.2653059746
 40
0.3943485011
 40
0.5208189656
 40
0.6446378684
 40
0.7657650745
 40
0.8842031091
 40
1.0
 40
1.0
 40
1.0
 40
1.0
 10
11.8632509719
 20
4.4488927861
 30
0.0
 10
11.8930918684
 20
4.4610752811
 30
0.0
 10
11.9516531646
 20
4.4867492387
 30
0.0
 10
12.0365347887
 20
4.5294923587
 30
0.0
 10
12.1173974217
 20
4.5759819462
 30
0.0
 10
12.1939092301
 20
4.626029727
 30
0.0
 10
12.2657590907
 20
4.6794340193
 30
0.0
 10
12.3326547313
 20
4.7359812516
 30
0.0
 10
12.3943189875
 20
4.7954394537
 30
0.0
 10
12.4321981419
 20
4.8373313128
 30
0.0
 10
12.4501448527
 20
4.8586844878
 30
0.0
  0
SPLINE
  5
2ED
100
AcDbEntity
  8
0
100
AcDbSpline
 62
9
  6
CONTINUOUS
 70
0
 71
3
 72
25
 73
21
 74
0
 42
0.0000001
 43
0.0000001
 44
0.0000000001
 40
0.0
 40
0.0
 40
0.0
 40
0.0
 40
0.0673756622
 40
0.1006500277
 40
0.1336559529
 40
0.1988883001
 40
0.263153579
 40
0.2949540612
 40
0.3265463653
 40
0.3891500441
 40
0.4510825899
 40
0.5124642487
 40
0.573423792
 40
0.6340967014
 40
0.6946231049
 40
0.7551455343
 40
0.8158065871
 40
0.8767465852
 40
0.9381013244
 40
1.0
 40
1.0
 40
1.0
 40
1.0
 10
12.4501448527
 20
4.8586844878
 30
0.0
 10
12.463542967
 20
4.8746256974
 30
0.0
 10
12.4829200574
 20
4.8989884524
 30
0.0
 10
12.5072406661
 20
4.9323844715
 30
0.0
 10
12.5302205474
 20
4.9659177882
 30
0.0
 10
12.5567993258
 20
5.0085700148
 30
0.0
 10
12.5805920463
 20
5.0524161072
 30
0.0
 10
12.5977789558
 20
5.0879377366
 30
0.0
 10
12.6136356158
 20
5.1235108875
 30
0.0
 10
12.631181145
 20
5.168501344
 30
0.0
 10
12.648549271
 20
5.223317845
 30
0.0
 10
12.6621268946
 20
5.2786732379
 30
0.0
 10
12.6718800133
 20
5.3344342481
 30
0.0
 10
12.6777846963
 20
5.3904679042
 30
0.0
 10
12.6798262835
 20
5.4466399174
 30
0.0
 10
12.6779997028
 20
5.5028157247
 30
0.0
 10
12.6723095546
 20
5.5588604564
 30
0.0
 10
12.662769659
 20
5.6146406764
 30
0.0
 10
12.6494046131
 20
5.670020061
 30
0.0
 10
12.6380214798
 20
5.7064074545
 30
0.0
 10
12.6317218852
 20
5.7244715667
 30
0.0
  0
SPLINE
  5
2EE
100
AcDbEntity
  8
0
100
AcDbSpline
 62
9
  6
CONTINUOUS
 70
0
 71
3
 72
11
 73
7
 74
0
 42
0.0000001
 43
0.0000001
 44
0.0000000001
 40
0.0
 40
0.0
 40
0.0
 40
0.0
 40
0.2458937026
 40
0.4947057232
 40
0.7461708876
 40
1.0
 40
1.0
 40
1.0
 40
1.0
 10
10.1170657142
 20
6.5155428207
 30
0.0
 10
10.1453609026
 20
6.527094283
 30
0.0
 10
10.2027884216
 20
6.5491254431
 30
0.0
 10
10.2906969524
 20
6.5787524274
 30
0.0
 10
10.3806746757
 20
6.6050876173
 30
0.0
 10
10.4416179801
 20
6.6203372335
 30
0.0
 10
10.472365407
 20
6.627401901
 30
0.0
  0
SPLINE
  5
2EF
100
AcDbEntity
  8
0
100
AcDbSpline
 62
9
  6
CONTINUOUS
 70
0
 71
3
 72
54
 73
50
 74
0
 42
0.0000001
 43
0.0000001
 44
0.0000000001
 40
0.0
 40
0.0
 40
0.0
 40
0.0
 40
0.0371953718
 40
0.0738914065
 40
0.1100113525
 40
0.1454869632
 40
0.1802599189
 40
0.214283309
 40
0.2475231028
 40
0.2799596173
 40
0.311588943
 40
0.3424242121
 40
0.3575562703
 40
0.3725031136
 40
0.3872715956
 40
0.4018697608
 40
0.4163068367
 40
0.4305932123
 40
0.444740401
 40
0.4587609891
 40
0.4726685707
 40
0.4864776662
 40
0.5002036243
 40
0.513862508
 40
0.5274709672
 40
0.5410460994
 40
0.5546053013
 40
0.5681661139
 40
0.5817460633
 40
0.5953625031
 40
0.6090324602
 40
0.6227724868
 40
0.6365985233
 40
0.6505257739
 40
0.6645685962
 40
0.6787404065
 40
0.6930535994
 40
0.7075194837
 40
0.7221482362
 40
0.7369488693
 40
0.7519292115
 40
0.7670958985
 40
0.7980029819
 40
0.8297060637
 40
0.8622166731
 40
0.8955293879
 40
0.9296231497
 40
0.9644626331
 40
1.0
 40
1.0
 40
1.0
 40
1.0
 10
11.6223602879
 20
6.6273814467
 30
0.0
 10
11.6645646313
 20
6.6176827644
 30
0.0
 10
11.7479135587
 20
6.5961843273
 30
0.0
 10
11.8700583368
 20
6.557439272
 30
0.0
 10
11.9879617832
 20
6.5125847509
 30
0.0
 10
12.1010111036
 20
6.4618515923
 30
0.0
 10
12.2086241644
 20
6.4054988496
 30
0.0
 10
12.3102452404
 20
6.3438143539
 30
0.0
 10
12.4053490636
 20
6.2771129754
 30
0.0
 10
12.4934441845
 20
6.2057332528
 30
0.0
 10
12.574070117
 20
6.130042727
 30
0.0
 10
12.6350727286
 20
6.0632682843
 30
0.0
 10
12.6796411102
 20
6.0080820347
 30
0.0
 10
12.7107477192
 20
5.9661267
 30
0.0
 10
12.7396993533
 20
5.9234053348
 30
0.0
 10
12.7664588264
 20
5.8799724603
 30
0.0
 10
12.7909909776
 20
5.8358844109
 30
0.0
 10
12.8132637355
 20
5.7911982045
 30
0.0
 10
12.8332478624
 20
5.7459717363
 30
0.0
 10
12.8509170777
 20
5.7002636459
 30
0.0
 10
12.8662480764
 20
5.6541332635
 30
0.0
 10
12.8792206057
 20
5.6076405411
 30
0.0
 10
12.8898175259
 20
5.5608459769
 30
0.0
 10
12.8980247976
 20
5.5138105184
 30
0.0
 10
12.9038315239
 20
5.4665954825
 30
0.0
 10
12.9072299675
 20
5.4192624651
 30
0.0
 10
12.9082155972
 20
5.3718732515
 30
0.0
 10
12.9067871275
 20
5.3244897154
 30
0.0
 10
12.9029464657
 20
5.2771737187
 30
0.0
 10
12.8966987177
 20
5.2299870167
 30
0.0
 10
12.8880521673
 20
5.1829911646
 30
0.0
 10
12.8770182772
 20
5.1362474241
 30
0.0
 10
12.8636116936
 20
5.0898166617
 30
0.0
 10
12.847850155
 20
5.0437592738
 30
0.0
 10
12.8297544646
 20
4.9981351039
 30
0.0
 10
12.8093484449
 20
4.9530033712
 30
0.0
 10
12.7866589064
 20
4.9084225901
 30
0.0
 10
12.7617156525
 20
4.8644504991
 30
0.0
 10
12.7345513095
 20
4.8211439438
 30
0.0
 10
12.7052015487
 20
4.7785590852
 30
0.0
 10
12.6737040354
 20
4.7367502853
 30
0.0
 10
12.6286208905
 20
4.6817730381
 30
0.0
 10
12.5669970005
 20
4.6152861612
 30
0.0
 10
12.485668176
 20
4.5399755381
 30
0.0
 10
12.3969104289
 20
4.4690101028
 30
0.0
 10
12.301188056
 20
4.4027551836
 30
0.0
 10
12.19899426
 20
4.3415467381
 30
0.0
 10
12.0908621253
 20
4.2856991598
 30
0.0
 10
12.0158759186
 20
4.2525364926
 30
0.0
 10
11.9775709624
 20
4.2368985597
 30
0.0
  0
SPLINE
  5
2F0
100
AcDbEntity
  8
0
100
AcDbSpline
 62
9
  6
CONTINUOUS
 70
0
 71
3
 72
25
 73
21
 74
0
 42
0.0000001
 43
0.0000001
 44
0.0000000001
 40
0.0
 40
0.0
 40
0.0
 40
0.0
 40
0.0618354351
 40
0.1231434802
 40
0.184052212
 40
0.2446959859
 40
0.3052134006
 40
0.3657451012
 40
0.4264315003
 40
0.4874105101
 40
0.5488153708
 40
0.6107726576
 40
0.6734005288
 40
0.7050040596
 40
0.7368149155
 40
0.8010977271
 40
0.8663419462
 40
0.8993512448
 40
0.9326271401
 40
1.0
 40
1.0
 40
1.0
 40
1.0
 10
9.4608737511
 20
5.7185516458
 30
0.0
 10
9.4547523772
 20
5.7005911719
 30
0.0
 10
9.4437107461
 20
5.6644189855
 30
0.0
 10
9.4308121687
 20
5.6093919991
 30
0.0
 10
9.4216867459
 20
5.553982312
 30
0.0
 10
9.4163576684
 20
5.4983234385
 30
0.0
 10
9.4148376824
 20
5.4425459911
 30
0.0
 10
9.4171305684
 20
5.3867819558
 30
0.0
 10
9.4232307171
 20
5.3311629841
 30
0.0
 10
9.433123213
 20
5.275820438
 30
0.0
 10
9.4467841419
 20
5.2208843743
 30
0.0
 10
9.4641798245
 20
5.1664851469
 30
0.0
 10
9.4817024913
 20
5.1218369383
 30
0.0
 10
9.4975142965
 20
5.0865331751
 30
0.0
 10
9.5146375005
 20
5.0512806856
 30
0.0
 10
9.5383166354
 20
5.0077651197
 30
0.0
 10
9.5647406224
 20
4.9654281341
 30
0.0
 10
9.5875720772
 20
4.9321389941
 30
0.0
 10
9.6117251908
 20
4.8989853658
 30
0.0
 10
9.6309602734
 20
4.8747946713
 30
0.0
 10
9.644257146
 20
4.8589638141
 30
0.0
  0
SPLINE
  5
2F1
100
AcDbEntity
  8
0
100
AcDbSpline
 62
9
  6
CONTINUOUS
 70
0
 71
3
 72
15
 73
11
 74
0
 42
0.0000001
 43
0.0000001
 44
0.0000000001
 40
0.0
 40
0.0
 40
0.0
 40
0.0
 40
0.1160306624
 40
0.2346283203
 40
0.3558404804
 40
0.4796727587
 40
0.6060914639
 40
0.7350264406
 40
0.8663739934
 40
1.0
 40
1.0
 40
1.0
 40
1.0
 10
9.644257146
 20
4.8589638141
 30
0.0
 10
9.661659011
 20
4.8382456763
 30
0.0
 10
9.698330903
 20
4.7975753408
 30
0.0
 10
9.7579117616
 20
4.7397438198
 30
0.0
 10
9.8224354937
 20
4.6846389518
 30
0.0
 10
9.8916502443
 20
4.6324736738
 30
0.0
 10
9.9652908656
 20
4.5834446787
 30
0.0
 10
10.043075379
 20
4.5377380553
 30
0.0
 10
10.1247029242
 20
4.4955283794
 30
0.0
 10
10.1810206166
 20
4.4700326983
 30
0.0
 10
10.2097195198
 20
4.4578959627
 30
0.0
  0
LINE
  5
2F2
100
AcDbEntity
  8
0
100
AcDbLine
 62
9
  6
CONTINUOUS
 10
10.2097195198
 20
4.4578959627
 11
10.211595908
 21
4.4571036461
  0
SPLINE
  5
2F3
100
AcDbEntity
  8
0
100
AcDbSpline
 62
9
  6
CONTINUOUS
 70
0
 71
3
 72
23
 73
19
 74
0
 42
0.0000001
 43
0.0000001
 44
0.0000000001
 40
0.0
 40
0.0
 40
0.0
 40
0.0
 40
0.0600918048
 40
0.1210890152
 40
0.1828854573
 40
0.2453652202
 40
0.3084043326
 40
0.3718723814
 40
0.4356341057
 40
0.4995509768
 40
0.5634827494
 40
0.6272890143
 40
0.6908307497
 40
0.7539718696
 40
0.8165808066
 40
0.8785320882
 40
0.9397077695
 40
1.0
 40
1.0
 40
1.0
 40
1.0
 10
10.211595908
 20
4.4571036461
 30
0.0
 10
10.2428337322
 20
4.4439333412
 30
0.0
 10
10.3065137634
 20
4.4191014413
 30
0.0
 10
10.4045057765
 20
4.3866751417
 30
0.0
 10
10.5053179936
 20
4.3589081437
 30
0.0
 10
10.6085049375
 20
4.3359229963
 30
0.0
 10
10.7136154395
 20
4.317819609
 30
0.0
 10
10.8201885629
 20
4.3046771353
 30
0.0
 10
10.9277572727
 20
4.2965528747
 30
0.0
 10
11.0358500584
 20
4.2934824314
 30
0.0
 10
11.1439931138
 20
4.2954790814
 30
0.0
 10
11.2517124109
 20
4.3025342452
 30
0.0
 10
11.3585357755
 20
4.3146169724
 30
0.0
 10
11.4639950687
 20
4.3316746094
 30
0.0
 10
11.5676278261
 20
4.3536325397
 30
0.0
 10
11.6689807998
 20
4.3803953202
 30
0.0
 10
11.7676063719
 20
4.4118447886
 30
0.0
 10
11.8317603245
 20
4.4360367832
 30
0.0
 10
11.8632509719
 20
4.4488927861
 30
0.0
  0
SPLINE
  5
2F4
100
AcDbEntity
  8
0
100
AcDbSpline
 62
9
  6
CONTINUOUS
 70
0
 71
3
 72
11
 73
7
 74
0
 42
0.0000001
 43
0.0000001
 44
0.0000000001
 40
0.0
 40
0.0
 40
0.0
 40
0.0
 40
0.2451718394
 40
0.4938430817
 40
0.7456022815
 40
1.0
 40
1.0
 40
1.0
 40
1.0
 10
11.9775709624
 20
4.2368985597
 30
0.0
 10
11.9427349912
 20
4.222676834
 30
0.0
 10
11.8718030027
 20
4.1958639486
 30
0.0
 10
11.7628188477
 20
4.160836668
 30
0.0
 10
11.6508801674
 20
4.1308348854
 30
0.0
 10
11.5749349662
 20
4.1143412803
 30
0.0
 10
11.5365975059
 20
4.1069520757
 30
0.0
  0
SPLINE
  5
2F5
100
AcDbEntity
  8
0
100
AcDbSpline
 62
9
  6
CONTINUOUS
 70
0
 71
3
 72
11
 73
7
 74
0
 42
0.0000001
 43
0.0000001
 44
0.0000000001
 40
0.0
 40
0.0
 40
0.0
 40
0.0
 40
0.2486891318
 40
0.4359755572
 40
0.6237385372
 40
1.0
 40
1.0
 40
1.0
 40
1.0
 10
11.4522410461
 20
4.0921807095
 30
0.0
 10
11.4183545957
 20
4.0868376359
 30
0.0
 10
11.3587510666
 20
4.0786737437
 30
0.0
 10
11.2731380606
 20
4.0699842086
 30
0.0
 10
11.1697522685
 20
4.0625965018
 30
0.0
 10
11.0919164978
 20
4.0605108937
 30
0.0
 10
11.0400137964
 20
4.0606549598
 30
0.0
  0
SPLINE
  5
2F6
100
AcDbEntity
  8
0
100
AcDbSpline
 62
9
  6
CONTINUOUS
 70
0
 71
3
 72
60
 73
56
 74
0
 42
0.0000001
 43
0.0000001
 44
0.0000000001
 40
0.0
 40
0.0
 40
0.0
 40
0.0
 40
0.0373569313
 40
0.0745836518
 40
0.1115581259
 40
0.1481626042
 40
0.1842857551
 40
0.219824842
 40
0.2546879549
 40
0.2718433422
 40
0.2888014307
 40
0.3220916875
 40
0.3384179839
 40
0.354524354
 40
0.370408303
 40
0.3860687452
 40
0.4015060708
 40
0.4167222078
 40
0.4317206771
 40
0.4465066385
 40
0.4610869248
 40
0.4754700627
 40
0.4896662754
 40
0.5036874656
 40
0.5175471752
 40
0.5312605197
 40
0.5448440941
 40
0.5583158498
 40
0.5716949424
 40
0.5850015513
 40
0.5982566734
 40
0.6114818959
 40
0.6246991522
 40
0.6379304682
 40
0.6511977067
 40
0.6645223151
 40
0.6779250861
 40
0.6914259351
 40
0.7050437011
 40
0.7187959736
 40
0.7326989491
 40
0.7467673154
 40
0.7610141662
 40
0.7754509423
 40
0.7900873979
 40
0.8049315899
 40
0.8199898853
 40
0.835266986
 40
0.8664816315
 40
0.882427339
 40
0.8985949138
 40
0.931577184
 40
0.9483879424
 40
0.9654014134
 40
1.0
 40
1.0
 40
1.0
 40
1.0
 10
11.0400137964
 20
4.0606549598
 30
0.0
 10
10.9893921256
 20
4.0607954701
 30
0.0
 10
10.8883088411
 20
4.0639920912
 30
0.0
 10
10.7376624109
 20
4.0775129142
 30
0.0
 10
10.589065506
 20
4.0996675432
 30
0.0
 10
10.4435109577
 20
4.1303096622
 30
0.0
 10
10.3019614815
 20
4.1692378114
 30
0.0
 10
10.1653604611
 20
4.2161939503
 30
0.0
 10
10.055810235
 20
4.2620056276
 30
0.0
 10
9.9715158559
 20
4.302429915
 30
0.0
 10
9.8905648066
 20
4.3447622861
 30
0.0
 10
9.8128611907
 20
4.3907842643
 30
0.0
 10
9.738896421
 20
4.4404224436
 30
0.0
 10
9.6859561515
 20
4.4789754985
 30
0.0
 10
9.6352849115
 20
4.519025705
 30
0.0
 10
9.5869661241
 20
4.5605073765
 30
0.0
 10
9.5410807756
 20
4.6033515184
 30
0.0
 10
9.4977054783
 20
4.647487123
 30
0.0
 10
9.4569128258
 20
4.6928409667
 30
0.0
 10
9.4187711542
 20
4.7393378021
 30
0.0
 10
9.3833444657
 20
4.7869004474
 30
0.0
 10
9.3506923157
 20
4.835449903
 30
0.0
 10
9.3208697139
 20
4.8849054621
 30
0.0
 10
9.293927025
 20
4.9351848243
 30
0.0
 10
9.2699098729
 20
4.9862042122
 30
0.0
 10
9.2488590426
 20
5.0378784905
 30
0.0
 10
9.230810385
 20
5.0901212922
 30
0.0
 10
9.2157947307
 20
5.142845155
 30
0.0
 10
9.2038378023
 20
5.1959616658
 30
0.0
 10
9.1949601361
 20
5.2493816155
 30
0.0
 10
9.1891770134
 20
5.3030151673
 30
0.0
 10
9.1864984052
 20
5.3567720347
 30
0.0
 10
9.186928935
 20
5.4105616682
 30
0.0
 10
9.1904678608
 20
5.4642934479
 30
0.0
 10
9.1971090778
 20
5.5178768779
 30
0.0
 10
9.2068411424
 20
5.5712217769
 30
0.0
 10
9.2196473129
 20
5.6242384636
 30
0.0
 10
9.2355056055
 20
5.6768379334
 30
0.0
 10
9.2543888716
 20
5.7289320215
 30
0.0
 10
9.2762648785
 20
5.7804335558
 30
0.0
 10
9.3010963976
 20
5.831256499
 30
0.0
 10
9.3288412942
 20
5.8813160782
 30
0.0
 10
9.3594526303
 20
5.9305289179
 30
0.0
 10
9.3928787257
 20
5.9788131277
 30
0.0
 10
9.4290633865
 20
6.0260885353
 30
0.0
 10
9.4679455034
 20
6.0722763513
 30
0.0
 10
9.5094610618
 20
6.117300988
 30
0.0
 10
9.568648353
 20
6.1760958413
 30
0.0
 10
9.6324710097
 20
6.231816643
 30
0.0
 10
9.7003915012
 20
6.2842934701
 30
0.0
 10
9.7722658947
 20
6.3354647243
 30
0.0
 10
9.8480185101
 20
6.3830894656
 30
0.0
 10
9.9271538272
 20
6.4270859369
 30
0.0
 10
10.0097415922
 20
6.469261636
 30
0.0
 10
10.0736594992
 20
6.4978223076
 30
0.0
 10
10.1170657142
 20
6.5155428207
 30
0.0
  0
SPLINE
  5
2F7
100
AcDbEntity
  8
0
100
AcDbSpline
 62
7
  6
CONTINUOUS
 70
0
 71
3
 72
22
 73
18
 74
0
 42
0.0000001
 43
0.0000001
 44
0.0000000001
 40
0.0
 40
0.0
 40
0.0
 40
0.0
 40
0.0579578185
 40
0.1160429619
 40
0.1743808135
 40
0.2330928989
 40
0.2922952094
 40
0.3520966289
 40
0.4125975934
 40
0.473889075
 40
0.5360517244
 40
0.5991553607
 40
0.6632586097
 40
0.7284088424
 40
0.794642353
 40
0.8619831573
 40
1.0
 40
1.0
 40
1.0
 40
1.0
 10
11.6223183238
 20
6.6208627351
 30
0.0
 10
11.622318312
 20
6.6144981967
 30
0.0
 10
11.6218946489
 20
6.601751099
 30
0.0
 10
11.6199901767
 20
6.5826833642
 30
0.0
 10
11.6168209268
 20
6.5636999783
 30
0.0
 10
11.6123941932
 20
6.5448443383
 30
0.0
 10
11.6067201149
 20
6.5261580657
 30
0.0
 10
11.599811626
 20
6.5076826869
 30
0.0
 10
11.5916843834
 20
6.4894590644
 30
0.0
 10
11.5823567633
 20
6.4715274246
 30
0.0
 10
11.5718497706
 20
6.4539272354
 30
0.0
 10
11.5601869632
 20
6.4366971888
 30
0.0
 10
11.5473943229
 20
6.4198750442
 30
0.0
 10
11.5335004957
 20
6.4034978249
 30
0.0
 10
11.5185355902
 20
6.3876008276
 30
0.0
 10
11.4970276879
 20
6.3669266344
 30
0.0
 10
11.4796384815
 20
6.3524994533
 30
0.0
 10
11.4675552138
 20
6.3433506016
 30
0.0
  0
SPLINE
  5
2F8
100
AcDbEntity
  8
0
100
AcDbSpline
 62
7
  6
CONTINUOUS
 70
0
 71
3
 72
15
 73
11
 74
0
 42
0.0000001
 43
0.0000001
 44
0.0000000001
 40
0.0
 40
0.0
 40
0.0
 40
0.0
 40
0.1292036776
 40
0.2567891758
 40
0.3829439143
 40
0.5078741708
 40
0.6318028457
 40
0.754966844
 40
0.8776140713
 40
1.0
 40
1.0
 40
1.0
 40
1.0
 10
11.4762810235
 20
6.6887449814
 30
0.0
 10
11.478815097
 20
6.6841146057
 30
0.0
 10
11.483588999
 20
6.6747650595
 30
0.0
 10
11.4898692545
 20
6.6604265129
 30
0.0
 10
11.4952082121
 20
6.6458964672
 30
0.0
 10
11.4995939118
 20
6.6312065232
 30
0.0
 10
11.5030168078
 20
6.6163880056
 30
0.0
 10
11.5054692881
 20
6.6014724896
 30
0.0
 10
11.5069459195
 20
6.5864928475
 30
0.0
 10
11.5072777767
 20
6.5764794603
 30
0.0
 10
11.5072802503
 20
6.5714795526
 30
0.0
  0
SPLINE
  5
2F9
100
AcDbEntity
  8
0
100
AcDbSpline
 62
7
  6
CONTINUOUS
 70
0
 71
3
 72
30
 73
26
 74
0
 42
0.0000001
 43
0.0000001
 44
0.0000000001
 40
0.0
 40
0.0
 40
0.0
 40
0.0
 40
0.0274397969
 40
0.0549841057
 40
0.0826548793
 40
0.110473339
 40
0.1384598558
 40
0.1666338558
 40
0.1950137413
 40
0.2236168052
 40
0.252459167
 40
0.2815557346
 40
0.3109201554
 40
0.3405647787
 40
0.4007287064
 40
0.4621294184
 40
0.4933144594
 40
0.5248263041
 40
0.5888348846
 40
0.6541743928
 40
0.7208376295
 40
0.7887999342
 40
0.8580204989
 40
0.9284433783
 40
1.0
 40
1.0
 40
1.0
 40
1.0
 10
13.1858110991
 20
4.7411142631
 30
0.0
 10
13.1836293106
 20
4.7262220698
 30
0.0
 10
13.1786397397
 20
4.6964677853
 30
0.0
 10
13.1693120906
 20
4.6520879234
 30
0.0
 10
13.1581367394
 20
4.6079220164
 30
0.0
 10
13.1451236182
 20
4.5640096441
 30
0.0
 10
13.1302841916
 20
4.520388841
 30
0.0
 10
13.1136315998
 20
4.4770976918
 30
0.0
 10
13.0951804369
 20
4.434173914
 30
0.0
 10
13.0749469245
 20
4.3916549059
 30
0.0
 10
13.0529488689
 20
4.3495776037
 30
0.0
 10
13.0292056296
 20
4.307978748
 30
0.0
 10
13.0037375972
 20
4.2668940463
 30
0.0
 10
12.9673351572
 20
4.2125857472
 30
0.0
 10
12.9175530634
 20
4.1461589146
 30
0.0
 10
12.8628828931
 20
4.082583853
 30
0.0
 10
12.8160678579
 20
4.0331557613
 30
0.0
 10
12.766702107
 20
3.9842203742
 30
0.0
 10
12.7011726513
 20
3.9250462334
 30
0.0
 10
12.6172064985
 20
3.8578016619
 30
0.0
 10
12.5277895146
 20
3.7941797008
 30
0.0
 10
12.4332349758
 20
3.7344011859
 30
0.0
 10
12.3338700898
 20
3.6786711927
 30
0.0
 10
12.2300430735
 20
3.6271829187
 30
0.0
 10
12.1586253013
 20
3.5960370643
 30
0.0
 10
12.122286909
 20
3.5812019778
 30
0.0
  0
SPLINE
  5
2FA
100
AcDbEntity
  8
0
100
AcDbSpline
 62
7
  6
CONTINUOUS
 70
0
 71
3
 72
29
 73
25
 74
0
 42
0.0000001
 43
0.0000001
 44
0.0000000001
 40
0.0
 40
0.0
 40
0.0
 40
0.0
 40
0.0260030963
 40
0.0521211863
 40
0.0784047252
 40
0.1049017147
 40
0.131657054
 40
0.1587120484
 40
0.1861039751
 40
0.2138657131
 40
0.2420254898
 40
0.2706068017
 40
0.2996283675
 40
0.3291041021
 40
0.3894329939
 40
0.4516318219
 40
0.5156524704
 40
0.5813862502
 40
0.6486716909
 40
0.7173021675
 40
0.7870339775
 40
0.8575936681
 40
0.9286853794
 40
1.0
 40
1.0
 40
1.0
 40
1.0
 10
11.452932227
 20
7.2182437256
 30
0.0
 10
11.4525731576
 20
7.2135830064
 30
0.0
 10
11.451549171
 20
7.2042615974
 30
0.0
 10
11.4491084426
 20
7.1903705164
 30
0.0
 10
11.4457659839
 20
7.1765766153
 30
0.0
 10
11.4415295585
 20
7.1629109656
 30
0.0
 10
11.4364089808
 20
7.1494032687
 30
0.0
 10
11.4304160526
 20
7.1360830685
 30
0.0
 10
11.4235644673
 20
7.1229793656
 30
0.0
 10
11.4158698461
 20
7.1101206488
 30
0.0
 10
11.40734972
 20
7.0975347398
 30
0.0
 10
11.3980234731
 20
7.0852489245
 30
0.0
 10
11.3879118609
 20
7.0732894803
 30
0.0
 10
11.3733024158
 20
7.057694851
 30
0.0
 10
11.3531539833
 20
7.039168301
 30
0.0
 10
11.3264426439
 20
7.0188202152
 30
0.0
 10
11.2972463757
 20
7.0003492912
 30
0.0
 10
11.265827354
 20
6.9839117908
 30
0.0
 10
11.232464972
 20
6.9696440881
 30
0.0
 10
11.1974560883
 20
6.9576646468
 30
0.0
 10
11.1611121962
 20
6.9480718922
 30
0.0
 10
11.1237560271
 20
6.9409434077
 30
0.0
 10
11.0857219869
 20
6.9363352329
 30
0.0
 10
11.0601358625
 20
6.9349658377
 30
0.0
 10
11.0473183383
 20
6.9347087464
 30
0.0
  0
SPLINE
  5
2FB
100
AcDbEntity
  8
0
100
AcDbSpline
 62
9
  6
CONTINUOUS
 70
0
 71
3
 72
54
 73
50
 74
0
 42
0.0000001
 43
0.0000001
 44
0.0000000001
 40
0.0
 40
0.0
 40
0.0
 40
0.0
 40
0.0133183167
 40
0.0265106457
 40
0.0395910412
 40
0.0525745683
 40
0.0654771904
 40
0.078315639
 40
0.0911072664
 40
0.1038698845
 40
0.1166215927
 40
0.1293805993
 40
0.1421650398
 40
0.1549927971
 40
0.1678813279
 40
0.1808474989
 40
0.1939074369
 40
0.2070763948
 40
0.2203686358
 40
0.2337973364
 40
0.2473745086
 40
0.2611109411
 40
0.2750161575
 40
0.2890983927
 40
0.303364583
 40
0.3178203693
 40
0.332470112
 40
0.3473169143
 40
0.3623626539
 40
0.3776080202
 40
0.393052557
 40
0.4086947093
 40
0.440555771
 40
0.4731636771
 40
0.5064715657
 40
0.540419963
 40
0.5749384675
 40
0.6099473965
 40
0.6453593895
 40
0.6810809747
 40
0.7170141043
 40
0.7530576581
 40
0.7891089277
 40
0.8250650956
 40
0.8608247093
 40
0.896289164
 40
0.9313642023
 40
0.9659614268
 40
1.0
 40
1.0
 40
1.0
 40
1.0
 10
9.1499560348
 20
5.4529773278
 30
0.0
 10
9.1419387222
 20
5.4361574885
 30
0.0
 10
9.1267854498
 20
5.4022855303
 30
0.0
 10
9.1066880906
 20
5.350647056
 30
0.0
 10
9.089365233
 20
5.2985041844
 30
0.0
 10
9.0748428833
 20
5.2459332183
 30
0.0
 10
9.0631420989
 20
5.1930092304
 30
0.0
 10
9.0542800731
 20
5.1398084098
 30
0.0
 10
9.048269797
 20
5.0864072854
 30
0.0
 10
9.0451201064
 20
5.0328827719
 30
0.0
 10
9.0448356335
 20
4.9793119923
 30
0.0
 10
9.047416799
 20
4.9257721543
 30
0.0
 10
9.0528598081
 20
4.8723404102
 30
0.0
 10
9.0611566654
 20
4.8190937223
 30
0.0
 10
9.072295188
 20
4.7661087288
 30
0.0
 10
9.0862590371
 20
4.7134616123
 30
0.0
 10
9.1030277769
 20
4.6612279808
 30
0.0
 10
9.1225769233
 20
4.6094827514
 30
0.0
 10
9.1448780024
 20
4.5583000428
 30
0.0
 10
9.1698986112
 20
4.5077530728
 30
0.0
 10
9.1976024817
 20
4.4579140623
 30
0.0
 10
9.2279495472
 20
4.4088541444
 30
0.0
 10
9.2608959961
 20
4.3606432664
 30
0.0
 10
9.296394355
 20
4.3133501102
 30
0.0
 10
9.3343935619
 20
4.2670420069
 30
0.0
 10
9.3748390385
 20
4.221784854
 30
0.0
 10
9.4176727718
 20
4.177643029
 30
0.0
 10
9.4628333734
 20
4.1346793208
 30
0.0
 10
9.5102562405
 20
4.0929547951
 30
0.0
 10
9.5598733412
 20
4.0525289163
 30
0.0
 10
9.6116144329
 20
4.0134586675
 30
0.0
 10
9.6837709458
 20
3.9629420755
 30
0.0
 10
9.7789383725
 20
3.9035579507
 30
0.0
 10
9.8996506193
 20
3.8390063272
 30
0.0
 10
10.0268941618
 20
3.7810851536
 30
0.0
 10
10.1599410689
 20
3.7301233224
 30
0.0
 10
10.2980358382
 20
3.68640747
 30
0.0
 10
10.4403928502
 20
3.6501846803
 30
0.0
 10
10.5862025733
 20
3.6216596786
 30
0.0
 10
10.7346356163
 20
3.6009938239
 30
0.0
 10
10.8848476079
 20
3.5883041001
 30
0.0
 10
11.0359839678
 20
3.5836624059
 30
0.0
 10
11.1871848217
 20
3.5870950398
 30
0.0
 10
11.337589882
 20
3.5985825097
 30
0.0
 10
11.486343599
 20
3.6180598124
 30
0.0
 10
11.6325992438
 20
3.6454165087
 30
0.0
 10
11.7755267026
 20
3.6804985308
 30
0.0
 10
11.9143064934
 20
3.7231047768
 30
0.0
 10
12.0043472235
 20
3.7566680345
 30
0.0
 10
12.0484360611
 20
3.774667227
 30
0.0
  0
SPLINE
  5
2FC
100
AcDbEntity
  8
0
100
AcDbSpline
 62
9
  6
CONTINUOUS
 70
0
 71
3
 72
29
 73
25
 74
0
 42
0.0000001
 43
0.0000001
 44
0.0000000001
 40
0.0
 40
0.0
 40
0.0
 40
0.0
 40
0.0282651884
 40
0.0565527757
 40
0.0848850367
 40
0.1132839976
 40
0.141771323
 40
0.1703681962
 40
0.1990952089
 40
0.2279722732
 40
0.2570185126
 40
0.2862521873
 40
0.3156906295
 40
0.3453501557
 40
0.4053830865
 40
0.4664695554
 40
0.5286998098
 40
0.5921451188
 40
0.6568577698
 40
0.7228714476
 40
0.7902018759
 40
0.8588476465
 40
0.9287912174
 40
1.0
 40
1.0
 40
1.0
 40
1.0
 10
9.1423183533
 20
5.1983375589
 30
0.0
 10
9.1423183437
 20
5.1856889058
 30
0.0
 10
9.1428226963
 20
5.1603786824
 30
0.0
 10
9.1450912524
 20
5.1224509414
 30
0.0
 10
9.1488702465
 20
5.084583072
 30
0.0
 10
9.1541564933
 20
5.046806031
 30
0.0
 10
9.1609458115
 20
5.0091497074
 30
0.0
 10
9.1692327553
 20
4.9716441566
 30
0.0
 10
9.1790105574
 20
4.9343191902
 30
0.0
 10
9.1902714609
 20
4.8972045463
 30
0.0
 10
9.2030063966
 20
4.8603296924
 30
0.0
 10
9.2172050102
 20
4.8237240457
 30
0.0
 10
9.2328563505
 20
4.7874162292
 30
0.0
 10
9.2557340466
 20
4.7392528056
 30
0.0
 10
9.2879646942
 20
4.6799048353
 30
0.0
 10
9.3320645163
 20
4.610641799
 30
0.0
 10
9.3816042655
 20
4.5432557226
 30
0.0
 10
9.43642316
 20
4.477961469
 30
0.0
 10
9.4963457137
 20
4.4149634689
 30
0.0
 10
9.5611804884
 20
4.3544597046
 30
0.0
 10
9.6307208757
 20
4.2966401424
 30
0.0
 10
9.7047465152
 20
4.2416858653
 30
0.0
 10
9.7830199254
 20
4.1897708316
 30
0.0
 10
9.8373997606
 20
4.1575735089
 30
0.0
 10
9.865208397
 20
4.1420134881
 30
0.0
  0
SPLINE
  5
2FD
100
AcDbEntity
  8
0
100
AcDbSpline
 62
9
  6
CONTINUOUS
 70
0
 71
3
 72
23
 73
19
 74
0
 42
0.0000001
 43
0.0000001
 44
0.0000000001
 40
0.0
 40
0.0
 40
0.0
 40
0.0
 40
0.0585004486
 40
0.1182135362
 40
0.1790319417
 40
0.2408301826
 40
0.3034673715
 40
0.3667899263
 40
0.4306342075
 40
0.4948290909
 40
0.5591985099
 40
0.6235639621
 40
0.6877469977
 40
0.7515717176
 40
0.814867277
 40
0.8774704136
 40
0.9392279996
 40
1.0
 40
1.0
 40
1.0
 40
1.0
 10
9.865208397
 20
4.1420134881
 30
0.0
 10
9.9027398541
 20
4.1210131683
 30
0.0
 10
9.980000885
 20
4.0810681702
 30
0.0
 10
10.1005336123
 20
4.0280076435
 30
0.0
 10
10.2263097356
 20
3.9814376508
 30
0.0
 10
10.3566269709
 20
3.9416175367
 30
0.0
 10
10.4907662676
 20
3.9087650544
 30
0.0
 10
10.6279850698
 20
3.8830611408
 30
0.0
 10
10.7675243434
 20
3.864647253
 30
0.0
 10
10.9086119436
 20
3.8536248219
 30
0.0
 10
11.0504671372
 20
3.8500545228
 30
0.0
 10
11.1923049129
 20
3.8539560735
 30
0.0
 10
11.3333403118
 20
3.86530798
 30
0.0
 10
11.4727930141
 20
3.8840476946
 30
0.0
 10
11.6098909362
 20
3.9100718456
 30
0.0
 10
11.7438771848
 20
3.9432379055
 30
0.0
 10
11.8740045689
 20
3.9833609069
 30
0.0
 10
11.9584552809
 20
4.0148816714
 30
0.0
 10
11.9998183383
 20
4.0317680689
 30
0.0
  0
SPLINE
  5
2FE
100
AcDbEntity
  8
0
100
AcDbSpline
 62
9
  6
CONTINUOUS
 70
0
 71
3
 72
46
 73
42
 74
0
 42
0.0000001
 43
0.0000001
 44
0.0000000001
 40
0.0
 40
0.0
 40
0.0
 40
0.0
 40
0.0124254029
 40
0.0248640899
 40
0.0373292463
 40
0.0498338599
 40
0.062390628
 40
0.0750118703
 40
0.0877094446
 40
0.1004946705
 40
0.1133782674
 40
0.1263702971
 40
0.1394801092
 40
0.1527163074
 40
0.1660867217
 40
0.1795983806
 40
0.2070645425
 40
0.2351599288
 40
0.263911391
 40
0.2933331522
 40
0.3234273972
 40
0.3541850365
 40
0.3855865668
 40
0.4176029575
 40
0.4501965985
 40
0.4833222057
 40
0.5169277506
 40
0.5509553549
 40
0.5853421659
 40
0.6200212277
 40
0.6549223133
 40
0.6899727631
 40
0.7250982987
 40
0.760223834
 40
0.7952742837
 40
0.83017537
 40
0.8648544303
 40
0.8992412444
 40
0.9332688544
 40
0.9668742979
 40
1.0
 40
1.0
 40
1.0
 40
1.0
 10
9.4273183535
 20
5.4611215783
 30
0.0
 10
9.4273183427
 20
5.4486248554
 30
0.0
 10
9.4278974386
 20
5.4236141919
 30
0.0
 10
9.4305018097
 20
5.3861483959
 30
0.0
 10
9.4348393344
 20
5.3487625586
 30
0.0
 10
9.4409052202
 20
5.3114980033
 30
0.0
 10
9.448692802
 20
5.2743945527
 30
0.0
 10
9.4581936181
 20
5.2374922042
 30
0.0
 10
9.4693973399
 20
5.2008306173
 30
0.0
 10
9.482291705
 20
5.1644491581
 30
0.0
 10
9.4968627057
 20
5.1283868632
 30
0.0
 10
9.5130945789
 20
5.0926824356
 30
0.0
 10
9.5309697165
 20
5.0573740734
 30
0.0
 10
9.5504686411
 20
5.0224996979
 30
0.0
 10
9.5715707523
 20
4.9880961188
 30
0.0
 10
9.6019760818
 20
4.942658859
 30
0.0
 10
9.64395784
 20
4.887217526
 30
0.0
 10
9.7000567778
 20
4.8235338745
 30
0.0
 10
9.7619135716
 20
4.7625931416
 30
0.0
 10
9.8292596629
 20
4.7046556942
 30
0.0
 10
9.9018063234
 20
4.6499650981
 30
0.0
 10
9.9792426283
 20
4.5987524089
 30
0.0
 10
10.0612375356
 20
4.5512339822
 30
0.0
 10
10.1474407219
 20
4.5076106369
 30
0.0
 10
10.2374842566
 20
4.4680671311
 30
0.0
 10
10.3309838361
 20
4.4327709149
 30
0.0
 10
10.4275405199
 20
4.401871705
 30
0.0
 10
10.5267423179
 20
4.3755006774
 30
0.0
 10
10.6281659098
 20
4.353769747
 30
0.0
 10
10.7313785038
 20
4.3367713879
 30
0.0
 10
10.8359395949
 20
4.3245777468
 30
0.0
 10
10.9414029234
 20
4.3172407742
 30
0.0
 10
11.0473183382
 20
4.314791649
 30
0.0
 10
11.1532337534
 20
4.3172407579
 30
0.0
 10
11.2586970817
 20
4.3245777736
 30
0.0
 10
11.363258167
 20
4.3367713533
 30
0.0
 10
11.4664707975
 20
4.3537697888
 30
0.0
 10
11.5678942445
 20
4.3755006114
 30
0.0
 10
11.6670965368
 20
4.401871884
 30
0.0
 10
11.7636510637
 20
4.4327701809
 30
0.0
 10
11.8264738652
 20
4.456486029
 30
0.0
 10
11.8573183383
 20
4.4690782324
 30
0.0
  0
SPLINE
  5
2FF
100
AcDbEntity
  8
0
100
AcDbSpline
 62
9
  6
CONTINUOUS
 70
0
 71
3
 72
29
 73
25
 74
0
 42
0.0000001
 43
0.0000001
 44
0.0000000001
 40
0.0
 40
0.0
 40
0.0
 40
0.0
 40
0.028265543
 40
0.0565534815
 40
0.0848860852
 40
0.1132853802
 40
0.1417730265
 40
0.1703702008
 40
0.1990974996
 40
0.2279748253
 40
0.2570212991
 40
0.2862551879
 40
0.315693809
 40
0.3453534845
 40
0.405386623
 40
0.4664731686
 40
0.5287033581
 40
0.5921484661
 40
0.6568607974
 40
0.7228740398
 40
0.7902039234
 40
0.8588490685
 40
0.9287919614
 40
1.0
 40
1.0
 40
1.0
 40
1.0
 10
12.9523183233
 20
5.1983375589
 30
0.0
 10
12.9523183137
 20
5.1856899692
 30
0.0
 10
12.9518141075
 20
5.1603818745
 30
0.0
 10
12.9495458509
 20
5.1224573239
 30
0.0
 10
12.945767551
 20
5.0845926209
 30
0.0
 10
12.9404821838
 20
5.0468187273
 30
0.0
 10
12.933693964
 20
5.0091655299
 30
0.0
 10
12.9254084697
 20
4.9716630447
 30
0.0
 10
12.9156322632
 20
4.9343411219
 30
0.0
 10
12.9043732337
 20
4.8972294626
 30
0.0
 10
12.8916404701
 20
4.8603575107
 30
0.0
 10
12.8774441566
 20
4.8237547405
 30
0.0
 10
12.8617954406
 20
4.7874496906
 30
0.0
 10
12.8389215515
 20
4.7392898974
 30
0.0
 10
12.8066962191
 20
4.6799462531
 30
0.0
 10
12.7626035693
 20
4.6106879478
 30
0.0
 10
12.713071844
 20
4.5433061169
 30
0.0
 10
12.6582617446
 20
4.4780155837
 30
0.0
 10
12.5983486453
 20
4.4150207811
 30
0.0
 10
12.5335239697
 20
4.3545196141
 30
0.0
 10
12.4639942919
 20
4.2967019697
 30
0.0
 10
12.3899798463
 20
4.2417489509
 30
0.0
 10
12.3117180469
 20
4.189834492
 30
0.0
 10
12.2573461102
 20
4.1576370703
 30
0.0
 10
12.2295414948
 20
4.1420768502
 30
0.0
  0
SPLINE
  5
300
100
AcDbEntity
  8
0
100
AcDbSpline
 62
9
  6
CONTINUOUS
 70
0
 71
3
 72
9
 73
5
 74
0
 42
0.0000001
 43
0.0000001
 44
0.0000000001
 40
0.0
 40
0.0
 40
0.0
 40
0.0
 40
0.24623924
 40
1.0
 40
1.0
 40
1.0
 40
1.0
 10
12.2295414948
 20
4.1420768502
 30
0.0
 10
12.2112820957
 20
4.1318583931
 30
0.0
 10
12.1364660471
 20
4.0915525474
 30
0.0
 10
12.0591179593
 20
4.0559770378
 30
0.0
 10
11.9998183383
 20
4.0317680689
 30
0.0
  0
SPLINE
  5
301
100
AcDbEntity
  8
0
100
AcDbSpline
 62
9
  6
CONTINUOUS
 70
0
 71
3
 72
30
 73
26
 74
0
 42
0.0000001
 43
0.0000001
 44
0.0000000001
 40
0.0
 40
0.0
 40
0.0
 40
0.0
 40
0.0275999488
 40
0.0552294053
 40
0.082917656
 40
0.1106935504
 40
0.1385852944
 40
0.1666202526
 40
0.1948247613
 40
0.2232239668
 40
0.2518416804
 40
0.2807002495
 40
0.3098204429
 40
0.3392213724
 40
0.3689204282
 40
0.3989332244
 40
0.4599424879
 40
0.5223494133
 40
0.5862136503
 40
0.6515667918
 40
0.7184136833
 40
0.7867341543
 40
0.8564848529
 40
0.9276011468
 40
1.0
 40
1.0
 40
1.0
 40
1.0
 10
12.9523183233
 20
5.3277726261
 30
0.0
 10
12.9523183121
 20
5.3130774055
 30
0.0
 10
12.9516374043
 20
5.2836667163
 30
0.0
 10
12.9485747961
 20
5.2396097175
 30
0.0
 10
12.9434741914
 20
5.1956467436
 30
0.0
 10
12.9363411853
 20
5.1518263829
 30
0.0
 10
12.9271835663
 20
5.1081954723
 30
0.0
 10
12.9160112817
 20
5.0648010512
 30
0.0
 10
12.9028365518
 20
5.021689736
 30
0.0
 10
12.8876737407
 20
4.9789078322
 30
0.0
 10
12.870539312
 20
4.9365012491
 30
0.0
 10
12.8514518334
 20
4.8945154861
 30
0.0
 10
12.8304320005
 20
4.8529954648
 30
0.0
 10
12.8075027008
 20
4.8119857876
 30
0.0
 10
12.7826881884
 20
4.7715297231
 30
0.0
 10
12.7469337783
 20
4.7180988669
 30
0.0
 10
12.6975663207
 20
4.652903981
 30
0.0
 10
12.6315981441
 20
4.5780167093
 30
0.0
 10
12.5588591299
 20
4.5063549222
 30
0.0
 10
12.4796651145
 20
4.4382247976
 30
0.0
 10
12.3943555985
 20
4.3739126488
 30
0.0
 10
12.3032963636
 20
4.3136904467
 30
0.0
 10
12.2068759178
 20
4.2578120208
 30
0.0
 10
12.1055097406
 20
4.2065152173
 30
0.0
 10
12.03550666
 20
4.1757728324
 30
0.0
 10
11.9998183383
 20
4.1612031361
 30
0.0
  0
SPLINE
  5
302
100
AcDbEntity
  8
0
100
AcDbSpline
 62
9
  6
CONTINUOUS
 70
0
 71
3
 72
29
 73
25
 74
0
 42
0.0000001
 43
0.0000001
 44
0.0000000001
 40
0.0
 40
0.0
 40
0.0
 40
0.0
 40
0.027600271
 40
0.0552300501
 40
0.0829186237
 40
0.1106948419
 40
0.1385869122
 40
0.166622198
 40
0.1948270344
 40
0.223226571
 40
0.2518446216
 40
0.2807035263
 40
0.3098240565
 40
0.3392253316
 40
0.3989262088
 40
0.4599361869
 40
0.5223438358
 40
0.5862088244
 40
0.6515627224
 40
0.7184103991
 40
0.7867316644
 40
0.856483193
 40
0.9276002696
 40
1.0
 40
1.0
 40
1.0
 40
1.0
 10
12.6673183231
 20
5.4851550294
 30
0.0
 10
12.6673183123
 20
5.4726583064
 30
0.0
 10
12.6667392811
 20
5.4476476413
 30
0.0
 10
12.6641348466
 20
5.4101818477
 30
0.0
 10
12.6597973262
 20
5.372796012
 30
0.0
 10
12.6537314778
 20
5.3355314506
 30
0.0
 10
12.6459438825
 20
5.2984280012
 30
0.0
 10
12.6364430319
 20
5.2615256626
 30
0.0
 10
12.6252393416
 20
5.2248640656
 30
0.0
 10
12.6123449994
 20
5.1884826049
 30
0.0
 10
12.5977739365
 20
5.1524203032
 30
0.0
 10
12.5815421395
 20
5.1167159633
 30
0.0
 10
12.5636667857
 20
5.0814072413
 30
0.0
 10
12.5375380714
 20
5.0346748634
 30
0.0
 10
12.5007795167
 20
4.9774127486
 30
0.0
 10
12.4506799894
 20
4.9112529506
 30
0.0
 10
12.3945795991
 20
4.8475667578
 30
0.0
 10
12.3327231727
 20
4.7866267656
 30
0.0
 10
12.2653770085
 20
4.7286890917
 30
0.0
 10
12.1928303295
 20
4.6739985487
 30
0.0
 10
12.1153941403
 20
4.6227859104
 30
0.0
 10
12.0333987993
 20
4.5752672891
 30
0.0
 10
11.9471976505
 20
4.53164479
 30
0.0
 10
11.8876674757
 20
4.5055016671
 30
0.0
 10
11.8573183383
 20
4.4931116836
 30
0.0
  0
SPLINE
  5
303
100
AcDbEntity
  8
0
100
AcDbSpline
 62
7
  6
CONTINUOUS
 70
0
 71
3
 72
23
 73
19
 74
0
 42
0.0000001
 43
0.0000001
 44
0.0000000001
 40
0.0
 40
0.0
 40
0.0
 40
0.0
 40
0.1171446059
 40
0.1475216274
 40
0.1782792216
 40
0.2408181275
 40
0.3045369267
 40
0.3691676733
 40
0.43441935
 40
0.4999855438
 40
0.5655522569
 40
0.6308054747
 40
0.6954387504
 40
0.7591610004
 40
0.8217041921
 40
0.8524642056
 40
0.8828438074
 40
1.0
 40
1.0
 40
1.0
 40
1.0
 10
10.7759673127
 20
7.1286889291
 30
0.0
 10
10.7942688402
 20
7.1157617351
 30
0.0
 10
10.8189238208
 20
7.1016361977
 30
0.0
 10
10.8500519106
 20
7.0877190127
 30
0.0
 10
10.8720220132
 20
7.0789304035
 30
0.0
 10
10.9005430386
 20
7.0694230526
 30
0.0
 10
10.9359771351
 20
7.060484925
 30
0.0
 10
10.9724745019
 20
7.0540380923
 30
0.0
 10
11.0096858864
 20
7.0501436727
 30
0.0
 10
11.0472564913
 20
7.0488386068
 30
0.0
 10
11.0848276864
 20
7.0501351267
 30
0.0
 10
11.1220408359
 20
7.0540210847
 30
0.0
 10
11.1585411262
 20
7.0604596105
 30
0.0
 10
11.1939792741
 20
7.0693896791
 30
0.0
 10
11.2225045158
 20
7.0788905004
 30
0.0
 10
11.2444785433
 20
7.0876740723
 30
0.0
 10
11.2756132278
 20
7.1015842817
 30
0.0
 10
11.3002745003
 20
7.115704167
 30
0.0
 10
11.3185817661
 20
7.1286270768
 30
0.0
  0
SPLINE
  5
304
100
AcDbEntity
  8
0
100
AcDbSpline
 62
7
  6
CONTINUOUS
 70
0
 71
3
 72
23
 73
19
 74
0
 42
0.0000001
 43
0.0000001
 44
0.0000000001
 40
0.0
 40
0.0
 40
0.0
 40
0.0
 40
0.0572507627
 40
0.1162226133
 40
0.1767721886
 40
0.2387170852
 40
0.3018431252
 40
0.3659107447
 40
0.4306616195
 40
0.4958248537
 40
0.5611229509
 40
0.6262780089
 40
0.6910174304
 40
0.7550801491
 40
0.8182224548
 40
0.8493837423
 40
0.8802347834
 40
1.0
 40
1.0
 40
1.0
 40
1.0
 10
10.7856313273
 20
7.0797760385
 30
0.0
 10
10.7943514831
 20
7.074228632
 30
0.0
 10
10.8125528588
 20
7.0637345589
 30
0.0
 10
10.8414230111
 20
7.0500657499
 30
0.0
 10
10.8720452714
 20
7.0383413544
 30
0.0
 10
10.9041571011
 20
7.0286673639
 30
0.0
 10
10.937486842
 20
7.0211307532
 30
0.0
 10
10.9717514915
 20
7.0158010976
 30
0.0
 10
11.0066603815
 20
7.0127294542
 30
0.0
 10
11.0419172656
 20
7.0119479339
 30
0.0
 10
11.0772230089
 20
7.0134692147
 30
0.0
 10
11.1122780031
 20
7.0172867333
 30
0.0
 10
11.1467851506
 20
7.0233745238
 30
0.0
 10
11.1804510343
 20
7.0316872511
 30
0.0
 10
11.2076889455
 20
7.040454779
 30
0.0
 10
11.2287948916
 20
7.0485332223
 30
0.0
 10
11.2589896268
 20
7.0613789249
 30
0.0
 10
11.2830663807
 20
7.0743468627
 30
0.0
 10
11.3011636649
 20
7.0861761998
 30
0.0
  0
SPLINE
  5
305
100
AcDbEntity
  8
0
100
AcDbSpline
 62
7
  6
CONTINUOUS
 70
0
 71
3
 72
22
 73
18
 74
0
 42
0.0000001
 43
0.0000001
 44
0.0000000001
 40
0.0
 40
0.0
 40
0.0
 40
0.0
 40
0.0578072454
 40
0.1171665311
 40
0.1779369575
 40
0.2399479842
 40
0.3030045343
 40
0.3668923521
 40
0.4313826412
 40
0.4962370392
 40
0.5612122708
 40
0.6260646325
 40
0.6905548154
 40
0.7544522804
 40
0.8175400624
 40
0.8796195248
 40
1.0
 40
1.0
 40
1.0
 40
1.0
 10
10.8002985053
 20
7.0220298353
 30
0.0
 10
10.808784676
 20
7.0171371999
 30
0.0
 10
10.82638391
 20
7.0078982794
 30
0.0
 10
10.8540658248
 20
6.9958846228
 30
0.0
 10
10.8831970256
 20
6.9856130546
 30
0.0
 10
10.9135574675
 20
6.9771658609
 30
0.0
 10
10.9449207346
 20
6.9706104202
 30
0.0
 10
10.9770521156
 20
6.9660006312
 30
0.0
 10
11.0097113491
 20
6.9633757765
 30
0.0
 10
11.0426541615
 20
6.9627604839
 30
0.0
 10
11.0756342107
 20
6.9641645004
 30
0.0
 10
11.1084048034
 20
6.9675824444
 30
0.0
 10
11.1407212659
 20
6.9729941407
 30
0.0
 10
11.1723408927
 20
6.9803640057
 30
0.0
 10
11.2030317412
 20
6.9896444723
 30
0.0
 10
11.2419855503
 20
7.0043198588
 30
0.0
 10
11.2697772777
 20
7.0181897949
 30
0.0
 10
11.287269911
 20
7.0286833987
 30
0.0
  0
SPLINE
  5
306
100
AcDbEntity
  8
0
100
AcDbSpline
 62
7
  6
CONTINUOUS
 70
0
 71
3
 72
39
 73
35
 74
0
 42
0.0000001
 43
0.0000001
 44
0.0000000001
 40
0.0
 40
0.0
 40
0.0
 40
0.0
 40
0.0248343518
 40
0.0498052665
 40
0.0750449812
 40
0.1006749249
 40
0.1268029888
 40
0.1535202225
 40
0.1808992312
 40
0.2089933011
 40
0.2233226691
 40
0.2378420126
 40
0.2674498909
 40
0.2978204067
 40
0.3289354165
 40
0.3607620537
 40
0.393254302
 40
0.4263546034
 40
0.4599953037
 40
0.4941002657
 40
0.5285863031
 40
0.5633645793
 40
0.5983421206
 40
0.6334230896
 40
0.6685102104
 40
0.70350616
 40
0.7383148308
 40
0.7728428004
 40
0.8070006588
 40
0.8407043923
 40
0.8738769133
 40
0.9064494022
 40
0.9383630175
 40
1.0
 40
1.0
 40
1.0
 40
1.0
 10
10.6410683384
 20
7.3116695084
 30
0.0
 10
10.6410683458
 20
7.3045252545
 30
0.0
 10
10.6418266808
 20
7.2901860749
 30
0.0
 10
10.6452292019
 20
7.2688294555
 30
0.0
 10
10.6508766398
 20
7.2477156958
 30
0.0
 10
10.6587348765
 20
7.2269674771
 30
0.0
 10
10.6687568437
 20
7.2067004162
 30
0.0
 10
10.6808838928
 20
7.1870271865
 30
0.0
 10
10.6950453354
 20
7.168056775
 30
0.0
 10
10.7083883531
 20
7.1530178176
 30
0.0
 10
10.7199741845
 20
7.1414323851
 30
0.0
 10
10.7323231904
 20
7.1300119365
 30
0.0
 10
10.7488824842
 20
7.1163733889
 30
0.0
 10
10.7702758831
 20
7.1012028369
 30
0.0
 10
10.7932034454
 20
7.0872028595
 30
0.0
 10
10.8175372946
 20
7.0744506845
 30
0.0
 10
10.8431429004
 20
7.063015919
 30
0.0
 10
10.8698784813
 20
7.0529612924
 30
0.0
 10
10.8975961196
 20
7.0443419778
 30
0.0
 10
10.9261424427
 20
7.0372053501
 30
0.0
 10
10.9553594855
 20
7.0315906702
 30
0.0
 10
10.9850855571
 20
7.027528855
 30
0.0
 10
11.0151561224
 20
7.0250422905
 30
0.0
 10
11.0454047281
 20
7.0241446739
 30
0.0
 10
11.0756639274
 20
7.0248409477
 30
0.0
 10
11.1057662128
 20
7.0271272715
 30
0.0
 10
11.1355449542
 20
7.0309910422
 30
0.0
 10
11.1648353412
 20
7.0364109873
 30
0.0
 10
11.1934752002
 20
7.0433572308
 30
0.0
 10
11.2213062891
 20
7.0517917017
 30
0.0
 10
11.2481737241
 20
7.0616674986
 30
0.0
 10
11.273932074
 20
7.072932337
 30
0.0
 10
11.3062164748
 20
7.089519425
 30
0.0
 10
11.3289515654
 20
7.104124803
 30
0.0
 10
11.3431286757
 20
7.1147744769
 30
0.0
  0
SPLINE
  5
307
100
AcDbEntity
  8
0
100
AcDbSpline
 62
9
  6
CONTINUOUS
 70
0
 71
3
 72
28
 73
24
 74
0
 42
0.0000001
 43
0.0000001
 44
0.0000000001
 40
0.0
 40
0.0
 40
0.0
 40
0.0
 40
0.025710763
 40
0.0514832412
 40
0.0773781177
 40
0.1034540574
 40
0.1297667939
 40
0.1563683155
 40
0.1833062106
 40
0.2106231451
 40
0.2383564687
 40
0.2665379388
 40
0.3243220788
 40
0.3841398585
 40
0.4460434333
 40
0.5100037134
 40
0.5759188348
 40
0.6436238062
 40
0.7129000445
 40
0.7834850515
 40
0.8550815321
 40
0.9273661605
 40
1.0
 40
1.0
 40
1.0
 40
1.0
 10
11.4535683383
 20
8.1198041144
 30
0.0
 10
11.4535683383
 20
8.1151028555
 30
0.0
 10
11.4532410467
 20
8.1056857934
 30
0.0
 10
11.451770109
 20
8.0916029638
 30
0.0
 10
11.4493227047
 20
8.077588304
 30
0.0
 10
11.4459049837
 20
8.0636768604
 30
0.0
 10
11.4415254795
 20
8.049902223
 30
0.0
 10
11.4361951787
 20
8.0362978496
 30
0.0
 10
11.4299273159
 20
8.0228965775
 30
0.0
 10
11.4227374587
 20
8.0097308147
 30
0.0
 10
11.4146429273
 20
7.9968318766
 30
0.0
 10
11.4025725558
 20
7.9798923562
 30
0.0
 10
11.3852598459
 20
7.9595449051
 30
0.0
 10
11.3614230779
 20
7.9369000489
 30
0.0
 10
11.3345791955
 20
7.9160265479
 30
0.0
 10
11.3049889212
 20
7.8971217566
 30
0.0
 10
11.2729357265
 20
7.8803613817
 30
0.0
 10
11.2387263184
 20
7.8659029176
 30
0.0
 10
11.202687568
 20
7.8538821413
 30
0.0
 10
11.1651638976
 20
7.8444126425
 30
0.0
 10
11.1265132756
 20
7.8375838224
 30
0.0
 10
11.0871074468
 20
7.8334604647
 30
0.0
 10
11.0605995654
 20
7.8325419845
 30
0.0
 10
11.0473183383
 20
7.8325419845
 30
0.0
  0
SPLINE
  5
308
100
AcDbEntity
  8
0
100
AcDbSpline
 62
9
  6
CONTINUOUS
 70
0
 71
3
 72
39
 73
35
 74
0
 42
0.0000001
 43
0.0000001
 44
0.0000000001
 40
0.0
 40
0.0
 40
0.0
 40
0.0
 40
0.0724305473
 40
0.1082357938
 40
0.1435358098
 40
0.178181077
 40
0.2120406209
 40
0.2450050454
 40
0.2769918498
 40
0.307950102
 40
0.3230421803
 40
0.3378750466
 40
0.3667731482
 40
0.3947243258
 40
0.4218442108
 40
0.4482926331
 40
0.474268452
 40
0.5
 40
0.525731548
 40
0.5517073669
 40
0.5781557892
 40
0.6052756742
 40
0.6332268518
 40
0.6621249534
 40
0.6769578197
 40
0.692049898
 40
0.7230081502
 40
0.7549949546
 40
0.7879593791
 40
0.821818923
 40
0.8564641902
 40
0.8917642062
 40
0.9275694527
 40
1.0
 40
1.0
 40
1.0
 40
1.0
 10
12.0418598414
 20
8.7082409815
 30
0.0
 10
12.0418598414
 20
8.7012664871
 30
0.0
 10
12.0425796909
 20
8.6908240752
 30
0.0
 10
12.0449860804
 20
8.6772055706
 30
0.0
 10
12.0474800465
 20
8.667322575
 30
0.0
 10
12.0506458503
 20
8.6578315372
 30
0.0
 10
12.0544536412
 20
8.648822077
 30
0.0
 10
12.0588677263
 20
8.6403804272
 30
0.0
 10
12.0638463053
 20
8.6325877699
 30
0.0
 10
12.0684667022
 20
8.6266457773
 30
0.0
 10
12.0724028263
 20
8.6222979528
 30
0.0
 10
12.0764155839
 20
8.6182974455
 30
0.0
 10
12.081683787
 20
8.6138146854
 30
0.0
 10
12.0884111918
 20
8.6092964705
 30
0.0
 10
12.0954272374
 20
8.6057307129
 30
0.0
 10
12.1026641534
 20
8.6031552998
 30
0.0
 10
12.1100509813
 20
8.6015982919
 30
0.0
 10
12.1175136265
 20
8.6010772924
 30
0.0
 10
12.1249762716
 20
8.6015982919
 30
0.0
 10
12.1323630995
 20
8.6031552998
 30
0.0
 10
12.1396000155
 20
8.6057307129
 30
0.0
 10
12.1466160611
 20
8.6092964705
 30
0.0
 10
12.1533434659
 20
8.6138146854
 30
0.0
 10
12.1586116691
 20
8.6182974455
 30
0.0
 10
12.1626244266
 20
8.6222979528
 30
0.0
 10
12.1665605507
 20
8.6266457773
 30
0.0
 10
12.1711809477
 20
8.6325877699
 30
0.0
 10
12.1761595266
 20
8.6403804272
 30
0.0
 10
12.1805736117
 20
8.648822077
 30
0.0
 10
12.1843814026
 20
8.6578315372
 30
0.0
 10
12.1875472064
 20
8.667322575
 30
0.0
 10
12.1900411725
 20
8.6772055706
 30
0.0
 10
12.192447562
 20
8.6908240752
 30
0.0
 10
12.1931674115
 20
8.7012664871
 30
0.0
 10
12.1931674115
 20
8.7082409815
 30
0.0
  0
SPLINE
  5
309
100
AcDbEntity
  8
0
100
AcDbSpline
 62
9
  6
CONTINUOUS
 70
0
 71
3
 72
29
 73
25
 74
0
 42
0.0000001
 43
0.0000001
 44
0.0000000001
 40
0.0
 40
0.0
 40
0.0
 40
0.0
 40
0.0740033657
 40
0.1475589768
 40
0.2202376875
 40
0.2916330692
 40
0.3613823104
 40
0.4291785142
 40
0.4947863411
 40
0.5580574556
 40
0.6189458908
 40
0.6775221159
 40
0.7060151664
 40
0.7340152263
 40
0.7615674584
 40
0.7887246523
 40
0.8155469029
 40
0.8421006975
 40
0.8684577841
 40
0.8946939972
 40
0.9208876581
 40
0.9471179749
 40
0.9734633987
 40
1.0
 40
1.0
 40
1.0
 40
1.0
 10
11.8002253063
 20
8.7082409815
 30
0.0
 10
11.8002253063
 20
8.6995588941
 30
0.0
 10
11.800897889
 20
8.6822396087
 30
0.0
 10
11.8039157862
 20
8.6565525389
 30
0.0
 10
11.8089055249
 20
8.6314839403
 30
0.0
 10
11.8158082353
 20
8.6073362515
 30
0.0
 10
11.8245422414
 20
8.5843985203
 30
0.0
 10
11.8350047995
 20
8.5629457574
 30
0.0
 10
11.8470730563
 20
8.5432354089
 30
0.0
 10
11.8606069411
 20
8.5255043229
 30
0.0
 10
11.8754468789
 20
8.5099689757
 30
0.0
 10
11.8888881552
 20
8.4989067061
 30
0.0
 10
11.9001064826
 20
8.4913816546
 30
0.0
 10
11.908651133
 20
8.4864452454
 30
0.0
 10
11.9173762515
 20
8.4821809303
 30
0.0
 10
11.9262558391
 20
8.4786020074
 30
0.0
 10
11.9352627433
 20
8.4757196673
 30
0.0
 10
11.9443694918
 20
8.4735429678
 30
0.0
 10
11.95354821
 20
8.4720790928
 30
0.0
 10
11.9627706385
 20
8.4713324292
 30
0.0
 10
11.9720083469
 20
8.4713055941
 30
0.0
 10
11.9812329996
 20
8.4719986814
 30
0.0
 10
11.9904155478
 20
8.4734091011
 30
0.0
 10
11.99646459
 20
8.4748189033
 30
0.0
 10
11.9994680684
 20
8.475638428
 30
0.0
  0
SPLINE
  5
30A
100
AcDbEntity
  8
0
100
AcDbSpline
 62
9
  6
CONTINUOUS
 70
0
 71
3
 72
22
 73
18
 74
0
 42
0.0000001
 43
0.0000001
 44
0.0000000001
 40
0.0
 40
0.0
 40
0.0
 40
0.0
 40
0.14159742
 40
0.2117761555
 40
0.2811855649
 40
0.3495918545
 40
0.4167819049
 40
0.4825677758
 40
0.5467924433
 40
0.6093352894
 40
0.6701177777
 40
0.7291089912
 40
0.786330796
 40
0.8418621488
 40
0.895841877
 40
0.948469054
 40
1.0
 40
1.0
 40
1.0
 40
1.0
 10
11.6027954016
 20
8.7082409815
 30
0.0
 10
11.6027954016
 20
8.6946598811
 30
0.0
 10
11.6040295413
 20
8.6743177062
 30
0.0
 10
11.6081523002
 20
8.6476531066
 30
0.0
 10
11.6124378222
 20
8.6281544448
 30
0.0
 10
11.6178934888
 20
8.6092492659
 30
0.0
 10
11.6244794746
 20
8.5910755929
 30
0.0
 10
11.6321475772
 20
8.573768184
 30
0.0
 10
11.6408418312
 20
8.5574548698
 30
0.0
 10
11.650498923
 20
8.5422563868
 30
0.0
 10
11.661048694
 20
8.528285404
 30
0.0
 10
11.6724146195
 20
8.5156458935
 30
0.0
 10
11.6845143862
 20
8.5044325029
 30
0.0
 10
11.6972599652
 20
8.4947301367
 30
0.0
 10
11.7105591679
 20
8.4866131182
 30
0.0
 10
11.7243114649
 20
8.4801457994
 30
0.0
 10
11.7338011813
 20
8.4769394715
 30
0.0
 10
11.7385693792
 20
8.475638428
 30
0.0
  0
SPLINE
  5
30B
100
AcDbEntity
  8
0
100
AcDbSpline
 62
9
  6
CONTINUOUS
 70
0
 71
3
 72
39
 73
35
 74
0
 42
0.0000001
 43
0.0000001
 44
0.0000000001
 40
0.0
 40
0.0
 40
0.0
 40
0.0
 40
0.0724305473
 40
0.1082357938
 40
0.1435358098
 40
0.178181077
 40
0.2120406209
 40
0.2450050454
 40
0.2769918498
 40
0.307950102
 40
0.3230421803
 40
0.3378750466
 40
0.3667731482
 40
0.3947243258
 40
0.4218442108
 40
0.4482926331
 40
0.474268452
 40
0.5
 40
0.525731548
 40
0.5517073669
 40
0.5781557892
 40
0.6052756742
 40
0.6332268518
 40
0.6621249534
 40
0.6769578197
 40
0.692049898
 40
0.7230081502
 40
0.7549949546
 40
0.7879593791
 40
0.821818923
 40
0.8564641902
 40
0.8917642062
 40
0.9275694527
 40
1.0
 40
1.0
 40
1.0
 40
1.0
 10
12.0418598414
 20
8.7082409815
 30
0.0
 10
12.0418598414
 20
8.7152154758
 30
0.0
 10
12.0425796909
 20
8.7256578877
 30
0.0
 10
12.0449860804
 20
8.7392763923
 30
0.0
 10
12.0474800465
 20
8.749159388
 30
0.0
 10
12.0506458503
 20
8.7586504257
 30
0.0
 10
12.0544536412
 20
8.767659886
 30
0.0
 10
12.0588677263
 20
8.7761015357
 30
0.0
 10
12.0638463053
 20
8.7838941931
 30
0.0
 10
12.0684667022
 20
8.7898361856
 30
0.0
 10
12.0724028263
 20
8.7941840102
 30
0.0
 10
12.0764155839
 20
8.7981845175
 30
0.0
 10
12.081683787
 20
8.8026672775
 30
0.0
 10
12.0884111918
 20
8.8071854924
 30
0.0
 10
12.0954272374
 20
8.8107512501
 30
0.0
 10
12.1026641534
 20
8.8133266631
 30
0.0
 10
12.1100509813
 20
8.814883671
 30
0.0
 10
12.1175136265
 20
8.8154046705
 30
0.0
 10
12.1249762716
 20
8.814883671
 30
0.0
 10
12.1323630995
 20
8.8133266631
 30
0.0
 10
12.1396000155
 20
8.8107512501
 30
0.0
 10
12.1466160611
 20
8.8071854924
 30
0.0
 10
12.1533434659
 20
8.8026672775
 30
0.0
 10
12.1586116691
 20
8.7981845175
 30
0.0
 10
12.1626244266
 20
8.7941840102
 30
0.0
 10
12.1665605507
 20
8.7898361856
 30
0.0
 10
12.1711809477
 20
8.7838941931
 30
0.0
 10
12.1761595266
 20
8.7761015357
 30
0.0
 10
12.1805736117
 20
8.767659886
 30
0.0
 10
12.1843814026
 20
8.7586504257
 30
0.0
 10
12.1875472064
 20
8.749159388
 30
0.0
 10
12.1900411725
 20
8.7392763923
 30
0.0
 10
12.192447562
 20
8.7256578877
 30
0.0
 10
12.1931674115
 20
8.7152154758
 30
0.0
 10
12.1931674115
 20
8.7082409815
 30
0.0
  0
SPLINE
  5
30C
100
AcDbEntity
  8
0
100
AcDbSpline
 62
9
  6
CONTINUOUS
 70
0
 71
3
 72
29
 73
25
 74
0
 42
0.0000001
 43
0.0000001
 44
0.0000000001
 40
0.0
 40
0.0
 40
0.0
 40
0.0
 40
0.0740033657
 40
0.1475589768
 40
0.2202376875
 40
0.2916330692
 40
0.3613823104
 40
0.4291785142
 40
0.4947863411
 40
0.5580574556
 40
0.6189458908
 40
0.6775221159
 40
0.7060151664
 40
0.7340152263
 40
0.7615674584
 40
0.7887246523
 40
0.8155469029
 40
0.8421006975
 40
0.8684577841
 40
0.8946939972
 40
0.9208876581
 40
0.9471179749
 40
0.9734633987
 40
1.0
 40
1.0
 40
1.0
 40
1.0
 10
11.8002253063
 20
8.7082409815
 30
0.0
 10
11.8002253063
 20
8.7169230689
 30
0.0
 10
11.800897889
 20
8.7342423543
 30
0.0
 10
11.8039157862
 20
8.759929424
 30
0.0
 10
11.8089055249
 20
8.7849980227
 30
0.0
 10
11.8158082353
 20
8.8091457115
 30
0.0
 10
11.8245422414
 20
8.8320834426
 30
0.0
 10
11.8350047995
 20
8.8535362056
 30
0.0
 10
11.8470730563
 20
8.873246554
 30
0.0
 10
11.8606069411
 20
8.89097764
 30
0.0
 10
11.8754468789
 20
8.9065129873
 30
0.0
 10
11.8888881552
 20
8.9175752568
 30
0.0
 10
11.9001064826
 20
8.9251003084
 30
0.0
 10
11.908651133
 20
8.9300367176
 30
0.0
 10
11.9173762515
 20
8.9343010326
 30
0.0
 10
11.9262558391
 20
8.9378799556
 30
0.0
 10
11.9352627433
 20
8.9407622957
 30
0.0
 10
11.9443694918
 20
8.9429389952
 30
0.0
 10
11.95354821
 20
8.9444028701
 30
0.0
 10
11.9627706385
 20
8.9451495338
 30
0.0
 10
11.9720083469
 20
8.9451763689
 30
0.0
 10
11.9812329996
 20
8.9444832815
 30
0.0
 10
11.9904155478
 20
8.9430728618
 30
0.0
 10
11.99646459
 20
8.9416630596
 30
0.0
 10
11.9994680684
 20
8.9408435349
 30
0.0
  0
SPLINE
  5
30D
100
AcDbEntity
  8
0
100
AcDbSpline
 62
9
  6
CONTINUOUS
 70
0
 71
3
 72
22
 73
18
 74
0
 42
0.0000001
 43
0.0000001
 44
0.0000000001
 40
0.0
 40
0.0
 40
0.0
 40
0.0
 40
0.051530946
 40
0.104158123
 40
0.1581378512
 40
0.213669204
 40
0.2708910088
 40
0.3298822223
 40
0.3906647106
 40
0.4532075567
 40
0.5174322242
 40
0.5832180951
 40
0.6504081455
 40
0.7188144351
 40
0.7882238445
 40
0.85840258
 40
1.0
 40
1.0
 40
1.0
 40
1.0
 10
10.3560672974
 20
8.9408435349
 30
0.0
 10
10.3608354953
 20
8.9395424915
 30
0.0
 10
10.3703252117
 20
8.9363361635
 30
0.0
 10
10.3840775087
 20
8.9298688447
 30
0.0
 10
10.3973767114
 20
8.9217518262
 30
0.0
 10
10.4101222904
 20
8.91204946
 30
0.0
 10
10.4222220571
 20
8.9008360695
 30
0.0
 10
10.4335879826
 20
8.8881965589
 30
0.0
 10
10.4441377536
 20
8.8742255761
 30
0.0
 10
10.4537948454
 20
8.8590270932
 30
0.0
 10
10.4624890994
 20
8.842713779
 30
0.0
 10
10.470157202
 20
8.82540637
 30
0.0
 10
10.4767431878
 20
8.8072326971
 30
0.0
 10
10.4821988544
 20
8.7883275182
 30
0.0
 10
10.4864843763
 20
8.7688288563
 30
0.0
 10
10.4906071353
 20
8.7421642568
 30
0.0
 10
10.491841275
 20
8.7218220819
 30
0.0
 10
10.491841275
 20
8.7082409815
 30
0.0
  0
SPLINE
  5
30E
100
AcDbEntity
  8
0
100
AcDbSpline
 62
9
  6
CONTINUOUS
 70
0
 71
3
 72
29
 73
25
 74
0
 42
0.0000001
 43
0.0000001
 44
0.0000000001
 40
0.0
 40
0.0
 40
0.0
 40
0.0
 40
0.0265366013
 40
0.0528820251
 40
0.0791123419
 40
0.1053060028
 40
0.1315422159
 40
0.1578993025
 40
0.1844530971
 40
0.2112753477
 40
0.2384325416
 40
0.2659847737
 40
0.2939848336
 40
0.3224778841
 40
0.3810541092
 40
0.4419425444
 40
0.5052136589
 40
0.5708214858
 40
0.6386176896
 40
0.7083669308
 40
0.7797623125
 40
0.8524410232
 40
0.9259966343
 40
1.0
 40
1.0
 40
1.0
 40
1.0
 10
10.0951686082
 20
8.9408435349
 30
0.0
 10
10.0981720866
 20
8.9416630596
 30
0.0
 10
10.1042211288
 20
8.9430728618
 30
0.0
 10
10.1134036769
 20
8.9444832815
 30
0.0
 10
10.1226283297
 20
8.9451763689
 30
0.0
 10
10.1318660381
 20
8.9451495338
 30
0.0
 10
10.1410884665
 20
8.9444028701
 30
0.0
 10
10.1502671847
 20
8.9429389952
 30
0.0
 10
10.1593739333
 20
8.9407622957
 30
0.0
 10
10.1683808375
 20
8.9378799556
 30
0.0
 10
10.177260425
 20
8.9343010326
 30
0.0
 10
10.1859855436
 20
8.9300367176
 30
0.0
 10
10.194530194
 20
8.9251003084
 30
0.0
 10
10.2057485214
 20
8.9175752568
 30
0.0
 10
10.2191897977
 20
8.9065129873
 30
0.0
 10
10.2340297354
 20
8.89097764
 30
0.0
 10
10.2475636202
 20
8.873246554
 30
0.0
 10
10.2596318771
 20
8.8535362056
 30
0.0
 10
10.2700944352
 20
8.8320834426
 30
0.0
 10
10.2788284413
 20
8.8091457115
 30
0.0
 10
10.2857311517
 20
8.7849980227
 30
0.0
 10
10.2907208904
 20
8.759929424
 30
0.0
 10
10.2937387875
 20
8.7342423543
 30
0.0
 10
10.2944113702
 20
8.7169230689
 30
0.0
 10
10.2944113702
 20
8.7082409815
 30
0.0
  0
SPLINE
  5
30F
100
AcDbEntity
  8
0
100
AcDbSpline
 62
9
  6
CONTINUOUS
 70
0
 71
3
 72
22
 73
18
 74
0
 42
0.0000001
 43
0.0000001
 44
0.0000000001
 40
0.0
 40
0.0
 40
0.0
 40
0.0
 40
0.14159742
 40
0.2117761555
 40
0.2811855649
 40
0.3495918545
 40
0.4167819049
 40
0.4825677758
 40
0.5467924433
 40
0.6093352894
 40
0.6701177777
 40
0.7291089912
 40
0.786330796
 40
0.8418621488
 40
0.895841877
 40
0.948469054
 40
1.0
 40
1.0
 40
1.0
 40
1.0
 10
11.6027954016
 20
8.7082409815
 30
0.0
 10
11.6027954016
 20
8.7218220819
 30
0.0
 10
11.6040295413
 20
8.7421642568
 30
0.0
 10
11.6081523002
 20
8.7688288563
 30
0.0
 10
11.6124378222
 20
8.7883275182
 30
0.0
 10
11.6178934888
 20
8.8072326971
 30
0.0
 10
11.6244794746
 20
8.82540637
 30
0.0
 10
11.6321475772
 20
8.842713779
 30
0.0
 10
11.6408418312
 20
8.8590270932
 30
0.0
 10
11.650498923
 20
8.8742255761
 30
0.0
 10
11.661048694
 20
8.8881965589
 30
0.0
 10
11.6724146195
 20
8.9008360695
 30
0.0
 10
11.6845143862
 20
8.91204946
 30
0.0
 10
11.6972599652
 20
8.9217518262
 30
0.0
 10
11.7105591679
 20
8.9298688447
 30
0.0
 10
11.7243114649
 20
8.9363361635
 30
0.0
 10
11.7338011813
 20
8.9395424915
 30
0.0
 10
11.7385693792
 20
8.9408435349
 30
0.0
  0
SPLINE
  5
310
100
AcDbEntity
  8
0
100
AcDbSpline
 62
9
  6
CONTINUOUS
 70
0
 71
3
 72
16
 73
12
 74
0
 42
0.0000001
 43
0.0000001
 44
0.0000000001
 40
0.0
 40
0.0
 40
0.0
 40
0.0
 40
0.1099699832
 40
0.1668952746
 40
0.2251003301
 40
0.3451990642
 40
0.4699418872
 40
0.5986942611
 40
0.7306235374
 40
0.8647487892
 40
1.0
 40
1.0
 40
1.0
 40
1.0
 10
10.4647587356
 20
8.5322404862
 30
0.0
 10
10.4702441005
 20
8.5368485869
 30
0.0
 10
10.4780612187
 20
8.544470781
 30
0.0
 10
10.4875110521
 20
8.5556921732
 30
0.0
 10
10.4966275115
 20
8.5680216728
 30
0.0
 10
10.5068879897
 20
8.5849450364
 30
0.0
 10
10.5171336542
 20
8.6070712809
 30
0.0
 10
10.5252803838
 20
8.6308668812
 30
0.0
 10
10.5311953684
 20
8.655938404
 30
0.0
 10
10.5347834064
 20
8.681870535
 30
0.0
 10
10.5355839625
 20
8.6994299554
 30
0.0
 10
10.5355839625
 20
8.7082409815
 30
0.0
  0
SPLINE
  5
311
100
AcDbEntity
  8
0
100
AcDbSpline
 62
9
  6
CONTINUOUS
 70
0
 71
3
 72
22
 73
18
 74
0
 42
0.0000001
 43
0.0000001
 44
0.0000000001
 40
0.0
 40
0.0
 40
0.0
 40
0.0
 40
0.051530946
 40
0.104158123
 40
0.1581378512
 40
0.213669204
 40
0.2708910088
 40
0.3298822223
 40
0.3906647106
 40
0.4532075567
 40
0.5174322242
 40
0.5832180951
 40
0.6504081455
 40
0.7188144351
 40
0.7882238445
 40
0.85840258
 40
1.0
 40
1.0
 40
1.0
 40
1.0
 10
10.3560672974
 20
8.475638428
 30
0.0
 10
10.3608354953
 20
8.4769394715
 30
0.0
 10
10.3703252117
 20
8.4801457994
 30
0.0
 10
10.3840775087
 20
8.4866131182
 30
0.0
 10
10.3973767114
 20
8.4947301367
 30
0.0
 10
10.4101222904
 20
8.5044325029
 30
0.0
 10
10.4222220571
 20
8.5156458935
 30
0.0
 10
10.4335879826
 20
8.528285404
 30
0.0
 10
10.4441377536
 20
8.5422563868
 30
0.0
 10
10.4537948454
 20
8.5574548698
 30
0.0
 10
10.4624890994
 20
8.573768184
 30
0.0
 10
10.470157202
 20
8.5910755929
 30
0.0
 10
10.4767431878
 20
8.6092492659
 30
0.0
 10
10.4821988544
 20
8.6281544448
 30
0.0
 10
10.4864843763
 20
8.6476531066
 30
0.0
 10
10.4906071353
 20
8.6743177062
 30
0.0
 10
10.491841275
 20
8.6946598811
 30
0.0
 10
10.491841275
 20
8.7082409815
 30
0.0
  0
SPLINE
  5
312
100
AcDbEntity
  8
0
100
AcDbSpline
 62
9
  6
CONTINUOUS
 70
0
 71
3
 72
29
 73
25
 74
0
 42
0.0000001
 43
0.0000001
 44
0.0000000001
 40
0.0
 40
0.0
 40
0.0
 40
0.0
 40
0.0265366013
 40
0.0528820251
 40
0.0791123419
 40
0.1053060028
 40
0.1315422159
 40
0.1578993025
 40
0.1844530971
 40
0.2112753477
 40
0.2384325416
 40
0.2659847737
 40
0.2939848336
 40
0.3224778841
 40
0.3810541092
 40
0.4419425444
 40
0.5052136589
 40
0.5708214858
 40
0.6386176896
 40
0.7083669308
 40
0.7797623125
 40
0.8524410232
 40
0.9259966343
 40
1.0
 40
1.0
 40
1.0
 40
1.0
 10
10.0951686082
 20
8.475638428
 30
0.0
 10
10.0981720866
 20
8.4748189033
 30
0.0
 10
10.1042211288
 20
8.4734091011
 30
0.0
 10
10.1134036769
 20
8.4719986814
 30
0.0
 10
10.1226283297
 20
8.4713055941
 30
0.0
 10
10.1318660381
 20
8.4713324292
 30
0.0
 10
10.1410884665
 20
8.4720790928
 30
0.0
 10
10.1502671847
 20
8.4735429678
 30
0.0
 10
10.1593739333
 20
8.4757196673
 30
0.0
 10
10.1683808375
 20
8.4786020074
 30
0.0
 10
10.177260425
 20
8.4821809303
 30
0.0
 10
10.1859855436
 20
8.4864452454
 30
0.0
 10
10.194530194
 20
8.4913816546
 30
0.0
 10
10.2057485214
 20
8.4989067061
 30
0.0
 10
10.2191897977
 20
8.5099689757
 30
0.0
 10
10.2340297354
 20
8.5255043229
 30
0.0
 10
10.2475636202
 20
8.5432354089
 30
0.0
 10
10.2596318771
 20
8.5629457574
 30
0.0
 10
10.2700944352
 20
8.5843985203
 30
0.0
 10
10.2788284413
 20
8.6073362515
 30
0.0
 10
10.2857311517
 20
8.6314839403
 30
0.0
 10
10.2907208904
 20
8.6565525389
 30
0.0
 10
10.2937387875
 20
8.6822396087
 30
0.0
 10
10.2944113702
 20
8.6995588941
 30
0.0
 10
10.2944113702
 20
8.7082409815
 30
0.0
  0
SPLINE
  5
313
100
AcDbEntity
  8
0
100
AcDbSpline
 62
9
  6
CONTINUOUS
 70
0
 71
3
 72
19
 73
15
 74
0
 42
0.0000001
 43
0.0000001
 44
0.0000000001
 40
0.0
 40
0.0
 40
0.0
 40
0.0
 40
0.1428971788
 40
0.2803755092
 40
0.4121223643
 40
0.5381667572
 40
0.5992056656
 40
0.6590093999
 40
0.7176938987
 40
0.7754000771
 40
0.8322920312
 40
0.8885537792
 40
0.9443857878
 40
1.0
 40
1.0
 40
1.0
 40
1.0
 10
11.4534916255
 20
8.6277600576
 30
0.0
 10
11.4558308847
 20
8.6225567807
 30
0.0
 10
11.4609445758
 20
8.612571497
 30
0.0
 10
11.4700421471
 20
8.598819425
 30
0.0
 10
11.4802948449
 20
8.5867700439
 30
0.0
 10
11.4897799076
 20
8.5782144681
 30
0.0
 10
11.4977813155
 20
8.5724453179
 30
0.0
 10
11.5038995272
 20
8.5686980814
 30
0.0
 10
11.5101735447
 20
8.5655009415
 30
0.0
 10
11.5165789121
 20
8.5628667365
 30
0.0
 10
11.5230901189
 20
8.5608062672
 30
0.0
 10
11.5296815179
 20
8.5593283396
 30
0.0
 10
11.5363259748
 20
8.5584390588
 30
0.0
 10
11.5407777891
 20
8.5582409815
 30
0.0
 10
11.5429980931
 20
8.5582409815
 30
0.0
  0
SPLINE
  5
314
100
AcDbEntity
  8
0
100
AcDbSpline
 62
9
  6
CONTINUOUS
 70
0
 71
3
 72
19
 73
15
 74
0
 42
0.0000001
 43
0.0000001
 44
0.0000000001
 40
0.0
 40
0.0
 40
0.0
 40
0.0
 40
0.0556142122
 40
0.1114462208
 40
0.1677079688
 40
0.2245999229
 40
0.2823061013
 40
0.3409906001
 40
0.4007943344
 40
0.4618332428
 40
0.5878776357
 40
0.7196244908
 40
0.8571028212
 40
1.0
 40
1.0
 40
1.0
 40
1.0
 10
10.5516385834
 20
8.5582409815
 30
0.0
 10
10.5538588874
 20
8.5582409815
 30
0.0
 10
10.5583107018
 20
8.5584390588
 30
0.0
 10
10.5649551586
 20
8.5593283396
 30
0.0
 10
10.5715465576
 20
8.5608062672
 30
0.0
 10
10.5780577645
 20
8.5628667365
 30
0.0
 10
10.5844631319
 20
8.5655009415
 30
0.0
 10
10.5907371494
 20
8.5686980814
 30
0.0
 10
10.5968553611
 20
8.5724453179
 30
0.0
 10
10.6048567689
 20
8.5782144681
 30
0.0
 10
10.6143418316
 20
8.5867700439
 30
0.0
 10
10.6245945295
 20
8.598819425
 30
0.0
 10
10.6336921007
 20
8.6125714969
 30
0.0
 10
10.6388057919
 20
8.6225567807
 30
0.0
 10
10.641145051
 20
8.6277600576
 30
0.0
  0
SPLINE
  5
315
100
AcDbEntity
  8
0
100
AcDbSpline
 62
9
  6
CONTINUOUS
 70
0
 71
3
 72
16
 73
12
 74
0
 42
0.0000001
 43
0.0000001
 44
0.0000000001
 40
0.0
 40
0.0
 40
0.0
 40
0.0
 40
0.1099699832
 40
0.1668952746
 40
0.2251003301
 40
0.3451990642
 40
0.4699418872
 40
0.5986942611
 40
0.7306235374
 40
0.8647487892
 40
1.0
 40
1.0
 40
1.0
 40
1.0
 10
11.6298779409
 20
8.8842414767
 30
0.0
 10
11.6243925761
 20
8.879633376
 30
0.0
 10
11.6165754579
 20
8.8720111819
 30
0.0
 10
11.6071256244
 20
8.8607897898
 30
0.0
 10
11.598009165
 20
8.8484602902
 30
0.0
 10
11.5877486869
 20
8.8315369266
 30
0.0
 10
11.5775030223
 20
8.8094106821
 30
0.0
 10
11.5693562928
 20
8.7856150817
 30
0.0
 10
11.5634413082
 20
8.760543559
 30
0.0
 10
11.5598532702
 20
8.734611428
 30
0.0
 10
11.5590527141
 20
8.7170520076
 30
0.0
 10
11.5590527141
 20
8.7082409815
 30
0.0
  0
SPLINE
  5
316
100
AcDbEntity
  8
0
100
AcDbSpline
 62
9
  6
CONTINUOUS
 70
0
 71
3
 72
16
 73
12
 74
0
 42
0.0000001
 43
0.0000001
 44
0.0000000001
 40
0.0
 40
0.0
 40
0.0
 40
0.0
 40
0.135251212
 40
0.2693764635
 40
0.4013057394
 40
0.5300581131
 40
0.6548009361
 40
0.7748996701
 40
0.8331047255
 40
0.8900300168
 40
1.0
 40
1.0
 40
1.0
 40
1.0
 10
11.5590527141
 20
8.7082409815
 30
0.0
 10
11.5590527141
 20
8.6994299553
 30
0.0
 10
11.5598532702
 20
8.6818705348
 30
0.0
 10
11.5634413082
 20
8.6559384038
 30
0.0
 10
11.5693562928
 20
8.6308668811
 30
0.0
 10
11.5775030224
 20
8.6070712808
 30
0.0
 10
11.5877486869
 20
8.5849450363
 30
0.0
 10
11.5980091651
 20
8.5680216727
 30
0.0
 10
11.6071256244
 20
8.5556921732
 30
0.0
 10
11.6165754579
 20
8.544470781
 30
0.0
 10
11.6243925761
 20
8.5368485869
 30
0.0
 10
11.6298779409
 20
8.5322404862
 30
0.0
  0
SPLINE
  5
317
100
AcDbEntity
  8
0
100
AcDbSpline
 62
9
  6
CONTINUOUS
 70
0
 71
3
 72
19
 73
15
 74
0
 42
0.0000001
 43
0.0000001
 44
0.0000000001
 40
0.0
 40
0.0
 40
0.0
 40
0.0
 40
0.0556142122
 40
0.1114462208
 40
0.1677079688
 40
0.2245999229
 40
0.2823061013
 40
0.3409906001
 40
0.4007943344
 40
0.4618332428
 40
0.5878776357
 40
0.7196244908
 40
0.8571028212
 40
1.0
 40
1.0
 40
1.0
 40
1.0
 10
11.5429980931
 20
8.8582409815
 30
0.0
 10
11.5407777891
 20
8.8582409815
 30
0.0
 10
11.5363259748
 20
8.8580429042
 30
0.0
 10
11.5296815179
 20
8.8571536234
 30
0.0
 10
11.5230901189
 20
8.8556756958
 30
0.0
 10
11.5165789121
 20
8.8536152264
 30
0.0
 10
11.5101735447
 20
8.8509810214
 30
0.0
 10
11.5038995272
 20
8.8477838815
 30
0.0
 10
11.4977813155
 20
8.844036645
 30
0.0
 10
11.4897799076
 20
8.8382674949
 30
0.0
 10
11.4802948449
 20
8.829711919
 30
0.0
 10
11.4700421471
 20
8.8176625379
 30
0.0
 10
11.4609445758
 20
8.803910466
 30
0.0
 10
11.4558308847
 20
8.7939251823
 30
0.0
 10
11.4534916256
 20
8.7887219053
 30
0.0
  0
SPLINE
  5
318
100
AcDbEntity
  8
0
100
AcDbSpline
 62
9
  6
CONTINUOUS
 70
0
 71
3
 72
39
 73
35
 74
0
 42
0.0000001
 43
0.0000001
 44
0.0000000001
 40
0.0
 40
0.0
 40
0.0
 40
0.0
 40
0.0724305473
 40
0.1082357938
 40
0.1435358098
 40
0.178181077
 40
0.2120406209
 40
0.2450050454
 40
0.2769918498
 40
0.307950102
 40
0.3230421803
 40
0.3378750466
 40
0.3667731482
 40
0.3947243258
 40
0.4218442108
 40
0.4482926331
 40
0.474268452
 40
0.5
 40
0.525731548
 40
0.5517073669
 40
0.5781557892
 40
0.6052756742
 40
0.6332268518
 40
0.6621249534
 40
0.6769578197
 40
0.692049898
 40
0.7230081502
 40
0.7549949546
 40
0.7879593791
 40
0.821818923
 40
0.8564641902
 40
0.8917642062
 40
0.9275694527
 40
1.0
 40
1.0
 40
1.0
 40
1.0
 10
9.9014692651
 20
8.7082409815
 30
0.0
 10
9.9014692651
 20
8.7012664871
 30
0.0
 10
9.9021891145
 20
8.6908240752
 30
0.0
 10
9.9045955041
 20
8.6772055706
 30
0.0
 10
9.9070894701
 20
8.667322575
 30
0.0
 10
9.910255274
 20
8.6578315372
 30
0.0
 10
9.9140630648
 20
8.648822077
 30
0.0
 10
9.91847715
 20
8.6403804272
 30
0.0
 10
9.9234557289
 20
8.6325877699
 30
0.0
 10
9.9280761259
 20
8.6266457773
 30
0.0
 10
9.9320122499
 20
8.6222979528
 30
0.0
 10
9.9360250075
 20
8.6182974455
 30
0.0
 10
9.9412932107
 20
8.6138146854
 30
0.0
 10
9.9480206155
 20
8.6092964705
 30
0.0
 10
9.955036661
 20
8.6057307129
 30
0.0
 10
9.962273577
 20
8.6031552998
 30
0.0
 10
9.969660405
 20
8.6015982919
 30
0.0
 10
9.9771230501
 20
8.6010772924
 30
0.0
 10
9.9845856952
 20
8.6015982919
 30
0.0
 10
9.9919725232
 20
8.6031552998
 30
0.0
 10
9.9992094392
 20
8.6057307129
 30
0.0
 10
10.0062254847
 20
8.6092964705
 30
0.0
 10
10.0129528896
 20
8.6138146854
 30
0.0
 10
10.0182210927
 20
8.6182974455
 30
0.0
 10
10.0222338503
 20
8.6222979528
 30
0.0
 10
10.0261699743
 20
8.6266457773
 30
0.0
 10
10.0307903713
 20
8.6325877699
 30
0.0
 10
10.0357689503
 20
8.6403804272
 30
0.0
 10
10.0401830354
 20
8.648822077
 30
0.0
 10
10.0439908263
 20
8.6578315372
 30
0.0
 10
10.0471566301
 20
8.667322575
 30
0.0
 10
10.0496505962
 20
8.6772055706
 30
0.0
 10
10.0520569857
 20
8.6908240752
 30
0.0
 10
10.0527768351
 20
8.7012664871
 30
0.0
 10
10.0527768351
 20
8.7082409815
 30
0.0
  0
SPLINE
  5
319
100
AcDbEntity
  8
0
100
AcDbSpline
 62
9
  6
CONTINUOUS
 70
0
 71
3
 72
39
 73
35
 74
0
 42
0.0000001
 43
0.0000001
 44
0.0000000001
 40
0.0
 40
0.0
 40
0.0
 40
0.0
 40
0.0724305473
 40
0.1082357938
 40
0.1435358098
 40
0.178181077
 40
0.2120406209
 40
0.2450050454
 40
0.2769918498
 40
0.307950102
 40
0.3230421803
 40
0.3378750466
 40
0.3667731482
 40
0.3947243258
 40
0.4218442108
 40
0.4482926331
 40
0.474268452
 40
0.5
 40
0.525731548
 40
0.5517073669
 40
0.5781557892
 40
0.6052756742
 40
0.6332268518
 40
0.6621249534
 40
0.6769578197
 40
0.692049898
 40
0.7230081502
 40
0.7549949546
 40
0.7879593791
 40
0.821818923
 40
0.8564641902
 40
0.8917642062
 40
0.9275694527
 40
1.0
 40
1.0
 40
1.0
 40
1.0
 10
9.9014692651
 20
8.7082409815
 30
0.0
 10
9.9014692651
 20
8.7152154758
 30
0.0
 10
9.9021891145
 20
8.7256578877
 30
0.0
 10
9.9045955041
 20
8.7392763923
 30
0.0
 10
9.9070894701
 20
8.749159388
 30
0.0
 10
9.910255274
 20
8.7586504257
 30
0.0
 10
9.9140630648
 20
8.767659886
 30
0.0
 10
9.91847715
 20
8.7761015357
 30
0.0
 10
9.9234557289
 20
8.7838941931
 30
0.0
 10
9.9280761259
 20
8.7898361856
 30
0.0
 10
9.9320122499
 20
8.7941840102
 30
0.0
 10
9.9360250075
 20
8.7981845175
 30
0.0
 10
9.9412932107
 20
8.8026672775
 30
0.0
 10
9.9480206155
 20
8.8071854924
 30
0.0
 10
9.955036661
 20
8.8107512501
 30
0.0
 10
9.962273577
 20
8.8133266631
 30
0.0
 10
9.969660405
 20
8.814883671
 30
0.0
 10
9.9771230501
 20
8.8154046705
 30
0.0
 10
9.9845856952
 20
8.814883671
 30
0.0
 10
9.9919725232
 20
8.8133266631
 30
0.0
 10
9.9992094392
 20
8.8107512501
 30
0.0
 10
10.0062254847
 20
8.8071854924
 30
0.0
 10
10.0129528896
 20
8.8026672775
 30
0.0
 10
10.0182210927
 20
8.7981845175
 30
0.0
 10
10.0222338503
 20
8.7941840102
 30
0.0
 10
10.0261699743
 20
8.7898361856
 30
0.0
 10
10.0307903713
 20
8.7838941931
 30
0.0
 10
10.0357689503
 20
8.7761015357
 30
0.0
 10
10.0401830354
 20
8.767659886
 30
0.0
 10
10.0439908263
 20
8.7586504257
 30
0.0
 10
10.0471566301
 20
8.749159388
 30
0.0
 10
10.0496505962
 20
8.7392763923
 30
0.0
 10
10.0520569857
 20
8.7256578877
 30
0.0
 10
10.0527768351
 20
8.7152154758
 30
0.0
 10
10.0527768351
 20
8.7082409815
 30
0.0
  0
SPLINE
  5
31A
100
AcDbEntity
  8
0
100
AcDbSpline
 62
9
  6
CONTINUOUS
 70
0
 71
3
 72
19
 73
15
 74
0
 42
0.0000001
 43
0.0000001
 44
0.0000000001
 40
0.0
 40
0.0
 40
0.0
 40
0.0
 40
0.1428971788
 40
0.2803755092
 40
0.4121223643
 40
0.5381667572
 40
0.5992056656
 40
0.6590093999
 40
0.7176938987
 40
0.7754000771
 40
0.8322920312
 40
0.8885537792
 40
0.9443857878
 40
1.0
 40
1.0
 40
1.0
 40
1.0
 10
10.641145051
 20
8.7887219053
 30
0.0
 10
10.6388057919
 20
8.7939251822
 30
0.0
 10
10.6336921007
 20
8.803910466
 30
0.0
 10
10.6245945295
 20
8.8176625379
 30
0.0
 10
10.6143418316
 20
8.829711919
 30
0.0
 10
10.6048567689
 20
8.8382674949
 30
0.0
 10
10.5968553611
 20
8.844036645
 30
0.0
 10
10.5907371494
 20
8.8477838815
 30
0.0
 10
10.5844631319
 20
8.8509810214
 30
0.0
 10
10.5780577645
 20
8.8536152264
 30
0.0
 10
10.5715465576
 20
8.8556756958
 30
0.0
 10
10.5649551586
 20
8.8571536234
 30
0.0
 10
10.5583107018
 20
8.8580429042
 30
0.0
 10
10.5538588874
 20
8.8582409815
 30
0.0
 10
10.5516385834
 20
8.8582409815
 30
0.0
  0
SPLINE
  5
31B
100
AcDbEntity
  8
0
100
AcDbSpline
 62
9
  6
CONTINUOUS
 70
0
 71
3
 72
16
 73
12
 74
0
 42
0.0000001
 43
0.0000001
 44
0.0000000001
 40
0.0
 40
0.0
 40
0.0
 40
0.0
 40
0.135251212
 40
0.2693764635
 40
0.4013057394
 40
0.5300581131
 40
0.6548009361
 40
0.7748996701
 40
0.8331047255
 40
0.8900300168
 40
1.0
 40
1.0
 40
1.0
 40
1.0
 10
10.5355839625
 20
8.7082409815
 30
0.0
 10
10.5355839625
 20
8.7170520076
 30
0.0
 10
10.5347834064
 20
8.7346114281
 30
0.0
 10
10.5311953683
 20
8.7605435591
 30
0.0
 10
10.5252803838
 20
8.7856150818
 30
0.0
 10
10.5171336542
 20
8.8094106822
 30
0.0
 10
10.5068879897
 20
8.8315369266
 30
0.0
 10
10.4966275115
 20
8.8484602902
 30
0.0
 10
10.4875110521
 20
8.8607897898
 30
0.0
 10
10.4780612187
 20
8.8720111819
 30
0.0
 10
10.4702441005
 20
8.879633376
 30
0.0
 10
10.4647587356
 20
8.8842414767
 30
0.0
  0
SPLINE
  5
31C
100
AcDbEntity
  8
0
100
AcDbSpline
 62
7
  6
CONTINUOUS
 70
0
 71
3
 72
20
 73
16
 74
0
 42
0.0000001
 43
0.0000001
 44
0.0000000001
 40
0.0
 40
0.0
 40
0.0
 40
0.0
 40
0.1364609703
 40
0.2042502834
 40
0.2715430426
 40
0.4040564191
 40
0.469062541
 40
0.5330672778
 40
0.5959685996
 40
0.6576776782
 40
0.7771878403
 40
0.8349469564
 40
0.8913278022
 40
0.9463356741
 40
1.0
 40
1.0
 40
1.0
 40
1.0
 10
11.0473183383
 20
6.8833389507
 30
0.0
 10
11.0296280856
 20
6.8829850943
 30
0.0
 10
11.0031035913
 20
6.8836771093
 30
0.0
 10
10.9680477225
 20
6.8870581887
 30
0.0
 10
10.9336964046
 20
6.892015054
 30
0.0
 10
10.9000846297
 20
6.8993428964
 30
0.0
 10
10.867579355
 20
6.9090414898
 30
0.0
 10
10.8441201479
 20
6.9173744601
 30
0.0
 10
10.8215286686
 20
6.9267745461
 30
0.0
 10
10.793005429
 20
6.9405232485
 30
0.0
 10
10.7662517026
 20
6.9563300511
 30
0.0
 10
10.7417182272
 20
6.9741328255
 30
0.0
 10
10.7248292006
 20
6.988151711
 30
0.0
 10
10.7093206989
 20
7.0029229581
 30
0.0
 10
10.6998294278
 20
7.0133579168
 30
0.0
 10
10.6953467171
 20
7.0186797703
 30
0.0
  0
SPLINE
  5
31D
100
AcDbEntity
  8
0
100
AcDbSpline
 62
7
  6
CONTINUOUS
 70
0
 71
3
 72
27
 73
23
 74
0
 42
0.0000001
 43
0.0000001
 44
0.0000000001
 40
0.0
 40
0.0
 40
0.0
 40
0.0
 40
0.0730365301
 40
0.1456480298
 40
0.2175165567
 40
0.2883369465
 40
0.3578263042
 40
0.4257317565
 40
0.4918382861
 40
0.5559775009
 40
0.6180362094
 40
0.6779653912
 40
0.73578867
 40
0.7916096625
 40
0.8188366556
 40
0.8456411236
 40
0.872060067
 40
0.898135588
 40
0.9239145078
 40
0.9494478923
 40
0.974790492
 40
1.0
 40
1.0
 40
1.0
 40
1.0
 10
11.0473183383
 20
6.9347087464
 30
0.0
 10
11.0345253323
 20
6.934452147
 30
0.0
 10
11.0089883811
 20
6.9347916987
 30
0.0
 10
10.9709762896
 20
6.9378528617
 30
0.0
 10
10.9336413069
 20
6.9434310499
 30
0.0
 10
10.8973171518
 20
6.9514702432
 30
0.0
 10
10.8623258418
 20
6.9618928361
 30
0.0
 10
10.8289781489
 20
6.9746004471
 30
0.0
 10
10.7975700078
 20
6.9894748987
 30
0.0
 10
10.7683803895
 20
7.006379693
 30
0.0
 10
10.741669045
 20
7.0251606913
 30
0.0
 10
10.7176742875
 20
7.0456492169
 30
0.0
 10
10.6966136574
 20
7.0676584488
 30
0.0
 10
10.6815397776
 20
7.0872719627
 30
0.0
 10
10.6711848353
 20
7.1035056709
 30
0.0
 10
10.6643232281
 20
7.115827338
 30
0.0
 10
10.658319283
 20
7.1283656181
 30
0.0
 10
10.6531864513
 20
7.1410919473
 30
0.0
 10
10.6489366972
 20
7.1539767462
 30
0.0
 10
10.6455798957
 20
7.1669903906
 30
0.0
 10
10.6431239111
 20
7.1801017754
 30
0.0
 10
10.6420888508
 20
7.1889057618
 30
0.0
 10
10.6417243232
 20
7.1933072532
 30
0.0
  0
SPLINE
  5
31E
100
AcDbEntity
  8
0
100
AcDbSpline
 62
7
  6
CONTINUOUS
 70
0
 71
3
 72
27
 73
23
 74
0
 42
0.0000001
 43
0.0000001
 44
0.0000000001
 40
0.0
 40
0.0
 40
0.0
 40
0.0
 40
0.0729562108
 40
0.1454919427
 40
0.2172931782
 40
0.2880582979
 40
0.3575074427
 40
0.4253900526
 40
0.4914925111
 40
0.555646675
 40
0.617738294
 40
0.6777156893
 40
0.7355981542
 40
0.7914831286
 40
0.818741282
 40
0.8455750153
 40
0.8720201264
 40
0.8981174488
 40
0.9239125157
 40
0.9494551223
 40
0.9747987767
 40
1.0
 40
1.0
 40
1.0
 40
1.0
 10
11.0473183383
 20
6.9859484935
 30
0.0
 10
11.0345981848
 20
6.9856928943
 30
0.0
 10
11.0092061067
 20
6.9860248017
 30
0.0
 10
10.9714061724
 20
6.9890457323
 30
0.0
 10
10.9342719231
 20
6.9945557005
 30
0.0
 10
10.8981315361
 20
7.0024999628
 30
0.0
 10
10.863301781
 20
7.0128026145
 30
0.0
 10
10.8300885148
 20
7.0253674781
 30
0.0
 10
10.7987831402
 20
7.0400789183
 30
0.0
 10
10.769660577
 20
7.056803411
 30
0.0
 10
10.7429770151
 20
7.0753900715
 30
0.0
 10
10.7189677411
 20
7.0956737506
 30
0.0
 10
10.6978478508
 20
7.1174715367
 30
0.0
 10
10.6826850118
 20
7.1369049365
 30
0.0
 10
10.6722337977
 20
7.1529969451
 30
0.0
 10
10.6652886815
 20
7.1652143318
 30
0.0
 10
10.6591892565
 20
7.1776500694
 30
0.0
 10
10.6539490456
 20
7.1902761684
 30
0.0
 10
10.6495801361
 20
7.2030636385
 30
0.0
 10
10.6460925031
 20
7.215983413
 30
0.0
 10
10.6434942173
 20
7.229004983
 30
0.0
 10
10.6423564324
 20
7.2377537801
 30
0.0
 10
10.6419388573
 20
7.2421286996
 30
0.0
  0
SPLINE
  5
31F
100
AcDbEntity
  8
0
100
AcDbSpline
 62
9
  6
CONTINUOUS
 70
0
 71
3
 72
28
 73
24
 74
0
 42
0.0000001
 43
0.0000001
 44
0.0000000001
 40
0.0
 40
0.0
 40
0.0
 40
0.0
 40
0.0726338395
 40
0.1449184679
 40
0.2165149485
 40
0.2870999555
 40
0.3563761938
 40
0.4240811652
 40
0.4899962866
 40
0.5539565667
 40
0.6158601415
 40
0.6756779212
 40
0.7334620612
 40
0.7616435313
 40
0.7893768549
 40
0.8166937894
 40
0.8436316845
 40
0.8702332061
 40
0.8965459426
 40
0.9226218823
 40
0.9485167588
 40
0.974289237
 40
1.0
 40
1.0
 40
1.0
 40
1.0
 10
11.0473183383
 20
7.8325419845
 30
0.0
 10
11.0340371111
 20
7.8325419845
 30
0.0
 10
11.0075292298
 20
7.8334604647
 30
0.0
 10
10.9681234009
 20
7.8375838224
 30
0.0
 10
10.929472779
 20
7.8444126425
 30
0.0
 10
10.8919491085
 20
7.8538821413
 30
0.0
 10
10.8559103581
 20
7.8659029176
 30
0.0
 10
10.8217009501
 20
7.8803613817
 30
0.0
 10
10.7896477554
 20
7.8971217566
 30
0.0
 10
10.760057481
 20
7.9160265479
 30
0.0
 10
10.7332135986
 20
7.9369000489
 30
0.0
 10
10.7093768306
 20
7.9595449051
 30
0.0
 10
10.6920641208
 20
7.9798923562
 30
0.0
 10
10.6799937493
 20
7.9968318766
 30
0.0
 10
10.6718992179
 20
8.0097308147
 30
0.0
 10
10.6647093606
 20
8.0228965775
 30
0.0
 10
10.6584414979
 20
8.0362978496
 30
0.0
 10
10.6531111971
 20
8.049902223
 30
0.0
 10
10.6487316929
 20
8.0636768604
 30
0.0
 10
10.6453139719
 20
8.077588304
 30
0.0
 10
10.6428665676
 20
8.0916029638
 30
0.0
 10
10.6413956298
 20
8.1056857934
 30
0.0
 10
10.6410683383
 20
8.1151028555
 30
0.0
 10
10.6410683383
 20
8.1198041144
 30
0.0
  0
SPLINE
  5
320
100
AcDbEntity
  8
0
100
AcDbSpline
 62
7
  6
CONTINUOUS
 70
0
 71
3
 72
28
 73
24
 74
0
 42
0.0000001
 43
0.0000001
 44
0.0000000001
 40
0.0
 40
0.0
 40
0.0
 40
0.0
 40
0.023981799
 40
0.049180865
 40
0.0755949307
 40
0.1031665983
 40
0.1317944634
 40
0.1613547692
 40
0.1917147596
 40
0.2227448986
 40
0.254324861
 40
0.286344915
 40
0.3513309531
 40
0.4171047024
 40
0.483225598
 40
0.5493798273
 40
0.6153427519
 40
0.6809501737
 40
0.746077976
 40
0.8106268363
 40
0.8745126188
 40
0.9376648417
 40
1.0
 40
1.0
 40
1.0
 40
1.0
 10
11.3727462656
 20
6.6869512803
 30
0.0
 10
11.3727462656
 20
6.685725843
 30
0.0
 10
11.3725915135
 20
6.683210998
 30
0.0
 10
11.3719401049
 20
6.6793972718
 30
0.0
 10
11.3708807865
 20
6.6754864451
 30
0.0
 10
11.369437899
 20
6.6715146614
 30
0.0
 10
11.3676405167
 20
6.6675141729
 30
0.0
 10
11.3655206101
 20
6.663513644
 30
0.0
 10
11.3631108032
 20
6.659537123
 30
0.0
 10
11.3604429732
 20
6.6556040811
 30
0.0
 10
11.3575470028
 20
6.6517297781
 30
0.0
 10
11.3533977513
 20
6.6466330975
 30
0.0
 10
11.3477858319
 20
6.6404836875
 30
0.0
 10
11.340546541
 20
6.6334900399
 30
0.0
 10
11.3328929524
 20
6.6268622261
 30
0.0
 10
11.3249223639
 20
6.6206051476
 30
0.0
 10
11.3167090349
 20
6.6147161708
 30
0.0
 10
11.3083106816
 20
6.6091898065
 30
0.0
 10
11.299772832
 20
6.6040201803
 30
0.0
 10
11.2911323791
 20
6.5992024795
 30
0.0
 10
11.2824197417
 20
6.5947338037
 30
0.0
 10
11.2736615593
 20
6.5906146202
 30
0.0
 10
11.2677672992
 20
6.5880859848
 30
0.0
 10
11.2648183383
 20
6.5868820766
 30
0.0
  0
SPLINE
  5
321
100
AcDbEntity
  8
0
100
AcDbSpline
 62
7
  6
CONTINUOUS
 70
0
 71
3
 72
29
 73
25
 74
0
 42
0.0000001
 43
0.0000001
 44
0.0000000001
 40
0.0
 40
0.0
 40
0.0
 40
0.0
 40
0.0756279417
 40
0.1500648225
 40
0.2231818993
 40
0.294851376
 40
0.3649151771
 40
0.433189387
 40
0.4994632736
 40
0.5634991822
 40
0.625042803
 40
0.6838525557
 40
0.7121916212
 40
0.7398034856
 40
0.7667055383
 40
0.7929444569
 40
0.8186049887
 40
0.843823734
 40
0.8687957909
 40
0.8937756001
 40
0.9190677166
 40
0.9449996757
 40
0.9718896874
 40
1.0
 40
1.0
 40
1.0
 40
1.0
 10
11.2648183383
 20
6.5868820766
 30
0.0
 10
11.2619114166
 20
6.5856953307
 30
0.0
 10
11.2561017999
 20
6.5834407001
 30
0.0
 10
11.2473454926
 20
6.5804041868
 30
0.0
 10
11.2386357986
 20
6.5777542875
 30
0.0
 10
11.2299994669
 20
6.5755120214
 30
0.0
 10
11.2214666162
 20
6.5737047029
 30
0.0
 10
11.2130736268
 20
6.5723667878
 30
0.0
 10
11.2048652679
 20
6.5715407765
 30
0.0
 10
11.1968971183
 20
6.5712787758
 30
0.0
 10
11.189241306
 20
6.5716439258
 30
0.0
 10
11.1831196981
 20
6.57254539
 30
0.0
 10
11.1784890157
 20
6.5736801938
 30
0.0
 10
11.1752107918
 20
6.5747326921
 30
0.0
 10
11.1721064308
 20
6.5760092221
 30
0.0
 10
11.1692003403
 20
6.5775226857
 30
0.0
 10
11.1665201498
 20
6.5792853608
 30
0.0
 10
11.1640966848
 20
6.5813080122
 30
0.0
 10
11.1619638755
 20
6.5835985203
 30
0.0
 10
11.1601574018
 20
6.5861594844
 30
0.0
 10
11.1587125263
 20
6.5889861567
 30
0.0
 10
11.1576602745
 20
6.5920653907
 30
0.0
 10
11.1570244871
 20
6.5953748841
 30
0.0
 10
11.1568904109
 20
6.5976614449
 30
0.0
 10
11.1568904109
 20
6.5988284967
 30
0.0
  0
SPLINE
  5
322
100
AcDbEntity
  8
0
100
AcDbSpline
 62
9
  6
CONTINUOUS
 70
0
 71
3
 72
20
 73
16
 74
0
 42
0.0000001
 43
0.0000001
 44
0.0000000001
 40
0.0
 40
0.0
 40
0.0
 40
0.0
 40
0.1384066425
 40
0.2722306201
 40
0.401612128
 40
0.4647563551
 40
0.5269278848
 40
0.5881973075
 40
0.6486468598
 40
0.7083698813
 40
0.7674699461
 40
0.8260597385
 40
0.8842596694
 40
0.9421962119
 40
1.0
 40
1.0
 40
1.0
 40
1.0
 10
11.3727462656
 20
6.6869512803
 30
0.0
 10
11.3826422859
 20
6.6941940664
 30
0.0
 10
11.4014797962
 20
6.7093271242
 30
0.0
 10
11.4269543435
 20
6.734252758
 30
0.0
 10
11.4454367178
 20
6.7565726434
 30
0.0
 10
11.4583152837
 20
6.7751168236
 30
0.0
 10
11.4669510024
 20
6.7892256891
 30
0.0
 10
11.4746192897
 20
6.8036128791
 30
0.0
 10
11.4813024754
 20
6.8182456821
 30
0.0
 10
11.4869846907
 20
6.8330902205
 30
0.0
 10
11.4916524657
 20
6.8481122081
 30
0.0
 10
11.4952946226
 20
6.863276738
 30
0.0
 10
11.4979024275
 20
6.8785488009
 30
0.0
 10
11.4994696253
 20
6.893891868
 30
0.0
 10
11.4998183456
 20
6.9041502746
 30
0.0
 10
11.4998183312
 20
6.909271898
 30
0.0
  0
SPLINE
  5
323
100
AcDbEntity
  8
0
100
AcDbSpline
 62
7
  6
CONTINUOUS
 70
0
 71
3
 72
21
 73
17
 74
0
 42
0.0000001
 43
0.0000001
 44
0.0000000001
 40
0.0
 40
0.0
 40
0.0
 40
0.0
 40
0.1434925068
 40
0.2132583799
 40
0.2815936583
 40
0.4137535785
 40
0.4776316706
 40
0.5400521331
 40
0.601074637
 40
0.6607877623
 40
0.7193091866
 40
0.7767848408
 40
0.8333871351
 40
0.8893117567
 40
0.9447733679
 40
1.0
 40
1.0
 40
1.0
 40
1.0
 10
11.2735683383
 20
6.8599521582
 30
0.0
 10
11.2903661631
 20
6.8668098415
 30
0.0
 10
11.3148340658
 20
6.8783113383
 30
0.0
 10
11.3456545435
 20
6.8961732332
 30
0.0
 10
11.3741703141
 20
6.9150314336
 30
0.0
 10
11.4003406781
 20
6.9360076782
 30
0.0
 10
11.423636185
 20
6.9589584948
 30
0.0
 10
11.4393067666
 20
6.9767477756
 30
0.0
 10
11.4533007495
 20
6.9952280441
 30
0.0
 10
11.4655580787
 20
7.0143219407
 30
0.0
 10
11.4760245223
 20
7.0339480769
 30
0.0
 10
11.4846535803
 20
7.0540227401
 30
0.0
 10
11.4914063949
 20
7.0744594642
 30
0.0
 10
11.4962522195
 20
7.0951704746
 30
0.0
 10
11.4991687315
 20
7.1160632078
 30
0.0
 10
11.4998183387
 20
7.1300676253
 30
0.0
 10
11.4998183227
 20
7.1370506854
 30
0.0
  0
SPLINE
  5
324
100
AcDbEntity
  8
0
100
AcDbSpline
 62
7
  6
CONTINUOUS
 70
0
 71
3
 72
36
 73
32
 74
0
 42
0.0000001
 43
0.0000001
 44
0.0000000001
 40
0.0
 40
0.0
 40
0.0
 40
0.0
 40
0.0667160363
 40
0.1007471522
 40
0.1351374929
 40
0.2047054216
 40
0.2397594704
 40
0.2748886137
 40
0.3450529284
 40
0.3799576022
 40
0.4146402209
 40
0.4490305675
 40
0.4830616633
 40
0.5166706605
 40
0.5497996699
 40
0.582396655
 40
0.6144163366
 40
0.645821087
 40
0.6765818884
 40
0.706679221
 40
0.7361040045
 40
0.7648584192
 40
0.7929566887
 40
0.8204256728
 40
0.8473052495
 40
0.8736483851
 40
0.8995207748
 40
0.925000024
 40
0.9501742222
 40
0.9751399995
 40
1.0
 40
1.0
 40
1.0
 40
1.0
 10
11.2735683383
 20
6.8599521582
 30
0.0
 10
11.2562182591
 20
6.852869018
 30
0.0
 10
11.2294218138
 20
6.8435686725
 30
0.0
 10
11.1927265704
 20
6.8338141469
 30
0.0
 10
11.1548132619
 20
6.825690781
 30
0.0
 10
11.1160747409
 20
6.8202659201
 30
0.0
 10
11.0769027641
 20
6.8175407995
 30
0.0
 10
11.0374789851
 20
6.8166291312
 30
0.0
 10
10.9980724414
 20
6.8184476987
 30
0.0
 10
10.9590702528
 20
6.8229960159
 30
0.0
 10
10.9302401284
 20
6.8277441062
 30
0.0
 10
10.9019105708
 20
6.8338139805
 30
0.0
 10
10.8742013808
 20
6.8411799751
 30
0.0
 10
10.8472310858
 20
6.8498107697
 30
0.0
 10
10.8211146875
 20
6.8596697414
 30
0.0
 10
10.7959636437
 20
6.8707150803
 30
0.0
 10
10.7718852813
 20
6.8828999864
 30
0.0
 10
10.7489823892
 20
6.8961728893
 30
0.0
 10
10.7273527995
 20
6.9104776639
 30
0.0
 10
10.7070890035
 20
6.9257538863
 30
0.0
 10
10.6882778046
 20
6.9419370742
 30
0.0
 10
10.6709999915
 20
6.9589589456
 30
0.0
 10
10.6553300544
 20
6.976747666
 30
0.0
 10
10.6413359034
 20
6.9952280782
 30
0.0
 10
10.6290786167
 20
7.0143219363
 30
0.0
 10
10.6186121606
 20
7.033948082
 30
0.0
 10
10.6099831039
 20
7.0540227417
 30
0.0
 10
10.6032302864
 20
7.0744594663
 30
0.0
 10
10.5983844643
 20
7.0951704758
 30
0.0
 10
10.5954679327
 20
7.1160632086
 30
0.0
 10
10.5948183698
 20
7.1300676257
 30
0.0
 10
10.5948183539
 20
7.1370506854
 30
0.0
  0
SPLINE
  5
325
100
AcDbEntity
  8
0
100
AcDbSpline
 62
9
  6
CONTINUOUS
 70
0
 71
3
 72
30
 73
26
 74
0
 42
0.0000001
 43
0.0000001
 44
0.0000000001
 40
0.0
 40
0.0
 40
0.0
 40
0.0
 40
0.0656104529
 40
0.0990386686
 40
0.1328078703
 40
0.2011257608
 40
0.2701051703
 40
0.33924506
 40
0.4080384672
 40
0.475991285
 40
0.5426412387
 40
0.6075773424
 40
0.6393035418
 40
0.670481237
 40
0.7310635571
 40
0.7604583599
 40
0.7892390115
 40
0.8174101328
 40
0.8449859043
 40
0.8719904778
 40
0.8984582288
 40
0.9244337903
 40
0.9499718062
 40
0.9751363547
 40
1.0
 40
1.0
 40
1.0
 40
1.0
 10
11.2201279562
 20
6.4869480864
 30
0.0
 10
11.2078581278
 20
6.4819389499
 30
0.0
 10
11.1889473937
 20
6.475291715
 30
0.0
 10
11.1630791467
 20
6.4681630771
 30
0.0
 10
11.1363782582
 20
6.4620939399
 30
0.0
 10
11.1021982671
 20
6.4567017219
 30
0.0
 10
11.0605509111
 20
6.4537876057
 30
0.0
 10
11.0187095068
 20
6.4544454524
 30
0.0
 10
10.9772845764
 20
6.4586660531
 30
0.0
 10
10.9368769091
 20
6.4663889868
 30
0.0
 10
10.8980762445
 20
6.4775025847
 30
0.0
 10
10.867306796
 20
6.4895530505
 30
0.0
 10
10.8440330492
 20
6.5007648269
 30
0.0
 10
10.8221449558
 20
6.512743534
 30
0.0
 10
10.8016299636
 20
6.526198497
 30
0.0
 10
10.7827953926
 20
6.5410731207
 30
0.0
 10
10.7697789846
 20
6.5527000407
 30
0.0
 10
10.7577816577
 20
6.5648651485
 30
0.0
 10
10.7468472089
 20
6.5775247215
 30
0.0
 10
10.7370164713
 20
6.5906325948
 30
0.0
 10
10.7283261702
 20
6.6041410727
 30
0.0
 10
10.7208090713
 20
6.6180006799
 30
0.0
 10
10.7144936378
 20
6.6321609552
 30
0.0
 10
10.7094043828
 20
6.6465683147
 30
0.0
 10
10.7068286291
 20
6.6563541953
 30
0.0
 10
10.7057560207
 20
6.6612606323
 30
0.0
  0
SPLINE
  5
326
100
AcDbEntity
  8
0
100
AcDbSpline
 62
7
  6
CONTINUOUS
 70
0
 71
3
 72
15
 73
11
 74
0
 42
0.0000001
 43
0.0000001
 44
0.0000000001
 40
0.0
 40
0.0
 40
0.0
 40
0.0
 40
0.1223733327
 40
0.2450200251
 40
0.3681911734
 40
0.4921303259
 40
0.617070216
 40
0.7432298041
 40
0.8708116611
 40
1.0
 40
1.0
 40
1.0
 40
1.0
 10
10.587358856
 20
6.5724281009
 30
0.0
 10
10.5873817894
 20
6.5773887686
 30
0.0
 10
10.5877494272
 20
6.5873226847
 30
0.0
 10
10.5892642144
 20
6.6021810735
 30
0.0
 10
10.5917392222
 20
6.6169748508
 30
0.0
 10
10.5951690364
 20
6.6316719454
 30
0.0
 10
10.5995462069
 20
6.6462415334
 30
0.0
 10
10.604861404
 20
6.660653022
 30
0.0
 10
10.6111028422
 20
6.6748755845
 30
0.0
 10
10.615841457
 20
6.6841509798
 30
0.0
 10
10.6183556436
 20
6.688744984
 30
0.0
  0
SPLINE
  5
327
100
AcDbEntity
  8
0
100
AcDbSpline
 62
7
  6
CONTINUOUS
 70
0
 71
3
 72
15
 73
11
 74
0
 42
0.0000001
 43
0.0000001
 44
0.0000000001
 40
0.0
 40
0.0
 40
0.0
 40
0.0
 40
0.1313521125
 40
0.2603118009
 40
0.387119114
 40
0.5120566407
 40
0.6354457723
 40
0.7576415612
 40
0.8790260389
 40
1.0
 40
1.0
 40
1.0
 40
1.0
 10
11.4602372628
 20
6.7540369417
 30
0.0
 10
11.4642540862
 20
6.7484075048
 30
0.0
 10
11.4718379963
 20
6.7369760171
 30
0.0
 10
11.4818743834
 20
6.719217141
 30
0.0
 10
11.4904285485
 20
6.7010692591
 30
0.0
 10
11.4974695357
 20
6.6825953034
 30
0.0
 10
11.5029724216
 20
6.6638584878
 30
0.0
 10
11.5069173725
 20
6.6449229834
 30
0.0
 10
11.5092900986
 20
6.6258560303
 30
0.0
 10
11.5098183373
 20
6.6130897906
 30
0.0
 10
11.5098183236
 20
6.6067205995
 30
0.0
  0
SPLINE
  5
328
100
AcDbEntity
  8
0
100
AcDbSpline
 62
7
  6
CONTINUOUS
 70
0
 71
3
 72
9
 73
5
 74
0
 42
0.0000001
 43
0.0000001
 44
0.0000000001
 40
0.0
 40
0.0
 40
0.0
 40
0.0
 40
0.5061291248
 40
1.0
 40
1.0
 40
1.0
 40
1.0
 10
11.4485855858
 20
6.7339857471
 30
0.0
 10
11.4542503401
 20
6.7269968212
 30
0.0
 10
11.464869764
 20
6.7127119561
 30
0.0
 10
11.4741738693
 20
6.6975334795
 30
0.0
 10
11.4784023778
 20
6.6898405404
 30
0.0
  0
SPLINE
  5
329
100
AcDbEntity
  8
0
100
AcDbSpline
 62
7
  6
CONTINUOUS
 70
0
 71
3
 72
13
 73
9
 74
0
 42
0.0000001
 43
0.0000001
 44
0.0000000001
 40
0.0
 40
0.0
 40
0.0
 40
0.0
 40
0.256361939
 40
0.5076078355
 40
0.6317342008
 40
0.7550555753
 40
0.8777494457
 40
1.0
 40
1.0
 40
1.0
 40
1.0
 10
11.4784023778
 20
6.6898405404
 30
0.0
 10
11.4827913373
 20
6.6818556923
 30
0.0
 10
11.4907104337
 20
6.6656057516
 30
0.0
 10
11.4984113346
 20
6.6444674463
 30
0.0
 10
11.5031100778
 20
6.6273693077
 30
0.0
 10
11.5058996956
 20
6.6145058619
 30
0.0
 10
11.5079634607
 20
6.6015743228
 30
0.0
 10
11.508854506
 20
6.5929088508
 30
0.0
 10
11.5091774327
 20
6.5885758589
 30
0.0
  0
SPLINE
  5
32A
100
AcDbEntity
  8
0
100
AcDbSpline
 62
7
  6
CONTINUOUS
 70
0
 71
3
 72
10
 73
6
 74
0
 42
0.0000001
 43
0.0000001
 44
0.0000000001
 40
0.0
 40
0.0
 40
0.0
 40
0.0
 40
0.4887328342
 40
0.7417534297
 40
1.0
 40
1.0
 40
1.0
 40
1.0
 10
11.4675552138
 20
6.0958632282
 30
0.0
 10
11.4477321813
 20
6.0808542101
 30
0.0
 10
11.4159396802
 20
6.0602419803
 30
0.0
 10
11.3707812464
 20
6.0367750777
 30
0.0
 10
11.3469819434
 20
6.0262269822
 30
0.0
 10
11.3348183383
 20
6.0212612112
 30
0.0
  0
SPLINE
  5
32B
100
AcDbEntity
  8
0
100
AcDbSpline
 62
7
  6
CONTINUOUS
 70
0
 71
3
 72
11
 73
7
 74
0
 42
0.0000001
 43
0.0000001
 44
0.0000000001
 40
0.0
 40
0.0
 40
0.0
 40
0.0
 40
0.2446557474
 40
0.4932515703
 40
0.7452341505
 40
1.0
 40
1.0
 40
1.0
 40
1.0
 10
11.3348183383
 20
6.0212612112
 30
0.0
 10
11.3224300842
 20
6.0162037276
 30
0.0
 10
11.2971410207
 20
6.0067579269
 30
0.0
 10
11.2581796414
 20
5.994716396
 30
0.0
 10
11.2180691537
 20
5.9847417747
 30
0.0
 10
11.1908320037
 20
5.9795301817
 30
0.0
 10
11.1770814628
 20
5.9772778159
 30
0.0
  0
SPLINE
  5
32C
100
AcDbEntity
  8
0
100
AcDbSpline
 62
7
  6
CONTINUOUS
 70
0
 71
3
 72
49
 73
45
 74
0
 42
0.0000001
 43
0.0000001
 44
0.0000000001
 40
0.0
 40
0.0
 40
0.0
 40
0.0
 40
0.0695785637
 40
0.1051402184
 40
0.1410712892
 40
0.1772625765
 40
0.2136006251
 40
0.2499696024
 40
0.2862531833
 40
0.3223364115
 40
0.3581075915
 40
0.3934601623
 40
0.4282946798
 40
0.4625207511
 40
0.496059089
 40
0.5288436024
 40
0.5608235304
 40
0.5919655729
 40
0.607220354
 40
0.6222622923
 40
0.651708903
 40
0.6803427293
 40
0.694375154
 40
0.7082272606
 40
0.7219098323
 40
0.7354351858
 40
0.7488170907
 40
0.7620706774
 40
0.7752123793
 40
0.7882597661
 40
0.8012313901
 40
0.8141466354
 40
0.8270254977
 40
0.8398883715
 40
0.8527558334
 40
0.8656484103
 40
0.8785863479
 40
0.8915893891
 40
0.9046765734
 40
0.9178660384
 40
0.9311748617
 40
0.9446189107
 40
0.9719608491
 40
1.0
 40
1.0
 40
1.0
 40
1.0
 10
11.2793013681
 20
6.3217055103
 30
0.0
 10
11.2563445938
 20
6.3128046059
 30
0.0
 10
11.2207371677
 20
6.3015925257
 30
0.0
 10
11.1719595286
 20
6.2908874382
 30
0.0
 10
11.1343018318
 20
6.2849037063
 30
0.0
 10
11.0960927475
 20
6.2810657429
 30
0.0
 10
11.0575719897
 20
6.2793968784
 30
0.0
 10
11.0189860949
 20
6.2799080104
 30
0.0
 10
10.9805807228
 20
6.282595786
 30
0.0
 10
10.9426007128
 20
6.2874431666
 30
0.0
 10
10.9052880874
 20
6.2944194488
 30
0.0
 10
10.8688806036
 20
6.3034804623
 30
0.0
 10
10.8336102077
 20
6.3145688205
 30
0.0
 10
10.7997015523
 20
6.3276144638
 30
0.0
 10
10.767370761
 20
6.3425350293
 30
0.0
 10
10.7368235353
 20
6.3592367691
 30
0.0
 10
10.7082558429
 20
6.3776136837
 30
0.0
 10
10.686096942
 20
6.3943442913
 30
0.0
 10
10.6695569423
 20
6.4084634942
 30
0.0
 10
10.654046771
 20
6.4228374546
 30
0.0
 10
10.6361798037
 20
6.4416010193
 30
0.0
 10
10.6202669496
 20
6.4615999043
 30
0.0
 10
10.6089496364
 20
6.4780981158
 30
0.0
 10
10.6012194935
 20
6.490619715
 30
0.0
 10
10.5942040802
 20
6.5033507762
 30
0.0
 10
10.5879145385
 20
6.5162711455
 30
0.0
 10
10.5823611182
 20
6.529360048
 30
0.0
 10
10.5775529861
 20
6.5425965509
 30
0.0
 10
10.5734979173
 20
6.5559593423
 30
0.0
 10
10.5702025843
 20
6.5694269342
 30
0.0
 10
10.5676724961
 20
6.5829776373
 30
0.0
 10
10.565911702
 20
6.5965895612
 30
0.0
 10
10.5649231916
 20
6.610240735
 30
0.0
 10
10.5647086188
 20
6.6239090841
 30
0.0
 10
10.5652682344
 20
6.6375725079
 30
0.0
 10
10.5666012336
 20
6.6512089107
 30
0.0
 10
10.5687053566
 20
6.6647962551
 30
0.0
 10
10.5715770752
 20
6.6783126113
 30
0.0
 10
10.5752117915
 20
6.6917361714
 30
0.0
 10
10.5796033707
 20
6.7050452686
 30
0.0
 10
10.584744822
 20
6.7182187845
 30
0.0
 10
10.5926314621
 20
6.735669562
 30
0.0
 10
10.6043672013
 20
6.7570602006
 30
0.0
 10
10.6154461933
 20
6.773266808
 30
0.0
 10
10.6214142618
 20
6.7811935872
 30
0.0
  0
SPLINE
  5
32D
100
AcDbEntity
  8
0
100
AcDbSpline
 62
7
  6
CONTINUOUS
 70
0
 71
3
 72
33
 73
29
 74
0
 42
0.0000001
 43
0.0000001
 44
0.0000000001
 40
0.0
 40
0.0
 40
0.0
 40
0.0
 40
0.0310786498
 40
0.0616744809
 40
0.0918210575
 40
0.1215577202
 40
0.1509292899
 40
0.1799856984
 40
0.2087814647
 40
0.2373750098
 40
0.2658279013
 40
0.2942039179
 40
0.3225680572
 40
0.3509855125
 40
0.3795206278
 40
0.4082358713
 40
0.4371909127
 40
0.4664417934
 40
0.4960401616
 40
0.5260327515
 40
0.5564609336
 40
0.587360401
 40
0.6506631902
 40
0.7161350039
 40
0.7838520585
 40
0.853804651
 40
0.9259053862
 40
1.0
 40
1.0
 40
1.0
 40
1.0
 10
11.4733390053
 20
6.7810386116
 30
0.0
 10
11.4769336168
 20
6.7762583142
 30
0.0
 10
11.4838069767
 20
6.7665727959
 30
0.0
 10
11.4931946023
 20
6.7515906074
 30
0.0
 10
11.5015556176
 20
6.7363047719
 30
0.0
 10
11.5088699641
 20
6.7207510123
 30
0.0
 10
11.5151205149
 20
6.7049650328
 30
0.0
 10
11.5202924139
 20
6.6889833414
 30
0.0
 10
11.5243733146
 20
6.6728429456
 30
0.0
 10
11.5273534361
 20
6.6565813401
 30
0.0
 10
11.5292256552
 20
6.6402363904
 30
0.0
 10
11.5299854656
 20
6.6238462117
 30
0.0
 10
11.5296310109
 20
6.6074490644
 30
0.0
 10
11.5281631196
 20
6.5910832377
 30
0.0
 10
11.525585372
 20
6.5747869154
 30
0.0
 10
11.5219039787
 20
6.5585980604
 30
0.0
 10
11.5171277486
 20
6.5425543062
 30
0.0
 10
11.5112680548
 20
6.5266928795
 30
0.0
 10
11.5043388294
 20
6.5110504251
 30
0.0
 10
11.4963565681
 20
6.495663129
 30
0.0
 10
11.487339678
 20
6.4805659737
 30
0.0
 10
11.4738603182
 20
6.4607135356
 30
0.0
 10
11.4544584733
 20
6.4367976279
 30
0.0
 10
11.4276355092
 20
6.4100538924
 30
0.0
 10
11.3973296734
 20
6.3852638922
 30
0.0
 10
11.363822443
 20
6.3626514245
 30
0.0
 10
11.3274238608
 20
6.3424189601
 30
0.0
 10
11.3017699086
 20
6.3307825534
 30
0.0
 10
11.2885683383
 20
6.3253930349
 30
0.0
  0
SPLINE
  5
32E
100
AcDbEntity
  8
0
100
AcDbSpline
 62
7
  6
CONTINUOUS
 70
0
 71
3
 72
33
 73
29
 74
0
 42
0.0000001
 43
0.0000001
 44
0.0000000001
 40
0.0
 40
0.0
 40
0.0
 40
0.0
 40
0.0707199551
 40
0.1062864908
 40
0.1419121324
 40
0.2131015575
 40
0.2838550705
 40
0.3537393352
 40
0.3882351855
 40
0.4223651395
 40
0.4893392204
 40
0.5221243262
 40
0.5543926071
 40
0.6172595428
 40
0.6478440144
 40
0.6778433586
 40
0.7072571728
 40
0.7360926525
 40
0.7643649369
 40
0.7920974285
 40
0.8193219136
 40
0.8460785824
 40
0.8724158212
 40
0.8983897616
 40
0.9240636024
 40
0.949506616
 40
0.9747929169
 40
1.0
 40
1.0
 40
1.0
 40
1.0
 10
11.1770814628
 20
6.2247651893
 30
0.0
 10
11.1559874222
 20
6.2213099437
 30
0.0
 10
11.1240533596
 20
6.2174126977
 30
0.0
 10
11.0812338893
 20
6.2147700193
 30
0.0
 10
11.0381990703
 20
6.2138291514
 30
0.0
 10
10.9845052708
 20
6.215851011
 30
0.0
 10
10.9208557678
 20
6.2233568623
 30
0.0
 10
10.868897582
 20
6.2338145661
 30
0.0
 10
10.8284480556
 20
6.2446522183
 30
0.0
 10
10.7893405464
 20
6.2569468672
 30
0.0
 10
10.7515478315
 20
6.2715969659
 30
0.0
 10
10.7154239415
 20
6.2885834606
 30
0.0
 10
10.6812489444
 20
6.3066890124
 30
0.0
 10
10.6489943678
 20
6.3269267943
 30
0.0
 10
10.6190617672
 20
6.3492293149
 30
0.0
 10
10.5981632784
 20
6.3666650206
 30
0.0
 10
10.578680879
 20
6.3849049115
 30
0.0
 10
10.5606754835
 20
6.4038926161
 30
0.0
 10
10.544204548
 20
6.4235686425
 30
0.0
 10
10.529320578
 20
6.4438714856
 30
0.0
 10
10.5160713088
 20
6.4647375231
 30
0.0
 10
10.5044994648
 20
6.4861012288
 30
0.0
 10
10.4946426152
 20
6.5078952826
 30
0.0
 10
10.4865329946
 20
6.5300507958
 30
0.0
 10
10.4801973319
 20
6.552497259
 30
0.0
 10
10.4756566525
 20
6.5751635871
 30
0.0
 10
10.4729261431
 20
6.5979752988
 30
0.0
 10
10.4723183387
 20
6.6132438768
 30
0.0
 10
10.4723183528
 20
6.6208627351
 30
0.0
  0
ELLIPSE
  5
32F
100
AcDbEntity
  8
0
100
AcDbEllipse
 62
7
  6
CONTINUOUS
 10
11.0473183383
 20
6.7410708879
 30
0.0
 11
0.4522967215
 21
0.1611958191
 31
0.0
 40
0.084133201
 41
-1.3561925479
 42
-0.7981537211
  0
ENDSEC
  0
SECTION
  2
OBJECTS
  0
DICTIONARY
  5
C
100
AcDbDictionary
280
0
281
1
  3
ACAD_GROUP
350
D
  3
ACAD_MLINESTYLE
350
17
  3
ACAD_LAYOUT
350
1A
  3
ACAD_PLOTSETTINGS
350
19
  3
ACAD_PLOTSTYLENAME
350
E
  0
DICTIONARY
  5
D
102
{ACAD_REACTORS
330
C
102
}
100
AcDbDictionary
280
0
281
1
  0
ACDBDICTIONARYWDFLT
  5
E
102
{ACAD_REACTORS
330
C
102
}
100
AcDbDictionary
281
1
  3
Normal
350
F
100
AcDbDictionaryWithDefault
340
F
  0
DICTIONARY
  5
17
102
{ACAD_REACTORS
330
C
102
}
100
AcDbDictionary
280
0
281
1
  3
Standard
350
18
  0
DICTIONARY
  5
19
102
{ACAD_REACTORS
330
C
102
}
100
AcDbDictionary
281
1
  0
DICTIONARY
  5
1A
102
{ACAD_REACTORS
330
C
102
}
100
AcDbDictionary
281
1
  3
Model
350
330
  3
Layout1
350
331
  0
ACDBPLACEHOLDER
  5
F
102
{ACAD_REACTORS
330
E
102
}
  0
MLINESTYLE
  5
18
102
{ACAD_REACTORS
330
17
102
}
100
AcDbMlineStyle
  2
STANDARD
 70
0
  3

 62
256
 51
90.0
 52
90.0
 71
2
 49
0.5
 62
256
  6
BYLAYER
 49
-0.5
 62
256
  6
BYLAYER
  0
LAYOUT
  5
330
102
{ACAD_REACTORS
330
1A
102
}
100
AcDbPlotSettings
  1

  2
none_device
  4
ANSI_C_(22.00_x_17.00_Inches)
  6

 40
0.0
 41
0.0
 42
0.0
 43
0.0
 44
558.8
 45
431.8
 46
0.0
 47
0.0
 48
0.0
 49
0.0
140
0.0
141
0.0
142
1.0
143
1.0
 70
1024
 72
0
 73
0
 74
0
  7

 75
0
147
1.0
148
0.0
149
0.0
100
AcDbLayout
  1
Model
 70
0
 71
0
 10
0.0
 20
0.0
 11
22.0
 21
17.0
 12
0.0
 22
0.0
 32
0.0
 14
0.0
 24
0.0
 34
0.0
 15
0.0
 25
0.0
 35
0.0
146
0.0
 13
0.0
 23
0.0
 33
0.0
 16
1.0
 26
0.0
 36
0.0
 17
0.0
 27
1.0
 37
0.0
 76
0
330
205
345
0
346
0
  0
LAYOUT
  5
331
102
{ACAD_REACTORS
330
1A
102
}
100
AcDbPlotSettings
  1

  2
none_device
  4
ANSI_C_(22.00_x_17.00_Inches)
  6

 40
0.0
 41
0.0
 42
0.0
 43
0.0
 44
558.8
 45
431.8
 46
0.0
 47
0.0
 48
0.0
 49
0.0
140
0.0
141
0.0
142
1.0
143
1.0
 70
0
 72
0
 73
0
 74
0
  7

 75
0
147
1.0
148
0.0
149
0.0
100
AcDbLayout
  1
Layout1
 70
0
 71
1
 10
0.0
 20
0.0
 11
22.0
 21
17.0
 12
0.0
 22
0.0
 32
0.0
 14
0.0
 24
0.0
 34
0.0
 15
0.0
 25
0.0
 35
0.0
146
0.0
 13
0.0
 23
0.0
 33
0.0
 16
1.0
 26
0.0
 36
0.0
 17
0.0
 27
1.0
 37
0.0
 76
0
330
206
345
0
346
0
  0
ENDSEC
  0
EOF
