999
DXF file: 3-1643tr_FRONT.dxf
999
Pro/ENGINEER 2013150 by Parametric Technology Corporation
  0
SECTION
  2
HEADER
  9
$ACADVER
  1
AC1021
  9
$DWGCODEPAGE
  3
ANSI_1252
  9
$EXTMAX
 10
11.0
 20
8.5
 30
0.0
  9
$EXTMIN
 10
0.0
 20
0.0
 30
0.0
  9
$LIMMIN
 10
0.0
 20
0.0
  9
$LIMMAX
 10
11.0
 20
8.5
  9
$VIEWCTR
 10
5.5
 20
4.25
  9
$VIEWSIZE
 40
8.5
  9
$CLAYER
  8
0
  9
$LTSCALE
 40
0.605
  9
$CELTYPE
  6
BYLAYER
  9
$DIMSCALE
 40
1.0
  9
$DIMASZ
 40
0.1
  9
$DIMEXO
 40
0.0625
  9
$DIMDLI
 40
0.418
  9
$DIMEXE
 40
0.125
  9
$DIMCEN
 40
0.099
  9
$DIMLFAC
 40
1.0
  9
$DIMBLK
  1
_FILLED
  9
$DIMTXT
 40
0.08
  9
$DIMTOL
 70
1
  9
$DIMLIM
 70
0
  9
$DIMTFAC
 40
1.0
  9
$DIMTP
 40
0.001
  9
$DIMTM
 40
0.001
  9
$DIMGAP
 40
0.09
  9
$DIMDSEP
 70
46
  9
$PDMODE
 70
3
  9
$PDSIZE
 40
0.06
  9
$HANDSEED
  5
3E0
  9
$TILEMODE
 70
1
  9
$MEASUREMENT
 70
0
  9
$INSUNITS
 70
1
  0
ENDSEC
  0
SECTION
  2
CLASSES
  0
CLASS
  1
ACDBDICTIONARYWDFLT
  2
AcDbDictionaryWithDefault
  3
AutoCAD 2000
 90
0
 91
1
280
0
281
0
  0
CLASS
  1
ACDBPLACEHOLDER
  2
AcDbPlaceHolder
  3
AutoCAD 2000
 90
0
 91
1
280
0
281
0
  0
CLASS
  1
LAYOUT
  2
AcDbLayout
  3
AutoCAD 2000
 90
0
 91
0
280
0
281
0
  0
ENDSEC
  0
SECTION
  2
TABLES
  0
TABLE
  2
VPORT
  5
8
100
AcDbSymbolTable
 70
2
  0
VPORT
  5
1F4
100
AcDbSymbolTableRecord
100
AcDbViewportTableRecord
  2
*ACTIVE
 70
0
 10
0.0
 20
0.0
 11
1.0
 21
1.0
 12
5.5
 22
4.25
 13
0.0
 23
0.0
 14
1.0
 24
1.0
 15
0.0
 25
0.0
 16
0.0
 26
0.0
 36
1.0
 17
0.0
 27
0.0
 37
0.0
 40
8.5
 41
1.2941176471
 42
50.0
 43
0.0
 44
0.0
 50
0.0
 51
0.0
 71
0
 72
100
 73
1
 74
1
 75
0
 76
0
 77
0
 78
0
  0
ENDTAB
  0
TABLE
  2
LTYPE
  5
5
100
AcDbSymbolTable
 70
6
  0
LTYPE
  5
14
100
AcDbSymbolTableRecord
100
AcDbLinetypeTableRecord
  2
BYBLOCK
 70
0
  3

 72
65
 73
0
 40
0.0
  0
LTYPE
  5
15
100
AcDbSymbolTableRecord
100
AcDbLinetypeTableRecord
  2
BYLAYER
 70
0
  3

 72
65
 73
0
 40
0.0
  0
LTYPE
  5
16
100
AcDbSymbolTableRecord
100
AcDbLinetypeTableRecord
  2
CONTINUOUS
 70
64
  3
Solid line
 72
65
 73
0
 40
0.0
  0
LTYPE
  5
1F5
100
AcDbSymbolTableRecord
100
AcDbLinetypeTableRecord
  2
CENTER
 70
64
  3
____ _ ____ _ ____ _ ____ _ ____ _ ____ _ ____
 72
65
 73
4
 40
0.6
 49
0.375
 74
0
 49
-0.075
 74
0
 49
0.075
 74
0
 49
-0.075
 74
0
  0
LTYPE
  5
1F6
100
AcDbSymbolTableRecord
100
AcDbLinetypeTableRecord
  2
HIDDEN
 70
64
  3
- - - - - - - - - - - - - - - - - - - -
 72
65
 73
2
 40
0.2
 49
0.1
 74
0
 49
-0.1
 74
0
  0
LTYPE
  5
1F7
100
AcDbSymbolTableRecord
100
AcDbLinetypeTableRecord
  2
PHANTOM
 70
64
  3
_____ _ _ _____ _ _ _____ _ _ _____
 72
65
 73
6
 40
0.8
 49
0.45
 74
0
 49
-0.05
 74
0
 49
0.1
 74
0
 49
-0.05
 74
0
 49
0.1
 74
0
 49
-0.05
 74
0
  0
LTYPE
  5
1F8
100
AcDbSymbolTableRecord
100
AcDbLinetypeTableRecord
  2
DOT
 70
64
  3
. . . . . . . . . . . . . . . . . . . .
 72
65
 73
2
 40
0.2
 49
0.1
 74
0
 49
-0.1
 74
0
  0
LTYPE
  5
1F9
100
AcDbSymbolTableRecord
100
AcDbLinetypeTableRecord
  2
DASHED
 70
64
  3
- - - - - - - - - - - - - - - - - - - -
 72
65
 73
2
 40
0.2
 49
0.1
 74
0
 49
-0.1
 74
0
  0
ENDTAB
  0
TABLE
  2
LAYER
  5
2
100
AcDbSymbolTable
 70
36
  0
LAYER
  5
10
100
AcDbSymbolTableRecord
100
AcDbLayerTableRecord
  2
0
 70
0
 62
7
  6
CONTINUOUS
370
-3
390
F
  0
LAYER
  5
1FA
100
AcDbSymbolTableRecord
100
AcDbLayerTableRecord
  2
DEFAULT_1
 70
0
 62
7
  6
CENTER
370
-3
390
F
  0
LAYER
  5
1FB
100
AcDbSymbolTableRecord
100
AcDbLayerTableRecord
  2
DEFAULT_2
 70
0
 62
8
  6
HIDDEN
370
-3
390
F
  0
LAYER
  5
1FC
100
AcDbSymbolTableRecord
100
AcDbLayerTableRecord
  2
DEFAULT_3
 70
0
 62
7
  6
PHANTOM
370
-3
390
F
  0
LAYER
  5
1FD
100
AcDbSymbolTableRecord
100
AcDbLayerTableRecord
  2
ALL_ASSEMBLY_MEMBERS
 70
0
 62
7
  6
CONTINUOUS
370
-3
390
F
  0
LAYER
  5
1FE
100
AcDbSymbolTableRecord
100
AcDbLayerTableRecord
  2
ALL_FEATURES
 70
0
 62
7
  6
CONTINUOUS
370
-3
390
F
  0
LAYER
  5
1FF
100
AcDbSymbolTableRecord
100
AcDbLayerTableRecord
  2
AXES_FEATURES
 70
0
 62
7
  6
CONTINUOUS
370
-3
390
F
  0
LAYER
  5
200
100
AcDbSymbolTableRecord
100
AcDbLayerTableRecord
  2
CHAMFER_FEATURES
 70
0
 62
7
  6
CONTINUOUS
370
-3
390
F
  0
LAYER
  5
201
100
AcDbSymbolTableRecord
100
AcDbLayerTableRecord
  2
COORDINATE_SYSTEMS
 70
0
 62
7
  6
CONTINUOUS
370
-3
390
F
  0
LAYER
  5
202
100
AcDbSymbolTableRecord
100
AcDbLayerTableRecord
  2
CUT_FEATURES
 70
0
 62
7
  6
CONTINUOUS
370
-3
390
F
  0
LAYER
  5
203
100
AcDbSymbolTableRecord
100
AcDbLayerTableRecord
  2
DATUM_CURVES
 70
0
 62
7
  6
CONTINUOUS
370
-3
390
F
  0
LAYER
  5
204
100
AcDbSymbolTableRecord
100
AcDbLayerTableRecord
  2
DATUM_PLANES
 70
0
 62
7
  6
CONTINUOUS
370
-3
390
F
  0
LAYER
  5
205
100
AcDbSymbolTableRecord
100
AcDbLayerTableRecord
  2
DATUM_POINTS
 70
0
 62
7
  6
CONTINUOUS
370
-3
390
F
  0
LAYER
  5
206
100
AcDbSymbolTableRecord
100
AcDbLayerTableRecord
  2
DEFAULT_COORDINATE_SYSTEM
 70
0
 62
7
  6
CONTINUOUS
370
-3
390
F
  0
LAYER
  5
207
100
AcDbSymbolTableRecord
100
AcDbLayerTableRecord
  2
DEFAULT_DATUM_AXES
 70
0
 62
7
  6
CONTINUOUS
370
-3
390
F
  0
LAYER
  5
208
100
AcDbSymbolTableRecord
100
AcDbLayerTableRecord
  2
DEFAULT_DATUM_CURVES
 70
0
 62
7
  6
CONTINUOUS
370
-3
390
F
  0
LAYER
  5
209
100
AcDbSymbolTableRecord
100
AcDbLayerTableRecord
  2
DEFAULT_DATUM_PLANES
 70
0
 62
7
  6
CONTINUOUS
370
-3
390
F
  0
LAYER
  5
20A
100
AcDbSymbolTableRecord
100
AcDbLayerTableRecord
  2
DEFAULT_SURFACES
 70
0
 62
7
  6
CONTINUOUS
370
-3
390
F
  0
LAYER
  5
20B
100
AcDbSymbolTableRecord
100
AcDbLayerTableRecord
  2
DIMENSIONS
 70
0
 62
7
  6
CONTINUOUS
370
-3
390
F
  0
LAYER
  5
20C
100
AcDbSymbolTableRecord
100
AcDbLayerTableRecord
  2
HOLE_FEATURES
 70
0
 62
7
  6
CONTINUOUS
370
-3
390
F
  0
LAYER
  5
20D
100
AcDbSymbolTableRecord
100
AcDbLayerTableRecord
  2
IMPORT_FEATURE
 70
0
 62
7
  6
CONTINUOUS
370
-3
390
F
  0
LAYER
  5
20E
100
AcDbSymbolTableRecord
100
AcDbLayerTableRecord
  2
INTFCLR_1
 70
0
 62
7
  6
CONTINUOUS
370
-3
390
F
  0
LAYER
  5
20F
100
AcDbSymbolTableRecord
100
AcDbLayerTableRecord
  2
NOTES
 70
0
 62
7
  6
CONTINUOUS
370
-3
390
F
  0
LAYER
  5
210
100
AcDbSymbolTableRecord
100
AcDbLayerTableRecord
  2
PART_REFERENCE_DIMENSIONS
 70
0
 62
7
  6
CONTINUOUS
370
-3
390
F
  0
LAYER
  5
211
100
AcDbSymbolTableRecord
100
AcDbLayerTableRecord
  2
PLATED_AREA
 70
0
 62
7
  6
CONTINUOUS
370
-3
390
F
  0
LAYER
  5
212
100
AcDbSymbolTableRecord
100
AcDbLayerTableRecord
  2
PLATED_SURFACE_AREA
 70
0
 62
7
  6
CONTINUOUS
370
-3
390
F
  0
LAYER
  5
213
100
AcDbSymbolTableRecord
100
AcDbLayerTableRecord
  2
POINTS
 70
0
 62
7
  6
CONTINUOUS
370
-3
390
F
  0
LAYER
  5
214
100
AcDbSymbolTableRecord
100
AcDbLayerTableRecord
  2
PROTRUSION
 70
0
 62
7
  6
CONTINUOUS
370
-3
390
F
  0
LAYER
  5
215
100
AcDbSymbolTableRecord
100
AcDbLayerTableRecord
  2
PROTRUSION_FEATURES
 70
0
 62
7
  6
CONTINUOUS
370
-3
390
F
  0
LAYER
  5
216
100
AcDbSymbolTableRecord
100
AcDbLayerTableRecord
  2
QUILT
 70
0
 62
7
  6
CONTINUOUS
370
-3
390
F
  0
LAYER
  5
217
100
AcDbSymbolTableRecord
100
AcDbLayerTableRecord
  2
QUILTS
 70
0
 62
7
  6
CONTINUOUS
370
-3
390
F
  0
LAYER
  5
218
100
AcDbSymbolTableRecord
100
AcDbLayerTableRecord
  2
REFERENCE_DIMENSIONS
 70
0
 62
7
  6
CONTINUOUS
370
-3
390
F
  0
LAYER
  5
219
100
AcDbSymbolTableRecord
100
AcDbLayerTableRecord
  2
ROUND_FEATURES
 70
0
 62
7
  6
CONTINUOUS
370
-3
390
F
  0
LAYER
  5
21A
100
AcDbSymbolTableRecord
100
AcDbLayerTableRecord
  2
SHELL_FEATURES
 70
0
 62
7
  6
CONTINUOUS
370
-3
390
F
  0
LAYER
  5
21B
100
AcDbSymbolTableRecord
100
AcDbLayerTableRecord
  2
SIZE_REF
 70
0
 62
7
  6
CONTINUOUS
370
-3
390
F
  0
LAYER
  5
21C
100
AcDbSymbolTableRecord
100
AcDbLayerTableRecord
  2
SURFACE_FEATURES
 70
0
 62
7
  6
CONTINUOUS
370
-3
390
F
  0
LAYER
  5
21D
100
AcDbSymbolTableRecord
100
AcDbLayerTableRecord
  2
XSEC_DATUMS
 70
0
 62
7
  6
CONTINUOUS
370
-3
390
F
  0
ENDTAB
  0
TABLE
  2
STYLE
  5
3
100
AcDbSymbolTable
 70
1
  0
STYLE
  5
11
100
AcDbSymbolTableRecord
100
AcDbTextStyleTableRecord
  2
STANDARD
 70
0
 40
0.0
 41
0.8
 50
0.0
 71
0
 42
0.2
  3
txt
  4

  0
STYLE
  5
21E
100
AcDbSymbolTableRecord
100
AcDbTextStyleTableRecord
  2
TEXTSTYLE_1
 70
0
 40
0.0
 41
0.8
 50
0.0
 71
0
 42
0.2
  3
gdt
  4

  0
ENDTAB
  0
TABLE
  2
VIEW
  5
6
100
AcDbSymbolTable
 70
0
  0
ENDTAB
  0
TABLE
  2
UCS
  5
7
100
AcDbSymbolTable
 70
0
  0
ENDTAB
  0
TABLE
  2
APPID
  5
9
100
AcDbSymbolTable
 70
1
  0
APPID
  5
21F
100
AcDbSymbolTableRecord
100
AcDbRegAppTableRecord
  2
ACAD
 70
0
  0
ENDTAB
  0
TABLE
  2
BLOCK_RECORD
  5
1
100
AcDbSymbolTable
 70
0
  0
BLOCK_RECORD
  5
220
100
AcDbSymbolTableRecord
100
AcDbBlockTableRecord
  2
*Model_Space
  0
BLOCK_RECORD
  5
221
100
AcDbSymbolTableRecord
100
AcDbBlockTableRecord
  2
*Paper_Space
  0
ENDTAB
  0
TABLE
  2
DIMSTYLE
  5
A
100
AcDbSymbolTable
 70
1
100
AcDbDimStyleTable
 71
0
  0
DIMSTYLE
105
222
100
AcDbSymbolTableRecord
100
AcDbDimStyleTableRecord
  2
STANDARD
 70
0
  3

  4

 40
1.0
 41
0.1
 42
0.0625
 43
0.38
 44
0.125
 45
0.0
 46
0.0
 47
0.001
 48
0.001
140
0.08
141
0.09
142
0.0
143
25.4
144
1.0
145
0.0
146
1.0
147
0.09
 71
1.0
 72
0.0
 73
1
 74
1
 75
0
 76
0
 77
0
 78
4
170
0
171
2
172
0
173
0
174
0
175
0
176
0
177
0
178
0
270
2
271
3
272
3
273
2
274
2
275
0
280
0
281
0
282
0
283
1
284
4
285
0
286
0
287
3
288
0
340
11
278
46
  0
ENDTAB
  0
ENDSEC
  0
SECTION
  2
BLOCKS
  0
BLOCK
  5
20
100
AcDbEntity
  8
0
100
AcDbBlockBegin
  2
*Model_Space
 70
0
 10
0.0
 20
0.0
 30
0.0
  3
*Model_Space
  1

  0
ENDBLK
  5
21
100
AcDbEntity
  8
0
100
AcDbBlockEnd
  0
BLOCK
  5
1C
100
AcDbEntity
  8
0
100
AcDbBlockBegin
  2
*Paper_Space
 70
0
 10
0.0
 20
0.0
 30
0.0
  3
*Paper_Space
  1

  0
ENDBLK
  5
1D
100
AcDbEntity
  8
0
100
AcDbBlockEnd
  0
ENDSEC
  0
SECTION
  2
ENTITIES
  0
LINE
  5
223
100
AcDbEntity
  8
0
100
AcDbLine
 62
7
  6
CONTINUOUS
 10
0.0
 20
0.0
 11
0.0
 21
8.5
  0
LINE
  5
224
100
AcDbEntity
  8
0
100
AcDbLine
 62
7
  6
CONTINUOUS
 10
0.0
 20
0.0
 11
11.0
 21
0.0
  0
LINE
  5
225
100
AcDbEntity
  8
0
100
AcDbLine
 62
7
  6
CONTINUOUS
 10
0.0
 20
8.5
 11
11.0
 21
8.5
  0
LINE
  5
226
100
AcDbEntity
  8
0
100
AcDbLine
 62
7
  6
CONTINUOUS
 10
11.0
 20
0.0
 11
11.0
 21
8.5
  0
LINE
  5
227
100
AcDbEntity
  8
ALL_ASSEMBLY_MEMBERS
100
AcDbLine
 62
9
  6
CONTINUOUS
 10
5.229029402
 20
1.5075741369
 11
5.0685434888
 21
1.5075741369
  0
LINE
  5
228
100
AcDbEntity
  8
ALL_ASSEMBLY_MEMBERS
100
AcDbLine
 62
9
  6
CONTINUOUS
 10
5.3264559017
 20
1.6664397647
 11
4.9711169891
 21
1.6664397647
  0
LINE
  5
229
100
AcDbEntity
  8
ALL_ASSEMBLY_MEMBERS
100
AcDbLine
 62
9
  6
CONTINUOUS
 10
5.3264559017
 20
1.8758458014
 11
4.9711169891
 21
1.8758458014
  0
LINE
  5
22A
100
AcDbEntity
  8
ALL_ASSEMBLY_MEMBERS
100
AcDbLine
 62
9
  6
CONTINUOUS
 10
5.3023200003
 20
1.9463778292
 11
4.9952528905
 21
1.9463778292
  0
LINE
  5
22B
100
AcDbEntity
  8
ALL_ASSEMBLY_MEMBERS
100
AcDbLine
 62
9
  6
CONTINUOUS
 10
5.2612864454
 20
2.1169398812
 11
5.0362864454
 21
2.1169398812
  0
LINE
  5
22C
100
AcDbEntity
  8
0
100
AcDbLine
 62
7
  6
CONTINUOUS
 10
4.5168554966
 20
2.0559366423
 11
4.523557223
 21
2.0479893224
  0
LINE
  5
22D
100
AcDbEntity
  8
0
100
AcDbLine
 62
7
  6
CONTINUOUS
 10
4.5245657364
 20
2.2321356285
 11
4.5675978117
 21
2.1811055435
  0
LINE
  5
22E
100
AcDbEntity
  8
0
100
AcDbLine
 62
7
  6
CONTINUOUS
 10
4.6312654606
 20
2.1309998793
 11
4.6207116245
 21
2.1435152681
  0
LINE
  5
22F
100
AcDbEntity
  8
0
100
AcDbLine
 62
7
  6
CONTINUOUS
 10
4.5947390619
 20
2.1743151323
 11
4.5370811252
 21
2.2426894646
  0
LINE
  5
230
100
AcDbEntity
  8
0
100
AcDbLine
 62
7
  6
CONTINUOUS
 10
4.518486914
 20
2.1149018474
 11
4.5092077517
 21
2.128389455
  0
LINE
  5
231
100
AcDbEntity
  8
ALL_ASSEMBLY_MEMBERS
100
AcDbLine
 62
7
  6
CONTINUOUS
 10
5.6745342193
 20
2.5301876551
 11
5.5064483094
 21
2.5301876551
  0
LINE
  5
232
100
AcDbEntity
  8
ALL_ASSEMBLY_MEMBERS
100
AcDbLine
 62
7
  6
CONTINUOUS
 10
4.7911245814
 20
2.5301876551
 11
4.6230386715
 21
2.5301876551
  0
LINE
  5
233
100
AcDbEntity
  8
ALL_ASSEMBLY_MEMBERS
100
AcDbLine
 62
9
  6
CONTINUOUS
 10
4.0136729272
 20
2.5624446985
 11
4.0136729272
 21
2.7229306117
  0
LINE
  5
234
100
AcDbEntity
  8
ALL_ASSEMBLY_MEMBERS
100
AcDbLine
 62
9
  6
CONTINUOUS
 10
4.172538555
 20
2.4650181988
 11
4.172538555
 21
2.8203571114
  0
LINE
  5
235
100
AcDbEntity
  8
0
100
AcDbLine
 62
7
  6
CONTINUOUS
 10
6.0004941675
 20
2.8459850018
 11
5.9301307595
 21
2.8406688737
  0
LINE
  5
236
100
AcDbEntity
  8
0
100
AcDbLine
 62
2
  6
CONTINUOUS
 10
5.9781866842
 20
2.8872629105
 11
5.929595119
 21
2.8835916985
  0
LINE
  5
237
100
AcDbEntity
  8
0
100
AcDbLine
 62
2
  6
CONTINUOUS
 10
5.9274630058
 20
2.8834306121
 11
5.9173807595
 21
2.8826688737
  0
LINE
  5
238
100
AcDbEntity
  8
0
100
AcDbLine
 62
7
  6
CONTINUOUS
 10
5.9516979438
 20
2.8267132729
 11
5.9732950105
 21
2.8280955485
  0
LINE
  5
239
100
AcDbEntity
  8
ALL_ASSEMBLY_MEMBERS
100
AcDbLine
 62
7
  6
CONTINUOUS
 10
5.6745342193
 20
2.7551876551
 11
5.5064483094
 21
2.7551876551
  0
LINE
  5
23A
100
AcDbEntity
  8
ALL_ASSEMBLY_MEMBERS
100
AcDbLine
 62
7
  6
CONTINUOUS
 10
4.7911245814
 20
2.7551876551
 11
4.6230386715
 21
2.7551876551
  0
LINE
  5
23B
100
AcDbEntity
  8
0
100
AcDbLine
 62
7
  6
CONTINUOUS
 10
4.3424475393
 20
2.9052778372
 11
4.4428358056
 21
2.8733527184
  0
LINE
  5
23C
100
AcDbEntity
  8
0
100
AcDbLine
 62
7
  6
CONTINUOUS
 10
4.2891379501
 20
2.830057809
 11
4.2865167951
 21
2.8309094739
  0
LINE
  5
23D
100
AcDbEntity
  8
0
100
AcDbLine
 62
7
  6
CONTINUOUS
 10
4.3357917995
 20
2.8728980306
 11
4.3510307608
 21
2.867946592
  0
LINE
  5
23E
100
AcDbEntity
  8
0
100
AcDbLine
 62
2
  6
CONTINUOUS
 10
4.3230417995
 20
2.9148980306
 11
4.3382807608
 21
2.909946592
  0
LINE
  5
23F
100
AcDbEntity
  8
0
100
AcDbLine
 62
7
  6
CONTINUOUS
 10
4.4478469149
 20
2.8887753271
 11
4.3189287982
 21
2.9306633624
  0
LINE
  5
240
100
AcDbEntity
  8
0
100
AcDbLine
 62
7
  6
CONTINUOUS
 10
4.375084423
 20
3.0444884229
 11
4.360020619
 21
3.0493829496
  0
LINE
  5
241
100
AcDbEntity
  8
0
100
AcDbLine
 62
7
  6
CONTINUOUS
 10
4.3392757959
 20
2.9855369492
 11
4.4011828886
 21
2.9516727784
  0
LINE
  5
242
100
AcDbEntity
  8
0
100
AcDbLine
 62
2
  6
CONTINUOUS
 10
4.3489388164
 20
3.0152766682
 11
4.3630796155
 21
3.0075414246
  0
LINE
  5
243
100
AcDbEntity
  8
0
100
AcDbLine
 62
7
  6
CONTINUOUS
 10
4.3906958909
 20
2.9751232604
 11
4.3584373407
 21
2.9932539719
  0
LINE
  5
244
100
AcDbEntity
  8
0
100
AcDbLine
 62
2
  6
CONTINUOUS
 10
4.3680078231
 20
3.0227088878
 11
4.353925408
 21
3.030623819
  0
LINE
  5
245
100
AcDbEntity
  8
0
100
AcDbLine
 62
7
  6
CONTINUOUS
 10
5.8006385079
 20
2.0746853888
 11
5.8136130743
 21
2.0656004996
  0
LINE
  5
246
100
AcDbEntity
  8
0
100
AcDbLine
 62
2
  6
CONTINUOUS
 10
5.7878885079
 20
2.1166853888
 11
5.7927523499
 21
2.11327969
  0
LINE
  5
247
100
AcDbEntity
  8
ALL_ASSEMBLY_MEMBERS
100
AcDbLine
 62
9
  6
CONTINUOUS
 10
4.3819445917
 20
2.4650181988
 11
4.3819445917
 21
2.8203571114
  0
LINE
  5
248
100
AcDbEntity
  8
ALL_ASSEMBLY_MEMBERS
100
AcDbLine
 62
7
  6
CONTINUOUS
 10
5.3025364454
 20
5.6873126551
 11
5.2768005476
 21
5.6504185358
  0
LINE
  5
249
100
AcDbEntity
  8
0
100
AcDbLine
 62
7
  6
CONTINUOUS
 10
5.8602252693
 20
2.1544859757
 11
5.8707859621
 21
2.147091299
  0
LINE
  5
24A
100
AcDbEntity
  8
0
100
AcDbLine
 62
2
  6
CONTINUOUS
 10
5.8474752693
 20
2.1964859757
 11
5.8580359621
 21
2.189091299
  0
LINE
  5
24B
100
AcDbEntity
  8
0
100
AcDbLine
 62
7
  6
CONTINUOUS
 10
5.9209113017
 20
2.2186777029
 11
5.9078613033
 21
2.2278154102
  0
LINE
  5
24C
100
AcDbEntity
  8
0
100
AcDbLine
 62
7
  6
CONTINUOUS
 10
4.6383025208
 20
3.3054204212
 11
4.6946950748
 21
3.2305849745
  0
LINE
  5
24D
100
AcDbEntity
  8
ALL_ASSEMBLY_MEMBERS
100
AcDbLine
 62
9
  6
CONTINUOUS
 10
4.4524766195
 20
2.4891541002
 11
4.4524766195
 21
2.79622121
  0
LINE
  5
24E
100
AcDbEntity
  8
ALL_ASSEMBLY_MEMBERS
100
AcDbLine
 62
9
  6
CONTINUOUS
 10
4.6230386715
 20
2.5301876551
 11
4.6230386715
 21
2.7551876551
  0
LINE
  5
24F
100
AcDbEntity
  8
0
100
AcDbLine
 62
7
  6
CONTINUOUS
 10
4.4313115785
 20
2.9570851124
 11
4.4273345718
 21
2.9400771288
  0
LINE
  5
250
100
AcDbEntity
  8
0
100
AcDbLine
 62
7
  6
CONTINUOUS
 10
4.3189287982
 20
2.9306633624
 11
4.3156278408
 21
2.92050406
  0
LINE
  5
251
100
AcDbEntity
  8
0
100
AcDbLine
 62
7
  6
CONTINUOUS
 10
4.2865167951
 20
2.8309094739
 11
4.2862427142
 21
2.8300659396
  0
LINE
  5
252
100
AcDbEntity
  8
0
100
AcDbLine
 62
7
  6
CONTINUOUS
 10
4.360020619
 20
3.0493829496
 11
4.3392757959
 21
2.9855369492
  0
LINE
  5
253
100
AcDbEntity
  8
0
100
AcDbLine
 62
7
  6
CONTINUOUS
 10
4.3584373407
 20
2.9932539719
 11
4.375084423
 21
3.0444884229
  0
LINE
  5
254
100
AcDbEntity
  8
ALL_ASSEMBLY_MEMBERS
100
AcDbLine
 62
9
  6
CONTINUOUS
 10
5.0362864454
 20
3.168435429
 11
5.2612864454
 21
3.168435429
  0
LINE
  5
255
100
AcDbEntity
  8
ALL_ASSEMBLY_MEMBERS
100
AcDbLine
 62
9
  6
CONTINUOUS
 10
4.9952528905
 20
3.338997481
 11
5.3023200003
 21
3.338997481
  0
LINE
  5
256
100
AcDbEntity
  8
0
100
AcDbLine
 62
7
  6
CONTINUOUS
 10
5.852118202
 20
2.120591521
 11
5.8028170848
 21
2.1710758774
  0
LINE
  5
257
100
AcDbEntity
  8
0
100
AcDbLine
 62
7
  6
CONTINUOUS
 10
5.8059713891
 20
2.1473688174
 11
5.8308631436
 21
2.117850642
  0
LINE
  5
258
100
AcDbEntity
  8
0
100
AcDbLine
 62
7
  6
CONTINUOUS
 10
4.7089185316
 20
3.240370384
 11
4.6517421644
 21
3.3146665853
  0
LINE
  5
259
100
AcDbEntity
  8
0
100
AcDbLine
 62
2
  6
CONTINUOUS
 10
4.6507804245
 20
3.3139418623
 11
4.6819450748
 21
3.2725849745
  0
LINE
  5
25A
100
AcDbEntity
  8
0
100
AcDbLine
 62
7
  6
CONTINUOUS
 10
4.4428358056
 20
2.8733527184
 11
4.4478469149
 21
2.8887753271
  0
LINE
  5
25B
100
AcDbEntity
  8
0
100
AcDbLine
 62
2
  6
CONTINUOUS
 10
4.3888448031
 20
2.994539608
 11
4.3951688086
 21
3.0078477954
  0
LINE
  5
25C
100
AcDbEntity
  8
0
100
AcDbLine
 62
7
  6
CONTINUOUS
 10
4.4011828886
 20
2.9516727784
 11
4.4079188086
 21
2.9658477954
  0
LINE
  5
25D
100
AcDbEntity
  8
ALL_ASSEMBLY_MEMBERS
100
AcDbLine
 62
7
  6
CONTINUOUS
 10
5.0207723433
 20
4.3599567744
 11
4.9950364454
 21
4.3230626551
  0
LINE
  5
25E
100
AcDbEntity
  8
ALL_ASSEMBLY_MEMBERS
100
AcDbLine
 62
9
  6
CONTINUOUS
 10
4.9711169891
 20
3.4095295088
 11
5.3264559017
 21
3.4095295088
  0
LINE
  5
25F
100
AcDbEntity
  8
ALL_ASSEMBLY_MEMBERS
100
AcDbLine
 62
7
  6
CONTINUOUS
 10
5.0017864454
 20
5.4077049644
 11
5.0017864454
 21
5.3970626551
  0
LINE
  5
260
100
AcDbEntity
  8
ALL_ASSEMBLY_MEMBERS
100
AcDbLine
 62
7
  6
CONTINUOUS
 10
5.0017864454
 20
4.6133126551
 11
5.0017864454
 21
4.6026703458
  0
LINE
  5
261
100
AcDbEntity
  8
0
100
AcDbLine
 62
7
  6
CONTINUOUS
 10
5.0044114454
 20
3.2458571978
 11
5.0044114454
 21
3.3195519754
  0
LINE
  5
262
100
AcDbEntity
  8
ALL_ASSEMBLY_MEMBERS
100
AcDbLine
 62
7
  6
CONTINUOUS
 10
5.0362864454
 20
3.168435429
 11
5.0362864454
 21
3.0003267081
  0
LINE
  5
263
100
AcDbEntity
  8
ALL_ASSEMBLY_MEMBERS
100
AcDbLine
 62
7
  6
CONTINUOUS
 10
5.0362864454
 20
2.285048602
 11
5.0362864454
 21
2.1169398812
  0
LINE
  5
264
100
AcDbEntity
  8
ALL_ASSEMBLY_MEMBERS
100
AcDbLine
 62
9
  6
CONTINUOUS
 10
4.9711169891
 20
3.6189355455
 11
5.3264559017
 21
3.6189355455
  0
LINE
  5
265
100
AcDbEntity
  8
ALL_ASSEMBLY_MEMBERS
100
AcDbLine
 62
9
  6
CONTINUOUS
 10
5.0685434888
 20
3.7778011733
 11
5.229029402
 21
3.7778011733
  0
LINE
  5
266
100
AcDbEntity
  8
0
100
AcDbLine
 62
7
  6
CONTINUOUS
 10
5.6193068151
 20
3.2165964233
 11
5.6322338151
 21
3.2057493824
  0
LINE
  5
267
100
AcDbEntity
  8
0
100
AcDbLine
 62
7
  6
CONTINUOUS
 10
5.6924951535
 20
3.2775660489
 11
5.6795681535
 21
3.2884130898
  0
LINE
  5
268
100
AcDbEntity
  8
ALL_ASSEMBLY_MEMBERS
100
AcDbLine
 62
7
  6
CONTINUOUS
 10
5.2612864454
 20
3.168435429
 11
5.2612864454
 21
3.0003267081
  0
LINE
  5
269
100
AcDbEntity
  8
ALL_ASSEMBLY_MEMBERS
100
AcDbLine
 62
7
  6
CONTINUOUS
 10
5.2612864454
 20
2.285048602
 11
5.2612864454
 21
2.1169398812
  0
LINE
  5
26A
100
AcDbEntity
  8
0
100
AcDbLine
 62
7
  6
CONTINUOUS
 10
5.2931614454
 20
3.2458572907
 11
5.2931614454
 21
3.3195519754
  0
LINE
  5
26B
100
AcDbEntity
  8
ALL_ASSEMBLY_MEMBERS
100
AcDbLine
 62
7
  6
CONTINUOUS
 10
5.2957864454
 20
5.4077049644
 11
5.2957864454
 21
5.3970626551
  0
LINE
  5
26C
100
AcDbEntity
  8
ALL_ASSEMBLY_MEMBERS
100
AcDbLine
 62
7
  6
CONTINUOUS
 10
5.2957864454
 20
4.6133126551
 11
5.2957864454
 21
4.6026703458
  0
LINE
  5
26D
100
AcDbEntity
  8
0
100
AcDbLine
 62
7
  6
CONTINUOUS
 10
4.6517421644
 20
3.3146665853
 11
4.6383025208
 21
3.3054204212
  0
LINE
  5
26E
100
AcDbEntity
  8
0
100
AcDbLine
 62
2
  6
CONTINUOUS
 10
4.6819450748
 20
3.2725849745
 11
4.6833717135
 21
3.273566469
  0
LINE
  5
26F
100
AcDbEntity
  8
0
100
AcDbLine
 62
7
  6
CONTINUOUS
 10
4.6946950748
 20
3.2305849745
 11
4.7089185316
 21
3.240370384
  0
LINE
  5
270
100
AcDbEntity
  8
ALL_ASSEMBLY_MEMBERS
100
AcDbLine
 62
9
  6
CONTINUOUS
 10
5.6745342193
 20
2.7551876551
 11
5.6745342193
 21
2.5301876551
  0
LINE
  5
271
100
AcDbEntity
  8
ALL_ASSEMBLY_MEMBERS
100
AcDbLine
 62
7
  6
CONTINUOUS
 10
4.9950364454
 20
4.3230626551
 11
5.3025364454
 21
4.3230626551
  0
LINE
  5
272
100
AcDbEntity
  8
ALL_ASSEMBLY_MEMBERS
100
AcDbLine
 62
7
  6
CONTINUOUS
 10
5.2768005476
 20
4.3599567744
 11
5.3025364454
 21
4.3230626551
  0
LINE
  5
273
100
AcDbEntity
  8
0
100
AcDbLine
 62
7
  6
CONTINUOUS
 10
5.9081207407
 20
2.8198552395
 11
5.9015662464
 21
2.8360309952
  0
LINE
  5
274
100
AcDbEntity
  8
0
100
AcDbLine
 62
2
  6
CONTINUOUS
 10
5.8953707407
 20
2.8618552395
 11
5.8928250953
 21
2.8681376064
  0
LINE
  5
275
100
AcDbEntity
  8
ALL_ASSEMBLY_MEMBERS
100
AcDbLine
 62
9
  6
CONTINUOUS
 10
5.8450962713
 20
2.79622121
 11
5.8450962713
 21
2.4891541002
  0
LINE
  5
276
100
AcDbEntity
  8
ALL_ASSEMBLY_MEMBERS
100
AcDbLine
 62
9
  6
CONTINUOUS
 10
5.9156282991
 20
2.8203571114
 11
5.9156282991
 21
2.4650181988
  0
LINE
  5
277
100
AcDbEntity
  8
0
100
AcDbLine
 62
7
  6
CONTINUOUS
 10
5.6795681535
 20
3.2884130898
 11
5.6193068151
 21
3.2165964233
  0
LINE
  5
278
100
AcDbEntity
  8
0
100
AcDbLine
 62
7
  6
CONTINUOUS
 10
5.6322338151
 20
3.2057493824
 11
5.6924951535
 21
3.2775660489
  0
LINE
  5
279
100
AcDbEntity
  8
ALL_ASSEMBLY_MEMBERS
100
AcDbLine
 62
9
  6
CONTINUOUS
 10
5.0207723433
 20
4.3599567744
 11
5.2768005476
 21
4.3599567744
  0
LINE
  5
27A
100
AcDbEntity
  8
ALL_ASSEMBLY_MEMBERS
100
AcDbLine
 62
7
  6
CONTINUOUS
 10
5.0137864454
 20
4.3784773477
 11
5.2837864454
 21
4.3784773477
  0
LINE
  5
27B
100
AcDbEntity
  8
ALL_ASSEMBLY_MEMBERS
100
AcDbLine
 62
9
  6
CONTINUOUS
 10
5.0050537721
 20
4.3987078044
 11
5.2925191187
 21
4.3987078044
  0
LINE
  5
27C
100
AcDbEntity
  8
ALL_ASSEMBLY_MEMBERS
100
AcDbLine
 62
9
  6
CONTINUOUS
 10
5.2898935883
 20
4.5872012769
 11
5.1546097053
 21
4.5872012744
  0
LINE
  5
27D
100
AcDbEntity
  8
ALL_ASSEMBLY_MEMBERS
100
AcDbLine
 62
9
  6
CONTINUOUS
 10
5.142963084
 20
4.5872012754
 11
5.0076793026
 21
4.5872012769
  0
LINE
  5
27E
100
AcDbEntity
  8
ALL_ASSEMBLY_MEMBERS
100
AcDbLine
 62
9
  6
CONTINUOUS
 10
5.2957864454
 20
4.6026703458
 11
5.2616247938
 21
4.602670339
  0
LINE
  5
27F
100
AcDbEntity
  8
ALL_ASSEMBLY_MEMBERS
100
AcDbLine
 62
9
  6
CONTINUOUS
 10
5.0359480855
 20
4.6026703435
 11
5.0017864454
 21
4.6026703458
  0
LINE
  5
280
100
AcDbEntity
  8
0
100
AcDbLine
 62
2
  6
CONTINUOUS
 10
5.9829553325
 20
2.8446598998
 11
5.9871058756
 21
2.829169862
  0
LINE
  5
281
100
AcDbEntity
  8
0
100
AcDbLine
 62
2
  6
CONTINUOUS
 10
6.0033227384
 20
2.8298449837
 11
5.9990277206
 21
2.8458742081
  0
LINE
  5
282
100
AcDbEntity
  8
0
100
AcDbLine
 62
7
  6
CONTINUOUS
 10
6.0048023671
 20
2.8299065819
 11
6.0004941675
 21
2.8459850018
  0
LINE
  5
283
100
AcDbEntity
  8
0
100
AcDbLine
 62
2
  6
CONTINUOUS
 10
5.9173807595
 20
2.8826688737
 11
5.9194518093
 21
2.8671120592
  0
LINE
  5
284
100
AcDbEntity
  8
0
100
AcDbLine
 62
7
  6
CONTINUOUS
 10
5.9301307595
 20
2.8406688737
 11
5.9322018093
 21
2.8251120592
  0
LINE
  5
285
100
AcDbEntity
  8
ALL_ASSEMBLY_MEMBERS
100
AcDbLine
 62
9
  6
CONTINUOUS
 10
6.1250343358
 20
2.8203571114
 11
6.1250343358
 21
2.4650181988
  0
LINE
  5
286
100
AcDbEntity
  8
0
100
AcDbLine
 62
7
  6
CONTINUOUS
 10
4.5370811252
 20
2.2426894646
 11
4.5245657364
 21
2.2321356285
  0
LINE
  5
287
100
AcDbEntity
  8
0
100
AcDbLine
 62
2
  6
CONTINUOUS
 10
4.5947144395
 20
2.1743443311
 11
4.5922013418
 21
2.1722251143
  0
LINE
  5
288
100
AcDbEntity
  8
0
100
AcDbLine
 62
7
  6
CONTINUOUS
 10
4.6207116245
 20
2.1435152681
 11
4.5168554966
 21
2.0559366423
  0
LINE
  5
289
100
AcDbEntity
  8
0
100
AcDbLine
 62
2
  6
CONTINUOUS
 10
4.56173452
 20
2.081726659
 11
4.5742499088
 21
2.092280495
  0
LINE
  5
28A
100
AcDbEntity
  8
0
100
AcDbLine
 62
7
  6
CONTINUOUS
 10
4.5502679873
 20
2.0626972424
 11
4.6312654606
 21
2.1309998793
  0
LINE
  5
28B
100
AcDbEntity
  8
0
100
AcDbLine
 62
7
  6
CONTINUOUS
 10
4.57448452
 20
2.039726659
 11
4.5869999088
 21
2.050280495
  0
LINE
  5
28C
100
AcDbEntity
  8
ALL_ASSEMBLY_MEMBERS
100
AcDbLine
 62
7
  6
CONTINUOUS
 10
5.0017864454
 20
4.6133126551
 11
5.0033082691
 21
4.6133126551
  0
LINE
  5
28D
100
AcDbEntity
  8
ALL_ASSEMBLY_MEMBERS
100
AcDbLine
 62
7
  6
CONTINUOUS
 10
5.2942646211
 20
4.6133126551
 11
5.2957864454
 21
4.6133126551
  0
LINE
  5
28E
100
AcDbEntity
  8
ALL_ASSEMBLY_MEMBERS
100
AcDbLine
 62
7
  6
CONTINUOUS
 10
4.9950364454
 20
5.6873126551
 11
5.0207723433
 21
5.6504185358
  0
LINE
  5
28F
100
AcDbEntity
  8
ALL_ASSEMBLY_MEMBERS
100
AcDbLine
 62
9
  6
CONTINUOUS
 10
6.2838999636
 20
2.7229306117
 11
6.2838999636
 21
2.5624446985
  0
LINE
  5
290
100
AcDbEntity
  8
0
100
AcDbLine
 62
7
  6
CONTINUOUS
 10
5.772422462
 20
2.174708813
 11
5.781198341
 21
2.1898108578
  0
LINE
  5
291
100
AcDbEntity
  8
0
100
AcDbLine
 62
7
  6
CONTINUOUS
 10
5.8009310941
 20
2.2796430893
 11
5.7911595589
 21
2.2656878907
  0
LINE
  5
292
100
AcDbEntity
  8
0
100
AcDbLine
 62
2
  6
CONTINUOUS
 10
5.8163033294
 20
2.1572659595
 11
5.807829989
 21
2.1451647752
  0
LINE
  5
293
100
AcDbEntity
  8
0
100
AcDbLine
 62
2
  6
CONTINUOUS
 10
5.8058825966
 20
2.1423836107
 11
5.7878885079
 21
2.1166853888
  0
LINE
  5
294
100
AcDbEntity
  8
0
100
AcDbLine
 62
2
  6
CONTINUOUS
 10
5.8183940245
 20
2.1326372913
 11
5.8275646756
 21
2.1457343382
  0
LINE
  5
295
100
AcDbEntity
  8
0
100
AcDbLine
 62
2
  6
CONTINUOUS
 10
5.8580359621
 20
2.189091299
 11
5.8627352179
 21
2.1958025319
  0
LINE
  5
296
100
AcDbEntity
  8
0
100
AcDbLine
 62
7
  6
CONTINUOUS
 10
5.9078613033
 20
2.2278154102
 11
5.8699371825
 21
2.1736541527
  0
LINE
  5
297
100
AcDbEntity
  8
0
100
AcDbLine
 62
7
  6
CONTINUOUS
 10
5.8308631436
 20
2.117850642
 11
5.8006385079
 21
2.0746853888
  0
LINE
  5
298
100
AcDbEntity
  8
0
100
AcDbLine
 62
7
  6
CONTINUOUS
 10
5.8136130743
 20
2.0656004996
 11
5.852118202
 21
2.120591521
  0
LINE
  5
299
100
AcDbEntity
  8
0
100
AcDbLine
 62
7
  6
CONTINUOUS
 10
5.8707859621
 20
2.147091299
 11
5.9209113017
 21
2.2186777029
  0
LINE
  5
29A
100
AcDbEntity
  8
0
100
AcDbLine
 62
7
  6
CONTINUOUS
 10
5.8028170848
 20
2.1710758774
 11
5.7922311186
 21
2.1594896336
  0
LINE
  5
29B
100
AcDbEntity
  8
ALL_ASSEMBLY_MEMBERS
100
AcDbLine
 62
7
  6
CONTINUOUS
 10
5.2957864454
 20
5.3970626551
 11
5.2942646216
 21
5.3970626551
  0
LINE
  5
29C
100
AcDbEntity
  8
ALL_ASSEMBLY_MEMBERS
100
AcDbLine
 62
7
  6
CONTINUOUS
 10
5.0033082697
 20
5.3970626551
 11
5.0017864454
 21
5.3970626551
  0
LINE
  5
29D
100
AcDbEntity
  8
ALL_ASSEMBLY_MEMBERS
100
AcDbLine
 62
9
  6
CONTINUOUS
 10
5.0017864454
 20
5.4077049644
 11
5.035948097
 21
5.4077049711
  0
LINE
  5
29E
100
AcDbEntity
  8
ALL_ASSEMBLY_MEMBERS
100
AcDbLine
 62
9
  6
CONTINUOUS
 10
5.2616248066
 20
5.4077049667
 11
5.2957864454
 21
5.4077049644
  0
LINE
  5
29F
100
AcDbEntity
  8
ALL_ASSEMBLY_MEMBERS
100
AcDbLine
 62
9
  6
CONTINUOUS
 10
5.0076793026
 20
5.4231740333
 11
5.1429631858
 21
5.4231740358
  0
LINE
  5
2A0
100
AcDbEntity
  8
ALL_ASSEMBLY_MEMBERS
100
AcDbLine
 62
9
  6
CONTINUOUS
 10
5.1546097922
 20
5.4231740347
 11
5.2898935883
 21
5.4231740333
  0
LINE
  5
2A1
100
AcDbEntity
  8
ALL_ASSEMBLY_MEMBERS
100
AcDbLine
 62
9
  6
CONTINUOUS
 10
5.2925191187
 20
5.6116675057
 11
5.0050537721
 21
5.6116675057
  0
LINE
  5
2A2
100
AcDbEntity
  8
ALL_ASSEMBLY_MEMBERS
100
AcDbLine
 62
7
  6
CONTINUOUS
 10
5.2837864454
 20
5.6318979624
 11
5.0137864454
 21
5.6318979624
  0
LINE
  5
2A3
100
AcDbEntity
  8
ALL_ASSEMBLY_MEMBERS
100
AcDbLine
 62
9
  6
CONTINUOUS
 10
5.2768005476
 20
5.6504185358
 11
5.0207723433
 21
5.6504185358
  0
LINE
  5
2A4
100
AcDbEntity
  8
ALL_ASSEMBLY_MEMBERS
100
AcDbLine
 62
7
  6
CONTINUOUS
 10
5.3025364454
 20
5.6873126551
 11
4.9950364454
 21
5.6873126551
  0
ARC
  5
2A5
100
AcDbEntity
  8
ALL_ASSEMBLY_MEMBERS
100
AcDbCircle
 62
7
  6
CONTINUOUS
 10
4.2772415734
 20
2.2676876551
 40
0.5625
100
AcDbArc
 50
79.2724717156
 51
100.7275282844
  0
ARC
  5
2A6
100
AcDbEntity
  8
ALL_ASSEMBLY_MEMBERS
100
AcDbCircle
 62
7
  6
CONTINUOUS
 10
4.2213999636
 20
2.5624446985
 40
0.2625
100
AcDbArc
 50
100.7275282844
 51
142.3110157293
  0
ARC
  5
2A7
100
AcDbEntity
  8
ALL_ASSEMBLY_MEMBERS
100
AcDbCircle
 62
7
  6
CONTINUOUS
 10
4.3330831832
 20
2.5624446985
 40
0.2625
100
AcDbArc
 50
62.9458657533
 51
79.2724717156
  0
ARC
  5
2A8
100
AcDbEntity
  8
0
100
AcDbCircle
 62
2
  6
CONTINUOUS
 10
4.4834283273
 20
2.1646850582
 40
0.0503886383
100
AcDbArc
 50
98.2729893576
 51
99.316717363
  0
ARC
  5
2A9
100
AcDbEntity
  8
0
100
AcDbCircle
 62
2
  6
CONTINUOUS
 10
4.4828907482
 20
2.1679110793
 40
0.0471181443
100
AcDbArc
 50
99.3067201314
 51
101.1572711165
  0
ARC
  5
2AA
100
AcDbEntity
  8
0
100
AcDbCircle
 62
2
  6
CONTINUOUS
 10
4.4145321473
 20
2.2718237808
 40
0.043100333
100
AcDbArc
 50
228.6684224535
 51
229.098549885
  0
ARC
  5
2AB
100
AcDbEntity
  8
0
100
AcDbCircle
 62
2
  6
CONTINUOUS
 10
4.4139656975
 20
2.2711666384
 40
0.0422327519
100
AcDbArc
 50
229.0956644196
 51
230.3955770806
  0
ARC
  5
2AC
100
AcDbEntity
  8
0
100
AcDbCircle
 62
2
  6
CONTINUOUS
 10
4.4735191194
 20
2.1934498115
 40
0.0372771665
100
AcDbArc
 50
176.8075277971
 51
184.6928131324
  0
ARC
  5
2AD
100
AcDbEntity
  8
0
100
AcDbCircle
 62
2
  6
CONTINUOUS
 10
4.4447327791
 20
2.3122092896
 40
0.036562558
100
AcDbArc
 50
345.1129651667
 51
347.5902564899
  0
ARC
  5
2AE
100
AcDbEntity
  8
0
100
AcDbCircle
 62
2
  6
CONTINUOUS
 10
4.4844428538
 20
2.1956057232
 40
0.0339851657
100
AcDbArc
 50
217.7889154011
 51
220.4062853543
  0
ARC
  5
2AF
100
AcDbEntity
  8
0
100
AcDbCircle
 62
2
  6
CONTINUOUS
 10
4.4083468416
 20
2.2622592526
 40
0.0316446121
100
AcDbArc
 50
252.8782458736
 51
254.4536571175
  0
ARC
  5
2B0
100
AcDbEntity
  8
ALL_ASSEMBLY_MEMBERS
100
AcDbCircle
 62
7
  6
CONTINUOUS
 10
4.2772415734
 20
3.0176876551
 40
0.5625
100
AcDbArc
 50
259.2724717156
 51
280.7275282844
  0
ARC
  5
2B1
100
AcDbEntity
  8
ALL_ASSEMBLY_MEMBERS
100
AcDbCircle
 62
7
  6
CONTINUOUS
 10
4.2213999636
 20
2.7229306117
 40
0.2625
100
AcDbArc
 50
217.6889842707
 51
259.2724717156
  0
ARC
  5
2B2
100
AcDbEntity
  8
ALL_ASSEMBLY_MEMBERS
100
AcDbCircle
 62
7
  6
CONTINUOUS
 10
4.3330831832
 20
2.7229306117
 40
0.2625
100
AcDbArc
 50
280.7275282844
 51
297.0541342467
  0
ARC
  5
2B3
100
AcDbEntity
  8
ALL_ASSEMBLY_MEMBERS
100
AcDbCircle
 62
7
  6
CONTINUOUS
 10
4.1175364454
 20
2.6426876551
 40
0.13125
100
AcDbArc
 50
142.3110157293
 51
217.6889842707
  0
ARC
  5
2B4
100
AcDbEntity
  8
0
100
AcDbCircle
 62
2
  6
CONTINUOUS
 10
4.2250460407
 20
2.9038994773
 40
0.0985418339
100
AcDbArc
 50
15.3328968854
 51
15.554766151
  0
ARC
  5
2B5
100
AcDbEntity
  8
0
100
AcDbCircle
 62
2
  6
CONTINUOUS
 10
4.1926340801
 20
2.8041455944
 40
0.0985417895
100
AcDbArc
 50
15.3328953857
 51
15.5547703405
  0
ARC
  5
2B6
100
AcDbEntity
  8
0
100
AcDbCircle
 62
2
  6
CONTINUOUS
 10
4.4141664212
 20
3.0239218801
 40
0.0248854473
100
AcDbArc
 50
214.9997075125
 51
220.2349201356
  0
ARC
  5
2B7
100
AcDbEntity
  8
ALL_ASSEMBLY_MEMBERS
100
AcDbCircle
 62
7
  6
CONTINUOUS
 10
4.7737864454
 20
1.7711427831
 40
0.5625
100
AcDbArc
 50
349.2724717156
 51
10.7275282844
  0
ARC
  5
2B8
100
AcDbEntity
  8
ALL_ASSEMBLY_MEMBERS
100
AcDbCircle
 62
7
  6
CONTINUOUS
 10
4.6612864454
 20
2.1169398812
 40
0.375
100
AcDbArc
 50
332.9458657533
 51
360.0
  0
ARC
  5
2B9
100
AcDbEntity
  8
ALL_ASSEMBLY_MEMBERS
100
AcDbCircle
 62
7
  6
CONTINUOUS
 10
4.6230386715
 20
2.1551876551
 40
0.375
100
AcDbArc
 50
90.0
 51
117.0541342467
  0
ARC
  5
2BA
100
AcDbEntity
  8
ALL_ASSEMBLY_MEMBERS
100
AcDbCircle
 62
7
  6
CONTINUOUS
 10
5.0685434888
 20
1.7153011733
 40
0.2625
100
AcDbArc
 50
307.6889842707
 51
349.2724717156
  0
ARC
  5
2BB
100
AcDbEntity
  8
ALL_ASSEMBLY_MEMBERS
100
AcDbCircle
 62
7
  6
CONTINUOUS
 10
5.0685434888
 20
1.8269843929
 40
0.2625
100
AcDbArc
 50
10.7275282844
 51
27.0541342467
  0
ARC
  5
2BC
100
AcDbEntity
  8
ALL_ASSEMBLY_MEMBERS
100
AcDbCircle
 62
7
  6
CONTINUOUS
 10
4.7737864454
 20
3.5142325271
 40
0.5625
100
AcDbArc
 50
349.2724717156
 51
10.7275282844
  0
ARC
  5
2BD
100
AcDbEntity
  8
ALL_ASSEMBLY_MEMBERS
100
AcDbCircle
 62
7
  6
CONTINUOUS
 10
4.6612864454
 20
3.168435429
 40
0.375
100
AcDbArc
 50
0.0
 51
27.0541342467
  0
ARC
  5
2BE
100
AcDbEntity
  8
ALL_ASSEMBLY_MEMBERS
100
AcDbCircle
 62
7
  6
CONTINUOUS
 10
4.6230386715
 20
3.1301876551
 40
0.375
100
AcDbArc
 50
242.9458657533
 51
270.0
  0
ARC
  5
2BF
100
AcDbEntity
  8
ALL_ASSEMBLY_MEMBERS
100
AcDbCircle
 62
7
  6
CONTINUOUS
 10
5.0685434888
 20
3.5700741369
 40
0.2625
100
AcDbArc
 50
10.7275282844
 51
52.3110157293
  0
ARC
  5
2C0
100
AcDbEntity
  8
ALL_ASSEMBLY_MEMBERS
100
AcDbCircle
 62
7
  6
CONTINUOUS
 10
5.0685434888
 20
3.4583909173
 40
0.2625
100
AcDbArc
 50
332.9458657533
 51
349.2724717156
  0
ARC
  5
2C1
100
AcDbEntity
  8
ALL_ASSEMBLY_MEMBERS
100
AcDbCircle
 62
7
  6
CONTINUOUS
 10
4.9035364454
 20
5.5159884465
 40
0.1395
100
AcDbArc
 50
318.2918697479
 51
43.3041758004
  0
ARC
  5
2C2
100
AcDbEntity
  8
ALL_ASSEMBLY_MEMBERS
100
AcDbCircle
 62
7
  6
CONTINUOUS
 10
4.9035364454
 20
4.4943868637
 40
0.1395
100
AcDbArc
 50
316.6958241996
 51
41.7081302521
  0
ARC
  5
2C3
100
AcDbEntity
  8
ALL_ASSEMBLY_MEMBERS
100
AcDbCircle
 62
7
  6
CONTINUOUS
 10
5.0250364454
 20
5.4077049644
 40
0.02325
100
AcDbArc
 50
138.2918697479
 51
180.0
  0
ARC
  5
2C4
100
AcDbEntity
  8
ALL_ASSEMBLY_MEMBERS
100
AcDbCircle
 62
7
  6
CONTINUOUS
 10
5.0250364454
 20
4.6026703458
 40
0.02325
100
AcDbArc
 50
180.0
 51
221.7081302521
  0
ARC
  5
2C5
100
AcDbEntity
  8
ALL_ASSEMBLY_MEMBERS
100
AcDbCircle
 62
7
  6
CONTINUOUS
 10
5.0137864454
 20
5.6198979624
 40
0.012
100
AcDbArc
 50
90.0
 51
223.3041758004
  0
ARC
  5
2C6
100
AcDbEntity
  8
ALL_ASSEMBLY_MEMBERS
100
AcDbCircle
 62
7
  6
CONTINUOUS
 10
5.0109302959
 20
5.6435531076
 40
0.012
100
AcDbArc
 50
283.7692637668
 51
34.898123561
  0
ARC
  5
2C7
100
AcDbEntity
  8
ALL_ASSEMBLY_MEMBERS
100
AcDbCircle
 62
7
  6
CONTINUOUS
 10
5.0137864454
 20
4.3904773477
 40
0.012
100
AcDbArc
 50
136.6958241996
 51
270.0
  0
ARC
  5
2C8
100
AcDbEntity
  8
ALL_ASSEMBLY_MEMBERS
100
AcDbCircle
 62
7
  6
CONTINUOUS
 10
5.0109302959
 20
4.3668222025
 40
0.012
100
AcDbArc
 50
325.101876439
 51
76.2307362332
  0
ARC
  5
2C9
100
AcDbEntity
  8
ALL_ASSEMBLY_MEMBERS
100
AcDbCircle
 62
7
  6
CONTINUOUS
 10
5.229029402
 20
1.7153011733
 40
0.2625
100
AcDbArc
 50
190.7275282844
 51
232.3110157293
  0
ARC
  5
2CA
100
AcDbEntity
  8
ALL_ASSEMBLY_MEMBERS
100
AcDbCircle
 62
7
  6
CONTINUOUS
 10
5.229029402
 20
1.8269843929
 40
0.2625
100
AcDbArc
 50
152.9458657533
 51
169.2724717156
  0
ARC
  5
2CB
100
AcDbEntity
  8
ALL_ASSEMBLY_MEMBERS
100
AcDbCircle
 62
7
  6
CONTINUOUS
 10
5.1487864454
 20
1.6114376551
 40
0.13125
100
AcDbArc
 50
232.3110157293
 51
307.6889842707
  0
ARC
  5
2CC
100
AcDbEntity
  8
ALL_FEATURES
100
AcDbCircle
 62
9
  6
CONTINUOUS
 10
5.1487864454
 20
2.6420876551
 40
1.027112353
100
AcDbArc
 50
189.3662681498
 51
260.6104981326
  0
ARC
  5
2CD
100
AcDbEntity
  8
ALL_FEATURES
100
AcDbCircle
 62
9
  6
CONTINUOUS
 10
5.1487864454
 20
2.6420876551
 40
1.027112353
100
AcDbArc
 50
279.3895017629
 51
350.6337322598
  0
ARC
  5
2CE
100
AcDbEntity
  8
ALL_FEATURES
100
AcDbCircle
 62
9
  6
CONTINUOUS
 10
5.1487864454
 20
2.6420876551
 40
1.027112353
100
AcDbArc
 50
9.438340786
 51
80.5848228107
  0
ARC
  5
2CF
100
AcDbEntity
  8
ALL_FEATURES
100
AcDbCircle
 62
9
  6
CONTINUOUS
 10
5.1487864454
 20
2.6420876551
 40
1.027112353
100
AcDbArc
 50
99.4151771133
 51
170.5616595961
  0
ARC
  5
2D0
100
AcDbEntity
  8
ALL_FEATURES
100
AcDbCircle
 62
9
  6
CONTINUOUS
 10
5.1487864454
 20
2.6420876551
 40
1.0121174932
100
AcDbArc
 50
189.7871511576
 51
260.1871211865
  0
ARC
  5
2D1
100
AcDbEntity
  8
ALL_FEATURES
100
AcDbCircle
 62
9
  6
CONTINUOUS
 10
5.1487864454
 20
2.6420876551
 40
1.0121174932
100
AcDbArc
 50
279.8128790549
 51
350.2128488285
  0
ARC
  5
2D2
100
AcDbEntity
  8
ALL_FEATURES
100
AcDbCircle
 62
9
  6
CONTINUOUS
 10
5.1487864454
 20
2.6420876551
 40
1.0121174932
100
AcDbArc
 50
9.8597813764
 51
80.1664781828
  0
ARC
  5
2D3
100
AcDbEntity
  8
ALL_FEATURES
100
AcDbCircle
 62
9
  6
CONTINUOUS
 10
5.1487864454
 20
2.6420876551
 40
1.0121174932
100
AcDbArc
 50
99.8335220757
 51
170.140218699
  0
ARC
  5
2D4
100
AcDbEntity
  8
ALL_FEATURES
100
AcDbCircle
 62
9
  6
CONTINUOUS
 10
5.1487864454
 20
2.6420876551
 40
1.0111149571
100
AcDbArc
 50
9.8870269808
 51
80.1390029927
  0
ARC
  5
2D5
100
AcDbEntity
  8
ALL_FEATURES
100
AcDbCircle
 62
9
  6
CONTINUOUS
 10
5.1487864454
 20
2.6420876551
 40
1.0111149571
100
AcDbArc
 50
99.8609968791
 51
170.1129729634
  0
ARC
  5
2D6
100
AcDbEntity
  8
ALL_FEATURES
100
AcDbCircle
 62
9
  6
CONTINUOUS
 10
5.1487864454
 20
2.6420876551
 40
1.0111149571
100
AcDbArc
 50
189.814225162
 51
260.1597777322
  0
ARC
  5
2D7
100
AcDbEntity
  8
ALL_FEATURES
100
AcDbCircle
 62
9
  6
CONTINUOUS
 10
5.1487864454
 20
2.6420876551
 40
1.0111149571
100
AcDbArc
 50
279.8402221307
 51
350.1857747352
  0
ARC
  5
2D8
100
AcDbEntity
  8
ALL_FEATURES
100
AcDbCircle
 62
9
  6
CONTINUOUS
 10
5.1487864454
 20
2.6420876551
 40
0.9961200972
100
AcDbArc
 50
10.2592197019
 51
79.7692137656
  0
ARC
  5
2D9
100
AcDbEntity
  8
ALL_FEATURES
100
AcDbCircle
 62
9
  6
CONTINUOUS
 10
5.1487864454
 20
2.6420876551
 40
0.9961200972
100
AcDbArc
 50
100.2307862451
 51
169.7407803877
  0
ARC
  5
2DA
100
AcDbEntity
  8
ALL_FEATURES
100
AcDbCircle
 62
9
  6
CONTINUOUS
 10
5.1487864454
 20
2.6420876551
 40
0.9961200972
100
AcDbArc
 50
190.1862061308
 51
259.7853480543
  0
ARC
  5
2DB
100
AcDbEntity
  8
ALL_FEATURES
100
AcDbCircle
 62
9
  6
CONTINUOUS
 10
5.1487864454
 20
2.6420876551
 40
0.9961200972
100
AcDbArc
 50
280.2146519538
 51
349.8137939495
  0
ARC
  5
2DC
100
AcDbEntity
  8
0
100
AcDbCircle
 62
7
  6
CONTINUOUS
 10
5.1487864454
 20
2.6420876551
 40
0.62745
100
AcDbArc
 50
103.3031658337
 51
168.6085631332
  0
ARC
  5
2DD
100
AcDbEntity
  8
0
100
AcDbCircle
 62
7
  6
CONTINUOUS
 10
5.1487864454
 20
2.6420876551
 40
0.62745
100
AcDbArc
 50
191.2852276473
 51
258.6479078698
  0
ARC
  5
2DE
100
AcDbEntity
  8
0
100
AcDbCircle
 62
7
  6
CONTINUOUS
 10
5.1487864454
 20
2.6420876551
 40
0.62745
100
AcDbArc
 50
281.3520921302
 51
348.7147723527
  0
ARC
  5
2DF
100
AcDbEntity
  8
0
100
AcDbCircle
 62
7
  6
CONTINUOUS
 10
5.1487864454
 20
2.6420876551
 40
0.62745
100
AcDbArc
 50
11.3914368668
 51
76.6968341663
  0
ARC
  5
2E0
100
AcDbEntity
  8
0
100
AcDbCircle
 62
7
  6
CONTINUOUS
 10
5.1487864454
 20
2.6420876551
 40
0.6200625
100
AcDbArc
 50
201.9091717698
 51
258.6691621915
  0
ARC
  5
2E1
100
AcDbEntity
  8
0
100
AcDbCircle
 62
7
  6
CONTINUOUS
 10
5.1487864454
 20
2.6420876551
 40
0.6200625
100
AcDbArc
 50
281.3308378085
 51
348.7351843482
  0
ARC
  5
2E2
100
AcDbEntity
  8
ALL_ASSEMBLY_MEMBERS
100
AcDbCircle
 62
7
  6
CONTINUOUS
 10
5.5237864454
 20
1.7711427831
 40
0.5625
100
AcDbArc
 50
169.2724717156
 51
190.7275282844
  0
ARC
  5
2E3
100
AcDbEntity
  8
ALL_ASSEMBLY_MEMBERS
100
AcDbCircle
 62
7
  6
CONTINUOUS
 10
5.6362864454
 20
2.1169398812
 40
0.375
100
AcDbArc
 50
180.0
 51
207.0541342467
  0
ARC
  5
2E4
100
AcDbEntity
  8
0
100
AcDbCircle
 62
2
  6
CONTINUOUS
 10
5.631313395
 20
2.1414719827
 40
0.2230917439
100
AcDbArc
 50
25.7413417325
 51
34.0956089315
  0
ARC
  5
2E5
100
AcDbEntity
  8
0
100
AcDbCircle
 62
7
  6
CONTINUOUS
 10
5.1487864454
 20
2.6426876551
 40
0.62025
100
AcDbArc
 50
191.3194797825
 51
258.6805202175
  0
ARC
  5
2E6
100
AcDbEntity
  8
0
100
AcDbCircle
 62
7
  6
CONTINUOUS
 10
5.1487864454
 20
2.6426876551
 40
0.62025
100
AcDbArc
 50
101.3194797825
 51
168.6805202175
  0
ARC
  5
2E7
100
AcDbEntity
  8
0
100
AcDbCircle
 62
7
  6
CONTINUOUS
 10
5.1487864454
 20
2.6426876551
 40
0.62025
100
AcDbArc
 50
281.3194179745
 51
348.6805824163
  0
ARC
  5
2E8
100
AcDbEntity
  8
0
100
AcDbCircle
 62
7
  6
CONTINUOUS
 10
5.1487864454
 20
2.6426876551
 40
0.62025
100
AcDbArc
 50
11.3194797825
 51
78.6805202175
  0
ARC
  5
2E9
100
AcDbEntity
  8
0
100
AcDbCircle
 62
9
  6
CONTINUOUS
 10
5.1487864454
 20
2.6426876551
 40
0.5920146191
100
AcDbArc
 50
191.3562852008
 51
258.6437144942
  0
ARC
  5
2EA
100
AcDbEntity
  8
0
100
AcDbCircle
 62
9
  6
CONTINUOUS
 10
5.1487864454
 20
2.6426876551
 40
0.5920146188
100
AcDbArc
 50
281.3562847383
 51
348.6437156135
  0
ARC
  5
2EB
100
AcDbEntity
  8
0
100
AcDbCircle
 62
9
  6
CONTINUOUS
 10
5.1487864454
 20
2.6426876551
 40
0.5920146153
100
AcDbArc
 50
11.3562868973
 51
78.6437126865
  0
ARC
  5
2EC
100
AcDbEntity
  8
0
100
AcDbCircle
 62
9
  6
CONTINUOUS
 10
5.1487864454
 20
2.6426876551
 40
0.5920146153
100
AcDbArc
 50
101.3562873155
 51
168.6437133263
  0
ARC
  5
2ED
100
AcDbEntity
  8
0
100
AcDbCircle
 62
9
  6
CONTINUOUS
 10
5.1487864454
 20
2.6426876551
 40
0.5840009741
100
AcDbArc
 50
11.4015609448
 51
78.5962601968
  0
ARC
  5
2EE
100
AcDbEntity
  8
0
100
AcDbCircle
 62
9
  6
CONTINUOUS
 10
5.1487864454
 20
2.6426876551
 40
0.5840009741
100
AcDbArc
 50
101.4038345985
 51
168.6005370603
  0
ARC
  5
2EF
100
AcDbEntity
  8
0
100
AcDbCircle
 62
9
  6
CONTINUOUS
 10
5.1487864454
 20
2.6426876551
 40
0.5840009741
100
AcDbArc
 50
191.401560978
 51
258.5962601931
  0
ARC
  5
2F0
100
AcDbEntity
  8
0
100
AcDbCircle
 62
9
  6
CONTINUOUS
 10
5.1487864454
 20
2.6426876551
 40
0.5840009741
100
AcDbArc
 50
281.4038345883
 51
348.6005370573
  0
ARC
  5
2F1
100
AcDbEntity
  8
0
100
AcDbCircle
 62
9
  6
CONTINUOUS
 10
5.1487864454
 20
2.6426876551
 40
0.5680586424
100
AcDbArc
 50
11.5552721585
 51
78.4436904647
  0
ARC
  5
2F2
100
AcDbEntity
  8
0
100
AcDbCircle
 62
9
  6
CONTINUOUS
 10
5.1487864454
 20
2.6426876551
 40
0.5680586424
100
AcDbArc
 50
101.5562054889
 51
168.4483799201
  0
ARC
  5
2F3
100
AcDbEntity
  8
0
100
AcDbCircle
 62
9
  6
CONTINUOUS
 10
5.1487864454
 20
2.6426876551
 40
0.5680586424
100
AcDbArc
 50
191.555272201
 51
258.4436904528
  0
ARC
  5
2F4
100
AcDbEntity
  8
0
100
AcDbCircle
 62
9
  6
CONTINUOUS
 10
5.1487864454
 20
2.6426876551
 40
0.5680586424
100
AcDbArc
 50
281.5562054698
 51
348.448379922
  0
ARC
  5
2F5
100
AcDbEntity
  8
0
100
AcDbCircle
 62
9
  6
CONTINUOUS
 10
5.1487864454
 20
2.6426876551
 40
0.5658198696
100
AcDbArc
 50
101.5835597989
 51
168.4241354385
  0
ARC
  5
2F6
100
AcDbEntity
  8
0
100
AcDbCircle
 62
9
  6
CONTINUOUS
 10
5.1487864454
 20
2.6426876551
 40
0.5658198696
100
AcDbArc
 50
11.5792666165
 51
78.415449314
  0
ARC
  5
2F7
100
AcDbEntity
  8
0
100
AcDbCircle
 62
9
  6
CONTINUOUS
 10
5.1487864454
 20
2.6426876551
 40
0.5658198696
100
AcDbArc
 50
281.5835598036
 51
348.4241354373
  0
ARC
  5
2F8
100
AcDbEntity
  8
0
100
AcDbCircle
 62
9
  6
CONTINUOUS
 10
5.1487864454
 20
2.6426876551
 40
0.5658198696
100
AcDbArc
 50
191.5792666238
 51
258.4154493145
  0
ARC
  5
2F9
100
AcDbEntity
  8
0
100
AcDbCircle
 62
9
  6
CONTINUOUS
 10
5.1487864454
 20
2.6426876551
 40
0.5373898192
100
AcDbArc
 50
102.0773739441
 51
167.9247986915
  0
ARC
  5
2FA
100
AcDbEntity
  8
0
100
AcDbCircle
 62
9
  6
CONTINUOUS
 10
5.1487864454
 20
2.6426876551
 40
0.5373898192
100
AcDbArc
 50
12.0716227242
 51
77.9219759
  0
ARC
  5
2FB
100
AcDbEntity
  8
0
100
AcDbCircle
 62
9
  6
CONTINUOUS
 10
5.1487864454
 20
2.6426876551
 40
0.5373898192
100
AcDbArc
 50
282.0773739444
 51
347.9247986873
  0
ARC
  5
2FC
100
AcDbEntity
  8
0
100
AcDbCircle
 62
9
  6
CONTINUOUS
 10
5.1487864454
 20
2.6426876551
 40
0.5373898192
100
AcDbArc
 50
192.0716227238
 51
257.9219758978
  0
CIRCLE
  5
2FD
100
AcDbEntity
  8
ALL_ASSEMBLY_MEMBERS
100
AcDbCircle
 62
7
  6
CONTINUOUS
 10
5.1487864454
 20
2.6426876551
 40
0.375
  0
CIRCLE
  5
2FE
100
AcDbEntity
  8
ALL_ASSEMBLY_MEMBERS
100
AcDbCircle
 62
7
  6
CONTINUOUS
 10
5.1487864454
 20
2.6426876551
 40
0.31875
  0
CIRCLE
  5
2FF
100
AcDbEntity
  8
ALL_ASSEMBLY_MEMBERS
100
AcDbCircle
 62
7
  6
CONTINUOUS
 10
5.1487864454
 20
2.6426876551
 40
0.313125
  0
CIRCLE
  5
300
100
AcDbEntity
  8
ALL_ASSEMBLY_MEMBERS
100
AcDbCircle
 62
9
  6
CONTINUOUS
 10
5.1487864454
 20
2.6426876551
 40
0.2963584924
  0
ARC
  5
301
100
AcDbEntity
  8
ALL_ASSEMBLY_MEMBERS
100
AcDbCircle
 62
7
  6
CONTINUOUS
 10
5.229029402
 20
3.5700741369
 40
0.2625
100
AcDbArc
 50
127.6889842707
 51
169.2724717156
  0
ARC
  5
302
100
AcDbEntity
  8
ALL_ASSEMBLY_MEMBERS
100
AcDbCircle
 62
7
  6
CONTINUOUS
 10
5.229029402
 20
3.4583909173
 40
0.2625
100
AcDbArc
 50
190.7275282844
 51
207.0541342467
  0
ARC
  5
303
100
AcDbEntity
  8
ALL_ASSEMBLY_MEMBERS
100
AcDbCircle
 62
7
  6
CONTINUOUS
 10
5.1487864454
 20
3.6739376551
 40
0.13125
100
AcDbArc
 50
52.3110157293
 51
127.6889842707
  0
ARC
  5
304
100
AcDbEntity
  8
ALL_ASSEMBLY_MEMBERS
100
AcDbCircle
 62
7
  6
CONTINUOUS
 10
5.5237864454
 20
3.5142325271
 40
0.5625
100
AcDbArc
 50
169.2724717156
 51
190.7275282844
  0
ARC
  5
305
100
AcDbEntity
  8
ALL_ASSEMBLY_MEMBERS
100
AcDbCircle
 62
7
  6
CONTINUOUS
 10
5.6362864454
 20
3.168435429
 40
0.375
100
AcDbArc
 50
152.9458657533
 51
180.0
  0
ARC
  5
306
100
AcDbEntity
  8
ALL_ASSEMBLY_MEMBERS
100
AcDbCircle
 62
7
  6
CONTINUOUS
 10
6.0203313174
 20
2.2676876551
 40
0.5625
100
AcDbArc
 50
79.2724717156
 51
100.7275282844
  0
ARC
  5
307
100
AcDbEntity
  8
ALL_ASSEMBLY_MEMBERS
100
AcDbCircle
 62
7
  6
CONTINUOUS
 10
5.6745342193
 20
2.1551876551
 40
0.375
100
AcDbArc
 50
62.9458657533
 51
90.0
  0
ARC
  5
308
100
AcDbEntity
  8
ALL_ASSEMBLY_MEMBERS
100
AcDbCircle
 62
7
  6
CONTINUOUS
 10
6.0761729272
 20
2.5624446985
 40
0.2625
100
AcDbArc
 50
37.6889842707
 51
79.2724717156
  0
ARC
  5
309
100
AcDbEntity
  8
ALL_ASSEMBLY_MEMBERS
100
AcDbCircle
 62
7
  6
CONTINUOUS
 10
5.9644897076
 20
2.5624446985
 40
0.2625
100
AcDbArc
 50
100.7275282844
 51
117.0541342467
  0
ARC
  5
30A
100
AcDbEntity
  8
0
100
AcDbCircle
 62
2
  6
CONTINUOUS
 10
5.7619437009
 20
2.2069303012
 40
0.0478083232
100
AcDbArc
 50
234.9878482438
 51
236.9496339654
  0
ARC
  5
30B
100
AcDbEntity
  8
0
100
AcDbCircle
 62
7
  6
CONTINUOUS
 10
5.9144741881
 20
2.7827718013
 40
0.0575887221
100
AcDbArc
 50
48.6044285213
 51
49.7313548787
  0
ARC
  5
30C
100
AcDbEntity
  8
0
100
AcDbCircle
 62
2
  6
CONTINUOUS
 10
5.9009750615
 20
2.840463661
 40
0.0392432353
100
AcDbArc
 50
129.1750087963
 51
129.6024896068
  0
ARC
  5
30D
100
AcDbEntity
  8
0
100
AcDbCircle
 62
2
  6
CONTINUOUS
 10
5.9008437061
 20
2.8406217867
 40
0.0390376682
100
AcDbArc
 50
129.6018892699
 51
130.7158683028
  0
ARC
  5
30E
100
AcDbEntity
  8
0
100
AcDbCircle
 62
7
  6
CONTINUOUS
 10
5.9131355944
 20
2.7991158914
 40
0.0383270912
100
AcDbArc
 50
153.3976302985
 51
164.0069727146
  0
ARC
  5
30F
100
AcDbEntity
  8
0
100
AcDbCircle
 62
2
  6
CONTINUOUS
 10
5.9129535525
 20
2.8381741551
 40
0.0266818357
100
AcDbArc
 50
327.5719187168
 51
329.2692646913
  0
ARC
  5
310
100
AcDbEntity
  8
0
100
AcDbCircle
 62
7
  6
CONTINUOUS
 10
5.9250079699
 20
2.8012387726
 40
0.0249336146
100
AcDbArc
 50
64.4838435971
 51
73.2306456361
  0
ARC
  5
311
100
AcDbEntity
  8
0
100
AcDbCircle
 62
2
  6
CONTINUOUS
 10
5.9122759178
 20
2.8432909695
 40
0.0248784592
100
AcDbArc
 50
68.4552146036
 51
73.2355392144
  0
ARC
  5
312
100
AcDbEntity
  8
ALL_ASSEMBLY_MEMBERS
100
AcDbCircle
 62
7
  6
CONTINUOUS
 10
5.6745342193
 20
3.1301876551
 40
0.375
100
AcDbArc
 50
270.0
 51
297.0541342467
  0
ARC
  5
313
100
AcDbEntity
  8
0
100
AcDbCircle
 62
2
  6
CONTINUOUS
 10
5.8758797562
 20
2.9375476987
 40
0.0282525831
100
AcDbArc
 50
325.7075469248
 51
330.7643112724
  0
ARC
  5
314
100
AcDbEntity
  8
ALL_ASSEMBLY_MEMBERS
100
AcDbCircle
 62
7
  6
CONTINUOUS
 10
6.0761729272
 20
2.7229306117
 40
0.2625
100
AcDbArc
 50
280.7275282844
 51
322.3110157293
  0
ARC
  5
315
100
AcDbEntity
  8
ALL_ASSEMBLY_MEMBERS
100
AcDbCircle
 62
7
  6
CONTINUOUS
 10
5.9644897076
 20
2.7229306117
 40
0.2625
100
AcDbArc
 50
242.9458657533
 51
259.2724717156
  0
ARC
  5
316
100
AcDbEntity
  8
ALL_ASSEMBLY_MEMBERS
100
AcDbCircle
 62
7
  6
CONTINUOUS
 10
6.1800364454
 20
2.6426876551
 40
0.13125
100
AcDbArc
 50
322.3110157293
 51
37.6889842707
  0
ARC
  5
317
100
AcDbEntity
  8
ALL_ASSEMBLY_MEMBERS
100
AcDbCircle
 62
7
  6
CONTINUOUS
 10
6.0203313174
 20
3.0176876551
 40
0.5625
100
AcDbArc
 50
259.2724717156
 51
280.7275282844
  0
ARC
  5
318
100
AcDbEntity
  8
0
100
AcDbCircle
 62
2
  6
CONTINUOUS
 10
5.9451379914
 20
2.9489133073
 40
0.036665646
100
AcDbArc
 50
222.3842614525
 51
223.9629206635
  0
ARC
  5
319
100
AcDbEntity
  8
0
100
AcDbCircle
 62
2
  6
CONTINUOUS
 10
5.9363508015
 20
2.9497144208
 40
0.0355326699
100
AcDbArc
 50
331.4324726674
 51
346.9921719541
  0
CIRCLE
  5
31A
100
AcDbEntity
  8
ALL_FEATURES
100
AcDbCircle
 62
7
  6
CONTINUOUS
 10
5.1487864454
 20
3.8239376551
 40
2.657475
  0
CIRCLE
  5
31B
100
AcDbEntity
  8
ALL_FEATURES
100
AcDbCircle
 62
9
  6
CONTINUOUS
 10
5.1487864454
 20
3.8239376551
 40
2.6057183081
  0
CIRCLE
  5
31C
100
AcDbEntity
  8
ALL_FEATURES
100
AcDbCircle
 62
9
  6
CONTINUOUS
 10
5.1487864454
 20
3.8239376551
 40
2.4600874258
  0
CIRCLE
  5
31D
100
AcDbEntity
  8
ALL_FEATURES
100
AcDbCircle
 62
9
  6
CONTINUOUS
 10
5.1487864454
 20
3.8239376551
 40
2.42475
  0
ARC
  5
31E
100
AcDbEntity
  8
ALL_ASSEMBLY_MEMBERS
100
AcDbCircle
 62
7
  6
CONTINUOUS
 10
5.1487864454
 20
4.2158126551
 40
0.1875
100
AcDbArc
 50
145.101876439
 51
34.898123561
  0
ARC
  5
31F
100
AcDbEntity
  8
0
100
AcDbCircle
 62
7
  6
CONTINUOUS
 10
5.1487864454
 20
5.0051876551
 40
0.6200775
100
AcDbArc
 50
283.1690074102
 51
76.8309925898
  0
ARC
  5
320
100
AcDbEntity
  8
0
100
AcDbCircle
 62
7
  6
CONTINUOUS
 10
5.1487864454
 20
5.0051876551
 40
0.6200775
100
AcDbArc
 50
103.1690074102
 51
256.8309925898
  0
ARC
  5
321
100
AcDbEntity
  8
0
100
AcDbCircle
 62
9
  6
CONTINUOUS
 10
5.1487864454
 20
5.0051876551
 40
0.5075775
100
AcDbArc
 50
102.1207582468
 51
257.8792417542
  0
ARC
  5
322
100
AcDbEntity
  8
0
100
AcDbCircle
 62
9
  6
CONTINUOUS
 10
5.1487864454
 20
5.0051876551
 40
0.5075775
100
AcDbArc
 50
282.1207582468
 51
77.8792417542
  0
ARC
  5
323
100
AcDbEntity
  8
0
100
AcDbCircle
 62
7
  6
CONTINUOUS
 10
5.1487864454
 20
5.0051876551
 40
0.50325
100
AcDbArc
 50
102.2935709483
 51
257.7064290517
  0
ARC
  5
324
100
AcDbEntity
  8
0
100
AcDbCircle
 62
7
  6
CONTINUOUS
 10
5.1487864454
 20
5.0051876551
 40
0.50325
100
AcDbArc
 50
282.2935709483
 51
77.7064290517
  0
ARC
  5
325
100
AcDbEntity
  8
ALL_FEATURES
100
AcDbCircle
 62
7
  6
CONTINUOUS
 10
5.1487864454
 20
5.0051876551
 40
0.4886988938
100
AcDbArc
 50
283.0373268025
 51
76.9626731975
  0
ARC
  5
326
100
AcDbEntity
  8
ALL_FEATURES
100
AcDbCircle
 62
7
  6
CONTINUOUS
 10
5.1487864454
 20
5.0051876551
 40
0.4886988938
100
AcDbArc
 50
103.0373268025
 51
256.9626731975
  0
ARC
  5
327
100
AcDbEntity
  8
0
100
AcDbCircle
 62
7
  6
CONTINUOUS
 10
5.1487864454
 20
5.0051876551
 40
0.485625
100
AcDbArc
 50
283.229405103
 51
76.7706100541
  0
ARC
  5
328
100
AcDbEntity
  8
0
100
AcDbCircle
 62
7
  6
CONTINUOUS
 10
5.1487864454
 20
5.0051876551
 40
0.485625
100
AcDbArc
 50
103.2293943328
 51
256.7705948988
  0
ARC
  5
329
100
AcDbEntity
  8
0
100
AcDbCircle
 62
9
  6
CONTINUOUS
 10
5.1487864454
 20
5.0051876551
 40
0.4549122057
100
AcDbArc
 50
286.2213481615
 51
73.7786581066
  0
ARC
  5
32A
100
AcDbEntity
  8
0
100
AcDbCircle
 62
9
  6
CONTINUOUS
 10
5.1487864454
 20
5.0051876551
 40
0.4549122041
100
AcDbArc
 50
106.221364343
 51
253.7786366053
  0
CIRCLE
  5
32B
100
AcDbEntity
  8
ALL_ASSEMBLY_MEMBERS
100
AcDbCircle
 62
7
  6
CONTINUOUS
 10
5.1487864454
 20
5.0051876551
 40
0.418125
  0
CIRCLE
  5
32C
100
AcDbEntity
  8
ALL_ASSEMBLY_MEMBERS
100
AcDbCircle
 62
7
  6
CONTINUOUS
 10
5.1487864454
 20
5.0051876551
 40
0.3968942365
  0
CIRCLE
  5
32D
100
AcDbEntity
  8
ALL_ASSEMBLY_MEMBERS
100
AcDbCircle
 62
7
  6
CONTINUOUS
 10
5.1487864454
 20
5.0051876551
 40
0.395625
  0
CIRCLE
  5
32E
100
AcDbEntity
  8
ALL_ASSEMBLY_MEMBERS
100
AcDbCircle
 62
7
  6
CONTINUOUS
 10
5.1487864454
 20
5.0051876551
 40
0.3789603159
  0
CIRCLE
  5
32F
100
AcDbEntity
  8
ALL_ASSEMBLY_MEMBERS
100
AcDbCircle
 62
7
  6
CONTINUOUS
 10
5.1487864454
 20
5.0051876551
 40
0.3408824671
  0
CIRCLE
  5
330
100
AcDbEntity
  8
ALL_ASSEMBLY_MEMBERS
100
AcDbCircle
 62
7
  6
CONTINUOUS
 10
5.1487864454
 20
5.0051876551
 40
0.320625
  0
CIRCLE
  5
331
100
AcDbEntity
  8
ALL_ASSEMBLY_MEMBERS
100
AcDbCircle
 62
7
  6
CONTINUOUS
 10
5.1487864454
 20
5.0051876551
 40
0.313125
  0
CIRCLE
  5
332
100
AcDbEntity
  8
ALL_ASSEMBLY_MEMBERS
100
AcDbCircle
 62
9
  6
CONTINUOUS
 10
5.1487864454
 20
5.0051876551
 40
0.2963584924
  0
ARC
  5
333
100
AcDbEntity
  8
ALL_ASSEMBLY_MEMBERS
100
AcDbCircle
 62
7
  6
CONTINUOUS
 10
5.1487864454
 20
5.7945626551
 40
0.1875
100
AcDbArc
 50
325.101876439
 51
214.898123561
  0
ARC
  5
334
100
AcDbEntity
  8
ALL_ASSEMBLY_MEMBERS
100
AcDbCircle
 62
7
  6
CONTINUOUS
 10
5.3940364454
 20
4.4943868637
 40
0.1395
100
AcDbArc
 50
138.2918697479
 51
223.3041758004
  0
ARC
  5
335
100
AcDbEntity
  8
ALL_ASSEMBLY_MEMBERS
100
AcDbCircle
 62
7
  6
CONTINUOUS
 10
5.2725364454
 20
4.6026703458
 40
0.02325
100
AcDbArc
 50
318.2918697479
 51
360.0
  0
ARC
  5
336
100
AcDbEntity
  8
ALL_ASSEMBLY_MEMBERS
100
AcDbCircle
 62
7
  6
CONTINUOUS
 10
5.2837864454
 20
4.3904773477
 40
0.012
100
AcDbArc
 50
270.0
 51
43.3041758004
  0
ARC
  5
337
100
AcDbEntity
  8
ALL_ASSEMBLY_MEMBERS
100
AcDbCircle
 62
7
  6
CONTINUOUS
 10
5.2866425949
 20
4.3668222025
 40
0.012
100
AcDbArc
 50
103.7692637668
 51
214.898123561
  0
ARC
  5
338
100
AcDbEntity
  8
ALL_ASSEMBLY_MEMBERS
100
AcDbCircle
 62
7
  6
CONTINUOUS
 10
5.3940364454
 20
5.5159884465
 40
0.1395
100
AcDbArc
 50
136.6958241996
 51
221.7081302521
  0
ARC
  5
339
100
AcDbEntity
  8
ALL_ASSEMBLY_MEMBERS
100
AcDbCircle
 62
7
  6
CONTINUOUS
 10
5.2725364454
 20
5.4077049644
 40
0.02325
100
AcDbArc
 50
0.0
 51
41.7081302521
  0
ARC
  5
33A
100
AcDbEntity
  8
ALL_ASSEMBLY_MEMBERS
100
AcDbCircle
 62
7
  6
CONTINUOUS
 10
5.2837864454
 20
5.6198979624
 40
0.012
100
AcDbArc
 50
316.6958241996
 51
90.0
  0
ARC
  5
33B
100
AcDbEntity
  8
ALL_ASSEMBLY_MEMBERS
100
AcDbCircle
 62
7
  6
CONTINUOUS
 10
5.2866425949
 20
5.6435531076
 40
0.012
100
AcDbArc
 50
145.101876439
 51
256.2307362332
  0
SPLINE
  5
33C
100
AcDbEntity
  8
0
100
AcDbSpline
 62
7
  6
CONTINUOUS
 70
0
 71
3
 72
16
 73
12
 74
0
 42
0.0000001
 43
0.0000001
 44
0.0000000001
 40
0.0
 40
0.0
 40
0.0
 40
0.0
 40
0.1250029949
 40
0.250005381
 40
0.3750063991
 40
0.5000059728
 40
0.5625094417
 40
0.625013486
 40
0.7500110263
 40
0.8750055172
 40
1.0
 40
1.0
 40
1.0
 40
1.0
 10
4.5468452593
 20
2.0482996428
 30
0.0
 10
4.5458789796
 20
2.0484365129
 30
0.0
 10
4.5439425868
 20
2.0486840323
 30
0.0
 10
4.5410282896
 20
2.0489691763
 30
0.0
 10
4.53810603
 20
2.0491576061
 30
0.0
 10
4.5356662305
 20
2.0492196824
 30
0.0
 10
4.5337142763
 20
2.0492029914
 30
0.0
 10
4.5317632932
 20
2.0491407579
 30
0.0
 10
4.5293281332
 20
2.0489711273
 30
0.0
 10
4.5264230577
 20
2.0485948703
 30
0.0
 10
4.5245064546
 20
2.0482157282
 30
0.0
 10
4.523557223
 20
2.0479893224
 30
0.0
  0
SPLINE
  5
33D
100
AcDbEntity
  8
0
100
AcDbSpline
 62
7
  6
CONTINUOUS
 70
0
 71
3
 72
11
 73
7
 74
0
 42
0.0000001
 43
0.0000001
 44
0.0000000001
 40
0.0
 40
0.0
 40
0.0
 40
0.0
 40
0.2500102704
 40
0.5000199593
 40
0.7500144387
 40
1.0
 40
1.0
 40
1.0
 40
1.0
 10
4.57448452
 20
2.039726659
 30
0.0
 10
4.5722936512
 20
2.0407546519
 30
0.0
 10
4.5678511387
 20
2.0426846967
 30
0.0
 10
4.5610102954
 20
2.0451334836
 30
0.0
 10
4.5540047038
 20
2.047064728
 30
0.0
 10
4.5492411611
 20
2.0479602718
 30
0.0
 10
4.5468452593
 20
2.0482996428
 30
0.0
  0
SPLINE
  5
33E
100
AcDbEntity
  8
0
100
AcDbSpline
 62
7
  6
CONTINUOUS
 70
0
 71
3
 72
14
 73
10
 74
0
 42
0.0000001
 43
0.0000001
 44
0.0000000001
 40
0.0
 40
0.0
 40
0.0
 40
0.0
 40
0.2499972892
 40
0.3749986139
 40
0.4999996771
 40
0.6250004193
 40
0.7500008759
 40
0.8750005249
 40
1.0
 40
1.0
 40
1.0
 40
1.0
 10
4.5691447736
 20
2.0580183811
 30
0.0
 10
4.5706782942
 20
2.0574844094
 30
0.0
 10
4.5729690321
 20
2.0566552832
 30
0.0
 10
4.5759964914
 20
2.0554793809
 30
0.0
 10
4.578250735
 20
2.0545562108
 30
0.0
 10
4.5804845234
 20
2.0535844673
 30
0.0
 10
4.5826928509
 20
2.0525559651
 30
0.0
 10
4.5848699637
 20
2.0514628654
 30
0.0
 10
4.586295778
 20
2.0506847368
 30
0.0
 10
4.5869999088
 20
2.050280495
 30
0.0
  0
SPLINE
  5
33F
100
AcDbEntity
  8
0
100
AcDbSpline
 62
7
  6
CONTINUOUS
 70
0
 71
3
 72
14
 73
10
 74
0
 42
0.0000001
 43
0.0000001
 44
0.0000000001
 40
0.0
 40
0.0
 40
0.0
 40
0.0
 40
0.1249997592
 40
0.2499997086
 40
0.3750005188
 40
0.5000016043
 40
0.625003129
 40
0.7500050648
 40
1.0
 40
1.0
 40
1.0
 40
1.0
 10
4.5502679873
 20
2.0626972424
 30
0.0
 10
4.5510750146
 20
2.0626079047
 30
0.0
 10
4.5526849027
 20
2.0623902097
 30
0.0
 10
4.5550845241
 20
2.0619686209
 30
0.0
 10
4.557467991
 20
2.0614637935
 30
0.0
 10
4.5598345265
 20
2.0608852311
 30
0.0
 10
4.5621846391
 20
2.0602434683
 30
0.0
 10
4.5652975764
 20
2.0593165207
 30
0.0
 10
4.5676111979
 20
2.058552372
 30
0.0
 10
4.5691447736
 20
2.0580183811
 30
0.0
  0
SPLINE
  5
340
100
AcDbEntity
  8
0
100
AcDbSpline
 62
7
  6
CONTINUOUS
 70
0
 71
3
 72
16
 73
12
 74
0
 42
0.0000001
 43
0.0000001
 44
0.0000000001
 40
0.0
 40
0.0
 40
0.0
 40
0.0
 40
0.0625010904
 40
0.1250049632
 40
0.2500025009
 40
0.3750013689
 40
0.5000005347
 40
0.6250000571
 40
0.7499998428
 40
0.8749998756
 40
1.0
 40
1.0
 40
1.0
 40
1.0
 10
4.5637925537
 20
2.1650573121
 30
0.0
 10
4.5631701239
 20
2.1650574871
 30
0.0
 10
4.5619251995
 20
2.1650745632
 30
0.0
 10
4.5594369742
 20
2.1651642151
 30
0.0
 10
4.5563305871
 20
2.1653634165
 30
0.0
 10
4.5526123118
 20
2.1657154727
 30
0.0
 10
4.5489039954
 20
2.1661594663
 30
0.0
 10
4.545205345
 20
2.1666770596
 30
0.0
 10
4.5415155266
 20
2.1672539246
 30
0.0
 10
4.5378338025
 20
2.1678801704
 30
0.0
 10
4.5353843513
 20
2.1683262332
 30
0.0
 10
4.5341608273
 20
2.1685556098
 30
0.0
  0
SPLINE
  5
341
100
AcDbEntity
  8
0
100
AcDbSpline
 62
7
  6
CONTINUOUS
 70
0
 71
3
 72
15
 73
11
 74
0
 42
0.0000001
 43
0.0000001
 44
0.0000000001
 40
0.0
 40
0.0
 40
0.0
 40
0.0
 40
0.1249981511
 40
0.2499960901
 40
0.3749951262
 40
0.4999948358
 40
0.624994788
 40
0.7499956754
 40
0.8749974566
 40
1.0
 40
1.0
 40
1.0
 40
1.0
 10
4.584558255
 20
2.1682019071
 30
0.0
 10
4.5837292822
 20
2.1679089077
 30
0.0
 10
4.5820538607
 20
2.1673713256
 30
0.0
 10
4.5795016653
 20
2.1667008396
 30
0.0
 10
4.5769192273
 20
2.1661587361
 30
0.0
 10
4.5743150642
 20
2.1657342128
 30
0.0
 10
4.5716955145
 20
2.1654189879
 30
0.0
 10
4.5690658437
 20
2.1652052853
 30
0.0
 10
4.5664304672
 20
2.1650827523
 30
0.0
 10
4.5646718141
 20
2.1650570648
 30
0.0
 10
4.5637925537
 20
2.1650573121
 30
0.0
  0
SPLINE
  5
342
100
AcDbEntity
  8
0
100
AcDbSpline
 62
7
  6
CONTINUOUS
 70
0
 71
3
 72
11
 73
7
 74
0
 42
0.0000001
 43
0.0000001
 44
0.0000000001
 40
0.0
 40
0.0
 40
0.0
 40
0.0
 40
0.2499962272
 40
0.4999940757
 40
0.7499966081
 40
1.0
 40
1.0
 40
1.0
 40
1.0
 10
4.5947390619
 20
2.1743151323
 30
0.0
 10
4.5940082852
 20
2.1736382244
 30
0.0
 10
4.5924757638
 20
2.1723586875
 30
0.0
 10
4.5899901453
 20
2.1706903343
 30
0.0
 10
4.5873455865
 20
2.1692878052
 30
0.0
 10
4.5854974562
 20
2.1685338665
 30
0.0
 10
4.584558255
 20
2.1682019071
 30
0.0
  0
SPLINE
  5
343
100
AcDbEntity
  8
0
100
AcDbSpline
 62
7
  6
CONTINUOUS
 70
0
 71
3
 72
13
 73
9
 74
0
 42
0.0000001
 43
0.0000001
 44
0.0000000001
 40
0.0
 40
0.0
 40
0.0
 40
0.0
 40
0.249999636
 40
0.4999947549
 40
0.6249958732
 40
0.7499965439
 40
0.8749985193
 40
1.0
 40
1.0
 40
1.0
 40
1.0
 10
4.5562487227
 20
2.1811752035
 30
0.0
 10
4.5571936972
 20
2.1811176529
 30
0.0
 10
4.5590841347
 20
2.1810105611
 30
0.0
 10
4.5614497464
 20
2.1809246161
 30
0.0
 10
4.5633432398
 20
2.1809076805
 30
0.0
 10
4.5647633676
 20
2.1809274668
 30
0.0
 10
4.5661823993
 20
2.1809877011
 30
0.0
 10
4.5671266652
 20
2.1810597272
 30
0.0
 10
4.5675978117
 20
2.1811055435
 30
0.0
  0
SPLINE
  5
344
100
AcDbEntity
  8
0
100
AcDbSpline
 62
7
  6
CONTINUOUS
 70
0
 71
3
 72
18
 73
14
 74
0
 42
0.0000001
 43
0.0000001
 44
0.0000000001
 40
0.0
 40
0.0
 40
0.0
 40
0.0
 40
0.1250002443
 40
0.2500004807
 40
0.3750006988
 40
0.5000008695
 40
0.6250009238
 40
0.6875010403
 40
0.7500011371
 40
0.8125011911
 40
0.8750012584
 40
0.9375007732
 40
1.0
 40
1.0
 40
1.0
 40
1.0
 10
4.5308865028
 20
2.1849211284
 30
0.0
 10
4.5319397606
 20
2.1847410896
 30
0.0
 10
4.534046602
 20
2.1843829127
 30
0.0
 10
4.5372081105
 20
2.1838530268
 30
0.0
 10
4.5403712362
 20
2.1833328631
 30
0.0
 10
4.543536507
 20
2.1828259046
 30
0.0
 10
4.5461766697
 20
2.1824188287
 30
0.0
 10
4.54829089
 20
2.1821071197
 30
0.0
 10
4.5498778541
 20
2.1818822773
 30
0.0
 10
4.5514664357
 20
2.1816691429
 30
0.0
 10
4.5530571071
 20
2.1814719568
 30
0.0
 10
4.5546505081
 20
2.1812984233
 30
0.0
 10
4.5557154512
 20
2.1812076807
 30
0.0
 10
4.5562487227
 20
2.1811752035
 30
0.0
  0
SPLINE
  5
345
100
AcDbEntity
  8
0
100
AcDbSpline
 62
7
  6
CONTINUOUS
 70
0
 71
3
 72
15
 73
11
 74
0
 42
0.0000001
 43
0.0000001
 44
0.0000000001
 40
0.0
 40
0.0
 40
0.0
 40
0.0
 40
0.0625008658
 40
0.1250045361
 40
0.2500028404
 40
0.3750023916
 40
0.5000020016
 40
0.6250017819
 40
0.7500016551
 40
1.0
 40
1.0
 40
1.0
 40
1.0
 10
4.4962928085
 20
2.1892302085
 30
0.0
 10
4.4970192494
 20
2.189208393
 30
0.0
 10
4.498471631
 20
2.1891457126
 30
0.0
 10
4.5013728914
 20
2.1889599214
 30
0.0
 10
4.5049930627
 20
2.1886394469
 30
0.0
 10
4.5093270847
 20
2.1881573914
 30
0.0
 10
4.5136524131
 20
2.1876031182
 30
0.0
 10
4.5179701659
 20
2.1869930715
 30
0.0
 10
4.5237183763
 20
2.1861201368
 30
0.0
 10
4.5280210501
 20
2.1854109349
 30
0.0
 10
4.5308865028
 20
2.1849211284
 30
0.0
  0
SPLINE
  5
346
100
AcDbEntity
  8
0
100
AcDbSpline
 62
7
  6
CONTINUOUS
 70
0
 71
3
 72
15
 73
11
 74
0
 42
0.0000001
 43
0.0000001
 44
0.0000000001
 40
0.0
 40
0.0
 40
0.0
 40
0.0
 40
0.1249970553
 40
0.2499941761
 40
0.3749931972
 40
0.499993028
 40
0.624993342
 40
0.7499946734
 40
0.8749970497
 40
1.0
 40
1.0
 40
1.0
 40
1.0
 10
4.4765562137
 20
2.1870864054
 30
0.0
 10
4.4773501404
 20
2.1873310267
 30
0.0
 10
4.4789544454
 20
2.1877680222
 30
0.0
 10
4.4813933679
 20
2.1882863001
 30
0.0
 10
4.4838552748
 20
2.1886803881
 30
0.0
 10
4.4863317819
 20
2.1889668391
 30
0.0
 10
4.4888175228
 20
2.189155894
 30
0.0
 10
4.4913082391
 20
2.1892578844
 30
0.0
 10
4.4938008135
 20
2.1892838082
 30
0.0
 10
4.4954623855
 20
2.1892551466
 30
0.0
 10
4.4962928085
 20
2.1892302085
 30
0.0
  0
SPLINE
  5
347
100
AcDbEntity
  8
0
100
AcDbSpline
 62
7
  6
CONTINUOUS
 70
0
 71
3
 72
11
 73
7
 74
0
 42
0.0000001
 43
0.0000001
 44
0.0000000001
 40
0.0
 40
0.0
 40
0.0
 40
0.0
 40
0.249987283
 40
0.4999796677
 40
0.7499832027
 40
1.0
 40
1.0
 40
1.0
 40
1.0
 10
4.4622265722
 20
2.1793684193
 30
0.0
 10
4.4632663149
 20
2.1802530304
 30
0.0
 10
4.4654455364
 20
2.1819086008
 30
0.0
 10
4.4689612943
 20
2.1840235735
 30
0.0
 10
4.4726755727
 20
2.1857651764
 30
0.0
 10
4.4752514449
 20
2.1866843856
 30
0.0
 10
4.4765562137
 20
2.1870864054
 30
0.0
  0
SPLINE
  5
348
100
AcDbEntity
  8
0
100
AcDbSpline
 62
7
  6
CONTINUOUS
 70
0
 71
3
 72
18
 73
14
 74
0
 42
0.0000001
 43
0.0000001
 44
0.0000000001
 40
0.0
 40
0.0
 40
0.0
 40
0.0
 40
0.1250050138
 40
0.2499996625
 40
0.3749832657
 40
0.4374958785
 40
0.5000068128
 40
0.5625169298
 40
0.6250260128
 40
0.7500017296
 40
0.8125092855
 40
0.8750150715
 40
1.0
 40
1.0
 40
1.0
 40
1.0
 10
4.4490498037
 20
2.153525789
 30
0.0
 10
4.4491187653
 20
2.154768234
 30
0.0
 10
4.4493727458
 20
2.1572484845
 30
0.0
 10
4.4501273509
 20
2.1609107678
 30
0.0
 10
4.4510833423
 20
2.163878192
 30
0.0
 10
4.4520404959
 20
2.1661765898
 30
0.0
 10
4.4528532408
 20
2.1678582794
 30
0.0
 10
4.4537573595
 20
2.1694925914
 30
0.0
 10
4.4550784491
 20
2.1716026571
 30
0.0
 10
4.4565642816
 20
2.1736053535
 30
0.0
 10
4.4581911771
 20
2.1754893647
 30
0.0
 10
4.4599049718
 20
2.1772947979
 30
0.0
 10
4.461278973
 20
2.1785622037
 30
0.0
 10
4.4622265722
 20
2.1793684193
 30
0.0
  0
SPLINE
  5
349
100
AcDbEntity
  8
0
100
AcDbSpline
 62
7
  6
CONTINUOUS
 70
0
 71
3
 72
16
 73
12
 74
0
 42
0.0000001
 43
0.0000001
 44
0.0000000001
 40
0.0
 40
0.0
 40
0.0
 40
0.0
 40
0.1250009831
 40
0.1875113914
 40
0.2500218994
 40
0.3750188723
 40
0.5000126137
 40
0.6250038719
 40
0.7499970682
 40
0.874994137
 40
1.0
 40
1.0
 40
1.0
 40
1.0
 10
4.4605665939
 20
2.1230388922
 30
0.0
 10
4.4596645482
 20
2.124099127
 30
0.0
 10
4.4583618254
 20
2.1257337926
 30
0.0
 10
4.4567446775
 20
2.1280009642
 30
0.0
 10
4.4552155485
 20
2.1303284507
 30
0.0
 10
4.4534829201
 20
2.1333517609
 30
0.0
 10
4.4517372451
 20
2.137152035
 30
0.0
 10
4.4503764011
 20
2.1411077856
 30
0.0
 10
4.4494440665
 20
2.1451869618
 30
0.0
 10
4.4489722975
 20
2.1493448427
 30
0.0
 10
4.4489726544
 20
2.1521358308
 30
0.0
 10
4.4490498037
 20
2.153525789
 30
0.0
  0
SPLINE
  5
34A
100
AcDbEntity
  8
0
100
AcDbSpline
 62
7
  6
CONTINUOUS
 70
0
 71
3
 72
16
 73
12
 74
0
 42
0.0000001
 43
0.0000001
 44
0.0000000001
 40
0.0
 40
0.0
 40
0.0
 40
0.0
 40
0.1249824006
 40
0.1874984122
 40
0.2500127821
 40
0.3749991815
 40
0.499989561
 40
0.624985794
 40
0.7499864971
 40
0.8749925233
 40
1.0
 40
1.0
 40
1.0
 40
1.0
 10
4.4879621921
 20
2.1059701753
 30
0.0
 10
4.4866028988
 20
2.1061732485
 30
0.0
 10
4.4845792807
 20
2.1066002219
 30
0.0
 10
4.4819484199
 20
2.1074020956
 30
0.0
 10
4.4793675831
 20
2.1083537937
 30
0.0
 10
4.4762470262
 20
2.1098097158
 30
0.0
 10
4.4727018066
 20
2.1119275965
 30
0.0
 10
4.4693644356
 20
2.1143580133
 30
0.0
 10
4.4662309622
 20
2.1170447503
 30
0.0
 10
4.463295484
 20
2.1199451716
 30
0.0
 10
4.4614573718
 20
2.1219919013
 30
0.0
 10
4.4605665939
 20
2.1230388922
 30
0.0
  0
SPLINE
  5
34B
100
AcDbEntity
  8
0
100
AcDbSpline
 62
7
  6
CONTINUOUS
 70
0
 71
3
 72
16
 73
12
 74
0
 42
0.0000001
 43
0.0000001
 44
0.0000000001
 40
0.0
 40
0.0
 40
0.0
 40
0.0
 40
0.1250018353
 40
0.2500015067
 40
0.3750000406
 40
0.4999946086
 40
0.56250974
 40
0.625027143
 40
0.7500158346
 40
0.8750036546
 40
1.0
 40
1.0
 40
1.0
 40
1.0
 10
4.518486914
 20
2.1149018474
 30
0.0
 10
4.5173830073
 20
2.1141084047
 30
0.0
 10
4.5151271414
 20
2.1125869691
 30
0.0
 10
4.5115981254
 20
2.110535765
 30
0.0
 10
4.5079185915
 20
2.1087664202
 30
0.0
 10
4.5047327581
 20
2.1075668155
 30
0.0
 10
4.5021225414
 20
2.1068007219
 30
0.0
 10
4.4994757692
 20
2.1061730818
 30
0.0
 10
4.4961076945
 20
2.1056621484
 30
0.0
 10
4.4920226009
 20
2.1055283584
 30
0.0
 10
4.4893066822
 20
2.1057693136
 30
0.0
 10
4.4879621921
 20
2.1059701753
 30
0.0
  0
SPLINE
  5
34C
100
AcDbEntity
  8
0
100
AcDbSpline
 62
7
  6
CONTINUOUS
 70
0
 71
3
 72
16
 73
12
 74
0
 42
0.0000001
 43
0.0000001
 44
0.0000000001
 40
0.0
 40
0.0
 40
0.0
 40
0.0
 40
0.124992969
 40
0.2499830126
 40
0.3749755519
 40
0.4999689397
 40
0.6249673113
 40
0.7499666184
 40
0.8124792168
 40
0.874996309
 40
1.0
 40
1.0
 40
1.0
 40
1.0
 10
4.4891286747
 20
2.121520503
 30
0.0
 10
4.4900324355
 20
2.1214476464
 30
0.0
 10
4.4918490104
 20
2.1213951361
 30
0.0
 10
4.494565771
 20
2.1216102472
 30
0.0
 10
4.4972428986
 20
2.1221213851
 30
0.0
 10
4.499849906
 20
2.122914829
 30
0.0
 10
4.5023627019
 20
2.1239674815
 30
0.0
 10
4.5043665901
 20
2.1250341103
 30
0.0
 10
4.5059108465
 20
2.1259860939
 30
0.0
 10
4.507416444
 20
2.1269980645
 30
0.0
 10
4.5085028107
 20
2.1278191122
 30
0.0
 10
4.5092077517
 20
2.128389455
 30
0.0
  0
SPLINE
  5
34D
100
AcDbEntity
  8
0
100
AcDbSpline
 62
7
  6
CONTINUOUS
 70
0
 71
3
 72
18
 73
14
 74
0
 42
0.0000001
 43
0.0000001
 44
0.0000000001
 40
0.0
 40
0.0
 40
0.0
 40
0.0
 40
0.124994292
 40
0.2499914288
 40
0.3124993079
 40
0.3750103529
 40
0.4375232541
 40
0.5000359838
 40
0.5625484329
 40
0.6250631569
 40
0.7500430227
 40
0.8750194692
 40
1.0
 40
1.0
 40
1.0
 40
1.0
 10
4.4713142648
 20
2.131576422
 30
0.0
 10
4.4718816675
 20
2.1309095155
 30
0.0
 10
4.473058479
 20
2.1296107
 30
0.0
 10
4.4746404321
 20
2.1280941734
 30
0.0
 10
4.4759777143
 20
2.1269624064
 30
0.0
 10
4.4770173436
 20
2.1261585306
 30
0.0
 10
4.4780931858
 20
2.1254036827
 30
0.0
 10
4.4792047685
 20
2.1247024062
 30
0.0
 10
4.4803515275
 20
2.1240600018
 30
0.0
 10
4.4819244263
 20
2.1232881723
 30
0.0
 10
4.483968799
 20
2.1224909824
 30
0.0
 10
4.4865167338
 20
2.1218298515
 30
0.0
 10
4.4882559823
 20
2.121590855
 30
0.0
 10
4.4891286747
 20
2.121520503
 30
0.0
  0
SPLINE
  5
34E
100
AcDbEntity
  8
0
100
AcDbSpline
 62
7
  6
CONTINUOUS
 70
0
 71
3
 72
15
 73
11
 74
0
 42
0.0000001
 43
0.0000001
 44
0.0000000001
 40
0.0
 40
0.0
 40
0.0
 40
0.0
 40
0.1249970937
 40
0.2499917481
 40
0.3749881665
 40
0.4999853029
 40
0.6249865237
 40
0.7499886251
 40
0.8749949862
 40
1.0
 40
1.0
 40
1.0
 40
1.0
 10
4.4647551326
 20
2.1499947236
 30
0.0
 10
4.4647046531
 20
2.1491605346
 30
0.0
 10
4.4646838436
 20
2.1474860416
 30
0.0
 10
4.4649086628
 20
2.1449845992
 30
0.0
 10
4.4653974357
 20
2.1425206854
 30
0.0
 10
4.4661437467
 20
2.1401223524
 30
0.0
 10
4.4671325741
 20
2.1378138417
 30
0.0
 10
4.4683382055
 20
2.1356113317
 30
0.0
 10
4.4697346157
 20
2.1335254449
 30
0.0
 10
4.4707726861
 20
2.1322129757
 30
0.0
 10
4.4713142648
 20
2.131576422
 30
0.0
  0
SPLINE
  5
34F
100
AcDbEntity
  8
0
100
AcDbSpline
 62
7
  6
CONTINUOUS
 70
0
 71
3
 72
17
 73
13
 74
0
 42
0.0000001
 43
0.0000001
 44
0.0000000001
 40
0.0
 40
0.0
 40
0.0
 40
0.0
 40
0.1249852121
 40
0.2499801774
 40
0.3749688451
 40
0.4374864031
 40
0.5000051036
 40
0.5625236076
 40
0.6250412344
 40
0.7500274058
 40
0.8750172564
 40
1.0
 40
1.0
 40
1.0
 40
1.0
 10
4.4728950306
 20
2.1660811941
 30
0.0
 10
4.4723063236
 20
2.1655803234
 30
0.0
 10
4.4711695559
 20
2.1645292078
 30
0.0
 10
4.4696158141
 20
2.1628032971
 30
0.0
 10
4.4684707607
 20
2.1612416791
 30
0.0
 10
4.4676582628
 20
2.1599253871
 30
0.0
 10
4.4671032235
 20
2.1589062389
 30
0.0
 10
4.4666045476
 20
2.1578583469
 30
0.0
 10
4.4660175638
 20
2.156427186
 30
0.0
 10
4.4654312995
 20
2.1545813883
 30
0.0
 10
4.46496407
 20
2.1523062725
 30
0.0
 10
4.4648018197
 20
2.1507662443
 30
0.0
 10
4.4647551326
 20
2.1499947236
 30
0.0
  0
SPLINE
  5
350
100
AcDbEntity
  8
0
100
AcDbSpline
 62
7
  6
CONTINUOUS
 70
0
 71
3
 72
15
 73
11
 74
0
 42
0.0000001
 43
0.0000001
 44
0.0000000001
 40
0.0
 40
0.0
 40
0.0
 40
0.0
 40
0.1250114504
 40
0.250021325
 40
0.3750270544
 40
0.5000294981
 40
0.6250276917
 40
0.7500238427
 40
0.8750122684
 40
1.0
 40
1.0
 40
1.0
 40
1.0
 10
4.4931750388
 20
2.173000376
 30
0.0
 10
4.4922695623
 20
2.1729369466
 30
0.0
 10
4.4904610824
 20
2.1727707802
 30
0.0
 10
4.4877633364
 20
2.172392118
 30
0.0
 10
4.4850907144
 20
2.1718620587
 30
0.0
 10
4.4824584254
 20
2.1711568785
 30
0.0
 10
4.4798858276
 20
2.170255971
 30
0.0
 10
4.4774018303
 20
2.1691309174
 30
0.0
 10
4.475044289
 20
2.1677590953
 30
0.0
 10
4.4735862359
 20
2.1666692703
 30
0.0
 10
4.4728950306
 20
2.1660811941
 30
0.0
  0
SPLINE
  5
351
100
AcDbEntity
  8
0
100
AcDbSpline
 62
7
  6
CONTINUOUS
 70
0
 71
3
 72
20
 73
16
 74
0
 42
0.0000001
 43
0.0000001
 44
0.0000000001
 40
0.0
 40
0.0
 40
0.0
 40
0.0
 40
0.1250004426
 40
0.2500007137
 40
0.3750007015
 40
0.4375011442
 40
0.5000015696
 40
0.6249997026
 40
0.687499902
 40
0.7499999469
 40
0.8124997216
 40
0.8749991275
 40
0.9374976537
 40
0.9687493003
 40
1.0
 40
1.0
 40
1.0
 40
1.0
 10
4.5341608273
 20
2.1685556098
 30
0.0
 10
4.5324688185
 20
2.1688728142
 30
0.0
 10
4.5290818221
 20
2.1694914982
 30
0.0
 10
4.5239911281
 20
2.1703619422
 30
0.0
 10
4.5197389926
 20
2.1710274385
 30
0.0
 10
4.5163309301
 20
2.1715168138
 30
0.0
 10
4.5129185197
 20
2.1719745005
 30
0.0
 10
4.5094987554
 20
2.1723772333
 30
0.0
 10
4.5060711467
 20
2.1727031972
 30
0.0
 10
4.503496526
 20
2.1729030687
 30
0.0
 10
4.5009183249
 20
2.1730508018
 30
0.0
 10
4.4983371111
 20
2.1731327738
 30
0.0
 10
4.4961847264
 20
2.1731314523
 30
0.0
 10
4.4944639539
 20
2.1730779349
 30
0.0
 10
4.4936043662
 20
2.1730304508
 30
0.0
 10
4.4931750388
 20
2.173000376
 30
0.0
  0
SPLINE
  5
352
100
AcDbEntity
  8
0
100
AcDbSpline
 62
7
  6
CONTINUOUS
 70
0
 71
3
 72
21
 73
17
 74
0
 42
0.0000001
 43
0.0000001
 44
0.0000000001
 40
0.0
 40
0.0
 40
0.0
 40
0.0
 40
0.0624971774
 40
0.124996469
 40
0.1874978132
 40
0.2499992875
 40
0.3125005686
 40
0.3750018205
 40
0.4375029762
 40
0.5000040706
 40
0.5625050074
 40
0.6250057999
 40
0.7500014063
 40
0.812501856
 40
0.8750021237
 40
1.0
 40
1.0
 40
1.0
 40
1.0
 10
4.4234324535
 20
2.2037117449
 30
0.0
 10
4.4244064013
 20
2.2038036195
 30
0.0
 10
4.4263442682
 20
2.2041044499
 30
0.0
 10
4.4291924071
 20
2.2048254911
 30
0.0
 10
4.431976796
 20
2.2057609156
 30
0.0
 10
4.4346984983
 20
2.2068632065
 30
0.0
 10
4.437360773
 20
2.2081012506
 30
0.0
 10
4.4399676942
 20
2.2094512734
 30
0.0
 10
4.4425241503
 20
2.2108941593
 30
0.0
 10
4.4450349467
 20
2.2124148254
 30
0.0
 10
4.4475041535
 20
2.214001974
 30
0.0
 10
4.4507450154
 20
2.2161956967
 30
0.0
 10
4.4539141061
 20
2.2184933272
 30
0.0
 10
4.4570234482
 20
2.2208694298
 30
0.0
 10
4.4600965367
 20
2.2232923528
 30
0.0
 10
4.4623633273
 20
2.2251572759
 30
0.0
 10
4.4638590934
 20
2.2264186087
 30
0.0
  0
SPLINE
  5
353
100
AcDbEntity
  8
0
100
AcDbSpline
 62
7
  6
CONTINUOUS
 70
0
 71
3
 72
20
 73
16
 74
0
 42
0.0000001
 43
0.0000001
 44
0.0000000001
 40
0.0
 40
0.0
 40
0.0
 40
0.0
 40
0.1249730176
 40
0.18748295
 40
0.249992655
 40
0.3749475904
 40
0.4374553646
 40
0.4999638757
 40
0.5624726143
 40
0.6249810857
 40
0.6874928111
 40
0.750004667
 40
0.8125143655
 40
0.8750241077
 40
1.0
 40
1.0
 40
1.0
 40
1.0
 10
4.4043082651
 20
2.2114310629
 30
0.0
 10
4.4048846786
 20
2.2107441199
 30
0.0
 10
4.4058016872
 20
2.2097553147
 30
0.0
 10
4.4071282731
 20
2.2085465873
 30
0.0
 10
4.4085252334
 20
2.2074201379
 30
0.0
 10
4.410026761
 20
2.2064278905
 30
0.0
 10
4.4116163714
 20
2.2055946276
 30
0.0
 10
4.4128490602
 20
2.205052366
 30
0.0
 10
4.41411581
 20
2.2045955185
 30
0.0
 10
4.4154105651
 20
2.2042254003
 30
0.0
 10
4.4167267886
 20
2.2039411702
 30
0.0
 10
4.4180582135
 20
2.2037403603
 30
0.0
 10
4.4193993196
 20
2.2036204587
 30
0.0
 10
4.4211929414
 20
2.2035634725
 30
0.0
 10
4.4225396561
 20
2.2036275254
 30
0.0
 10
4.4234324535
 20
2.2037117449
 30
0.0
  0
SPLINE
  5
354
100
AcDbEntity
  8
0
100
AcDbSpline
 62
7
  6
CONTINUOUS
 70
0
 71
3
 72
20
 73
16
 74
0
 42
0.0000001
 43
0.0000001
 44
0.0000000001
 40
0.0
 40
0.0
 40
0.0
 40
0.0
 40
0.1249748826
 40
0.1874795878
 40
0.2499821127
 40
0.3124891293
 40
0.3749982055
 40
0.437506259
 40
0.5000161774
 40
0.562526531
 40
0.6250386947
 40
0.6875512904
 40
0.7500659869
 40
0.875024833
 40
1.0
 40
1.0
 40
1.0
 40
1.0
 10
4.4002980648
 20
2.2332821757
 30
0.0
 10
4.4000533203
 20
2.2323492061
 30
0.0
 10
4.3997392765
 20
2.2309345661
 30
0.0
 10
4.3994453043
 20
2.2290272448
 30
0.0
 10
4.3992941146
 20
2.2275873069
 30
0.0
 10
4.3992184557
 20
2.226141352
 30
0.0
 10
4.3992230079
 20
2.2246932894
 30
0.0
 10
4.3993129888
 20
2.2232478783
 30
0.0
 10
4.3994941361
 20
2.2218109241
 30
0.0
 10
4.3997696952
 20
2.2203889351
 30
0.0
 10
4.4001418669
 20
2.2189890451
 30
0.0
 10
4.4006110331
 20
2.2176184837
 30
0.0
 10
4.4013634196
 20
2.2158403773
 30
0.0
 10
4.4025351869
 20
2.2137235636
 30
0.0
 10
4.4036882711
 20
2.2121699429
 30
0.0
 10
4.4043082651
 20
2.2114310629
 30
0.0
  0
SPLINE
  5
355
100
AcDbEntity
  8
0
100
AcDbSpline
 62
7
  6
CONTINUOUS
 70
0
 71
3
 72
25
 73
21
 74
0
 42
0.0000001
 43
0.0000001
 44
0.0000000001
 40
0.0
 40
0.0
 40
0.0
 40
0.0
 40
0.1249982395
 40
0.1874983525
 40
0.2499986645
 40
0.3124989298
 40
0.3749992743
 40
0.4374994605
 40
0.4999995633
 40
0.5624994143
 40
0.6249988875
 40
0.6874977084
 40
0.749994909
 40
0.8124899137
 40
0.8437404479
 40
0.8749911939
 40
0.906243
 40
0.9374936634
 40
0.9687480754
 40
1.0
 40
1.0
 40
1.0
 40
1.0
 10
4.4291722329
 20
2.2677567993
 30
0.0
 10
4.4277223812
 20
2.2665341847
 30
0.0
 10
4.4255660254
 20
2.264678155
 30
0.0
 10
4.4227348818
 20
2.2621537058
 30
0.0
 10
4.4206358153
 20
2.2602333801
 30
0.0
 10
4.418564604
 20
2.2582830108
 30
0.0
 10
4.4165256055
 20
2.2562989368
 30
0.0
 10
4.4145245437
 20
2.2542765502
 30
0.0
 10
4.4125667405
 20
2.2522122059
 30
0.0
 10
4.4106588245
 20
2.2501015774
 30
0.0
 10
4.4088106874
 20
2.2479382856
 30
0.0
 10
4.4070355455
 20
2.2457144701
 30
0.0
 10
4.4053523548
 20
2.243420068
 30
0.0
 10
4.4040461083
 20
2.2414401577
 30
0.0
 10
4.4030768908
 20
2.2398096438
 30
0.0
 10
4.4023938446
 20
2.2385615058
 30
0.0
 10
4.4017619604
 20
2.2372865786
 30
0.0
 10
4.4011919054
 20
2.2359825575
 30
0.0
 10
4.4006941585
 20
2.2346491788
 30
0.0
 10
4.4004183822
 20
2.2337408272
 30
0.0
 10
4.4002980648
 20
2.2332821757
 30
0.0
  0
SPLINE
  5
356
100
AcDbEntity
  8
0
100
AcDbSpline
 62
7
  6
CONTINUOUS
 70
0
 71
3
 72
23
 73
19
 74
0
 42
0.0000001
 43
0.0000001
 44
0.0000000001
 40
0.0
 40
0.0
 40
0.0
 40
0.0
 40
0.0312517391
 40
0.0625048298
 40
0.09375567
 40
0.1250072005
 40
0.156258155
 40
0.1875089787
 40
0.218759783
 40
0.2500106618
 40
0.3125087143
 40
0.3750081606
 40
0.4375082995
 40
0.5000089088
 40
0.6250031815
 40
0.7500008791
 40
0.8750001937
 40
1.0
 40
1.0
 40
1.0
 40
1.0
 10
4.4680642405
 20
2.2901730753
 30
0.0
 10
4.4675928167
 20
2.2901306047
 30
0.0
 10
4.4666528727
 20
2.2900109652
 30
0.0
 10
4.4652568663
 20
2.2897473633
 30
0.0
 10
4.4638768386
 20
2.2894102522
 30
0.0
 10
4.4625141036
 20
2.289009648
 30
0.0
 10
4.4611684127
 20
2.2885554024
 30
0.0
 10
4.4598392712
 20
2.2880550241
 30
0.0
 10
4.4585263251
 20
2.2875137003
 30
0.0
 10
4.4567961754
 20
2.2867445507
 30
0.0
 10
4.4546701271
 20
2.2857031339
 30
0.0
 10
4.4521722039
 20
2.2843510028
 30
0.0
 10
4.4497211898
 20
2.2829157704
 30
0.0
 10
4.4465095777
 20
2.2809094875
 30
0.0
 10
4.4425885991
 20
2.2782556042
 30
0.0
 10
4.4380128849
 20
2.2748893011
 30
0.0
 10
4.4335412727
 20
2.271386358
 30
0.0
 10
4.4306195507
 20
2.2689772772
 30
0.0
 10
4.4291722329
 20
2.2677567993
 30
0.0
  0
SPLINE
  5
357
100
AcDbEntity
  8
0
100
AcDbSpline
 62
7
  6
CONTINUOUS
 70
0
 71
3
 72
20
 73
16
 74
0
 42
0.0000001
 43
0.0000001
 44
0.0000000001
 40
0.0
 40
0.0
 40
0.0
 40
0.0
 40
0.1249744704
 40
0.2499325098
 40
0.3124476515
 40
0.3749607427
 40
0.4374733456
 40
0.4999839691
 40
0.562494334
 40
0.6250026076
 40
0.6875118946
 40
0.7500189176
 40
0.8125216421
 40
0.8750258799
 40
1.0
 40
1.0
 40
1.0
 40
1.0
 10
4.4888414538
 20
2.2826032488
 30
0.0
 10
4.4882224101
 20
2.2833373491
 30
0.0
 10
4.4868925602
 20
2.2847312164
 30
0.0
 10
4.4850098451
 20
2.2862340428
 30
0.0
 10
4.4833890616
 20
2.2872674633
 30
0.0
 10
4.4821212206
 20
2.2879549726
 30
0.0
 10
4.4808085192
 20
2.2885520722
 30
0.0
 10
4.4794581964
 20
2.2890581495
 30
0.0
 10
4.4780776344
 20
2.2894743147
 30
0.0
 10
4.4766737233
 20
2.2898027126
 30
0.0
 10
4.4752530459
 20
2.2900478403
 30
0.0
 10
4.4738211154
 20
2.2902139548
 30
0.0
 10
4.4723825391
 20
2.2903049687
 30
0.0
 10
4.4704614392
 20
2.2903332359
 30
0.0
 10
4.4690206344
 20
2.290259237
 30
0.0
 10
4.4680642405
 20
2.2901730753
 30
0.0
  0
SPLINE
  5
358
100
AcDbEntity
  8
0
100
AcDbSpline
 62
7
  6
CONTINUOUS
 70
0
 71
3
 72
21
 73
17
 74
0
 42
0.0000001
 43
0.0000001
 44
0.0000000001
 40
0.0
 40
0.0
 40
0.0
 40
0.0
 40
0.1249656841
 40
0.1874660169
 40
0.2499640022
 40
0.3124666414
 40
0.3749713123
 40
0.4374750608
 40
0.4999804937
 40
0.5624864141
 40
0.6249941057
 40
0.6875021354
 40
0.7500122973
 40
0.8125197493
 40
0.8750348725
 40
1.0
 40
1.0
 40
1.0
 40
1.0
 10
4.4928180871
 20
2.2608158525
 30
0.0
 10
4.4930649426
 20
2.261745686
 30
0.0
 10
4.4933823098
 20
2.2631557505
 30
0.0
 10
4.493680922
 20
2.2650573051
 30
0.0
 10
4.4938356374
 20
2.2664931114
 30
0.0
 10
4.4939147619
 20
2.2679351412
 30
0.0
 10
4.493913545
 20
2.2693794793
 30
0.0
 10
4.4938267088
 20
2.2708213459
 30
0.0
 10
4.4936483974
 20
2.2722548995
 30
0.0
 10
4.4933752716
 20
2.273673561
 30
0.0
 10
4.4930050519
 20
2.2750701248
 30
0.0
 10
4.4925373958
 20
2.2764372266
 30
0.0
 10
4.4919738265
 20
2.2777676393
 30
0.0
 10
4.4913176747
 20
2.2790550368
 30
0.0
 10
4.4903271971
 20
2.2807063942
 30
0.0
 10
4.4894616382
 20
2.281867796
 30
0.0
 10
4.4888414538
 20
2.2826032488
 30
0.0
  0
SPLINE
  5
359
100
AcDbEntity
  8
0
100
AcDbSpline
 62
7
  6
CONTINUOUS
 70
0
 71
3
 72
23
 73
19
 74
0
 42
0.0000001
 43
0.0000001
 44
0.0000000001
 40
0.0
 40
0.0
 40
0.0
 40
0.0
 40
0.1249996527
 40
0.1875004108
 40
0.2500013651
 40
0.3749992064
 40
0.499993984
 40
0.5624945089
 40
0.6249946662
 40
0.6874941754
 40
0.7499920799
 40
0.8124877769
 40
0.843738652
 40
0.8749897424
 40
0.9062419038
 40
0.9374929163
 40
0.9687477112
 40
1.0
 40
1.0
 40
1.0
 40
1.0
 10
4.4638590934
 20
2.2264186087
 30
0.0
 10
4.465308575
 20
2.2276409111
 30
0.0
 10
4.4674650238
 20
2.2294956825
 30
0.0
 10
4.4702977436
 20
2.2320169105
 30
0.0
 10
4.4730989064
 20
2.2345731202
 30
0.0
 10
4.4765332066
 20
2.2378413155
 30
0.0
 10
4.4798453625
 20
2.2412343029
 30
0.0
 10
4.4823971667
 20
2.2440397922
 30
0.0
 10
4.4842521648
 20
2.2461962416
 30
0.0
 10
4.4860350308
 20
2.2484129221
 30
0.0
 10
4.4877267535
 20
2.2507001265
 30
0.0
 10
4.4890406846
 20
2.2526742133
 30
0.0
 10
4.4900162657
 20
2.2543003631
 30
0.0
 10
4.4907041412
 20
2.2555454322
 30
0.0
 10
4.4913408432
 20
2.256817557
 30
0.0
 10
4.4919156191
 20
2.2581191132
 30
0.0
 10
4.4924178788
 20
2.2594504185
 30
0.0
 10
4.4926964484
 20
2.2603576747
 30
0.0
 10
4.4928180871
 20
2.2608158525
 30
0.0
  0
SPLINE
  5
35A
100
AcDbEntity
  8
0
100
AcDbSpline
 62
7
  6
CONTINUOUS
 70
0
 71
3
 72
23
 73
19
 74
0
 42
0.0000001
 43
0.0000001
 44
0.0000000001
 40
0.0
 40
0.0
 40
0.0
 40
0.0
 40
0.0624959092
 40
0.1249993694
 40
0.1875005655
 40
0.2500025034
 40
0.3125056022
 40
0.3750081986
 40
0.4375084181
 40
0.5000075522
 40
0.5625059274
 40
0.6250041283
 40
0.6875025407
 40
0.7500027654
 40
0.8125034031
 40
0.8750017963
 40
0.9375040608
 40
1.0
 40
1.0
 40
1.0
 40
1.0
 10
4.4992818136
 20
2.2913637509
 30
0.0
 10
4.4997518192
 20
2.2908063893
 30
0.0
 10
4.5006695127
 20
2.2896724772
 30
0.0
 10
4.5019721562
 20
2.2879144269
 30
0.0
 10
4.5031933418
 20
2.2860985655
 30
0.0
 10
4.504322618
 20
2.2842240217
 30
0.0
 10
4.5053515864
 20
2.2822924697
 30
0.0
 10
4.506272336
 20
2.2803069441
 30
0.0
 10
4.5070756889
 20
2.2782710017
 30
0.0
 10
4.5077537469
 20
2.2761899279
 30
0.0
 10
4.508300188
 20
2.2740704415
 30
0.0
 10
4.5087104546
 20
2.2719204124
 30
0.0
 10
4.5089820261
 20
2.2697484841
 30
0.0
 10
4.5091151155
 20
2.2675637189
 30
0.0
 10
4.5091121691
 20
2.2653749597
 30
0.0
 10
4.5089757244
 20
2.2631905054
 30
0.0
 10
4.5087129821
 20
2.2610178871
 30
0.0
 10
4.5084586379
 20
2.2595811714
 30
0.0
 10
4.5083127203
 20
2.2588668425
 30
0.0
  0
SPLINE
  5
35B
100
AcDbEntity
  8
0
100
AcDbSpline
 62
7
  6
CONTINUOUS
 70
0
 71
3
 72
15
 73
11
 74
0
 42
0.0000001
 43
0.0000001
 44
0.0000000001
 40
0.0
 40
0.0
 40
0.0
 40
0.0
 40
0.1250198607
 40
0.2500379095
 40
0.3750581359
 40
0.500078383
 40
0.7499210534
 40
0.8124435796
 40
0.8749702841
 40
1.0
 40
1.0
 40
1.0
 40
1.0
 10
4.4774698956
 20
2.305037626
 30
0.0
 10
4.4785473127
 20
2.3048434553
 30
0.0
 10
4.4806836832
 20
2.3043428781
 30
0.0
 10
4.4837911299
 20
2.3032624479
 30
0.0
 10
4.4867715484
 20
2.30186889
 30
0.0
 10
4.4905430833
 20
2.2996365333
 30
0.0
 10
4.4935656805
 20
2.2972497391
 30
0.0
 10
4.4959450957
 20
2.2949881496
 30
0.0
 10
4.4974806685
 20
2.2934262583
 30
0.0
 10
4.4985760054
 20
2.2922007417
 30
0.0
 10
4.4992818136
 20
2.2913637509
 30
0.0
  0
SPLINE
  5
35C
100
AcDbEntity
  8
0
100
AcDbSpline
 62
7
  6
CONTINUOUS
 70
0
 71
3
 72
14
 73
10
 74
0
 42
0.0000001
 43
0.0000001
 44
0.0000000001
 40
0.0
 40
0.0
 40
0.0
 40
0.0
 40
0.1250202458
 40
0.2500404817
 40
0.4999393506
 40
0.6249545222
 40
0.7499700614
 40
0.8749847716
 40
1.0
 40
1.0
 40
1.0
 40
1.0
 10
4.4507913102
 20
2.3017111879
 30
0.0
 10
4.4518463252
 20
2.3021294068
 30
0.0
 10
4.4539778998
 20
2.3029132359
 30
0.0
 10
4.4583170528
 20
2.3042473468
 30
0.0
 10
4.4627731516
 20
2.3051862249
 30
0.0
 10
4.4672913908
 20
2.3056461095
 30
0.0
 10
4.47069843
 20
2.305733454
 30
0.0
 10
4.4741014502
 20
2.3055483688
 30
0.0
 10
4.4763530483
 20
2.3052389028
 30
0.0
 10
4.4774698956
 20
2.305037626
 30
0.0
  0
SPLINE
  5
35D
100
AcDbEntity
  8
0
100
AcDbSpline
 62
7
  6
CONTINUOUS
 70
0
 71
3
 72
18
 73
14
 74
0
 42
0.0000001
 43
0.0000001
 44
0.0000000001
 40
0.0
 40
0.0
 40
0.0
 40
0.0
 40
0.124998953
 40
0.2499975213
 40
0.3749949287
 40
0.4999913104
 40
0.5624920028
 40
0.6249930064
 40
0.7499877894
 40
0.8124892688
 40
0.8749915115
 40
0.9374982143
 40
1.0
 40
1.0
 40
1.0
 40
1.0
 10
4.4182216017
 20
2.2808072534
 30
0.0
 10
4.4194593961
 20
2.2818510467
 30
0.0
 10
4.4219591452
 20
2.2839102005
 30
0.0
 10
4.4257848232
 20
2.2869041854
 30
0.0
 10
4.4296922572
 20
2.2897908509
 30
0.0
 10
4.4330244653
 20
2.2920905613
 30
0.0
 10
4.4357405862
 20
2.2938542369
 30
0.0
 10
4.4384907123
 20
2.2955642368
 30
0.0
 10
4.4412946476
 20
2.2971870424
 30
0.0
 10
4.4441573623
 20
2.2987015007
 30
0.0
 10
4.4463353459
 20
2.2997773888
 30
0.0
 10
4.4485443689
 20
2.3007880512
 30
0.0
 10
4.450038684
 20
2.3014128391
 30
0.0
 10
4.4507913102
 20
2.3017111879
 30
0.0
  0
SPLINE
  5
35E
100
AcDbEntity
  8
0
100
AcDbSpline
 62
7
  6
CONTINUOUS
 70
0
 71
3
 72
18
 73
14
 74
0
 42
0.0000001
 43
0.0000001
 44
0.0000000001
 40
0.0
 40
0.0
 40
0.0
 40
0.0
 40
0.062501212
 40
0.125006747
 40
0.187508117
 40
0.2500087717
 40
0.3125100329
 40
0.3750103967
 40
0.5000072454
 40
0.6250046936
 40
0.7500027142
 40
0.8750012855
 40
1.0
 40
1.0
 40
1.0
 40
1.0
 10
4.3957670916
 20
2.2579986929
 30
0.0
 10
4.3961553482
 20
2.2585427854
 30
0.0
 10
4.3969508587
 20
2.2596175656
 30
0.0
 10
4.398191325
 20
2.2611934385
 30
0.0
 10
4.3994717809
 20
2.2627369523
 30
0.0
 10
4.4007877805
 20
2.264250157
 30
0.0
 10
4.4021346607
 20
2.265735884
 30
0.0
 10
4.4039660932
 20
2.2676838533
 30
0.0
 10
4.4063139792
 20
2.2700628855
 30
0.0
 10
4.4092077011
 20
2.2728399807
 30
0.0
 10
4.4121630651
 20
2.2755512572
 30
0.0
 10
4.415168119
 20
2.2782072297
 30
0.0
 10
4.4171996605
 20
2.2799454823
 30
0.0
 10
4.4182216017
 20
2.2808072534
 30
0.0
  0
SPLINE
  5
35F
100
AcDbEntity
  8
0
100
AcDbSpline
 62
7
  6
CONTINUOUS
 70
0
 71
3
 72
14
 73
10
 74
0
 42
0.0000001
 43
0.0000001
 44
0.0000000001
 40
0.0
 40
0.0
 40
0.0
 40
0.0
 40
0.2499497218
 40
0.3749582338
 40
0.4999680357
 40
0.6249761659
 40
0.7499842996
 40
0.8749924638
 40
1.0
 40
1.0
 40
1.0
 40
1.0
 10
4.3858122827
 20
2.2386638745
 30
0.0
 10
4.3863494687
 20
2.2404021295
 30
0.0
 10
4.3872926166
 20
2.2429694555
 30
0.0
 10
4.3887800186
 20
2.2462915472
 30
0.0
 10
4.3900009105
 20
2.2487340776
 30
0.0
 10
4.3913172178
 20
2.2511262666
 30
0.0
 10
4.3927211695
 20
2.2534680168
 30
0.0
 10
4.3942031978
 20
2.2557609915
 30
0.0
 10
4.3952385537
 20
2.257258014
 30
0.0
 10
4.3957670916
 20
2.2579986929
 30
0.0
  0
SPLINE
  5
360
100
AcDbEntity
  8
0
100
AcDbSpline
 62
7
  6
CONTINUOUS
 70
0
 71
3
 72
14
 73
10
 74
0
 42
0.0000001
 43
0.0000001
 44
0.0000000001
 40
0.0
 40
0.0
 40
0.0
 40
0.0
 40
0.249899648
 40
0.3749159827
 40
0.4999322183
 40
0.6249485218
 40
0.749965008
 40
0.8749823919
 40
1.0
 40
1.0
 40
1.0
 40
1.0
 10
4.3848335259
 20
2.2202005632
 30
0.0
 10
4.3845133623
 20
2.2217240797
 30
0.0
 10
4.3841782131
 20
2.2240444225
 30
0.0
 10
4.3840442176
 20
2.2271576019
 30
0.0
 10
4.3840995676
 20
2.2294952261
 30
0.0
 10
4.3843079202
 20
2.2318239562
 30
0.0
 10
4.3846648514
 20
2.2341345658
 30
0.0
 10
4.3851631589
 20
2.2364186087
 30
0.0
 10
4.3855823288
 20
2.2379197774
 30
0.0
 10
4.3858122827
 20
2.2386638745
 30
0.0
  0
SPLINE
  5
361
100
AcDbEntity
  8
0
100
AcDbSpline
 62
7
  6
CONTINUOUS
 70
0
 71
3
 72
14
 73
10
 74
0
 42
0.0000001
 43
0.0000001
 44
0.0000000001
 40
0.0
 40
0.0
 40
0.0
 40
0.0
 40
0.2499391031
 40
0.3749516961
 40
0.4999625495
 40
0.6249743693
 40
0.7499832318
 40
0.87500168
 40
1.0
 40
1.0
 40
1.0
 40
1.0
 10
4.3936789772
 20
2.2027524498
 30
0.0
 10
4.3926208376
 20
2.2040134914
 30
0.0
 10
4.3911214989
 20
2.2059830425
 30
0.0
 10
4.3893492267
 20
2.2087599696
 30
0.0
 10
4.3881446261
 20
2.210918263
 30
0.0
 10
4.3870772094
 20
2.2131476382
 30
0.0
 10
4.3861585772
 20
2.2154426204
 30
0.0
 10
4.3853986684
 20
2.2177948206
 30
0.0
 10
4.3850028373
 20
2.2193948853
 30
0.0
 10
4.3848335259
 20
2.2202005632
 30
0.0
  0
SPLINE
  5
362
100
AcDbEntity
  8
0
100
AcDbSpline
 62
7
  6
CONTINUOUS
 70
0
 71
3
 72
15
 73
11
 74
0
 42
0.0000001
 43
0.0000001
 44
0.0000000001
 40
0.0
 40
0.0
 40
0.0
 40
0.0
 40
0.1250203078
 40
0.2500389088
 40
0.3750595647
 40
0.5000802957
 40
0.7499200702
 40
0.8124429701
 40
0.8749700661
 40
1.0
 40
1.0
 40
1.0
 40
1.0
 10
4.4154973713
 20
2.1891135736
 30
0.0
 10
4.4144204079
 20
2.1893075037
 30
0.0
 10
4.4122848917
 20
2.1898072267
 30
0.0
 10
4.4091777683
 20
2.1908837709
 30
0.0
 10
4.4061958774
 20
2.1922704714
 30
0.0
 10
4.4024199639
 20
2.1944913181
 30
0.0
 10
4.3993920855
 20
2.1968690937
 30
0.0
 10
4.3970110527
 20
2.1991268518
 30
0.0
 10
4.3954757069
 20
2.2006876184
 30
0.0
 10
4.394382424
 20
2.2019141145
 30
0.0
 10
4.3936789772
 20
2.2027524498
 30
0.0
  0
SPLINE
  5
363
100
AcDbEntity
  8
0
100
AcDbSpline
 62
7
  6
CONTINUOUS
 70
0
 71
3
 72
14
 73
10
 74
0
 42
0.0000001
 43
0.0000001
 44
0.0000000001
 40
0.0
 40
0.0
 40
0.0
 40
0.0
 40
0.125019961
 40
0.2500399033
 40
0.4999398052
 40
0.6249548552
 40
0.7499702612
 40
0.8749848733
 40
1.0
 40
1.0
 40
1.0
 40
1.0
 10
4.4421855502
 20
2.1923644378
 30
0.0
 10
4.4411289659
 20
2.1919507735
 30
0.0
 10
4.4389945373
 20
2.191176003
 30
0.0
 10
4.4346508521
 20
2.1898595655
 30
0.0
 10
4.4301922953
 20
2.1889372788
 30
0.0
 10
4.4256735687
 20
2.1884910385
 30
0.0
 10
4.4222670236
 20
2.1884117523
 30
0.0
 10
4.4188649947
 20
2.1886020169
 30
0.0
 10
4.4166140428
 20
2.1889124931
 30
0.0
 10
4.4154973713
 20
2.1891135736
 30
0.0
  0
SPLINE
  5
364
100
AcDbEntity
  8
0
100
AcDbSpline
 62
7
  6
CONTINUOUS
 70
0
 71
3
 72
18
 73
14
 74
0
 42
0.0000001
 43
0.0000001
 44
0.0000000001
 40
0.0
 40
0.0
 40
0.0
 40
0.0
 40
0.1249988242
 40
0.249997335
 40
0.3749946666
 40
0.4999909058
 40
0.5624915282
 40
0.6249924595
 40
0.7499869189
 40
0.812488385
 40
0.8749907234
 40
0.9374981075
 40
1.0
 40
1.0
 40
1.0
 40
1.0
 10
4.4748097246
 20
2.2133681546
 30
0.0
 10
4.47356862
 20
2.2123215698
 30
0.0
 10
4.4710635367
 20
2.2102553269
 30
0.0
 10
4.4672331131
 20
2.2072464053
 30
0.0
 10
4.4633232112
 20
2.2043413059
 30
0.0
 10
4.4599894956
 20
2.2020247622
 30
0.0
 10
4.4572715155
 20
2.2002480631
 30
0.0
 10
4.4545188942
 20
2.1985257074
 30
0.0
 10
4.4517112099
 20
2.1968919575
 30
0.0
 10
4.4488423444
 20
2.1953705407
 30
0.0
 10
4.446658251
 20
2.1942922547
 30
0.0
 10
4.4444417694
 20
2.1932821749
 30
0.0
 10
4.4429414532
 20
2.1926603821
 30
0.0
 10
4.4421855502
 20
2.1923644378
 30
0.0
  0
SPLINE
  5
365
100
AcDbEntity
  8
0
100
AcDbSpline
 62
7
  6
CONTINUOUS
 70
0
 71
3
 72
20
 73
16
 74
0
 42
0.0000001
 43
0.0000001
 44
0.0000000001
 40
0.0
 40
0.0
 40
0.0
 40
0.0
 40
0.1249132571
 40
0.1874245635
 40
0.2499377276
 40
0.3749195966
 40
0.437429085
 40
0.4999377622
 40
0.5624463793
 40
0.624954452
 40
0.6874626791
 40
0.7499707829
 40
0.8124790415
 40
0.874987435
 40
1.0
 40
1.0
 40
1.0
 40
1.0
 10
4.5083127203
 20
2.2588668425
 30
0.0
 10
4.5078337441
 20
2.2565220506
 30
0.0
 10
4.5067866062
 20
2.2530643476
 30
0.0
 10
4.50489573
 20
2.2486630336
 30
0.0
 10
4.5027201296
 20
2.2443921916
 30
0.0
 10
4.5001829128
 20
2.2403181054
 30
0.0
 10
4.4973841859
 20
2.2364302002
 30
0.0
 10
4.4951710387
 20
2.2335987352
 30
0.0
 10
4.4928618254
 20
2.2308455595
 30
0.0
 10
4.490468651
 20
2.2281651264
 30
0.0
 10
4.487999784
 20
2.225554388
 30
0.0
 10
4.4854645993
 20
2.223008134
 30
0.0
 10
4.4828723963
 20
2.2205200321
 30
0.0
 10
4.479349871
 20
2.2172733364
 30
0.0
 10
4.4766407252
 20
2.2149121802
 30
0.0
 10
4.4748097246
 20
2.2133681546
 30
0.0
  0
SPLINE
  5
366
100
AcDbEntity
  8
0
100
AcDbSpline
 62
7
  6
CONTINUOUS
 70
0
 71
3
 72
16
 73
12
 74
0
 42
0.0000001
 43
0.0000001
 44
0.0000000001
 40
0.0
 40
0.0
 40
0.0
 40
0.0
 40
0.1250029331
 40
0.2500052007
 40
0.3750061004
 40
0.5000055419
 40
0.5625090631
 40
0.6250131437
 40
0.7500106723
 40
0.8750053376
 40
1.0
 40
1.0
 40
1.0
 40
1.0
 10
4.328243853
 20
2.9009152083
 30
0.0
 10
4.3278498513
 20
2.9018086148
 30
0.0
 10
4.3270365847
 20
2.9035844248
 30
0.0
 10
4.3257357353
 20
2.9062095403
 30
0.0
 10
4.3243462941
 20
2.9087889917
 30
0.0
 10
4.3231038158
 20
2.9108911316
 30
0.0
 10
4.3220527909
 20
2.9125372464
 30
0.0
 10
4.3209633322
 20
2.914158123
 30
0.0
 10
4.3195251735
 20
2.9161321116
 30
0.0
 10
4.3176626545
 20
2.9183950437
 30
0.0
 10
4.3163234561
 20
2.9198189281
 30
0.0
 10
4.3156278408
 20
2.92050406
 30
0.0
  0
SPLINE
  5
367
100
AcDbEntity
  8
0
100
AcDbSpline
 62
7
  6
CONTINUOUS
 70
0
 71
3
 72
11
 73
7
 74
0
 42
0.0000001
 43
0.0000001
 44
0.0000000001
 40
0.0
 40
0.0
 40
0.0
 40
0.0
 40
0.2500067949
 40
0.5000125638
 40
0.750008535
 40
1.0
 40
1.0
 40
1.0
 40
1.0
 10
4.3357917995
 20
2.8728980306
 30
0.0
 10
4.3354888403
 20
2.8753051425
 30
0.0
 10
4.3347355847
 20
2.8801024178
 30
0.0
 10
4.333124765
 20
2.8872061323
 30
0.0
 10
4.3309992031
 20
2.8941738197
 30
0.0
 10
4.3292227571
 20
2.8986955244
 30
0.0
 10
4.328243853
 20
2.9009152083
 30
0.0
  0
SPLINE
  5
368
100
AcDbEntity
  8
0
100
AcDbSpline
 62
7
  6
CONTINUOUS
 70
0
 71
3
 72
14
 73
10
 74
0
 42
0.0000001
 43
0.0000001
 44
0.0000000001
 40
0.0
 40
0.0
 40
0.0
 40
0.0
 40
0.2499957627
 40
0.374997276
 40
0.4999985095
 40
0.6249994154
 40
0.750000095
 40
0.8750001076
 40
1.0
 40
1.0
 40
1.0
 40
1.0
 10
4.3483027522
 20
2.8871542943
 30
0.0
 10
4.3486576391
 20
2.885574639
 30
0.0
 10
4.3491553559
 20
2.8831970547
 30
0.0
 10
4.3497358059
 20
2.8800112547
 30
0.0
 10
4.3501239687
 20
2.8776136751
 30
0.0
 10
4.350457368
 20
2.8752078252
 30
0.0
 10
4.3507277817
 20
2.8727940107
 30
0.0
 10
4.3509277298
 20
2.8703733191
 30
0.0
 10
4.3510073976
 20
2.8687557824
 30
0.0
 10
4.3510307608
 20
2.867946592
 30
0.0
  0
SPLINE
  5
369
100
AcDbEntity
  8
0
100
AcDbSpline
 62
7
  6
CONTINUOUS
 70
0
 71
3
 72
14
 73
10
 74
0
 42
0.0000001
 43
0.0000001
 44
0.0000000001
 40
0.0
 40
0.0
 40
0.0
 40
0.0
 40
0.1250000185
 40
0.2500001799
 40
0.3750010727
 40
0.5000021817
 40
0.6250036877
 40
0.7500055778
 40
1.0
 40
1.0
 40
1.0
 40
1.0
 10
4.3424475393
 20
2.9052778372
 30
0.0
 10
4.3427863811
 20
2.9045585563
 30
0.0
 10
4.3434315337
 20
2.9031045172
 30
0.0
 10
4.3443164859
 20
2.9008889761
 30
0.0
 10
4.3451270345
 20
2.8986451725
 30
0.0
 10
4.3458695908
 20
2.8963780569
 30
0.0
 10
4.3465521486
 20
2.8940922224
 30
0.0
 10
4.3473926902
 20
2.8910247398
 30
0.0
 10
4.3479541938
 20
2.8887057803
 30
0.0
 10
4.3483027522
 20
2.8871542943
 30
0.0
  0
SPLINE
  5
36A
100
AcDbEntity
  8
0
100
AcDbSpline
 62
7
  6
CONTINUOUS
 70
0
 71
3
 72
14
 73
10
 74
0
 42
0.0000001
 43
0.0000001
 44
0.0000000001
 40
0.0
 40
0.0
 40
0.0
 40
0.0
 40
0.2499311987
 40
0.3749443777
 40
0.4999566232
 40
0.6249694766
 40
0.7499795222
 40
0.8750006863
 40
1.0
 40
1.0
 40
1.0
 40
1.0
 10
4.4020938115
 20
2.9783797746
 30
0.0
 10
4.40232006
 20
2.9772383209
 30
0.0
 10
4.4027473767
 20
2.9755409628
 30
0.0
 10
4.4035105061
 20
2.9733407266
 30
0.0
 10
4.4041837435
 20
2.9717282469
 30
0.0
 10
4.404959839
 20
2.9701626695
 30
0.0
 10
4.4058397287
 20
2.9686527771
 30
0.0
 10
4.4068219022
 20
2.9672074529
 30
0.0
 10
4.4075428468
 20
2.9662920494
 30
0.0
 10
4.4079188086
 20
2.9658477954
 30
0.0
  0
SPLINE
  5
36B
100
AcDbEntity
  8
0
100
AcDbSpline
 62
7
  6
CONTINUOUS
 70
0
 71
3
 72
11
 73
7
 74
0
 42
0.0000001
 43
0.0000001
 44
0.0000000001
 40
0.0
 40
0.0
 40
0.0
 40
0.0
 40
0.2500205808
 40
0.5000230212
 40
0.7500126594
 40
1.0
 40
1.0
 40
1.0
 40
1.0
 10
4.4030803117
 20
2.9932725416
 30
0.0
 10
4.4026919443
 20
2.9920772696
 30
0.0
 10
4.4020505708
 20
2.9896399246
 30
0.0
 10
4.401543795
 20
2.9858941076
 30
0.0
 10
4.4015255019
 20
2.9821136455
 30
0.0
 10
4.4018494897
 20
2.9796124105
 30
0.0
 10
4.4020938115
 20
2.9783797746
 30
0.0
  0
SPLINE
  5
36C
100
AcDbEntity
  8
0
100
AcDbSpline
 62
7
  6
CONTINUOUS
 70
0
 71
3
 72
15
 73
11
 74
0
 42
0.0000001
 43
0.0000001
 44
0.0000000001
 40
0.0
 40
0.0
 40
0.0
 40
0.0
 40
0.1249961447
 40
0.2499886877
 40
0.3749836702
 40
0.4999798982
 40
0.6249822101
 40
0.749985469
 40
0.8749939123
 40
1.0
 40
1.0
 40
1.0
 40
1.0
 10
4.4173203003
 20
3.010504209
 30
0.0
 10
4.4164614073
 20
3.0100803034
 30
0.0
 10
4.4147846513
 20
3.0091457791
 30
0.0
 10
4.4124339384
 20
3.0074836742
 30
0.0
 10
4.4102830984
 20
3.0055691516
 30
0.0
 10
4.4083587786
 20
3.0034273438
 30
0.0
 10
4.4066772054
 20
3.0010907811
 30
0.0
 10
4.4052380968
 20
2.9985983124
 30
0.0
 10
4.4040348224
 20
2.995984899
 30
0.0
 10
4.4033763137
 20
2.9941835421
 30
0.0
 10
4.4030803117
 20
2.9932725416
 30
0.0
  0
SPLINE
  5
36D
100
AcDbEntity
  8
0
100
AcDbSpline
 62
7
  6
CONTINUOUS
 70
0
 71
3
 72
16
 73
12
 74
0
 42
0.0000001
 43
0.0000001
 44
0.0000000001
 40
0.0
 40
0.0
 40
0.0
 40
0.0
 40
0.1250070939
 40
0.2500117483
 40
0.3750117039
 40
0.5000064297
 40
0.6249952283
 40
0.7499808634
 40
0.8124967948
 40
0.875014196
 40
1.0
 40
1.0
 40
1.0
 40
1.0
 10
4.4410638466
 20
3.0112375791
 30
0.0
 10
4.4400978507
 20
3.0115514502
 30
0.0
 10
4.4381457079
 20
3.012119311
 30
0.0
 10
4.4351653035
 20
3.0127663053
 30
0.0
 10
4.432141395
 20
3.0131696219
 30
0.0
 10
4.4290926619
 20
3.0132992115
 30
0.0
 10
4.4260456585
 20
3.0131197618
 30
0.0
 10
4.423536889
 20
3.0126921165
 30
0.0
 10
4.4215703535
 20
3.0121784615
 30
0.0
 10
4.4196374274
 20
3.0115507333
 30
0.0
 10
4.4182309605
 20
3.0109536642
 30
0.0
 10
4.4173203003
 20
3.010504209
 30
0.0
  0
SPLINE
  5
36E
100
AcDbEntity
  8
0
100
AcDbSpline
 62
7
  6
CONTINUOUS
 70
0
 71
3
 72
16
 73
12
 74
0
 42
0.0000001
 43
0.0000001
 44
0.0000000001
 40
0.0
 40
0.0
 40
0.0
 40
0.0
 40
0.1249867123
 40
0.1875028363
 40
0.2500175864
 40
0.3750050229
 40
0.499995103
 40
0.6249901686
 40
0.7499898439
 40
0.8749936716
 40
1.0
 40
1.0
 40
1.0
 40
1.0
 10
4.4613006667
 20
2.9959720257
 30
0.0
 10
4.460768048
 20
2.9969130692
 30
0.0
 10
4.4598898285
 20
2.9982821954
 30
0.0
 10
4.4585729298
 20
2.999999149
 30
0.0
 10
4.4571620371
 20
3.0016400295
 30
0.0
 10
4.4552323345
 20
3.0035416182
 30
0.0
 10
4.4526924647
 20
3.0055683975
 30
0.0
 10
4.4499697236
 20
3.0073406181
 30
0.0
 10
4.4471048052
 20
3.0088708199
 30
0.0
 10
4.4441297687
 20
3.010172044
 30
0.0
 10
4.4420924012
 20
3.0109033815
 30
0.0
 10
4.4410638466
 20
3.0112375791
 30
0.0
  0
SPLINE
  5
36F
100
AcDbEntity
  8
0
100
AcDbSpline
 62
7
  6
CONTINUOUS
 70
0
 71
3
 72
15
 73
11
 74
0
 42
0.0000001
 43
0.0000001
 44
0.0000000001
 40
0.0
 40
0.0
 40
0.0
 40
0.0
 40
0.1250053823
 40
0.2500073056
 40
0.3750026404
 40
0.4999963854
 40
0.6249910541
 40
0.7499876835
 40
0.8749927536
 40
1.0
 40
1.0
 40
1.0
 40
1.0
 10
4.4635960495
 20
2.9739002769
 30
0.0
 10
4.4638905971
 20
2.974806801
 30
0.0
 10
4.464398485
 20
2.9766476303
 30
0.0
 10
4.4648846297
 20
2.9794704144
 30
0.0
 10
4.4650654656
 20
2.9823298664
 30
0.0
 10
4.4649263898
 20
2.9851918967
 30
0.0
 10
4.4644633911
 20
2.9880195694
 30
0.0
 10
4.4636925872
 20
2.9907788936
 30
0.0
 10
4.4626383024
 20
2.9934418701
 30
0.0
 10
4.4617701748
 20
2.9951424876
 30
0.0
 10
4.4613006667
 20
2.9959720257
 30
0.0
  0
SPLINE
  5
370
100
AcDbEntity
  8
0
100
AcDbSpline
 62
7
  6
CONTINUOUS
 70
0
 71
3
 72
15
 73
11
 74
0
 42
0.0000001
 43
0.0000001
 44
0.0000000001
 40
0.0
 40
0.0
 40
0.0
 40
0.0
 40
0.1249988142
 40
0.2499966171
 40
0.3749951976
 40
0.4999938499
 40
0.6249941776
 40
0.7499948184
 40
0.8749976264
 40
1.0
 40
1.0
 40
1.0
 40
1.0
 10
4.4522885534
 20
2.9596614257
 30
0.0
 10
4.452960489
 20
2.9600485987
 30
0.0
 10
4.4542711503
 20
2.9608825019
 30
0.0
 10
4.4561125893
 20
2.9623099396
 30
0.0
 10
4.4578058978
 20
2.9639109043
 30
0.0
 10
4.4593332275
 20
2.9656708799
 30
0.0
 10
4.4606806255
 20
2.9675719215
 30
0.0
 10
4.4618436633
 20
2.9695907338
 30
0.0
 10
4.46282126
 20
2.9717049526
 30
0.0
 10
4.4633564
 20
2.9731627115
 30
0.0
 10
4.4635960495
 20
2.9739002769
 30
0.0
  0
SPLINE
  5
371
100
AcDbEntity
  8
0
100
AcDbSpline
 62
7
  6
CONTINUOUS
 70
0
 71
3
 72
15
 73
11
 74
0
 42
0.0000001
 43
0.0000001
 44
0.0000000001
 40
0.0
 40
0.0
 40
0.0
 40
0.0
 40
0.1250125068
 40
0.2500228919
 40
0.3750286301
 40
0.5000307211
 40
0.6250279668
 40
0.7500234737
 40
0.875011387
 40
1.0
 40
1.0
 40
1.0
 40
1.0
 10
4.4313115785
 20
2.9570851124
 30
0.0
 10
4.4321976664
 20
2.9569392554
 30
0.0
 10
4.4339772526
 20
2.956690444
 30
0.0
 10
4.4366628336
 20
2.956460437
 30
0.0
 10
4.4393581649
 20
2.9564001873
 30
0.0
 10
4.4420511833
 20
2.9565375829
 30
0.0
 10
4.444724249
 20
2.9568983468
 30
0.0
 10
4.4473512296
 20
2.9575154135
 30
0.0
 10
4.4498961261
 20
2.9584147371
 30
0.0
 10
4.4515106153
 20
2.9592131735
 30
0.0
 10
4.4522885534
 20
2.9596614257
 30
0.0
  0
SPLINE
  5
372
100
AcDbEntity
  8
0
100
AcDbSpline
 62
7
  6
CONTINUOUS
 70
0
 71
3
 72
15
 73
11
 74
0
 42
0.0000001
 43
0.0000001
 44
0.0000000001
 40
0.0
 40
0.0
 40
0.0
 40
0.0
 40
0.1249967927
 40
0.2499904845
 40
0.374986126
 40
0.499982933
 40
0.6249846324
 40
0.7499873728
 40
0.8749945884
 40
1.0
 40
1.0
 40
1.0
 40
1.0
 10
4.4574610445
 20
2.9442073691
 30
0.0
 10
4.456341624
 20
2.9435498201
 30
0.0
 10
4.4540383681
 20
2.9423406242
 30
0.0
 10
4.4504192406
 20
2.9408837792
 30
0.0
 10
4.4466677051
 20
2.9398110979
 30
0.0
 10
4.4428257321
 20
2.9391315514
 30
0.0
 10
4.4389356039
 20
2.9388402419
 30
0.0
 10
4.4350359671
 20
2.9389136876
 30
0.0
 10
4.4311583978
 20
2.939324283
 30
0.0
 10
4.4286022782
 20
2.9397967256
 30
0.0
 10
4.4273345718
 20
2.9400771288
 30
0.0
  0
SPLINE
  5
373
100
AcDbEntity
  8
0
100
AcDbSpline
 62
7
  6
CONTINUOUS
 70
0
 71
3
 72
18
 73
14
 74
0
 42
0.0000001
 43
0.0000001
 44
0.0000000001
 40
0.0
 40
0.0
 40
0.0
 40
0.0
 40
0.1249953861
 40
0.249992891
 40
0.3125003355
 40
0.3750100761
 40
0.437520974
 40
0.5000317419
 40
0.562542128
 40
0.6250538768
 40
0.7500366184
 40
0.875016507
 40
1.0
 40
1.0
 40
1.0
 40
1.0
 10
4.4765579244
 20
2.9696887085
 30
0.0
 10
4.4761385051
 20
2.9683978686
 30
0.0
 10
4.4752204523
 20
2.9658410479
 30
0.0
 10
4.4738574643
 20
2.9627299734
 30
0.0
 10
4.4726244303
 20
2.96031061
 30
0.0
 10
4.4716255322
 20
2.9585354563
 30
0.0
 10
4.4705510395
 20
2.9568049224
 30
0.0
 10
4.4693994292
 20
2.9551246394
 30
0.0
 10
4.4681690739
 20
2.9535009511
 30
0.0
 10
4.4664241041
 20
2.9514202177
 30
0.0
 10
4.4640471935
 20
2.9489893957
 30
0.0
 10
4.4609018733
 20
2.9463927228
 30
0.0
 10
4.4586312364
 20
2.9448947414
 30
0.0
 10
4.4574610445
 20
2.9442073691
 30
0.0
  0
SPLINE
  5
374
100
AcDbEntity
  8
0
100
AcDbSpline
 62
7
  6
CONTINUOUS
 70
0
 71
3
 72
22
 73
18
 74
0
 42
0.0000001
 43
0.0000001
 44
0.0000000001
 40
0.0
 40
0.0
 40
0.0
 40
0.0
 40
0.1249591277
 40
0.187461062
 40
0.2499648435
 40
0.3124681894
 40
0.3749697299
 40
0.4374709258
 40
0.4999720598
 40
0.5624739006
 40
0.624976916
 40
0.6874818508
 40
0.7499874393
 40
0.812492423
 40
0.8749957557
 40
0.9375013402
 40
1.0
 40
1.0
 40
1.0
 40
1.0
 10
4.4719633122
 20
3.008497989
 30
0.0
 10
4.4728952517
 20
3.0070901454
 30
0.0
 10
4.474186303
 20
3.0049034347
 30
0.0
 10
4.4756502634
 20
3.0018583044
 30
0.0
 10
4.4766106711
 20
2.9995121448
 30
0.0
 10
4.4774260713
 20
2.9971118006
 30
0.0
 10
4.4780900598
 20
2.9946651758
 30
0.0
 10
4.4785980933
 20
2.9921815046
 30
0.0
 10
4.4789487892
 20
2.9896708079
 30
0.0
 10
4.4791429743
 20
2.9871432214
 30
0.0
 10
4.4791834892
 20
2.9846085438
 30
0.0
 10
4.4790752827
 20
2.9820759274
 30
0.0
 10
4.4788259083
 20
2.9795534026
 30
0.0
 10
4.4784425785
 20
2.977047869
 30
0.0
 10
4.4779330455
 20
2.9745650532
 30
0.0
 10
4.4773075373
 20
2.9721091667
 30
0.0
 10
4.4768188689
 20
2.9704918133
 30
0.0
 10
4.4765579244
 20
2.9696887085
 30
0.0
  0
SPLINE
  5
375
100
AcDbEntity
  8
0
100
AcDbSpline
 62
7
  6
CONTINUOUS
 70
0
 71
3
 72
14
 73
10
 74
0
 42
0.0000001
 43
0.0000001
 44
0.0000000001
 40
0.0
 40
0.0
 40
0.0
 40
0.0
 40
0.2498785891
 40
0.3749011989
 40
0.4999229843
 40
0.6249425826
 40
0.7499617248
 40
0.8749800861
 40
1.0
 40
1.0
 40
1.0
 40
1.0
 10
4.4450977605
 20
3.0284207047
 30
0.0
 10
4.4477986731
 20
3.027543125
 30
0.0
 10
4.4517712879
 20
3.0259460058
 30
0.0
 10
4.4567550462
 20
3.0232072017
 30
0.0
 10
4.4603084246
 20
3.0208424371
 30
0.0
 10
4.463638159
 20
3.0181720557
 30
0.0
 10
4.4667139273
 20
3.0152123742
 30
0.0
 10
4.4695100491
 20
3.0119878421
 30
0.0
 10
4.4711790182
 20
3.0096827905
 30
0.0
 10
4.4719633122
 20
3.008497989
 30
0.0
  0
SPLINE
  5
376
100
AcDbEntity
  8
0
100
AcDbSpline
 62
7
  6
CONTINUOUS
 70
0
 71
3
 72
17
 73
13
 74
0
 42
0.0000001
 43
0.0000001
 44
0.0000000001
 40
0.0
 40
0.0
 40
0.0
 40
0.0
 40
0.1250078585
 40
0.2500048038
 40
0.3749948134
 40
0.4999807449
 40
0.6249674373
 40
0.7499577442
 40
0.8124692858
 40
0.8749793168
 40
0.9374916432
 40
1.0
 40
1.0
 40
1.0
 40
1.0
 10
4.4114037474
 20
3.0265633131
 30
0.0
 10
4.4126925438
 20
3.0272153951
 30
0.0
 10
4.4153365926
 20
3.0283932086
 30
0.0
 10
4.4194657357
 20
3.0297323337
 30
0.0
 10
4.4237166497
 20
3.0306136538
 30
0.0
 10
4.4280377271
 20
3.0310270782
 30
0.0
 10
4.4323773589
 20
3.0309839536
 30
0.0
 10
4.4359724677
 20
3.0305932453
 30
0.0
 10
4.4388175114
 20
3.030088874
 30
0.0
 10
4.4409335303
 20
3.0296193502
 30
0.0
 10
4.4430288621
 20
3.0290655503
 30
0.0
 10
4.4444108727
 20
3.028643888
 30
0.0
 10
4.4450977605
 20
3.0284207047
 30
0.0
  0
SPLINE
  5
377
100
AcDbEntity
  8
0
100
AcDbSpline
 62
7
  6
CONTINUOUS
 70
0
 71
3
 72
15
 73
11
 74
0
 42
0.0000001
 43
0.0000001
 44
0.0000000001
 40
0.0
 40
0.0
 40
0.0
 40
0.0
 40
0.1250066126
 40
0.2500109825
 40
0.3750085331
 40
0.5000038591
 40
0.6249983552
 40
0.7499942582
 40
0.8749954607
 40
1.0
 40
1.0
 40
1.0
 40
1.0
 10
4.3905209662
 20
3.0020009823
 30
0.0
 10
4.3909475711
 20
3.0033139374
 30
0.0
 10
4.3919095887
 20
3.0059062407
 30
0.0
 10
4.3936997683
 20
3.0096474366
 30
0.0
 10
4.3958500713
 20
3.0131951906
 30
0.0
 10
4.3983580465
 20
3.0165003454
 30
0.0
 10
4.4012043569
 20
3.0195192003
 30
0.0
 10
4.4043539657
 20
3.0222197462
 30
0.0
 10
4.4077609464
 20
3.0245855773
 30
0.0
 10
4.4101719425
 20
3.0259400665
 30
0.0
 10
4.4114037474
 20
3.0265633131
 30
0.0
  0
SPLINE
  5
378
100
AcDbEntity
  8
0
100
AcDbSpline
 62
7
  6
CONTINUOUS
 70
0
 71
3
 72
15
 73
11
 74
0
 42
0.0000001
 43
0.0000001
 44
0.0000000001
 40
0.0
 40
0.0
 40
0.0
 40
0.0
 40
0.1250029376
 40
0.250005614
 40
0.3750052984
 40
0.5000046473
 40
0.6250033207
 40
0.7500024191
 40
0.8750009928
 40
1.0
 40
1.0
 40
1.0
 40
1.0
 10
4.3906958909
 20
2.9751232604
 30
0.0
 10
4.3903684287
 20
2.9762127437
 30
0.0
 10
4.3897771287
 20
2.9784115028
 30
0.0
 10
4.3890997838
 20
2.9817589461
 30
0.0
 10
4.3886577555
 20
2.9851460476
 30
0.0
 10
4.3884682006
 20
2.9885569258
 30
0.0
 10
4.388548876
 20
2.9919724728
 30
0.0
 10
4.3889095667
 20
2.9953701767
 30
0.0
 10
4.3895545533
 20
2.9987253711
 30
0.0
 10
4.3901694298
 20
3.0009190645
 30
0.0
 10
4.3905209662
 20
3.0020009823
 30
0.0
  0
SPLINE
  5
379
100
AcDbEntity
  8
0
100
AcDbSpline
 62
7
  6
CONTINUOUS
 70
0
 71
3
 72
14
 73
10
 74
0
 42
0.0000001
 43
0.0000001
 44
0.0000000001
 40
0.0
 40
0.0
 40
0.0
 40
0.0
 40
0.125023426
 40
0.2500462141
 40
0.375069824
 40
0.5000927515
 40
0.7499409329
 40
0.8749704686
 40
1.0
 40
1.0
 40
1.0
 40
1.0
 10
5.9012210946
 20
2.9378872666
 30
0.0
 10
5.9021120422
 20
2.9375296515
 30
0.0
 10
5.9038613663
 20
2.9367298327
 30
0.0
 10
5.9063578929
 20
2.9352853388
 30
0.0
 10
5.9087054209
 20
2.9336090453
 30
0.0
 10
5.9116146736
 20
2.9310981694
 30
0.0
 10
5.9141840016
 20
2.9282193592
 30
0.0
 10
5.9164084453
 20
2.9250887535
 30
0.0
 10
5.9174170096
 20
2.9234528324
 30
0.0
 10
5.9178960573
 20
2.922620799
 30
0.0
  0
SPLINE
  5
37A
100
AcDbEntity
  8
0
100
AcDbSpline
 62
7
  6
CONTINUOUS
 70
0
 71
3
 72
14
 73
10
 74
0
 42
0.0000001
 43
0.0000001
 44
0.0000000001
 40
0.0
 40
0.0
 40
0.0
 40
0.0
 40
0.125027038
 40
0.2500540518
 40
0.4999178244
 40
0.6249382426
 40
0.7499592991
 40
0.8749793641
 40
1.0
 40
1.0
 40
1.0
 40
1.0
 10
5.8782461155
 20
2.9385953171
 30
0.0
 10
5.8791876163
 20
2.9388475915
 30
0.0
 10
5.881085676
 20
2.939298736
 30
0.0
 10
5.8849272733
 20
2.9399645755
 30
0.0
 10
5.8888339416
 20
2.9402271959
 30
0.0
 10
5.8927289779
 20
2.9400061046
 30
0.0
 10
5.8956263866
 20
2.9395822234
 30
0.0
 10
5.8984715694
 20
2.9388902982
 30
0.0
 10
5.9003165757
 20
2.9382503291
 30
0.0
 10
5.9012210946
 20
2.9378872666
 30
0.0
  0
SPLINE
  5
37B
100
AcDbEntity
  8
0
100
AcDbSpline
 62
7
  6
CONTINUOUS
 70
0
 71
3
 72
20
 73
16
 74
0
 42
0.0000001
 43
0.0000001
 44
0.0000000001
 40
0.0
 40
0.0
 40
0.0
 40
0.0
 40
0.1249972196
 40
0.2499846055
 40
0.3749603746
 40
0.437468369
 40
0.4999747304
 40
0.5624801404
 40
0.6249846453
 40
0.6874881907
 40
0.7499919423
 40
0.8124949127
 40
0.8749961945
 40
0.9375001532
 40
1.0
 40
1.0
 40
1.0
 40
1.0
 10
5.8528352449
 20
2.919130018
 30
0.0
 10
5.8535042128
 20
2.9203280161
 30
0.0
 10
5.8549507271
 20
2.922665561
 30
0.0
 10
5.857454218
 20
2.9259411595
 30
0.0
 10
5.8598173513
 20
2.9284374104
 30
0.0
 10
5.8618612249
 20
2.9302702726
 30
0.0
 10
5.8634673493
 20
2.9315594479
 30
0.0
 10
5.8651411437
 20
2.9327592582
 30
0.0
 10
5.8668769163
 20
2.9338674176
 30
0.0
 10
5.8686683772
 20
2.9348829359
 30
0.0
 10
5.8705090184
 20
2.9358061462
 30
0.0
 10
5.8723925551
 20
2.9366381503
 30
0.0
 10
5.8743132731
 20
2.9373801334
 30
0.0
 10
5.8762649789
 20
2.9380358005
 30
0.0
 10
5.8775834185
 20
2.938417748
 30
0.0
 10
5.8782461155
 20
2.9385953171
 30
0.0
  0
SPLINE
  5
37C
100
AcDbEntity
  8
0
100
AcDbSpline
 62
7
  6
CONTINUOUS
 70
0
 71
3
 72
17
 73
13
 74
0
 42
0.0000001
 43
0.0000001
 44
0.0000000001
 40
0.0
 40
0.0
 40
0.0
 40
0.0
 40
0.1249961216
 40
0.1875044565
 40
0.2500127454
 40
0.3750045644
 40
0.4999924819
 40
0.5625057703
 40
0.6250210265
 40
0.7500079244
 40
0.8749994044
 40
1.0
 40
1.0
 40
1.0
 40
1.0
 10
5.8498195839
 20
2.8849312589
 30
0.0
 10
5.8494396731
 20
2.8863491054
 30
0.0
 10
5.8489379751
 20
2.8884953927
 30
0.0
 10
5.8484239445
 20
2.8913865723
 30
0.0
 10
5.8480228579
 20
2.894295635
 30
0.0
 10
5.8477478868
 20
2.8979597635
 30
0.0
 10
5.8478109819
 20
2.9016351713
 30
0.0
 10
5.8480854617
 20
2.9045595644
 30
0.0
 10
5.8485144714
 20
2.9074652127
 30
0.0
 10
5.8493470676
 20
2.9110477873
 30
0.0
 10
5.8508264274
 20
2.9152048424
 30
0.0
 10
5.8521195735
 20
2.9178483825
 30
0.0
 10
5.8528352449
 20
2.919130018
 30
0.0
  0
SPLINE
  5
37D
100
AcDbEntity
  8
0
100
AcDbSpline
 62
7
  6
CONTINUOUS
 70
0
 71
3
 72
17
 73
13
 74
0
 42
0.0000001
 43
0.0000001
 44
0.0000000001
 40
0.0
 40
0.0
 40
0.0
 40
0.0
 40
0.1250022448
 40
0.2499955238
 40
0.3749829135
 40
0.4374979044
 40
0.5000109855
 40
0.6249981316
 40
0.7499889018
 40
0.812496975
 40
0.8750048428
 40
1.0
 40
1.0
 40
1.0
 40
1.0
 10
5.8695464257
 20
2.8568487121
 30
0.0
 10
5.8682886834
 20
2.8576040744
 30
0.0
 10
5.865851645
 20
2.8592505047
 30
0.0
 10
5.8624942443
 20
2.8621096092
 30
0.0
 10
5.8599800326
 20
2.8647912408
 30
0.0
 10
5.8581525639
 20
2.8670885801
 30
0.0
 10
5.8564487122
 20
2.869479137
 30
0.0
 10
5.8545506702
 20
2.8726248069
 30
0.0
 10
5.8529515662
 20
2.8759308416
 30
0.0
 10
5.8518412005
 20
2.8786476735
 30
0.0
 10
5.8508384767
 20
2.8814059808
 30
0.0
 10
5.8501992851
 20
2.8835141948
 30
0.0
 10
5.8498195839
 20
2.8849312589
 30
0.0
  0
SPLINE
  5
37E
100
AcDbEntity
  8
0
100
AcDbSpline
 62
7
  6
CONTINUOUS
 70
0
 71
3
 72
18
 73
14
 74
0
 42
0.0000001
 43
0.0000001
 44
0.0000000001
 40
0.0
 40
0.0
 40
0.0
 40
0.0
 40
0.0625050434
 40
0.1250141614
 40
0.1875205167
 40
0.2500285546
 40
0.3750038044
 40
0.4375133343
 40
0.50002393
 40
0.6250025301
 40
0.7499901303
 40
0.8749906422
 40
1.0
 40
1.0
 40
1.0
 40
1.0
 10
5.9008249638
 20
2.8525509198
 30
0.0
 10
5.9001711798
 20
2.8523757389
 30
0.0
 10
5.8988560245
 20
2.8520527833
 30
0.0
 10
5.8968641026
 20
2.8516551002
 30
0.0
 10
5.8948557198
 20
2.8513496993
 30
0.0
 10
5.8921620159
 20
2.8510734241
 30
0.0
 10
5.8894500983
 20
2.8510007627
 30
0.0
 10
5.8867457314
 20
2.8511450346
 30
0.0
 10
5.8840530359
 20
2.8514355947
 30
0.0
 10
5.8807227741
 20
2.8520746689
 30
0.0
 10
5.876834038
 20
2.8532688252
 30
0.0
 10
5.8730900509
 20
2.8548580025
 30
0.0
 10
5.87070691
 20
2.85615176
 30
0.0
 10
5.8695464257
 20
2.8568487121
 30
0.0
  0
SPLINE
  5
37F
100
AcDbEntity
  8
0
100
AcDbSpline
 62
7
  6
CONTINUOUS
 70
0
 71
3
 72
15
 73
11
 74
0
 42
0.0000001
 43
0.0000001
 44
0.0000000001
 40
0.0
 40
0.0
 40
0.0
 40
0.0
 40
0.1249991425
 40
0.2499979427
 40
0.3749971358
 40
0.4999959326
 40
0.6249952558
 40
0.7499949391
 40
0.8749972867
 40
1.0
 40
1.0
 40
1.0
 40
1.0
 10
5.9199261497
 20
2.864460457
 30
0.0
 10
5.9193217199
 20
2.8637229971
 30
0.0
 10
5.9180515056
 20
2.8622971014
 30
0.0
 10
5.9159735953
 20
2.8603263699
 30
0.0
 10
5.913735188
 20
2.8585397404
 30
0.0
 10
5.9113553158
 20
2.8569467889
 30
0.0
 10
5.9088542336
 20
2.8555523981
 30
0.0
 10
5.9062537138
 20
2.8543542407
 30
0.0
 10
5.9035734234
 20
2.8533483975
 30
0.0
 10
5.9017460107
 20
2.8527977135
 30
0.0
 10
5.9008249638
 20
2.8525509198
 30
0.0
  0
SPLINE
  5
380
100
AcDbEntity
  8
0
100
AcDbSpline
 62
7
  6
CONTINUOUS
 70
0
 71
3
 72
14
 73
10
 74
0
 42
0.0000001
 43
0.0000001
 44
0.0000000001
 40
0.0
 40
0.0
 40
0.0
 40
0.0
 40
0.125025757
 40
0.2500516558
 40
0.4999212361
 40
0.6249407728
 40
0.7499609384
 40
0.8749801622
 40
1.0
 40
1.0
 40
1.0
 40
1.0
 10
5.9276918119
 20
2.886062545
 30
0.0
 10
5.9276335371
 20
2.8850916669
 30
0.0
 10
5.9274636193
 20
2.8831524358
 30
0.0
 10
5.9268934403
 20
2.8793039587
 30
0.0
 10
5.9259301565
 20
2.8755181715
 30
0.0
 10
5.9245204058
 20
2.87188953
 30
0.0
 10
5.923230326
 20
2.8692679592
 30
0.0
 10
5.9217072835
 20
2.8667747163
 30
0.0
 10
5.9205426671
 20
2.865212665
 30
0.0
 10
5.9199261497
 20
2.864460457
 30
0.0
  0
SPLINE
  5
381
100
AcDbEntity
  8
0
100
AcDbSpline
 62
7
  6
CONTINUOUS
 70
0
 71
3
 72
15
 73
11
 74
0
 42
0.0000001
 43
0.0000001
 44
0.0000000001
 40
0.0
 40
0.0
 40
0.0
 40
0.0
 40
0.1249979079
 40
0.2499951113
 40
0.3749935841
 40
0.4999916986
 40
0.6249905901
 40
0.7499910505
 40
0.8749955249
 40
1.0
 40
1.0
 40
1.0
 40
1.0
 10
5.9418710568
 20
2.8744174664
 30
0.0
 10
5.9411457671
 20
2.8746923104
 30
0.0
 10
5.939720234
 20
2.8753105844
 30
0.0
 10
5.9376750901
 20
2.8764264549
 30
0.0
 10
5.9357348144
 20
2.8777158568
 30
0.0
 10
5.9339045516
 20
2.8791563504
 30
0.0
 10
5.9321856711
 20
2.8807276361
 30
0.0
 10
5.9305781695
 20
2.882412321
 30
0.0
 10
5.9290771581
 20
2.8841920535
 30
0.0
 10
5.9281428574
 20
2.8854315096
 30
0.0
 10
5.9276918119
 20
2.886062545
 30
0.0
  0
SPLINE
  5
382
100
AcDbEntity
  8
0
100
AcDbSpline
 62
7
  6
CONTINUOUS
 70
0
 71
3
 72
14
 73
10
 74
0
 42
0.0000001
 43
0.0000001
 44
0.0000000001
 40
0.0
 40
0.0
 40
0.0
 40
0.0
 40
0.2499031545
 40
0.3749188937
 40
0.4999391504
 40
0.6249599089
 40
0.7499734146
 40
0.8749933365
 40
1.0
 40
1.0
 40
1.0
 40
1.0
 10
5.9589911034
 20
2.8738566399
 30
0.0
 10
5.9575901392
 20
2.8734812527
 30
0.0
 10
5.9554493773
 20
2.8730463835
 30
0.0
 10
5.9525583713
 20
2.8727763467
 30
0.0
 10
5.9503795634
 20
2.8727397676
 30
0.0
 10
5.9482048421
 20
2.8728788039
 30
0.0
 10
5.9460491592
 20
2.8731994697
 30
0.0
 10
5.943929062
 20
2.8737036702
 30
0.0
 10
5.9425494913
 20
2.8741603779
 30
0.0
 10
5.9418710568
 20
2.8744174664
 30
0.0
  0
SPLINE
  5
383
100
AcDbEntity
  8
0
100
AcDbSpline
 62
7
  6
CONTINUOUS
 70
0
 71
3
 72
15
 73
11
 74
0
 42
0.0000001
 43
0.0000001
 44
0.0000000001
 40
0.0
 40
0.0
 40
0.0
 40
0.0
 40
0.1250062811
 40
0.2500101978
 40
0.3750069238
 40
0.5000019278
 40
0.6249963939
 40
0.7499923776
 40
0.8749947157
 40
1.0
 40
1.0
 40
1.0
 40
1.0
 10
5.9803078461
 20
2.890722725
 30
0.0
 10
5.9797516474
 20
2.8896980171
 30
0.0
 10
5.9785501833
 20
2.8876952489
 30
0.0
 10
5.9764729988
 20
2.8848743492
 30
0.0
 10
5.974116528
 20
2.8822809009
 30
0.0
 10
5.9714948262
 20
2.8799553718
 30
0.0
 10
5.9686324804
 20
2.8779333115
 30
0.0
 10
5.9655682799
 20
2.8762331676
 30
0.0
 10
5.9623445189
 20
2.8748617841
 30
0.0
 10
5.9601172924
 20
2.8741584013
 30
0.0
 10
5.9589911034
 20
2.8738566399
 30
0.0
  0
SPLINE
  5
384
100
AcDbEntity
  8
0
100
AcDbSpline
 62
7
  6
CONTINUOUS
 70
0
 71
3
 72
17
 73
13
 74
0
 42
0.0000001
 43
0.0000001
 44
0.0000000001
 40
0.0
 40
0.0
 40
0.0
 40
0.0
 40
0.1249998315
 40
0.1875151323
 40
0.2500260675
 40
0.3750216071
 40
0.5000158293
 40
0.5625298487
 40
0.6250451303
 40
0.7500306354
 40
0.8750130699
 40
1.0
 40
1.0
 40
1.0
 40
1.0
 10
5.9829055094
 20
2.9208775314
 30
0.0
 10
5.9832401535
 20
2.9196286227
 30
0.0
 10
5.9836810467
 20
2.9177376869
 30
0.0
 10
5.9841294954
 20
2.9151901603
 30
0.0
 10
5.9844786617
 20
2.9126270853
 30
0.0
 10
5.9847147641
 20
2.9093990429
 30
0.0
 10
5.984655113
 20
2.9061617735
 30
0.0
 10
5.9844136594
 20
2.9035858485
 30
0.0
 10
5.9840391387
 20
2.901026044
 30
0.0
 10
5.9833166529
 20
2.8978684451
 30
0.0
 10
5.9820389217
 20
2.8941986995
 30
0.0
 10
5.9809245846
 20
2.8918589679
 30
0.0
 10
5.9803078461
 20
2.890722725
 30
0.0
  0
SPLINE
  5
385
100
AcDbEntity
  8
0
100
AcDbSpline
 62
7
  6
CONTINUOUS
 70
0
 71
3
 72
16
 73
12
 74
0
 42
0.0000001
 43
0.0000001
 44
0.0000000001
 40
0.0
 40
0.0
 40
0.0
 40
0.0
 40
0.1249862709
 40
0.1875019837
 40
0.2500166516
 40
0.3750026478
 40
0.4999923456
 40
0.6249879518
 40
0.74998844
 40
0.8749931816
 40
1.0
 40
1.0
 40
1.0
 40
1.0
 10
5.965915904
 20
2.945496693
 30
0.0
 10
5.9670047181
 20
2.9448284787
 30
0.0
 10
5.968584703
 20
2.9437345638
 30
0.0
 10
5.9705563816
 20
2.9421073133
 30
0.0
 10
5.9724331679
 20
2.9403711113
 30
0.0
 10
5.9745926997
 20
2.9380083082
 30
0.0
 10
5.9768654693
 20
2.9349139397
 30
0.0
 10
5.9788195624
 20
2.9316100427
 30
0.0
 10
5.9804705492
 20
2.9281457158
 30
0.0
 10
5.9818351181
 20
2.92455999
 30
0.0
 10
5.9825748117
 20
2.9221117121
 30
0.0
 10
5.9829055094
 20
2.9208775314
 30
0.0
  0
SPLINE
  5
386
100
AcDbEntity
  8
0
100
AcDbSpline
 62
7
  6
CONTINUOUS
 70
0
 71
3
 72
18
 73
14
 74
0
 42
0.0000001
 43
0.0000001
 44
0.0000000001
 40
0.0
 40
0.0
 40
0.0
 40
0.0
 40
0.1249807637
 40
0.1874860442
 40
0.2499930139
 40
0.3749647103
 40
0.4374731324
 40
0.4999829233
 40
0.5624935182
 40
0.6250063392
 40
0.7499919798
 40
0.8749917988
 40
1.0
 40
1.0
 40
1.0
 40
1.0
 10
5.9392484957
 20
2.9493160433
 30
0.0
 10
5.9403647222
 20
2.9496151353
 30
0.0
 10
5.9420597811
 20
2.949992614
 30
0.0
 10
5.9443464008
 20
2.950335775
 30
0.0
 10
5.9466471176
 20
2.9505655988
 30
0.0
 10
5.948963079
 20
2.9506177384
 30
0.0
 10
5.9512715038
 20
2.9504827258
 30
0.0
 10
5.9529952346
 20
2.9502865478
 30
0.0
 10
5.9547054868
 20
2.9499951813
 30
0.0
 10
5.956960337
 20
2.9494815601
 30
0.0
 10
5.959721735
 20
2.9486103186
 30
0.0
 10
5.9629061156
 20
2.9472247107
 30
0.0
 10
5.9649307729
 20
2.9461012761
 30
0.0
 10
5.965915904
 20
2.945496693
 30
0.0
  0
SPLINE
  5
387
100
AcDbEntity
  8
0
100
AcDbSpline
 62
7
  6
CONTINUOUS
 70
0
 71
3
 72
15
 73
11
 74
0
 42
0.0000001
 43
0.0000001
 44
0.0000000001
 40
0.0
 40
0.0
 40
0.0
 40
0.0
 40
0.1249986814
 40
0.2499968012
 40
0.3749956256
 40
0.499994084
 40
0.624993016
 40
0.7499930108
 40
0.874996356
 40
1.0
 40
1.0
 40
1.0
 40
1.0
 10
5.9243261368
 20
2.940192044
 30
0.0
 10
5.9247974375
 20
2.9407634518
 30
0.0
 10
5.925791245
 20
2.9418650885
 30
0.0
 10
5.927421072
 20
2.9433795461
 30
0.0
 10
5.9291777492
 20
2.9447449229
 30
0.0
 10
5.9310425798
 20
2.9459577861
 30
0.0
 10
5.9329975878
 20
2.9470186835
 30
0.0
 10
5.9350263731
 20
2.9479300255
 30
0.0
 10
5.9371127933
 20
2.9486991778
 30
0.0
 10
5.9385330095
 20
2.9491243294
 30
0.0
 10
5.9392484957
 20
2.9493160433
 30
0.0
  0
SPLINE
  5
388
100
AcDbEntity
  8
0
100
AcDbSpline
 62
7
  6
CONTINUOUS
 70
0
 71
3
 72
15
 73
11
 74
0
 42
0.0000001
 43
0.0000001
 44
0.0000000001
 40
0.0
 40
0.0
 40
0.0
 40
0.0
 40
0.125004714
 40
0.2500095548
 40
0.3750103485
 40
0.5000091033
 40
0.625007287
 40
0.7500056396
 40
0.8750023499
 40
1.0
 40
1.0
 40
1.0
 40
1.0
 10
5.9178960573
 20
2.922620799
 30
0.0
 10
5.9179622937
 20
2.9234097707
 30
0.0
 10
5.9181341425
 20
2.9249847392
 30
0.0
 10
5.9185191378
 20
2.9273298107
 30
0.0
 10
5.9190476587
 20
2.929647221
 30
0.0
 10
5.9197371135
 20
2.9319223021
 30
0.0
 10
5.9205974955
 20
2.9341387701
 30
0.0
 10
5.9216402874
 20
2.9362762021
 30
0.0
 10
5.9228745649
 20
2.9383092583
 30
0.0
 10
5.9238223813
 20
2.9395812878
 30
0.0
 10
5.9243261368
 20
2.940192044
 30
0.0
  0
SPLINE
  5
389
100
AcDbEntity
  8
0
100
AcDbSpline
 62
7
  6
CONTINUOUS
 70
0
 71
3
 72
16
 73
12
 74
0
 42
0.0000001
 43
0.0000001
 44
0.0000000001
 40
0.0
 40
0.0
 40
0.0
 40
0.0
 40
0.1249943055
 40
0.2499988959
 40
0.3125103822
 40
0.3750276482
 40
0.5000252844
 40
0.6250199665
 40
0.7500123
 40
0.8750089155
 40
1.0
 40
1.0
 40
1.0
 40
1.0
 10
5.9697886445
 20
2.91717221
 30
0.0
 10
5.9696017187
 20
2.9178698267
 30
0.0
 10
5.9691767023
 20
2.9192520542
 30
0.0
 10
5.9685078536
 20
2.9209318289
 30
0.0
 10
5.9678839049
 20
2.9222353964
 30
0.0
 10
5.9671990063
 20
2.9235079114
 30
0.0
 10
5.9662275025
 20
2.9250338874
 30
0.0
 10
5.9648794376
 20
2.9267351435
 30
0.0
 10
5.9633581637
 20
2.9282838134
 30
0.0
 10
5.9616823878
 20
2.929663075
 30
0.0
 10
5.9604780725
 20
2.9304654902
 30
0.0
 10
5.9598587615
 20
2.9308370241
 30
0.0
  0
SPLINE
  5
38A
100
AcDbEntity
  8
0
100
AcDbSpline
 62
7
  6
CONTINUOUS
 70
0
 71
3
 72
15
 73
11
 74
0
 42
0.0000001
 43
0.0000001
 44
0.0000000001
 40
0.0
 40
0.0
 40
0.0
 40
0.0
 40
0.1249949831
 40
0.2499980204
 40
0.374996209
 40
0.4999975873
 40
0.6250001819
 40
0.7499988008
 40
0.8750042414
 40
1.0
 40
1.0
 40
1.0
 40
1.0
 10
5.9677918484
 20
2.9004300823
 30
0.0
 10
5.968145633
 20
2.9010587079
 30
0.0
 10
5.9687992019
 20
2.9023474703
 30
0.0
 10
5.9695935631
 20
2.9043641058
 30
0.0
 10
5.9701786868
 20
2.9064517709
 30
0.0
 10
5.9705403109
 20
2.908589578
 30
0.0
 10
5.9706751427
 20
2.9107534273
 30
0.0
 10
5.9705882478
 20
2.9129194614
 30
0.0
 10
5.9702941308
 20
2.9150664167
 30
0.0
 10
5.9699753426
 20
2.9164754432
 30
0.0
 10
5.9697886445
 20
2.91717221
 30
0.0
  0
SPLINE
  5
38B
100
AcDbEntity
  8
0
100
AcDbSpline
 62
7
  6
CONTINUOUS
 70
0
 71
3
 72
15
 73
11
 74
0
 42
0.0000001
 43
0.0000001
 44
0.0000000001
 40
0.0
 40
0.0
 40
0.0
 40
0.0
 40
0.124996424
 40
0.2500037575
 40
0.3750031307
 40
0.5000058711
 40
0.6250070265
 40
0.7500041544
 40
0.8750060086
 40
1.0
 40
1.0
 40
1.0
 40
1.0
 10
5.9546707712
 20
2.8903361305
 30
0.0
 10
5.9553559669
 20
2.8905197281
 30
0.0
 10
5.9567121536
 20
2.8909433996
 30
0.0
 10
5.9586809754
 20
2.891759532
 30
0.0
 10
5.9605592731
 20
2.8927683402
 30
0.0
 10
5.9623203329
 20
2.8939705884
 30
0.0
 10
5.9639407211
 20
2.8953567202
 30
0.0
 10
5.9654018381
 20
2.8969096574
 30
0.0
 10
5.9666937507
 20
2.8986050385
 30
0.0
 10
5.9674439437
 20
2.8998119044
 30
0.0
 10
5.9677918484
 20
2.9004300823
 30
0.0
  0
SPLINE
  5
38C
100
AcDbEntity
  8
0
100
AcDbSpline
 62
7
  6
CONTINUOUS
 70
0
 71
3
 72
15
 73
11
 74
0
 42
0.0000001
 43
0.0000001
 44
0.0000000001
 40
0.0
 40
0.0
 40
0.0
 40
0.0
 40
0.1249959553
 40
0.2500021111
 40
0.3750013537
 40
0.5000039726
 40
0.6250056156
 40
0.7500033007
 40
0.8750057713
 40
1.0
 40
1.0
 40
1.0
 40
1.0
 10
5.9387530268
 20
2.8924584792
 30
0.0
 10
5.9393484836
 20
2.8921146923
 30
0.0
 10
5.9405685295
 20
2.8914758362
 30
0.0
 10
5.9424776757
 20
2.890686727
 30
0.0
 10
5.9444565771
 20
2.8900913411
 30
0.0
 10
5.9464872681
 20
2.8897071291
 30
0.0
 10
5.9485474058
 20
2.889542109
 30
0.0
 10
5.9506132812
 20
2.8895960026
 30
0.0
 10
5.952662443
 20
2.8898582248
 30
0.0
 10
5.9540066348
 20
2.8901581756
 30
0.0
 10
5.9546707712
 20
2.8903361305
 30
0.0
  0
SPLINE
  5
38D
100
AcDbEntity
  8
0
100
AcDbSpline
 62
7
  6
CONTINUOUS
 70
0
 71
3
 72
16
 73
12
 74
0
 42
0.0000001
 43
0.0000001
 44
0.0000000001
 40
0.0
 40
0.0
 40
0.0
 40
0.0
 40
0.124995085
 40
0.2500016609
 40
0.3125121141
 40
0.375028938
 40
0.5000268607
 40
0.6250205317
 40
0.7500125058
 40
0.8750086194
 40
1.0
 40
1.0
 40
1.0
 40
1.0
 10
5.9289195357
 20
2.906030693
 30
0.0
 10
5.9291052152
 20
2.9053377276
 30
0.0
 10
5.9295248666
 20
2.9039640912
 30
0.0
 10
5.9301804817
 20
2.9022922087
 30
0.0
 10
5.9307913602
 20
2.9009931245
 30
0.0
 10
5.9314623105
 20
2.8997241221
 30
0.0
 10
5.932415633
 20
2.8982009266
 30
0.0
 10
5.9337446336
 20
2.8965028052
 30
0.0
 10
5.9352535652
 20
2.894961722
 30
0.0
 10
5.9369250708
 20
2.893599265
 30
0.0
 10
5.9381317493
 20
2.8928171737
 30
0.0
 10
5.9387530268
 20
2.8924584792
 30
0.0
  0
SPLINE
  5
38E
100
AcDbEntity
  8
0
100
AcDbSpline
 62
7
  6
CONTINUOUS
 70
0
 71
3
 72
16
 73
12
 74
0
 42
0.0000001
 43
0.0000001
 44
0.0000000001
 40
0.0
 40
0.0
 40
0.0
 40
0.0
 40
0.124991349
 40
0.2499874102
 40
0.3749796917
 40
0.499973638
 40
0.6249718202
 40
0.6874881902
 40
0.7499982961
 40
0.8750048005
 40
1.0
 40
1.0
 40
1.0
 40
1.0
 10
5.9306149245
 20
2.9230968979
 30
0.0
 10
5.9302516456
 20
2.9224593888
 30
0.0
 10
5.9295908186
 20
2.9211453916
 30
0.0
 10
5.9288208121
 20
2.9190785345
 30
0.0
 10
5.9282863099
 20
2.91693831
 30
0.0
 10
5.9279901772
 20
2.9147528222
 30
0.0
 10
5.9279331639
 20
2.912915885
 30
0.0
 10
5.9279930625
 20
2.9114489282
 30
0.0
 10
5.9281205075
 20
2.9099862038
 30
0.0
 10
5.9283980792
 20
2.908170581
 30
0.0
 10
5.9287296213
 20
2.9067394632
 30
0.0
 10
5.9289195357
 20
2.906030693
 30
0.0
  0
SPLINE
  5
38F
100
AcDbEntity
  8
0
100
AcDbSpline
 62
7
  6
CONTINUOUS
 70
0
 71
3
 72
16
 73
12
 74
0
 42
0.0000001
 43
0.0000001
 44
0.0000000001
 40
0.0
 40
0.0
 40
0.0
 40
0.0
 40
0.1249941442
 40
0.250000989
 40
0.3125125791
 40
0.3750312608
 40
0.5000299167
 40
0.625023782
 40
0.7500151134
 40
0.8750100914
 40
1.0
 40
1.0
 40
1.0
 40
1.0
 10
5.9441676376
 20
2.9330923353
 30
0.0
 10
5.9434708562
 20
2.9329056333
 30
0.0
 10
5.9420899415
 20
2.9324824466
 30
0.0
 10
5.9404108433
 20
2.9318177037
 30
0.0
 10
5.9391080435
 20
2.9311960479
 30
0.0
 10
5.9378370322
 20
2.9305119258
 30
0.0
 10
5.9363148796
 20
2.9295379927
 30
0.0
 10
5.9346243886
 20
2.9281799707
 30
0.0
 10
5.9330959896
 20
2.926641377
 30
0.0
 10
5.9317477701
 20
2.9249434252
 30
0.0
 10
5.9309720576
 20
2.9237236217
 30
0.0
 10
5.9306149245
 20
2.9230968979
 30
0.0
  0
SPLINE
  5
390
100
AcDbEntity
  8
0
100
AcDbSpline
 62
7
  6
CONTINUOUS
 70
0
 71
3
 72
15
 73
11
 74
0
 42
0.0000001
 43
0.0000001
 44
0.0000000001
 40
0.0
 40
0.0
 40
0.0
 40
0.0
 40
0.1249963309
 40
0.2500033924
 40
0.3750027409
 40
0.500005363
 40
0.6250066162
 40
0.7500038723
 40
0.8750059583
 40
1.0
 40
1.0
 40
1.0
 40
1.0
 10
5.9598587615
 20
2.9308370241
 30
0.0
 10
5.9592760733
 20
2.9311865874
 30
0.0
 10
5.9580806595
 20
2.9318373672
 30
0.0
 10
5.9562057092
 20
2.9326453063
 30
0.0
 10
5.9542582114
 20
2.9332604918
 30
0.0
 10
5.9522560423
 20
2.9336647136
 30
0.0
 10
5.95022173
 20
2.93384871
 30
0.0
 10
5.9481795794
 20
2.9338114894
 30
0.0
 10
5.9461530257
 20
2.933562432
 30
0.0
 10
5.9448239721
 20
2.9332681996
 30
0.0
 10
5.9441676376
 20
2.9330923353
 30
0.0
  0
SPLINE
  5
391
100
AcDbEntity
  8
0
100
AcDbSpline
 62
7
  6
CONTINUOUS
 70
0
 71
3
 72
15
 73
11
 74
0
 42
0.0000001
 43
0.0000001
 44
0.0000000001
 40
0.0
 40
0.0
 40
0.0
 40
0.0
 40
0.1249985512
 40
0.2499957571
 40
0.3749938075
 40
0.4999922135
 40
0.6249928402
 40
0.7499941003
 40
0.8749973808
 40
1.0
 40
1.0
 40
1.0
 40
1.0
 10
5.9132834695
 20
2.881749044
 30
0.0
 10
5.9137298629
 20
2.882546155
 30
0.0
 10
5.9145512019
 20
2.8841818166
 30
0.0
 10
5.9155399241
 20
2.8867427654
 30
0.0
 10
5.9162610048
 20
2.8893921593
 30
0.0
 10
5.9167017237
 20
2.8921023776
 30
0.0
 10
5.9168579171
 20
2.8948435365
 30
0.0
 10
5.9167404199
 20
2.8975862331
 30
0.0
 10
5.9163654006
 20
2.900304934
 30
0.0
 10
5.915961249
 20
2.9020893567
 30
0.0
 10
5.9157247859
 20
2.902971849
 30
0.0
  0
SPLINE
  5
392
100
AcDbEntity
  8
0
100
AcDbSpline
 62
7
  6
CONTINUOUS
 70
0
 71
3
 72
15
 73
11
 74
0
 42
0.0000001
 43
0.0000001
 44
0.0000000001
 40
0.0
 40
0.0
 40
0.0
 40
0.0
 40
0.125004358
 40
0.250010076
 40
0.3750121424
 40
0.5000131564
 40
0.6250102695
 40
0.7500068097
 40
0.8750021543
 40
1.0
 40
1.0
 40
1.0
 40
1.0
 10
5.8962616177
 20
2.8688699609
 30
0.0
 10
5.8971450765
 20
2.869106683
 30
0.0
 10
5.8988944127
 20
2.8696495929
 30
0.0
 10
5.9014384161
 20
2.8706874272
 30
0.0
 10
5.903871829
 20
2.8719650502
 30
0.0
 10
5.906161946
 20
2.8734855256
 30
0.0
 10
5.9082745478
 20
2.8752447955
 30
0.0
 10
5.9101827485
 20
2.8772238937
 30
0.0
 10
5.911866672
 20
2.8793962324
 30
0.0
 10
5.912836596
 20
2.8809510755
 30
0.0
 10
5.9132834695
 20
2.881749044
 30
0.0
  0
SPLINE
  5
393
100
AcDbEntity
  8
0
100
AcDbSpline
 62
7
  6
CONTINUOUS
 70
0
 71
3
 72
15
 73
11
 74
0
 42
0.0000001
 43
0.0000001
 44
0.0000000001
 40
0.0
 40
0.0
 40
0.0
 40
0.0
 40
0.1249972156
 40
0.2499917444
 40
0.3749880275
 40
0.4999850248
 40
0.6249866419
 40
0.7499890299
 40
0.8749953536
 40
1.0
 40
1.0
 40
1.0
 40
1.0
 10
5.8754748037
 20
2.8712844715
 30
0.0
 10
5.8762489188
 20
2.8708328955
 30
0.0
 10
5.8778413878
 20
2.8700028692
 30
0.0
 10
5.8803448782
 20
2.8690092914
 30
0.0
 10
5.8829419491
 20
2.8682930363
 30
0.0
 10
5.8856016981
 20
2.8678650071
 30
0.0
 10
5.8882916413
 20
2.8677252759
 30
0.0
 10
5.8909814452
 20
2.8678566375
 30
0.0
 10
5.8936463986
 20
2.8682380901
 30
0.0
 10
5.8953959032
 20
2.8686379934
 30
0.0
 10
5.8962616177
 20
2.8688699609
 30
0.0
  0
SPLINE
  5
394
100
AcDbEntity
  8
0
100
AcDbSpline
 62
7
  6
CONTINUOUS
 70
0
 71
3
 72
15
 73
11
 74
0
 42
0.0000001
 43
0.0000001
 44
0.0000000001
 40
0.0
 40
0.0
 40
0.0
 40
0.0
 40
0.1250058877
 40
0.2500138776
 40
0.3750165755
 40
0.5000182371
 40
0.6250143638
 40
0.7500096501
 40
0.8750030872
 40
1.0
 40
1.0
 40
1.0
 40
1.0
 10
5.8630317795
 20
2.8882807838
 30
0.0
 10
5.863265116
 20
2.8874099601
 30
0.0
 10
5.863794706
 20
2.885684296
 30
0.0
 10
5.8647939451
 20
2.883167594
 30
0.0
 10
5.8660180664
 20
2.88075129
 30
0.0
 10
5.8674743779
 20
2.8784667294
 30
0.0
 10
5.8691644937
 20
2.8763487108
 30
0.0
 10
5.8710745761
 20
2.8744265167
 30
0.0
 10
5.8731814977
 20
2.8727231709
 30
0.0
 10
5.8746961296
 20
2.8717387069
 30
0.0
 10
5.8754748037
 20
2.8712844715
 30
0.0
  0
SPLINE
  5
395
100
AcDbEntity
  8
0
100
AcDbSpline
 62
7
  6
CONTINUOUS
 70
0
 71
3
 72
15
 73
11
 74
0
 42
0.0000001
 43
0.0000001
 44
0.0000000001
 40
0.0
 40
0.0
 40
0.0
 40
0.0
 40
0.1249983828
 40
0.2500005301
 40
0.3749994188
 40
0.5000002048
 40
0.625000906
 40
0.7499996768
 40
0.8750016812
 40
1.0
 40
1.0
 40
1.0
 40
1.0
 10
5.8628065483
 20
2.9029974828
 30
0.0
 10
5.8626624765
 20
2.9023947365
 30
0.0
 10
5.86240963
 20
2.9011804542
 30
0.0
 10
5.8621413559
 20
2.8993395503
 30
0.0
 10
5.8619911062
 20
2.8974851038
 30
0.0
 10
5.8619612979
 20
2.895624845
 30
0.0
 10
5.862051426
 20
2.8937665464
 30
0.0
 10
5.8622603987
 20
2.8919178431
 30
0.0
 10
5.8625842715
 20
2.8900859679
 30
0.0
 10
5.8628713828
 20
2.8888793924
 30
0.0
 10
5.8630317795
 20
2.8882807838
 30
0.0
  0
SPLINE
  5
396
100
AcDbEntity
  8
0
100
AcDbSpline
 62
7
  6
CONTINUOUS
 70
0
 71
3
 72
15
 73
11
 74
0
 42
0.0000001
 43
0.0000001
 44
0.0000000001
 40
0.0
 40
0.0
 40
0.0
 40
0.0
 40
0.1249929865
 40
0.2500010406
 40
0.374997255
 40
0.4999995006
 40
0.6250014624
 40
0.74999795
 40
0.8750067796
 40
1.0
 40
1.0
 40
1.0
 40
1.0
 10
5.8701709923
 20
2.915362383
 30
0.0
 10
5.869715243
 20
2.9149582466
 30
0.0
 10
5.8688333024
 20
2.9141157536
 30
0.0
 10
5.8676107414
 20
2.9127551182
 30
0.0
 10
5.8664979146
 20
2.9113030858
 30
0.0
 10
5.8655030961
 20
2.9097678556
 30
0.0
 10
5.8646317642
 20
2.908159352
 30
0.0
 10
5.8638880788
 20
2.9064880005
 30
0.0
 10
5.863273178
 20
2.9047653681
 30
0.0
 10
5.862948156
 20
2.9035899204
 30
0.0
 10
5.8628065483
 20
2.9029974828
 30
0.0
  0
SPLINE
  5
397
100
AcDbEntity
  8
0
100
AcDbSpline
 62
7
  6
CONTINUOUS
 70
0
 71
3
 72
15
 73
11
 74
0
 42
0.0000001
 43
0.0000001
 44
0.0000000001
 40
0.0
 40
0.0
 40
0.0
 40
0.0
 40
0.1249987915
 40
0.2500008352
 40
0.3749996783
 40
0.5000003862
 40
0.6250002827
 40
0.7499992578
 40
0.8750011149
 40
1.0
 40
1.0
 40
1.0
 40
1.0
 10
5.8825664483
 20
2.9221158241
 30
0.0
 10
5.881993132
 20
2.9219622045
 30
0.0
 10
5.8808550998
 20
2.921621682
 30
0.0
 10
5.879181174
 20
2.9210115383
 30
0.0
 10
5.8775474325
 20
2.9203004747
 30
0.0
 10
5.8759600808
 20
2.9194912432
 30
0.0
 10
5.8744243347
 20
2.9185879529
 30
0.0
 10
5.8729446669
 20
2.917595547
 30
0.0
 10
5.8715234575
 20
2.9165213744
 30
0.0
 10
5.8706150816
 20
2.9157561797
 30
0.0
 10
5.8701709923
 20
2.915362383
 30
0.0
  0
SPLINE
  5
398
100
AcDbEntity
  8
0
100
AcDbSpline
 62
7
  6
CONTINUOUS
 70
0
 71
3
 72
15
 73
11
 74
0
 42
0.0000001
 43
0.0000001
 44
0.0000000001
 40
0.0
 40
0.0
 40
0.0
 40
0.0
 40
0.1249974496
 40
0.2499924437
 40
0.3749890324
 40
0.499986252
 40
0.6249876906
 40
0.7499898744
 40
0.8749956875
 40
1.0
 40
1.0
 40
1.0
 40
1.0
 10
5.9032240637
 20
2.9197381448
 30
0.0
 10
5.9024530987
 20
2.9201832618
 30
0.0
 10
5.9008680633
 20
2.9210014883
 30
0.0
 10
5.8983786217
 20
2.9219815414
 30
0.0
 10
5.8957977908
 20
2.9226888189
 30
0.0
 10
5.8931555444
 20
2.9231122122
 30
0.0
 10
5.8904835572
 20
2.9232509566
 30
0.0
 10
5.8878116483
 20
2.9231212532
 30
0.0
 10
5.8851643144
 20
2.9227432406
 30
0.0
 10
5.8834263953
 20
2.9223462462
 30
0.0
 10
5.8825664483
 20
2.9221158241
 30
0.0
  0
SPLINE
  5
399
100
AcDbEntity
  8
0
100
AcDbSpline
 62
7
  6
CONTINUOUS
 70
0
 71
3
 72
15
 73
11
 74
0
 42
0.0000001
 43
0.0000001
 44
0.0000000001
 40
0.0
 40
0.0
 40
0.0
 40
0.0
 40
0.1250043957
 40
0.2500102898
 40
0.3750123481
 40
0.5000134802
 40
0.6250104484
 40
0.7500069372
 40
0.8750021674
 40
1.0
 40
1.0
 40
1.0
 40
1.0
 10
5.9157247859
 20
2.902971849
 30
0.0
 10
5.9154930358
 20
2.9038367521
 30
0.0
 10
5.9149636792
 20
2.905549867
 30
0.0
 10
5.913956519
 20
2.9080438722
 30
0.0
 10
5.912718426
 20
2.910432633
 30
0.0
 10
5.9112452848
 20
2.9126846476
 30
0.0
 10
5.9095395821
 20
2.9147664593
 30
0.0
 10
5.9076193141
 20
2.9166521499
 30
0.0
 10
5.9055099568
 20
2.9183226456
 30
0.0
 10
5.9039994739
 20
2.9192904615
 30
0.0
 10
5.9032240637
 20
2.9197381448
 30
0.0
  0
SPLINE
  5
39A
100
AcDbEntity
  8
0
100
AcDbSpline
 62
7
  6
CONTINUOUS
 70
0
 71
3
 72
15
 73
11
 74
0
 42
0.0000001
 43
0.0000001
 44
0.0000000001
 40
0.0
 40
0.0
 40
0.0
 40
0.0
 40
0.1249969576
 40
0.2499909889
 40
0.3749868567
 40
0.4999838114
 40
0.6249853727
 40
0.7499879576
 40
0.874994814
 40
1.0
 40
1.0
 40
1.0
 40
1.0
 10
5.8788659732
 20
2.8162786121
 30
0.0
 10
5.8794403739
 20
2.817427167
 30
0.0
 10
5.8806984483
 20
2.8196716865
 30
0.0
 10
5.8829105887
 20
2.822833561
 30
0.0
 10
5.8854365232
 20
2.8257515621
 30
0.0
 10
5.8882472481
 20
2.828395985
 30
0.0
 10
5.891306176
 20
2.830747976
 30
0.0
 10
5.8945696334
 20
2.8328055677
 30
0.0
 10
5.8979972653
 20
2.8345739432
 30
0.0
 10
5.9003662825
 20
2.8355733729
 30
0.0
 10
5.9015662464
 20
2.8360309952
 30
0.0
  0
LINE
  5
39B
100
AcDbEntity
  8
0
100
AcDbLine
 62
7
  6
CONTINUOUS
 10
5.9081207407
 20
2.8198552395
 11
5.9039429863
 21
2.8178343249
  0
SPLINE
  5
39C
100
AcDbEntity
  8
0
100
AcDbSpline
 62
7
  6
CONTINUOUS
 70
0
 71
3
 72
17
 73
13
 74
0
 42
0.0000001
 43
0.0000001
 44
0.0000000001
 40
0.0
 40
0.0
 40
0.0
 40
0.0
 40
0.0625013319
 40
0.1250053597
 40
0.2500019402
 40
0.3749998013
 40
0.4375008672
 40
0.5000016919
 40
0.6250005109
 40
0.7499998284
 40
0.8749997848
 40
1.0
 40
1.0
 40
1.0
 40
1.0
 10
5.8009310941
 20
2.2796430893
 30
0.0
 10
5.8015900251
 20
2.279164412
 30
0.0
 10
5.8028951765
 20
2.2781893858
 30
0.0
 10
5.8054581658
 20
2.2761780691
 30
0.0
 10
5.8085799598
 20
2.2735614569
 30
0.0
 10
5.8115996331
 20
2.2708282558
 30
0.0
 10
5.8139613008
 20
2.2685841842
 30
0.0
 10
5.8162895414
 20
2.2663054264
 30
0.0
 10
5.8191399442
 20
2.2633965312
 30
0.0
 10
5.8224725363
 20
2.2598221258
 30
0.0
 10
5.8257256667
 20
2.2561753504
 30
0.0
 10
5.8278463871
 20
2.2537021566
 30
0.0
 10
5.8288956025
 20
2.2524562308
 30
0.0
  0
SPLINE
  5
39D
100
AcDbEntity
  8
0
100
AcDbSpline
 62
7
  6
CONTINUOUS
 70
0
 71
3
 72
11
 73
7
 74
0
 42
0.0000001
 43
0.0000001
 44
0.0000000001
 40
0.0
 40
0.0
 40
0.0
 40
0.0
 40
0.2499907393
 40
0.499992797
 40
0.7500013997
 40
1.0
 40
1.0
 40
1.0
 40
1.0
 10
5.8179411654
 20
2.2392181988
 30
0.0
 10
5.8159693238
 20
2.241666212
 30
0.0
 10
5.8118699859
 20
2.2464389392
 30
0.0
 10
5.8053163572
 20
2.2532265906
 30
0.0
 10
5.7984110216
 20
2.259655332
 30
0.0
 10
5.7936053315
 20
2.2637131135
 30
0.0
 10
5.7911595589
 20
2.2656878907
 30
0.0
  0
SPLINE
  5
39E
100
AcDbEntity
  8
0
100
AcDbSpline
 62
7
  6
CONTINUOUS
 70
0
 71
3
 72
11
 73
7
 74
0
 42
0.0000001
 43
0.0000001
 44
0.0000000001
 40
0.0
 40
0.0
 40
0.0
 40
0.0
 40
0.2500004851
 40
0.5000007941
 40
0.7500004698
 40
1.0
 40
1.0
 40
1.0
 40
1.0
 10
5.8450170717
 20
2.1963631004
 30
0.0
 10
5.8431758708
 20
2.2001746926
 30
0.0
 10
5.839282199
 20
2.2076980152
 30
0.0
 10
5.8328111747
 20
2.2186324054
 30
0.0
 10
5.8257210362
 20
2.2291759706
 30
0.0
 10
5.8205965007
 20
2.235921638
 30
0.0
 10
5.8179411654
 20
2.2392181988
 30
0.0
  0
SPLINE
  5
39F
100
AcDbEntity
  8
0
100
AcDbSpline
 62
7
  6
CONTINUOUS
 70
0
 71
3
 72
16
 73
12
 74
0
 42
0.0000001
 43
0.0000001
 44
0.0000000001
 40
0.0
 40
0.0
 40
0.0
 40
0.0
 40
0.1249976998
 40
0.2499954698
 40
0.3749944475
 40
0.4374961082
 40
0.4999975488
 40
0.624997358
 40
0.7499977315
 40
0.874998725
 40
1.0
 40
1.0
 40
1.0
 40
1.0
 10
5.8602252693
 20
2.1544859757
 30
0.0
 10
5.8598456554
 20
2.156307617
 30
0.0
 10
5.8589942551
 20
2.1599321282
 30
0.0
 10
5.8574866849
 20
2.1653084561
 30
0.0
 10
5.8560611544
 20
2.169737771
 30
0.0
 10
5.8548347348
 20
2.1732516549
 30
0.0
 10
5.8535551925
 20
2.1767465817
 30
0.0
 10
5.8518606125
 20
2.1810797011
 30
0.0
 10
5.8496946416
 20
2.1862253773
 30
0.0
 10
5.8474144062
 20
2.1913213494
 30
0.0
 10
5.8458264651
 20
2.1946875216
 30
0.0
 10
5.8450170717
 20
2.1963631004
 30
0.0
  0
SPLINE
  5
3A0
100
AcDbEntity
  8
0
100
AcDbSpline
 62
7
  6
CONTINUOUS
 70
0
 71
3
 72
15
 73
11
 74
0
 42
0.0000001
 43
0.0000001
 44
0.0000000001
 40
0.0
 40
0.0
 40
0.0
 40
0.0
 40
0.1250008974
 40
0.2500018074
 40
0.3750020484
 40
0.5000019373
 40
0.6250016402
 40
0.7500012874
 40
0.875000545
 40
1.0
 40
1.0
 40
1.0
 40
1.0
 10
5.8546508633
 20
2.2134739699
 30
0.0
 10
5.8554580448
 20
2.2118861634
 30
0.0
 10
5.8570396049
 20
2.2086937326
 30
0.0
 10
5.8593056692
 20
2.2038539338
 30
0.0
 10
5.8614554812
 20
2.198961267
 30
0.0
 10
5.8634748294
 20
2.1940132286
 30
0.0
 10
5.8653519607
 20
2.1890094076
 30
0.0
 10
5.8670724555
 20
2.1839493932
 30
0.0
 10
5.8686181103
 20
2.1788331785
 30
0.0
 10
5.8695212674
 20
2.1753860917
 30
0.0
 10
5.8699371825
 20
2.1736541527
 30
0.0
  0
SPLINE
  5
3A1
100
AcDbEntity
  8
0
100
AcDbSpline
 62
7
  6
CONTINUOUS
 70
0
 71
3
 72
11
 73
7
 74
0
 42
0.0000001
 43
0.0000001
 44
0.0000000001
 40
0.0
 40
0.0
 40
0.0
 40
0.0
 40
0.2499989291
 40
0.4999982515
 40
0.7499989634
 40
1.0
 40
1.0
 40
1.0
 40
1.0
 10
5.8288956025
 20
2.2524562308
 30
0.0
 10
5.8314087657
 20
2.2494718914
 30
0.0
 10
5.8362620833
 20
2.2433549932
 30
0.0
 10
5.8429919611
 20
2.2337706394
 30
0.0
 10
5.849155609
 20
2.2238128642
 30
0.0
 10
5.8528827828
 20
2.2169519605
 30
0.0
 10
5.8546508633
 20
2.2134739699
 30
0.0
  0
SPLINE
  5
3A2
100
AcDbEntity
  8
0
100
AcDbSpline
 62
7
  6
CONTINUOUS
 70
0
 71
3
 72
14
 73
10
 74
0
 42
0.0000001
 43
0.0000001
 44
0.0000000001
 40
0.0
 40
0.0
 40
0.0
 40
0.0
 40
0.2499311978
 40
0.3749443768
 40
0.4999566225
 40
0.624969476
 40
0.7499795218
 40
0.8750006861
 40
1.0
 40
1.0
 40
1.0
 40
1.0
 10
5.7941375956
 20
2.1458021849
 30
0.0
 10
5.7942549627
 20
2.1469599106
 30
0.0
 10
5.7943425778
 20
2.1487080367
 30
0.0
 10
5.7942560804
 20
2.1510352495
 30
0.0
 10
5.7940837033
 20
2.1527741062
 30
0.0
 10
5.7937992494
 20
2.1544981828
 30
0.0
 10
5.7933992557
 20
2.1561993539
 30
0.0
 10
5.7928825699
 20
2.1578686831
 30
0.0
 10
5.7924607652
 20
2.158954871
 30
0.0
 10
5.7922311186
 20
2.1594896336
 30
0.0
  0
SPLINE
  5
3A3
100
AcDbEntity
  8
0
100
AcDbSpline
 62
7
  6
CONTINUOUS
 70
0
 71
3
 72
11
 73
7
 74
0
 42
0.0000001
 43
0.0000001
 44
0.0000000001
 40
0.0
 40
0.0
 40
0.0
 40
0.0
 40
0.25002058
 40
0.5000230199
 40
0.7500126582
 40
1.0
 40
1.0
 40
1.0
 40
1.0
 10
5.7888399717
 20
2.1318485723
 30
0.0
 10
5.7895608337
 20
2.1328780699
 30
0.0
 10
5.7908867941
 20
2.1350213972
 30
0.0
 10
5.792466598
 20
2.1384553764
 30
0.0
 10
5.7935893923
 20
2.1420653055
 30
0.0
 10
5.7940108527
 20
2.1445519755
 30
0.0
 10
5.7941375956
 20
2.1458021849
 30
0.0
  0
SPLINE
  5
3A4
100
AcDbEntity
  8
0
100
AcDbSpline
 62
7
  6
CONTINUOUS
 70
0
 71
3
 72
15
 73
11
 74
0
 42
0.0000001
 43
0.0000001
 44
0.0000000001
 40
0.0
 40
0.0
 40
0.0
 40
0.0
 40
0.1249961448
 40
0.2499886878
 40
0.3749836705
 40
0.4999798984
 40
0.6249822104
 40
0.7499854692
 40
0.8749939124
 40
1.0
 40
1.0
 40
1.0
 40
1.0
 10
5.7701841601
 20
2.1195332296
 30
0.0
 10
5.771129461
 20
2.1196874964
 30
0.0
 10
5.7730061781
 20
2.1200909498
 30
0.0
 10
5.7757401271
 20
2.1209931448
 30
0.0
 10
5.7783567369
 20
2.1221951649
 30
0.0
 10
5.7808231762
 20
2.1236807671
 30
0.0
 10
5.7831144166
 20
2.1254235869
 30
0.0
 10
5.7852193692
 20
2.1273863904
 30
0.0
 10
5.7871341532
 20
2.1295338053
 30
0.0
 10
5.7882905532
 20
2.1310639212
 30
0.0
 10
5.7888399717
 20
2.1318485723
 30
0.0
  0
SPLINE
  5
3A5
100
AcDbEntity
  8
0
100
AcDbSpline
 62
7
  6
CONTINUOUS
 70
0
 71
3
 72
16
 73
12
 74
0
 42
0.0000001
 43
0.0000001
 44
0.0000000001
 40
0.0
 40
0.0
 40
0.0
 40
0.0
 40
0.1250070929
 40
0.2500117454
 40
0.3750116996
 40
0.5000064239
 40
0.6249952214
 40
0.7499808559
 40
0.8124967874
 40
0.875014191
 40
1.0
 40
1.0
 40
1.0
 40
1.0
 10
5.747263668
 20
2.1257738322
 30
0.0
 10
5.7480956877
 20
2.1251912458
 30
0.0
 10
5.7497965052
 20
2.1240774466
 30
0.0
 10
5.7524575187
 20
2.1225873381
 30
0.0
 10
5.7552313801
 20
2.1213175411
 30
0.0
 10
5.7581090113
 20
2.1203022534
 30
0.0
 10
5.7610753425
 20
2.1195830072
 30
0.0
 10
5.763599523
 20
2.1192584752
 30
0.0
 10
5.7656303089
 20
2.119174728
 30
0.0
 10
5.7676623058
 20
2.1192098955
 30
0.0
 10
5.7691818833
 20
2.1193696647
 30
0.0
 10
5.7701841601
 20
2.1195332296
 30
0.0
  0
SPLINE
  5
3A6
100
AcDbEntity
  8
0
100
AcDbSpline
 62
7
  6
CONTINUOUS
 70
0
 71
3
 72
16
 73
12
 74
0
 42
0.0000001
 43
0.0000001
 44
0.0000000001
 40
0.0
 40
0.0
 40
0.0
 40
0.0
 40
0.1249867123
 40
0.1875028364
 40
0.2500175864
 40
0.375005023
 40
0.4999951032
 40
0.6249901688
 40
0.7499898441
 40
0.8749936717
 40
1.0
 40
1.0
 40
1.0
 40
1.0
 10
5.7323743247
 20
2.1462890179
 30
0.0
 10
5.7326085366
 20
2.1452333716
 30
0.0
 10
5.7330480892
 20
2.1436673044
 30
0.0
 10
5.7338054577
 20
2.1416403511
 30
0.0
 10
5.7346749543
 20
2.1396586656
 30
0.0
 10
5.7359643669
 20
2.1372759784
 30
0.0
 10
5.7378006819
 20
2.1345951747
 30
0.0
 10
5.7398863028
 20
2.1321043398
 30
0.0
 10
5.7421786478
 20
2.1298033797
 30
0.0
 10
5.7446432461
 20
2.1276891966
 30
0.0
 10
5.7463777668
 20
2.1263941469
 30
0.0
 10
5.747263668
 20
2.1257738322
 30
0.0
  0
SPLINE
  5
3A7
100
AcDbEntity
  8
0
100
AcDbSpline
 62
7
  6
CONTINUOUS
 70
0
 71
3
 72
15
 73
11
 74
0
 42
0.0000001
 43
0.0000001
 44
0.0000000001
 40
0.0
 40
0.0
 40
0.0
 40
0.0
 40
0.1250053825
 40
0.2500073059
 40
0.3750026406
 40
0.4999963856
 40
0.6249910542
 40
0.7499876836
 40
0.8749927536
 40
1.0
 40
1.0
 40
1.0
 40
1.0
 10
5.7366323951
 20
2.1680674637
 30
0.0
 10
5.7360856753
 20
2.1672866669
 30
0.0
 10
5.735061772
 20
2.1656747635
 30
0.0
 10
5.7337715652
 20
2.1631174542
 30
0.0
 10
5.7327626063
 20
2.1604358153
 30
0.0
 10
5.7320588274
 20
2.1576581773
 30
0.0
 10
5.7316748638
 20
2.1548186896
 30
0.0
 10
5.73160524
 20
2.1519545704
 30
0.0
 10
5.7318348807
 20
2.1490997072
 30
0.0
 10
5.7321678645
 20
2.1472195809
 30
0.0
 10
5.7323743247
 20
2.1462890179
 30
0.0
  0
SPLINE
  5
3A8
100
AcDbEntity
  8
0
100
AcDbSpline
 62
7
  6
CONTINUOUS
 70
0
 71
3
 72
15
 73
11
 74
0
 42
0.0000001
 43
0.0000001
 44
0.0000000001
 40
0.0
 40
0.0
 40
0.0
 40
0.0
 40
0.1249988143
 40
0.2499966172
 40
0.3749951976
 40
0.49999385
 40
0.6249941777
 40
0.7499948185
 40
0.8749976265
 40
1.0
 40
1.0
 40
1.0
 40
1.0
 10
5.751608836
 20
2.1783781371
 30
0.0
 10
5.750853063
 20
2.1782043371
 30
0.0
 10
5.7493558628
 20
2.1777900728
 30
0.0
 10
5.7471775451
 20
2.1769633937
 30
0.0
 10
5.7450901505
 20
2.175927461
 30
0.0
 10
5.7431149918
 20
2.1746909382
 30
0.0
 10
5.7412706587
 20
2.1732669064
 30
0.0
 10
5.7395681972
 20
2.1716763483
 30
0.0
 10
5.7380151797
 20
2.1699403345
 30
0.0
 10
5.737077216
 20
2.1687027337
 30
0.0
 10
5.7366323951
 20
2.1680674637
 30
0.0
  0
SPLINE
  5
3A9
100
AcDbEntity
  8
0
100
AcDbSpline
 62
7
  6
CONTINUOUS
 70
0
 71
3
 72
15
 73
11
 74
0
 42
0.0000001
 43
0.0000001
 44
0.0000000001
 40
0.0
 40
0.0
 40
0.0
 40
0.0
 40
0.1250125068
 40
0.2500228917
 40
0.3750286299
 40
0.5000307208
 40
0.6250279665
 40
0.7500234735
 40
0.8750113869
 40
1.0
 40
1.0
 40
1.0
 40
1.0
 10
5.772422462
 20
2.174708813
 30
0.0
 10
5.771617736
 20
2.1751073631
 30
0.0
 10
5.7699886539
 20
2.1758656017
 30
0.0
 10
5.7674876666
 20
2.1768707442
 30
0.0
 10
5.764927723
 20
2.1777163976
 30
0.0
 10
5.7623122056
 20
2.1783723661
 30
0.0
 10
5.7596504628
 20
2.1788088933
 30
0.0
 10
5.7569578558
 20
2.1789868437
 30
0.0
 10
5.7542612223
 20
2.1788708723
 30
0.0
 10
5.7524838383
 20
2.1785793554
 30
0.0
 10
5.751608836
 20
2.1783781371
 30
0.0
  0
SPLINE
  5
3AA
100
AcDbEntity
  8
0
100
AcDbSpline
 62
7
  6
CONTINUOUS
 70
0
 71
3
 72
15
 73
11
 74
0
 42
0.0000001
 43
0.0000001
 44
0.0000000001
 40
0.0
 40
0.0
 40
0.0
 40
0.0
 40
0.1249967927
 40
0.2499904845
 40
0.3749861261
 40
0.4999829331
 40
0.6249846325
 40
0.7499873729
 40
0.8749945884
 40
1.0
 40
1.0
 40
1.0
 40
1.0
 10
5.751180691
 20
2.1946692241
 30
0.0
 10
5.7524434469
 20
2.1949707545
 30
0.0
 10
5.7549995959
 20
2.1954537074
 30
0.0
 10
5.7588865248
 20
2.1957887647
 30
0.0
 10
5.7627877574
 20
2.1957177319
 30
0.0
 10
5.7666605343
 20
2.1952443007
 30
0.0
 10
5.7704658526
 20
2.1943855171
 30
0.0
 10
5.7741736197
 20
2.193175136
 30
0.0
 10
5.7777617102
 20
2.1916487885
 30
0.0
 10
5.7800680098
 20
2.190449651
 30
0.0
 10
5.781198341
 20
2.1898108578
 30
0.0
  0
SPLINE
  5
3AB
100
AcDbEntity
  8
0
100
AcDbSpline
 62
7
  6
CONTINUOUS
 70
0
 71
3
 72
18
 73
14
 74
0
 42
0.0000001
 43
0.0000001
 44
0.0000000001
 40
0.0
 40
0.0
 40
0.0
 40
0.0
 40
0.1249953861
 40
0.249992891
 40
0.3125003355
 40
0.3750100761
 40
0.437520974
 40
0.5000317418
 40
0.5625421279
 40
0.6250538767
 40
0.7500366184
 40
0.875016507
 40
1.0
 40
1.0
 40
1.0
 40
1.0
 10
5.725468236
 20
2.175884692
 30
0.0
 10
5.7262467335
 20
2.1769965017
 30
0.0
 10
5.7278722136
 20
2.1791731882
 30
0.0
 10
5.7300852355
 20
2.1817498234
 30
0.0
 10
5.731971745
 20
2.183702967
 30
0.0
 10
5.7334460007
 20
2.1851085047
 30
0.0
 10
5.7349795021
 20
2.1864492707
 30
0.0
 10
5.7365720596
 20
2.1877194344
 30
0.0
 10
5.7382233745
 20
2.1889124537
 30
0.0
 10
5.7405004445
 20
2.1903920886
 30
0.0
 10
5.7434841983
 20
2.1920217533
 30
0.0
 10
5.7472512756
 20
2.1935853611
 30
0.0
 10
5.7498606631
 20
2.1943540179
 30
0.0
 10
5.751180691
 20
2.1946692241
 30
0.0
  0
SPLINE
  5
3AC
100
AcDbEntity
  8
0
100
AcDbSpline
 62
7
  6
CONTINUOUS
 70
0
 71
3
 72
22
 73
18
 74
0
 42
0.0000001
 43
0.0000001
 44
0.0000000001
 40
0.0
 40
0.0
 40
0.0
 40
0.0
 40
0.1249591278
 40
0.187461062
 40
0.2499648436
 40
0.3124681895
 40
0.3749697299
 40
0.4374709258
 40
0.4999720599
 40
0.5624739007
 40
0.6249769161
 40
0.6874818509
 40
0.7499874394
 40
0.8124924231
 40
0.8749957558
 40
0.9375013402
 40
1.0
 40
1.0
 40
1.0
 40
1.0
 10
5.718515334
 20
2.1374278428
 30
0.0
 10
5.7180357301
 20
2.139046644
 30
0.0
 10
5.7174404246
 20
2.141515274
 30
0.0
 10
5.7169307429
 20
2.1448553689
 30
0.0
 10
5.7166982516
 20
2.1473798097
 30
0.0
 10
5.7166202737
 20
2.1499136714
 30
0.0
 10
5.716700623
 20
2.1524475229
 30
0.0
 10
5.7169409443
 20
2.1549712052
 30
0.0
 10
5.7173396299
 20
2.1574747309
 30
0.0
 10
5.7178929258
 20
2.1599486489
 30
0.0
 10
5.7185952506
 20
2.1623844194
 30
0.0
 10
5.7194391959
 20
2.1647747367
 30
0.0
 10
5.7204151903
 20
2.1671141297
 30
0.0
 10
5.7215143189
 20
2.1693981092
 30
0.0
 10
5.7227274941
 20
2.1716234654
 30
0.0
 10
5.7240437033
 20
2.1737891611
 30
0.0
 10
5.7249838881
 20
2.1751929716
 30
0.0
 10
5.725468236
 20
2.175884692
 30
0.0
  0
SPLINE
  5
3AD
100
AcDbEntity
  8
0
100
AcDbSpline
 62
7
  6
CONTINUOUS
 70
0
 71
3
 72
14
 73
10
 74
0
 42
0.0000001
 43
0.0000001
 44
0.0000000001
 40
0.0
 40
0.0
 40
0.0
 40
0.0
 40
0.249878589
 40
0.3749011988
 40
0.4999229842
 40
0.6249425826
 40
0.7499617248
 40
0.874980086
 40
1.0
 40
1.0
 40
1.0
 40
1.0
 10
5.7383821481
 20
2.1105209166
 30
0.0
 10
5.7360558313
 20
2.1121498211
 30
0.0
 10
5.7327237525
 20
2.1148386348
 30
0.0
 10
5.728758509
 20
2.1189148776
 30
0.0
 10
5.7260517867
 20
2.122215222
 30
0.0
 10
5.7236482903
 20
2.1257424422
 30
0.0
 10
5.7215722465
 20
2.1294720691
 30
0.0
 10
5.7198410652
 20
2.1333732132
 30
0.0
 10
5.7189189552
 20
2.1360655056
 30
0.0
 10
5.718515334
 20
2.1374278428
 30
0.0
  0
SPLINE
  5
3AE
100
AcDbEntity
  8
0
100
AcDbSpline
 62
7
  6
CONTINUOUS
 70
0
 71
3
 72
17
 73
13
 74
0
 42
0.0000001
 43
0.0000001
 44
0.0000000001
 40
0.0
 40
0.0
 40
0.0
 40
0.0
 40
0.1250078585
 40
0.2500048039
 40
0.3749948135
 40
0.4999807451
 40
0.6249674374
 40
0.7499577442
 40
0.8124692858
 40
0.8749793167
 40
0.9374916432
 40
1.0
 40
1.0
 40
1.0
 40
1.0
 10
5.7711469387
 20
2.1024459899
 30
0.0
 10
5.7697238067
 20
2.1021992077
 30
0.0
 10
5.7668509316
 20
2.1018459028
 30
0.0
 10
5.7625106909
 20
2.1017725335
 30
0.0
 10
5.7581878492
 20
2.1021725675
 30
0.0
 10
5.7539347091
 20
2.1030405658
 30
0.0
 10
5.7497973069
 20
2.1043505889
 30
0.0
 10
5.7464735192
 20
2.1057753312
 30
0.0
 10
5.7439002542
 20
2.1070894729
 30
0.0
 10
5.7420139707
 20
2.1081571441
 30
0.0
 10
5.7401721105
 20
2.1092993607
 30
0.0
 10
5.7389737695
 20
2.1101066588
 30
0.0
 10
5.7383821481
 20
2.1105209166
 30
0.0
  0
SPLINE
  5
3AF
100
AcDbEntity
  8
0
100
AcDbSpline
 62
7
  6
CONTINUOUS
 70
0
 71
3
 72
15
 73
11
 74
0
 42
0.0000001
 43
0.0000001
 44
0.0000000001
 40
0.0
 40
0.0
 40
0.0
 40
0.0
 40
0.1250066125
 40
0.2500109822
 40
0.3750085327
 40
0.5000038585
 40
0.6249983546
 40
0.7499942577
 40
0.8749954605
 40
1.0
 40
1.0
 40
1.0
 40
1.0
 10
5.7982985845
 20
2.1198295256
 30
0.0
 10
5.7975067491
 20
2.1186986673
 30
0.0
 10
5.7958288505
 20
2.1165009015
 30
0.0
 10
5.7930230722
 20
2.1134465756
 30
0.0
 10
5.7899294626
 20
2.1106825296
 30
0.0
 10
5.786564738
 20
2.1082550566
 30
0.0
 10
5.7829601678
 20
2.1062002937
 30
0.0
 10
5.7791586168
 20
2.1045386072
 30
0.0
 10
5.7752088014
 20
2.1032722574
 30
0.0
 10
5.7725071395
 20
2.1026818594
 30
0.0
 10
5.7711469387
 20
2.1024459899
 30
0.0
  0
SPLINE
  5
3B0
100
AcDbEntity
  8
0
100
AcDbSpline
 62
7
  6
CONTINUOUS
 70
0
 71
3
 72
14
 73
10
 74
0
 42
0.0000001
 43
0.0000001
 44
0.0000000001
 40
0.0
 40
0.0
 40
0.0
 40
0.0
 40
0.1250269842
 40
0.2500537485
 40
0.4999119606
 40
0.6249337307
 40
0.7499560909
 40
0.8749777987
 40
1.0
 40
1.0
 40
1.0
 40
1.0
 10
5.8059713891
 20
2.1473688174
 30
0.0
 10
5.8060015384
 20
2.146157226
 30
0.0
 10
5.8059898081
 20
2.1437312989
 30
0.0
 10
5.8056550515
 20
2.1388947686
 30
0.0
 10
5.8047963062
 20
2.1341016747
 30
0.0
 10
5.8033542243
 20
2.1294702417
 30
0.0
 10
5.8019740432
 20
2.1261012141
 30
0.0
 10
5.8002981652
 20
2.1228695535
 30
0.0
 10
5.7989937133
 20
2.1208222724
 30
0.0
 10
5.7982985845
 20
2.1198295256
 30
0.0
  0
SPLINE
  5
3B1
100
AcDbEntity
  8
0
100
AcDbSpline
 62
2
  6
CONTINUOUS
 70
0
 71
3
 72
11
 73
7
 74
0
 42
0.0000001
 43
0.0000001
 44
0.0000000001
 40
0.0
 40
0.0
 40
0.0
 40
0.0
 40
0.249995258
 40
0.5000207258
 40
0.7500095024
 40
1.0
 40
1.0
 40
1.0
 40
1.0
 10
5.734513668
 20
2.1677738322
 30
0.0
 10
5.7336802513
 20
2.1683573969
 30
0.0
 10
5.7320459501
 20
2.1695722472
 30
0.0
 10
5.729715927
 20
2.1715475513
 30
0.0
 10
5.7275332623
 20
2.173685184
 30
0.0
 10
5.7261964244
 20
2.1752230378
 30
0.0
 10
5.7255635792
 20
2.1760196547
 30
0.0
  0
SPLINE
  5
3B2
100
AcDbEntity
  8
0
100
AcDbSpline
 62
2
  6
CONTINUOUS
 70
0
 71
3
 72
9
 73
5
 74
0
 42
0.0000001
 43
0.0000001
 44
0.0000000001
 40
0.0
 40
0.0
 40
0.0
 40
0.0
 40
0.4999907287
 40
1.0
 40
1.0
 40
1.0
 40
1.0
 10
5.71772799
 20
2.1591696196
 30
0.0
 10
5.7189364941
 20
2.1579412194
 30
0.0
 10
5.7214774812
 20
2.1556037752
 30
0.0
 10
5.7242205255
 20
2.1535093454
 30
0.0
 10
5.7256321481
 20
2.1525209166
 30
0.0
  0
SPLINE
  5
3B3
100
AcDbEntity
  8
0
100
AcDbSpline
 62
2
  6
CONTINUOUS
 70
0
 71
3
 72
9
 73
5
 74
0
 42
0.0000001
 43
0.0000001
 44
0.0000000001
 40
0.0
 40
0.0
 40
0.0
 40
0.0
 40
0.4999795683
 40
1.0
 40
1.0
 40
1.0
 40
1.0
 10
5.7256321481
 20
2.1525209166
 30
0.0
 10
5.7266397905
 20
2.1518153578
 30
0.0
 10
5.7286986419
 20
2.1504650833
 30
0.0
 10
5.7308442293
 20
2.1492562527
 30
0.0
 10
5.7319376519
 20
2.1486924878
 30
0.0
  0
SPLINE
  5
3B4
100
AcDbEntity
  8
0
100
AcDbSpline
 62
2
  6
CONTINUOUS
 70
0
 71
3
 72
16
 73
12
 74
0
 42
0.0000001
 43
0.0000001
 44
0.0000000001
 40
0.0
 40
0.0
 40
0.0
 40
0.0
 40
0.124993797
 40
0.2499951486
 40
0.3749987213
 40
0.4999996312
 40
0.6249961318
 40
0.7499951475
 40
0.8124989129
 40
0.8750074351
 40
1.0
 40
1.0
 40
1.0
 40
1.0
 10
5.8322670717
 20
2.2383631004
 30
0.0
 10
5.8330764192
 20
2.2366876166
 30
0.0
 10
5.8346651722
 20
2.2333219342
 30
0.0
 10
5.8369453482
 20
2.2282259675
 30
0.0
 10
5.8391100321
 20
2.2230796377
 30
0.0
 10
5.8411435166
 20
2.2178799756
 30
0.0
 10
5.8430260463
 20
2.2126236916
 30
0.0
 10
5.8444511528
 20
2.208194221
 30
0.0
 10
5.845490465
 20
2.2046202334
 30
0.0
 10
5.8464578583
 20
2.201026306
 30
0.0
 10
5.8470956698
 20
2.1983075479
 30
0.0
 10
5.8474752693
 20
2.1964859757
 30
0.0
  0
SPLINE
  5
3B5
100
AcDbEntity
  8
0
100
AcDbSpline
 62
2
  6
CONTINUOUS
 70
0
 71
3
 72
11
 73
7
 74
0
 42
0.0000001
 43
0.0000001
 44
0.0000000001
 40
0.0
 40
0.0
 40
0.0
 40
0.0
 40
0.2499909646
 40
0.4999856411
 40
0.7499834362
 40
1.0
 40
1.0
 40
1.0
 40
1.0
 10
5.9544913733
 20
2.8268913366
 30
0.0
 10
5.9547563357
 20
2.8281740546
 30
0.0
 10
5.9551569078
 20
2.8307682198
 30
0.0
 10
5.9553616777
 20
2.8346986481
 30
0.0
 10
5.9551806114
 20
2.838629918
 30
0.0
 10
5.9548176964
 20
2.8412285235
 30
0.0
 10
5.9545810592
 20
2.8425169043
 30
0.0
  0
SPLINE
  5
3B6
100
AcDbEntity
  8
0
100
AcDbSpline
 62
2
  6
CONTINUOUS
 70
0
 71
3
 72
15
 73
11
 74
0
 42
0.0000001
 43
0.0000001
 44
0.0000000001
 40
0.0
 40
0.0
 40
0.0
 40
0.0
 40
0.124997312
 40
0.2500007739
 40
0.3750013791
 40
0.5000000305
 40
0.6249996506
 40
0.7499934696
 40
0.8750070608
 40
1.0
 40
1.0
 40
1.0
 40
1.0
 10
5.9394648177
 20
2.841374195
 30
0.0
 10
5.9395428183
 20
2.8406484306
 30
0.0
 10
5.9396488033
 20
2.8391908907
 30
0.0
 10
5.939644728
 20
2.8369989288
 30
0.0
 10
5.9394671789
 20
2.834813804
 30
0.0
 10
5.939109421
 20
2.8326507329
 30
0.0
 10
5.9385692906
 20
2.8305258101
 30
0.0
 10
5.9378500541
 20
2.8284545612
 30
0.0
 10
5.9369603333
 20
2.8264509733
 30
0.0
 10
5.9362616775
 20
2.8251670453
 30
0.0
 10
5.9358886788
 20
2.8245396278
 30
0.0
  0
SPLINE
  5
3B7
100
AcDbEntity
  8
0
100
AcDbSpline
 62
2
  6
CONTINUOUS
 70
0
 71
3
 72
11
 73
7
 74
0
 42
0.0000001
 43
0.0000001
 44
0.0000000001
 40
0.0
 40
0.0
 40
0.0
 40
0.0
 40
0.2500330859
 40
0.500019322
 40
0.7500115854
 40
1.0
 40
1.0
 40
1.0
 40
1.0
 10
5.8891501388
 20
2.8138690135
 30
0.0
 10
5.8884129509
 20
2.814320473
 30
0.0
 10
5.8869760731
 20
2.8152863623
 30
0.0
 10
5.8849632098
 20
2.8169271151
 30
0.0
 10
5.8831205171
 20
2.8187572049
 30
0.0
 10
5.8820221824
 20
2.8200966375
 30
0.0
 10
5.8815091085
 20
2.8207921588
 30
0.0
  0
SPLINE
  5
3B8
100
AcDbEntity
  8
0
100
AcDbSpline
 62
2
  6
CONTINUOUS
 70
0
 71
3
 72
13
 73
9
 74
0
 42
0.0000001
 43
0.0000001
 44
0.0000000001
 40
0.0
 40
0.0
 40
0.0
 40
0.0
 40
0.1250061546
 40
0.2500263575
 40
0.3750417633
 40
0.5000606671
 40
0.7500215684
 40
1.0
 40
1.0
 40
1.0
 40
1.0
 10
5.8813811739
 20
2.8519917596
 30
0.0
 10
5.8818326547
 20
2.8525526801
 30
0.0
 10
5.8827866115
 20
2.8536344478
 30
0.0
 10
5.8843450851
 20
2.8551333762
 30
0.0
 10
5.8860101167
 20
2.8565127536
 30
0.0
 10
5.8883460686
 20
2.8582002734
 30
0.0
 10
5.8914449003
 20
2.8600465597
 30
0.0
 10
5.8940484059
 20
2.8612853836
 30
0.0
 10
5.8953707407
 20
2.8618552395
 30
0.0
  0
SPLINE
  5
3B9
100
AcDbEntity
  8
0
100
AcDbSpline
 62
2
  6
CONTINUOUS
 70
0
 71
3
 72
11
 73
7
 74
0
 42
0.0000001
 43
0.0000001
 44
0.0000000001
 40
0.0
 40
0.0
 40
0.0
 40
0.0
 40
0.2499952838
 40
0.4999873008
 40
0.749983129
 40
1.0
 40
1.0
 40
1.0
 40
1.0
 10
5.8753791093
 20
2.870210532
 30
0.0
 10
5.8744644978
 20
2.8694233809
 30
0.0
 10
5.8727076013
 20
2.8677625499
 30
0.0
 10
5.87032487
 20
2.8650299066
 30
0.0
 10
5.8682168324
 20
2.8620801662
 30
0.0
 10
5.8670027215
 20
2.8599896608
 30
0.0
 10
5.8664438859
 20
2.8589200462
 30
0.0
  0
LINE
  5
3BA
100
AcDbEntity
  8
0
100
AcDbLine
 62
2
  6
CONTINUOUS
 10
5.866611612
 20
2.9114142921
 11
5.8627248037
 21
2.9132844715
  0
SPLINE
  5
3BB
100
AcDbEntity
  8
0
100
AcDbSpline
 62
2
  6
CONTINUOUS
 70
0
 71
3
 72
11
 73
7
 74
0
 42
0.0000001
 43
0.0000001
 44
0.0000000001
 40
0.0
 40
0.0
 40
0.0
 40
0.0
 40
0.2500093548
 40
0.5000075928
 40
0.7500010809
 40
1.0
 40
1.0
 40
1.0
 40
1.0
 10
5.8627248037
 20
2.9132844715
 30
0.0
 10
5.8618710655
 20
2.9137824951
 30
0.0
 10
5.8602146818
 20
2.9148698411
 30
0.0
 10
5.8579330923
 20
2.9167738886
 30
0.0
 10
5.8558942981
 20
2.9189361757
 30
0.0
 10
5.8547154956
 20
2.9205294173
 30
0.0
 10
5.8541736741
 20
2.9213560032
 30
0.0
  0
SPLINE
  5
3BC
100
AcDbEntity
  8
0
100
AcDbSpline
 62
2
  6
CONTINUOUS
 70
0
 71
3
 72
13
 73
9
 74
0
 42
0.0000001
 43
0.0000001
 44
0.0000000001
 40
0.0
 40
0.0
 40
0.0
 40
0.0
 40
0.1250276319
 40
0.2500560996
 40
0.3750836747
 40
0.5001125032
 40
0.7500459656
 40
1.0
 40
1.0
 40
1.0
 40
1.0
 10
5.9040590396
 20
2.9365728144
 30
0.0
 10
5.9040495808
 20
2.9360130398
 30
0.0
 10
5.9039961978
 20
2.9348937401
 30
0.0
 10
5.9038103213
 20
2.9332234099
 30
0.0
 10
5.9035180165
 20
2.9315682436
 30
0.0
 10
5.90298795
 20
2.9293916645
 30
0.0
 10
5.9020672186
 20
2.926741059
 30
0.0
 10
5.901080352
 20
2.9247255955
 30
0.0
 10
5.9005334695
 20
2.923749044
 30
0.0
  0
SPLINE
  5
3BD
100
AcDbEntity
  8
0
100
AcDbSpline
 62
2
  6
CONTINUOUS
 70
0
 71
3
 72
11
 73
7
 74
0
 42
0.0000001
 43
0.0000001
 44
0.0000000001
 40
0.0
 40
0.0
 40
0.0
 40
0.0
 40
0.2499912107
 40
0.4999826788
 40
0.7500224786
 40
1.0
 40
1.0
 40
1.0
 40
1.0
 10
5.9575561952
 20
2.949272306
 30
0.0
 10
5.9574468572
 20
2.9486720795
 30
0.0
 10
5.9571743726
 20
2.9474807283
 30
0.0
 10
5.9566100106
 20
2.9457371686
 30
0.0
 10
5.9559010604
 20
2.9440474842
 30
0.0
 10
5.9553410597
 20
2.9429617387
 30
0.0
 10
5.9550418484
 20
2.9424300823
 30
0.0
  0
SPLINE
  5
3BE
100
AcDbEntity
  8
0
100
AcDbSpline
 62
2
  6
CONTINUOUS
 70
0
 71
3
 72
15
 73
11
 74
0
 42
0.0000001
 43
0.0000001
 44
0.0000000001
 40
0.0
 40
0.0
 40
0.0
 40
0.0
 40
0.1249866578
 40
0.2500085105
 40
0.3750072538
 40
0.5000010733
 40
0.6250004442
 40
0.7500005072
 40
0.8749915129
 40
1.0
 40
1.0
 40
1.0
 40
1.0
 10
5.9550418484
 20
2.9424300823
 30
0.0
 10
5.9547573495
 20
2.9419245676
 30
0.0
 10
5.9541521803
 20
2.9409331307
 30
0.0
 10
5.9531330515
 20
2.9395200934
 30
0.0
 10
5.9520008719
 20
2.9381954243
 30
0.0
 10
5.9507583083
 20
2.9369736552
 30
0.0
 10
5.9494123771
 20
2.9358666724
 30
0.0
 10
5.94797326
 20
2.9348839344
 30
0.0
 10
5.9464545216
 20
2.9340298493
 30
0.0
 10
5.9453982243
 20
2.9335462587
 30
0.0
 10
5.9448617252
 20
2.9333254171
 30
0.0
  0
SPLINE
  5
3BF
100
AcDbEntity
  8
0
100
AcDbSpline
 62
2
  6
CONTINUOUS
 70
0
 71
3
 72
15
 73
11
 74
0
 42
0.0000001
 43
0.0000001
 44
0.0000000001
 40
0.0
 40
0.0
 40
0.0
 40
0.0
 40
0.1250106742
 40
0.2500205005
 40
0.3750087132
 40
0.5000038302
 40
0.6249994232
 40
0.7499888741
 40
0.8750057545
 40
1.0
 40
1.0
 40
1.0
 40
1.0
 10
5.9414921246
 20
2.9322254437
 30
0.0
 10
5.9408426488
 20
2.9320640626
 30
0.0
 10
5.9395294055
 20
2.9317953421
 30
0.0
 10
5.9375309828
 20
2.9315751651
 30
0.0
 10
5.9355201414
 20
2.9315535355
 30
0.0
 10
5.9335177188
 20
2.9317396215
 30
0.0
 10
5.9315457043
 20
2.9321337023
 30
0.0
 10
5.9296241713
 20
2.9327263599
 30
0.0
 10
5.9277689644
 20
2.9335005598
 30
0.0
 10
5.9265825169
 20
2.9341239106
 30
0.0
 10
5.9260030268
 20
2.9344584792
 30
0.0
  0
SPLINE
  5
3C0
100
AcDbEntity
  8
0
100
AcDbSpline
 62
2
  6
CONTINUOUS
 70
0
 71
3
 72
9
 73
5
 74
0
 42
0.0000001
 43
0.0000001
 44
0.0000000001
 40
0.0
 40
0.0
 40
0.0
 40
0.0
 40
0.4999894938
 40
1.0
 40
1.0
 40
1.0
 40
1.0
 10
5.9260030268
 20
2.9344584792
 30
0.0
 10
5.9253259845
 20
2.9348493695
 30
0.0
 10
5.9240144258
 20
2.9357077805
 30
0.0
 10
5.9228142697
 20
2.9367167941
 30
0.0
 10
5.9222475738
 20
2.9372553928
 30
0.0
  0
SPLINE
  5
3C1
100
AcDbEntity
  8
0
100
AcDbSpline
 62
2
  6
CONTINUOUS
 70
0
 71
3
 72
11
 73
7
 74
0
 42
0.0000001
 43
0.0000001
 44
0.0000000001
 40
0.0
 40
0.0
 40
0.0
 40
0.0
 40
0.2499929018
 40
0.4999901489
 40
0.7500248705
 40
1.0
 40
1.0
 40
1.0
 40
1.0
 10
5.8482628966
 20
2.9057191158
 30
0.0
 10
5.8488898321
 20
2.9050517234
 30
0.0
 10
5.8501902457
 20
2.9037597514
 30
0.0
 10
5.8522712462
 20
2.90196297
 30
0.0
 10
5.8544723068
 20
2.9003156312
 30
0.0
 10
5.8560114941
 20
2.8993201184
 30
0.0
 10
5.8567964257
 20
2.8988487121
 30
0.0
  0
LINE
  5
3C2
100
AcDbEntity
  8
0
100
AcDbLine
 62
2
  6
CONTINUOUS
 10
5.8567964257
 20
2.8988487121
 11
5.8619790452
 21
2.8961812849
  0
SPLINE
  5
3C3
100
AcDbEntity
  8
0
100
AcDbSpline
 62
2
  6
CONTINUOUS
 70
0
 71
3
 72
11
 73
7
 74
0
 42
0.0000001
 43
0.0000001
 44
0.0000000001
 40
0.0
 40
0.0
 40
0.0
 40
0.0
 40
0.2499739114
 40
0.4999612731
 40
0.7499693561
 40
1.0
 40
1.0
 40
1.0
 40
1.0
 10
5.9111727531
 20
2.9127001885
 30
0.0
 10
5.9117226062
 20
2.9138272006
 30
0.0
 10
5.9126938329
 20
2.9161461936
 30
0.0
 10
5.9137732239
 20
2.9197565158
 30
0.0
 10
5.9145055871
 20
2.9234520448
 30
0.0
 10
5.9147872563
 20
2.9259475284
 30
0.0
 10
5.9148828716
 20
2.9271981547
 30
0.0
  0
SPLINE
  5
3C4
100
AcDbEntity
  8
0
100
AcDbSpline
 62
2
  6
CONTINUOUS
 70
0
 71
3
 72
11
 73
7
 74
0
 42
0.0000001
 43
0.0000001
 44
0.0000000001
 40
0.0
 40
0.0
 40
0.0
 40
0.0
 40
0.2500030024
 40
0.5000067426
 40
0.7499894757
 40
1.0
 40
1.0
 40
1.0
 40
1.0
 10
5.9187464553
 20
2.9234602835
 30
0.0
 10
5.9194261952
 20
2.9227556218
 30
0.0
 10
5.9208442853
 20
2.921401151
 30
0.0
 10
5.9231496881
 20
2.9195738988
 30
0.0
 10
5.9256305656
 20
2.9179915285
 30
0.0
 10
5.9273929416
 20
2.9171265475
 30
0.0
 10
5.9282955891
 20
2.916747233
 30
0.0
  0
SPLINE
  5
3C5
100
AcDbEntity
  8
0
100
AcDbSpline
 62
2
  6
CONTINUOUS
 70
0
 71
3
 72
9
 73
5
 74
0
 42
0.0000001
 43
0.0000001
 44
0.0000000001
 40
0.0
 40
0.0
 40
0.0
 40
0.0
 40
0.5000294349
 40
1.0
 40
1.0
 40
1.0
 40
1.0
 10
5.964131508
 20
2.9274805074
 30
0.0
 10
5.9647761924
 20
2.9283026345
 30
0.0
 10
5.9659916574
 20
2.9300058578
 30
0.0
 10
5.9670595105
 20
2.9318046206
 30
0.0
 10
5.9675578461
 20
2.932722725
 30
0.0
  0
SPLINE
  5
3C6
100
AcDbEntity
  8
0
100
AcDbSpline
 62
2
  6
CONTINUOUS
 70
0
 71
3
 72
11
 73
7
 74
0
 42
0.0000001
 43
0.0000001
 44
0.0000000001
 40
0.0
 40
0.0
 40
0.0
 40
0.0
 40
0.2499941579
 40
0.4999791537
 40
0.7500069691
 40
1.0
 40
1.0
 40
1.0
 40
1.0
 10
4.4522409085
 20
3.0255746938
 30
0.0
 10
4.4522749294
 20
3.0247567999
 30
0.0
 10
4.4522634592
 20
3.0231166805
 30
0.0
 10
4.4520138205
 20
3.0206701355
 30
0.0
 10
4.4515452231
 20
3.0182562765
 30
0.0
 10
4.4510990101
 20
3.0166788094
 30
0.0
 10
4.4508460495
 20
3.0159002769
 30
0.0
  0
SPLINE
  5
3C7
100
AcDbEntity
  8
0
100
AcDbSpline
 62
2
  6
CONTINUOUS
 70
0
 71
3
 72
11
 73
7
 74
0
 42
0.0000001
 43
0.0000001
 44
0.0000000001
 40
0.0
 40
0.0
 40
0.0
 40
0.0
 40
0.2499773272
 40
0.5000137268
 40
0.7500096992
 40
1.0
 40
1.0
 40
1.0
 40
1.0
 10
4.4508460495
 20
3.0159002769
 30
0.0
 10
4.4506392452
 20
3.0152637987
 30
0.0
 10
4.4501843186
 20
3.0140036035
 30
0.0
 10
4.4493716247
 20
3.0121656337
 30
0.0
 10
4.4484232636
 20
3.0103935865
 30
0.0
 10
4.4476987824
 20
3.0092659568
 30
0.0
 10
4.4473140013
 20
3.0087183599
 30
0.0
  0
SPLINE
  5
3C8
100
AcDbEntity
  8
0
100
AcDbSpline
 62
2
  6
CONTINUOUS
 70
0
 71
3
 72
10
 73
6
 74
0
 42
0.0000001
 43
0.0000001
 44
0.0000000001
 40
0.0
 40
0.0
 40
0.0
 40
0.0
 40
0.250035267
 40
0.500080496
 40
1.0
 40
1.0
 40
1.0
 40
1.0
 10
4.4585420776
 20
3.000008466
 30
0.0
 10
4.4590988467
 20
3.00092212
 30
0.0
 10
4.4601494951
 20
3.0027886155
 30
0.0
 10
4.4620077077
 20
3.0066453695
 30
0.0
 10
4.4631468695
 20
3.0096541907
 30
0.0
 10
4.4638079244
 20
3.0116887085
 30
0.0
  0
LINE
  5
3C9
100
AcDbEntity
  8
0
100
AcDbLine
 62
2
  6
CONTINUOUS
 10
4.4638079244
 20
3.0116887085
 11
4.4651842935
 21
3.0166591017
  0
SPLINE
  5
3CA
100
AcDbEntity
  8
0
100
AcDbSpline
 62
2
  6
CONTINUOUS
 70
0
 71
3
 72
9
 73
5
 74
0
 42
0.0000001
 43
0.0000001
 44
0.0000000001
 40
0.0
 40
0.0
 40
0.0
 40
0.0
 40
0.4999935549
 40
1.0
 40
1.0
 40
1.0
 40
1.0
 10
4.3200803523
 20
2.9299565806
 30
0.0
 10
4.3207571348
 20
2.9274882602
 30
0.0
 10
4.3219190391
 20
2.9224973249
 30
0.0
 10
4.3227221838
 20
2.9174374841
 30
0.0
 10
4.3230417995
 20
2.9148980306
 30
0.0
  0
SPLINE
  5
3CB
100
AcDbEntity
  8
0
100
AcDbSpline
 62
2
  6
CONTINUOUS
 70
0
 71
3
 72
12
 73
8
 74
0
 42
0.0000001
 43
0.0000001
 44
0.0000000001
 40
0.0
 40
0.0
 40
0.0
 40
0.0
 40
0.2499824369
 40
0.3750017794
 40
0.5000052853
 40
0.7500012822
 40
1.0
 40
1.0
 40
1.0
 40
1.0
 10
4.3382807608
 20
2.909946592
 30
0.0
 10
4.3382442904
 20
2.9112097515
 30
0.0
 10
4.3381312655
 20
2.9131033182
 30
0.0
 10
4.3378882217
 20
2.9156192748
 30
0.0
 10
4.3375907778
 20
2.9181295575
 30
0.0
 10
4.3371256877
 20
2.921255293
 30
0.0
 10
4.3366740561
 20
2.9237425363
 30
0.0
 10
4.3364313754
 20
2.9249827847
 30
0.0
  0
LINE
  5
3CC
100
AcDbEntity
  8
0
100
AcDbLine
 62
2
  6
CONTINUOUS
 10
4.2876683496
 20
2.8302026835
 11
4.2877056208
 21
2.830066368
  0
SPLINE
  5
3CD
100
AcDbEntity
  8
0
100
AcDbSpline
 62
2
  6
CONTINUOUS
 70
0
 71
3
 72
11
 73
7
 74
0
 42
0.0000001
 43
0.0000001
 44
0.0000000001
 40
0.0
 40
0.0
 40
0.0
 40
0.0
 40
0.2500087181
 40
0.5000155438
 40
0.7500081933
 40
1.0
 40
1.0
 40
1.0
 40
1.0
 10
4.3870430164
 20
2.2386278219
 30
0.0
 10
4.3879273981
 20
2.2378961684
 30
0.0
 10
4.3897579156
 20
2.2365053275
 30
0.0
 10
4.3926828072
 20
2.2346786062
 30
0.0
 10
4.3957750841
 20
2.2331509348
 30
0.0
 10
4.397933711
 20
2.2323549904
 30
0.0
 10
4.3990305665
 20
2.2320170884
 30
0.0
  0
SPLINE
  5
3CE
100
AcDbEntity
  8
0
100
AcDbSpline
 62
2
  6
CONTINUOUS
 70
0
 71
3
 72
10
 73
6
 74
0
 42
0.0000001
 43
0.0000001
 44
0.0000000001
 40
0.0
 40
0.0
 40
0.0
 40
0.0
 40
0.2500809811
 40
0.500175301
 40
1.0
 40
1.0
 40
1.0
 40
1.0
 10
4.4880916995
 20
2.2834435037
 30
0.0
 10
4.4887415953
 20
2.2844595158
 30
0.0
 10
4.4899918682
 20
2.2865242852
 30
0.0
 10
4.492257288
 20
2.2907829591
 30
0.0
 10
4.4936509415
 20
2.2941383989
 30
0.0
 10
4.4943916619
 20
2.2964323191
 30
0.0
  0
SPLINE
  5
3CF
100
AcDbEntity
  8
0
100
AcDbSpline
 62
2
  6
CONTINUOUS
 70
0
 71
3
 72
15
 73
11
 74
0
 42
0.0000001
 43
0.0000001
 44
0.0000000001
 40
0.0
 40
0.0
 40
0.0
 40
0.0
 40
0.124999182
 40
0.2499983248
 40
0.3749938325
 40
0.499985799
 40
0.6249801741
 40
0.749976425
 40
0.8749787476
 40
1.0
 40
1.0
 40
1.0
 40
1.0
 10
4.4069880681
 20
2.2456154605
 30
0.0
 10
4.406289112
 20
2.2456479595
 30
0.0
 10
4.4048930916
 20
2.2457741287
 30
0.0
 10
4.402826875
 20
2.2461627281
 30
0.0
 10
4.4008106681
 20
2.2467604925
 30
0.0
 10
4.3988691721
 20
2.2475688611
 30
0.0
 10
4.3970250199
 20
2.2485795943
 30
0.0
 10
4.3952957334
 20
2.249775847
 30
0.0
 10
4.3936919878
 20
2.2511350559
 30
0.0
 10
4.3927085803
 20
2.2521336911
 30
0.0
 10
4.392238183
 20
2.2526518563
 30
0.0
  0
SPLINE
  5
3D0
100
AcDbEntity
  8
0
100
AcDbSpline
 62
2
  6
CONTINUOUS
 70
0
 71
3
 72
14
 73
10
 74
0
 42
0.0000001
 43
0.0000001
 44
0.0000000001
 40
0.0
 40
0.0
 40
0.0
 40
0.0
 40
0.1249865556
 40
0.1875229181
 40
0.2500398076
 40
0.3750491633
 40
0.5000532093
 40
0.7500295384
 40
1.0
 40
1.0
 40
1.0
 40
1.0
 10
4.4800680871
 20
2.3028158525
 30
0.0
 10
4.4799137173
 20
2.3022343861
 30
0.0
 10
4.4796403691
 20
2.3013725883
 30
0.0
 10
4.4792097469
 20
2.3002485859
 30
0.0
 10
4.4787398467
 20
2.2991401885
 30
0.0
 10
4.4780856433
 20
2.2977844863
 30
0.0
 10
4.4769257969
 20
2.2956747936
 30
0.0
 10
4.4753007419
 20
2.293139426
 30
0.0
 10
4.4738728262
 20
2.2912007954
 30
0.0
 10
4.4731348621
 20
2.2902504738
 30
0.0
  0
SPLINE
  5
3D1
100
AcDbEntity
  8
0
100
AcDbSpline
 62
2
  6
CONTINUOUS
 70
0
 71
3
 72
9
 73
5
 74
0
 42
0.0000001
 43
0.0000001
 44
0.0000000001
 40
0.0
 40
0.0
 40
0.0
 40
0.0
 40
0.5000583207
 40
1.0
 40
1.0
 40
1.0
 40
1.0
 10
4.5510425537
 20
2.2070573121
 30
0.0
 10
4.5535326755
 20
2.2070566119
 30
0.0
 10
4.5585154546
 20
2.20726116
 30
0.0
 10
4.5634555206
 20
2.2079944702
 30
0.0
 10
4.5658874687
 20
2.2085268639
 30
0.0
  0
SPLINE
  5
3D2
100
AcDbEntity
  8
0
100
AcDbSpline
 62
2
  6
CONTINUOUS
 70
0
 71
3
 72
12
 73
8
 74
0
 42
0.0000001
 43
0.0000001
 44
0.0000000001
 40
0.0
 40
0.0
 40
0.0
 40
0.0
 40
0.2500296866
 40
0.5000227521
 40
0.6250210459
 40
0.7500143759
 40
1.0
 40
1.0
 40
1.0
 40
1.0
 10
4.5536740798
 20
2.2230105458
 30
0.0
 10
4.552827208
 20
2.2229551591
 30
0.0
 10
4.5511299326
 20
2.222898017
 30
0.0
 10
4.5490081405
 20
2.2229204421
 30
0.0
 10
4.5473119058
 20
2.2229759444
 30
0.0
 10
4.5456164391
 20
2.2230507019
 30
0.0
 10
4.5443456849
 20
2.223123622
 30
0.0
 10
4.5434987227
 20
2.2231752035
 30
0.0
  0
SPLINE
  5
3D3
100
AcDbEntity
  8
0
100
AcDbSpline
 62
2
  6
CONTINUOUS
 70
0
 71
3
 72
15
 73
11
 74
0
 42
0.0000001
 43
0.0000001
 44
0.0000000001
 40
0.0
 40
0.0
 40
0.0
 40
0.0
 40
0.124986389
 40
0.250011556
 40
0.3125297599
 40
0.3750398419
 40
0.5000407496
 40
0.6250289162
 40
0.7500153067
 40
1.0
 40
1.0
 40
1.0
 40
1.0
 10
4.5434987227
 20
2.2231752035
 30
0.0
 10
4.5429625333
 20
2.2232078584
 30
0.0
 10
4.5418913104
 20
2.2232955685
 30
0.0
 10
4.5405561545
 20
2.2234433696
 30
0.0
 10
4.539489376
 20
2.2235737373
 30
0.0
 10
4.5384233326
 20
2.2237091733
 30
0.0
 10
4.537092124
 20
2.2238876312
 30
0.0
 10
4.5354964217
 20
2.2241136505
 30
0.0
 10
4.5333706313
 20
2.2244272529
 30
0.0
 10
4.5317778006
 20
2.2246726245
 30
0.0
 10
4.5307164345
 20
2.2248395786
 30
0.0
  0
LINE
  5
3D4
100
AcDbEntity
  8
0
100
AcDbLine
 62
2
  6
CONTINUOUS
 10
4.4926100151
 20
2.2305860995
 11
4.4835428085
 21
2.2312302085
  0
SPLINE
  5
3D5
100
AcDbEntity
  8
0
100
AcDbSpline
 62
2
  6
CONTINUOUS
 70
0
 71
3
 72
12
 73
8
 74
0
 42
0.0000001
 43
0.0000001
 44
0.0000000001
 40
0.0
 40
0.0
 40
0.0
 40
0.0
 40
0.2499944089
 40
0.3750095158
 40
0.5000284049
 40
0.7500183097
 40
1.0
 40
1.0
 40
1.0
 40
1.0
 10
4.4835428085
 20
2.2312302085
 30
0.0
 10
4.4822613036
 20
2.2312686929
 30
0.0
 10
4.4803374479
 20
2.2312894982
 30
0.0
 10
4.4777735846
 20
2.2312292979
 30
0.0
 10
4.4752119659
 20
2.2311060089
 30
0.0
 10
4.4720175506
 20
2.2308221792
 30
0.0
 10
4.4694809357
 20
2.2304302459
 30
0.0
 10
4.4682226855
 20
2.2301845326
 30
0.0
  0
SPLINE
  5
3D6
100
AcDbEntity
  8
0
100
AcDbSpline
 62
2
  6
CONTINUOUS
 70
0
 71
3
 72
13
 73
9
 74
0
 42
0.0000001
 43
0.0000001
 44
0.0000000001
 40
0.0
 40
0.0
 40
0.0
 40
0.0
 40
0.1250186214
 40
0.2500381965
 40
0.3750580914
 40
0.500070268
 40
0.7500405589
 40
1.0
 40
1.0
 40
1.0
 40
1.0
 10
4.439914206
 20
2.2094489864
 30
0.0
 10
4.4396438671
 20
2.2089093571
 30
0.0
 10
4.4391318582
 20
2.2078154391
 30
0.0
 10
4.4384537066
 20
2.2061356508
 30
0.0
 10
4.4378664035
 20
2.2044219383
 30
0.0
 10
4.437206086
 20
2.2020991147
 30
0.0
 10
4.4366092182
 20
2.1991360627
 30
0.0
 10
4.4363666806
 20
2.1967306758
 30
0.0
 10
4.4362998037
 20
2.195525789
 30
0.0
  0
SPLINE
  5
3D7
100
AcDbEntity
  8
0
100
AcDbSpline
 62
2
  6
CONTINUOUS
 70
0
 71
3
 72
11
 73
7
 74
0
 42
0.0000001
 43
0.0000001
 44
0.0000000001
 40
0.0
 40
0.0
 40
0.0
 40
0.0
 40
0.2500377802
 40
0.5000383889
 40
0.7500293903
 40
1.0
 40
1.0
 40
1.0
 40
1.0
 10
4.4505113693
 20
2.162039764
 30
0.0
 10
4.4515494355
 20
2.1609482859
 30
0.0
 10
4.4536985268
 20
2.1588332556
 30
0.0
 10
4.4571574279
 20
2.1559181059
 30
0.0
 10
4.4608636831
 20
2.1533230442
 30
0.0
 10
4.4635015344
 20
2.1518544683
 30
0.0
 10
4.4648573843
 20
2.151199214
 30
0.0
  0
SPLINE
  5
3D8
100
AcDbEntity
  8
0
100
AcDbSpline
 62
2
  6
CONTINUOUS
 70
0
 71
3
 72
13
 73
9
 74
0
 42
0.0000001
 43
0.0000001
 44
0.0000000001
 40
0.0
 40
0.0
 40
0.0
 40
0.0
 40
0.1250197889
 40
0.2500411502
 40
0.3750662907
 40
0.5000929744
 40
0.7500236963
 40
1.0
 40
1.0
 40
1.0
 40
1.0
 10
4.4712352493
 20
2.16454006
 30
0.0
 10
4.4706103389
 20
2.1647421639
 30
0.0
 10
4.4693776906
 20
2.1652017669
 30
0.0
 10
4.4675952421
 20
2.1660466571
 30
0.0
 10
4.4658875421
 20
2.1670338954
 30
0.0
 10
4.4637183744
 20
2.1685188125
 30
0.0
 10
4.4612107511
 20
2.1706528405
 30
0.0
 10
4.4594152369
 20
2.1725762174
 30
0.0
 10
4.4585642648
 20
2.173576422
 30
0.0
  0
SPLINE
  5
3D9
100
AcDbEntity
  8
0
100
AcDbSpline
 62
2
  6
CONTINUOUS
 70
0
 71
3
 72
14
 73
10
 74
0
 42
0.0000001
 43
0.0000001
 44
0.0000000001
 40
0.0
 40
0.0
 40
0.0
 40
0.0
 40
0.1250144884
 40
0.250027204
 40
0.3750406778
 40
0.5000550348
 40
0.6250646069
 40
0.7500819715
 40
1.0
 40
1.0
 40
1.0
 40
1.0
 10
4.453041678
 20
2.1976820478
 30
0.0
 10
4.4532027999
 20
2.1981887406
 30
0.0
 10
4.4535624692
 20
2.1991906833
 30
0.0
 10
4.4542134022
 20
2.2006484708
 30
0.0
 10
4.4549722267
 20
2.2020532096
 30
0.0
 10
4.4558334449
 20
2.2033974612
 30
0.0
 10
4.4567893347
 20
2.2046761372
 30
0.0
 10
4.4581777659
 20
2.2062881586
 30
0.0
 10
4.4593354728
 20
2.2073924239
 30
0.0
 10
4.4601450306
 20
2.2080811941
 30
0.0
  0
SPLINE
  5
3DA
100
AcDbEntity
  8
0
100
AcDbSpline
 62
2
  6
CONTINUOUS
 70
0
 71
3
 72
13
 73
9
 74
0
 42
0.0000001
 43
0.0000001
 44
0.0000000001
 40
0.0
 40
0.0
 40
0.0
 40
0.0
 40
0.125006257
 40
0.2500385484
 40
0.3750566358
 40
0.5000762448
 40
0.7500252753
 40
1.0
 40
1.0
 40
1.0
 40
1.0
 10
4.4601450306
 20
2.2080811941
 30
0.0
 10
4.4606233651
 20
2.2084881603
 30
0.0
 10
4.4616161236
 20
2.209260799
 30
0.0
 10
4.463194484
 20
2.2102934062
 30
0.0
 10
4.4648467446
 20
2.2112029937
 30
0.0
 10
4.4671277214
 20
2.2122591327
 30
0.0
 10
4.4700957905
 20
2.2133058226
 30
0.0
 10
4.4725411776
 20
2.2138953639
 30
0.0
 10
4.4737732582
 20
2.2141386782
 30
0.0
  0
LINE
  5
3DB
100
AcDbEntity
  8
0
100
AcDbLine
 62
2
  6
CONTINUOUS
 10
4.5455579012
 20
2.20724076
 11
4.5510425537
 21
2.2070573121
  0
SPLINE
  5
3DC
100
AcDbEntity
  8
0
100
AcDbSpline
 62
2
  6
CONTINUOUS
 70
0
 71
3
 72
9
 73
5
 74
0
 42
0.0000001
 43
0.0000001
 44
0.0000000001
 40
0.0
 40
0.0
 40
0.0
 40
0.0
 40
0.2500417929
 40
1.0
 40
1.0
 40
1.0
 40
1.0
 10
4.5521635099
 20
2.0857128539
 30
0.0
 10
4.5529761032
 20
2.0854183594
 30
0.0
 10
4.5562112035
 20
2.0842001109
 30
0.0
 10
4.5593876681
 20
2.0828278418
 30
0.0
 10
4.56173452
 20
2.081726659
 30
0.0
  0
SPLINE
  5
3DD
100
AcDbEntity
  8
0
100
AcDbSpline
 62
2
  6
CONTINUOUS
 70
0
 71
3
 72
9
 73
5
 74
0
 42
0.0000001
 43
0.0000001
 44
0.0000000001
 40
0.0
 40
0.0
 40
0.0
 40
0.0
 40
0.4999879939
 40
1.0
 40
1.0
 40
1.0
 40
1.0
 10
4.5742499088
 20
2.092280495
 30
0.0
 10
4.5727910475
 20
2.0931180278
 30
0.0
 10
4.5698004644
 20
2.0946672406
 30
0.0
 10
4.5667248578
 20
2.0960343328
 30
0.0
 10
4.565173141
 20
2.0966840897
 30
0.0
  0
ENDSEC
  0
SECTION
  2
OBJECTS
  0
DICTIONARY
  5
C
100
AcDbDictionary
280
0
281
1
  3
ACAD_GROUP
350
D
  3
ACAD_MLINESTYLE
350
17
  3
ACAD_LAYOUT
350
1A
  3
ACAD_PLOTSETTINGS
350
19
  3
ACAD_PLOTSTYLENAME
350
E
  0
DICTIONARY
  5
D
102
{ACAD_REACTORS
330
C
102
}
100
AcDbDictionary
280
0
281
1
  0
ACDBDICTIONARYWDFLT
  5
E
102
{ACAD_REACTORS
330
C
102
}
100
AcDbDictionary
281
1
  3
Normal
350
F
100
AcDbDictionaryWithDefault
340
F
  0
DICTIONARY
  5
17
102
{ACAD_REACTORS
330
C
102
}
100
AcDbDictionary
280
0
281
1
  3
Standard
350
18
  0
DICTIONARY
  5
19
102
{ACAD_REACTORS
330
C
102
}
100
AcDbDictionary
281
1
  0
DICTIONARY
  5
1A
102
{ACAD_REACTORS
330
C
102
}
100
AcDbDictionary
281
1
  3
Model
350
3DE
  3
Layout1
350
3DF
  0
ACDBPLACEHOLDER
  5
F
102
{ACAD_REACTORS
330
E
102
}
  0
MLINESTYLE
  5
18
102
{ACAD_REACTORS
330
17
102
}
100
AcDbMlineStyle
  2
STANDARD
 70
0
  3

 62
256
 51
90.0
 52
90.0
 71
2
 49
0.5
 62
256
  6
BYLAYER
 49
-0.5
 62
256
  6
BYLAYER
  0
LAYOUT
  5
3DE
102
{ACAD_REACTORS
330
1A
102
}
100
AcDbPlotSettings
  1

  2
none_device
  4
ANSI_A_(11.00_x_8.50_Inches)
  6

 40
0.0
 41
0.0
 42
0.0
 43
0.0
 44
279.4
 45
215.9
 46
0.0
 47
0.0
 48
0.0
 49
0.0
140
0.0
141
0.0
142
1.0
143
1.0
 70
1024
 72
0
 73
0
 74
0
  7

 75
0
147
1.0
148
0.0
149
0.0
100
AcDbLayout
  1
Model
 70
0
 71
0
 10
0.0
 20
0.0
 11
11.0
 21
8.5
 12
0.0
 22
0.0
 32
0.0
 14
0.0
 24
0.0
 34
0.0
 15
0.0
 25
0.0
 35
0.0
146
0.0
 13
0.0
 23
0.0
 33
0.0
 16
1.0
 26
0.0
 36
0.0
 17
0.0
 27
1.0
 37
0.0
 76
0
330
220
345
0
346
0
  0
LAYOUT
  5
3DF
102
{ACAD_REACTORS
330
1A
102
}
100
AcDbPlotSettings
  1

  2
none_device
  4
ANSI_A_(11.00_x_8.50_Inches)
  6

 40
0.0
 41
0.0
 42
0.0
 43
0.0
 44
279.4
 45
215.9
 46
0.0
 47
0.0
 48
0.0
 49
0.0
140
0.0
141
0.0
142
1.0
143
1.0
 70
0
 72
0
 73
0
 74
0
  7

 75
0
147
1.0
148
0.0
149
0.0
100
AcDbLayout
  1
Layout1
 70
0
 71
1
 10
0.0
 20
0.0
 11
11.0
 21
8.5
 12
0.0
 22
0.0
 32
0.0
 14
0.0
 24
0.0
 34
0.0
 15
0.0
 25
0.0
 35
0.0
146
0.0
 13
0.0
 23
0.0
 33
0.0
 16
1.0
 26
0.0
 36
0.0
 17
0.0
 27
1.0
 37
0.0
 76
0
330
221
345
0
346
0
  0
ENDSEC
  0
EOF
