999
DXF file: 3-1643ts_FRONT.dxf
999
Pro/ENGINEER 2013150 by Parametric Technology Corporation
  0
SECTION
  2
HEADER
  9
$ACADVER
  1
AC1021
  9
$DWGCODEPAGE
  3
ANSI_1252
  9
$EXTMAX
 10
11.0
 20
8.5
 30
0.0
  9
$EXTMIN
 10
0.0
 20
0.0
 30
0.0
  9
$LIMMIN
 10
0.0
 20
0.0
  9
$LIMMAX
 10
11.0
 20
8.5
  9
$VIEWCTR
 10
5.5
 20
4.25
  9
$VIEWSIZE
 40
8.5
  9
$CLAYER
  8
0
  9
$LTSCALE
 40
0.605
  9
$CELTYPE
  6
BYLAYER
  9
$DIMSCALE
 40
1.0
  9
$DIMASZ
 40
0.1
  9
$DIMEXO
 40
0.0625
  9
$DIMDLI
 40
0.418
  9
$DIMEXE
 40
0.125
  9
$DIMCEN
 40
0.099
  9
$DIMLFAC
 40
1.0
  9
$DIMBLK
  1
_FILLED
  9
$DIMTXT
 40
0.08
  9
$DIMTOL
 70
1
  9
$DIMLIM
 70
0
  9
$DIMTFAC
 40
1.0
  9
$DIMTP
 40
0.001
  9
$DIMTM
 40
0.001
  9
$DIMGAP
 40
0.09
  9
$DIMDSEP
 70
46
  9
$PDMODE
 70
3
  9
$PDSIZE
 40
0.06
  9
$HANDSEED
  5
448
  9
$TILEMODE
 70
1
  9
$MEASUREMENT
 70
0
  9
$INSUNITS
 70
1
  0
ENDSEC
  0
SECTION
  2
CLASSES
  0
CLASS
  1
ACDBDICTIONARYWDFLT
  2
AcDbDictionaryWithDefault
  3
AutoCAD 2000
 90
0
 91
1
280
0
281
0
  0
CLASS
  1
ACDBPLACEHOLDER
  2
AcDbPlaceHolder
  3
AutoCAD 2000
 90
0
 91
1
280
0
281
0
  0
CLASS
  1
LAYOUT
  2
AcDbLayout
  3
AutoCAD 2000
 90
0
 91
0
280
0
281
0
  0
ENDSEC
  0
SECTION
  2
TABLES
  0
TABLE
  2
VPORT
  5
8
100
AcDbSymbolTable
 70
2
  0
VPORT
  5
1F4
100
AcDbSymbolTableRecord
100
AcDbViewportTableRecord
  2
*ACTIVE
 70
0
 10
0.0
 20
0.0
 11
1.0
 21
1.0
 12
5.5
 22
4.25
 13
0.0
 23
0.0
 14
1.0
 24
1.0
 15
0.0
 25
0.0
 16
0.0
 26
0.0
 36
1.0
 17
0.0
 27
0.0
 37
0.0
 40
8.5
 41
1.2941176471
 42
50.0
 43
0.0
 44
0.0
 50
0.0
 51
0.0
 71
0
 72
100
 73
1
 74
1
 75
0
 76
0
 77
0
 78
0
  0
ENDTAB
  0
TABLE
  2
LTYPE
  5
5
100
AcDbSymbolTable
 70
6
  0
LTYPE
  5
14
100
AcDbSymbolTableRecord
100
AcDbLinetypeTableRecord
  2
BYBLOCK
 70
0
  3

 72
65
 73
0
 40
0.0
  0
LTYPE
  5
15
100
AcDbSymbolTableRecord
100
AcDbLinetypeTableRecord
  2
BYLAYER
 70
0
  3

 72
65
 73
0
 40
0.0
  0
LTYPE
  5
16
100
AcDbSymbolTableRecord
100
AcDbLinetypeTableRecord
  2
CONTINUOUS
 70
64
  3
Solid line
 72
65
 73
0
 40
0.0
  0
LTYPE
  5
1F5
100
AcDbSymbolTableRecord
100
AcDbLinetypeTableRecord
  2
CENTER
 70
64
  3
____ _ ____ _ ____ _ ____ _ ____ _ ____ _ ____
 72
65
 73
4
 40
0.6
 49
0.375
 74
0
 49
-0.075
 74
0
 49
0.075
 74
0
 49
-0.075
 74
0
  0
LTYPE
  5
1F6
100
AcDbSymbolTableRecord
100
AcDbLinetypeTableRecord
  2
HIDDEN
 70
64
  3
- - - - - - - - - - - - - - - - - - - -
 72
65
 73
2
 40
0.2
 49
0.1
 74
0
 49
-0.1
 74
0
  0
LTYPE
  5
1F7
100
AcDbSymbolTableRecord
100
AcDbLinetypeTableRecord
  2
PHANTOM
 70
64
  3
_____ _ _ _____ _ _ _____ _ _ _____
 72
65
 73
6
 40
0.8
 49
0.45
 74
0
 49
-0.05
 74
0
 49
0.1
 74
0
 49
-0.05
 74
0
 49
0.1
 74
0
 49
-0.05
 74
0
  0
LTYPE
  5
1F8
100
AcDbSymbolTableRecord
100
AcDbLinetypeTableRecord
  2
DOT
 70
64
  3
. . . . . . . . . . . . . . . . . . . .
 72
65
 73
2
 40
0.2
 49
0.1
 74
0
 49
-0.1
 74
0
  0
LTYPE
  5
1F9
100
AcDbSymbolTableRecord
100
AcDbLinetypeTableRecord
  2
DASHED
 70
64
  3
- - - - - - - - - - - - - - - - - - - -
 72
65
 73
2
 40
0.2
 49
0.1
 74
0
 49
-0.1
 74
0
  0
ENDTAB
  0
TABLE
  2
LAYER
  5
2
100
AcDbSymbolTable
 70
36
  0
LAYER
  5
10
100
AcDbSymbolTableRecord
100
AcDbLayerTableRecord
  2
0
 70
0
 62
7
  6
CONTINUOUS
370
-3
390
F
  0
LAYER
  5
1FA
100
AcDbSymbolTableRecord
100
AcDbLayerTableRecord
  2
DEFAULT_1
 70
0
 62
7
  6
CENTER
370
-3
390
F
  0
LAYER
  5
1FB
100
AcDbSymbolTableRecord
100
AcDbLayerTableRecord
  2
DEFAULT_2
 70
0
 62
8
  6
HIDDEN
370
-3
390
F
  0
LAYER
  5
1FC
100
AcDbSymbolTableRecord
100
AcDbLayerTableRecord
  2
DEFAULT_3
 70
0
 62
7
  6
PHANTOM
370
-3
390
F
  0
LAYER
  5
1FD
100
AcDbSymbolTableRecord
100
AcDbLayerTableRecord
  2
ALL_ASSEMBLY_MEMBERS
 70
0
 62
7
  6
CONTINUOUS
370
-3
390
F
  0
LAYER
  5
1FE
100
AcDbSymbolTableRecord
100
AcDbLayerTableRecord
  2
ALL_FEATURES
 70
0
 62
7
  6
CONTINUOUS
370
-3
390
F
  0
LAYER
  5
1FF
100
AcDbSymbolTableRecord
100
AcDbLayerTableRecord
  2
AXES_FEATURES
 70
0
 62
7
  6
CONTINUOUS
370
-3
390
F
  0
LAYER
  5
200
100
AcDbSymbolTableRecord
100
AcDbLayerTableRecord
  2
CHAMFER_FEATURES
 70
0
 62
7
  6
CONTINUOUS
370
-3
390
F
  0
LAYER
  5
201
100
AcDbSymbolTableRecord
100
AcDbLayerTableRecord
  2
COSMETIC_SKETCHES
 70
0
 62
7
  6
CONTINUOUS
370
-3
390
F
  0
LAYER
  5
202
100
AcDbSymbolTableRecord
100
AcDbLayerTableRecord
  2
CUT_FEATURES
 70
0
 62
7
  6
CONTINUOUS
370
-3
390
F
  0
LAYER
  5
203
100
AcDbSymbolTableRecord
100
AcDbLayerTableRecord
  2
DATUM_CURVES
 70
0
 62
7
  6
CONTINUOUS
370
-3
390
F
  0
LAYER
  5
204
100
AcDbSymbolTableRecord
100
AcDbLayerTableRecord
  2
DATUM_PLANES
 70
0
 62
7
  6
CONTINUOUS
370
-3
390
F
  0
LAYER
  5
205
100
AcDbSymbolTableRecord
100
AcDbLayerTableRecord
  2
DATUM_POINTS
 70
0
 62
7
  6
CONTINUOUS
370
-3
390
F
  0
LAYER
  5
206
100
AcDbSymbolTableRecord
100
AcDbLayerTableRecord
  2
DEFAULT_COORDINATE_SYSTEM
 70
0
 62
7
  6
CONTINUOUS
370
-3
390
F
  0
LAYER
  5
207
100
AcDbSymbolTableRecord
100
AcDbLayerTableRecord
  2
DEFAULT_DATUM_AXES
 70
0
 62
7
  6
CONTINUOUS
370
-3
390
F
  0
LAYER
  5
208
100
AcDbSymbolTableRecord
100
AcDbLayerTableRecord
  2
DEFAULT_DATUM_CURVES
 70
0
 62
7
  6
CONTINUOUS
370
-3
390
F
  0
LAYER
  5
209
100
AcDbSymbolTableRecord
100
AcDbLayerTableRecord
  2
DEFAULT_DATUM_PLANES
 70
0
 62
7
  6
CONTINUOUS
370
-3
390
F
  0
LAYER
  5
20A
100
AcDbSymbolTableRecord
100
AcDbLayerTableRecord
  2
DEFAULT_SURFACES
 70
0
 62
7
  6
CONTINUOUS
370
-3
390
F
  0
LAYER
  5
20B
100
AcDbSymbolTableRecord
100
AcDbLayerTableRecord
  2
DIMENSIONS
 70
0
 62
7
  6
CONTINUOUS
370
-3
390
F
  0
LAYER
  5
20C
100
AcDbSymbolTableRecord
100
AcDbLayerTableRecord
  2
HOLE_FEATURES
 70
0
 62
7
  6
CONTINUOUS
370
-3
390
F
  0
LAYER
  5
20D
100
AcDbSymbolTableRecord
100
AcDbLayerTableRecord
  2
HOLE_PATTERN
 70
0
 62
7
  6
CONTINUOUS
370
-3
390
F
  0
LAYER
  5
20E
100
AcDbSymbolTableRecord
100
AcDbLayerTableRecord
  2
INTFCLR_1
 70
0
 62
7
  6
CONTINUOUS
370
-3
390
F
  0
LAYER
  5
20F
100
AcDbSymbolTableRecord
100
AcDbLayerTableRecord
  2
NOTES
 70
0
 62
7
  6
CONTINUOUS
370
-3
390
F
  0
LAYER
  5
210
100
AcDbSymbolTableRecord
100
AcDbLayerTableRecord
  2
PART_REFERENCE_DIMENSIONS
 70
0
 62
7
  6
CONTINUOUS
370
-3
390
F
  0
LAYER
  5
211
100
AcDbSymbolTableRecord
100
AcDbLayerTableRecord
  2
PLATED_AREA
 70
0
 62
7
  6
CONTINUOUS
370
-3
390
F
  0
LAYER
  5
212
100
AcDbSymbolTableRecord
100
AcDbLayerTableRecord
  2
PLATED_SURFACE_AREA
 70
0
 62
7
  6
CONTINUOUS
370
-3
390
F
  0
LAYER
  5
213
100
AcDbSymbolTableRecord
100
AcDbLayerTableRecord
  2
POINTS
 70
0
 62
7
  6
CONTINUOUS
370
-3
390
F
  0
LAYER
  5
214
100
AcDbSymbolTableRecord
100
AcDbLayerTableRecord
  2
PROTRUSION
 70
0
 62
7
  6
CONTINUOUS
370
-3
390
F
  0
LAYER
  5
215
100
AcDbSymbolTableRecord
100
AcDbLayerTableRecord
  2
PROTRUSION_FEATURES
 70
0
 62
7
  6
CONTINUOUS
370
-3
390
F
  0
LAYER
  5
216
100
AcDbSymbolTableRecord
100
AcDbLayerTableRecord
  2
QUILT
 70
0
 62
7
  6
CONTINUOUS
370
-3
390
F
  0
LAYER
  5
217
100
AcDbSymbolTableRecord
100
AcDbLayerTableRecord
  2
QUILTS
 70
0
 62
7
  6
CONTINUOUS
370
-3
390
F
  0
LAYER
  5
218
100
AcDbSymbolTableRecord
100
AcDbLayerTableRecord
  2
REFERENCE_DIMENSIONS
 70
0
 62
7
  6
CONTINUOUS
370
-3
390
F
  0
LAYER
  5
219
100
AcDbSymbolTableRecord
100
AcDbLayerTableRecord
  2
ROUND_FEATURES
 70
0
 62
7
  6
CONTINUOUS
370
-3
390
F
  0
LAYER
  5
21A
100
AcDbSymbolTableRecord
100
AcDbLayerTableRecord
  2
SATIN_DIRECTION
 70
0
 62
7
  6
CONTINUOUS
370
-3
390
F
  0
LAYER
  5
21B
100
AcDbSymbolTableRecord
100
AcDbLayerTableRecord
  2
SHELL_FEATURES
 70
0
 62
7
  6
CONTINUOUS
370
-3
390
F
  0
LAYER
  5
21C
100
AcDbSymbolTableRecord
100
AcDbLayerTableRecord
  2
SIZE_REF
 70
0
 62
7
  6
CONTINUOUS
370
-3
390
F
  0
LAYER
  5
21D
100
AcDbSymbolTableRecord
100
AcDbLayerTableRecord
  2
XSEC_DATUMS
 70
0
 62
7
  6
CONTINUOUS
370
-3
390
F
  0
ENDTAB
  0
TABLE
  2
STYLE
  5
3
100
AcDbSymbolTable
 70
1
  0
STYLE
  5
11
100
AcDbSymbolTableRecord
100
AcDbTextStyleTableRecord
  2
STANDARD
 70
0
 40
0.0
 41
0.8
 50
0.0
 71
0
 42
0.2
  3
txt
  4

  0
STYLE
  5
21E
100
AcDbSymbolTableRecord
100
AcDbTextStyleTableRecord
  2
TEXTSTYLE_1
 70
0
 40
0.0
 41
0.8
 50
0.0
 71
0
 42
0.2
  3
gdt
  4

  0
ENDTAB
  0
TABLE
  2
VIEW
  5
6
100
AcDbSymbolTable
 70
0
  0
ENDTAB
  0
TABLE
  2
UCS
  5
7
100
AcDbSymbolTable
 70
0
  0
ENDTAB
  0
TABLE
  2
APPID
  5
9
100
AcDbSymbolTable
 70
1
  0
APPID
  5
21F
100
AcDbSymbolTableRecord
100
AcDbRegAppTableRecord
  2
ACAD
 70
0
  0
ENDTAB
  0
TABLE
  2
BLOCK_RECORD
  5
1
100
AcDbSymbolTable
 70
0
  0
BLOCK_RECORD
  5
220
100
AcDbSymbolTableRecord
100
AcDbBlockTableRecord
  2
*Model_Space
  0
BLOCK_RECORD
  5
221
100
AcDbSymbolTableRecord
100
AcDbBlockTableRecord
  2
*Paper_Space
  0
ENDTAB
  0
TABLE
  2
DIMSTYLE
  5
A
100
AcDbSymbolTable
 70
1
100
AcDbDimStyleTable
 71
0
  0
DIMSTYLE
105
222
100
AcDbSymbolTableRecord
100
AcDbDimStyleTableRecord
  2
STANDARD
 70
0
  3

  4

 40
1.0
 41
0.1
 42
0.0625
 43
0.38
 44
0.125
 45
0.0
 46
0.0
 47
0.001
 48
0.001
140
0.08
141
0.09
142
0.0
143
25.4
144
1.0
145
0.0
146
1.0
147
0.09
 71
1.0
 72
0.0
 73
1
 74
1
 75
0
 76
0
 77
0
 78
4
170
0
171
2
172
0
173
0
174
0
175
0
176
0
177
0
178
0
270
2
271
3
272
3
273
2
274
2
275
0
280
0
281
0
282
0
283
1
284
4
285
0
286
0
287
3
288
0
340
11
278
46
  0
ENDTAB
  0
ENDSEC
  0
SECTION
  2
BLOCKS
  0
BLOCK
  5
20
100
AcDbEntity
  8
0
100
AcDbBlockBegin
  2
*Model_Space
 70
0
 10
0.0
 20
0.0
 30
0.0
  3
*Model_Space
  1

  0
ENDBLK
  5
21
100
AcDbEntity
  8
0
100
AcDbBlockEnd
  0
BLOCK
  5
1C
100
AcDbEntity
  8
0
100
AcDbBlockBegin
  2
*Paper_Space
 70
0
 10
0.0
 20
0.0
 30
0.0
  3
*Paper_Space
  1

  0
ENDBLK
  5
1D
100
AcDbEntity
  8
0
100
AcDbBlockEnd
  0
ENDSEC
  0
SECTION
  2
ENTITIES
  0
LINE
  5
223
100
AcDbEntity
  8
0
100
AcDbLine
 62
7
  6
CONTINUOUS
 10
0.0
 20
0.0
 11
0.0
 21
8.5
  0
LINE
  5
224
100
AcDbEntity
  8
0
100
AcDbLine
 62
7
  6
CONTINUOUS
 10
0.0
 20
0.0
 11
11.0
 21
0.0
  0
LINE
  5
225
100
AcDbEntity
  8
0
100
AcDbLine
 62
7
  6
CONTINUOUS
 10
0.0
 20
8.5
 11
11.0
 21
8.5
  0
LINE
  5
226
100
AcDbEntity
  8
0
100
AcDbLine
 62
7
  6
CONTINUOUS
 10
11.0
 20
0.0
 11
11.0
 21
8.5
  0
LINE
  5
227
100
AcDbEntity
  8
ALL_FEATURES
100
AcDbLine
 62
7
  6
CONTINUOUS
 10
3.733104451
 20
1.2109471929
 11
6.478104451
 21
1.2109471929
  0
LINE
  5
228
100
AcDbEntity
  8
ALL_FEATURES
100
AcDbLine
 62
7
  6
CONTINUOUS
 10
3.733104451
 20
1.3046971929
 11
6.478104451
 21
1.3046971929
  0
LINE
  5
229
100
AcDbEntity
  8
ALL_FEATURES
100
AcDbLine
 62
7
  6
CONTINUOUS
 10
3.358104451
 20
1.5859471929
 11
3.388104451
 21
1.5859471929
  0
LINE
  5
22A
100
AcDbEntity
  8
ALL_FEATURES
100
AcDbLine
 62
7
  6
CONTINUOUS
 10
6.823104451
 20
1.5859471929
 11
6.853104451
 21
1.5859471929
  0
LINE
  5
22B
100
AcDbEntity
  8
ALL_FEATURES
100
AcDbLine
 62
7
  6
CONTINUOUS
 10
3.358104451
 20
1.6796971929
 11
3.388104451
 21
1.6796971929
  0
LINE
  5
22C
100
AcDbEntity
  8
ALL_FEATURES
100
AcDbLine
 62
7
  6
CONTINUOUS
 10
6.823104451
 20
1.6796971929
 11
6.853104451
 21
1.6796971929
  0
LINE
  5
22D
100
AcDbEntity
  8
ALL_ASSEMBLY_MEMBERS
100
AcDbLine
 62
9
  6
CONTINUOUS
 10
5.1858474076
 20
2.0445836747
 11
5.0253614944
 21
2.0445836747
  0
LINE
  5
22E
100
AcDbEntity
  8
ALL_FEATURES
100
AcDbLine
 62
7
  6
CONTINUOUS
 10
3.043104451
 20
6.7084471929
 11
3.043104451
 21
1.9009471929
  0
LINE
  5
22F
100
AcDbEntity
  8
ALL_FEATURES
100
AcDbLine
 62
7
  6
CONTINUOUS
 10
3.136854451
 20
6.7084471929
 11
3.136854451
 21
1.9009471929
  0
LINE
  5
230
100
AcDbEntity
  8
ALL_ASSEMBLY_MEMBERS
100
AcDbLine
 62
9
  6
CONTINUOUS
 10
5.2832739073
 20
2.2034493026
 11
4.9279349947
 21
2.2034493026
  0
LINE
  5
231
100
AcDbEntity
  8
ALL_ASSEMBLY_MEMBERS
100
AcDbLine
 62
9
  6
CONTINUOUS
 10
5.2832739073
 20
2.4128553393
 11
4.9279349947
 21
2.4128553393
  0
LINE
  5
232
100
AcDbEntity
  8
ALL_ASSEMBLY_MEMBERS
100
AcDbLine
 62
9
  6
CONTINUOUS
 10
5.2591380059
 20
2.4833873671
 11
4.9520708961
 21
2.4833873671
  0
LINE
  5
233
100
AcDbEntity
  8
ALL_FEATURES
100
AcDbLine
 62
7
  6
CONTINUOUS
 10
3.418104451
 20
7.0834471929
 11
3.418104451
 21
7.0534471929
  0
LINE
  5
234
100
AcDbEntity
  8
ALL_FEATURES
100
AcDbLine
 62
7
  6
CONTINUOUS
 10
3.418104451
 20
1.5559471929
 11
3.418104451
 21
1.5259471929
  0
LINE
  5
235
100
AcDbEntity
  8
ALL_FEATURES
100
AcDbLine
 62
7
  6
CONTINUOUS
 10
3.511854451
 20
7.0834471929
 11
3.511854451
 21
7.0534471929
  0
LINE
  5
236
100
AcDbEntity
  8
ALL_FEATURES
100
AcDbLine
 62
7
  6
CONTINUOUS
 10
3.511854451
 20
1.5559471929
 11
3.511854451
 21
1.5259471929
  0
LINE
  5
237
100
AcDbEntity
  8
ALL_ASSEMBLY_MEMBERS
100
AcDbLine
 62
9
  6
CONTINUOUS
 10
5.218104451
 20
2.653949419
 11
4.993104451
 21
2.653949419
  0
LINE
  5
238
100
AcDbEntity
  8
ALL_ASSEMBLY_MEMBERS
100
AcDbLine
 62
7
  6
CONTINUOUS
 10
5.6313522249
 20
3.0671971929
 11
5.463243504
 21
3.0671971929
  0
LINE
  5
239
100
AcDbEntity
  8
ALL_ASSEMBLY_MEMBERS
100
AcDbLine
 62
7
  6
CONTINUOUS
 10
4.747965398
 20
3.0671971929
 11
4.5798566771
 21
3.0671971929
  0
LINE
  5
23A
100
AcDbEntity
  8
ALL_ASSEMBLY_MEMBERS
100
AcDbLine
 62
9
  6
CONTINUOUS
 10
3.9704909328
 20
3.0994542363
 11
3.9704909328
 21
3.2599401496
  0
LINE
  5
23B
100
AcDbEntity
  8
ALL_ASSEMBLY_MEMBERS
100
AcDbLine
 62
9
  6
CONTINUOUS
 10
4.1293565606
 20
3.0020277366
 11
4.1293565606
 21
3.3573666492
  0
LINE
  5
23C
100
AcDbEntity
  8
ALL_ASSEMBLY_MEMBERS
100
AcDbLine
 62
7
  6
CONTINUOUS
 10
5.259354451
 20
6.2243221929
 11
5.2336185532
 21
6.1874280736
  0
LINE
  5
23D
100
AcDbEntity
  8
0
100
AcDbLine
 62
7
  6
CONTINUOUS
 10
5.9778101241
 20
3.3933246379
 11
5.9776520333
 21
3.3932822776
  0
LINE
  5
23E
100
AcDbEntity
  8
0
100
AcDbLine
 62
9
  6
CONTINUOUS
 10
5.8460803
 20
3.3607909308
 11
5.8459221973
 21
3.3607485673
  0
LINE
  5
23F
100
AcDbEntity
  8
0
100
AcDbLine
 62
9
  6
CONTINUOUS
 10
5.8496335629
 20
3.3718091314
 11
5.8494753904
 21
3.3717667492
  0
LINE
  5
240
100
AcDbEntity
  8
0
100
AcDbLine
 62
9
  6
CONTINUOUS
 10
5.8501443011
 20
3.3823275058
 11
5.8499861166
 21
3.3822851203
  0
LINE
  5
241
100
AcDbEntity
  8
0
100
AcDbLine
 62
9
  6
CONTINUOUS
 10
5.8770463516
 20
3.423287876
 11
5.8768885258
 21
3.4232455867
  0
LINE
  5
242
100
AcDbEntity
  8
0
100
AcDbLine
 62
9
  6
CONTINUOUS
 10
5.9169069379
 20
3.4531361102
 11
5.9167495399
 21
3.4530939355
  0
LINE
  5
243
100
AcDbEntity
  8
0
100
AcDbLine
 62
7
  6
CONTINUOUS
 10
5.8969028968
 20
3.4651520525
 11
5.8967460891
 21
3.465110036
  0
LINE
  5
244
100
AcDbEntity
  8
0
100
AcDbLine
 62
9
  6
CONTINUOUS
 10
5.8205058386
 20
3.4661238989
 11
5.8203501711
 21
3.4660821879
  0
LINE
  5
245
100
AcDbEntity
  8
0
100
AcDbLine
 62
9
  6
CONTINUOUS
 10
5.9378594653
 20
3.5101411839
 11
5.9377040571
 21
3.5100995424
  0
LINE
  5
246
100
AcDbEntity
  8
0
100
AcDbLine
 62
9
  6
CONTINUOUS
 10
5.8557397925
 20
3.4954597959
 11
5.8555850984
 21
3.4954183458
  0
LINE
  5
247
100
AcDbEntity
  8
ALL_ASSEMBLY_MEMBERS
100
AcDbLine
 62
7
  6
CONTINUOUS
 10
5.6313522249
 20
3.2921971929
 11
5.463243504
 21
3.2921971929
  0
LINE
  5
248
100
AcDbEntity
  8
ALL_ASSEMBLY_MEMBERS
100
AcDbLine
 62
7
  6
CONTINUOUS
 10
4.747965398
 20
3.2921971929
 11
4.5798566771
 21
3.2921971929
  0
LINE
  5
249
100
AcDbEntity
  8
0
100
AcDbLine
 62
7
  6
CONTINUOUS
 10
4.2572954329
 20
3.3988367936
 11
4.2533364591
 21
3.4001231421
  0
LINE
  5
24A
100
AcDbEntity
  8
0
100
AcDbLine
 62
7
  6
CONTINUOUS
 10
4.375821025
 20
3.3612235437
 11
4.3706439034
 21
3.3629056924
  0
LINE
  5
24B
100
AcDbEntity
  8
0
100
AcDbLine
 62
7
  6
CONTINUOUS
 10
4.3605961491
 20
3.3882847932
 11
4.2687276935
 21
3.4181346639
  0
LINE
  5
24C
100
AcDbEntity
  8
0
100
AcDbLine
 62
7
  6
CONTINUOUS
 10
4.2454684631
 20
3.4453367951
 11
4.3663693496
 21
3.4060537158
  0
LINE
  5
24D
100
AcDbEntity
  8
0
100
AcDbLine
 62
7
  6
CONTINUOUS
 10
4.3894150391
 20
3.4206800955
 11
4.3945921548
 21
3.4189979486
  0
LINE
  5
24E
100
AcDbEntity
  8
0
100
AcDbLine
 62
7
  6
CONTINUOUS
 10
4.2735034471
 20
3.5232258834
 11
4.2854301866
 21
3.5118314877
  0
LINE
  5
24F
100
AcDbEntity
  8
ALL_ASSEMBLY_MEMBERS
100
AcDbLine
 62
9
  6
CONTINUOUS
 10
4.3387625973
 20
3.0020277366
 11
4.3387625973
 21
3.3573666492
  0
LINE
  5
250
100
AcDbEntity
  8
0
100
AcDbLine
 62
7
  6
CONTINUOUS
 10
5.9776520333
 20
3.3932822776
 11
5.9613721994
 21
3.3963561367
  0
LINE
  5
251
100
AcDbEntity
  8
0
100
AcDbLine
 62
9
  6
CONTINUOUS
 10
5.7109553029
 20
2.7155208485
 11
5.7108214316
 21
2.7156145862
  0
LINE
  5
252
100
AcDbEntity
  8
0
100
AcDbLine
 62
9
  6
CONTINUOUS
 10
5.7216798097
 20
2.7198811966
 11
5.7215457971
 21
2.7199750332
  0
LINE
  5
253
100
AcDbEntity
  8
0
100
AcDbLine
 62
9
  6
CONTINUOUS
 10
5.7300657313
 20
2.7262509709
 11
5.7299316254
 21
2.7263448729
  0
LINE
  5
254
100
AcDbEntity
  8
ALL_ASSEMBLY_MEMBERS
100
AcDbLine
 62
9
  6
CONTINUOUS
 10
4.4092946251
 20
3.026163638
 11
4.4092946251
 21
3.3332307479
  0
LINE
  5
255
100
AcDbEntity
  8
ALL_ASSEMBLY_MEMBERS
100
AcDbLine
 62
9
  6
CONTINUOUS
 10
4.5798566771
 20
3.0671971929
 11
4.5798566771
 21
3.2921971929
  0
LINE
  5
256
100
AcDbEntity
  8
0
100
AcDbLine
 62
7
  6
CONTINUOUS
 10
4.2739983136
 20
3.5247489261
 11
4.2735034471
 21
3.5232258834
  0
LINE
  5
257
100
AcDbEntity
  8
ALL_ASSEMBLY_MEMBERS
100
AcDbLine
 62
9
  6
CONTINUOUS
 10
4.993104451
 20
3.7054449669
 11
5.218104451
 21
3.7054449669
  0
LINE
  5
258
100
AcDbEntity
  8
0
100
AcDbLine
 62
7
  6
CONTINUOUS
 10
4.646659162
 20
3.7731602857
 11
4.5789711122
 21
3.8629853617
  0
LINE
  5
259
100
AcDbEntity
  8
0
100
AcDbLine
 62
7
  6
CONTINUOUS
 10
4.593945528
 20
3.8742693934
 11
4.6616335778
 21
3.7844443174
  0
LINE
  5
25A
100
AcDbEntity
  8
ALL_ASSEMBLY_MEMBERS
100
AcDbLine
 62
7
  6
CONTINUOUS
 10
4.9775903488
 20
4.8969663122
 11
4.951854451
 21
4.8600721929
  0
LINE
  5
25B
100
AcDbEntity
  8
ALL_ASSEMBLY_MEMBERS
100
AcDbLine
 62
9
  6
CONTINUOUS
 10
4.9520708961
 20
3.8760070188
 11
5.2591380059
 21
3.8760070188
  0
LINE
  5
25C
100
AcDbEntity
  8
ALL_ASSEMBLY_MEMBERS
100
AcDbLine
 62
9
  6
CONTINUOUS
 10
4.9279349947
 20
3.9465390466
 11
5.2832739073
 21
3.9465390466
  0
LINE
  5
25D
100
AcDbEntity
  8
ALL_ASSEMBLY_MEMBERS
100
AcDbLine
 62
7
  6
CONTINUOUS
 10
4.958604451
 20
5.9447145022
 11
4.958604451
 21
5.9340721929
  0
LINE
  5
25E
100
AcDbEntity
  8
ALL_ASSEMBLY_MEMBERS
100
AcDbLine
 62
7
  6
CONTINUOUS
 10
4.958604451
 20
5.1503221929
 11
4.958604451
 21
5.1396798836
  0
LINE
  5
25F
100
AcDbEntity
  8
0
100
AcDbLine
 62
7
  6
CONTINUOUS
 10
4.961229451
 20
3.7828667357
 11
4.961229451
 21
3.8565615132
  0
LINE
  5
260
100
AcDbEntity
  8
ALL_ASSEMBLY_MEMBERS
100
AcDbLine
 62
7
  6
CONTINUOUS
 10
4.993104451
 20
3.7054449669
 11
4.993104451
 21
3.5373590569
  0
LINE
  5
261
100
AcDbEntity
  8
ALL_ASSEMBLY_MEMBERS
100
AcDbLine
 62
7
  6
CONTINUOUS
 10
4.993104451
 20
2.8220353289
 11
4.993104451
 21
2.653949419
  0
LINE
  5
262
100
AcDbEntity
  8
ALL_ASSEMBLY_MEMBERS
100
AcDbLine
 62
9
  6
CONTINUOUS
 10
4.9279349947
 20
4.1559450833
 11
5.2832739073
 21
4.1559450833
  0
LINE
  5
263
100
AcDbEntity
  8
ALL_ASSEMBLY_MEMBERS
100
AcDbLine
 62
9
  6
CONTINUOUS
 10
5.0253614944
 20
4.3148107111
 11
5.1858474076
 21
4.3148107111
  0
LINE
  5
264
100
AcDbEntity
  8
ALL_ASSEMBLY_MEMBERS
100
AcDbLine
 62
7
  6
CONTINUOUS
 10
5.218104451
 20
3.7054449669
 11
5.218104451
 21
3.5373590569
  0
LINE
  5
265
100
AcDbEntity
  8
ALL_ASSEMBLY_MEMBERS
100
AcDbLine
 62
7
  6
CONTINUOUS
 10
5.218104451
 20
2.8220353289
 11
5.218104451
 21
2.653949419
  0
LINE
  5
266
100
AcDbEntity
  8
0
100
AcDbLine
 62
7
  6
CONTINUOUS
 10
5.249979451
 20
3.7828668286
 11
5.249979451
 21
3.8565615132
  0
LINE
  5
267
100
AcDbEntity
  8
ALL_ASSEMBLY_MEMBERS
100
AcDbLine
 62
7
  6
CONTINUOUS
 10
5.252604451
 20
5.9447145022
 11
5.252604451
 21
5.9340721929
  0
LINE
  5
268
100
AcDbEntity
  8
ALL_ASSEMBLY_MEMBERS
100
AcDbLine
 62
7
  6
CONTINUOUS
 10
5.252604451
 20
5.1503221929
 11
5.252604451
 21
5.1396798836
  0
LINE
  5
269
100
AcDbEntity
  8
ALL_ASSEMBLY_MEMBERS
100
AcDbLine
 62
9
  6
CONTINUOUS
 10
5.6313522249
 20
3.2921971929
 11
5.6313522249
 21
3.0671971929
  0
LINE
  5
26A
100
AcDbEntity
  8
ALL_ASSEMBLY_MEMBERS
100
AcDbLine
 62
7
  6
CONTINUOUS
 10
5.2336185532
 20
4.8969663122
 11
5.259354451
 21
4.8600721929
  0
LINE
  5
26B
100
AcDbEntity
  8
ALL_ASSEMBLY_MEMBERS
100
AcDbLine
 62
9
  6
CONTINUOUS
 10
5.8019142769
 20
3.3332307479
 11
5.8019142769
 21
3.026163638
  0
LINE
  5
26C
100
AcDbEntity
  8
ALL_ASSEMBLY_MEMBERS
100
AcDbLine
 62
9
  6
CONTINUOUS
 10
5.8724463047
 20
3.3573666492
 11
5.8724463047
 21
3.0020277366
  0
LINE
  5
26D
100
AcDbEntity
  8
0
100
AcDbLine
 62
7
  6
CONTINUOUS
 10
5.5806168965
 20
3.7603798923
 11
5.6529132635
 21
3.8465393473
  0
LINE
  5
26E
100
AcDbEntity
  8
0
100
AcDbLine
 62
7
  6
CONTINUOUS
 10
5.6672765968
 20
3.8344870797
 11
5.5949802298
 21
3.7483276246
  0
LINE
  5
26F
100
AcDbEntity
  8
ALL_ASSEMBLY_MEMBERS
100
AcDbLine
 62
7
  6
CONTINUOUS
 10
4.951854451
 20
4.8600721929
 11
5.259354451
 21
4.8600721929
  0
LINE
  5
270
100
AcDbEntity
  8
ALL_ASSEMBLY_MEMBERS
100
AcDbLine
 62
9
  6
CONTINUOUS
 10
4.9775903488
 20
4.8969663122
 11
5.2336185532
 21
4.8969663122
  0
LINE
  5
271
100
AcDbEntity
  8
ALL_ASSEMBLY_MEMBERS
100
AcDbLine
 62
7
  6
CONTINUOUS
 10
4.970604451
 20
4.9154868856
 11
5.240604451
 21
4.9154868856
  0
LINE
  5
272
100
AcDbEntity
  8
ALL_ASSEMBLY_MEMBERS
100
AcDbLine
 62
9
  6
CONTINUOUS
 10
4.9618717777
 20
4.9357173423
 11
5.2493371243
 21
4.9357173423
  0
LINE
  5
273
100
AcDbEntity
  8
0
100
AcDbLine
 62
7
  6
CONTINUOUS
 10
5.9846741243
 20
3.3670754774
 11
5.9776520333
 21
3.3932822776
  0
LINE
  5
274
100
AcDbEntity
  8
ALL_ASSEMBLY_MEMBERS
100
AcDbLine
 62
9
  6
CONTINUOUS
 10
6.0818523414
 20
3.3573666492
 11
6.0818523414
 21
3.0020277366
  0
LINE
  5
275
100
AcDbEntity
  8
0
100
AcDbLine
 62
9
  6
CONTINUOUS
 10
4.3829219528
 20
2.8843662377
 11
4.3830608182
 21
2.8844464117
  0
LINE
  5
276
100
AcDbEntity
  8
0
100
AcDbLine
 62
9
  6
CONTINUOUS
 10
4.4059029311
 20
2.8490931041
 11
4.406043679
 21
2.849174365
  0
LINE
  5
277
100
AcDbEntity
  8
0
100
AcDbLine
 62
9
  6
CONTINUOUS
 10
4.3347247508
 20
2.7370643181
 11
4.3348665766
 21
2.7371462012
  0
LINE
  5
278
100
AcDbEntity
  8
0
100
AcDbLine
 62
9
  6
CONTINUOUS
 10
4.3386845751
 20
2.7077914534
 11
4.338826256
 21
2.7078732529
  0
LINE
  5
279
100
AcDbEntity
  8
ALL_ASSEMBLY_MEMBERS
100
AcDbLine
 62
9
  6
CONTINUOUS
 10
5.2467115938
 20
5.1242108148
 11
5.1114277108
 21
5.1242108123
  0
LINE
  5
27A
100
AcDbEntity
  8
ALL_ASSEMBLY_MEMBERS
100
AcDbLine
 62
9
  6
CONTINUOUS
 10
5.0997810896
 20
5.1242108133
 11
4.9644973081
 21
5.1242108148
  0
LINE
  5
27B
100
AcDbEntity
  8
ALL_ASSEMBLY_MEMBERS
100
AcDbLine
 62
9
  6
CONTINUOUS
 10
5.252604451
 20
5.1396798836
 11
5.2184427993
 21
5.1396798769
  0
LINE
  5
27C
100
AcDbEntity
  8
ALL_ASSEMBLY_MEMBERS
100
AcDbLine
 62
9
  6
CONTINUOUS
 10
4.992766091
 20
5.1396798813
 11
4.958604451
 21
5.1396798836
  0
LINE
  5
27D
100
AcDbEntity
  8
ALL_ASSEMBLY_MEMBERS
100
AcDbLine
 62
7
  6
CONTINUOUS
 10
4.958604451
 20
5.1503221929
 11
4.9601262747
 21
5.1503221929
  0
LINE
  5
27E
100
AcDbEntity
  8
ALL_ASSEMBLY_MEMBERS
100
AcDbLine
 62
7
  6
CONTINUOUS
 10
5.2510826267
 20
5.1503221929
 11
5.252604451
 21
5.1503221929
  0
LINE
  5
27F
100
AcDbEntity
  8
ALL_ASSEMBLY_MEMBERS
100
AcDbLine
 62
7
  6
CONTINUOUS
 10
4.951854451
 20
6.2243221929
 11
4.9775903488
 21
6.1874280736
  0
LINE
  5
280
100
AcDbEntity
  8
ALL_ASSEMBLY_MEMBERS
100
AcDbLine
 62
9
  6
CONTINUOUS
 10
6.2407179692
 20
3.2599401496
 11
6.2407179692
 21
3.0994542363
  0
LINE
  5
281
100
AcDbEntity
  8
0
100
AcDbLine
 62
7
  6
CONTINUOUS
 10
4.492847019
 20
2.7407058562
 11
4.4897966181
 21
2.7389447065
  0
LINE
  5
282
100
AcDbEntity
  8
0
100
AcDbLine
 62
7
  6
CONTINUOUS
 10
4.5064604189
 20
2.7171297602
 11
4.5017461538
 21
2.714407978
  0
LINE
  5
283
100
AcDbEntity
  8
0
100
AcDbLine
 62
7
  6
CONTINUOUS
 10
4.4971962471
 20
2.6874953942
 11
4.3871042
 21
2.6239337212
  0
LINE
  5
284
100
AcDbEntity
  8
0
100
AcDbLine
 62
7
  6
CONTINUOUS
 10
4.5065391776
 20
2.6713159493
 11
4.4228838603
 21
2.6230175293
  0
LINE
  5
285
100
AcDbEntity
  8
0
100
AcDbLine
 62
7
  6
CONTINUOUS
 10
4.536838409
 20
2.6645235248
 11
4.5321241137
 21
2.6618017251
  0
LINE
  5
286
100
AcDbEntity
  8
0
100
AcDbLine
 62
7
  6
CONTINUOUS
 10
4.4295763711
 20
2.6016095386
 11
4.4259713317
 21
2.5995281681
  0
LINE
  5
287
100
AcDbEntity
  8
ALL_FEATURES
100
AcDbLine
 62
7
  6
CONTINUOUS
 10
6.699354451
 20
1.5259471929
 11
6.699354451
 21
1.5559471929
  0
LINE
  5
288
100
AcDbEntity
  8
ALL_FEATURES
100
AcDbLine
 62
7
  6
CONTINUOUS
 10
6.699354451
 20
7.0534471929
 11
6.699354451
 21
7.0834471929
  0
LINE
  5
289
100
AcDbEntity
  8
ALL_FEATURES
100
AcDbLine
 62
7
  6
CONTINUOUS
 10
6.793104451
 20
1.5259471929
 11
6.793104451
 21
1.5559471929
  0
LINE
  5
28A
100
AcDbEntity
  8
ALL_FEATURES
100
AcDbLine
 62
7
  6
CONTINUOUS
 10
6.793104451
 20
7.0534471929
 11
6.793104451
 21
7.0834471929
  0
LINE
  5
28B
100
AcDbEntity
  8
ALL_ASSEMBLY_MEMBERS
100
AcDbLine
 62
7
  6
CONTINUOUS
 10
5.252604451
 20
5.9340721929
 11
5.2510826271
 21
5.9340721929
  0
LINE
  5
28C
100
AcDbEntity
  8
ALL_ASSEMBLY_MEMBERS
100
AcDbLine
 62
7
  6
CONTINUOUS
 10
4.9601262753
 20
5.9340721929
 11
4.958604451
 21
5.9340721929
  0
LINE
  5
28D
100
AcDbEntity
  8
ALL_ASSEMBLY_MEMBERS
100
AcDbLine
 62
9
  6
CONTINUOUS
 10
4.958604451
 20
5.9447145022
 11
4.9927661026
 21
5.944714509
  0
LINE
  5
28E
100
AcDbEntity
  8
ALL_ASSEMBLY_MEMBERS
100
AcDbLine
 62
9
  6
CONTINUOUS
 10
5.2184428122
 20
5.9447145045
 11
5.252604451
 21
5.9447145022
  0
LINE
  5
28F
100
AcDbEntity
  8
ALL_ASSEMBLY_MEMBERS
100
AcDbLine
 62
9
  6
CONTINUOUS
 10
4.9644973081
 20
5.9601835711
 11
5.0997811914
 21
5.9601835736
  0
LINE
  5
290
100
AcDbEntity
  8
ALL_ASSEMBLY_MEMBERS
100
AcDbLine
 62
9
  6
CONTINUOUS
 10
5.1114277978
 20
5.9601835726
 11
5.2467115938
 21
5.9601835711
  0
LINE
  5
291
100
AcDbEntity
  8
ALL_FEATURES
100
AcDbLine
 62
7
  6
CONTINUOUS
 10
7.074354451
 20
1.9009471929
 11
7.074354451
 21
6.7084471929
  0
LINE
  5
292
100
AcDbEntity
  8
ALL_ASSEMBLY_MEMBERS
100
AcDbLine
 62
9
  6
CONTINUOUS
 10
5.2493371243
 20
6.1486770436
 11
4.9618717777
 21
6.1486770436
  0
LINE
  5
293
100
AcDbEntity
  8
ALL_ASSEMBLY_MEMBERS
100
AcDbLine
 62
7
  6
CONTINUOUS
 10
5.240604451
 20
6.1689075003
 11
4.970604451
 21
6.1689075003
  0
LINE
  5
294
100
AcDbEntity
  8
ALL_ASSEMBLY_MEMBERS
100
AcDbLine
 62
9
  6
CONTINUOUS
 10
5.2336185532
 20
6.1874280736
 11
4.9775903488
 21
6.1874280736
  0
LINE
  5
295
100
AcDbEntity
  8
ALL_ASSEMBLY_MEMBERS
100
AcDbLine
 62
7
  6
CONTINUOUS
 10
5.259354451
 20
6.2243221929
 11
4.951854451
 21
6.2243221929
  0
LINE
  5
296
100
AcDbEntity
  8
ALL_FEATURES
100
AcDbLine
 62
7
  6
CONTINUOUS
 10
7.168104451
 20
1.9009471929
 11
7.168104451
 21
6.7084471929
  0
LINE
  5
297
100
AcDbEntity
  8
ALL_FEATURES
100
AcDbLine
 62
7
  6
CONTINUOUS
 10
6.853104451
 20
6.9296971929
 11
6.823104451
 21
6.9296971929
  0
LINE
  5
298
100
AcDbEntity
  8
ALL_FEATURES
100
AcDbLine
 62
7
  6
CONTINUOUS
 10
3.388104451
 20
6.9296971929
 11
3.358104451
 21
6.9296971929
  0
LINE
  5
299
100
AcDbEntity
  8
ALL_FEATURES
100
AcDbLine
 62
7
  6
CONTINUOUS
 10
6.853104451
 20
7.0234471929
 11
6.823104451
 21
7.0234471929
  0
LINE
  5
29A
100
AcDbEntity
  8
ALL_FEATURES
100
AcDbLine
 62
7
  6
CONTINUOUS
 10
3.388104451
 20
7.0234471929
 11
3.358104451
 21
7.0234471929
  0
LINE
  5
29B
100
AcDbEntity
  8
ALL_FEATURES
100
AcDbLine
 62
7
  6
CONTINUOUS
 10
6.478104451
 20
7.3046971929
 11
3.733104451
 21
7.3046971929
  0
LINE
  5
29C
100
AcDbEntity
  8
ALL_FEATURES
100
AcDbLine
 62
7
  6
CONTINUOUS
 10
6.478104451
 20
7.3984471929
 11
3.733104451
 21
7.3984471929
  0
ARC
  5
29D
100
AcDbEntity
  8
0
100
AcDbCircle
 62
7
  6
CONTINUOUS
 10
3.6475447527
 20
-1.146514761
 40
3.9755491317
100
AcDbArc
 50
78.2363721803
 51
78.404997662
  0
ARC
  5
29E
100
AcDbEntity
  8
0
100
AcDbCircle
 62
7
  6
CONTINUOUS
 10
4.067272419
 20
1.2282164355
 40
1.574613986
100
AcDbArc
 50
75.4070310106
 51
76.0415308946
  0
ARC
  5
29F
100
AcDbEntity
  8
0
100
AcDbCircle
 62
7
  6
CONTINUOUS
 10
3.9810572321
 20
2.0890695396
 40
0.681077579
100
AcDbArc
 50
48.8111220309
 51
49.2669839164
  0
ARC
  5
2A0
100
AcDbEntity
  8
ALL_FEATURES
100
AcDbCircle
 62
7
  6
CONTINUOUS
 10
3.733104451
 20
1.5259471929
 40
0.315
100
AcDbArc
 50
180.0
 51
270.0
  0
ARC
  5
2A1
100
AcDbEntity
  8
ALL_FEATURES
100
AcDbCircle
 62
7
  6
CONTINUOUS
 10
3.358104451
 20
1.9009471929
 40
0.315
100
AcDbArc
 50
180.0
 51
270.0
  0
ARC
  5
2A2
100
AcDbEntity
  8
ALL_FEATURES
100
AcDbCircle
 62
7
  6
CONTINUOUS
 10
3.733104451
 20
1.5259471929
 40
0.22125
100
AcDbArc
 50
180.0
 51
270.0
  0
ARC
  5
2A3
100
AcDbEntity
  8
ALL_FEATURES
100
AcDbCircle
 62
7
  6
CONTINUOUS
 10
3.358104451
 20
1.9009471929
 40
0.22125
100
AcDbArc
 50
180.0
 51
270.0
  0
ARC
  5
2A4
100
AcDbEntity
  8
ALL_FEATURES
100
AcDbCircle
 62
7
  6
CONTINUOUS
 10
3.388104451
 20
1.5559471929
 40
0.12375
100
AcDbArc
 50
0.0
 51
90.0
  0
ARC
  5
2A5
100
AcDbEntity
  8
ALL_FEATURES
100
AcDbCircle
 62
7
  6
CONTINUOUS
 10
3.388104451
 20
1.5559471929
 40
0.03
100
AcDbArc
 50
0.0
 51
90.0
  0
ARC
  5
2A6
100
AcDbEntity
  8
0
100
AcDbCircle
 62
7
  6
CONTINUOUS
 10
4.1941247054
 20
1.7420792924
 40
1.0453240064
100
AcDbArc
 50
76.1879158122
 51
76.7730431885
  0
ARC
  5
2A7
100
AcDbEntity
  8
0
100
AcDbCircle
 62
7
  6
CONTINUOUS
 10
4.2730805907
 20
2.0813148056
 40
0.6970225541
100
AcDbArc
 50
76.7106683111
 51
77.9135613766
  0
ARC
  5
2A8
100
AcDbEntity
  8
ALL_ASSEMBLY_MEMBERS
100
AcDbCircle
 62
7
  6
CONTINUOUS
 10
4.234059579
 20
2.8046971929
 40
0.5625
100
AcDbArc
 50
79.2724717156
 51
100.7275282844
  0
ARC
  5
2A9
100
AcDbEntity
  8
ALL_ASSEMBLY_MEMBERS
100
AcDbCircle
 62
7
  6
CONTINUOUS
 10
4.5798566771
 20
2.6921971929
 40
0.375
100
AcDbArc
 50
90.0
 51
117.0541342467
  0
ARC
  5
2AA
100
AcDbEntity
  8
0
100
AcDbCircle
 62
7
  6
CONTINUOUS
 10
4.380234253
 20
2.7445539856
 40
0.0603007897
100
AcDbArc
 50
272.7152769447
 51
276.6712426468
  0
ARC
  5
2AB
100
AcDbEntity
  8
0
100
AcDbCircle
 62
7
  6
CONTINUOUS
 10
4.3708163
 20
2.8518468629
 40
0.0524598276
100
AcDbArc
 50
29.9932192112
 51
31.3446056354
  0
ARC
  5
2AC
100
AcDbEntity
  8
0
100
AcDbCircle
 62
7
  6
CONTINUOUS
 10
4.380619665
 20
2.7347701292
 40
0.0506048386
100
AcDbArc
 50
243.7957263773
 51
250.1153650342
  0
ARC
  5
2AD
100
AcDbEntity
  8
0
100
AcDbCircle
 62
7
  6
CONTINUOUS
 10
4.3797338731
 20
2.7323291161
 40
0.0480080781
100
AcDbArc
 50
250.1186172723
 51
254.8021951329
  0
ARC
  5
2AE
100
AcDbEntity
  8
0
100
AcDbCircle
 62
7
  6
CONTINUOUS
 10
4.3926336731
 20
2.7268418313
 40
0.039808946
100
AcDbArc
 50
209.9801220797
 51
213.2024451921
  0
ARC
  5
2AF
100
AcDbEntity
  8
0
100
AcDbCircle
 62
7
  6
CONTINUOUS
 10
4.3168415471
 20
2.8191088326
 40
0.0365053823
100
AcDbArc
 50
235.5438047656
 51
240.358482324
  0
ARC
  5
2B0
100
AcDbEntity
  8
0
100
AcDbCircle
 62
7
  6
CONTINUOUS
 10
4.3833772495
 20
2.7188981175
 40
0.027521378
100
AcDbArc
 50
243.4704595619
 51
248.5740886575
  0
ARC
  5
2B1
100
AcDbEntity
  8
0
100
AcDbCircle
 62
7
  6
CONTINUOUS
 10
4.3135387404
 20
2.8188651302
 40
0.0258597518
100
AcDbArc
 50
209.9461151753
 51
215.4058400454
  0
ARC
  5
2B2
100
AcDbEntity
  8
ALL_ASSEMBLY_MEMBERS
100
AcDbCircle
 62
7
  6
CONTINUOUS
 10
5.0253614944
 20
2.2523107111
 40
0.2625
100
AcDbArc
 50
307.6889842707
 51
349.2724717156
  0
ARC
  5
2B3
100
AcDbEntity
  8
ALL_ASSEMBLY_MEMBERS
100
AcDbCircle
 62
7
  6
CONTINUOUS
 10
4.730604451
 20
2.3081523209
 40
0.5625
100
AcDbArc
 50
349.2724717156
 51
10.7275282844
  0
ARC
  5
2B4
100
AcDbEntity
  8
ALL_ASSEMBLY_MEMBERS
100
AcDbCircle
 62
7
  6
CONTINUOUS
 10
4.618104451
 20
2.653949419
 40
0.375
100
AcDbArc
 50
332.9458657533
 51
360.0
  0
ARC
  5
2B5
100
AcDbEntity
  8
ALL_ASSEMBLY_MEMBERS
100
AcDbCircle
 62
7
  6
CONTINUOUS
 10
5.0253614944
 20
2.3639939307
 40
0.2625
100
AcDbArc
 50
10.7275282844
 51
27.0541342467
  0
ARC
  5
2B6
100
AcDbEntity
  8
ALL_ASSEMBLY_MEMBERS
100
AcDbCircle
 62
7
  6
CONTINUOUS
 10
4.1782179692
 20
3.2599401496
 40
0.2625
100
AcDbArc
 50
217.6889842707
 51
259.2724717156
  0
ARC
  5
2B7
100
AcDbEntity
  8
ALL_ASSEMBLY_MEMBERS
100
AcDbCircle
 62
7
  6
CONTINUOUS
 10
4.1782179692
 20
3.0994542363
 40
0.2625
100
AcDbArc
 50
100.7275282844
 51
142.3110157293
  0
ARC
  5
2B8
100
AcDbEntity
  8
ALL_ASSEMBLY_MEMBERS
100
AcDbCircle
 62
7
  6
CONTINUOUS
 10
4.074354451
 20
3.1796971929
 40
0.13125
100
AcDbArc
 50
142.3110157293
 51
217.6889842707
  0
ARC
  5
2B9
100
AcDbEntity
  8
0
100
AcDbCircle
 62
7
  6
CONTINUOUS
 10
4.1750390479
 20
3.4040801781
 40
0.0821285803
100
AcDbArc
 50
2.2650071885
 51
3.2898682505
  0
ARC
  5
2BA
100
AcDbEntity
  8
ALL_FEATURES
100
AcDbCircle
 62
7
  6
CONTINUOUS
 10
3.358104451
 20
6.7084471929
 40
0.315
100
AcDbArc
 50
90.0
 51
180.0
  0
ARC
  5
2BB
100
AcDbEntity
  8
ALL_FEATURES
100
AcDbCircle
 62
7
  6
CONTINUOUS
 10
3.733104451
 20
7.0834471929
 40
0.315
100
AcDbArc
 50
90.0
 51
180.0
  0
ARC
  5
2BC
100
AcDbEntity
  8
ALL_FEATURES
100
AcDbCircle
 62
7
  6
CONTINUOUS
 10
3.358104451
 20
6.7084471929
 40
0.22125
100
AcDbArc
 50
90.0
 51
180.0
  0
ARC
  5
2BD
100
AcDbEntity
  8
ALL_FEATURES
100
AcDbCircle
 62
7
  6
CONTINUOUS
 10
3.733104451
 20
7.0834471929
 40
0.22125
100
AcDbArc
 50
90.0
 51
180.0
  0
ARC
  5
2BE
100
AcDbEntity
  8
ALL_FEATURES
100
AcDbCircle
 62
7
  6
CONTINUOUS
 10
3.388104451
 20
7.0534471929
 40
0.12375
100
AcDbArc
 50
270.0
 51
360.0
  0
ARC
  5
2BF
100
AcDbEntity
  8
ALL_FEATURES
100
AcDbCircle
 62
7
  6
CONTINUOUS
 10
3.388104451
 20
7.0534471929
 40
0.03
100
AcDbArc
 50
270.0
 51
360.0
  0
ARC
  5
2C0
100
AcDbEntity
  8
ALL_ASSEMBLY_MEMBERS
100
AcDbCircle
 62
7
  6
CONTINUOUS
 10
4.2899011888
 20
3.2599401496
 40
0.2625
100
AcDbArc
 50
280.7275282844
 51
297.0541342467
  0
ARC
  5
2C1
100
AcDbEntity
  8
ALL_ASSEMBLY_MEMBERS
100
AcDbCircle
 62
7
  6
CONTINUOUS
 10
4.2899011888
 20
3.0994542363
 40
0.2625
100
AcDbArc
 50
62.9458657533
 51
79.2724717156
  0
ARC
  5
2C2
100
AcDbEntity
  8
ALL_ASSEMBLY_MEMBERS
100
AcDbCircle
 62
7
  6
CONTINUOUS
 10
4.234059579
 20
3.5546971929
 40
0.5625
100
AcDbArc
 50
259.2724717156
 51
280.7275282844
  0
ARC
  5
2C3
100
AcDbEntity
  8
0
100
AcDbCircle
 62
7
  6
CONTINUOUS
 10
4.332594004
 20
3.4993001552
 40
0.0861280315
100
AcDbArc
 50
340.8079799315
 51
342.0073550419
  0
ARC
  5
2C4
100
AcDbEntity
  8
0
100
AcDbCircle
 62
7
  6
CONTINUOUS
 10
4.3416456092
 20
3.4964122882
 40
0.0766270528
100
AcDbArc
 50
341.9704508173
 51
345.9428907652
  0
ARC
  5
2C5
100
AcDbEntity
  8
0
100
AcDbCircle
 62
7
  6
CONTINUOUS
 10
4.3477309279
 20
3.4948905186
 40
0.0703543435
100
AcDbArc
 50
345.9413779279
 51
350.1934501263
  0
ARC
  5
2C6
100
AcDbEntity
  8
0
100
AcDbCircle
 62
7
  6
CONTINUOUS
 10
4.3567481991
 20
3.4923434014
 40
0.0614486622
100
AcDbArc
 50
21.935481056
 51
25.3579076061
  0
ARC
  5
2C7
100
AcDbEntity
  8
0
100
AcDbCircle
 62
7
  6
CONTINUOUS
 10
4.3611193224
 20
3.4937450597
 40
0.0568568867
100
AcDbArc
 50
4.7816929004
 51
10.0365962137
  0
ARC
  5
2C8
100
AcDbEntity
  8
0
100
AcDbCircle
 62
7
  6
CONTINUOUS
 10
4.3743708299
 20
3.4916290904
 40
0.0371883248
100
AcDbArc
 50
35.1023521017
 51
53.6383749994
  0
ARC
  5
2C9
100
AcDbEntity
  8
0
100
AcDbCircle
 62
7
  6
CONTINUOUS
 10
4.3748927892
 20
3.4920061543
 40
0.0365444708
100
AcDbArc
 50
32.9002699997
 51
35.0892779202
  0
ARC
  5
2CA
100
AcDbEntity
  8
0
100
AcDbCircle
 62
7
  6
CONTINUOUS
 10
4.3859890472
 20
3.4974471786
 40
0.0244209353
100
AcDbArc
 50
336.4677566331
 51
342.0142185393
  0
ARC
  5
2CB
100
AcDbEntity
  8
ALL_ASSEMBLY_MEMBERS
100
AcDbCircle
 62
7
  6
CONTINUOUS
 10
4.618104451
 20
3.7054449669
 40
0.375
100
AcDbArc
 50
0.0
 51
27.0541342467
  0
ARC
  5
2CC
100
AcDbEntity
  8
ALL_ASSEMBLY_MEMBERS
100
AcDbCircle
 62
7
  6
CONTINUOUS
 10
4.5798566771
 20
3.6671971929
 40
0.375
100
AcDbArc
 50
242.9458657533
 51
270.0
  0
ARC
  5
2CD
100
AcDbEntity
  8
ALL_ASSEMBLY_MEMBERS
100
AcDbCircle
 62
7
  6
CONTINUOUS
 10
4.730604451
 20
4.0512420649
 40
0.5625
100
AcDbArc
 50
349.2724717156
 51
10.7275282844
  0
ARC
  5
2CE
100
AcDbEntity
  8
ALL_ASSEMBLY_MEMBERS
100
AcDbCircle
 62
7
  6
CONTINUOUS
 10
5.0253614944
 20
3.9954004552
 40
0.2625
100
AcDbArc
 50
332.9458657533
 51
349.2724717156
  0
ARC
  5
2CF
100
AcDbEntity
  8
ALL_ASSEMBLY_MEMBERS
100
AcDbCircle
 62
7
  6
CONTINUOUS
 10
5.0253614944
 20
4.1070836747
 40
0.2625
100
AcDbArc
 50
10.7275282844
 51
52.3110157293
  0
ARC
  5
2D0
100
AcDbEntity
  8
ALL_ASSEMBLY_MEMBERS
100
AcDbCircle
 62
7
  6
CONTINUOUS
 10
4.860354451
 20
5.0313964015
 40
0.1395
100
AcDbArc
 50
316.6958241996
 51
41.7081302521
  0
ARC
  5
2D1
100
AcDbEntity
  8
ALL_ASSEMBLY_MEMBERS
100
AcDbCircle
 62
7
  6
CONTINUOUS
 10
4.970604451
 20
4.9274868856
 40
0.012
100
AcDbArc
 50
136.6958241996
 51
270.0
  0
ARC
  5
2D2
100
AcDbEntity
  8
ALL_ASSEMBLY_MEMBERS
100
AcDbCircle
 62
7
  6
CONTINUOUS
 10
4.9677483015
 20
4.9038317404
 40
0.012
100
AcDbArc
 50
325.101876439
 51
76.2307362332
  0
ARC
  5
2D3
100
AcDbEntity
  8
ALL_ASSEMBLY_MEMBERS
100
AcDbCircle
 62
7
  6
CONTINUOUS
 10
4.860354451
 20
6.0529979843
 40
0.1395
100
AcDbArc
 50
318.2918697479
 51
43.3041758004
  0
ARC
  5
2D4
100
AcDbEntity
  8
ALL_ASSEMBLY_MEMBERS
100
AcDbCircle
 62
7
  6
CONTINUOUS
 10
4.981854451
 20
5.9447145022
 40
0.02325
100
AcDbArc
 50
138.2918697479
 51
180.0
  0
ARC
  5
2D5
100
AcDbEntity
  8
ALL_ASSEMBLY_MEMBERS
100
AcDbCircle
 62
7
  6
CONTINUOUS
 10
4.981854451
 20
5.1396798836
 40
0.02325
100
AcDbArc
 50
180.0
 51
221.7081302521
  0
ARC
  5
2D6
100
AcDbEntity
  8
ALL_ASSEMBLY_MEMBERS
100
AcDbCircle
 62
7
  6
CONTINUOUS
 10
4.970604451
 20
6.1569075003
 40
0.012
100
AcDbArc
 50
90.0
 51
223.3041758004
  0
ARC
  5
2D7
100
AcDbEntity
  8
ALL_ASSEMBLY_MEMBERS
100
AcDbCircle
 62
7
  6
CONTINUOUS
 10
4.9677483015
 20
6.1805626455
 40
0.012
100
AcDbArc
 50
283.7692637668
 51
34.898123561
  0
ARC
  5
2D8
100
AcDbEntity
  8
ALL_ASSEMBLY_MEMBERS
100
AcDbCircle
 62
7
  6
CONTINUOUS
 10
5.105604451
 20
2.1484471929
 40
0.13125
100
AcDbArc
 50
232.3110157293
 51
307.6889842707
  0
ARC
  5
2D9
100
AcDbEntity
  8
ALL_ASSEMBLY_MEMBERS
100
AcDbCircle
 62
7
  6
CONTINUOUS
 10
5.480604451
 20
2.3081523209
 40
0.5625
100
AcDbArc
 50
169.2724717156
 51
190.7275282844
  0
ARC
  5
2DA
100
AcDbEntity
  8
ALL_ASSEMBLY_MEMBERS
100
AcDbCircle
 62
7
  6
CONTINUOUS
 10
5.1858474076
 20
2.2523107111
 40
0.2625
100
AcDbArc
 50
190.7275282844
 51
232.3110157293
  0
ARC
  5
2DB
100
AcDbEntity
  8
ALL_ASSEMBLY_MEMBERS
100
AcDbCircle
 62
7
  6
CONTINUOUS
 10
5.1858474076
 20
2.3639939307
 40
0.2625
100
AcDbArc
 50
152.9458657533
 51
169.2724717156
  0
ARC
  5
2DC
100
AcDbEntity
  8
ALL_ASSEMBLY_MEMBERS
100
AcDbCircle
 62
7
  6
CONTINUOUS
 10
5.977149323
 20
2.8046971929
 40
0.5625
100
AcDbArc
 50
79.2724717156
 51
100.7275282844
  0
ARC
  5
2DD
100
AcDbEntity
  8
ALL_ASSEMBLY_MEMBERS
100
AcDbCircle
 62
7
  6
CONTINUOUS
 10
5.593104451
 20
2.653949419
 40
0.375
100
AcDbArc
 50
180.0
 51
207.0541342467
  0
ARC
  5
2DE
100
AcDbEntity
  8
ALL_ASSEMBLY_MEMBERS
100
AcDbCircle
 62
7
  6
CONTINUOUS
 10
5.6313522249
 20
2.6921971929
 40
0.375
100
AcDbArc
 50
62.9458657533
 51
90.0
  0
ARC
  5
2DF
100
AcDbEntity
  8
0
100
AcDbCircle
 62
7
  6
CONTINUOUS
 10
5.7630190645
 20
2.6812345491
 40
0.0766165769
100
AcDbArc
 50
144.9716795397
 51
148.9503296564
  0
ARC
  5
2E0
100
AcDbEntity
  8
0
100
AcDbCircle
 62
7
  6
CONTINUOUS
 10
5.7490204579
 20
2.6894395465
 40
0.0606891873
100
AcDbArc
 50
178.2828628362
 51
188.3740260285
  0
ARC
  5
2E1
100
AcDbEntity
  8
0
100
AcDbCircle
 62
7
  6
CONTINUOUS
 10
5.7484204138
 20
2.6887190411
 40
0.0601793001
100
AcDbArc
 50
157.7722697133
 51
167.6765324365
  0
ARC
  5
2E2
100
AcDbEntity
  8
0
100
AcDbCircle
 62
7
  6
CONTINUOUS
 10
5.7448447554
 20
2.6895316188
 40
0.0565126106
100
AcDbArc
 50
167.707657635
 51
178.2493093328
  0
ARC
  5
2E3
100
AcDbEntity
  8
0
100
AcDbCircle
 62
7
  6
CONTINUOUS
 10
5.7401895392
 20
2.6862497286
 40
0.0513303471
100
AcDbArc
 50
208.4809078543
 51
214.0502515834
  0
ARC
  5
2E4
100
AcDbEntity
  8
ALL_FEATURES
100
AcDbCircle
 62
7
  6
CONTINUOUS
 10
6.478104451
 20
1.5259471929
 40
0.315
100
AcDbArc
 50
270.0
 51
360.0
  0
ARC
  5
2E5
100
AcDbEntity
  8
ALL_FEATURES
100
AcDbCircle
 62
7
  6
CONTINUOUS
 10
6.853104451
 20
1.9009471929
 40
0.315
100
AcDbArc
 50
270.0
 51
360.0
  0
ARC
  5
2E6
100
AcDbEntity
  8
ALL_FEATURES
100
AcDbCircle
 62
7
  6
CONTINUOUS
 10
6.478104451
 20
1.5259471929
 40
0.22125
100
AcDbArc
 50
270.0
 51
360.0
  0
ARC
  5
2E7
100
AcDbEntity
  8
ALL_FEATURES
100
AcDbCircle
 62
7
  6
CONTINUOUS
 10
6.853104451
 20
1.9009471929
 40
0.22125
100
AcDbArc
 50
270.0
 51
360.0
  0
ARC
  5
2E8
100
AcDbEntity
  8
ALL_FEATURES
100
AcDbCircle
 62
7
  6
CONTINUOUS
 10
6.823104451
 20
1.5559471929
 40
0.12375
100
AcDbArc
 50
90.0
 51
180.0
  0
ARC
  5
2E9
100
AcDbEntity
  8
ALL_FEATURES
100
AcDbCircle
 62
7
  6
CONTINUOUS
 10
6.823104451
 20
1.5559471929
 40
0.03
100
AcDbArc
 50
90.0
 51
180.0
  0
ARC
  5
2EA
100
AcDbEntity
  8
0
100
AcDbCircle
 62
7
  6
CONTINUOUS
 10
5.105604451
 20
3.1796971929
 40
1.012875
100
AcDbArc
 50
99.8112412661
 51
170.1868051184
  0
ARC
  5
2EB
100
AcDbEntity
  8
0
100
AcDbCircle
 62
7
  6
CONTINUOUS
 10
5.105604451
 20
3.1796971929
 40
1.012875
100
AcDbArc
 50
189.8131948816
 51
260.1887587339
  0
ARC
  5
2EC
100
AcDbEntity
  8
0
100
AcDbCircle
 62
7
  6
CONTINUOUS
 10
5.105604451
 20
3.1796971929
 40
1.012875
100
AcDbArc
 50
9.8131948816
 51
80.1887587339
  0
ARC
  5
2ED
100
AcDbEntity
  8
0
100
AcDbCircle
 62
7
  6
CONTINUOUS
 10
5.105604451
 20
3.1796971929
 40
1.012875
100
AcDbArc
 50
279.8112412661
 51
350.1868051184
  0
ARC
  5
2EE
100
AcDbEntity
  8
0
100
AcDbCircle
 62
7
  6
CONTINUOUS
 10
5.105604451
 20
3.1796971929
 40
0.952875
100
AcDbArc
 50
11.1312453102
 51
78.8718744996
  0
ARC
  5
2EF
100
AcDbEntity
  8
0
100
AcDbCircle
 62
7
  6
CONTINUOUS
 10
5.105604451
 20
3.1796971929
 40
0.952875
100
AcDbArc
 50
281.1281255004
 51
348.8687546898
  0
ARC
  5
2F0
100
AcDbEntity
  8
0
100
AcDbCircle
 62
7
  6
CONTINUOUS
 10
5.105604451
 20
3.1796971929
 40
0.952875
100
AcDbArc
 50
101.1281255004
 51
168.8687546898
  0
ARC
  5
2F1
100
AcDbEntity
  8
0
100
AcDbCircle
 62
7
  6
CONTINUOUS
 10
5.105604451
 20
3.1796971929
 40
0.952875
100
AcDbArc
 50
191.1312453102
 51
258.8718744996
  0
ARC
  5
2F2
100
AcDbEntity
  8
0
100
AcDbCircle
 62
7
  6
CONTINUOUS
 10
5.105604451
 20
3.1796971929
 40
0.7125
100
AcDbArc
 50
102.4302062838
 51
167.5697937162
  0
ARC
  5
2F3
100
AcDbEntity
  8
0
100
AcDbCircle
 62
7
  6
CONTINUOUS
 10
5.105604451
 20
3.1796971929
 40
0.7125
100
AcDbArc
 50
192.4302062838
 51
257.5697937162
  0
ARC
  5
2F4
100
AcDbEntity
  8
0
100
AcDbCircle
 62
7
  6
CONTINUOUS
 10
5.105604451
 20
3.1796971929
 40
0.7125
100
AcDbArc
 50
12.4302062838
 51
77.5697937162
  0
ARC
  5
2F5
100
AcDbEntity
  8
0
100
AcDbCircle
 62
7
  6
CONTINUOUS
 10
5.105604451
 20
3.1796971929
 40
0.7125
100
AcDbArc
 50
282.4302062838
 51
347.5697937162
  0
ARC
  5
2F6
100
AcDbEntity
  8
0
100
AcDbCircle
 62
7
  6
CONTINUOUS
 10
5.105604451
 20
3.1796971929
 40
0.627375
100
AcDbArc
 50
103.3060167285
 51
168.6621189587
  0
ARC
  5
2F7
100
AcDbEntity
  8
0
100
AcDbCircle
 62
7
  6
CONTINUOUS
 10
5.105604451
 20
3.1796971929
 40
0.627375
100
AcDbArc
 50
11.3378810413
 51
76.6939832715
  0
ARC
  5
2F8
100
AcDbEntity
  8
0
100
AcDbCircle
 62
7
  6
CONTINUOUS
 10
5.105604451
 20
3.1796971929
 40
0.627375
100
AcDbArc
 50
281.3378810413
 51
348.6621189587
  0
ARC
  5
2F9
100
AcDbEntity
  8
0
100
AcDbCircle
 62
7
  6
CONTINUOUS
 10
5.105604451
 20
3.1796971929
 40
0.627375
100
AcDbArc
 50
191.3378810413
 51
258.6621189587
  0
ARC
  5
2FA
100
AcDbEntity
  8
0
100
AcDbCircle
 62
7
  6
CONTINUOUS
 10
5.105604451
 20
3.1796971929
 40
0.62025
100
AcDbArc
 50
191.3194797825
 51
258.6805202175
  0
ARC
  5
2FB
100
AcDbEntity
  8
0
100
AcDbCircle
 62
7
  6
CONTINUOUS
 10
5.105604451
 20
3.1796971929
 40
0.62025
100
AcDbArc
 50
101.3194797825
 51
168.6805202175
  0
ARC
  5
2FC
100
AcDbEntity
  8
0
100
AcDbCircle
 62
7
  6
CONTINUOUS
 10
5.105604451
 20
3.1796971929
 40
0.62025
100
AcDbArc
 50
281.3194179745
 51
348.6805824163
  0
ARC
  5
2FD
100
AcDbEntity
  8
0
100
AcDbCircle
 62
7
  6
CONTINUOUS
 10
5.105604451
 20
3.1796971929
 40
0.62025
100
AcDbArc
 50
11.3194797825
 51
78.6805202175
  0
ARC
  5
2FE
100
AcDbEntity
  8
0
100
AcDbCircle
 62
9
  6
CONTINUOUS
 10
5.105604451
 20
3.1796971929
 40
0.5920146191
100
AcDbArc
 50
191.3562852008
 51
258.6437144942
  0
ARC
  5
2FF
100
AcDbEntity
  8
0
100
AcDbCircle
 62
9
  6
CONTINUOUS
 10
5.105604451
 20
3.1796971929
 40
0.5920146188
100
AcDbArc
 50
281.3562847383
 51
348.6437156135
  0
ARC
  5
300
100
AcDbEntity
  8
0
100
AcDbCircle
 62
9
  6
CONTINUOUS
 10
5.105604451
 20
3.1796971929
 40
0.5920146153
100
AcDbArc
 50
11.3562868973
 51
78.6437126865
  0
ARC
  5
301
100
AcDbEntity
  8
0
100
AcDbCircle
 62
9
  6
CONTINUOUS
 10
5.105604451
 20
3.1796971929
 40
0.5920146153
100
AcDbArc
 50
101.3562873155
 51
168.6437133263
  0
ARC
  5
302
100
AcDbEntity
  8
0
100
AcDbCircle
 62
9
  6
CONTINUOUS
 10
5.105604451
 20
3.1796971929
 40
0.5840009741
100
AcDbArc
 50
11.4015609448
 51
78.5962601968
  0
ARC
  5
303
100
AcDbEntity
  8
0
100
AcDbCircle
 62
9
  6
CONTINUOUS
 10
5.105604451
 20
3.1796971929
 40
0.5840009741
100
AcDbArc
 50
101.4038345985
 51
168.6005370603
  0
ARC
  5
304
100
AcDbEntity
  8
0
100
AcDbCircle
 62
9
  6
CONTINUOUS
 10
5.105604451
 20
3.1796971929
 40
0.5840009741
100
AcDbArc
 50
191.401560978
 51
258.5962601931
  0
ARC
  5
305
100
AcDbEntity
  8
0
100
AcDbCircle
 62
9
  6
CONTINUOUS
 10
5.105604451
 20
3.1796971929
 40
0.5840009741
100
AcDbArc
 50
281.4038345883
 51
348.6005370573
  0
ARC
  5
306
100
AcDbEntity
  8
0
100
AcDbCircle
 62
9
  6
CONTINUOUS
 10
5.105604451
 20
3.1796971929
 40
0.5680586424
100
AcDbArc
 50
11.5552721585
 51
78.4436904647
  0
ARC
  5
307
100
AcDbEntity
  8
0
100
AcDbCircle
 62
9
  6
CONTINUOUS
 10
5.105604451
 20
3.1796971929
 40
0.5680586424
100
AcDbArc
 50
101.5562054889
 51
168.4483799201
  0
ARC
  5
308
100
AcDbEntity
  8
0
100
AcDbCircle
 62
9
  6
CONTINUOUS
 10
5.105604451
 20
3.1796971929
 40
0.5680586424
100
AcDbArc
 50
191.555272201
 51
258.4436904528
  0
ARC
  5
309
100
AcDbEntity
  8
0
100
AcDbCircle
 62
9
  6
CONTINUOUS
 10
5.105604451
 20
3.1796971929
 40
0.5680586424
100
AcDbArc
 50
281.5562054698
 51
348.448379922
  0
ARC
  5
30A
100
AcDbEntity
  8
0
100
AcDbCircle
 62
9
  6
CONTINUOUS
 10
5.105604451
 20
3.1796971929
 40
0.5658198696
100
AcDbArc
 50
101.5835597989
 51
168.4241354385
  0
ARC
  5
30B
100
AcDbEntity
  8
0
100
AcDbCircle
 62
9
  6
CONTINUOUS
 10
5.105604451
 20
3.1796971929
 40
0.5658198696
100
AcDbArc
 50
11.5792666165
 51
78.415449314
  0
ARC
  5
30C
100
AcDbEntity
  8
0
100
AcDbCircle
 62
9
  6
CONTINUOUS
 10
5.105604451
 20
3.1796971929
 40
0.5658198696
100
AcDbArc
 50
281.5835598036
 51
348.4241354373
  0
ARC
  5
30D
100
AcDbEntity
  8
0
100
AcDbCircle
 62
9
  6
CONTINUOUS
 10
5.105604451
 20
3.1796971929
 40
0.5658198696
100
AcDbArc
 50
191.5792666238
 51
258.4154493145
  0
ARC
  5
30E
100
AcDbEntity
  8
0
100
AcDbCircle
 62
9
  6
CONTINUOUS
 10
5.105604451
 20
3.1796971929
 40
0.5373898192
100
AcDbArc
 50
102.0773739441
 51
167.9247986915
  0
ARC
  5
30F
100
AcDbEntity
  8
0
100
AcDbCircle
 62
9
  6
CONTINUOUS
 10
5.105604451
 20
3.1796971929
 40
0.5373898192
100
AcDbArc
 50
12.0716227242
 51
77.9219759
  0
ARC
  5
310
100
AcDbEntity
  8
0
100
AcDbCircle
 62
9
  6
CONTINUOUS
 10
5.105604451
 20
3.1796971929
 40
0.5373898192
100
AcDbArc
 50
282.0773739444
 51
347.9247986873
  0
ARC
  5
311
100
AcDbEntity
  8
0
100
AcDbCircle
 62
9
  6
CONTINUOUS
 10
5.105604451
 20
3.1796971929
 40
0.5373898192
100
AcDbArc
 50
192.0716227238
 51
257.9219758978
  0
CIRCLE
  5
312
100
AcDbEntity
  8
ALL_ASSEMBLY_MEMBERS
100
AcDbCircle
 62
7
  6
CONTINUOUS
 10
5.105604451
 20
3.1796971929
 40
0.375
  0
CIRCLE
  5
313
100
AcDbEntity
  8
ALL_ASSEMBLY_MEMBERS
100
AcDbCircle
 62
7
  6
CONTINUOUS
 10
5.105604451
 20
3.1796971929
 40
0.31875
  0
CIRCLE
  5
314
100
AcDbEntity
  8
ALL_ASSEMBLY_MEMBERS
100
AcDbCircle
 62
7
  6
CONTINUOUS
 10
5.105604451
 20
3.1796971929
 40
0.313125
  0
CIRCLE
  5
315
100
AcDbEntity
  8
ALL_ASSEMBLY_MEMBERS
100
AcDbCircle
 62
9
  6
CONTINUOUS
 10
5.105604451
 20
3.1796971929
 40
0.2963584924
  0
ARC
  5
316
100
AcDbEntity
  8
ALL_ASSEMBLY_MEMBERS
100
AcDbCircle
 62
7
  6
CONTINUOUS
 10
5.1858474076
 20
3.9954004552
 40
0.2625
100
AcDbArc
 50
190.7275282844
 51
207.0541342467
  0
ARC
  5
317
100
AcDbEntity
  8
ALL_ASSEMBLY_MEMBERS
100
AcDbCircle
 62
7
  6
CONTINUOUS
 10
5.480604451
 20
4.0512420649
 40
0.5625
100
AcDbArc
 50
169.2724717156
 51
190.7275282844
  0
ARC
  5
318
100
AcDbEntity
  8
ALL_ASSEMBLY_MEMBERS
100
AcDbCircle
 62
7
  6
CONTINUOUS
 10
5.1858474076
 20
4.1070836747
 40
0.2625
100
AcDbArc
 50
127.6889842707
 51
169.2724717156
  0
ARC
  5
319
100
AcDbEntity
  8
ALL_ASSEMBLY_MEMBERS
100
AcDbCircle
 62
7
  6
CONTINUOUS
 10
5.105604451
 20
4.2109471929
 40
0.13125
100
AcDbArc
 50
52.3110157293
 51
127.6889842707
  0
ARC
  5
31A
100
AcDbEntity
  8
ALL_ASSEMBLY_MEMBERS
100
AcDbCircle
 62
7
  6
CONTINUOUS
 10
5.105604451
 20
4.7528221929
 40
0.1875
100
AcDbArc
 50
145.101876439
 51
34.898123561
  0
ARC
  5
31B
100
AcDbEntity
  8
ALL_ASSEMBLY_MEMBERS
100
AcDbCircle
 62
7
  6
CONTINUOUS
 10
5.350854451
 20
5.0313964015
 40
0.1395
100
AcDbArc
 50
138.2918697479
 51
223.3041758004
  0
ARC
  5
31C
100
AcDbEntity
  8
ALL_ASSEMBLY_MEMBERS
100
AcDbCircle
 62
7
  6
CONTINUOUS
 10
5.240604451
 20
4.9274868856
 40
0.012
100
AcDbArc
 50
270.0
 51
43.3041758004
  0
ARC
  5
31D
100
AcDbEntity
  8
ALL_ASSEMBLY_MEMBERS
100
AcDbCircle
 62
7
  6
CONTINUOUS
 10
5.2434606005
 20
4.9038317404
 40
0.012
100
AcDbArc
 50
103.7692637668
 51
214.898123561
  0
ARC
  5
31E
100
AcDbEntity
  8
ALL_ASSEMBLY_MEMBERS
100
AcDbCircle
 62
7
  6
CONTINUOUS
 10
5.593104451
 20
3.7054449669
 40
0.375
100
AcDbArc
 50
152.9458657533
 51
180.0
  0
ARC
  5
31F
100
AcDbEntity
  8
ALL_ASSEMBLY_MEMBERS
100
AcDbCircle
 62
7
  6
CONTINUOUS
 10
5.6313522249
 20
3.6671971929
 40
0.375
100
AcDbArc
 50
270.0
 51
297.0541342467
  0
ARC
  5
320
100
AcDbEntity
  8
ALL_ASSEMBLY_MEMBERS
100
AcDbCircle
 62
7
  6
CONTINUOUS
 10
5.9213077132
 20
3.0994542363
 40
0.2625
100
AcDbArc
 50
100.7275282844
 51
117.0541342467
  0
ARC
  5
321
100
AcDbEntity
  8
ALL_ASSEMBLY_MEMBERS
100
AcDbCircle
 62
7
  6
CONTINUOUS
 10
5.9213077132
 20
3.2599401496
 40
0.2625
100
AcDbArc
 50
242.9458657533
 51
259.2724717156
  0
ARC
  5
322
100
AcDbEntity
  8
ALL_ASSEMBLY_MEMBERS
100
AcDbCircle
 62
7
  6
CONTINUOUS
 10
5.977149323
 20
3.5546971929
 40
0.5625
100
AcDbArc
 50
259.2724717156
 51
280.7275282844
  0
ARC
  5
323
100
AcDbEntity
  8
0
100
AcDbCircle
 62
7
  6
CONTINUOUS
 10
5.9742602051
 20
3.5580265271
 40
0.1208710932
100
AcDbArc
 50
230.2082985594
 51
232.7334180965
  0
ARC
  5
324
100
AcDbEntity
  8
0
100
AcDbCircle
 62
7
  6
CONTINUOUS
 10
5.8854319195
 20
3.4651471933
 40
0.0793244262
100
AcDbArc
 50
194.9819835114
 51
197.194860473
  0
ARC
  5
325
100
AcDbEntity
  8
0
100
AcDbCircle
 62
7
  6
CONTINUOUS
 10
5.8274390077
 20
3.4137454036
 40
0.0730433808
100
AcDbArc
 50
48.7093621078
 51
53.0819266951
  0
ARC
  5
326
100
AcDbEntity
  8
0
100
AcDbCircle
 62
7
  6
CONTINUOUS
 10
5.8776833471
 20
3.4627494904
 40
0.0712133626
100
AcDbArc
 50
197.1949522408
 51
199.6337477258
  0
ARC
  5
327
100
AcDbEntity
  8
0
100
AcDbCircle
 62
7
  6
CONTINUOUS
 10
5.8897732903
 20
3.4657971538
 40
0.0686266579
100
AcDbArc
 50
14.9891559644
 51
16.9091342447
  0
ARC
  5
328
100
AcDbEntity
  8
0
100
AcDbCircle
 62
7
  6
CONTINUOUS
 10
5.8499361146
 20
3.4490601896
 40
0.0401272194
100
AcDbArc
 50
215.7974103124
 51
222.9251082447
  0
ARC
  5
329
100
AcDbEntity
  8
0
100
AcDbCircle
 62
7
  6
CONTINUOUS
 10
5.9178799588
 20
3.4784367402
 40
0.0376447071
100
AcDbArc
 50
34.4258141387
 51
41.7086251441
  0
ARC
  5
32A
100
AcDbEntity
  8
0
100
AcDbCircle
 62
7
  6
CONTINUOUS
 10
5.8509703231
 20
3.4518684376
 40
0.0347015918
100
AcDbArc
 50
190.4167016685
 51
195.0304392998
  0
ARC
  5
32B
100
AcDbEntity
  8
0
100
AcDbCircle
 62
7
  6
CONTINUOUS
 10
5.9220724005
 20
3.4749968502
 40
0.0271485261
100
AcDbArc
 50
14.9874500157
 51
21.2884589419
  0
ARC
  5
32C
100
AcDbEntity
  8
0
100
AcDbCircle
 62
7
  6
CONTINUOUS
 10
5.9246181309
 20
3.4753350229
 40
0.0248302014
100
AcDbArc
 50
49.9430790589
 51
57.1449569745
  0
ARC
  5
32D
100
AcDbEntity
  8
0
100
AcDbCircle
 62
7
  6
CONTINUOUS
 10
5.9279641902
 20
3.4744379246
 40
0.0213714631
100
AcDbArc
 50
330.7380291488
 51
336.228516996
  0
ARC
  5
32E
100
AcDbEntity
  8
0
100
AcDbCircle
 62
7
  6
CONTINUOUS
 10
5.105604451
 20
5.5421971929
 40
0.6200775
100
AcDbArc
 50
283.1690074102
 51
76.8309925898
  0
ARC
  5
32F
100
AcDbEntity
  8
0
100
AcDbCircle
 62
7
  6
CONTINUOUS
 10
5.105604451
 20
5.5421971929
 40
0.6200775
100
AcDbArc
 50
103.1690074102
 51
256.8309925898
  0
ARC
  5
330
100
AcDbEntity
  8
0
100
AcDbCircle
 62
9
  6
CONTINUOUS
 10
5.105604451
 20
5.5421971929
 40
0.5075775
100
AcDbArc
 50
102.1207582468
 51
257.8792417542
  0
ARC
  5
331
100
AcDbEntity
  8
0
100
AcDbCircle
 62
9
  6
CONTINUOUS
 10
5.105604451
 20
5.5421971929
 40
0.5075775
100
AcDbArc
 50
282.1207582468
 51
77.8792417542
  0
ARC
  5
332
100
AcDbEntity
  8
0
100
AcDbCircle
 62
7
  6
CONTINUOUS
 10
5.105604451
 20
5.5421971929
 40
0.50325
100
AcDbArc
 50
102.2935709483
 51
257.7064290517
  0
ARC
  5
333
100
AcDbEntity
  8
0
100
AcDbCircle
 62
7
  6
CONTINUOUS
 10
5.105604451
 20
5.5421971929
 40
0.50325
100
AcDbArc
 50
282.2935709483
 51
77.7064290517
  0
ARC
  5
334
100
AcDbEntity
  8
ALL_FEATURES
100
AcDbCircle
 62
7
  6
CONTINUOUS
 10
5.105604451
 20
5.5421971929
 40
0.4886988938
100
AcDbArc
 50
283.0373268025
 51
76.9626731975
  0
ARC
  5
335
100
AcDbEntity
  8
ALL_FEATURES
100
AcDbCircle
 62
7
  6
CONTINUOUS
 10
5.105604451
 20
5.5421971929
 40
0.4886988938
100
AcDbArc
 50
103.0373268025
 51
256.9626731975
  0
ARC
  5
336
100
AcDbEntity
  8
0
100
AcDbCircle
 62
7
  6
CONTINUOUS
 10
5.105604451
 20
5.5421971929
 40
0.485625
100
AcDbArc
 50
283.229405103
 51
76.7706100541
  0
ARC
  5
337
100
AcDbEntity
  8
0
100
AcDbCircle
 62
7
  6
CONTINUOUS
 10
5.105604451
 20
5.5421971929
 40
0.485625
100
AcDbArc
 50
103.2293943328
 51
256.7705948988
  0
ARC
  5
338
100
AcDbEntity
  8
0
100
AcDbCircle
 62
9
  6
CONTINUOUS
 10
5.105604451
 20
5.5421971929
 40
0.4549122057
100
AcDbArc
 50
286.2213481615
 51
73.7786581066
  0
ARC
  5
339
100
AcDbEntity
  8
0
100
AcDbCircle
 62
9
  6
CONTINUOUS
 10
5.105604451
 20
5.5421971929
 40
0.4549122041
100
AcDbArc
 50
106.221364343
 51
253.7786366053
  0
CIRCLE
  5
33A
100
AcDbEntity
  8
ALL_ASSEMBLY_MEMBERS
100
AcDbCircle
 62
7
  6
CONTINUOUS
 10
5.105604451
 20
5.5421971929
 40
0.418125
  0
CIRCLE
  5
33B
100
AcDbEntity
  8
ALL_ASSEMBLY_MEMBERS
100
AcDbCircle
 62
7
  6
CONTINUOUS
 10
5.105604451
 20
5.5421971929
 40
0.3968942365
  0
CIRCLE
  5
33C
100
AcDbEntity
  8
ALL_ASSEMBLY_MEMBERS
100
AcDbCircle
 62
7
  6
CONTINUOUS
 10
5.105604451
 20
5.5421971929
 40
0.395625
  0
CIRCLE
  5
33D
100
AcDbEntity
  8
ALL_ASSEMBLY_MEMBERS
100
AcDbCircle
 62
7
  6
CONTINUOUS
 10
5.105604451
 20
5.5421971929
 40
0.3789603159
  0
CIRCLE
  5
33E
100
AcDbEntity
  8
ALL_ASSEMBLY_MEMBERS
100
AcDbCircle
 62
7
  6
CONTINUOUS
 10
5.105604451
 20
5.5421971929
 40
0.3408824671
  0
CIRCLE
  5
33F
100
AcDbEntity
  8
ALL_ASSEMBLY_MEMBERS
100
AcDbCircle
 62
7
  6
CONTINUOUS
 10
5.105604451
 20
5.5421971929
 40
0.320625
  0
CIRCLE
  5
340
100
AcDbEntity
  8
ALL_ASSEMBLY_MEMBERS
100
AcDbCircle
 62
7
  6
CONTINUOUS
 10
5.105604451
 20
5.5421971929
 40
0.313125
  0
CIRCLE
  5
341
100
AcDbEntity
  8
ALL_ASSEMBLY_MEMBERS
100
AcDbCircle
 62
9
  6
CONTINUOUS
 10
5.105604451
 20
5.5421971929
 40
0.2963584924
  0
ARC
  5
342
100
AcDbEntity
  8
ALL_ASSEMBLY_MEMBERS
100
AcDbCircle
 62
7
  6
CONTINUOUS
 10
5.105604451
 20
6.3315721929
 40
0.1875
100
AcDbArc
 50
325.101876439
 51
214.898123561
  0
ARC
  5
343
100
AcDbEntity
  8
ALL_ASSEMBLY_MEMBERS
100
AcDbCircle
 62
7
  6
CONTINUOUS
 10
5.229354451
 20
5.1396798836
 40
0.02325
100
AcDbArc
 50
318.2918697479
 51
360.0
  0
ARC
  5
344
100
AcDbEntity
  8
ALL_ASSEMBLY_MEMBERS
100
AcDbCircle
 62
7
  6
CONTINUOUS
 10
5.350854451
 20
6.0529979843
 40
0.1395
100
AcDbArc
 50
136.6958241996
 51
221.7081302521
  0
ARC
  5
345
100
AcDbEntity
  8
ALL_ASSEMBLY_MEMBERS
100
AcDbCircle
 62
7
  6
CONTINUOUS
 10
5.229354451
 20
5.9447145022
 40
0.02325
100
AcDbArc
 50
0.0
 51
41.7081302521
  0
ARC
  5
346
100
AcDbEntity
  8
ALL_ASSEMBLY_MEMBERS
100
AcDbCircle
 62
7
  6
CONTINUOUS
 10
5.240604451
 20
6.1569075003
 40
0.012
100
AcDbArc
 50
316.6958241996
 51
90.0
  0
ARC
  5
347
100
AcDbEntity
  8
ALL_ASSEMBLY_MEMBERS
100
AcDbCircle
 62
7
  6
CONTINUOUS
 10
5.2434606005
 20
6.1805626455
 40
0.012
100
AcDbArc
 50
145.101876439
 51
256.2307362332
  0
ARC
  5
348
100
AcDbEntity
  8
ALL_ASSEMBLY_MEMBERS
100
AcDbCircle
 62
7
  6
CONTINUOUS
 10
6.0329909328
 20
3.0994542363
 40
0.2625
100
AcDbArc
 50
37.6889842707
 51
79.2724717156
  0
ARC
  5
349
100
AcDbEntity
  8
ALL_ASSEMBLY_MEMBERS
100
AcDbCircle
 62
7
  6
CONTINUOUS
 10
6.0329909328
 20
3.2599401496
 40
0.2625
100
AcDbArc
 50
280.7275282844
 51
322.3110157293
  0
ARC
  5
34A
100
AcDbEntity
  8
ALL_ASSEMBLY_MEMBERS
100
AcDbCircle
 62
7
  6
CONTINUOUS
 10
6.136854451
 20
3.1796971929
 40
0.13125
100
AcDbArc
 50
322.3110157293
 51
37.6889842707
  0
ARC
  5
34B
100
AcDbEntity
  8
ALL_FEATURES
100
AcDbCircle
 62
7
  6
CONTINUOUS
 10
6.478104451
 20
7.0834471929
 40
0.315
100
AcDbArc
 50
0.0
 51
90.0
  0
ARC
  5
34C
100
AcDbEntity
  8
ALL_FEATURES
100
AcDbCircle
 62
7
  6
CONTINUOUS
 10
6.853104451
 20
6.7084471929
 40
0.315
100
AcDbArc
 50
0.0
 51
90.0
  0
ARC
  5
34D
100
AcDbEntity
  8
ALL_FEATURES
100
AcDbCircle
 62
7
  6
CONTINUOUS
 10
6.478104451
 20
7.0834471929
 40
0.22125
100
AcDbArc
 50
0.0
 51
90.0
  0
ARC
  5
34E
100
AcDbEntity
  8
ALL_FEATURES
100
AcDbCircle
 62
7
  6
CONTINUOUS
 10
6.853104451
 20
6.7084471929
 40
0.22125
100
AcDbArc
 50
0.0
 51
90.0
  0
ARC
  5
34F
100
AcDbEntity
  8
ALL_FEATURES
100
AcDbCircle
 62
7
  6
CONTINUOUS
 10
6.823104451
 20
7.0534471929
 40
0.12375
100
AcDbArc
 50
180.0
 51
270.0
  0
ARC
  5
350
100
AcDbEntity
  8
ALL_FEATURES
100
AcDbCircle
 62
7
  6
CONTINUOUS
 10
6.823104451
 20
7.0534471929
 40
0.03
100
AcDbArc
 50
180.0
 51
270.0
  0
LINE
  5
351
100
AcDbEntity
  8
0
100
AcDbLine
 62
7
  6
CONTINUOUS
 10
5.5806168965
 20
3.7603798923
 11
5.5949802298
 21
3.7483276246
  0
SPLINE
  5
352
100
AcDbEntity
  8
0
100
AcDbSpline
 62
7
  6
CONTINUOUS
 70
0
 71
3
 72
14
 73
10
 74
0
 42
0.0000001
 43
0.0000001
 44
0.0000000001
 40
0.0
 40
0.0
 40
0.0
 40
0.0
 40
0.2496081755
 40
0.3746465198
 40
0.4997644365
 40
0.6248543935
 40
0.7499305317
 40
0.8750814968
 40
1.0
 40
1.0
 40
1.0
 40
1.0
 10
5.8107688274
 20
3.4774902592
 30
0.0
 10
5.8118040747
 20
3.4798018544
 30
0.0
 10
5.8136593301
 20
3.4831565117
 30
0.0
 10
5.8168133577
 20
3.487139817
 30
0.0
 10
5.8195243569
 20
3.4898271553
 30
0.0
 10
5.8225383522
 20
3.4921704351
 30
0.0
 10
5.8258248884
 20
3.4941143621
 30
0.0
 10
5.8293136737
 20
3.4956560513
 30
0.0
 10
5.8317346126
 20
3.4964329613
 30
0.0
 10
5.8329589953
 20
3.4967610336
 30
0.0
  0
SPLINE
  5
353
100
AcDbEntity
  8
0
100
AcDbSpline
 62
7
  6
CONTINUOUS
 70
0
 71
3
 72
9
 73
5
 74
0
 42
0.0000001
 43
0.0000001
 44
0.0000000001
 40
0.0
 40
0.0
 40
0.0
 40
0.0
 40
0.4998637169
 40
1.0
 40
1.0
 40
1.0
 40
1.0
 10
5.8088039555
 20
3.4446406154
 30
0.0
 10
5.8081566963
 20
3.4470557669
 30
0.0
 10
5.8071383157
 20
3.4519675816
 30
0.0
 10
5.8068032378
 20
3.456979851
 30
0.0
 10
5.8068326606
 20
3.4594814216
 30
0.0
  0
SPLINE
  5
354
100
AcDbEntity
  8
0
100
AcDbSpline
 62
7
  6
CONTINUOUS
 70
0
 71
3
 72
10
 73
6
 74
0
 42
0.0000001
 43
0.0000001
 44
0.0000000001
 40
0.0
 40
0.0
 40
0.0
 40
0.0
 40
0.2501437322
 40
0.5003580179
 40
1.0
 40
1.0
 40
1.0
 40
1.0
 10
5.8068326606
 20
3.4594814216
 30
0.0
 10
5.8068508466
 20
3.4610276219
 30
0.0
 10
5.807035472
 20
3.4641217314
 30
0.0
 10
5.8080358659
 20
3.4702294313
 30
0.0
 10
5.8095064075
 20
3.4746714125
 30
0.0
 10
5.8107688274
 20
3.4774902592
 30
0.0
  0
SPLINE
  5
355
100
AcDbEntity
  8
0
100
AcDbSpline
 62
7
  6
CONTINUOUS
 70
0
 71
3
 72
9
 73
5
 74
0
 42
0.0000001
 43
0.0000001
 44
0.0000000001
 40
0.0
 40
0.0
 40
0.0
 40
0.0
 40
0.7496226315
 40
1.0
 40
1.0
 40
1.0
 40
1.0
 10
5.8280921933
 20
3.415543962
 30
0.0
 10
5.8260131604
 20
3.4168234064
 30
0.0
 10
5.8234074806
 20
3.4188273416
 30
0.0
 10
5.8211092817
 20
3.4211355792
 30
0.0
 10
5.820553178
 20
3.421731875
 30
0.0
  0
SPLINE
  5
356
100
AcDbEntity
  8
0
100
AcDbSpline
 62
7
  6
CONTINUOUS
 70
0
 71
3
 72
9
 73
5
 74
0
 42
0.0000001
 43
0.0000001
 44
0.0000000001
 40
0.0
 40
0.0
 40
0.0
 40
0.0
 40
0.4999464302
 40
1.0
 40
1.0
 40
1.0
 40
1.0
 10
5.8173893179
 20
3.4255889356
 30
0.0
 10
5.8159339597
 20
3.4276018074
 30
0.0
 10
5.8133737607
 20
3.431888462
 30
0.0
 10
5.8114459943
 20
3.4364816737
 30
0.0
 10
5.8106103504
 20
3.4388213454
 30
0.0
  0
SPLINE
  5
357
100
AcDbEntity
  8
0
100
AcDbSpline
 62
7
  6
CONTINUOUS
 70
0
 71
3
 72
11
 73
7
 74
0
 42
0.0000001
 43
0.0000001
 44
0.0000000001
 40
0.0
 40
0.0
 40
0.0
 40
0.0
 40
0.249986484
 40
0.4999570833
 40
0.7499532457
 40
1.0
 40
1.0
 40
1.0
 40
1.0
 10
5.8574233563
 20
3.4112466773
 30
0.0
 10
5.8549697879
 20
3.4105892456
 30
0.0
 10
5.8499320824
 20
3.409696992
 30
0.0
 10
5.8422550765
 20
3.4099552629
 30
0.0
 10
5.8348273621
 20
3.4119141893
 30
0.0
 10
5.8302560115
 20
3.4142123402
 30
0.0
 10
5.8280921933
 20
3.415543962
 30
0.0
  0
SPLINE
  5
358
100
AcDbEntity
  8
0
100
AcDbSpline
 62
7
  6
CONTINUOUS
 70
0
 71
3
 72
16
 73
12
 74
0
 42
0.0000001
 43
0.0000001
 44
0.0000000001
 40
0.0
 40
0.0
 40
0.0
 40
0.0
 40
0.1249532793
 40
0.250260153
 40
0.3128489388
 40
0.3753851012
 40
0.5004973239
 40
0.6255268472
 40
0.7503316482
 40
0.875215979
 40
1.0
 40
1.0
 40
1.0
 40
1.0
 10
5.9361241979
 20
3.4363135009
 30
0.0
 10
5.93451696
 20
3.4358828429
 30
0.0
 10
5.9312224784
 20
3.4352810035
 30
0.0
 10
5.9270374353
 20
3.4351983749
 30
0.0
 10
5.9237182616
 20
3.4355574856
 30
0.0
 10
5.920443685
 20
3.43619261
 30
0.0
 10
5.9164593403
 20
3.4374546084
 30
0.0
 10
5.9119283221
 20
3.439580327
 30
0.0
 10
5.9076719348
 20
3.4422020114
 30
0.0
 10
5.9036841281
 20
3.4452051142
 30
0.0
 10
5.9011811978
 20
3.4473979033
 30
0.0
 10
5.899966477
 20
3.4485317629
 30
0.0
  0
SPLINE
  5
359
100
AcDbEntity
  8
0
100
AcDbSpline
 62
7
  6
CONTINUOUS
 70
0
 71
3
 72
9
 73
5
 74
0
 42
0.0000001
 43
0.0000001
 44
0.0000000001
 40
0.0
 40
0.0
 40
0.0
 40
0.0
 40
0.2501120929
 40
1.0
 40
1.0
 40
1.0
 40
1.0
 10
5.899966477
 20
3.4485317629
 30
0.0
 10
5.8993954997
 20
3.4490647314
 30
0.0
 10
5.8971443188
 20
3.4512295885
 30
0.0
 10
5.8950129835
 20
3.4535172879
 30
0.0
 10
5.8934709388
 20
3.4552797216
 30
0.0
  0
SPLINE
  5
35A
100
AcDbEntity
  8
0
100
AcDbSpline
 62
7
  6
CONTINUOUS
 70
0
 71
3
 72
9
 73
5
 74
0
 42
0.0000001
 43
0.0000001
 44
0.0000000001
 40
0.0
 40
0.0
 40
0.0
 40
0.0
 40
0.4999944305
 40
1.0
 40
1.0
 40
1.0
 40
1.0
 10
5.894726247
 20
3.5050218978
 30
0.0
 10
5.8968889155
 20
3.5071290725
 30
0.0
 10
5.9017793946
 20
3.510805803
 30
0.0
 10
5.9074542139
 20
3.5130745801
 30
0.0
 10
5.9103708823
 20
3.5138560991
 30
0.0
  0
SPLINE
  5
35B
100
AcDbEntity
  8
0
100
AcDbSpline
 62
7
  6
CONTINUOUS
 70
0
 71
3
 72
13
 73
9
 74
0
 42
0.0000001
 43
0.0000001
 44
0.0000000001
 40
0.0
 40
0.0
 40
0.0
 40
0.0
 40
0.2500100126
 40
0.5000062709
 40
0.6250129748
 40
0.750020228
 40
0.8750138708
 40
1.0
 40
1.0
 40
1.0
 40
1.0
 10
5.8794225039
 20
3.4775999922
 30
0.0
 10
5.8804294779
 20
3.480029749
 30
0.0
 10
5.8825116316
 20
3.4848611542
 30
0.0
 10
5.8853505128
 20
3.4907956128
 30
0.0
 10
5.8878424609
 20
3.4954291602
 30
0.0
 10
5.889860157
 20
3.4988218997
 30
0.0
 10
5.8920855415
 20
3.5020812519
 30
0.0
 10
5.893784483
 20
3.5041042994
 30
0.0
 10
5.894726247
 20
3.5050218978
 30
0.0
  0
SPLINE
  5
35C
100
AcDbEntity
  8
0
100
AcDbSpline
 62
7
  6
CONTINUOUS
 70
0
 71
3
 72
13
 73
9
 74
0
 42
0.0000001
 43
0.0000001
 44
0.0000000001
 40
0.0
 40
0.0
 40
0.0
 40
0.0
 40
0.1250203269
 40
0.2500287406
 40
0.3750608348
 40
0.5000710613
 40
0.7500382162
 40
1.0
 40
1.0
 40
1.0
 40
1.0
 10
5.9173049557
 20
3.3639701343
 30
0.0
 10
5.9175818308
 20
3.3656583887
 30
0.0
 10
5.9180083146
 20
3.3690561356
 30
0.0
 10
5.9183604383
 20
3.3741784125
 30
0.0
 10
5.9184695577
 20
3.3793111674
 30
0.0
 10
5.9183554261
 20
3.3861537225
 30
0.0
 10
5.9177987937
 20
3.3946923291
 30
0.0
 10
5.9170338293
 20
3.4014925319
 30
0.0
 10
5.9165891706
 20
3.4048840426
 30
0.0
  0
SPLINE
  5
35D
100
AcDbEntity
  8
0
100
AcDbSpline
 62
7
  6
CONTINUOUS
 70
0
 71
3
 72
13
 73
9
 74
0
 42
0.0000001
 43
0.0000001
 44
0.0000000001
 40
0.0
 40
0.0
 40
0.0
 40
0.0
 40
0.2498584163
 40
0.4995321704
 40
0.6246594129
 40
0.7497964441
 40
0.8749452152
 40
1.0
 40
1.0
 40
1.0
 40
1.0
 10
5.8300432224
 20
3.3798151688
 30
0.0
 10
5.8302524881
 20
3.3809337279
 30
0.0
 10
5.8308227537
 20
3.3831469804
 30
0.0
 10
5.8321155172
 20
3.3857230344
 30
0.0
 10
5.8335915275
 20
3.3874709927
 30
0.0
 10
5.834919498
 20
3.388563621
 30
0.0
 10
5.8364224427
 20
3.38939659
 30
0.0
 10
5.8375042034
 20
3.3897723286
 30
0.0
 10
5.8380543512
 20
3.3899197403
 30
0.0
  0
SPLINE
  5
35E
100
AcDbEntity
  8
0
100
AcDbSpline
 62
7
  6
CONTINUOUS
 70
0
 71
3
 72
10
 73
6
 74
0
 42
0.0000001
 43
0.0000001
 44
0.0000000001
 40
0.0
 40
0.0
 40
0.0
 40
0.0
 40
0.2933073079
 40
0.5554689595
 40
1.0
 40
1.0
 40
1.0
 40
1.0
 10
5.8317954087
 20
3.3588420092
 30
0.0
 10
5.8312593438
 20
3.3608426072
 30
0.0
 10
5.8303728727
 20
3.364670962
 30
0.0
 10
5.8293942262
 20
3.3716630673
 30
0.0
 10
5.8294659594
 20
3.3767296726
 30
0.0
 10
5.8300432205
 20
3.3798151687
 30
0.0
  0
SPLINE
  5
35F
100
AcDbEntity
  8
0
100
AcDbSpline
 62
7
  6
CONTINUOUS
 70
0
 71
3
 72
9
 73
5
 74
0
 42
0.0000001
 43
0.0000001
 44
0.0000000001
 40
0.0
 40
0.0
 40
0.0
 40
0.0
 40
0.2502518565
 40
1.0
 40
1.0
 40
1.0
 40
1.0
 10
5.8357920517
 20
3.3475980182
 30
0.0
 10
5.8353799004
 20
3.3485048369
 30
0.0
 10
5.8338152648
 20
3.3521656259
 30
0.0
 10
5.8325676957
 20
3.3559594193
 30
0.0
 10
5.8317953423
 20
3.3588419914
 30
0.0
  0
LINE
  5
360
100
AcDbEntity
  8
0
100
AcDbLine
 62
7
  6
CONTINUOUS
 10
5.9405958266
 20
3.3907584598
 11
5.959563637
 21
3.3867775925
  0
LINE
  5
361
100
AcDbEntity
  8
0
100
AcDbLine
 62
7
  6
CONTINUOUS
 10
5.959563637
 20
3.3867775925
 11
5.9648491279
 21
3.3670505362
  0
LINE
  5
362
100
AcDbEntity
  8
0
100
AcDbLine
 62
7
  6
CONTINUOUS
 10
5.8745749668
 20
2.7739034373
 11
5.8708492635
 21
2.7715595939
  0
LINE
  5
363
100
AcDbEntity
  8
0
100
AcDbLine
 62
7
  6
CONTINUOUS
 10
5.8759316018
 20
2.7542086572
 11
5.8757519561
 21
2.7562837647
  0
SPLINE
  5
364
100
AcDbEntity
  8
0
100
AcDbSpline
 62
7
  6
CONTINUOUS
 70
0
 71
3
 72
12
 73
8
 74
0
 42
0.0000001
 43
0.0000001
 44
0.0000000001
 40
0.0
 40
0.0
 40
0.0
 40
0.0
 40
0.1251310956
 40
0.2501195604
 40
0.5000732932
 40
0.7500367327
 40
1.0
 40
1.0
 40
1.0
 40
1.0
 10
5.8757519561
 20
2.7562837647
 30
0.0
 10
5.8756579756
 20
2.7569478959
 30
0.0
 10
5.875413708
 20
2.7582675872
 30
0.0
 10
5.8747751414
 20
2.7608718448
 30
0.0
 10
5.8737739055
 20
2.7640714633
 30
0.0
 10
5.8723836635
 20
2.7678438413
 30
0.0
 10
5.8713709211
 20
2.7703254193
 30
0.0
 10
5.8708492635
 20
2.7715595939
 30
0.0
  0
SPLINE
  5
365
100
AcDbEntity
  8
0
100
AcDbSpline
 62
7
  6
CONTINUOUS
 70
0
 71
3
 72
13
 73
9
 74
0
 42
0.0000001
 43
0.0000001
 44
0.0000000001
 40
0.0
 40
0.0
 40
0.0
 40
0.0
 40
0.2499074822
 40
0.4998137666
 40
0.6247924539
 40
0.7497406909
 40
0.8750038079
 40
1.0
 40
1.0
 40
1.0
 40
1.0
 10
5.8687169488
 20
2.737993237
 30
0.0
 10
5.8695761073
 20
2.7392203497
 30
0.0
 10
5.8712361535
 20
2.7417159587
 30
0.0
 10
5.8731013731
 20
2.744969617
 30
0.0
 10
5.8743797271
 20
2.7476810916
 30
0.0
 10
5.8751926453
 20
2.749781223
 30
0.0
 10
5.875786148
 20
2.7519547653
 30
0.0
 10
5.8759496429
 20
2.7534596275
 30
0.0
 10
5.8759316018
 20
2.7542086572
 30
0.0
  0
LINE
  5
366
100
AcDbEntity
  8
0
100
AcDbLine
 62
7
  6
CONTINUOUS
 10
5.8687170264
 20
2.7379933478
 11
5.8438562862
 21
2.7024863128
  0
LINE
  5
367
100
AcDbEntity
  8
0
100
AcDbLine
 62
7
  6
CONTINUOUS
 10
5.7633160589
 20
2.8111442396
 11
5.7546210923
 21
2.7987254066
  0
LINE
  5
368
100
AcDbEntity
  8
0
100
AcDbLine
 62
7
  6
CONTINUOUS
 10
5.7546210923
 20
2.7987254066
 11
5.8314949153
 21
2.696189904
  0
LINE
  5
369
100
AcDbEntity
  8
0
100
AcDbLine
 62
7
  6
CONTINUOUS
 10
5.8314949153
 20
2.696189904
 11
5.8329209626
 21
2.6942878143
  0
LINE
  5
36A
100
AcDbEntity
  8
0
100
AcDbLine
 62
7
  6
CONTINUOUS
 10
5.8329209626
 20
2.6942878143
 11
5.847802109
 21
2.6744390401
  0
SPLINE
  5
36B
100
AcDbEntity
  8
0
100
AcDbSpline
 62
7
  6
CONTINUOUS
 70
0
 71
3
 72
15
 73
11
 74
0
 42
0.0000001
 43
0.0000001
 44
0.0000000001
 40
0.0
 40
0.0
 40
0.0
 40
0.0
 40
0.1249921185
 40
0.1876542857
 40
0.2501931595
 40
0.3751681336
 40
0.5001494998
 40
0.6251373956
 40
0.7501038515
 40
1.0
 40
1.0
 40
1.0
 40
1.0
 10
5.7456490733
 20
2.6573715515
 30
0.0
 10
5.747921553
 20
2.6578527664
 30
0.0
 10
5.7512553274
 20
2.6589660188
 30
0.0
 10
5.7554703983
 20
2.6609294866
 30
0.0
 10
5.7595588275
 20
2.6631499436
 30
0.0
 10
5.7644330467
 20
2.6663225679
 30
0.0
 10
5.7699838549
 20
2.6705415012
 30
0.0
 10
5.7752853128
 20
2.6750679247
 30
0.0
 10
5.7820782456
 20
2.6814070171
 30
0.0
 10
5.7869156468
 20
2.6864279937
 30
0.0
 10
5.790055018
 20
2.6898502834
 30
0.0
  0
SPLINE
  5
36C
100
AcDbEntity
  8
0
100
AcDbSpline
 62
7
  6
CONTINUOUS
 70
0
 71
3
 72
9
 73
5
 74
0
 42
0.0000001
 43
0.0000001
 44
0.0000000001
 40
0.0
 40
0.0
 40
0.0
 40
0.0
 40
0.4999512892
 40
1.0
 40
1.0
 40
1.0
 40
1.0
 10
5.7129960372
 20
2.6639141795
 30
0.0
 10
5.7176473295
 20
2.6606573095
 30
0.0
 10
5.7283584337
 20
2.6557959431
 30
0.0
 10
5.7400929923
 20
2.656195009
 30
0.0
 10
5.7456490733
 20
2.6573715515
 30
0.0
  0
SPLINE
  5
36D
100
AcDbEntity
  8
0
100
AcDbSpline
 62
7
  6
CONTINUOUS
 70
0
 71
3
 72
13
 73
9
 74
0
 42
0.0000001
 43
0.0000001
 44
0.0000000001
 40
0.0
 40
0.0
 40
0.0
 40
0.0
 40
0.2498585642
 40
0.4995326306
 40
0.6246599834
 40
0.7497970171
 40
0.8749456045
 40
1.0
 40
1.0
 40
1.0
 40
1.0
 10
5.715220468
 20
2.740034376
 30
0.0
 10
5.7162118564
 20
2.7405930593
 30
0.0
 10
5.7182738833
 20
2.7415788499
 30
0.0
 10
5.7210782439
 20
2.7422443781
 30
0.0
 10
5.7233660292
 20
2.742237247
 30
0.0
 10
5.7250566394
 20
2.7419222867
 30
0.0
 10
5.7266608082
 20
2.7413063843
 30
0.0
 10
5.7276439847
 20
2.7407192269
 30
0.0
 10
5.7281105371
 20
2.7403925434
 30
0.0
  0
SPLINE
  5
36E
100
AcDbEntity
  8
0
100
AcDbSpline
 62
7
  6
CONTINUOUS
 70
0
 71
3
 72
11
 73
7
 74
0
 42
0.0000001
 43
0.0000001
 44
0.0000000001
 40
0.0
 40
0.0
 40
0.0
 40
0.0
 40
0.2500035186
 40
0.5000049516
 40
0.7500037597
 40
1.0
 40
1.0
 40
1.0
 40
1.0
 10
5.7002801681
 20
2.7252110286
 30
0.0
 10
5.7012937116
 20
2.7266584574
 30
0.0
 10
5.7034063418
 20
2.7294950413
 30
0.0
 10
5.7068920381
 20
2.7334980516
 30
0.0
 10
5.7107699079
 20
2.7371277581
 30
0.0
 10
5.7136811131
 20
2.7391668938
 30
0.0
 10
5.715220468
 20
2.740034376
 30
0.0
  0
SPLINE
  5
36F
100
AcDbEntity
  8
0
100
AcDbSpline
 62
7
  6
CONTINUOUS
 70
0
 71
3
 72
9
 73
5
 74
0
 42
0.0000001
 43
0.0000001
 44
0.0000000001
 40
0.0
 40
0.0
 40
0.0
 40
0.0
 40
0.2501177982
 40
1.0
 40
1.0
 40
1.0
 40
1.0
 10
5.6927131814
 20
2.7114841993
 30
0.0
 10
5.6930400001
 20
2.7122857388
 30
0.0
 10
5.6944137587
 20
2.7154628284
 30
0.0
 10
5.6960426247
 20
2.7185279051
 30
0.0
 10
5.6973800734
 20
2.7207519214
 30
0.0
  0
SPLINE
  5
370
100
AcDbEntity
  8
0
100
AcDbSpline
 62
7
  6
CONTINUOUS
 70
0
 71
3
 72
9
 73
5
 74
0
 42
0.0000001
 43
0.0000001
 44
0.0000000001
 40
0.0
 40
0.0
 40
0.0
 40
0.0
 40
0.2497170048
 40
1.0
 40
1.0
 40
1.0
 40
1.0
 10
5.7116965077
 20
2.6434496901
 30
0.0
 10
5.7110090737
 20
2.6439310366
 30
0.0
 10
5.7082954507
 20
2.6459136924
 30
0.0
 10
5.7057456797
 20
2.6481232844
 30
0.0
 10
5.703959605
 20
2.6499030163
 30
0.0
  0
SPLINE
  5
371
100
AcDbEntity
  8
0
100
AcDbSpline
 62
7
  6
CONTINUOUS
 70
0
 71
3
 72
9
 73
5
 74
0
 42
0.0000001
 43
0.0000001
 44
0.0000000001
 40
0.0
 40
0.0
 40
0.0
 40
0.0
 40
0.5000121318
 40
1.0
 40
1.0
 40
1.0
 40
1.0
 10
5.703959605
 20
2.6499030163
 30
0.0
 10
5.702792238
 20
2.6510662376
 30
0.0
 10
5.7005621082
 20
2.6535006557
 30
0.0
 10
5.6985827794
 20
2.6561435889
 30
0.0
 10
5.6976599438
 20
2.6575088509
 30
0.0
  0
SPLINE
  5
372
100
AcDbEntity
  8
0
100
AcDbSpline
 62
7
  6
CONTINUOUS
 70
0
 71
3
 72
9
 73
5
 74
0
 42
0.0000001
 43
0.0000001
 44
0.0000000001
 40
0.0
 40
0.0
 40
0.0
 40
0.0
 40
0.5000504492
 40
1.0
 40
1.0
 40
1.0
 40
1.0
 10
5.6950713927
 20
2.6617720367
 30
0.0
 10
5.6942871166
 20
2.6632174736
 30
0.0
 10
5.6928562267
 20
2.6661849973
 30
0.0
 10
5.6917163808
 20
2.6692753659
 30
0.0
 10
5.6912156006
 20
2.6708414134
 30
0.0
  0
SPLINE
  5
373
100
AcDbEntity
  8
0
100
AcDbSpline
 62
7
  6
CONTINUOUS
 70
0
 71
3
 72
9
 73
5
 74
0
 42
0.0000001
 43
0.0000001
 44
0.0000000001
 40
0.0
 40
0.0
 40
0.0
 40
0.0
 40
0.2503068786
 40
1.0
 40
1.0
 40
1.0
 40
1.0
 10
5.6912156006
 20
2.6708414134
 30
0.0
 10
5.6909609819
 20
2.6716376609
 30
0.0
 10
5.6900147697
 20
2.6748412375
 30
0.0
 10
5.6893421398
 20
2.6781238781
 30
0.0
 10
5.6889783111
 20
2.6806011043
 30
0.0
  0
LINE
  5
374
100
AcDbEntity
  8
0
100
AcDbLine
 62
7
  6
CONTINUOUS
 10
5.7946652283
 20
2.662380471
 11
5.8038079202
 21
2.6452914754
  0
LINE
  5
375
100
AcDbEntity
  8
0
100
AcDbLine
 62
7
  6
CONTINUOUS
 10
5.8038079202
 20
2.6452914754
 11
5.7766178961
 21
2.6064628248
  0
LINE
  5
376
100
AcDbEntity
  8
0
100
AcDbLine
 62
7
  6
CONTINUOUS
 10
5.7766178961
 20
2.6064628248
 11
5.7869317103
 21
2.5875111421
  0
SPLINE
  5
377
100
AcDbEntity
  8
0
100
AcDbSpline
 62
7
  6
CONTINUOUS
 70
0
 71
3
 72
13
 73
9
 74
0
 42
0.0000001
 43
0.0000001
 44
0.0000000001
 40
0.0
 40
0.0
 40
0.0
 40
0.0
 40
0.2497577368
 40
0.3748558925
 40
0.499981485
 40
0.6250963345
 40
0.7502157512
 40
1.0
 40
1.0
 40
1.0
 40
1.0
 10
5.9380888995
 20
3.4961935295
 30
0.0
 10
5.9369079015
 20
3.4969566048
 30
0.0
 10
5.9350289531
 20
3.4979539086
 30
0.0
 10
5.9323634011
 20
3.4988722022
 30
0.0
 10
5.9302967549
 20
3.4993339736
 30
0.0
 10
5.9281912968
 20
3.4995635224
 30
0.0
 10
5.9253716435
 20
3.4995448472
 30
0.0
 10
5.9232725275
 20
3.4991865291
 30
0.0
 10
5.9219142215
 20
3.4988225721
 30
0.0
  0
SPLINE
  5
378
100
AcDbEntity
  8
0
100
AcDbSpline
 62
7
  6
CONTINUOUS
 70
0
 71
3
 72
9
 73
5
 74
0
 42
0.0000001
 43
0.0000001
 44
0.0000000001
 40
0.0
 40
0.0
 40
0.0
 40
0.0
 40
0.4997931398
 40
1.0
 40
1.0
 40
1.0
 40
1.0
 10
5.94736843
 20
3.4848534905
 30
0.0
 10
5.9466560193
 20
3.4866769756
 30
0.0
 10
5.944810411
 20
3.4901850611
 30
0.0
 10
5.94209709
 20
3.4930790844
 30
0.0
 10
5.9405975655
 20
3.4943401953
 30
0.0
  0
SPLINE
  5
379
100
AcDbEntity
  8
0
100
AcDbSpline
 62
7
  6
CONTINUOUS
 70
0
 71
3
 72
11
 73
7
 74
0
 42
0.0000001
 43
0.0000001
 44
0.0000000001
 40
0.0
 40
0.0
 40
0.0
 40
0.0
 40
0.2502074219
 40
0.5001776003
 40
0.750178219
 40
1.0
 40
1.0
 40
1.0
 40
1.0
 10
5.9475225071
 20
3.4658233046
 30
0.0
 10
5.9480778784
 20
3.4670840809
 30
0.0
 10
5.9489478775
 20
3.4697197887
 30
0.0
 10
5.9494410615
 20
3.4738449236
 30
0.0
 10
5.9492110078
 20
3.4779845672
 30
0.0
 10
5.9486534733
 20
3.4806889928
 30
0.0
 10
5.9482974015
 20
3.4820176617
 30
0.0
  0
SPLINE
  5
37A
100
AcDbEntity
  8
0
100
AcDbSpline
 62
7
  6
CONTINUOUS
 70
0
 71
3
 72
12
 73
8
 74
0
 42
0.0000001
 43
0.0000001
 44
0.0000000001
 40
0.0
 40
0.0
 40
0.0
 40
0.0
 40
0.2498000967
 40
0.4997287526
 40
0.6248550313
 40
0.7500594443
 40
1.0
 40
1.0
 40
1.0
 40
1.0
 10
5.9326232527
 20
3.4535019869
 30
0.0
 10
5.9340675599
 20
3.4538889878
 30
0.0
 10
5.9369052675
 20
3.4548855978
 30
0.0
 10
5.9401608749
 20
3.4567819435
 30
0.0
 10
5.94248165
 20
3.4586832083
 30
0.0
 10
5.944576379
 20
3.4608296807
 30
0.0
 10
5.9458771094
 20
3.4626863574
 30
0.0
 10
5.9466085243
 20
3.4639914782
 30
0.0
  0
SPLINE
  5
37B
100
AcDbEntity
  8
0
100
AcDbSpline
 62
7
  6
CONTINUOUS
 70
0
 71
3
 72
9
 73
5
 74
0
 42
0.0000001
 43
0.0000001
 44
0.0000000001
 40
0.0
 40
0.0
 40
0.0
 40
0.0
 40
0.4999908831
 40
1.0
 40
1.0
 40
1.0
 40
1.0
 10
5.8635670821
 20
3.4409944937
 30
0.0
 10
5.8659882676
 20
3.4454034717
 30
0.0
 10
5.8703569253
 20
3.4544852381
 30
0.0
 10
5.8739779941
 20
3.4638800141
 30
0.0
 10
5.8756387937
 20
3.4686281523
 30
0.0
  0
SPLINE
  5
37C
100
AcDbEntity
  8
0
100
AcDbSpline
 62
7
  6
CONTINUOUS
 70
0
 71
3
 72
9
 73
5
 74
0
 42
0.0000001
 43
0.0000001
 44
0.0000000001
 40
0.0
 40
0.0
 40
0.0
 40
0.0
 40
0.4999250699
 40
1.0
 40
1.0
 40
1.0
 40
1.0
 10
5.8460870996
 20
3.4263356537
 30
0.0
 10
5.849841081
 20
3.42734153
 30
0.0
 10
5.8569985039
 20
3.4311521841
 30
0.0
 10
5.8616958149
 20
3.4375869169
 30
0.0
 10
5.8635670821
 20
3.4409944937
 30
0.0
  0
SPLINE
  5
37D
100
AcDbEntity
  8
0
100
AcDbSpline
 62
7
  6
CONTINUOUS
 70
0
 71
3
 72
9
 73
5
 74
0
 42
0.0000001
 43
0.0000001
 44
0.0000000001
 40
0.0
 40
0.0
 40
0.0
 40
0.0
 40
0.7498422215
 40
1.0
 40
1.0
 40
1.0
 40
1.0
 10
5.871314154
 20
3.4721432376
 30
0.0
 10
5.8691746769
 20
3.4737460213
 30
0.0
 10
5.8661844307
 20
3.4757178491
 30
0.0
 10
5.8630099572
 20
3.4773438905
 30
0.0
 10
5.8622042516
 20
3.4777262602
 30
0.0
  0
SPLINE
  5
37E
100
AcDbEntity
  8
0
100
AcDbSpline
 62
7
  6
CONTINUOUS
 70
0
 71
3
 72
12
 73
8
 74
0
 42
0.0000001
 43
0.0000001
 44
0.0000000001
 40
0.0
 40
0.0
 40
0.0
 40
0.0
 40
0.2498982808
 40
0.4998058585
 40
0.6249239391
 40
0.7500903835
 40
1.0
 40
1.0
 40
1.0
 40
1.0
 10
5.8622042516
 20
3.4777262602
 30
0.0
 10
5.8604059395
 20
3.4785796985
 30
0.0
 10
5.8566877749
 20
3.4800489872
 30
0.0
 10
5.8517918219
 20
3.4810918742
 30
0.0
 10
5.8478116732
 20
3.4813730143
 30
0.0
 10
5.8438241091
 20
3.4812644932
 30
0.0
 10
5.840857732
 20
3.4807509731
 30
0.0
 10
5.8389349226
 20
3.4802357579
 30
0.0
  0
SPLINE
  5
37F
100
AcDbEntity
  8
0
100
AcDbSpline
 62
7
  6
CONTINUOUS
 70
0
 71
3
 72
13
 73
9
 74
0
 42
0.0000001
 43
0.0000001
 44
0.0000000001
 40
0.0
 40
0.0
 40
0.0
 40
0.0
 40
0.0927677131
 40
0.1940789793
 40
0.3043684382
 40
0.4239728894
 40
0.6920813886
 40
1.0
 40
1.0
 40
1.0
 40
1.0
 10
4.3158570206
 20
2.7955763059
 30
0.0
 10
4.3173567149
 20
2.795797491
 30
0.0
 10
4.3204745083
 20
2.7963991081
 30
0.0
 10
4.3252823149
 20
2.7976850601
 30
0.0
 10
4.3304211132
 20
2.799392459
 30
0.0
 10
4.3380070215
 20
2.8023461363
 30
0.0
 10
4.3483141263
 20
2.8071679168
 30
0.0
 10
4.3565758002
 20
2.8116886947
 30
0.0
 10
4.3609333795
 20
2.8142045442
 30
0.0
  0
SPLINE
  5
380
100
AcDbEntity
  8
0
100
AcDbSpline
 62
7
  6
CONTINUOUS
 70
0
 71
3
 72
10
 73
6
 74
0
 42
0.0000001
 43
0.0000001
 44
0.0000000001
 40
0.0
 40
0.0
 40
0.0
 40
0.0
 40
0.2503488813
 40
0.5006248327
 40
1.0
 40
1.0
 40
1.0
 40
1.0
 10
4.292461265
 20
2.8038829145
 30
0.0
 10
4.2930237301
 20
2.80309321
 30
0.0
 10
4.2942442776
 20
2.801577757
 30
0.0
 10
4.2970783694
 20
2.7989248622
 30
0.0
 10
4.2996389615
 20
2.7974384235
 30
0.0
 10
4.3014367203
 20
2.796725524
 30
0.0
  0
SPLINE
  5
381
100
AcDbEntity
  8
0
100
AcDbSpline
 62
7
  6
CONTINUOUS
 70
0
 71
3
 72
9
 73
5
 74
0
 42
0.0000001
 43
0.0000001
 44
0.0000000001
 40
0.0
 40
0.0
 40
0.0
 40
0.0
 40
0.499948229
 40
1.0
 40
1.0
 40
1.0
 40
1.0
 10
4.3014367203
 20
2.796725524
 30
0.0
 10
4.3036967503
 20
2.7958293113
 30
0.0
 10
4.3085691958
 20
2.7948933487
 30
0.0
 10
4.3134514099
 20
2.7952215722
 30
0.0
 10
4.3158571321
 20
2.7955763705
 30
0.0
  0
SPLINE
  5
382
100
AcDbEntity
  8
0
100
AcDbSpline
 62
7
  6
CONTINUOUS
 70
0
 71
3
 72
11
 73
7
 74
0
 42
0.0000001
 43
0.0000001
 44
0.0000000001
 40
0.0
 40
0.0
 40
0.0
 40
0.0
 40
0.2500085127
 40
0.4376111515
 40
0.625253428
 40
1.0
 40
1.0
 40
1.0
 40
1.0
 10
4.2958785575
 20
2.8335993176
 30
0.0
 10
4.2950777602
 20
2.8326257955
 30
0.0
 10
4.2937348681
 20
2.8308716136
 30
0.0
 10
4.2920187658
 20
2.8282231264
 30
0.0
 10
4.2902176601
 20
2.8248965733
 30
0.0
 10
4.2892280893
 20
2.8222053388
 30
0.0
 10
4.2888122127
 20
2.82036217
 30
0.0
  0
SPLINE
  5
383
100
AcDbEntity
  8
0
100
AcDbSpline
 62
7
  6
CONTINUOUS
 70
0
 71
3
 72
11
 73
7
 74
0
 42
0.0000001
 43
0.0000001
 44
0.0000000001
 40
0.0
 40
0.0
 40
0.0
 40
0.0
 40
0.2500503331
 40
0.5000389227
 40
0.7500673005
 40
1.0
 40
1.0
 40
1.0
 40
1.0
 10
4.2888122127
 20
2.82036217
 30
0.0
 10
4.2885382667
 20
2.8191480389
 30
0.0
 10
4.2882029798
 20
2.8166646413
 30
0.0
 10
4.2884394146
 20
2.8129133593
 30
0.0
 10
4.2894253127
 20
2.809288576
 30
0.0
 10
4.2905094025
 20
2.8070337436
 30
0.0
 10
4.2911313882
 20
2.805956322
 30
0.0
  0
SPLINE
  5
384
100
AcDbEntity
  8
0
100
AcDbSpline
 62
7
  6
CONTINUOUS
 70
0
 71
3
 72
12
 73
8
 74
0
 42
0.0000001
 43
0.0000001
 44
0.0000000001
 40
0.0
 40
0.0
 40
0.0
 40
0.0
 40
0.2499985372
 40
0.4999832133
 40
0.7499401213
 40
0.8749769159
 40
1.0
 40
1.0
 40
1.0
 40
1.0
 10
4.3352216629
 20
2.8640806325
 30
0.0
 10
4.3316127217
 20
2.8619970093
 30
0.0
 10
4.324481261
 20
2.8576763359
 30
0.0
 10
4.3141615622
 20
2.8506088417
 30
0.0
 10
4.3060284166
 20
2.8440695632
 30
0.0
 10
4.3000013373
 20
2.8383054744
 30
0.0
 10
4.297202471
 20
2.8352087874
 30
0.0
 10
4.2958785575
 20
2.8335993176
 30
0.0
  0
LINE
  5
385
100
AcDbEntity
  8
0
100
AcDbLine
 62
7
  6
CONTINUOUS
 10
4.646659162
 20
3.7731602857
 11
4.6616335778
 21
3.7844443174
  0
LINE
  5
386
100
AcDbEntity
  8
0
100
AcDbLine
 62
7
  6
CONTINUOUS
 10
4.2571034626
 20
3.4073260259
 11
4.2572952991
 21
3.398836837
  0
SPLINE
  5
387
100
AcDbEntity
  8
0
100
AcDbSpline
 62
7
  6
CONTINUOUS
 70
0
 71
3
 72
9
 73
5
 74
0
 42
0.0000001
 43
0.0000001
 44
0.0000000001
 40
0.0
 40
0.0
 40
0.0
 40
0.0
 40
0.4999858375
 40
1.0
 40
1.0
 40
1.0
 40
1.0
 10
4.2577467374
 20
3.4150794317
 30
0.0
 10
4.2574195644
 20
3.4140724259
 30
0.0
 10
4.2570070597
 20
3.411976951
 30
0.0
 10
4.2569709525
 20
3.4098504759
 30
0.0
 10
4.2570321723
 20
3.4087933656
 30
0.0
  0
SPLINE
  5
388
100
AcDbEntity
  8
0
100
AcDbSpline
 62
7
  6
CONTINUOUS
 70
0
 71
3
 72
12
 73
8
 74
0
 42
0.0000001
 43
0.0000001
 44
0.0000000001
 40
0.0
 40
0.0
 40
0.0
 40
0.0
 40
0.2498801125
 40
0.3751351918
 40
0.5004395337
 40
0.7501344809
 40
1.0
 40
1.0
 40
1.0
 40
1.0
 10
4.2687276958
 20
3.4181346632
 30
0.0
 10
4.2677123211
 20
3.4184645784
 30
0.0
 10
4.2661552801
 20
3.4188721518
 30
0.0
 10
4.2640249267
 20
3.4191253921
 30
0.0
 10
4.2618888092
 20
3.419057876
 30
0.0
 10
4.2592172716
 20
3.4180828035
 30
0.0
 10
4.2580766124
 20
3.4160947539
 30
0.0
 10
4.2577467374
 20
3.4150794317
 30
0.0
  0
LINE
  5
389
100
AcDbEntity
  8
0
100
AcDbLine
 62
7
  6
CONTINUOUS
 10
4.375821025
 20
3.3612235437
 11
4.3789482529
 21
3.3708491549
  0
LINE
  5
38A
100
AcDbEntity
  8
0
100
AcDbLine
 62
7
  6
CONTINUOUS
 10
4.3789482529
 20
3.3708491549
 11
4.38050541
 21
3.3756420079
  0
LINE
  5
38B
100
AcDbEntity
  8
0
100
AcDbLine
 62
7
  6
CONTINUOUS
 10
4.38050541
 20
3.3756420079
 11
4.3895181834
 21
3.4033818589
  0
LINE
  5
38C
100
AcDbEntity
  8
0
100
AcDbLine
 62
7
  6
CONTINUOUS
 10
4.3895181834
 20
3.4033818589
 11
4.3914623391
 21
3.4093654249
  0
LINE
  5
38D
100
AcDbEntity
  8
0
100
AcDbLine
 62
7
  6
CONTINUOUS
 10
4.3914623391
 20
3.4093654249
 11
4.3945921548
 21
3.4189979486
  0
SPLINE
  5
38E
100
AcDbEntity
  8
0
100
AcDbSpline
 62
7
  6
CONTINUOUS
 70
0
 71
3
 72
15
 73
11
 74
0
 42
0.0000001
 43
0.0000001
 44
0.0000000001
 40
0.0
 40
0.0
 40
0.0
 40
0.0
 40
0.1249926183
 40
0.18765498
 40
0.2501939842
 40
0.3751690599
 40
0.5001504121
 40
0.625138192
 40
0.7501044408
 40
1.0
 40
1.0
 40
1.0
 40
1.0
 10
4.3512894649
 20
3.5243059715
 30
0.0
 10
4.3492569496
 20
3.5231813902
 30
0.0
 10
4.3463942957
 20
3.5211420878
 30
0.0
 10
4.3429374154
 20
3.5180320632
 30
0.0
 10
4.3396767719
 20
3.5147133184
 30
0.0
 10
4.3359430345
 20
3.5102542855
 30
0.0
 10
4.331868163
 20
3.5045968542
 30
0.0
 10
4.3281216423
 20
3.4987182742
 30
0.0
 10
4.3234787488
 20
3.4906701884
 30
0.0
 10
4.3203205924
 20
3.4844543424
 30
0.0
 10
4.3183188977
 20
3.4802637645
 30
0.0
  0
SPLINE
  5
38F
100
AcDbEntity
  8
0
100
AcDbSpline
 62
7
  6
CONTINUOUS
 70
0
 71
3
 72
9
 73
5
 74
0
 42
0.0000001
 43
0.0000001
 44
0.0000000001
 40
0.0
 40
0.0
 40
0.0
 40
0.0
 40
0.4999370779
 40
1.0
 40
1.0
 40
1.0
 40
1.0
 10
4.3844290102
 20
3.5275960488
 30
0.0
 10
4.3790288304
 20
3.5293506736
 30
0.0
 10
4.3673643154
 20
3.5308680547
 30
0.0
 10
4.3562590147
 20
3.5270556002
 30
0.0
 10
4.3512894649
 20
3.5243059715
 30
0.0
  0
SPLINE
  5
390
100
AcDbEntity
  8
0
100
AcDbSpline
 62
7
  6
CONTINUOUS
 70
0
 71
3
 72
13
 73
9
 74
0
 42
0.0000001
 43
0.0000001
 44
0.0000000001
 40
0.0
 40
0.0
 40
0.0
 40
0.0
 40
0.2498587441
 40
0.4995334032
 40
0.6246609989
 40
0.7497980785
 40
0.8749463432
 40
1.0
 40
1.0
 40
1.0
 40
1.0
 10
4.4045560125
 20
3.4541519287
 30
0.0
 10
4.4037712663
 20
3.4533278117
 30
0.0
 10
4.4020875151
 20
3.4517822381
 30
0.0
 10
4.3996002362
 20
3.4503258981
 30
0.0
 10
4.3974103091
 20
3.4496638475
 30
0.0
 10
4.3957014743
 20
3.4494707658
 30
0.0
 10
4.3939873224
 20
3.4495907458
 30
0.0
 10
4.3928754359
 20
3.4498647948
 30
0.0
 10
4.3923337566
 20
3.4500407971
 30
0.0
  0
SPLINE
  5
391
100
AcDbEntity
  8
0
100
AcDbSpline
 62
7
  6
CONTINUOUS
 70
0
 71
3
 72
11
 73
7
 74
0
 42
0.0000001
 43
0.0000001
 44
0.0000000001
 40
0.0
 40
0.0
 40
0.0
 40
0.0
 40
0.249998248
 40
0.4999776589
 40
0.7499958729
 40
1.0
 40
1.0
 40
1.0
 40
1.0
 10
4.4139352259
 20
3.4709868469
 30
0.0
 10
4.4134034238
 20
3.4694598717
 30
0.0
 10
4.4122498889
 20
3.466436095
 30
0.0
 10
4.4101836087
 20
3.462040718
 30
0.0
 10
4.4076925136
 20
3.457867823
 30
0.0
 10
4.405671069
 20
3.4553229277
 30
0.0
 10
4.4045560125
 20
3.4541519287
 30
0.0
  0
SPLINE
  5
392
100
AcDbEntity
  8
0
100
AcDbSpline
 62
7
  6
CONTINUOUS
 70
0
 71
3
 72
9
 73
5
 74
0
 42
0.0000001
 43
0.0000001
 44
0.0000000001
 40
0.0
 40
0.0
 40
0.0
 40
0.0
 40
0.7498385743
 40
1.0
 40
1.0
 40
1.0
 40
1.0
 10
4.4137482915
 20
3.515298304
 30
0.0
 10
4.4148807969
 20
3.5124855831
 30
0.0
 10
4.4161150679
 20
3.5086118443
 30
0.0
 10
4.4169294731
 20
3.5046499649
 30
0.0
 10
4.4171061076
 20
3.5036539166
 30
0.0
  0
SPLINE
  5
393
100
AcDbEntity
  8
0
100
AcDbSpline
 62
7
  6
CONTINUOUS
 70
0
 71
3
 72
9
 73
5
 74
0
 42
0.0000001
 43
0.0000001
 44
0.0000000001
 40
0.0
 40
0.0
 40
0.0
 40
0.0
 40
0.5000379986
 40
1.0
 40
1.0
 40
1.0
 40
1.0
 10
4.4177783212
 20
3.4984846179
 30
0.0
 10
4.4179961812
 20
3.4958892967
 30
0.0
 10
4.4180835135
 20
3.4906641668
 30
0.0
 10
4.4174994081
 20
3.4854738621
 30
0.0
 10
4.4170572843
 20
3.4829076158
 30
0.0
  0
SPLINE
  5
394
100
AcDbEntity
  8
0
100
AcDbSpline
 62
7
  6
CONTINUOUS
 70
0
 71
3
 72
11
 73
7
 74
0
 42
0.0000001
 43
0.0000001
 44
0.0000000001
 40
0.0
 40
0.0
 40
0.0
 40
0.0
 40
0.2497632794
 40
0.4998700869
 40
0.7499115708
 40
1.0
 40
1.0
 40
1.0
 40
1.0
 10
4.3796888423
 20
3.5475461725
 30
0.0
 10
4.3816646383
 20
3.5469041975
 30
0.0
 10
4.3855579867
 20
3.5454209275
 30
0.0
 10
4.3911259915
 20
3.5425797308
 30
0.0
 10
4.3963146941
 20
3.5390851602
 30
0.0
 10
4.3994603737
 20
3.5363443187
 30
0.0
 10
4.4009436748
 20
3.5348859073
 30
0.0
  0
SPLINE
  5
395
100
AcDbEntity
  8
0
100
AcDbSpline
 62
7
  6
CONTINUOUS
 70
0
 71
3
 72
9
 73
5
 74
0
 42
0.0000001
 43
0.0000001
 44
0.0000000001
 40
0.0
 40
0.0
 40
0.0
 40
0.0
 40
0.5000507114
 40
1.0
 40
1.0
 40
1.0
 40
1.0
 10
4.4009436748
 20
3.5348859073
 30
0.0
 10
4.4021163669
 20
3.5337328929
 30
0.0
 10
4.4043525006
 20
3.5313132985
 30
0.0
 10
4.4063461906
 20
3.5286911022
 30
0.0
 10
4.4072830059
 20
3.5273398329
 30
0.0
  0
SPLINE
  5
396
100
AcDbEntity
  8
0
100
AcDbSpline
 62
7
  6
CONTINUOUS
 70
0
 71
3
 72
9
 73
5
 74
0
 42
0.0000001
 43
0.0000001
 44
0.0000000001
 40
0.0
 40
0.0
 40
0.0
 40
0.0
 40
0.2503070187
 40
1.0
 40
1.0
 40
1.0
 40
1.0
 10
4.4072830059
 20
3.5273398329
 30
0.0
 10
4.4077593332
 20
3.526652775
 30
0.0
 10
4.4096009603
 20
3.5238656362
 30
0.0
 10
4.4112040397
 20
3.5209228777
 30
0.0
 10
4.412276293
 20
3.5186601049
 30
0.0
  0
LINE
  5
397
100
AcDbEntity
  8
0
100
AcDbLine
 62
7
  6
CONTINUOUS
 10
4.3058790787
 20
3.5051852703
 11
4.2921396739
 21
3.5188544408
  0
LINE
  5
398
100
AcDbEntity
  8
0
100
AcDbLine
 62
7
  6
CONTINUOUS
 10
4.2921396739
 20
3.5188544408
 11
4.3067900438
 21
3.5639357915
  0
LINE
  5
399
100
AcDbEntity
  8
0
100
AcDbLine
 62
7
  6
CONTINUOUS
 10
4.3067900438
 20
3.5639357915
 11
4.2913860876
 21
3.5790438853
  0
LINE
  5
39A
100
AcDbEntity
  8
0
100
AcDbLine
 62
7
  6
CONTINUOUS
 10
4.4219997536
 20
2.6080764983
 11
4.4254843007
 21
2.6051618272
  0
SPLINE
  5
39B
100
AcDbEntity
  8
0
100
AcDbSpline
 62
7
  6
CONTINUOUS
 70
0
 71
3
 72
9
 73
5
 74
0
 42
0.0000001
 43
0.0000001
 44
0.0000000001
 40
0.0
 40
0.0
 40
0.0
 40
0.0
 40
0.4999832617
 40
1.0
 40
1.0
 40
1.0
 40
1.0
 10
4.4178064442
 20
2.6128137126
 30
0.0
 10
4.4183359233
 20
2.6118967944
 30
0.0
 10
4.4196170558
 20
2.610188057
 30
0.0
 10
4.4211731658
 20
2.6087383063
 30
0.0
 10
4.4219997536
 20
2.6080764983
 30
0.0
  0
SPLINE
  5
39C
100
AcDbEntity
  8
0
100
AcDbSpline
 62
7
  6
CONTINUOUS
 70
0
 71
3
 72
12
 73
8
 74
0
 42
0.0000001
 43
0.0000001
 44
0.0000000001
 40
0.0
 40
0.0
 40
0.0
 40
0.0
 40
0.2498841114
 40
0.3751404098
 40
0.5004443899
 40
0.7501361424
 40
1.0
 40
1.0
 40
1.0
 40
1.0
 10
4.422883805
 20
2.6230174974
 30
0.0
 10
4.4219592796
 20
2.6224837224
 30
0.0
 10
4.4206146297
 20
2.6215994037
 30
0.0
 10
4.4190010637
 20
2.6201858279
 30
0.0
 10
4.4176219639
 20
2.6185534056
 30
0.0
 10
4.4165589222
 20
2.6159160221
 30
0.0
 10
4.4172726397
 20
2.6137381211
 30
0.0
 10
4.4178064442
 20
2.6128137126
 30
0.0
  0
LINE
  5
39D
100
AcDbEntity
  8
0
100
AcDbLine
 62
7
  6
CONTINUOUS
 10
4.536838409
 20
2.6645235248
 11
4.531782195
 21
2.6732791728
  0
LINE
  5
39E
100
AcDbEntity
  8
0
100
AcDbLine
 62
7
  6
CONTINUOUS
 10
4.531782195
 20
2.6732791728
 11
4.529256723
 21
2.6776524795
  0
LINE
  5
39F
100
AcDbEntity
  8
0
100
AcDbLine
 62
7
  6
CONTINUOUS
 10
4.529256723
 20
2.6776524795
 11
4.5263197115
 21
2.6827384792
  0
LINE
  5
3A0
100
AcDbEntity
  8
0
100
AcDbLine
 62
7
  6
CONTINUOUS
 10
4.5263197115
 20
2.6827384792
 11
4.5146709728
 21
2.7029109197
  0
LINE
  5
3A1
100
AcDbEntity
  8
0
100
AcDbLine
 62
7
  6
CONTINUOUS
 10
4.5146709728
 20
2.7029109197
 11
4.5115302002
 21
2.7083499953
  0
LINE
  5
3A2
100
AcDbEntity
  8
0
100
AcDbLine
 62
7
  6
CONTINUOUS
 10
4.5115302002
 20
2.7083499953
 11
4.5064604189
 21
2.7171297602
  0
SPLINE
  5
3A3
100
AcDbEntity
  8
0
100
AcDbSpline
 62
7
  6
CONTINUOUS
 70
0
 71
3
 72
9
 73
5
 74
0
 42
0.0000001
 43
0.0000001
 44
0.0000000001
 40
0.0
 40
0.0
 40
0.0
 40
0.0
 40
0.4593133434
 40
1.0
 40
1.0
 40
1.0
 40
1.0
 10
4.4003389442
 20
2.7664308294
 30
0.0
 10
4.403216615
 20
2.7659806507
 30
0.0
 10
4.4094617443
 20
2.7648725873
 30
0.0
 10
4.415675129
 20
2.7636027339
 30
0.0
 10
4.4190281392
 20
2.7628863381
 30
0.0
  0
LINE
  5
3A4
100
AcDbEntity
  8
0
100
AcDbLine
 62
7
  6
CONTINUOUS
 10
4.4436835535
 20
2.757176657
 11
4.4470984624
 21
2.7563333753
  0
SPLINE
  5
3A5
100
AcDbEntity
  8
0
100
AcDbSpline
 62
7
  6
CONTINUOUS
 70
0
 71
3
 72
12
 73
8
 74
0
 42
0.0000001
 43
0.0000001
 44
0.0000000001
 40
0.0
 40
0.0
 40
0.0
 40
0.0
 40
0.1053894899
 40
0.2142836224
 40
0.4472126399
 40
0.7072303319
 40
1.0
 40
1.0
 40
1.0
 40
1.0
 10
4.3538390065
 20
2.761167367
 30
0.0
 10
4.3552887137
 20
2.7620043715
 30
0.0
 10
4.3583419382
 20
2.7635293559
 30
0.0
 10
4.3650251665
 20
2.7659723599
 30
0.0
 10
4.3744738477
 20
2.7678005409
 30
0.0
 10
4.3869915316
 20
2.7680920917
 30
0.0
 10
4.3957443191
 20
2.7671494525
 30
0.0
 10
4.4003387337
 20
2.7664307079
 30
0.0
  0
LINE
  5
3A6
100
AcDbEntity
  8
0
100
AcDbLine
 62
7
  6
CONTINUOUS
 10
4.3996958828
 20
2.6872948532
 11
4.3992386889
 21
2.6917154423
  0
SPLINE
  5
3A7
100
AcDbEntity
  8
0
100
AcDbSpline
 62
7
  6
CONTINUOUS
 70
0
 71
3
 72
9
 73
5
 74
0
 42
0.0000001
 43
0.0000001
 44
0.0000000001
 40
0.0
 40
0.0
 40
0.0
 40
0.0
 40
0.2502045084
 40
1.0
 40
1.0
 40
1.0
 40
1.0
 10
4.3733237506
 20
2.6932787225
 30
0.0
 10
4.3741245222
 20
2.6929646384
 30
0.0
 10
4.3773871155
 20
2.6918667001
 30
0.0
 10
4.3808143042
 20
2.6913197827
 30
0.0
 10
4.3833833181
 20
2.6911085562
 30
0.0
  0
SPLINE
  5
3A8
100
AcDbEntity
  8
0
100
AcDbSpline
 62
7
  6
CONTINUOUS
 70
0
 71
3
 72
9
 73
5
 74
0
 42
0.0000001
 43
0.0000001
 44
0.0000000001
 40
0.0
 40
0.0
 40
0.0
 40
0.0
 40
0.4999409979
 40
1.0
 40
1.0
 40
1.0
 40
1.0
 10
4.3833833181
 20
2.6911085562
 30
0.0
 10
4.3860221298
 20
2.6908915908
 30
0.0
 10
4.3913355614
 20
2.6908707384
 30
0.0
 10
4.3966122604
 20
2.6913754655
 30
0.0
 10
4.3992386889
 20
2.6917154423
 30
0.0
  0
SPLINE
  5
3A9
100
AcDbEntity
  8
0
100
AcDbSpline
 62
7
  6
CONTINUOUS
 70
0
 71
3
 72
11
 73
7
 74
0
 42
0.0000001
 43
0.0000001
 44
0.0000000001
 40
0.0
 40
0.0
 40
0.0
 40
0.0
 40
0.2498651627
 40
0.4997947078
 40
0.7497753005
 40
1.0
 40
1.0
 40
1.0
 40
1.0
 10
4.3593238981
 20
2.705042495
 30
0.0
 10
4.36005976
 20
2.7039190102
 30
0.0
 10
4.3616516428
 20
2.7017468168
 30
0.0
 10
4.3644177409
 20
2.6988010306
 30
0.0
 10
4.3675584708
 20
2.696251892
 30
0.0
 10
4.3698811638
 20
2.6948752163
 30
0.0
 10
4.3710845739
 20
2.6942746253
 30
0.0
  0
SPLINE
  5
3AA
100
AcDbEntity
  8
0
100
AcDbSpline
 62
7
  6
CONTINUOUS
 70
0
 71
3
 72
14
 73
10
 74
0
 42
0.0000001
 43
0.0000001
 44
0.0000000001
 40
0.0
 40
0.0
 40
0.0
 40
0.0
 40
0.1249023451
 40
0.2500970728
 40
0.375181888
 40
0.5002646133
 40
0.6254100112
 40
0.7504459383
 40
1.0
 40
1.0
 40
1.0
 40
1.0
 10
4.356541028
 20
2.7294132222
 30
0.0
 10
4.3561376295
 20
2.7285244162
 30
0.0
 10
4.3554306561
 20
2.7266968254
 30
0.0
 10
4.3547057763
 20
2.7238482786
 30
0.0
 10
4.3543626547
 20
2.7209256058
 30
0.0
 10
4.3544254704
 20
2.7179847171
 30
0.0
 10
4.3548619816
 20
2.7150767094
 30
0.0
 10
4.355918356
 20
2.7113089189
 30
0.0
 10
4.357176091
 20
2.7086382029
 30
0.0
 10
4.3581512111
 20
2.7069493203
 30
0.0
  0
SPLINE
  5
3AB
100
AcDbEntity
  8
0
100
AcDbSpline
 62
7
  6
CONTINUOUS
 70
0
 71
3
 72
11
 73
7
 74
0
 42
0.0000001
 43
0.0000001
 44
0.0000000001
 40
0.0
 40
0.0
 40
0.0
 40
0.0
 40
0.2446398548
 40
0.4888051005
 40
0.7387574311
 40
1.0
 40
1.0
 40
1.0
 40
1.0
 10
4.3712388217
 20
2.7461878053
 30
0.0
 10
4.3696388918
 20
2.7452641034
 30
0.0
 10
4.3665869995
 20
2.7431518445
 30
0.0
 10
4.3625785561
 20
2.7392364622
 30
0.0
 10
4.3591764277
 20
2.7346301724
 30
0.0
 10
4.3573563366
 20
2.7312096432
 30
0.0
 10
4.3565409889
 20
2.7294132074
 30
0.0
  0
LINE
  5
3AC
100
AcDbEntity
  8
0
100
AcDbLine
 62
7
  6
CONTINUOUS
 10
4.492847019
 20
2.7407058562
 11
4.4785652696
 21
2.7654404181
  0
LINE
  5
3AD
100
AcDbEntity
  8
0
100
AcDbLine
 62
7
  6
CONTINUOUS
 10
4.4785652696
 20
2.7654404181
 11
4.4595358729
 21
2.7983990333
  0
LINE
  5
3AE
100
AcDbEntity
  8
0
100
AcDbLine
 62
7
  6
CONTINUOUS
 10
4.4595358729
 20
2.7983990333
 11
4.4499807917
 21
2.8149489771
  0
LINE
  5
3AF
100
AcDbEntity
  8
0
100
AcDbLine
 62
7
  6
CONTINUOUS
 10
4.4499807917
 20
2.8149489771
 11
4.4334930316
 21
2.8126544481
  0
LINE
  5
3B0
100
AcDbEntity
  8
0
100
AcDbLine
 62
7
  6
CONTINUOUS
 10
4.4334930316
 20
2.8126544481
 11
4.4167830555
 21
2.8103290027
  0
SPLINE
  5
3B1
100
AcDbEntity
  8
0
100
AcDbSpline
 62
7
  6
CONTINUOUS
 70
0
 71
3
 72
12
 73
8
 74
0
 42
0.0000001
 43
0.0000001
 44
0.0000000001
 40
0.0
 40
0.0
 40
0.0
 40
0.0
 40
0.1250644037
 40
0.2501448998
 40
0.500046288
 40
0.7499997444
 40
1.0
 40
1.0
 40
1.0
 40
1.0
 10
4.4156821495
 20
2.8370324798
 30
0.0
 10
4.4146418955
 20
2.8349187528
 30
0.0
 10
4.4123454335
 20
2.8307935398
 30
0.0
 10
4.406987094
 20
2.8230326212
 30
0.0
 10
4.3990178146
 20
2.8142875237
 30
0.0
 10
4.3880490359
 20
2.8053301468
 30
0.0
 10
4.3800995721
 20
2.8002447803
 30
0.0
 10
4.3760212391
 20
2.7978901536
 30
0.0
  0
SPLINE
  5
3B2
100
AcDbEntity
  8
0
100
AcDbSpline
 62
7
  6
CONTINUOUS
 70
0
 71
3
 72
11
 73
7
 74
0
 42
0.0000001
 43
0.0000001
 44
0.0000000001
 40
0.0
 40
0.0
 40
0.0
 40
0.0
 40
0.249595128
 40
0.5000613693
 40
0.7502579855
 40
1.0
 40
1.0
 40
1.0
 40
1.0
 10
4.4162509473
 20
2.8780713998
 30
0.0
 10
4.4170417515
 20
2.8767015196
 30
0.0
 10
4.4184663449
 20
2.8738610284
 30
0.0
 10
4.4200784021
 20
2.8693759713
 30
0.0
 10
4.4211131003
 20
2.8647203216
 30
0.0
 10
4.4213725983
 20
2.8615517474
 30
0.0
 10
4.4214034973
 20
2.859969365
 30
0.0
  0
SPLINE
  5
3B3
100
AcDbEntity
  8
0
100
AcDbSpline
 62
7
  6
CONTINUOUS
 70
0
 71
3
 72
11
 73
7
 74
0
 42
0.0000001
 43
0.0000001
 44
0.0000000001
 40
0.0
 40
0.0
 40
0.0
 40
0.0
 40
0.2503611689
 40
0.5006022755
 40
0.7504285292
 40
1.0
 40
1.0
 40
1.0
 40
1.0
 10
4.4214034973
 20
2.859969365
 30
0.0
 10
4.421442362
 20
2.857979047
 30
0.0
 10
4.4212095626
 20
2.8539881787
 30
0.0
 10
4.4200398867
 20
2.8481208946
 30
0.0
 10
4.4181708516
 20
2.8424481392
 30
0.0
 10
4.416558398
 20
2.8388129585
 30
0.0
 10
4.4156821495
 20
2.8370324798
 30
0.0
  0
SPLINE
  5
3B4
100
AcDbEntity
  8
0
100
AcDbSpline
 62
7
  6
CONTINUOUS
 70
0
 71
3
 72
12
 73
8
 74
0
 42
0.0000001
 43
0.0000001
 44
0.0000000001
 40
0.0
 40
0.0
 40
0.0
 40
0.0
 40
0.2498365171
 40
0.4998179128
 40
0.6248763854
 40
0.74998113
 40
1.0
 40
1.0
 40
1.0
 40
1.0
 10
4.3776958261
 20
2.8989842884
 30
0.0
 10
4.380020617
 20
2.8990313462
 30
0.0
 10
4.3846825555
 20
2.8988707018
 30
0.0
 10
4.3904363743
 20
2.8978741233
 30
0.0
 10
4.3948973549
 20
2.8965245897
 30
0.0
 10
4.3992198082
 20
2.8947846258
 30
0.0
 10
4.4022721819
 20
2.8930349398
 30
0.0
 10
4.4041710719
 20
2.8916899567
 30
0.0
  0
SPLINE
  5
3B5
100
AcDbEntity
  8
0
100
AcDbSpline
 62
7
  6
CONTINUOUS
 70
0
 71
3
 72
9
 73
5
 74
0
 42
0.0000001
 43
0.0000001
 44
0.0000000001
 40
0.0
 40
0.0
 40
0.0
 40
0.0
 40
0.499979378
 40
1.0
 40
1.0
 40
1.0
 40
1.0
 10
4.4041710719
 20
2.8916899567
 30
0.0
 10
4.4064940037
 20
2.8900446249
 30
0.0
 10
4.4107650983
 20
2.8861970966
 30
0.0
 10
4.4141387925
 20
2.8815668868
 30
0.0
 10
4.4156198318
 20
2.8791356344
 30
0.0
  0
SPLINE
  5
3B6
100
AcDbEntity
  8
0
100
AcDbSpline
 62
7
  6
CONTINUOUS
 70
0
 71
3
 72
11
 73
7
 74
0
 42
0.0000001
 43
0.0000001
 44
0.0000000001
 40
0.0
 40
0.0
 40
0.0
 40
0.0
 40
0.2498048691
 40
0.4998645117
 40
0.7502273247
 40
1.0
 40
1.0
 40
1.0
 40
1.0
 10
4.3242018595
 20
2.8827437069
 30
0.0
 10
4.3282739389
 20
2.885094723
 30
0.0
 10
4.3366408669
 20
2.8894360291
 30
0.0
 10
4.3498360529
 20
2.8945585142
 30
0.0
 10
4.3635861622
 20
2.8979470896
 30
0.0
 10
4.3729953626
 20
2.8988891428
 30
0.0
 10
4.3776958261
 20
2.8989842884
 30
0.0
  0
SPLINE
  5
3B7
100
AcDbEntity
  8
0
100
AcDbSpline
 62
7
  6
CONTINUOUS
 70
0
 71
3
 72
15
 73
11
 74
0
 42
0.0000001
 43
0.0000001
 44
0.0000000001
 40
0.0
 40
0.0
 40
0.0
 40
0.0
 40
0.1249883258
 40
0.2507159164
 40
0.3757025867
 40
0.4382558694
 40
0.5007496961
 40
0.6255972283
 40
0.7504579793
 40
1.0
 40
1.0
 40
1.0
 40
1.0
 10
5.9219142215
 20
3.4988225721
 30
0.0
 10
5.9201641647
 20
3.4983536458
 30
0.0
 10
5.9167926796
 20
3.496856649
 30
0.0
 10
5.9124402655
 20
3.4935254077
 30
0.0
 10
5.9093932791
 20
3.490130198
 30
0.0
 10
5.9072511682
 20
3.48720538
 30
0.0
 10
5.9052641651
 20
3.4841747692
 30
0.0
 10
5.9030457465
 20
3.4802237255
 30
0.0
 10
5.8999607181
 20
3.4736730305
 30
0.0
 10
5.8980518566
 20
3.4685820139
 30
0.0
 10
5.8969028968
 20
3.4651520525
 30
0.0
  0
SPLINE
  5
3B8
100
AcDbEntity
  8
0
100
AcDbSpline
 62
7
  6
CONTINUOUS
 70
0
 71
3
 72
9
 73
5
 74
0
 42
0.0000001
 43
0.0000001
 44
0.0000000001
 40
0.0
 40
0.0
 40
0.0
 40
0.0
 40
0.5000004082
 40
1.0
 40
1.0
 40
1.0
 40
1.0
 10
5.9169069639
 20
3.4531361088
 30
0.0
 10
5.9194755491
 20
3.4525229299
 30
0.0
 10
5.9248022537
 20
3.4519894643
 30
0.0
 10
5.9300724776
 20
3.4528185087
 30
0.0
 10
5.9326232527
 20
3.4535019869
 30
0.0
  0
SPLINE
  5
3B9
100
AcDbEntity
  8
0
100
AcDbSpline
 62
7
  6
CONTINUOUS
 70
0
 71
3
 72
9
 73
5
 74
0
 42
0.0000001
 43
0.0000001
 44
0.0000000001
 40
0.0
 40
0.0
 40
0.0
 40
0.0
 40
0.5000448209
 40
1.0
 40
1.0
 40
1.0
 40
1.0
 10
5.9010698171
 20
3.4618340728
 30
0.0
 10
5.9025500189
 20
3.4607102536
 30
0.0
 10
5.9055697323
 20
3.4585402693
 30
0.0
 10
5.9087490883
 20
3.4566013304
 30
0.0
 10
5.9103917314
 20
3.4557327382
 30
0.0
  0
SPLINE
  5
3BA
100
AcDbEntity
  8
0
100
AcDbSpline
 62
7
  6
CONTINUOUS
 70
0
 71
3
 72
9
 73
5
 74
0
 42
0.0000001
 43
0.0000001
 44
0.0000000001
 40
0.0
 40
0.0
 40
0.0
 40
0.0
 40
0.5000901633
 40
1.0
 40
1.0
 40
1.0
 40
1.0
 10
5.9103917314
 20
3.4557327382
 30
0.0
 10
5.9114272319
 20
3.4551851891
 30
0.0
 10
5.9135417813
 20
3.454171457
 30
0.0
 10
5.9157680351
 20
3.4534079967
 30
0.0
 10
5.9169069639
 20
3.4531361088
 30
0.0
  0
SPLINE
  5
3BB
100
AcDbEntity
  8
0
100
AcDbSpline
 62
7
  6
CONTINUOUS
 70
0
 71
3
 72
12
 73
8
 74
0
 42
0.0000001
 43
0.0000001
 44
0.0000000001
 40
0.0
 40
0.0
 40
0.0
 40
0.0
 40
0.2499541628
 40
0.3752245751
 40
0.5003325154
 40
0.7502774089
 40
1.0
 40
1.0
 40
1.0
 40
1.0
 10
5.8277729325
 20
3.428279136
 30
0.0
 10
5.8291093744
 20
3.4274390528
 30
0.0
 10
5.831284693
 20
3.4264226978
 30
0.0
 10
5.8343480476
 20
3.4256262347
 30
0.0
 10
5.8374862315
 20
3.4252022529
 30
0.0
 10
5.841457263
 20
3.4253052442
 30
0.0
 10
5.844563751
 20
3.4259274737
 30
0.0
 10
5.8460870996
 20
3.4263356537
 30
0.0
  0
SPLINE
  5
3BC
100
AcDbEntity
  8
0
100
AcDbSpline
 62
7
  6
CONTINUOUS
 70
0
 71
3
 72
12
 73
8
 74
0
 42
0.0000001
 43
0.0000001
 44
0.0000000001
 40
0.0
 40
0.0
 40
0.0
 40
0.0
 40
0.2498233458
 40
0.4997697048
 40
0.6248801993
 40
0.750061021
 40
1.0
 40
1.0
 40
1.0
 40
1.0
 10
5.8174559356
 20
3.4428691984
 30
0.0
 10
5.8178503658
 20
3.4413974237
 30
0.0
 10
5.8188406977
 20
3.4385002922
 30
0.0
 10
5.8206926725
 20
3.4351414757
 30
0.0
 10
5.8225507715
 20
3.4327149129
 30
0.0
 10
5.8246544529
 20
3.4304991752
 30
0.0
 10
5.8264823205
 20
3.4290904106
 30
0.0
 10
5.8277729325
 20
3.428279136
 30
0.0
  0
SPLINE
  5
3BD
100
AcDbEntity
  8
0
100
AcDbSpline
 62
7
  6
CONTINUOUS
 70
0
 71
3
 72
9
 73
5
 74
0
 42
0.0000001
 43
0.0000001
 44
0.0000000001
 40
0.0
 40
0.0
 40
0.0
 40
0.0
 40
0.2497502569
 40
1.0
 40
1.0
 40
1.0
 40
1.0
 10
5.820505603
 20
3.4661234037
 30
0.0
 10
5.8202825018
 20
3.4657368508
 30
0.0
 10
5.8194182294
 20
3.4641726351
 30
0.0
 10
5.8186749038
 20
3.4625406901
 30
0.0
 10
5.8181999864
 20
3.4612868907
 30
0.0
  0
SPLINE
  5
3BE
100
AcDbEntity
  8
0
100
AcDbSpline
 62
7
  6
CONTINUOUS
 70
0
 71
3
 72
11
 73
7
 74
0
 42
0.0000001
 43
0.0000001
 44
0.0000000001
 40
0.0
 40
0.0
 40
0.0
 40
0.0
 40
0.249961259
 40
0.4999647386
 40
0.7499526912
 40
1.0
 40
1.0
 40
1.0
 40
1.0
 10
5.8181999864
 20
3.4612868907
 30
0.0
 10
5.8177295096
 20
3.4600448146
 30
0.0
 10
5.8169516457
 20
3.4574943687
 30
0.0
 10
5.8163346055
 20
3.4535444316
 30
0.0
 10
5.8162761094
 20
3.4495467063
 30
0.0
 10
5.8166011063
 20
3.4469010659
 30
0.0
 10
5.8168406549
 20
3.4455941869
 30
0.0
  0
SPLINE
  5
3BF
100
AcDbEntity
  8
0
100
AcDbSpline
 62
7
  6
CONTINUOUS
 70
0
 71
3
 72
9
 73
5
 74
0
 42
0.0000001
 43
0.0000001
 44
0.0000000001
 40
0.0
 40
0.0
 40
0.0
 40
0.0
 40
0.4999096421
 40
1.0
 40
1.0
 40
1.0
 40
1.0
 10
5.8389349226
 20
3.4802357579
 30
0.0
 10
5.8351191442
 20
3.4792133231
 30
0.0
 10
5.8277129808
 20
3.4758049155
 30
0.0
 10
5.8224810098
 20
3.469546062
 30
0.0
 10
5.820505603
 20
3.4661234037
 30
0.0
  0
SPLINE
  5
3C0
100
AcDbEntity
  8
0
100
AcDbSpline
 62
7
  6
CONTINUOUS
 70
0
 71
3
 72
13
 73
9
 74
0
 42
0.0000001
 43
0.0000001
 44
0.0000000001
 40
0.0
 40
0.0
 40
0.0
 40
0.0
 40
0.094464882
 40
0.1971875339
 40
0.3084725524
 40
0.4285565252
 40
0.6957860509
 40
1.0
 40
1.0
 40
1.0
 40
1.0
 10
4.3829222339
 20
2.8843663543
 30
0.0
 10
4.3813119109
 20
2.8840615846
 30
0.0
 10
4.3779738956
 20
2.8832983426
 30
0.0
 10
4.3728369414
 20
2.881788025
 30
0.0
 10
4.3673664804
 20
2.8798649776
 30
0.0
 10
4.3593404402
 20
2.8766318848
 30
0.0
 10
4.3484898785
 20
2.8714881744
 30
0.0
 10
4.3397924928
 20
2.8667196029
 30
0.0
 10
4.3352216704
 20
2.8640806368
 30
0.0
  0
SPLINE
  5
3C1
100
AcDbEntity
  8
0
100
AcDbSpline
 62
7
  6
CONTINUOUS
 70
0
 71
3
 72
12
 73
8
 74
0
 42
0.0000001
 43
0.0000001
 44
0.0000000001
 40
0.0
 40
0.0
 40
0.0
 40
0.0
 40
0.2496960297
 40
0.4998829362
 40
0.6249079989
 40
0.7499342329
 40
1.0
 40
1.0
 40
1.0
 40
1.0
 10
4.4088772926
 20
2.8750460884
 30
0.0
 10
4.4083695897
 20
2.8759255633
 30
0.0
 10
4.4072391969
 20
2.8776234985
 30
0.0
 10
4.4055372099
 20
2.8795252663
 30
0.0
 10
4.4040018185
 20
2.8808637506
 30
0.0
 10
4.4023555024
 20
2.8820614314
 30
0.0
 10
4.4010113803
 20
2.8828012758
 30
0.0
 10
4.4000847832
 20
2.8832204566
 30
0.0
  0
SPLINE
  5
3C2
100
AcDbEntity
  8
0
100
AcDbSpline
 62
7
  6
CONTINUOUS
 70
0
 71
3
 72
12
 73
8
 74
0
 42
0.0000001
 43
0.0000001
 44
0.0000000001
 40
0.0
 40
0.0
 40
0.0
 40
0.0
 40
0.1253760487
 40
0.2504471717
 40
0.5005143986
 40
0.7504199544
 40
1.0
 40
1.0
 40
1.0
 40
1.0
 10
4.4000847832
 20
2.8832204566
 30
0.0
 10
4.399419956
 20
2.8835212159
 30
0.0
 10
4.3980569027
 20
2.8840479655
 30
0.0
 10
4.3952362279
 20
2.8847943906
 30
0.0
 10
4.391601338
 20
2.885202734
 30
0.0
 10
4.3872310519
 20
2.8850583175
 30
0.0
 10
4.3843492991
 20
2.8846363734
 30
0.0
 10
4.3829220703
 20
2.8843662618
 30
0.0
  0
SPLINE
  5
3C3
100
AcDbEntity
  8
0
100
AcDbSpline
 62
7
  6
CONTINUOUS
 70
0
 71
3
 72
9
 73
5
 74
0
 42
0.0000001
 43
0.0000001
 44
0.0000000001
 40
0.0
 40
0.0
 40
0.0
 40
0.0
 40
0.4992713562
 40
1.0
 40
1.0
 40
1.0
 40
1.0
 10
4.4059026837
 20
2.8490926228
 30
0.0
 10
4.4071017
 20
2.8509008726
 30
0.0
 10
4.4092906717
 20
2.8546739266
 30
0.0
 10
4.4107166894
 20
2.8588291756
 30
0.0
 10
4.4111418715
 20
2.8609632206
 30
0.0
  0
SPLINE
  5
3C4
100
AcDbEntity
  8
0
100
AcDbSpline
 62
7
  6
CONTINUOUS
 70
0
 71
3
 72
12
 73
8
 74
0
 42
0.0000001
 43
0.0000001
 44
0.0000000001
 40
0.0
 40
0.0
 40
0.0
 40
0.0
 40
0.2499463874
 40
0.3747614201
 40
0.4997709142
 40
0.7503067654
 40
1.0
 40
1.0
 40
1.0
 40
1.0
 10
4.4111418715
 20
2.8609632206
 30
0.0
 10
4.4113791836
 20
2.8621543214
 30
0.0
 10
4.411601502
 20
2.8639727147
 30
0.0
 10
4.4115691929
 20
2.866403993
 30
0.0
 10
4.4112954201
 20
2.8688236389
 30
0.0
 10
4.4105154142
 20
2.8717787459
 30
0.0
 10
4.4094838776
 20
2.8739953237
 30
0.0
 10
4.4088772926
 20
2.8750460884
 30
0.0
  0
SPLINE
  5
3C5
100
AcDbEntity
  8
0
100
AcDbSpline
 62
7
  6
CONTINUOUS
 70
0
 71
3
 72
15
 73
11
 74
0
 42
0.0000001
 43
0.0000001
 44
0.0000000001
 40
0.0
 40
0.0
 40
0.0
 40
0.0
 40
0.171213044
 40
0.3287522261
 40
0.4727688577
 40
0.6034599985
 40
0.7210883365
 40
0.8260131926
 40
0.9187399634
 40
1.0
 40
1.0
 40
1.0
 40
1.0
 10
4.3609334413
 20
2.8142045799
 30
0.0
 10
4.3637659323
 20
2.8158399193
 30
0.0
 10
4.3691697858
 20
2.8190412262
 30
0.0
 10
4.3768117202
 20
2.8238566699
 30
0.0
 10
4.3836516619
 20
2.8284854366
 30
0.0
 10
4.3896905446
 20
2.8329283061
 30
0.0
 10
4.3949296317
 20
2.8371861987
 30
0.0
 10
4.3993710493
 20
2.8412611351
 30
0.0
 10
4.4030163166
 20
2.8451547008
 30
0.0
 10
4.4050445546
 20
2.8477988011
 30
0.0
 10
4.4059024164
 20
2.8490925303
 30
0.0
  0
LINE
  5
3C6
100
AcDbEntity
  8
0
100
AcDbLine
 62
7
  6
CONTINUOUS
 10
5.6529132635
 20
3.8465393473
 11
5.6672765968
 21
3.8344870797
  0
LINE
  5
3C7
100
AcDbEntity
  8
0
100
AcDbLine
 62
7
  6
CONTINUOUS
 10
4.5789711122
 20
3.8629853617
 11
4.593945528
 21
3.8742693934
  0
SPLINE
  5
3C8
100
AcDbEntity
  8
0
100
AcDbSpline
 62
7
  6
CONTINUOUS
 70
0
 71
3
 72
11
 73
7
 74
0
 42
0.0000001
 43
0.0000001
 44
0.0000000001
 40
0.0
 40
0.0
 40
0.0
 40
0.0
 40
0.2499466025
 40
0.4999324391
 40
0.7499596544
 40
1.0
 40
1.0
 40
1.0
 40
1.0
 10
5.855739971
 20
3.4954597271
 30
0.0
 10
5.8580222512
 20
3.4944770462
 30
0.0
 10
5.8624014406
 20
3.492074622
 30
0.0
 10
5.8684557165
 20
3.487706822
 30
0.0
 10
5.8741171505
 20
3.4828435058
 30
0.0
 10
5.8776822142
 20
3.4793749538
 30
0.0
 10
5.8794225039
 20
3.4775999922
 30
0.0
  0
SPLINE
  5
3C9
100
AcDbEntity
  8
0
100
AcDbSpline
 62
7
  6
CONTINUOUS
 70
0
 71
3
 72
9
 73
5
 74
0
 42
0.0000001
 43
0.0000001
 44
0.0000000001
 40
0.0
 40
0.0
 40
0.0
 40
0.0
 40
0.499958157
 40
1.0
 40
1.0
 40
1.0
 40
1.0
 10
5.8329589953
 20
3.4967610336
 30
0.0
 10
5.83668664
 20
3.497759853
 30
0.0
 10
5.8444825987
 20
3.498787341
 30
0.0
 10
5.8521948365
 20
3.4969861551
 30
0.0
 10
5.855739971
 20
3.4954597271
 30
0.0
  0
SPLINE
  5
3CA
100
AcDbEntity
  8
0
100
AcDbSpline
 62
7
  6
CONTINUOUS
 70
0
 71
3
 72
9
 73
5
 74
0
 42
0.0000001
 43
0.0000001
 44
0.0000000001
 40
0.0
 40
0.0
 40
0.0
 40
0.0
 40
0.5000741224
 40
1.0
 40
1.0
 40
1.0
 40
1.0
 10
5.877046337
 20
3.4232878592
 30
0.0
 10
5.8743282211
 20
3.4205298556
 30
0.0
 10
5.8683436852
 20
3.4155039968
 30
0.0
 10
5.861162606
 20
3.4122486062
 30
0.0
 10
5.8574233563
 20
3.4112466773
 30
0.0
  0
SPLINE
  5
3CB
100
AcDbEntity
  8
0
100
AcDbSpline
 62
7
  6
CONTINUOUS
 70
0
 71
3
 72
12
 73
8
 74
0
 42
0.0000001
 43
0.0000001
 44
0.0000000001
 40
0.0
 40
0.0
 40
0.0
 40
0.0
 40
0.249942288
 40
0.4998926132
 40
0.7497887417
 40
0.8750094136
 40
1.0
 40
1.0
 40
1.0
 40
1.0
 10
5.8934709388
 20
3.4552797216
 30
0.0
 10
5.8925356043
 20
3.4524092733
 30
0.0
 10
5.8905396748
 20
3.4467070923
 30
0.0
 10
5.8870333104
 20
3.438350681
 30
0.0
 10
5.8834875896
 20
3.4316614695
 30
0.0
 10
5.880073208
 20
3.4266702781
 30
0.0
 10
5.8781060746
 20
3.4243631482
 30
0.0
 10
5.877046337
 20
3.4232878592
 30
0.0
  0
SPLINE
  5
3CC
100
AcDbEntity
  8
0
100
AcDbSpline
 62
7
  6
CONTINUOUS
 70
0
 71
3
 72
9
 73
5
 74
0
 42
0.0000001
 43
0.0000001
 44
0.0000000001
 40
0.0
 40
0.0
 40
0.0
 40
0.0
 40
0.4999163709
 40
1.0
 40
1.0
 40
1.0
 40
1.0
 10
5.9552245751
 20
3.4526433027
 30
0.0
 10
5.9545002108
 20
3.4510094679
 30
0.0
 10
5.9528013766
 20
3.4478433082
 30
0.0
 10
5.9505474746
 20
3.4450347009
 30
0.0
 10
5.9492942393
 20
3.4437596876
 30
0.0
  0
SPLINE
  5
3CD
100
AcDbEntity
  8
0
100
AcDbSpline
 62
7
  6
CONTINUOUS
 70
0
 71
3
 72
11
 73
7
 74
0
 42
0.0000001
 43
0.0000001
 44
0.0000000001
 40
0.0
 40
0.0
 40
0.0
 40
0.0
 40
0.2499545289
 40
0.500039875
 40
0.7501160751
 40
1.0
 40
1.0
 40
1.0
 40
1.0
 10
5.9492942393
 20
3.4437596876
 30
0.0
 10
5.9484005164
 20
3.442850434
 30
0.0
 10
5.9464769693
 20
3.4411593029
 30
0.0
 10
5.9432585303
 20
3.4390674789
 30
0.0
 10
5.9397858586
 20
3.4374366411
 30
0.0
 10
5.9373553516
 20
3.4366433876
 30
0.0
 10
5.9361241979
 20
3.4363135009
 30
0.0
  0
SPLINE
  5
3CE
100
AcDbEntity
  8
0
100
AcDbSpline
 62
7
  6
CONTINUOUS
 70
0
 71
3
 72
9
 73
5
 74
0
 42
0.0000001
 43
0.0000001
 44
0.0000000001
 40
0.0
 40
0.0
 40
0.0
 40
0.0
 40
0.7495936488
 40
1.0
 40
1.0
 40
1.0
 40
1.0
 10
5.956064912
 20
3.4835464936
 30
0.0
 10
5.9572320348
 20
3.4791914071
 30
0.0
 10
5.9583119827
 20
3.4732067416
 30
0.0
 10
5.9583149876
 20
3.4671827936
 30
0.0
 10
5.9582363111
 20
3.4656786696
 30
0.0
  0
SPLINE
  5
3CF
100
AcDbEntity
  8
0
100
AcDbSpline
 62
7
  6
CONTINUOUS
 70
0
 71
3
 72
9
 73
5
 74
0
 42
0.0000001
 43
0.0000001
 44
0.0000000001
 40
0.0
 40
0.0
 40
0.0
 40
0.0
 40
0.5002491918
 40
1.0
 40
1.0
 40
1.0
 40
1.0
 10
5.9582363111
 20
3.4656786696
 30
0.0
 10
5.9581192919
 20
3.463441516
 30
0.0
 10
5.9575268103
 20
3.4589790302
 30
0.0
 10
5.9561316385
 20
3.4546892232
 30
0.0
 10
5.9552245751
 20
3.4526433027
 30
0.0
  0
SPLINE
  5
3D0
100
AcDbEntity
  8
0
100
AcDbSpline
 62
7
  6
CONTINUOUS
 70
0
 71
3
 72
9
 73
5
 74
0
 42
0.0000001
 43
0.0000001
 44
0.0000000001
 40
0.0
 40
0.0
 40
0.0
 40
0.0
 40
0.4999482309
 40
1.0
 40
1.0
 40
1.0
 40
1.0
 10
5.9378598097
 20
3.5101409631
 30
0.0
 10
5.9393769842
 20
3.5092572465
 30
0.0
 10
5.9422743289
 20
3.5072421116
 30
0.0
 10
5.9448131445
 20
3.5047929927
 30
0.0
 10
5.9459831644
 20
3.5034833729
 30
0.0
  0
SPLINE
  5
3D1
100
AcDbEntity
  8
0
100
AcDbSpline
 62
7
  6
CONTINUOUS
 70
0
 71
3
 72
9
 73
5
 74
0
 42
0.0000001
 43
0.0000001
 44
0.0000000001
 40
0.0
 40
0.0
 40
0.0
 40
0.0
 40
0.4999353872
 40
1.0
 40
1.0
 40
1.0
 40
1.0
 10
5.9489315295
 20
3.4997187497
 30
0.0
 10
5.9503889856
 20
3.4975971505
 30
0.0
 10
5.9528966954
 20
3.493065656
 30
0.0
 10
5.9546836129
 20
3.4882207033
 30
0.0
 10
5.9554330275
 20
3.4857575417
 30
0.0
  0
SPLINE
  5
3D2
100
AcDbEntity
  8
0
100
AcDbSpline
 62
7
  6
CONTINUOUS
 70
0
 71
3
 72
13
 73
9
 74
0
 42
0.0000001
 43
0.0000001
 44
0.0000000001
 40
0.0
 40
0.0
 40
0.0
 40
0.0
 40
0.2497729633
 40
0.374863336
 40
0.4999598246
 40
0.6250627705
 40
0.7501694821
 40
1.0
 40
1.0
 40
1.0
 40
1.0
 10
5.9103708823
 20
3.5138560991
 30
0.0
 10
5.9126623976
 20
3.5144701087
 30
0.0
 10
5.9161948392
 20
3.5150988303
 30
0.0
 10
5.9209489836
 20
3.5152158713
 30
0.0
 10
5.9245083119
 20
3.5149211369
 30
0.0
 10
5.9280172783
 20
3.5142550214
 30
0.0
 10
5.9325689399
 20
3.5128750582
 30
0.0
 10
5.9358093853
 20
3.5113352846
 30
0.0
 10
5.9378598097
 20
3.5101409631
 30
0.0
  0
SPLINE
  5
3D3
100
AcDbEntity
  8
0
100
AcDbSpline
 62
7
  6
CONTINUOUS
 70
0
 71
3
 72
14
 73
10
 74
0
 42
0.0000001
 43
0.0000001
 44
0.0000000001
 40
0.0
 40
0.0
 40
0.0
 40
0.0
 40
0.1250457073
 40
0.2501027994
 40
0.3751392391
 40
0.5001618262
 40
0.6251574819
 40
0.7501294931
 40
1.0
 40
1.0
 40
1.0
 40
1.0
 10
4.3729935921
 20
3.378082193
 30
0.0
 10
4.3728896133
 20
3.3787729225
 30
0.0
 10
4.3724584456
 20
3.380128505
 30
0.0
 10
4.371290652
 20
3.3818909188
 30
0.0
 10
4.3698022625
 20
3.3833795769
 30
0.0
 10
4.3681256856
 20
3.3846435699
 30
0.0
 10
4.3663338486
 20
3.3857333965
 30
0.0
 10
4.3638468325
 20
3.3870061808
 30
0.0
 10
4.3619055731
 20
3.3878014334
 30
0.0
 10
4.3605961489
 20
3.3882847933
 30
0.0
  0
SPLINE
  5
3D4
100
AcDbEntity
  8
0
100
AcDbSpline
 62
7
  6
CONTINUOUS
 70
0
 71
3
 72
13
 73
9
 74
0
 42
0.0000001
 43
0.0000001
 44
0.0000000001
 40
0.0
 40
0.0
 40
0.0
 40
0.0
 40
0.2499640897
 40
0.4999038037
 40
0.6249274465
 40
0.7498752653
 40
0.8749956543
 40
1.0
 40
1.0
 40
1.0
 40
1.0
 10
4.3706439034
 20
3.3629056924
 30
0.0
 10
4.371044026
 20
3.3641372826
 30
0.0
 10
4.3718066602
 20
3.3666126408
 30
0.0
 10
4.3726151088
 20
3.3697504039
 30
0.0
 10
4.3731007885
 20
3.3722950508
 30
0.0
 10
4.3733462177
 20
3.3742254497
 30
0.0
 10
4.3734008178
 20
3.3761691439
 30
0.0
 10
4.373207612
 20
3.3774709867
 30
0.0
 10
4.3729935921
 20
3.378082193
 30
0.0
  0
SPLINE
  5
3D5
100
AcDbEntity
  8
0
100
AcDbSpline
 62
7
  6
CONTINUOUS
 70
0
 71
3
 72
14
 73
10
 74
0
 42
0.0000001
 43
0.0000001
 44
0.0000000001
 40
0.0
 40
0.0
 40
0.0
 40
0.0
 40
0.0661402649
 40
0.1467282089
 40
0.2436232139
 40
0.3579202544
 40
0.4903081517
 40
0.6412502361
 40
1.0
 40
1.0
 40
1.0
 40
1.0
 10
4.3812866006
 20
3.406056434
 30
0.0
 10
4.3816109774
 20
3.4062417053
 30
0.0
 10
4.3822717309
 20
3.4067550491
 30
0.0
 10
4.3831986948
 20
3.4077766162
 30
0.0
 10
4.3841573251
 20
3.4091206535
 30
0.0
 10
4.3851488615
 20
3.4107904832
 30
0.0
 10
4.3861751647
 20
3.4127892858
 30
0.0
 10
4.3876782217
 20
3.4160905847
 30
0.0
 10
4.3887205294
 20
3.4187766311
 30
0.0
 10
4.389415026
 20
3.4206800998
 30
0.0
  0
SPLINE
  5
3D6
100
AcDbEntity
  8
0
100
AcDbSpline
 62
7
  6
CONTINUOUS
 70
0
 71
3
 72
11
 73
7
 74
0
 42
0.0000001
 43
0.0000001
 44
0.0000000001
 40
0.0
 40
0.0
 40
0.0
 40
0.0
 40
0.3177410581
 40
0.5847421661
 40
0.809112986
 40
1.0
 40
1.0
 40
1.0
 40
1.0
 10
4.3663693482
 20
3.4060537162
 30
0.0
 10
4.3679107547
 20
3.4055528832
 30
0.0
 10
4.3708106095
 20
3.4048035358
 30
0.0
 10
4.3749432896
 20
3.4044320478
 30
0.0
 10
4.3784284323
 20
3.4048174062
 30
0.0
 10
4.3804411522
 20
3.4055735173
 30
0.0
 10
4.3812866375
 20
3.4060564221
 30
0.0
  0
LINE
  5
3D7
100
AcDbEntity
  8
0
100
AcDbLine
 62
7
  6
CONTINUOUS
 10
4.2533364591
 20
3.4001231421
 11
4.250717575
 21
3.4151721046
  0
LINE
  5
3D8
100
AcDbEntity
  8
0
100
AcDbLine
 62
7
  6
CONTINUOUS
 10
4.250717575
 20
3.4151721046
 11
4.2494067153
 21
3.4227049314
  0
LINE
  5
3D9
100
AcDbEntity
  8
0
100
AcDbLine
 62
7
  6
CONTINUOUS
 10
4.2494067153
 20
3.4227049314
 11
4.2454684631
 21
3.4453367951
  0
SPLINE
  5
3DA
100
AcDbEntity
  8
0
100
AcDbSpline
 62
7
  6
CONTINUOUS
 70
0
 71
3
 72
10
 73
6
 74
0
 42
0.0000001
 43
0.0000001
 44
0.0000000001
 40
0.0
 40
0.0
 40
0.0
 40
0.0
 40
0.4993281845
 40
0.7496384698
 40
1.0
 40
1.0
 40
1.0
 40
1.0
 10
5.8460803824
 20
3.3607911691
 30
0.0
 10
5.8455184212
 20
3.3591628102
 30
0.0
 10
5.8449249157
 20
3.3566169588
 30
0.0
 10
5.8447420627
 20
3.3531658464
 30
0.0
 10
5.8448597035
 20
3.3514376843
 30
0.0
 10
5.844965645
 20
3.3505804999
 30
0.0
  0
SPLINE
  5
3DB
100
AcDbEntity
  8
0
100
AcDbSpline
 62
7
  6
CONTINUOUS
 70
0
 71
3
 72
9
 73
5
 74
0
 42
0.0000001
 43
0.0000001
 44
0.0000000001
 40
0.0
 40
0.0
 40
0.0
 40
0.0
 40
0.5004012035
 40
1.0
 40
1.0
 40
1.0
 40
1.0
 10
4.3964190312
 20
3.5215765163
 30
0.0
 10
4.3946095401
 20
3.5229052235
 30
0.0
 10
4.3907395718
 20
3.5252256689
 30
0.0
 10
4.3865606441
 20
3.526903439
 30
0.0
 10
4.3844290102
 20
3.5275960488
 30
0.0
  0
SPLINE
  5
3DC
100
AcDbEntity
  8
0
100
AcDbSpline
 62
7
  6
CONTINUOUS
 70
0
 71
3
 72
11
 73
7
 74
0
 42
0.0000001
 43
0.0000001
 44
0.0000000001
 40
0.0
 40
0.0
 40
0.0
 40
0.0
 40
0.2497408186
 40
0.5000571684
 40
0.7500319832
 40
1.0
 40
1.0
 40
1.0
 40
1.0
 10
4.4092166089
 20
3.4899064585
 30
0.0
 10
4.4095418392
 20
3.4909072444
 30
0.0
 10
4.4100625301
 20
3.4929561644
 30
0.0
 10
4.410429664
 20
3.496104985
 30
0.0
 10
4.4103427326
 20
3.4992757975
 30
0.0
 10
4.4099907443
 20
3.5013600667
 30
0.0
 10
4.409750867
 20
3.5023856502
 30
0.0
  0
SPLINE
  5
3DD
100
AcDbEntity
  8
0
100
AcDbSpline
 62
7
  6
CONTINUOUS
 70
0
 71
3
 72
9
 73
5
 74
0
 42
0.0000001
 43
0.0000001
 44
0.0000000001
 40
0.0
 40
0.0
 40
0.0
 40
0.0
 40
0.5002539376
 40
1.0
 40
1.0
 40
1.0
 40
1.0
 10
4.409750867
 20
3.5023856502
 30
0.0
 10
4.4093563357
 20
3.5040724495
 30
0.0
 10
4.4082098879
 20
3.5073671023
 30
0.0
 10
4.4065161117
 20
3.5104032747
 30
0.0
 10
4.4055761592
 20
3.5118563217
 30
0.0
  0
SPLINE
  5
3DE
100
AcDbEntity
  8
0
100
AcDbSpline
 62
7
  6
CONTINUOUS
 70
0
 71
3
 72
9
 73
5
 74
0
 42
0.0000001
 43
0.0000001
 44
0.0000000001
 40
0.0
 40
0.0
 40
0.0
 40
0.0
 40
0.2496525452
 40
1.0
 40
1.0
 40
1.0
 40
1.0
 10
4.4014679354
 20
3.4788410061
 30
0.0
 10
4.4017661353
 20
3.4790736396
 30
0.0
 10
4.4029390477
 20
3.4800326468
 30
0.0
 10
4.4040226926
 20
3.4811017599
 30
0.0
 10
4.4047693535
 20
3.481958879
 30
0.0
  0
SPLINE
  5
3DF
100
AcDbEntity
  8
0
100
AcDbSpline
 62
7
  6
CONTINUOUS
 70
0
 71
3
 72
9
 73
5
 74
0
 42
0.0000001
 43
0.0000001
 44
0.0000000001
 40
0.0
 40
0.0
 40
0.0
 40
0.0
 40
0.4999696313
 40
1.0
 40
1.0
 40
1.0
 40
1.0
 10
4.4047693535
 20
3.481958879
 30
0.0
 10
4.4055136427
 20
3.4828132756
 30
0.0
 10
4.4068724543
 20
3.4846405669
 30
0.0
 10
4.4079261897
 20
3.486657902
 30
0.0
 10
4.4083790284
 20
3.4876967518
 30
0.0
  0
LINE
  5
3E0
100
AcDbEntity
  8
0
100
AcDbLine
 62
7
  6
CONTINUOUS
 10
4.392486886
 20
3.4715358572
 11
4.4014679354
 21
3.4788410061
  0
SPLINE
  5
3E1
100
AcDbEntity
  8
0
100
AcDbSpline
 62
7
  6
CONTINUOUS
 70
0
 71
3
 72
9
 73
5
 74
0
 42
0.0000001
 43
0.0000001
 44
0.0000000001
 40
0.0
 40
0.0
 40
0.0
 40
0.0
 40
0.499968335
 40
1.0
 40
1.0
 40
1.0
 40
1.0
 10
4.3863296038
 20
3.4629927319
 30
0.0
 10
4.3868764359
 20
3.4646755415
 30
0.0
 10
4.3886947087
 20
3.4678060034
 30
0.0
 10
4.3911728268
 20
3.4703505661
 30
0.0
 10
4.392486886
 20
3.4715358572
 30
0.0
  0
SPLINE
  5
3E2
100
AcDbEntity
  8
0
100
AcDbSpline
 62
7
  6
CONTINUOUS
 70
0
 71
3
 72
9
 73
5
 74
0
 42
0.0000001
 43
0.0000001
 44
0.0000000001
 40
0.0
 40
0.0
 40
0.0
 40
0.0
 40
0.2487835032
 40
1.0
 40
1.0
 40
1.0
 40
1.0
 10
4.3867304909
 20
3.4545554709
 30
0.0
 10
4.3866099777
 20
3.454761218
 30
0.0
 10
4.3861676349
 20
3.4556126869
 30
0.0
 10
4.3858890743
 20
3.4565450723
 30
0.0
 10
4.3857640803
 20
3.4572541338
 30
0.0
  0
SPLINE
  5
3E3
100
AcDbEntity
  8
0
100
AcDbSpline
 62
7
  6
CONTINUOUS
 70
0
 71
3
 72
9
 73
5
 74
0
 42
0.0000001
 43
0.0000001
 44
0.0000000001
 40
0.0
 40
0.0
 40
0.0
 40
0.0
 40
0.5016580906
 40
1.0
 40
1.0
 40
1.0
 40
1.0
 10
4.3857640803
 20
3.4572541338
 30
0.0
 10
4.3856397169
 20
3.4579596186
 30
0.0
 10
4.3855567929
 20
3.4593990704
 30
0.0
 10
4.3857664016
 20
3.4608194448
 30
0.0
 10
4.3859216923
 20
3.4615139214
 30
0.0
  0
LINE
  5
3E4
100
AcDbEntity
  8
0
100
AcDbLine
 62
7
  6
CONTINUOUS
 10
4.3859216923
 20
3.4615139214
 11
4.3863296038
 21
3.4629927319
  0
SPLINE
  5
3E5
100
AcDbEntity
  8
0
100
AcDbSpline
 62
7
  6
CONTINUOUS
 70
0
 71
3
 72
9
 73
5
 74
0
 42
0.0000001
 43
0.0000001
 44
0.0000000001
 40
0.0
 40
0.0
 40
0.0
 40
0.0
 40
0.4999578199
 40
1.0
 40
1.0
 40
1.0
 40
1.0
 10
4.3923337566
 20
3.4500407971
 30
0.0
 10
4.3911728264
 20
3.4504180062
 30
0.0
 10
4.3889458432
 20
3.4515707656
 30
0.0
 10
4.3873475431
 20
3.4535020028
 30
0.0
 10
4.3867304909
 20
3.4545554709
 30
0.0
  0
LINE
  5
3E6
100
AcDbEntity
  8
0
100
AcDbLine
 62
7
  6
CONTINUOUS
 10
5.849633546
 20
3.3718091649
 11
5.8460804243
 21
3.3607911804
  0
SPLINE
  5
3E7
100
AcDbEntity
  8
0
100
AcDbSpline
 62
7
  6
CONTINUOUS
 70
0
 71
3
 72
11
 73
7
 74
0
 42
0.0000001
 43
0.0000001
 44
0.0000000001
 40
0.0
 40
0.0
 40
0.0
 40
0.0
 40
0.2172728981
 40
0.4527777604
 40
0.7122065347
 40
1.0
 40
1.0
 40
1.0
 40
1.0
 10
5.8501443115
 20
3.382327473
 30
0.0
 10
5.8503437962
 20
3.3815829777
 30
0.0
 10
5.8506159784
 20
3.3799907795
 30
0.0
 10
5.8506478038
 20
3.3774565313
 30
0.0
 10
5.8503237314
 20
3.3746925759
 30
0.0
 10
5.8498969207
 20
3.3727955533
 30
0.0
 10
5.8496335873
 20
3.3718091759
 30
0.0
  0
SPLINE
  5
3E8
100
AcDbEntity
  8
0
100
AcDbSpline
 62
7
  6
CONTINUOUS
 70
0
 71
3
 72
9
 73
5
 74
0
 42
0.0000001
 43
0.0000001
 44
0.0000000001
 40
0.0
 40
0.0
 40
0.0
 40
0.0
 40
0.499878429
 40
1.0
 40
1.0
 40
1.0
 40
1.0
 10
5.845212603
 20
3.3891851855
 30
0.0
 10
5.8464995125
 20
3.3885396219
 30
0.0
 10
5.8486980829
 20
3.386446273
 30
0.0
 10
5.8497714869
 20
3.3837188418
 30
0.0
 10
5.8501443063
 20
3.3823274716
 30
0.0
  0
SPLINE
  5
3E9
100
AcDbEntity
  8
0
100
AcDbSpline
 62
7
  6
CONTINUOUS
 70
0
 71
3
 72
11
 73
7
 74
0
 42
0.0000001
 43
0.0000001
 44
0.0000000001
 40
0.0
 40
0.0
 40
0.0
 40
0.0
 40
0.2539648489
 40
0.4995162131
 40
0.7453158169
 40
1.0
 40
1.0
 40
1.0
 40
1.0
 10
5.8380543588
 20
3.3899197331
 30
0.0
 10
5.8386558223
 20
3.3900808913
 30
0.0
 10
5.8398680216
 20
3.3903020495
 30
0.0
 10
5.8417062307
 20
3.3902913267
 30
0.0
 10
5.8435099725
 20
3.3899279929
 30
0.0
 10
5.844654443
 20
3.3894651868
 30
0.0
 10
5.8452125983
 20
3.3891852001
 30
0.0
  0
SPLINE
  5
3EA
100
AcDbEntity
  8
0
100
AcDbSpline
 62
7
  6
CONTINUOUS
 70
0
 71
3
 72
13
 73
9
 74
0
 42
0.0000001
 43
0.0000001
 44
0.0000000001
 40
0.0
 40
0.0
 40
0.0
 40
0.0
 40
0.2498326308
 40
0.3749318684
 40
0.5000228562
 40
0.6251116252
 40
0.7502002895
 40
1.0
 40
1.0
 40
1.0
 40
1.0
 10
4.3403112094
 20
3.5455226563
 30
0.0
 10
4.3433819386
 20
3.546885187
 30
0.0
 10
4.3481720133
 20
3.5485626279
 30
0.0
 10
4.3547730611
 20
3.5498830011
 30
0.0
 10
4.3598028014
 20
3.5503840837
 30
0.0
 10
4.3648572401
 20
3.550398701
 30
0.0
 10
4.3715580733
 20
3.5497604545
 30
0.0
 10
4.3764942417
 20
3.5485841612
 30
0.0
 10
4.3796888423
 20
3.5475461725
 30
0.0
  0
SPLINE
  5
3EB
100
AcDbEntity
  8
0
100
AcDbSpline
 62
7
  6
CONTINUOUS
 70
0
 71
3
 72
14
 73
10
 74
0
 42
0.0000001
 43
0.0000001
 44
0.0000000001
 40
0.0
 40
0.0
 40
0.0
 40
0.0
 40
0.249911315
 40
0.3748977022
 40
0.4998891768
 40
0.624896315
 40
0.7499008319
 40
0.8749739644
 40
1.0
 40
1.0
 40
1.0
 40
1.0
 10
4.3058790787
 20
3.5051852703
 30
0.0
 10
4.3078061461
 20
3.5092584725
 30
0.0
 10
4.3109313953
 20
3.5152663595
 30
0.0
 10
4.3157157561
 20
3.5229101638
 30
0.0
 10
4.3196668242
 20
3.528403928
 30
0.0
 10
4.3240377893
 20
3.5335734903
 30
0.0
 10
4.3288915308
 20
3.5383023409
 30
0.0
 10
4.3342832111
 20
3.5424158884
 30
0.0
 10
4.3382506486
 20
3.5446083532
 30
0.0
 10
4.3403112094
 20
3.5455226563
 30
0.0
  0
LINE
  5
3EC
100
AcDbEntity
  8
0
100
AcDbLine
 62
7
  6
CONTINUOUS
 10
4.2732710398
 20
3.5233013971
 11
4.2913860876
 21
3.5790438853
  0
LINE
  5
3ED
100
AcDbEntity
  8
0
100
AcDbLine
 62
7
  6
CONTINUOUS
 10
4.3183188977
 20
3.4802637645
 11
4.2993674524
 21
3.4983694945
  0
LINE
  5
3EE
100
AcDbEntity
  8
0
100
AcDbLine
 62
7
  6
CONTINUOUS
 10
4.2993674524
 20
3.4983694945
 11
4.2960622281
 21
3.5015272253
  0
LINE
  5
3EF
100
AcDbEntity
  8
0
100
AcDbLine
 62
7
  6
CONTINUOUS
 10
4.2960622281
 20
3.5015272253
 11
4.2885245564
 21
3.5087285369
  0
LINE
  5
3F0
100
AcDbEntity
  8
0
100
AcDbLine
 62
7
  6
CONTINUOUS
 10
4.2885245564
 20
3.5087285369
 11
4.2853568899
 21
3.5117548513
  0
LINE
  5
3F1
100
AcDbEntity
  8
0
100
AcDbLine
 62
7
  6
CONTINUOUS
 10
4.2853568899
 20
3.5117548513
 11
4.2732710398
 21
3.5233013971
  0
SPLINE
  5
3F2
100
AcDbEntity
  8
0
100
AcDbSpline
 62
7
  6
CONTINUOUS
 70
0
 71
3
 72
9
 73
5
 74
0
 42
0.0000001
 43
0.0000001
 44
0.0000000001
 40
0.0
 40
0.0
 40
0.0
 40
0.0
 40
0.5000423797
 40
1.0
 40
1.0
 40
1.0
 40
1.0
 10
5.9405958266
 20
3.3907584598
 30
0.0
 10
5.941147024
 20
3.3866722242
 30
0.0
 10
5.9419655658
 20
3.3784588513
 30
0.0
 10
5.9420109596
 20
3.3701920811
 30
0.0
 10
5.9417601151
 20
3.3660771749
 30
0.0
  0
LINE
  5
3F3
100
AcDbEntity
  8
0
100
AcDbLine
 62
7
  6
CONTINUOUS
 10
5.9778101241
 20
3.3933246379
 11
5.9848430728
 21
3.3670754783
  0
LINE
  5
3F4
100
AcDbEntity
  8
0
100
AcDbLine
 62
7
  6
CONTINUOUS
 10
5.9165891706
 20
3.4048840426
 11
5.9468099232
 21
3.3991779473
  0
LINE
  5
3F5
100
AcDbEntity
  8
0
100
AcDbLine
 62
7
  6
CONTINUOUS
 10
5.9468099232
 20
3.3991779473
 11
5.957056718
 21
3.3972432012
  0
LINE
  5
3F6
100
AcDbEntity
  8
0
100
AcDbLine
 62
7
  6
CONTINUOUS
 10
5.957056718
 20
3.3972432012
 11
5.9673901183
 21
3.3952920981
  0
LINE
  5
3F7
100
AcDbEntity
  8
0
100
AcDbLine
 62
7
  6
CONTINUOUS
 10
5.9673901183
 20
3.3952920981
 11
5.9778101241
 21
3.3933246379
  0
SPLINE
  5
3F8
100
AcDbEntity
  8
0
100
AcDbSpline
 62
7
  6
CONTINUOUS
 70
0
 71
3
 72
14
 73
10
 74
0
 42
0.0000001
 43
0.0000001
 44
0.0000000001
 40
0.0
 40
0.0
 40
0.0
 40
0.0
 40
0.1250458944
 40
0.2501046952
 40
0.3751416503
 40
0.500164894
 40
0.6251604016
 40
0.7501318252
 40
1.0
 40
1.0
 40
1.0
 40
1.0
 10
4.5224149538
 20
2.6737036079
 30
0.0
 10
4.5218321134
 20
2.6740884467
 30
0.0
 10
4.5205360767
 20
2.6746745032
 30
0.0
 10
4.5184451436
 20
2.6749853605
 30
0.0
 10
4.5163431812
 20
2.674875089
 30
0.0
 10
4.5142822825
 20
2.6744747914
 30
0.0
 10
4.5122736812
 20
2.6738724071
 30
0.0
 10
4.5096640344
 20
2.6728759071
 30
0.0
 10
4.5077743412
 20
2.6719654949
 30
0.0
 10
4.5065391186
 20
2.6713159156
 30
0.0
  0
SPLINE
  5
3F9
100
AcDbEntity
  8
0
100
AcDbSpline
 62
7
  6
CONTINUOUS
 70
0
 71
3
 72
13
 73
9
 74
0
 42
0.0000001
 43
0.0000001
 44
0.0000000001
 40
0.0
 40
0.0
 40
0.0
 40
0.0
 40
0.2499615863
 40
0.4998997688
 40
0.6249229236
 40
0.7498715476
 40
0.8749927999
 40
1.0
 40
1.0
 40
1.0
 40
1.0
 10
4.5321241137
 20
2.6618017251
 30
0.0
 10
4.5314764199
 20
2.6629233052
 30
0.0
 10
4.5301468003
 20
2.6651466574
 30
0.0
 10
4.5283554472
 20
2.6678473289
 30
0.0
 10
4.5267888995
 20
2.6699111378
 30
0.0
 10
4.5255181647
 20
2.6713853141
 30
0.0
 10
4.5241097142
 20
2.6727264766
 30
0.0
 10
4.5230125028
 20
2.6734536582
 30
0.0
 10
4.5224149538
 20
2.6737036079
 30
0.0
  0
LINE
  5
3FA
100
AcDbEntity
  8
0
100
AcDbLine
 62
7
  6
CONTINUOUS
 10
4.5071757611
 20
2.6985832264
 11
4.5072790023
 21
2.6998659811
  0
SPLINE
  5
3FB
100
AcDbEntity
  8
0
100
AcDbSpline
 62
7
  6
CONTINUOUS
 70
0
 71
3
 72
14
 73
10
 74
0
 42
0.0000001
 43
0.0000001
 44
0.0000000001
 40
0.0
 40
0.0
 40
0.0
 40
0.0
 40
0.0628745556
 40
0.1253903932
 40
0.250259742
 40
0.3752555752
 40
0.5002037876
 40
0.7500970422
 40
1.0
 40
1.0
 40
1.0
 40
1.0
 10
4.5072790023
 20
2.6998659811
 30
0.0
 10
4.5072688751
 20
2.7001939692
 30
0.0
 10
4.5072062612
 20
2.7008468535
 30
0.0
 10
4.5069762359
 20
2.7021333657
 30
0.0
 10
4.5065430144
 20
2.703708076
 30
0.0
 10
4.5058970139
 20
2.7055551886
 30
0.0
 10
4.5049197367
 20
2.7079747036
 30
0.0
 10
4.5035485814
 20
2.7109347733
 30
0.0
 10
4.5023576325
 20
2.7132559505
 30
0.0
 10
4.5017461538
 20
2.714407978
 30
0.0
  0
SPLINE
  5
3FC
100
AcDbEntity
  8
0
100
AcDbSpline
 62
7
  6
CONTINUOUS
 70
0
 71
3
 72
12
 73
8
 74
0
 42
0.0000001
 43
0.0000001
 44
0.0000000001
 40
0.0
 40
0.0
 40
0.0
 40
0.0
 40
0.249819165
 40
0.3748252359
 40
0.4998624819
 40
0.7501146271
 40
1.0
 40
1.0
 40
1.0
 40
1.0
 10
4.4971962046
 20
2.6874953698
 30
0.0
 10
4.4982995731
 20
2.6881323999
 30
0.0
 10
4.4999113428
 20
2.6891703432
 30
0.0
 10
4.5019119328
 20
2.6907531748
 30
0.0
 10
4.5037927149
 20
2.6924809635
 30
0.0
 10
4.5058328814
 20
2.6949575119
 30
0.0
 10
4.5069050415
 20
2.6973379147
 30
0.0
 10
4.5071757611
 20
2.6985832264
 30
0.0
  0
LINE
  5
3FD
100
AcDbEntity
  8
0
100
AcDbLine
 62
7
  6
CONTINUOUS
 10
4.4259713317
 20
2.5995281681
 11
4.4192730785
 21
2.6037340784
  0
LINE
  5
3FE
100
AcDbEntity
  8
0
100
AcDbLine
 62
7
  6
CONTINUOUS
 10
4.4192730785
 20
2.6037340784
 11
4.4130091422
 21
2.6076673045
  0
LINE
  5
3FF
100
AcDbEntity
  8
0
100
AcDbLine
 62
7
  6
CONTINUOUS
 10
4.4130091422
 20
2.6076673045
 11
4.3871042
 21
2.6239337212
  0
SPLINE
  5
400
100
AcDbEntity
  8
0
100
AcDbSpline
 62
7
  6
CONTINUOUS
 70
0
 71
3
 72
11
 73
7
 74
0
 42
0.0000001
 43
0.0000001
 44
0.0000000001
 40
0.0
 40
0.0
 40
0.0
 40
0.0
 40
0.2454638173
 40
0.4870763551
 40
0.735241856
 40
1.0
 40
1.0
 40
1.0
 40
1.0
 10
4.334724594
 20
2.7370636504
 30
0.0
 10
4.3353927749
 20
2.7395586967
 30
0.0
 10
4.3371875474
 20
2.744402615
 30
0.0
 10
4.3413583278
 20
2.7509859559
 30
0.0
 10
4.3469518874
 20
2.7566962207
 30
0.0
 10
4.3514262799
 20
2.7597743581
 30
0.0
 10
4.3538390161
 20
2.7611673726
 30
0.0
  0
SPLINE
  5
401
100
AcDbEntity
  8
0
100
AcDbSpline
 62
7
  6
CONTINUOUS
 70
0
 71
3
 72
9
 73
5
 74
0
 42
0.0000001
 43
0.0000001
 44
0.0000000001
 40
0.0
 40
0.0
 40
0.0
 40
0.0
 40
0.4999898865
 40
1.0
 40
1.0
 40
1.0
 40
1.0
 10
4.3386846318
 20
2.7077913098
 30
0.0
 10
4.3361711763
 20
2.7121446083
 30
0.0
 10
4.3325709126
 20
2.7218613362
 30
0.0
 10
4.3334240741
 20
2.7322077702
 30
0.0
 10
4.3347245794
 20
2.7370636323
 30
0.0
  0
SPLINE
  5
402
100
AcDbEntity
  8
0
100
AcDbSpline
 62
7
  6
CONTINUOUS
 70
0
 71
3
 72
12
 73
8
 74
0
 42
0.0000001
 43
0.0000001
 44
0.0000000001
 40
0.0
 40
0.0
 40
0.0
 40
0.0
 40
0.2500617845
 40
0.3751922382
 40
0.5003380131
 40
0.750516527
 40
1.0
 40
1.0
 40
1.0
 40
1.0
 10
4.3582739459
 20
2.6893661809
 30
0.0
 10
4.3562344229
 20
2.6903714791
 30
0.0
 10
4.3532723601
 20
2.6920954808
 30
0.0
 10
4.3496198888
 20
2.6948140579
 30
0.0
 10
4.3461937279
 20
2.6978158819
 30
0.0
 10
4.3423661738
 20
2.7020440594
 30
0.0
 10
4.3398189411
 20
2.7058266891
 30
0.0
 10
4.3386846318
 20
2.7077913098
 30
0.0
  0
SPLINE
  5
403
100
AcDbEntity
  8
0
100
AcDbSpline
 62
7
  6
CONTINUOUS
 70
0
 71
3
 72
9
 73
5
 74
0
 42
0.0000001
 43
0.0000001
 44
0.0000000001
 40
0.0
 40
0.0
 40
0.0
 40
0.0
 40
0.7497907891
 40
1.0
 40
1.0
 40
1.0
 40
1.0
 10
4.3996958828
 20
2.6872948532
 30
0.0
 10
4.3966458471
 20
2.6863794346
 30
0.0
 10
4.3925010088
 20
2.685383273
 30
0.0
 10
4.3882950569
 20
2.6847844782
 30
0.0
 10
4.3872395308
 20
2.6846614875
 30
0.0
  0
SPLINE
  5
404
100
AcDbEntity
  8
0
100
AcDbSpline
 62
7
  6
CONTINUOUS
 70
0
 71
3
 72
9
 73
5
 74
0
 42
0.0000001
 43
0.0000001
 44
0.0000000001
 40
0.0
 40
0.0
 40
0.0
 40
0.0
 40
0.4997912432
 40
1.0
 40
1.0
 40
1.0
 40
1.0
 10
4.3830908694
 20
2.6843208968
 30
0.0
 10
4.3804148437
 20
2.6841952121
 30
0.0
 10
4.3750335813
 20
2.6843150927
 30
0.0
 10
4.3697357595
 20
2.6852966741
 30
0.0
 10
4.3671484495
 20
2.6860000466
 30
0.0
  0
LINE
  5
405
100
AcDbEntity
  8
0
100
AcDbLine
 62
7
  6
CONTINUOUS
 10
5.7633160589
 20
2.8111442396
 11
5.8438562862
 21
2.7024863128
  0
SPLINE
  5
406
100
AcDbEntity
  8
0
100
AcDbSpline
 62
7
  6
CONTINUOUS
 70
0
 71
3
 72
9
 73
5
 74
0
 42
0.0000001
 43
0.0000001
 44
0.0000000001
 40
0.0
 40
0.0
 40
0.0
 40
0.0
 40
0.4934259694
 40
1.0
 40
1.0
 40
1.0
 40
1.0
 10
4.386801569
 20
2.7522990237
 30
0.0
 10
4.3841101529
 20
2.751696977
 30
0.0
 10
4.3787432877
 20
2.7500487197
 30
0.0
 10
4.3736909047
 20
2.7476035
 30
0.0
 10
4.3712388163
 20
2.7461878022
 30
0.0
  0
SPLINE
  5
407
100
AcDbEntity
  8
0
100
AcDbSpline
 62
7
  6
CONTINUOUS
 70
0
 71
3
 72
9
 73
5
 74
0
 42
0.0000001
 43
0.0000001
 44
0.0000000001
 40
0.0
 40
0.0
 40
0.0
 40
0.0
 40
0.4864083843
 40
1.0
 40
1.0
 40
1.0
 40
1.0
 10
4.4025294068
 20
2.7539064572
 30
0.0
 10
4.3999623338
 20
2.7539922587
 30
0.0
 10
4.3946669721
 20
2.7537777125
 30
0.0
 10
4.3894482366
 20
2.7528910717
 30
0.0
 10
4.3868015957
 20
2.7522990391
 30
0.0
  0
SPLINE
  5
408
100
AcDbEntity
  8
0
100
AcDbSpline
 62
7
  6
CONTINUOUS
 70
0
 71
3
 72
9
 73
5
 74
0
 42
0.0000001
 43
0.0000001
 44
0.0000000001
 40
0.0
 40
0.0
 40
0.0
 40
0.0
 40
0.2524030866
 40
1.0
 40
1.0
 40
1.0
 40
1.0
 10
4.4275901531
 20
2.7514778606
 30
0.0
 10
4.4254965647
 20
2.7518053783
 30
0.0
 10
4.4171849666
 20
2.7529895147
 30
0.0
 10
4.4088024598
 20
2.7536968544
 30
0.0
 10
4.4025295082
 20
2.7539065158
 30
0.0
  0
LINE
  5
409
100
AcDbEntity
  8
0
100
AcDbLine
 62
7
  6
CONTINUOUS
 10
4.4626280941
 20
2.7445860222
 11
4.4580582881
 21
2.7455359463
  0
SPLINE
  5
40A
100
AcDbEntity
  8
0
100
AcDbSpline
 62
7
  6
CONTINUOUS
 70
0
 71
3
 72
9
 73
5
 74
0
 42
0.0000001
 43
0.0000001
 44
0.0000000001
 40
0.0
 40
0.0
 40
0.0
 40
0.0
 40
0.5490455043
 40
1.0
 40
1.0
 40
1.0
 40
1.0
 10
4.4466002173
 20
2.747904485
 30
0.0
 10
4.4431315433
 20
2.7486125863
 30
0.0
 10
4.4368097696
 20
2.7498814482
 30
0.0
 10
4.4304633002
 20
2.7510286536
 30
0.0
 10
4.4275905128
 20
2.7514780683
 30
0.0
  0
LINE
  5
40B
100
AcDbEntity
  8
0
100
AcDbLine
 62
7
  6
CONTINUOUS
 10
4.4897966181
 20
2.7389447065
 11
4.4762846472
 21
2.7417504525
  0
LINE
  5
40C
100
AcDbEntity
  8
0
100
AcDbLine
 62
7
  6
CONTINUOUS
 10
4.4762846472
 20
2.7417504525
 11
4.4626284477
 21
2.7445861907
  0
LINE
  5
40D
100
AcDbEntity
  8
0
100
AcDbLine
 62
7
  6
CONTINUOUS
 10
5.8956254284
 20
2.7427419383
 11
5.8596818732
 21
2.691405527
  0
LINE
  5
40E
100
AcDbEntity
  8
0
100
AcDbLine
 62
7
  6
CONTINUOUS
 10
5.8596818732
 20
2.691405527
 11
5.847802109
 21
2.6744390401
  0
LINE
  5
40F
100
AcDbEntity
  8
0
100
AcDbLine
 62
7
  6
CONTINUOUS
 10
5.8745749668
 20
2.7739034373
 11
5.8780374734
 21
2.7687778137
  0
LINE
  5
410
100
AcDbEntity
  8
0
100
AcDbLine
 62
7
  6
CONTINUOUS
 10
5.8780374734
 20
2.7687778137
 11
5.8815183415
 21
2.7636250062
  0
LINE
  5
411
100
AcDbEntity
  8
0
100
AcDbLine
 62
7
  6
CONTINUOUS
 10
5.8815183415
 20
2.7636250062
 11
5.8841355674
 21
2.7597506658
  0
LINE
  5
412
100
AcDbEntity
  8
0
100
AcDbLine
 62
7
  6
CONTINUOUS
 10
5.8841355674
 20
2.7597506658
 11
5.8956254284
 21
2.7427419383
  0
LINE
  5
413
100
AcDbEntity
  8
0
100
AcDbLine
 62
7
  6
CONTINUOUS
 10
4.417424929
 20
2.8060150487
 11
4.4167830555
 21
2.8103290027
  0
SPLINE
  5
414
100
AcDbEntity
  8
0
100
AcDbSpline
 62
7
  6
CONTINUOUS
 70
0
 71
3
 72
14
 73
10
 74
0
 42
0.0000001
 43
0.0000001
 44
0.0000000001
 40
0.0
 40
0.0
 40
0.0
 40
0.0
 40
0.1249906339
 40
0.1877993806
 40
0.2503739569
 40
0.3752803629
 40
0.5002430684
 40
0.7501261643
 40
1.0
 40
1.0
 40
1.0
 40
1.0
 10
4.4334113594
 20
2.8018075017
 30
0.0
 10
4.4328847658
 20
2.8022649226
 30
0.0
 10
4.4319901686
 20
2.8028346268
 30
0.0
 10
4.4307255546
 20
2.8034277421
 30
0.0
 10
4.4294254984
 20
2.8039414955
 30
0.0
 10
4.427755767
 20
2.8044515718
 30
0.0
 10
4.4250391057
 20
2.805087691
 30
0.0
 10
4.421591202
 20
2.8056304488
 30
0.0
 10
4.4188150427
 20
2.8059052746
 30
0.0
 10
4.417424929
 20
2.8060150487
 30
0.0
  0
SPLINE
  5
415
100
AcDbEntity
  8
0
100
AcDbSpline
 62
7
  6
CONTINUOUS
 70
0
 71
3
 72
12
 73
8
 74
0
 42
0.0000001
 43
0.0000001
 44
0.0000000001
 40
0.0
 40
0.0
 40
0.0
 40
0.0
 40
0.3260459828
 40
0.6006041659
 40
0.8246262964
 40
0.9182309403
 40
1.0
 40
1.0
 40
1.0
 40
1.0
 10
4.4428049719
 20
2.7887393098
 30
0.0
 10
4.4419273698
 20
2.7902593613
 30
0.0
 10
4.4402662455
 20
2.7930345991
 30
0.0
 10
4.4378091425
 20
2.7967336258
 30
0.0
 10
4.4358702916
 20
2.799270219
 30
0.0
 10
4.4344258283
 20
2.8008643303
 30
0.0
 10
4.4337436651
 20
2.8015188279
 30
0.0
 10
4.4334113447
 20
2.8018074943
 30
0.0
  0
LINE
  5
416
100
AcDbEntity
  8
0
100
AcDbLine
 62
7
  6
CONTINUOUS
 10
4.4639977953
 20
2.7520337735
 11
4.4428049815
 21
2.7887393151
  0
SPLINE
  5
417
100
AcDbEntity
  8
0
100
AcDbSpline
 62
7
  6
CONTINUOUS
 70
0
 71
3
 72
9
 73
5
 74
0
 42
0.0000001
 43
0.0000001
 44
0.0000000001
 40
0.0
 40
0.0
 40
0.0
 40
0.0
 40
0.4999983979
 40
1.0
 40
1.0
 40
1.0
 40
1.0
 10
5.6973747755
 20
2.6851488725
 30
0.0
 10
5.6985969922
 20
2.6808578438
 30
0.0
 10
5.7026483719
 20
2.6726363678
 30
0.0
 10
5.7093412055
 20
2.6664733202
 30
0.0
 10
5.7129960372
 20
2.6639141795
 30
0.0
  0
SPLINE
  5
418
100
AcDbEntity
  8
0
100
AcDbSpline
 62
7
  6
CONTINUOUS
 70
0
 71
3
 72
10
 73
6
 74
0
 42
0.0000001
 43
0.0000001
 44
0.0000000001
 40
0.0
 40
0.0
 40
0.0
 40
0.0
 40
0.4995567274
 40
0.7499302562
 40
1.0
 40
1.0
 40
1.0
 40
1.0
 10
5.7003104424
 20
2.7072042175
 30
0.0
 10
5.6993468864
 20
2.7058282014
 30
0.0
 10
5.6981096918
 20
2.7036018606
 30
0.0
 10
5.6969772337
 20
2.7004303211
 30
0.0
 10
5.6965981953
 20
2.6987860147
 30
0.0
 10
5.6964539519
 20
2.697957579
 30
0.0
  0
SPLINE
  5
419
100
AcDbEntity
  8
0
100
AcDbSpline
 62
7
  6
CONTINUOUS
 70
0
 71
3
 72
9
 73
5
 74
0
 42
0.0000001
 43
0.0000001
 44
0.0000000001
 40
0.0
 40
0.0
 40
0.0
 40
0.0
 40
0.5001726044
 40
1.0
 40
1.0
 40
1.0
 40
1.0
 10
5.6964539519
 20
2.697957579
 30
0.0
 10
5.6960843243
 20
2.6958346905
 30
0.0
 10
5.6959378698
 20
2.6914729838
 30
0.0
 10
5.6967848995
 20
2.687219843
 30
0.0
 10
5.6973747755
 20
2.6851488725
 30
0.0
  0
SPLINE
  5
41A
100
AcDbEntity
  8
0
100
AcDbSpline
 62
7
  6
CONTINUOUS
 70
0
 71
3
 72
9
 73
5
 74
0
 42
0.0000001
 43
0.0000001
 44
0.0000000001
 40
0.0
 40
0.0
 40
0.0
 40
0.0
 40
0.4999567889
 40
1.0
 40
1.0
 40
1.0
 40
1.0
 10
5.7109555487
 20
2.7155209426
 30
0.0
 10
5.7088285214
 20
2.7147061745
 30
0.0
 10
5.7047642306
 20
2.7124745297
 30
0.0
 10
5.701617179
 20
2.7090703164
 30
0.0
 10
5.7003104424
 20
2.7072042175
 30
0.0
  0
SPLINE
  5
41B
100
AcDbEntity
  8
0
100
AcDbSpline
 62
7
  6
CONTINUOUS
 70
0
 71
3
 72
11
 73
7
 74
0
 42
0.0000001
 43
0.0000001
 44
0.0000000001
 40
0.0
 40
0.0
 40
0.0
 40
0.0
 40
0.2497255536
 40
0.5002791967
 40
0.7502859063
 40
1.0
 40
1.0
 40
1.0
 40
1.0
 10
4.2845493435
 20
2.8445191285
 30
0.0
 10
4.2867545227
 20
2.8486016764
 30
0.0
 10
4.2919531795
 20
2.8563753499
 30
0.0
 10
4.3014864889
 20
2.8666130983
 30
0.0
 10
4.312341837
 20
2.875419199
 30
0.0
 10
4.3201836476
 20
2.8804237911
 30
0.0
 10
4.3242018595
 20
2.8827437069
 30
0.0
  0
SPLINE
  5
41C
100
AcDbEntity
  8
0
100
AcDbSpline
 62
7
  6
CONTINUOUS
 70
0
 71
3
 72
11
 73
7
 74
0
 42
0.0000001
 43
0.0000001
 44
0.0000000001
 40
0.0
 40
0.0
 40
0.0
 40
0.0
 40
0.2496342264
 40
0.4999848378
 40
0.750069663
 40
1.0
 40
1.0
 40
1.0
 40
1.0
 10
4.2839708943
 20
2.8025617555
 30
0.0
 10
4.2831603438
 20
2.8039658141
 30
0.0
 10
4.2816831823
 20
2.806865771
 30
0.0
 10
4.2799682308
 20
2.8114366306
 30
0.0
 10
4.2788267126
 20
2.8161883067
 30
0.0
 10
4.2785062698
 20
2.8194314244
 30
0.0
 10
4.2784504996
 20
2.8210536147
 30
0.0
  0
SPLINE
  5
41D
100
AcDbEntity
  8
0
100
AcDbSpline
 62
7
  6
CONTINUOUS
 70
0
 71
3
 72
11
 73
7
 74
0
 42
0.0000001
 43
0.0000001
 44
0.0000000001
 40
0.0
 40
0.0
 40
0.0
 40
0.0
 40
0.2503636823
 40
0.500521606
 40
0.7504098646
 40
1.0
 40
1.0
 40
1.0
 40
1.0
 10
4.2784504996
 20
2.8210536147
 30
0.0
 10
4.2783801891
 20
2.8230987409
 30
0.0
 10
4.2785687813
 20
2.8272052944
 30
0.0
 10
4.2797784633
 20
2.8332395906
 30
0.0
 10
4.2818047531
 20
2.8390390331
 30
0.0
 10
4.2835798287
 20
2.8427242219
 30
0.0
 10
4.2845493435
 20
2.8445191285
 30
0.0
  0
SPLINE
  5
41E
100
AcDbEntity
  8
0
100
AcDbSpline
 62
7
  6
CONTINUOUS
 70
0
 71
3
 72
11
 73
7
 74
0
 42
0.0000001
 43
0.0000001
 44
0.0000000001
 40
0.0
 40
0.0
 40
0.0
 40
0.0
 40
0.249867484
 40
0.4998897899
 40
0.7498709177
 40
1.0
 40
1.0
 40
1.0
 40
1.0
 10
4.3228430926
 20
2.7819810402
 30
0.0
 10
4.3207661469
 20
2.7819348651
 30
0.0
 10
4.3166027126
 20
2.7820358209
 30
0.0
 10
4.3104120294
 20
2.7828987495
 30
0.0
 10
4.3043875563
 20
2.7845944544
 30
0.0
 10
4.3005942595
 20
2.7863517095
 30
0.0
 10
4.2987870148
 20
2.7873806622
 30
0.0
  0
SPLINE
  5
41F
100
AcDbEntity
  8
0
100
AcDbSpline
 62
7
  6
CONTINUOUS
 70
0
 71
3
 72
9
 73
5
 74
0
 42
0.0000001
 43
0.0000001
 44
0.0000000001
 40
0.0
 40
0.0
 40
0.0
 40
0.0
 40
0.5000003139
 40
1.0
 40
1.0
 40
1.0
 40
1.0
 10
4.296187678
 20
2.7890079916
 30
0.0
 10
4.2936646185
 20
2.790740213
 30
0.0
 10
4.2890469051
 20
2.7948659739
 30
0.0
 10
4.285501005
 20
2.799911254
 30
0.0
 10
4.2839708943
 20
2.8025617555
 30
0.0
  0
SPLINE
  5
420
100
AcDbEntity
  8
0
100
AcDbSpline
 62
7
  6
CONTINUOUS
 70
0
 71
3
 72
11
 73
7
 74
0
 42
0.0000001
 43
0.0000001
 44
0.0000000001
 40
0.0
 40
0.0
 40
0.0
 40
0.0
 40
0.2498089075
 40
0.499880021
 40
0.7501985905
 40
1.0
 40
1.0
 40
1.0
 40
1.0
 10
4.3760212391
 20
2.7978901536
 30
0.0
 10
4.371978065
 20
2.7955558259
 30
0.0
 10
4.3636585555
 20
2.7912649709
 30
0.0
 10
4.3505279892
 20
2.7862522624
 30
0.0
 10
4.3368511896
 20
2.7829890611
 30
0.0
 10
4.3275104544
 20
2.7820848059
 30
0.0
 10
4.3228430926
 20
2.7819810402
 30
0.0
  0
LINE
  5
421
100
AcDbEntity
  8
0
100
AcDbLine
 62
7
  6
CONTINUOUS
 10
5.7216797891
 20
2.7198812605
 11
5.710955627
 21
2.7155208878
  0
SPLINE
  5
422
100
AcDbEntity
  8
0
100
AcDbSpline
 62
7
  6
CONTINUOUS
 70
0
 71
3
 72
9
 73
5
 74
0
 42
0.0000001
 43
0.0000001
 44
0.0000000001
 40
0.0
 40
0.0
 40
0.0
 40
0.0
 40
0.4999694424
 40
1.0
 40
1.0
 40
1.0
 40
1.0
 10
5.730065709
 20
2.7262509458
 30
0.0
 10
5.7290507978
 20
2.7248015276
 30
0.0
 10
5.7263967674
 20
2.7223394297
 30
0.0
 10
5.7232830154
 20
2.7206305433
 30
0.0
 10
5.7216798524
 20
2.7198812158
 30
0.0
  0
LINE
  5
423
100
AcDbEntity
  8
0
100
AcDbLine
 62
7
  6
CONTINUOUS
 10
5.7321490497
 20
2.7344368566
 11
5.7323444662
 21
2.7329925431
  0
SPLINE
  5
424
100
AcDbEntity
  8
0
100
AcDbSpline
 62
7
  6
CONTINUOUS
 70
0
 71
3
 72
10
 73
6
 74
0
 42
0.0000001
 43
0.0000001
 44
0.0000000001
 40
0.0
 40
0.0
 40
0.0
 40
0.0
 40
0.2513881884
 40
0.5024275904
 40
1.0
 40
1.0
 40
1.0
 40
1.0
 10
5.7323444662
 20
2.7329925431
 30
0.0
 10
5.7323691246
 20
2.7323870832
 30
0.0
 10
5.73228494
 20
2.7311685082
 30
0.0
 10
5.7316581427
 20
2.7288288913
 30
0.0
 10
5.7307536531
 20
2.7272334146
 30
0.0
 10
5.730065709
 20
2.7262509458
 30
0.0
  0
LINE
  5
425
100
AcDbEntity
  8
0
100
AcDbLine
 62
7
  6
CONTINUOUS
 10
4.4017005148
 20
3.4787657464
 11
4.3927196319
 21
3.4714603324
  0
SPLINE
  5
426
100
AcDbEntity
  8
0
100
AcDbSpline
 62
7
  6
CONTINUOUS
 70
0
 71
3
 72
11
 73
7
 74
0
 42
0.0000001
 43
0.0000001
 44
0.0000000001
 40
0.0
 40
0.0
 40
0.0
 40
0.0
 40
0.2877939463
 40
0.5472227873
 40
0.7827274372
 40
1.0
 40
1.0
 40
1.0
 40
1.0
 10
4.3927196319
 20
3.4714603324
 30
0.0
 10
4.3919615539
 20
3.4707765032
 30
0.0
 10
4.3905703932
 20
3.469417974
 30
0.0
 10
4.3887932287
 20
3.467276412
 30
0.0
 10
4.3874396602
 20
3.4651336632
 30
0.0
 10
4.3868007565
 20
3.4636500811
 30
0.0
 10
4.3865625778
 20
3.4629170423
 30
0.0
  0
SPLINE
  5
427
100
AcDbEntity
  8
0
100
AcDbSpline
 62
7
  6
CONTINUOUS
 70
0
 71
3
 72
11
 73
7
 74
0
 42
0.0000001
 43
0.0000001
 44
0.0000000001
 40
0.0
 40
0.0
 40
0.0
 40
0.0
 40
0.2501087843
 40
0.4972730997
 40
0.7442914491
 40
1.0
 40
1.0
 40
1.0
 40
1.0
 10
4.3796887021
 20
3.5475457353
 30
0.0
 10
4.3765068164
 20
3.5485660809
 30
0.0
 10
4.3700017791
 20
3.5500940083
 30
0.0
 10
4.360010023
 20
3.5505530665
 30
0.0
 10
4.3500433169
 20
3.5490615669
 30
0.0
 10
4.3436641643
 20
3.5468335291
 30
0.0
 10
4.3405419133
 20
3.5454480252
 30
0.0
  0
SPLINE
  5
428
100
AcDbEntity
  8
0
100
AcDbSpline
 62
7
  6
CONTINUOUS
 70
0
 71
3
 72
15
 73
11
 74
0
 42
0.0000001
 43
0.0000001
 44
0.0000000001
 40
0.0
 40
0.0
 40
0.0
 40
0.0
 40
0.0993513598
 40
0.203695277
 40
0.3144602651
 40
0.4328500972
 40
0.5598589394
 40
0.6962992572
 40
0.8428328871
 40
1.0
 40
1.0
 40
1.0
 40
1.0
 10
4.3405419133
 20
3.5454480252
 30
0.0
 10
4.3389043196
 20
3.5447213404
 30
0.0
 10
4.3356465174
 20
3.5429978652
 30
0.0
 10
4.3309931219
 20
3.5397355844
 30
0.0
 10
4.3264760507
 20
3.5357482181
 30
0.0
 10
4.3220966731
 20
3.5310379078
 30
0.0
 10
4.3178546496
 20
3.5256047695
 30
0.0
 10
4.3137505153
 20
3.5194481576
 30
0.0
 10
4.3097852919
 20
3.512567189
 30
0.0
 10
4.3073236596
 20
3.5076716501
 30
0.0
 10
4.3061116821
 20
3.5051096929
 30
0.0
  0
SPLINE
  5
429
100
AcDbEntity
  8
0
100
AcDbSpline
 62
7
  6
CONTINUOUS
 70
0
 71
3
 72
11
 73
7
 74
0
 42
0.0000001
 43
0.0000001
 44
0.0000000001
 40
0.0
 40
0.0
 40
0.0
 40
0.0
 40
0.2539648494
 40
0.4995162134
 40
0.7453158169
 40
1.0
 40
1.0
 40
1.0
 40
1.0
 10
5.728110531
 20
2.7403925368
 30
0.0
 10
5.7286205987
 20
2.7400353795
 30
0.0
 10
5.7295692024
 20
2.7392489387
 30
0.0
 10
5.7307425663
 20
2.7378338964
 30
0.0
 10
5.7316236594
 20
2.7362186034
 30
0.0
 10
5.7320047808
 20
2.7350444021
 30
0.0
 10
5.7321490738
 20
2.7344368584
 30
0.0
  0
SPLINE
  5
42A
100
AcDbEntity
  8
0
100
AcDbSpline
 62
7
  6
CONTINUOUS
 70
0
 71
3
 72
13
 73
9
 74
0
 42
0.0000001
 43
0.0000001
 44
0.0000000001
 40
0.0
 40
0.0
 40
0.0
 40
0.0
 40
0.24983201
 40
0.374931015
 40
0.500021848
 40
0.6251105717
 40
0.7501993845
 40
1.0
 40
1.0
 40
1.0
 40
1.0
 10
5.7499446784
 20
2.6338720397
 30
0.0
 10
5.7466098121
 20
2.6334668137
 30
0.0
 10
5.7415386748
 20
2.6332631346
 30
0.0
 10
5.7348401148
 20
2.6339303988
 30
0.0
 10
5.7298837111
 20
2.6349217429
 30
0.0
 10
5.7250459105
 20
2.6363855168
 30
0.0
 10
5.7188245415
 20
2.6389549905
 30
0.0
 10
5.714448018
 20
2.6415230619
 30
0.0
 10
5.7116965077
 20
2.6434496901
 30
0.0
  0
SPLINE
  5
42B
100
AcDbEntity
  8
0
100
AcDbSpline
 62
7
  6
CONTINUOUS
 70
0
 71
3
 72
14
 73
10
 74
0
 42
0.0000001
 43
0.0000001
 44
0.0000000001
 40
0.0
 40
0.0
 40
0.0
 40
0.0
 40
0.2499120731
 40
0.3748986951
 40
0.4998902806
 40
0.6248973807
 40
0.7499017166
 40
0.8749744604
 40
1.0
 40
1.0
 40
1.0
 40
1.0
 10
5.7946652283
 20
2.662380471
 30
0.0
 10
5.7916315353
 20
2.6590486106
 30
0.0
 10
5.7868863955
 20
2.6542168865
 30
0.0
 10
5.7800763611
 20
2.6483057748
 30
0.0
 10
5.7746917918
 20
2.6442071592
 30
0.0
 10
5.7690004539
 20
2.6405413533
 30
0.0
 10
5.7629762847
 20
2.6374381535
 30
0.0
 10
5.7566175646
 20
2.6350806733
 30
0.0
 10
5.7521825018
 20
2.6341439619
 30
0.0
 10
5.7499446784
 20
2.6338720397
 30
0.0
  0
SPLINE
  5
42C
100
AcDbEntity
  8
0
100
AcDbSpline
 62
7
  6
CONTINUOUS
 70
0
 71
3
 72
11
 73
7
 74
0
 42
0.0000001
 43
0.0000001
 44
0.0000000001
 40
0.0
 40
0.0
 40
0.0
 40
0.0
 40
0.2499929441
 40
0.5000087468
 40
0.7500205491
 40
1.0
 40
1.0
 40
1.0
 40
1.0
 10
5.7001768582
 20
2.7072978433
 30
0.0
 10
5.7008319248
 20
2.7082333753
 30
0.0
 10
5.7022694357
 20
2.7100201572
 30
0.0
 10
5.7048042035
 20
2.7123459119
 30
0.0
 10
5.7076733227
 20
2.7142438639
 30
0.0
 10
5.7097549889
 20
2.7152060626
 30
0.0
 10
5.7108214316
 20
2.7156145862
 30
0.0
  0
LINE
  5
42D
100
AcDbEntity
  8
0
100
AcDbLine
 62
7
  6
CONTINUOUS
 10
5.7108214316
 20
2.7156145862
 11
5.7215457971
 21
2.7199750332
  0
SPLINE
  5
42E
100
AcDbEntity
  8
0
100
AcDbSpline
 62
7
  6
CONTINUOUS
 70
0
 71
3
 72
11
 73
7
 74
0
 42
0.0000001
 43
0.0000001
 44
0.0000000001
 40
0.0
 40
0.0
 40
0.0
 40
0.0
 40
0.2877937317
 40
0.5472225502
 40
0.7827272947
 40
1.0
 40
1.0
 40
1.0
 40
1.0
 10
5.7215457971
 20
2.7199750332
 30
0.0
 10
5.7224706815
 20
2.7204073418
 30
0.0
 10
5.724198248
 20
2.7212997737
 30
0.0
 10
5.7265238883
 20
2.7228281667
 30
0.0
 10
5.7284447903
 20
2.7244815421
 30
0.0
 10
5.7294895341
 20
2.7257135012
 30
0.0
 10
5.7299316254
 20
2.7263448729
 30
0.0
  0
SPLINE
  5
42F
100
AcDbEntity
  8
0
100
AcDbSpline
 62
7
  6
CONTINUOUS
 70
0
 71
3
 72
12
 73
8
 74
0
 42
0.0000001
 43
0.0000001
 44
0.0000000001
 40
0.0
 40
0.0
 40
0.0
 40
0.0
 40
0.2499996537
 40
0.3750112033
 40
0.5000276955
 40
0.7500379009
 40
1.0
 40
1.0
 40
1.0
 40
1.0
 10
4.3353604006
 20
2.8641607327
 30
0.0
 10
4.3391159231
 20
2.8663289847
 30
0.0
 10
4.3448084799
 20
2.8694824448
 30
0.0
 10
4.3525481779
 20
2.8733991862
 30
0.0
 10
4.3603952468
 20
2.8770981493
 30
0.0
 10
4.3704367947
 20
2.8812039712
 30
0.0
 10
4.3788005952
 20
2.8836401139
 30
0.0
 10
4.3830608182
 20
2.8844464117
 30
0.0
  0
SPLINE
  5
430
100
AcDbEntity
  8
0
100
AcDbSpline
 62
7
  6
CONTINUOUS
 70
0
 71
3
 72
11
 73
7
 74
0
 42
0.0000001
 43
0.0000001
 44
0.0000000001
 40
0.0
 40
0.0
 40
0.0
 40
0.0
 40
0.2545979562
 40
0.5002825748
 40
0.745822157
 40
1.0
 40
1.0
 40
1.0
 40
1.0
 10
5.7115641194
 20
2.6435423819
 30
0.0
 10
5.7143668515
 20
2.6415798877
 30
0.0
 10
5.7202044817
 20
2.6381623998
 30
0.0
 10
5.7297016631
 20
2.6347749029
 30
0.0
 10
5.7396689479
 20
2.6332872489
 30
0.0
 10
5.7464207804
 20
2.633552849
 30
0.0
 10
5.7498116883
 20
2.6339649554
 30
0.0
  0
SPLINE
  5
431
100
AcDbEntity
  8
0
100
AcDbSpline
 62
7
  6
CONTINUOUS
 70
0
 71
3
 72
15
 73
11
 74
0
 42
0.0000001
 43
0.0000001
 44
0.0000000001
 40
0.0
 40
0.0
 40
0.0
 40
0.0
 40
0.0993513041
 40
0.2036952031
 40
0.3144602019
 40
0.4328500624
 40
0.5598589382
 40
0.6962992815
 40
0.842832916
 40
1.0
 40
1.0
 40
1.0
 40
1.0
 10
5.7498116883
 20
2.6339649554
 30
0.0
 10
5.7515901879
 20
2.6341811014
 30
0.0
 10
5.7552095334
 20
2.6348767801
 30
0.0
 10
5.7606133941
 20
2.6366359949
 30
0.0
 10
5.766098883
 20
2.6391284703
 30
0.0
 10
5.7716640639
 20
2.6423525583
 30
0.0
 10
5.7773092273
 20
2.6463080481
 30
0.0
 10
5.7830340497
 20
2.6509957134
 30
0.0
 10
5.7888378118
 20
2.6564166969
 30
0.0
 10
5.7926231991
 20
2.6603786116
 30
0.0
 10
5.7945312624
 20
2.662474275
 30
0.0
  0
LINE
  5
432
100
AcDbEntity
  8
0
100
AcDbLine
 62
7
  6
CONTINUOUS
 10
5.8205518796
 20
2.6355222039
 11
5.7869317103
 21
2.5875111421
  0
LINE
  5
433
100
AcDbEntity
  8
0
100
AcDbLine
 62
7
  6
CONTINUOUS
 10
5.790055018
 20
2.6898502834
 11
5.8028849892
 21
2.6669946036
  0
LINE
  5
434
100
AcDbEntity
  8
0
100
AcDbLine
 62
7
  6
CONTINUOUS
 10
5.8028849892
 20
2.6669946036
 11
5.8051132901
 21
2.6630250382
  0
LINE
  5
435
100
AcDbEntity
  8
0
100
AcDbLine
 62
7
  6
CONTINUOUS
 10
5.8051132901
 20
2.6630250382
 11
5.810217229
 21
2.6539327145
  0
LINE
  5
436
100
AcDbEntity
  8
0
100
AcDbLine
 62
7
  6
CONTINUOUS
 10
5.810217229
 20
2.6539327145
 11
5.812369973
 21
2.6500977433
  0
LINE
  5
437
100
AcDbEntity
  8
0
100
AcDbLine
 62
7
  6
CONTINUOUS
 10
5.812369973
 20
2.6500977433
 11
5.8205518796
 21
2.6355222039
  0
SPLINE
  5
438
100
AcDbEntity
  8
0
100
AcDbSpline
 62
7
  6
CONTINUOUS
 70
0
 71
3
 72
11
 73
7
 74
0
 42
0.0000001
 43
0.0000001
 44
0.0000000001
 40
0.0
 40
0.0
 40
0.0
 40
0.0
 40
0.2951082434
 40
0.5587973162
 40
0.7928918167
 40
1.0
 40
1.0
 40
1.0
 40
1.0
 10
5.8792664475
 20
3.477558177
 30
0.0
 10
5.8772124871
 20
3.4796532233
 30
0.0
 10
5.8732116286
 20
3.4835140478
 30
0.0
 10
5.867149241
 20
3.4885663964
 30
0.0
 10
5.8613687995
 20
3.492547745
 30
0.0
 10
5.8574762685
 20
3.4946040042
 30
0.0
 10
5.8555850984
 20
3.4954183458
 30
0.0
  0
SPLINE
  5
439
100
AcDbEntity
  8
0
100
AcDbSpline
 62
7
  6
CONTINUOUS
 70
0
 71
3
 72
11
 73
7
 74
0
 42
0.0000001
 43
0.0000001
 44
0.0000000001
 40
0.0
 40
0.0
 40
0.0
 40
0.0
 40
0.2570045643
 40
0.50239768
 40
0.7466221646
 40
1.0
 40
1.0
 40
1.0
 40
1.0
 10
5.9377040571
 20
3.5100995424
 30
0.0
 10
5.935596256
 20
3.5113273675
 30
0.0
 10
5.9312555141
 20
3.5133810215
 30
0.0
 10
5.9243221265
 20
3.5150737973
 30
0.0
 10
5.917222305
 20
3.5152677047
 30
0.0
 10
5.9125390347
 20
3.5144370484
 30
0.0
 10
5.9102160629
 20
3.51381461
 30
0.0
  0
SPLINE
  5
43A
100
AcDbEntity
  8
0
100
AcDbSpline
 62
7
  6
CONTINUOUS
 70
0
 71
3
 72
12
 73
8
 74
0
 42
0.0000001
 43
0.0000001
 44
0.0000000001
 40
0.0
 40
0.0
 40
0.0
 40
0.0
 40
0.192900145
 40
0.3024599368
 40
0.4214960277
 40
0.6896216386
 40
1.0
 40
1.0
 40
1.0
 40
1.0
 10
5.8768885258
 20
3.4232455867
 30
0.0
 10
5.8785239242
 20
3.4249049669
 30
0.0
 10
5.8807995585
 20
3.4277945407
 30
0.0
 10
5.8835123859
 20
3.4321026186
 30
0.0
 10
5.8863865248
 20
3.4373735663
 30
0.0
 10
5.8898089117
 20
3.4450855338
 30
0.0
 10
5.892152324
 20
3.4516733929
 30
0.0
 10
5.893313823
 20
3.4552376226
 30
0.0
  0
SPLINE
  5
43B
100
AcDbEntity
  8
0
100
AcDbSpline
 62
7
  6
CONTINUOUS
 70
0
 71
3
 72
11
 73
7
 74
0
 42
0.0000001
 43
0.0000001
 44
0.0000000001
 40
0.0
 40
0.0
 40
0.0
 40
0.0
 40
0.2378967205
 40
0.4809488548
 40
0.733719591
 40
1.0
 40
1.0
 40
1.0
 40
1.0
 10
5.8572654117
 20
3.4112043593
 30
0.0
 10
5.8590488318
 20
3.4116822253
 30
0.0
 10
5.8625853689
 20
3.4129275238
 30
0.0
 10
5.8676369263
 20
3.4155950325
 30
0.0
 10
5.8724601816
 20
3.4190458764
 30
0.0
 10
5.8754378797
 20
3.421773668
 30
0.0
 10
5.8768885258
 20
3.4232455867
 30
0.0
  0
SPLINE
  5
43C
100
AcDbEntity
  8
0
100
AcDbSpline
 62
7
  6
CONTINUOUS
 70
0
 71
3
 72
16
 73
12
 74
0
 42
0.0000001
 43
0.0000001
 44
0.0000000001
 40
0.0
 40
0.0
 40
0.0
 40
0.0
 40
0.1248893999
 40
0.1876013518
 40
0.2502836336
 40
0.3128380379
 40
0.3753244451
 40
0.5002385805
 40
0.6251625642
 40
0.7501068955
 40
1.0
 40
1.0
 40
1.0
 40
1.0
 10
4.406043679
 20
2.849174365
 30
0.0
 10
4.4047252635
 20
2.8471860115
 30
0.0
 10
4.402447626
 20
2.8443926541
 30
0.0
 10
4.399090943
 20
2.840988369
 30
0.0
 10
4.3964583753
 20
2.8385450506
 30
0.0
 10
4.3937470384
 20
2.8361972802
 30
0.0
 10
4.3900400736
 20
2.8331865481
 30
0.0
 10
4.3852567412
 20
2.8296166872
 30
0.0
 10
4.3793648578
 20
2.8255475666
 30
0.0
 10
4.3713566464
 20
2.8203484099
 30
0.0
 10
4.3652085275
 20
2.8166728021
 30
0.0
 10
4.3610744086
 20
2.8142859674
 30
0.0
  0
SPLINE
  5
43D
100
AcDbEntity
  8
0
100
AcDbSpline
 62
7
  6
CONTINUOUS
 70
0
 71
3
 72
11
 73
7
 74
0
 42
0.0000001
 43
0.0000001
 44
0.0000000001
 40
0.0
 40
0.0
 40
0.0
 40
0.0
 40
0.24625692
 40
0.4902530182
 40
0.7392990093
 40
1.0
 40
1.0
 40
1.0
 40
1.0
 10
5.8555850984
 20
3.4954183458
 30
0.0
 10
5.8538330439
 20
3.4961727839
 30
0.0
 10
5.8502082781
 20
3.497381028
 30
0.0
 10
5.8445100673
 20
3.4981961758
 30
0.0
 10
5.8386474097
 20
3.4980046073
 30
0.0
 10
5.8347552882
 20
3.4972423708
 30
0.0
 10
5.832804629
 20
3.4967196933
 30
0.0
  0
SPLINE
  5
43E
100
AcDbEntity
  8
0
100
AcDbSpline
 62
7
  6
CONTINUOUS
 70
0
 71
3
 72
11
 73
7
 74
0
 42
0.0000001
 43
0.0000001
 44
0.0000000001
 40
0.0
 40
0.0
 40
0.0
 40
0.0
 40
0.2757738373
 40
0.5313773209
 40
0.771094187
 40
1.0
 40
1.0
 40
1.0
 40
1.0
 10
4.3243392313
 20
2.8828230074
 30
0.0
 10
4.3199015816
 20
2.8802609291
 30
0.0
 10
4.3115886595
 20
2.8748886676
 30
0.0
 10
4.3005598758
 20
2.8656797475
 30
0.0
 10
4.2915009161
 20
2.8556657045
 30
0.0
 10
4.2867092408
 20
2.8483415632
 30
0.0
 10
4.2846879351
 20
2.8445992518
 30
0.0
  0
SPLINE
  5
43F
100
AcDbEntity
  8
0
100
AcDbSpline
 62
7
  6
CONTINUOUS
 70
0
 71
3
 72
13
 73
9
 74
0
 42
0.0000001
 43
0.0000001
 44
0.0000000001
 40
0.0
 40
0.0
 40
0.0
 40
0.0
 40
0.2498482806
 40
0.3749487878
 40
0.500020562
 40
0.6250912453
 40
0.7501804643
 40
1.0
 40
1.0
 40
1.0
 40
1.0
 10
5.8203501711
 20
3.4660821879
 30
0.0
 10
5.8213426505
 20
3.4678016861
 30
0.0
 10
5.8230586282
 20
3.4702649118
 30
0.0
 10
5.8257952687
 20
3.4731534583
 30
0.0
 10
5.8280700919
 20
3.4750902592
 30
0.0
 10
5.8305350814
 20
3.4767781613
 30
0.0
 10
5.8340382139
 20
3.4786644075
 30
0.0
 10
5.8368621541
 20
3.4796803596
 30
0.0
 10
5.8387796525
 20
3.4801941518
 30
0.0
  0
SPLINE
  5
440
100
AcDbEntity
  8
0
100
AcDbSpline
 62
7
  6
CONTINUOUS
 70
0
 71
3
 72
12
 73
8
 74
0
 42
0.0000001
 43
0.0000001
 44
0.0000000001
 40
0.0
 40
0.0
 40
0.0
 40
0.0
 40
0.2500175778
 40
0.3751386656
 40
0.5005366191
 40
0.7506798934
 40
1.0
 40
1.0
 40
1.0
 40
1.0
 10
5.8967460891
 20
3.465110036
 30
0.0
 10
5.8978946585
 20
3.468538523
 30
0.0
 10
5.8997889672
 20
3.4736329342
 30
0.0
 10
5.902890471
 20
3.4801794025
 30
0.0
 10
5.906433906
 20
3.486497765
 30
0.0
 10
5.9118771394
 20
3.4937980022
 30
0.0
 10
5.9182756327
 20
3.4978476222
 30
0.0
 10
5.9217584474
 20
3.4987808396
 30
0.0
  0
SPLINE
  5
441
100
AcDbEntity
  8
0
100
AcDbSpline
 62
7
  6
CONTINUOUS
 70
0
 71
3
 72
10
 73
6
 74
0
 42
0.0000001
 43
0.0000001
 44
0.0000000001
 40
0.0
 40
0.0
 40
0.0
 40
0.0
 40
0.4995915402
 40
0.7498147711
 40
1.0
 40
1.0
 40
1.0
 40
1.0
 10
5.93246567
 20
3.4534597509
 30
0.0
 10
5.9299142429
 20
3.452776098
 30
0.0
 10
5.9259495009
 20
3.4521564338
 30
0.0
 10
5.9206545471
 20
3.4523441749
 30
0.0
 10
5.9180361593
 20
3.4527867807
 30
0.0
 10
5.9167495399
 20
3.4530939355
 30
0.0
  0
SPLINE
  5
442
100
AcDbEntity
  8
0
100
AcDbSpline
 62
7
  6
CONTINUOUS
 70
0
 71
3
 72
9
 73
5
 74
0
 42
0.0000001
 43
0.0000001
 44
0.0000000001
 40
0.0
 40
0.0
 40
0.0
 40
0.0
 40
0.4723252849
 40
1.0
 40
1.0
 40
1.0
 40
1.0
 10
5.9416035645
 20
3.3660587105
 30
0.0
 10
5.9418390402
 20
3.3699425479
 30
0.0
 10
5.9418220535
 20
3.3781991463
 30
0.0
 10
5.9410188084
 20
3.3864081718
 30
0.0
 10
5.9404376794
 20
3.3907160843
 30
0.0
  0
SPLINE
  5
443
100
AcDbEntity
  8
0
100
AcDbSpline
 62
7
  6
CONTINUOUS
 70
0
 71
3
 72
11
 73
7
 74
0
 42
0.0000001
 43
0.0000001
 44
0.0000000001
 40
0.0
 40
0.0
 40
0.0
 40
0.0
 40
0.2877937317
 40
0.5472225502
 40
0.7827272947
 40
1.0
 40
1.0
 40
1.0
 40
1.0
 10
5.8494753904
 20
3.3717667492
 30
0.0
 10
5.849738727
 20
3.3727531343
 30
0.0
 10
5.8501655429
 20
3.3746501712
 30
0.0
 10
5.8504896187
 20
3.3774141471
 30
0.0
 10
5.8504577916
 20
3.3799484127
 30
0.0
 10
5.8501856046
 20
3.3815406209
 30
0.0
 10
5.8499861166
 20
3.3822851203
 30
0.0
  0
LINE
  5
444
100
AcDbEntity
  8
0
100
AcDbLine
 62
7
  6
CONTINUOUS
 10
5.8459221973
 20
3.3607485673
 11
5.8494753904
 21
3.3717667492
  0
LINE
  5
445
100
AcDbEntity
  8
0
100
AcDbLine
 62
7
  6
CONTINUOUS
 10
4.3799184029
 20
3.5474715888
 11
4.3796887021
 21
3.5475457353
  0
ENDSEC
  0
SECTION
  2
OBJECTS
  0
DICTIONARY
  5
C
100
AcDbDictionary
280
0
281
1
  3
ACAD_GROUP
350
D
  3
ACAD_MLINESTYLE
350
17
  3
ACAD_LAYOUT
350
1A
  3
ACAD_PLOTSETTINGS
350
19
  3
ACAD_PLOTSTYLENAME
350
E
  0
DICTIONARY
  5
D
102
{ACAD_REACTORS
330
C
102
}
100
AcDbDictionary
280
0
281
1
  0
ACDBDICTIONARYWDFLT
  5
E
102
{ACAD_REACTORS
330
C
102
}
100
AcDbDictionary
281
1
  3
Normal
350
F
100
AcDbDictionaryWithDefault
340
F
  0
DICTIONARY
  5
17
102
{ACAD_REACTORS
330
C
102
}
100
AcDbDictionary
280
0
281
1
  3
Standard
350
18
  0
DICTIONARY
  5
19
102
{ACAD_REACTORS
330
C
102
}
100
AcDbDictionary
281
1
  0
DICTIONARY
  5
1A
102
{ACAD_REACTORS
330
C
102
}
100
AcDbDictionary
281
1
  3
Model
350
446
  3
Layout1
350
447
  0
ACDBPLACEHOLDER
  5
F
102
{ACAD_REACTORS
330
E
102
}
  0
MLINESTYLE
  5
18
102
{ACAD_REACTORS
330
17
102
}
100
AcDbMlineStyle
  2
STANDARD
 70
0
  3

 62
256
 51
90.0
 52
90.0
 71
2
 49
0.5
 62
256
  6
BYLAYER
 49
-0.5
 62
256
  6
BYLAYER
  0
LAYOUT
  5
446
102
{ACAD_REACTORS
330
1A
102
}
100
AcDbPlotSettings
  1

  2
none_device
  4
ANSI_A_(11.00_x_8.50_Inches)
  6

 40
0.0
 41
0.0
 42
0.0
 43
0.0
 44
279.4
 45
215.9
 46
0.0
 47
0.0
 48
0.0
 49
0.0
140
0.0
141
0.0
142
1.0
143
1.0
 70
1024
 72
0
 73
0
 74
0
  7

 75
0
147
1.0
148
0.0
149
0.0
100
AcDbLayout
  1
Model
 70
0
 71
0
 10
0.0
 20
0.0
 11
11.0
 21
8.5
 12
0.0
 22
0.0
 32
0.0
 14
0.0
 24
0.0
 34
0.0
 15
0.0
 25
0.0
 35
0.0
146
0.0
 13
0.0
 23
0.0
 33
0.0
 16
1.0
 26
0.0
 36
0.0
 17
0.0
 27
1.0
 37
0.0
 76
0
330
220
345
0
346
0
  0
LAYOUT
  5
447
102
{ACAD_REACTORS
330
1A
102
}
100
AcDbPlotSettings
  1

  2
none_device
  4
ANSI_A_(11.00_x_8.50_Inches)
  6

 40
0.0
 41
0.0
 42
0.0
 43
0.0
 44
279.4
 45
215.9
 46
0.0
 47
0.0
 48
0.0
 49
0.0
140
0.0
141
0.0
142
1.0
143
1.0
 70
0
 72
0
 73
0
 74
0
  7

 75
0
147
1.0
148
0.0
149
0.0
100
AcDbLayout
  1
Layout1
 70
0
 71
1
 10
0.0
 20
0.0
 11
11.0
 21
8.5
 12
0.0
 22
0.0
 32
0.0
 14
0.0
 24
0.0
 34
0.0
 15
0.0
 25
0.0
 35
0.0
146
0.0
 13
0.0
 23
0.0
 33
0.0
 16
1.0
 26
0.0
 36
0.0
 17
0.0
 27
1.0
 37
0.0
 76
0
330
221
345
0
346
0
  0
ENDSEC
  0
EOF
