999
DXF file: 3-1643ts_TOP.dxf
999
Pro/ENGINEER 2013150 by Parametric Technology Corporation
  0
SECTION
  2
HEADER
  9
$ACADVER
  1
AC1021
  9
$DWGCODEPAGE
  3
ANSI_1252
  9
$EXTMAX
 10
11.0
 20
8.5
 30
0.0
  9
$EXTMIN
 10
0.0
 20
0.0
 30
0.0
  9
$LIMMIN
 10
0.0
 20
0.0
  9
$LIMMAX
 10
11.0
 20
8.5
  9
$VIEWCTR
 10
5.5
 20
4.25
  9
$VIEWSIZE
 40
8.5
  9
$CLAYER
  8
0
  9
$LTSCALE
 40
0.605
  9
$CELTYPE
  6
BYLAYER
  9
$DIMSCALE
 40
1.0
  9
$DIMASZ
 40
0.1
  9
$DIMEXO
 40
0.0625
  9
$DIMDLI
 40
0.418
  9
$DIMEXE
 40
0.125
  9
$DIMCEN
 40
0.099
  9
$DIMLFAC
 40
1.0
  9
$DIMBLK
  1
_FILLED
  9
$DIMTXT
 40
0.08
  9
$DIMTOL
 70
1
  9
$DIMLIM
 70
0
  9
$DIMTFAC
 40
1.0
  9
$DIMTP
 40
0.001
  9
$DIMTM
 40
0.001
  9
$DIMGAP
 40
0.09
  9
$DIMDSEP
 70
46
  9
$PDMODE
 70
3
  9
$PDSIZE
 40
0.06
  9
$HANDSEED
  5
37F
  9
$TILEMODE
 70
1
  9
$MEASUREMENT
 70
0
  9
$INSUNITS
 70
1
  0
ENDSEC
  0
SECTION
  2
CLASSES
  0
CLASS
  1
ACDBDICTIONARYWDFLT
  2
AcDbDictionaryWithDefault
  3
AutoCAD 2000
 90
0
 91
1
280
0
281
0
  0
CLASS
  1
ACDBPLACEHOLDER
  2
AcDbPlaceHolder
  3
AutoCAD 2000
 90
0
 91
1
280
0
281
0
  0
CLASS
  1
LAYOUT
  2
AcDbLayout
  3
AutoCAD 2000
 90
0
 91
0
280
0
281
0
  0
ENDSEC
  0
SECTION
  2
TABLES
  0
TABLE
  2
VPORT
  5
8
100
AcDbSymbolTable
 70
2
  0
VPORT
  5
1F4
100
AcDbSymbolTableRecord
100
AcDbViewportTableRecord
  2
*ACTIVE
 70
0
 10
0.0
 20
0.0
 11
1.0
 21
1.0
 12
5.5
 22
4.25
 13
0.0
 23
0.0
 14
1.0
 24
1.0
 15
0.0
 25
0.0
 16
0.0
 26
0.0
 36
1.0
 17
0.0
 27
0.0
 37
0.0
 40
8.5
 41
1.2941176471
 42
50.0
 43
0.0
 44
0.0
 50
0.0
 51
0.0
 71
0
 72
100
 73
1
 74
1
 75
0
 76
0
 77
0
 78
0
  0
ENDTAB
  0
TABLE
  2
LTYPE
  5
5
100
AcDbSymbolTable
 70
6
  0
LTYPE
  5
14
100
AcDbSymbolTableRecord
100
AcDbLinetypeTableRecord
  2
BYBLOCK
 70
0
  3

 72
65
 73
0
 40
0.0
  0
LTYPE
  5
15
100
AcDbSymbolTableRecord
100
AcDbLinetypeTableRecord
  2
BYLAYER
 70
0
  3

 72
65
 73
0
 40
0.0
  0
LTYPE
  5
16
100
AcDbSymbolTableRecord
100
AcDbLinetypeTableRecord
  2
CONTINUOUS
 70
64
  3
Solid line
 72
65
 73
0
 40
0.0
  0
LTYPE
  5
1F5
100
AcDbSymbolTableRecord
100
AcDbLinetypeTableRecord
  2
CENTER
 70
64
  3
____ _ ____ _ ____ _ ____ _ ____ _ ____ _ ____
 72
65
 73
4
 40
0.6
 49
0.375
 74
0
 49
-0.075
 74
0
 49
0.075
 74
0
 49
-0.075
 74
0
  0
LTYPE
  5
1F6
100
AcDbSymbolTableRecord
100
AcDbLinetypeTableRecord
  2
HIDDEN
 70
64
  3
- - - - - - - - - - - - - - - - - - - -
 72
65
 73
2
 40
0.2
 49
0.1
 74
0
 49
-0.1
 74
0
  0
LTYPE
  5
1F7
100
AcDbSymbolTableRecord
100
AcDbLinetypeTableRecord
  2
PHANTOM
 70
64
  3
_____ _ _ _____ _ _ _____ _ _ _____
 72
65
 73
6
 40
0.8
 49
0.45
 74
0
 49
-0.05
 74
0
 49
0.1
 74
0
 49
-0.05
 74
0
 49
0.1
 74
0
 49
-0.05
 74
0
  0
LTYPE
  5
1F8
100
AcDbSymbolTableRecord
100
AcDbLinetypeTableRecord
  2
DOT
 70
64
  3
. . . . . . . . . . . . . . . . . . . .
 72
65
 73
2
 40
0.2
 49
0.1
 74
0
 49
-0.1
 74
0
  0
LTYPE
  5
1F9
100
AcDbSymbolTableRecord
100
AcDbLinetypeTableRecord
  2
DASHED
 70
64
  3
- - - - - - - - - - - - - - - - - - - -
 72
65
 73
2
 40
0.2
 49
0.1
 74
0
 49
-0.1
 74
0
  0
ENDTAB
  0
TABLE
  2
LAYER
  5
2
100
AcDbSymbolTable
 70
36
  0
LAYER
  5
10
100
AcDbSymbolTableRecord
100
AcDbLayerTableRecord
  2
0
 70
0
 62
7
  6
CONTINUOUS
370
-3
390
F
  0
LAYER
  5
1FA
100
AcDbSymbolTableRecord
100
AcDbLayerTableRecord
  2
DEFAULT_1
 70
0
 62
7
  6
CENTER
370
-3
390
F
  0
LAYER
  5
1FB
100
AcDbSymbolTableRecord
100
AcDbLayerTableRecord
  2
DEFAULT_2
 70
0
 62
8
  6
HIDDEN
370
-3
390
F
  0
LAYER
  5
1FC
100
AcDbSymbolTableRecord
100
AcDbLayerTableRecord
  2
DEFAULT_3
 70
0
 62
7
  6
PHANTOM
370
-3
390
F
  0
LAYER
  5
1FD
100
AcDbSymbolTableRecord
100
AcDbLayerTableRecord
  2
ALL_ASSEMBLY_MEMBERS
 70
0
 62
7
  6
CONTINUOUS
370
-3
390
F
  0
LAYER
  5
1FE
100
AcDbSymbolTableRecord
100
AcDbLayerTableRecord
  2
ALL_FEATURES
 70
0
 62
7
  6
CONTINUOUS
370
-3
390
F
  0
LAYER
  5
1FF
100
AcDbSymbolTableRecord
100
AcDbLayerTableRecord
  2
AXES_FEATURES
 70
0
 62
7
  6
CONTINUOUS
370
-3
390
F
  0
LAYER
  5
200
100
AcDbSymbolTableRecord
100
AcDbLayerTableRecord
  2
CHAMFER_FEATURES
 70
0
 62
7
  6
CONTINUOUS
370
-3
390
F
  0
LAYER
  5
201
100
AcDbSymbolTableRecord
100
AcDbLayerTableRecord
  2
COSMETIC_SKETCHES
 70
0
 62
7
  6
CONTINUOUS
370
-3
390
F
  0
LAYER
  5
202
100
AcDbSymbolTableRecord
100
AcDbLayerTableRecord
  2
CUT_FEATURES
 70
0
 62
7
  6
CONTINUOUS
370
-3
390
F
  0
LAYER
  5
203
100
AcDbSymbolTableRecord
100
AcDbLayerTableRecord
  2
DATUM_CURVES
 70
0
 62
7
  6
CONTINUOUS
370
-3
390
F
  0
LAYER
  5
204
100
AcDbSymbolTableRecord
100
AcDbLayerTableRecord
  2
DATUM_PLANES
 70
0
 62
7
  6
CONTINUOUS
370
-3
390
F
  0
LAYER
  5
205
100
AcDbSymbolTableRecord
100
AcDbLayerTableRecord
  2
DATUM_POINTS
 70
0
 62
7
  6
CONTINUOUS
370
-3
390
F
  0
LAYER
  5
206
100
AcDbSymbolTableRecord
100
AcDbLayerTableRecord
  2
DEFAULT_COORDINATE_SYSTEM
 70
0
 62
7
  6
CONTINUOUS
370
-3
390
F
  0
LAYER
  5
207
100
AcDbSymbolTableRecord
100
AcDbLayerTableRecord
  2
DEFAULT_DATUM_AXES
 70
0
 62
7
  6
CONTINUOUS
370
-3
390
F
  0
LAYER
  5
208
100
AcDbSymbolTableRecord
100
AcDbLayerTableRecord
  2
DEFAULT_DATUM_CURVES
 70
0
 62
7
  6
CONTINUOUS
370
-3
390
F
  0
LAYER
  5
209
100
AcDbSymbolTableRecord
100
AcDbLayerTableRecord
  2
DEFAULT_DATUM_PLANES
 70
0
 62
7
  6
CONTINUOUS
370
-3
390
F
  0
LAYER
  5
20A
100
AcDbSymbolTableRecord
100
AcDbLayerTableRecord
  2
DEFAULT_SURFACES
 70
0
 62
7
  6
CONTINUOUS
370
-3
390
F
  0
LAYER
  5
20B
100
AcDbSymbolTableRecord
100
AcDbLayerTableRecord
  2
DIMENSIONS
 70
0
 62
7
  6
CONTINUOUS
370
-3
390
F
  0
LAYER
  5
20C
100
AcDbSymbolTableRecord
100
AcDbLayerTableRecord
  2
HOLE_FEATURES
 70
0
 62
7
  6
CONTINUOUS
370
-3
390
F
  0
LAYER
  5
20D
100
AcDbSymbolTableRecord
100
AcDbLayerTableRecord
  2
HOLE_PATTERN
 70
0
 62
7
  6
CONTINUOUS
370
-3
390
F
  0
LAYER
  5
20E
100
AcDbSymbolTableRecord
100
AcDbLayerTableRecord
  2
INTFCLR_1
 70
0
 62
7
  6
CONTINUOUS
370
-3
390
F
  0
LAYER
  5
20F
100
AcDbSymbolTableRecord
100
AcDbLayerTableRecord
  2
NOTES
 70
0
 62
7
  6
CONTINUOUS
370
-3
390
F
  0
LAYER
  5
210
100
AcDbSymbolTableRecord
100
AcDbLayerTableRecord
  2
PART_REFERENCE_DIMENSIONS
 70
0
 62
7
  6
CONTINUOUS
370
-3
390
F
  0
LAYER
  5
211
100
AcDbSymbolTableRecord
100
AcDbLayerTableRecord
  2
PLATED_AREA
 70
0
 62
7
  6
CONTINUOUS
370
-3
390
F
  0
LAYER
  5
212
100
AcDbSymbolTableRecord
100
AcDbLayerTableRecord
  2
PLATED_SURFACE_AREA
 70
0
 62
7
  6
CONTINUOUS
370
-3
390
F
  0
LAYER
  5
213
100
AcDbSymbolTableRecord
100
AcDbLayerTableRecord
  2
POINTS
 70
0
 62
7
  6
CONTINUOUS
370
-3
390
F
  0
LAYER
  5
214
100
AcDbSymbolTableRecord
100
AcDbLayerTableRecord
  2
PROTRUSION
 70
0
 62
7
  6
CONTINUOUS
370
-3
390
F
  0
LAYER
  5
215
100
AcDbSymbolTableRecord
100
AcDbLayerTableRecord
  2
PROTRUSION_FEATURES
 70
0
 62
7
  6
CONTINUOUS
370
-3
390
F
  0
LAYER
  5
216
100
AcDbSymbolTableRecord
100
AcDbLayerTableRecord
  2
QUILT
 70
0
 62
7
  6
CONTINUOUS
370
-3
390
F
  0
LAYER
  5
217
100
AcDbSymbolTableRecord
100
AcDbLayerTableRecord
  2
QUILTS
 70
0
 62
7
  6
CONTINUOUS
370
-3
390
F
  0
LAYER
  5
218
100
AcDbSymbolTableRecord
100
AcDbLayerTableRecord
  2
REFERENCE_DIMENSIONS
 70
0
 62
7
  6
CONTINUOUS
370
-3
390
F
  0
LAYER
  5
219
100
AcDbSymbolTableRecord
100
AcDbLayerTableRecord
  2
ROUND_FEATURES
 70
0
 62
7
  6
CONTINUOUS
370
-3
390
F
  0
LAYER
  5
21A
100
AcDbSymbolTableRecord
100
AcDbLayerTableRecord
  2
SATIN_DIRECTION
 70
0
 62
7
  6
CONTINUOUS
370
-3
390
F
  0
LAYER
  5
21B
100
AcDbSymbolTableRecord
100
AcDbLayerTableRecord
  2
SHELL_FEATURES
 70
0
 62
7
  6
CONTINUOUS
370
-3
390
F
  0
LAYER
  5
21C
100
AcDbSymbolTableRecord
100
AcDbLayerTableRecord
  2
SIZE_REF
 70
0
 62
7
  6
CONTINUOUS
370
-3
390
F
  0
LAYER
  5
21D
100
AcDbSymbolTableRecord
100
AcDbLayerTableRecord
  2
XSEC_DATUMS
 70
0
 62
7
  6
CONTINUOUS
370
-3
390
F
  0
ENDTAB
  0
TABLE
  2
STYLE
  5
3
100
AcDbSymbolTable
 70
1
  0
STYLE
  5
11
100
AcDbSymbolTableRecord
100
AcDbTextStyleTableRecord
  2
STANDARD
 70
0
 40
0.0
 41
0.8
 50
0.0
 71
0
 42
0.2
  3
txt
  4

  0
STYLE
  5
21E
100
AcDbSymbolTableRecord
100
AcDbTextStyleTableRecord
  2
TEXTSTYLE_1
 70
0
 40
0.0
 41
0.8
 50
0.0
 71
0
 42
0.2
  3
gdt
  4

  0
ENDTAB
  0
TABLE
  2
VIEW
  5
6
100
AcDbSymbolTable
 70
0
  0
ENDTAB
  0
TABLE
  2
UCS
  5
7
100
AcDbSymbolTable
 70
0
  0
ENDTAB
  0
TABLE
  2
APPID
  5
9
100
AcDbSymbolTable
 70
1
  0
APPID
  5
21F
100
AcDbSymbolTableRecord
100
AcDbRegAppTableRecord
  2
ACAD
 70
0
  0
ENDTAB
  0
TABLE
  2
BLOCK_RECORD
  5
1
100
AcDbSymbolTable
 70
0
  0
BLOCK_RECORD
  5
220
100
AcDbSymbolTableRecord
100
AcDbBlockTableRecord
  2
*Model_Space
  0
BLOCK_RECORD
  5
221
100
AcDbSymbolTableRecord
100
AcDbBlockTableRecord
  2
*Paper_Space
  0
ENDTAB
  0
TABLE
  2
DIMSTYLE
  5
A
100
AcDbSymbolTable
 70
1
100
AcDbDimStyleTable
 71
0
  0
DIMSTYLE
105
222
100
AcDbSymbolTableRecord
100
AcDbDimStyleTableRecord
  2
STANDARD
 70
0
  3

  4

 40
1.0
 41
0.1
 42
0.0625
 43
0.38
 44
0.125
 45
0.0
 46
0.0
 47
0.001
 48
0.001
140
0.08
141
0.09
142
0.0
143
25.4
144
1.0
145
0.0
146
1.0
147
0.09
 71
1.0
 72
0.0
 73
1
 74
1
 75
0
 76
0
 77
0
 78
4
170
0
171
2
172
0
173
0
174
0
175
0
176
0
177
0
178
0
270
2
271
3
272
3
273
2
274
2
275
0
280
0
281
0
282
0
283
1
284
4
285
0
286
0
287
3
288
0
340
11
278
46
  0
ENDTAB
  0
ENDSEC
  0
SECTION
  2
BLOCKS
  0
BLOCK
  5
20
100
AcDbEntity
  8
0
100
AcDbBlockBegin
  2
*Model_Space
 70
0
 10
0.0
 20
0.0
 30
0.0
  3
*Model_Space
  1

  0
ENDBLK
  5
21
100
AcDbEntity
  8
0
100
AcDbBlockEnd
  0
BLOCK
  5
1C
100
AcDbEntity
  8
0
100
AcDbBlockBegin
  2
*Paper_Space
 70
0
 10
0.0
 20
0.0
 30
0.0
  3
*Paper_Space
  1

  0
ENDBLK
  5
1D
100
AcDbEntity
  8
0
100
AcDbBlockEnd
  0
ENDSEC
  0
SECTION
  2
ENTITIES
  0
LINE
  5
223
100
AcDbEntity
  8
0
100
AcDbLine
 62
7
  6
CONTINUOUS
 10
0.0
 20
0.0
 11
0.0
 21
8.5
  0
LINE
  5
224
100
AcDbEntity
  8
0
100
AcDbLine
 62
7
  6
CONTINUOUS
 10
0.0
 20
0.0
 11
11.0
 21
0.0
  0
LINE
  5
225
100
AcDbEntity
  8
0
100
AcDbLine
 62
7
  6
CONTINUOUS
 10
0.0
 20
8.5
 11
11.0
 21
8.5
  0
LINE
  5
226
100
AcDbEntity
  8
0
100
AcDbLine
 62
7
  6
CONTINUOUS
 10
11.0
 20
0.0
 11
11.0
 21
8.5
  0
LINE
  5
227
100
AcDbEntity
  8
0
100
AcDbLine
 62
7
  6
CONTINUOUS
 10
3.043104451
 20
5.2963832166
 11
3.043104451
 21
5.4838832166
  0
LINE
  5
228
100
AcDbEntity
  8
ALL_FEATURES
100
AcDbLine
 62
7
  6
CONTINUOUS
 10
3.043104451
 20
5.2963832166
 11
3.043104451
 21
5.4838832166
  0
LINE
  5
229
100
AcDbEntity
  8
ALL_FEATURES
100
AcDbLine
 62
7
  6
CONTINUOUS
 10
3.136854451
 20
5.2963832166
 11
3.136854451
 21
5.2491332166
  0
LINE
  5
22A
100
AcDbEntity
  8
ALL_FEATURES
100
AcDbLine
 62
9
  6
CONTINUOUS
 10
3.358104451
 20
5.2963832166
 11
3.358104451
 21
5.2491332166
  0
LINE
  5
22B
100
AcDbEntity
  8
0
100
AcDbLine
 62
9
  6
CONTINUOUS
 10
3.358104451
 20
5.2963832166
 11
3.358104451
 21
5.4838832166
  0
LINE
  5
22C
100
AcDbEntity
  8
ALL_FEATURES
100
AcDbLine
 62
9
  6
CONTINUOUS
 10
3.388104451
 20
5.2963832166
 11
3.388104451
 21
5.2491332166
  0
LINE
  5
22D
100
AcDbEntity
  8
0
100
AcDbLine
 62
9
  6
CONTINUOUS
 10
3.388104451
 20
5.2963832166
 11
3.388104451
 21
5.4838832166
  0
LINE
  5
22E
100
AcDbEntity
  8
0
100
AcDbLine
 62
7
  6
CONTINUOUS
 10
3.418104451
 20
5.2963832166
 11
3.418104451
 21
5.4838832166
  0
LINE
  5
22F
100
AcDbEntity
  8
ALL_FEATURES
100
AcDbLine
 62
7
  6
CONTINUOUS
 10
3.418104451
 20
5.2963832166
 11
3.418104451
 21
5.4838832166
  0
LINE
  5
230
100
AcDbEntity
  8
ALL_FEATURES
100
AcDbLine
 62
7
  6
CONTINUOUS
 10
3.511854451
 20
5.2963832166
 11
3.511854451
 21
5.2491332166
  0
LINE
  5
231
100
AcDbEntity
  8
ALL_ASSEMBLY_MEMBERS
100
AcDbLine
 62
9
  6
CONTINUOUS
 10
4.8092459586
 20
2.710461286
 11
5.4019629434
 21
2.710461286
  0
LINE
  5
232
100
AcDbEntity
  8
ALL_ASSEMBLY_MEMBERS
100
AcDbLine
 62
7
  6
CONTINUOUS
 10
5.480604451
 20
2.7283182559
 11
4.730604451
 21
2.7283182559
  0
LINE
  5
233
100
AcDbEntity
  8
ALL_ASSEMBLY_MEMBERS
100
AcDbLine
 62
7
  6
CONTINUOUS
 10
4.732098964
 20
2.8033182559
 11
4.5798566771
 21
2.8033182559
  0
LINE
  5
234
100
AcDbEntity
  8
ALL_ASSEMBLY_MEMBERS
100
AcDbLine
 62
7
  6
CONTINUOUS
 10
5.4791099395
 20
2.8033182559
 11
5.6313522249
 21
2.8033182559
  0
LINE
  5
235
100
AcDbEntity
  8
ALL_ASSEMBLY_MEMBERS
100
AcDbLine
 62
9
  6
CONTINUOUS
 10
4.8092459586
 20
2.891961286
 11
5.4019629434
 21
2.891961286
  0
LINE
  5
236
100
AcDbEntity
  8
ALL_ASSEMBLY_MEMBERS
100
AcDbLine
 62
7
  6
CONTINUOUS
 10
5.4464869181
 20
2.9135682559
 11
4.7647219839
 21
2.9135682559
  0
LINE
  5
237
100
AcDbEntity
  8
ALL_ASSEMBLY_MEMBERS
100
AcDbLine
 62
7
  6
CONTINUOUS
 10
4.7647219839
 20
2.9135682559
 11
4.7266441351
 21
2.925940499
  0
LINE
  5
238
100
AcDbEntity
  8
ALL_FEATURES
100
AcDbLine
 62
9
  6
CONTINUOUS
 10
3.733104451
 20
5.2963832166
 11
3.733104451
 21
5.2491332166
  0
LINE
  5
239
100
AcDbEntity
  8
0
100
AcDbLine
 62
9
  6
CONTINUOUS
 10
3.733104451
 20
5.2963832166
 11
3.733104451
 21
5.4838832166
  0
LINE
  5
23A
100
AcDbEntity
  8
ALL_ASSEMBLY_MEMBERS
100
AcDbLine
 62
7
  6
CONTINUOUS
 10
5.4845647669
 20
2.925940499
 11
4.7266441351
 21
2.925940499
  0
LINE
  5
23B
100
AcDbEntity
  8
ALL_ASSEMBLY_MEMBERS
100
AcDbLine
 62
7
  6
CONTINUOUS
 10
5.501229451
 20
2.9426051831
 11
4.709979451
 21
2.9426051831
  0
LINE
  5
23C
100
AcDbEntity
  8
ALL_ASSEMBLY_MEMBERS
100
AcDbLine
 62
7
  6
CONTINUOUS
 10
5.501229451
 20
2.9960682559
 11
4.709979451
 21
2.9960682559
  0
LINE
  5
23D
100
AcDbEntity
  8
ALL_ASSEMBLY_MEMBERS
100
AcDbLine
 62
7
  6
CONTINUOUS
 10
5.481729451
 20
3.0073182559
 11
4.729479451
 21
3.0073182559
  0
LINE
  5
23E
100
AcDbEntity
  8
ALL_ASSEMBLY_MEMBERS
100
AcDbLine
 62
7
  6
CONTINUOUS
 10
5.5024986874
 20
3.0193182559
 11
4.7087102145
 21
3.0193182559
  0
LINE
  5
23F
100
AcDbEntity
  8
ALL_ASSEMBLY_MEMBERS
100
AcDbLine
 62
7
  6
CONTINUOUS
 10
4.7052609214
 20
3.0283182559
 11
4.5798566771
 21
3.0283182559
  0
LINE
  5
240
100
AcDbEntity
  8
ALL_ASSEMBLY_MEMBERS
100
AcDbLine
 62
7
  6
CONTINUOUS
 10
5.5059479806
 20
3.0283182559
 11
5.6313522249
 21
3.0283182559
  0
LINE
  5
241
100
AcDbEntity
  8
ALL_ASSEMBLY_MEMBERS
100
AcDbLine
 62
7
  6
CONTINUOUS
 10
5.523729451
 20
3.0793182559
 11
5.2127992645
 21
3.0793182559
  0
LINE
  5
242
100
AcDbEntity
  8
ALL_ASSEMBLY_MEMBERS
100
AcDbLine
 62
7
  6
CONTINUOUS
 10
4.9984096375
 20
3.0793182559
 11
4.687479451
 21
3.0793182559
  0
LINE
  5
243
100
AcDbEntity
  8
ALL_ASSEMBLY_MEMBERS
100
AcDbLine
 62
7
  6
CONTINUOUS
 10
4.729479451
 20
3.0073182559
 11
4.7087102145
 21
3.0193182559
  0
LINE
  5
244
100
AcDbEntity
  8
ALL_ASSEMBLY_MEMBERS
100
AcDbLine
 62
7
  6
CONTINUOUS
 10
4.7266441351
 20
2.925940499
 11
4.709979451
 21
2.9426051831
  0
LINE
  5
245
100
AcDbEntity
  8
ALL_ASSEMBLY_MEMBERS
100
AcDbLine
 62
9
  6
CONTINUOUS
 10
3.9704909328
 20
2.8355752993
 11
3.9704909328
 21
2.9960612126
  0
LINE
  5
246
100
AcDbEntity
  8
0
100
AcDbLine
 62
7
  6
CONTINUOUS
 10
4.092729451
 20
5.1891332166
 11
4.092729451
 21
5.2491332166
  0
LINE
  5
247
100
AcDbEntity
  8
ALL_ASSEMBLY_MEMBERS
100
AcDbLine
 62
9
  6
CONTINUOUS
 10
4.1293565606
 20
2.7381487996
 11
4.1293565606
 21
3.0934877122
  0
LINE
  5
248
100
AcDbEntity
  8
0
100
AcDbLine
 62
7
  6
CONTINUOUS
 10
4.152729451
 20
5.1606332166
 11
4.152729451
 21
5.1891332166
  0
LINE
  5
249
100
AcDbEntity
  8
ALL_ASSEMBLY_MEMBERS
100
AcDbLine
 62
7
  6
CONTINUOUS
 10
5.523729451
 20
3.3868182559
 11
5.2127992645
 21
3.3868182559
  0
LINE
  5
24A
100
AcDbEntity
  8
ALL_ASSEMBLY_MEMBERS
100
AcDbLine
 62
7
  6
CONTINUOUS
 10
4.9984096375
 20
3.3868182559
 11
4.687479451
 21
3.3868182559
  0
LINE
  5
24B
100
AcDbEntity
  8
ALL_ASSEMBLY_MEMBERS
100
AcDbLine
 62
7
  6
CONTINUOUS
 10
5.501229451
 20
3.4460682559
 11
4.709979451
 21
3.4460682559
  0
LINE
  5
24C
100
AcDbEntity
  8
ALL_ASSEMBLY_MEMBERS
100
AcDbLine
 62
7
  6
CONTINUOUS
 10
5.501229451
 20
2.9960682559
 11
5.481729451
 21
3.0073182559
  0
LINE
  5
24D
100
AcDbEntity
  8
ALL_ASSEMBLY_MEMBERS
100
AcDbLine
 62
9
  6
CONTINUOUS
 10
4.3387625973
 20
2.7381487996
 11
4.3387625973
 21
3.0934877122
  0
LINE
  5
24E
100
AcDbEntity
  8
ALL_ASSEMBLY_MEMBERS
100
AcDbLine
 62
9
  6
CONTINUOUS
 10
4.4092946259
 20
2.7622847014
 11
4.4092946259
 21
3.0693518105
  0
LINE
  5
24F
100
AcDbEntity
  8
ALL_ASSEMBLY_MEMBERS
100
AcDbLine
 62
7
  6
CONTINUOUS
 10
5.383479451
 20
3.4843182559
 11
4.827729451
 21
3.4843182559
  0
LINE
  5
250
100
AcDbEntity
  8
ALL_FEATURES
100
AcDbLine
 62
7
  6
CONTINUOUS
 10
4.847979451
 20
3.5158182559
 11
4.8431090391
 21
3.5158182559
  0
LINE
  5
251
100
AcDbEntity
  8
ALL_FEATURES
100
AcDbLine
 62
7
  6
CONTINUOUS
 10
5.363229451
 20
3.5158182559
 11
5.3680998629
 21
3.5158182559
  0
LINE
  5
252
100
AcDbEntity
  8
0
100
AcDbLine
 62
9
  6
CONTINUOUS
 10
5.3994470235
 20
3.5253621755
 11
5.363229451
 21
3.5253621755
  0
LINE
  5
253
100
AcDbEntity
  8
0
100
AcDbLine
 62
9
  6
CONTINUOUS
 10
4.847979451
 20
3.525362182
 11
4.8117618785
 21
3.5253621755
  0
LINE
  5
254
100
AcDbEntity
  8
0
100
AcDbLine
 62
9
  6
CONTINUOUS
 10
5.4127735766
 20
3.5411748451
 11
5.363229451
 21
3.541174846
  0
LINE
  5
255
100
AcDbEntity
  8
0
100
AcDbLine
 62
9
  6
CONTINUOUS
 10
4.847979451
 20
3.541174845
 11
4.7984353254
 21
3.5411748451
  0
LINE
  5
256
100
AcDbEntity
  8
ALL_ASSEMBLY_MEMBERS
100
AcDbLine
 62
7
  6
CONTINUOUS
 10
5.501229451
 20
3.4460682559
 11
5.383479451
 21
3.4843182559
  0
LINE
  5
257
100
AcDbEntity
  8
0
100
AcDbLine
 62
7
  6
CONTINUOUS
 10
4.5216034686
 20
3.8729625445
 11
4.5135898357
 21
3.8793538475
  0
LINE
  5
258
100
AcDbEntity
  8
ALL_ASSEMBLY_MEMBERS
100
AcDbLine
 62
7
  6
CONTINUOUS
 10
4.7087102145
 20
3.0193182559
 11
4.687479451
 21
3.0793182559
  0
LINE
  5
259
100
AcDbEntity
  8
ALL_FEATURES
100
AcDbLine
 62
7
  6
CONTINUOUS
 10
4.485354451
 20
3.9379889117
 11
4.485354451
 21
4.3776332166
  0
LINE
  5
25A
100
AcDbEntity
  8
0
100
AcDbLine
 62
7
  6
CONTINUOUS
 10
4.485526951
 20
5.2491332166
 11
4.485526951
 21
4.3776332166
  0
LINE
  5
25B
100
AcDbEntity
  8
ALL_ASSEMBLY_MEMBERS
100
AcDbLine
 62
9
  6
CONTINUOUS
 10
4.5798566771
 20
2.8033182559
 11
4.5798566771
 21
3.0283182559
  0
LINE
  5
25C
100
AcDbEntity
  8
ALL_ASSEMBLY_MEMBERS
100
AcDbLine
 62
7
  6
CONTINUOUS
 10
5.363229451
 20
3.7535682559
 11
4.847979451
 21
3.7535682559
  0
LINE
  5
25D
100
AcDbEntity
  8
0
100
AcDbLine
 62
7
  6
CONTINUOUS
 10
5.3479626042
 20
3.7910682559
 11
4.8632462978
 21
3.7910682559
  0
LINE
  5
25E
100
AcDbEntity
  8
0
100
AcDbLine
 62
9
  6
CONTINUOUS
 10
5.366512362
 20
3.7975111241
 11
5.6429942775
 21
3.7975111274
  0
LINE
  5
25F
100
AcDbEntity
  8
0
100
AcDbLine
 62
9
  6
CONTINUOUS
 10
4.5682146245
 20
3.7975111274
 11
4.8446965368
 21
3.7975111265
  0
LINE
  5
260
100
AcDbEntity
  8
0
100
AcDbLine
 62
7
  6
CONTINUOUS
 10
4.537545808
 20
3.847210315
 11
4.5397845807
 21
3.8367627093
  0
LINE
  5
261
100
AcDbEntity
  8
0
100
AcDbLine
 62
7
  6
CONTINUOUS
 10
4.619979451
 20
4.2651332166
 11
4.619979451
 21
4.102161871
  0
LINE
  5
262
100
AcDbEntity
  8
ALL_FEATURES
100
AcDbLine
 62
7
  6
CONTINUOUS
 10
4.619979451
 20
4.102161871
 11
4.619979451
 21
4.2651332166
  0
LINE
  5
263
100
AcDbEntity
  8
ALL_ASSEMBLY_MEMBERS
100
AcDbLine
 62
7
  6
CONTINUOUS
 10
4.687479451
 20
3.0793182559
 11
4.687479451
 21
3.3868182559
  0
LINE
  5
264
100
AcDbEntity
  8
ALL_ASSEMBLY_MEMBERS
100
AcDbLine
 62
7
  6
CONTINUOUS
 10
4.709979451
 20
2.9960682559
 11
4.709979451
 21
2.9426051831
  0
LINE
  5
265
100
AcDbEntity
  8
ALL_ASSEMBLY_MEMBERS
100
AcDbLine
 62
7
  6
CONTINUOUS
 10
4.730604451
 20
2.7984432559
 11
4.730604451
 21
2.7283182559
  0
LINE
  5
266
100
AcDbEntity
  8
0
100
AcDbLine
 62
9
  6
CONTINUOUS
 10
5.3755302883
 20
3.8092351333
 11
4.8356786137
 21
3.8092351333
  0
LINE
  5
267
100
AcDbEntity
  8
0
100
AcDbLine
 62
9
  6
CONTINUOUS
 10
4.5397845807
 20
3.8367627093
 11
4.8228708534
 21
3.8367627085
  0
LINE
  5
268
100
AcDbEntity
  8
0
100
AcDbLine
 62
9
  6
CONTINUOUS
 10
5.3883380475
 20
3.8367627064
 11
5.6714243213
 21
3.8367627093
  0
LINE
  5
269
100
AcDbEntity
  8
0
100
AcDbLine
 62
9
  6
CONTINUOUS
 10
5.673663094
 20
3.847210315
 11
5.3936735483
 21
3.8472103118
  0
LINE
  5
26A
100
AcDbEntity
  8
0
100
AcDbLine
 62
9
  6
CONTINUOUS
 10
4.8175353528
 20
3.8472103137
 11
4.537545808
 21
3.847210315
  0
LINE
  5
26B
100
AcDbEntity
  8
0
100
AcDbLine
 62
9
  6
CONTINUOUS
 10
5.6896054334
 20
3.8729625445
 11
5.4078945872
 21
3.8729625368
  0
LINE
  5
26C
100
AcDbEntity
  8
0
100
AcDbLine
 62
9
  6
CONTINUOUS
 10
4.8033143127
 20
3.872962541
 11
4.5216034686
 21
3.8729625445
  0
LINE
  5
26D
100
AcDbEntity
  8
0
100
AcDbLine
 62
9
  6
CONTINUOUS
 10
5.6976190663
 20
3.8793538475
 11
5.4117213889
 21
3.8793538475
  0
LINE
  5
26E
100
AcDbEntity
  8
0
100
AcDbLine
 62
9
  6
CONTINUOUS
 10
4.7994875128
 20
3.8793538475
 11
4.5135898357
 21
3.8793538475
  0
LINE
  5
26F
100
AcDbEntity
  8
0
100
AcDbLine
 62
9
  6
CONTINUOUS
 10
4.485354451
 20
3.9379889117
 11
4.758663963
 21
3.9379889117
  0
LINE
  5
270
100
AcDbEntity
  8
0
100
AcDbLine
 62
9
  6
CONTINUOUS
 10
5.4525449379
 20
3.9379889114
 11
5.725854451
 21
3.9379889117
  0
LINE
  5
271
100
AcDbEntity
  8
ALL_ASSEMBLY_MEMBERS
100
AcDbLine
 62
7
  6
CONTINUOUS
 10
4.847979451
 20
3.7535682559
 11
4.847979451
 21
3.4843182559
  0
LINE
  5
272
100
AcDbEntity
  8
0
100
AcDbLine
 62
9
  6
CONTINUOUS
 10
4.6506922469
 20
4.0416338317
 11
5.5605166551
 21
4.0416338317
  0
LINE
  5
273
100
AcDbEntity
  8
0
100
AcDbLine
 62
9
  6
CONTINUOUS
 10
4.619979451
 20
4.102161871
 11
5.591229451
 21
4.102161871
  0
LINE
  5
274
100
AcDbEntity
  8
0
100
AcDbLine
 62
7
  6
CONTINUOUS
 10
4.966854451
 20
3.7910682559
 11
4.966854451
 21
3.7535682559
  0
LINE
  5
275
100
AcDbEntity
  8
ALL_ASSEMBLY_MEMBERS
100
AcDbLine
 62
7
  6
CONTINUOUS
 10
4.687479451
 20
3.3868182559
 11
4.709979451
 21
3.4460682559
  0
LINE
  5
276
100
AcDbEntity
  8
0
100
AcDbLine
 62
7
  6
CONTINUOUS
 10
5.613181951
 20
4.2651332166
 11
4.598026951
 21
4.2651332166
  0
LINE
  5
277
100
AcDbEntity
  8
0
100
AcDbLine
 62
7
  6
CONTINUOUS
 10
5.244354451
 20
3.7910682559
 11
5.244354451
 21
3.7535682559
  0
LINE
  5
278
100
AcDbEntity
  8
0
100
AcDbLine
 62
9
  6
CONTINUOUS
 10
5.725681951
 20
4.3776332166
 11
4.485526951
 21
4.3776332166
  0
LINE
  5
279
100
AcDbEntity
  8
ALL_ASSEMBLY_MEMBERS
100
AcDbLine
 62
7
  6
CONTINUOUS
 10
5.523729451
 20
3.3868182559
 11
5.501229451
 21
3.4460682559
  0
LINE
  5
27A
100
AcDbEntity
  8
ALL_ASSEMBLY_MEMBERS
100
AcDbLine
 62
7
  6
CONTINUOUS
 10
5.363229451
 20
3.7535682559
 11
5.363229451
 21
3.4843182559
  0
LINE
  5
27B
100
AcDbEntity
  8
ALL_ASSEMBLY_MEMBERS
100
AcDbLine
 62
7
  6
CONTINUOUS
 10
5.480604451
 20
2.7984432559
 11
5.480604451
 21
2.7283182559
  0
LINE
  5
27C
100
AcDbEntity
  8
ALL_ASSEMBLY_MEMBERS
100
AcDbLine
 62
7
  6
CONTINUOUS
 10
5.501229451
 20
2.9960682559
 11
5.501229451
 21
2.9426051831
  0
LINE
  5
27D
100
AcDbEntity
  8
ALL_ASSEMBLY_MEMBERS
100
AcDbLine
 62
7
  6
CONTINUOUS
 10
5.523729451
 20
3.3868182559
 11
5.523729451
 21
3.0793182559
  0
LINE
  5
27E
100
AcDbEntity
  8
ALL_FEATURES
100
AcDbLine
 62
7
  6
CONTINUOUS
 10
5.591229451
 20
4.102161871
 11
5.591229451
 21
4.2651332166
  0
LINE
  5
27F
100
AcDbEntity
  8
ALL_ASSEMBLY_MEMBERS
100
AcDbLine
 62
9
  6
CONTINUOUS
 10
5.6313522249
 20
3.0283182559
 11
5.6313522249
 21
2.8033182559
  0
LINE
  5
280
100
AcDbEntity
  8
0
100
AcDbLine
 62
7
  6
CONTINUOUS
 10
5.725681951
 20
5.2491332166
 11
5.725681951
 21
4.3776332166
  0
LINE
  5
281
100
AcDbEntity
  8
ALL_FEATURES
100
AcDbLine
 62
7
  6
CONTINUOUS
 10
5.725854451
 20
3.9379889117
 11
5.725854451
 21
4.3776332166
  0
LINE
  5
282
100
AcDbEntity
  8
ALL_ASSEMBLY_MEMBERS
100
AcDbLine
 62
9
  6
CONTINUOUS
 10
5.8019142761
 20
3.0693518105
 11
5.8019142761
 21
2.7622847014
  0
LINE
  5
283
100
AcDbEntity
  8
0
100
AcDbLine
 62
7
  6
CONTINUOUS
 10
5.673663094
 20
3.847210315
 11
5.6714243213
 21
3.8367627093
  0
LINE
  5
284
100
AcDbEntity
  8
0
100
AcDbLine
 62
7
  6
CONTINUOUS
 10
5.6976190663
 20
3.8793538475
 11
5.6896054334
 21
3.8729625445
  0
LINE
  5
285
100
AcDbEntity
  8
ALL_ASSEMBLY_MEMBERS
100
AcDbLine
 62
7
  6
CONTINUOUS
 10
4.827729451
 20
3.4843182559
 11
4.709979451
 21
3.4460682559
  0
LINE
  5
286
100
AcDbEntity
  8
0
100
AcDbLine
 62
7
  6
CONTINUOUS
 10
4.2569942806
 20
5.1590262809
 11
4.2570321723
 21
5.1590187153
  0
LINE
  5
287
100
AcDbEntity
  8
ALL_ASSEMBLY_MEMBERS
100
AcDbLine
 62
9
  6
CONTINUOUS
 10
5.8724463047
 20
2.7381487996
 11
5.8724463047
 21
3.0934877122
  0
LINE
  5
288
100
AcDbEntity
  8
ALL_ASSEMBLY_MEMBERS
100
AcDbLine
 62
7
  6
CONTINUOUS
 10
5.5024986874
 20
3.0193182559
 11
5.523729451
 21
3.0793182559
  0
LINE
  5
289
100
AcDbEntity
  8
0
100
AcDbLine
 62
7
  6
CONTINUOUS
 10
5.818104451
 20
5.1553832166
 11
5.8277927603
 21
5.1555948177
  0
LINE
  5
28A
100
AcDbEntity
  8
0
100
AcDbLine
 62
7
  6
CONTINUOUS
 10
5.9929851616
 20
5.1592027641
 11
6.058479451
 21
5.1606332166
  0
LINE
  5
28B
100
AcDbEntity
  8
0
100
AcDbLine
 62
7
  6
CONTINUOUS
 10
4.485526951
 20
5.1553832166
 11
4.393104451
 21
5.1553832166
  0
LINE
  5
28C
100
AcDbEntity
  8
0
100
AcDbLine
 62
7
  6
CONTINUOUS
 10
5.725681951
 20
5.1553832166
 11
5.818104451
 21
5.1553832166
  0
LINE
  5
28D
100
AcDbEntity
  8
0
100
AcDbLine
 62
7
  6
CONTINUOUS
 10
4.485526951
 20
5.1606332166
 11
4.152729451
 21
5.1606332166
  0
LINE
  5
28E
100
AcDbEntity
  8
0
100
AcDbLine
 62
7
  6
CONTINUOUS
 10
5.725681951
 20
5.1606332166
 11
6.058479451
 21
5.1606332166
  0
LINE
  5
28F
100
AcDbEntity
  8
0
100
AcDbLine
 62
7
  6
CONTINUOUS
 10
4.485526951
 20
5.1891332166
 11
4.092757059
 21
5.1891332166
  0
LINE
  5
290
100
AcDbEntity
  8
0
100
AcDbLine
 62
7
  6
CONTINUOUS
 10
5.725681951
 20
5.1891332166
 11
6.118451843
 21
5.1891332166
  0
LINE
  5
291
100
AcDbEntity
  8
0
100
AcDbLine
 62
7
  6
CONTINUOUS
 10
4.2233487695
 20
5.1592885564
 11
4.223386664
 21
5.1592840749
  0
LINE
  5
292
100
AcDbEntity
  8
0
100
AcDbLine
 62
7
  6
CONTINUOUS
 10
6.058479451
 20
5.1606332166
 11
6.058479451
 21
5.1891332166
  0
LINE
  5
293
100
AcDbEntity
  8
ALL_ASSEMBLY_MEMBERS
100
AcDbLine
 62
9
  6
CONTINUOUS
 10
6.0818523414
 20
2.7381487996
 11
6.0818523414
 21
3.0934877122
  0
LINE
  5
294
100
AcDbEntity
  8
0
100
AcDbLine
 62
7
  6
CONTINUOUS
 10
6.118479451
 20
5.1891332166
 11
6.118479451
 21
5.2491332166
  0
LINE
  5
295
100
AcDbEntity
  8
ALL_ASSEMBLY_MEMBERS
100
AcDbLine
 62
7
  6
CONTINUOUS
 10
4.729479451
 20
3.0073182559
 11
4.709979451
 21
2.9960682559
  0
LINE
  5
296
100
AcDbEntity
  8
ALL_FEATURES
100
AcDbLine
 62
7
  6
CONTINUOUS
 10
7.074354451
 20
5.2491332166
 11
3.136854451
 21
5.2491332166
  0
LINE
  5
297
100
AcDbEntity
  8
ALL_FEATURES
100
AcDbLine
 62
7
  6
CONTINUOUS
 10
7.168104451
 20
5.2963832166
 11
3.043104451
 21
5.2963832166
  0
LINE
  5
298
100
AcDbEntity
  8
ALL_ASSEMBLY_MEMBERS
100
AcDbLine
 62
9
  6
CONTINUOUS
 10
6.2407179692
 20
2.8355752993
 11
6.2407179692
 21
2.9960612126
  0
LINE
  5
299
100
AcDbEntity
  8
ALL_ASSEMBLY_MEMBERS
100
AcDbLine
 62
7
  6
CONTINUOUS
 10
5.501229451
 20
2.9426051831
 11
5.4845647669
 21
2.925940499
  0
LINE
  5
29A
100
AcDbEntity
  8
0
100
AcDbLine
 62
7
  6
CONTINUOUS
 10
3.043104451
 20
5.4838832166
 11
7.168104451
 21
5.4838832166
  0
LINE
  5
29B
100
AcDbEntity
  8
ALL_FEATURES
100
AcDbLine
 62
9
  6
CONTINUOUS
 10
6.478104451
 20
5.2963832166
 11
6.478104451
 21
5.2491332166
  0
LINE
  5
29C
100
AcDbEntity
  8
0
100
AcDbLine
 62
9
  6
CONTINUOUS
 10
6.478104451
 20
5.2963832166
 11
6.478104451
 21
5.4838832166
  0
LINE
  5
29D
100
AcDbEntity
  8
ALL_ASSEMBLY_MEMBERS
100
AcDbLine
 62
7
  6
CONTINUOUS
 10
5.5024986874
 20
3.0193182559
 11
5.481729451
 21
3.0073182559
  0
LINE
  5
29E
100
AcDbEntity
  8
ALL_FEATURES
100
AcDbLine
 62
7
  6
CONTINUOUS
 10
6.699354451
 20
5.2963832166
 11
6.699354451
 21
5.2491332166
  0
LINE
  5
29F
100
AcDbEntity
  8
ALL_ASSEMBLY_MEMBERS
100
AcDbLine
 62
7
  6
CONTINUOUS
 10
5.4845647669
 20
2.925940499
 11
5.4464869181
 21
2.9135682559
  0
LINE
  5
2A0
100
AcDbEntity
  8
0
100
AcDbLine
 62
7
  6
CONTINUOUS
 10
6.793104451
 20
5.2963832166
 11
6.793104451
 21
5.4838832166
  0
LINE
  5
2A1
100
AcDbEntity
  8
ALL_FEATURES
100
AcDbLine
 62
9
  6
CONTINUOUS
 10
6.823104451
 20
5.2963832166
 11
6.823104451
 21
5.2491332166
  0
LINE
  5
2A2
100
AcDbEntity
  8
0
100
AcDbLine
 62
9
  6
CONTINUOUS
 10
6.823104451
 20
5.2963832166
 11
6.823104451
 21
5.4838832166
  0
LINE
  5
2A3
100
AcDbEntity
  8
ALL_FEATURES
100
AcDbLine
 62
9
  6
CONTINUOUS
 10
6.853104451
 20
5.2963832166
 11
6.853104451
 21
5.2491332166
  0
LINE
  5
2A4
100
AcDbEntity
  8
0
100
AcDbLine
 62
9
  6
CONTINUOUS
 10
6.853104451
 20
5.2963832166
 11
6.853104451
 21
5.4838832166
  0
LINE
  5
2A5
100
AcDbEntity
  8
ALL_FEATURES
100
AcDbLine
 62
7
  6
CONTINUOUS
 10
7.074354451
 20
5.2963832166
 11
7.074354451
 21
5.2491332166
  0
LINE
  5
2A6
100
AcDbEntity
  8
0
100
AcDbLine
 62
7
  6
CONTINUOUS
 10
7.168104451
 20
5.2963832166
 11
7.168104451
 21
5.4838832166
  0
ARC
  5
2A7
100
AcDbEntity
  8
0
100
AcDbCircle
 62
7
  6
CONTINUOUS
 10
4.2547741298
 20
-0.3532391805
 40
5.5122506667
100
AcDbArc
 50
88.8381976856
 51
89.1108694697
  0
ARC
  5
2A8
100
AcDbEntity
  8
0
100
AcDbCircle
 62
7
  6
CONTINUOUS
 10
4.2860262821
 20
0.8299521978
 40
4.3284761599
100
AcDbArc
 50
88.697336761
 51
88.8466124559
  0
ARC
  5
2A9
100
AcDbEntity
  8
0
100
AcDbCircle
 62
7
  6
CONTINUOUS
 10
4.2893733124
 20
0.9970984352
 40
4.1612965507
100
AcDbArc
 50
88.9985440706
 51
89.1474615936
  0
ARC
  5
2AA
100
AcDbEntity
  8
0
100
AcDbCircle
 62
7
  6
CONTINUOUS
 10
4.2900677687
 20
1.0367014597
 40
4.1216874379
100
AcDbArc
 50
88.8449304483
 51
88.9985743186
  0
ARC
  5
2AB
100
AcDbEntity
  8
0
100
AcDbCircle
 62
7
  6
CONTINUOUS
 10
4.3053909385
 20
1.6879897753
 40
3.4702603086
100
AcDbArc
 50
89.5549315376
 51
89.6931911843
  0
ARC
  5
2AC
100
AcDbEntity
  8
0
100
AcDbCircle
 62
7
  6
CONTINUOUS
 10
4.2936182107
 20
2.1902164052
 40
2.9684979976
100
AcDbArc
 50
89.1996615502
 51
89.3761360011
  0
ARC
  5
2AD
100
AcDbEntity
  8
0
100
AcDbCircle
 62
7
  6
CONTINUOUS
 10
4.3189783532
 20
2.3112642088
 40
2.8469725367
100
AcDbArc
 50
88.3502067698
 51
88.5911820287
  0
ARC
  5
2AE
100
AcDbEntity
  8
0
100
AcDbCircle
 62
7
  6
CONTINUOUS
 10
4.312530801
 20
2.529452596
 40
2.6287674828
100
AcDbArc
 50
89.1551978847
 51
89.5680809875
  0
ARC
  5
2AF
100
AcDbEntity
  8
0
100
AcDbCircle
 62
7
  6
CONTINUOUS
 10
4.3267634599
 20
2.53397816
 40
2.6239632331
100
AcDbArc
 50
88.4788509668
 51
88.6468372081
  0
ARC
  5
2B0
100
AcDbEntity
  8
0
100
AcDbCircle
 62
7
  6
CONTINUOUS
 10
4.2975120933
 20
2.5692332462
 40
2.5894612372
100
AcDbArc
 50
89.370976444
 51
89.6489963035
  0
ARC
  5
2B1
100
AcDbEntity
  8
0
100
AcDbCircle
 62
7
  6
CONTINUOUS
 10
4.2994328555
 20
2.8885038383
 40
2.2701848696
100
AcDbArc
 50
89.6481087306
 51
89.8373075771
  0
ARC
  5
2B2
100
AcDbEntity
  8
0
100
AcDbCircle
 62
7
  6
CONTINUOUS
 10
4.3584362801
 20
3.7142470715
 40
1.443269508
100
AcDbArc
 50
88.2359843001
 51
88.4919638288
  0
ARC
  5
2B3
100
AcDbEntity
  8
0
100
AcDbCircle
 62
7
  6
CONTINUOUS
 10
4.3620507275
 20
3.8127550998
 40
1.3448639982
100
AcDbArc
 50
87.9595493771
 51
88.3427971334
  0
ARC
  5
2B4
100
AcDbEntity
  8
0
100
AcDbCircle
 62
7
  6
CONTINUOUS
 10
4.3783029566
 20
4.357544954
 40
0.7996649361
100
AcDbArc
 50
88.0455032619
 51
88.2398971662
  0
ARC
  5
2B5
100
AcDbEntity
  8
0
100
AcDbCircle
 62
7
  6
CONTINUOUS
 10
4.3180953439
 20
3.5870682559
 40
0.56325
100
AcDbArc
 50
23.2308920706
 51
53.8077823306
  0
ARC
  5
2B6
100
AcDbEntity
  8
0
100
AcDbCircle
 62
7
  6
CONTINUOUS
 10
4.284354451
 20
3.3110196429
 40
0.56325
100
AcDbArc
 50
24.1181733655
 51
59.7371069019
  0
ARC
  5
2B7
100
AcDbEntity
  8
ALL_ASSEMBLY_MEMBERS
100
AcDbCircle
 62
7
  6
CONTINUOUS
 10
4.234059579
 20
3.2908182559
 40
0.5625
100
AcDbArc
 50
259.2724717156
 51
280.7275282844
  0
ARC
  5
2B8
100
AcDbEntity
  8
ALL_ASSEMBLY_MEMBERS
100
AcDbCircle
 62
7
  6
CONTINUOUS
 10
4.234059579
 20
2.5408182559
 40
0.5625
100
AcDbArc
 50
79.2724717156
 51
100.7275282844
  0
ARC
  5
2B9
100
AcDbEntity
  8
ALL_ASSEMBLY_MEMBERS
100
AcDbCircle
 62
7
  6
CONTINUOUS
 10
4.1782179692
 20
2.9960612126
 40
0.2625
100
AcDbArc
 50
217.6889842707
 51
259.2724717156
  0
ARC
  5
2BA
100
AcDbEntity
  8
ALL_ASSEMBLY_MEMBERS
100
AcDbCircle
 62
7
  6
CONTINUOUS
 10
4.2899011888
 20
2.9960612126
 40
0.2625
100
AcDbArc
 50
280.7275282844
 51
297.0541344527
  0
ARC
  5
2BB
100
AcDbEntity
  8
ALL_ASSEMBLY_MEMBERS
100
AcDbCircle
 62
7
  6
CONTINUOUS
 10
4.1782179692
 20
2.8355752993
 40
0.2625
100
AcDbArc
 50
100.7275282844
 51
142.3110157293
  0
ARC
  5
2BC
100
AcDbEntity
  8
ALL_ASSEMBLY_MEMBERS
100
AcDbCircle
 62
7
  6
CONTINUOUS
 10
4.2899011888
 20
2.8355752993
 40
0.2625
100
AcDbArc
 50
62.9458655473
 51
79.2724717156
  0
ARC
  5
2BD
100
AcDbEntity
  8
ALL_ASSEMBLY_MEMBERS
100
AcDbCircle
 62
7
  6
CONTINUOUS
 10
4.074354451
 20
2.9158182559
 40
0.13125
100
AcDbArc
 50
142.3110157293
 51
217.6889842707
  0
ARC
  5
2BE
100
AcDbEntity
  8
ALL_ASSEMBLY_MEMBERS
100
AcDbCircle
 62
7
  6
CONTINUOUS
 10
4.5593803654
 20
3.0545068943
 40
1.02
100
AcDbArc
 50
19.0137742001
 51
22.5744557109
  0
ARC
  5
2BF
100
AcDbEntity
  8
ALL_ASSEMBLY_MEMBERS
100
AcDbCircle
 62
7
  6
CONTINUOUS
 10
4.5520054174
 20
3.3894027647
 40
1.02
100
AcDbArc
 50
338.7260279914
 51
342.3017225173
  0
ARC
  5
2C0
100
AcDbEntity
  8
ALL_ASSEMBLY_MEMBERS
100
AcDbCircle
 62
7
  6
CONTINUOUS
 10
4.5798566771
 20
3.4033182559
 40
0.375
100
AcDbArc
 50
242.9458658975
 51
270.0
  0
ARC
  5
2C1
100
AcDbEntity
  8
ALL_ASSEMBLY_MEMBERS
100
AcDbCircle
 62
7
  6
CONTINUOUS
 10
4.5798566771
 20
2.4283182559
 40
0.375
100
AcDbArc
 50
90.0
 51
117.0541341025
  0
ARC
  5
2C2
100
AcDbEntity
  8
0
100
AcDbCircle
 62
7
  6
CONTINUOUS
 10
4.694979451
 20
4.102161871
 40
0.075
100
AcDbArc
 50
180.0
 51
233.8077823306
  0
ARC
  5
2C3
100
AcDbEntity
  8
0
100
AcDbCircle
 62
7
  6
CONTINUOUS
 10
4.560354451
 20
3.9379889117
 40
0.075
100
AcDbArc
 50
180.0
 51
231.4257570771
  0
ARC
  5
2C4
100
AcDbEntity
  8
0
100
AcDbCircle
 62
7
  6
CONTINUOUS
 10
4.5984527255
 20
3.8493344546
 40
0.06
100
AcDbArc
 50
192.094757077
 51
239.7371069019
  0
ARC
  5
2C5
100
AcDbEntity
  8
ALL_FEATURES
100
AcDbCircle
 62
7
  6
CONTINUOUS
 10
4.843104451
 20
3.572055279
 40
0.0562370231
100
AcDbArc
 50
236.128659452
 51
270.0
  0
ARC
  5
2C6
100
AcDbEntity
  8
0
100
AcDbCircle
 62
7
  6
CONTINUOUS
 10
4.4935446994
 20
3.837781506
 40
0.045
100
AcDbArc
 50
12.094757077
 51
51.425757077
  0
ARC
  5
2C7
100
AcDbEntity
  8
0
100
AcDbCircle
 62
7
  6
CONTINUOUS
 10
4.8326617484
 20
3.5564980942
 40
0.0375
100
AcDbArc
 50
204.1181733656
 51
236.1286594521
  0
ARC
  5
2C8
100
AcDbEntity
  8
0
100
AcDbCircle
 62
7
  6
CONTINUOUS
 10
4.8632462978
 20
3.8210682559
 40
0.03
100
AcDbArc
 50
203.2308920706
 51
270.0
  0
ARC
  5
2C9
100
AcDbEntity
  8
ALL_ASSEMBLY_MEMBERS
100
AcDbCircle
 62
7
  6
CONTINUOUS
 10
4.814979451
 20
2.7322185162
 40
0.0225
100
AcDbArc
 50
189.9840981124
 51
255.2369687319
  0
ARC
  5
2CA
100
AcDbEntity
  8
ALL_ASSEMBLY_MEMBERS
100
AcDbCircle
 62
7
  6
CONTINUOUS
 10
4.814979451
 20
2.9137185162
 40
0.0225
100
AcDbArc
 50
180.3827710258
 51
255.2369687319
  0
ARC
  5
2CB
100
AcDbEntity
  8
0
100
AcDbCircle
 62
7
  6
CONTINUOUS
 10
4.2513890999
 20
9.1624057133
 40
4.0029769181
100
AcDbArc
 50
270.3132041652
 51
270.5724981095
  0
ARC
  5
2CC
100
AcDbEntity
  8
0
100
AcDbCircle
 62
7
  6
CONTINUOUS
 10
4.4479862396
 20
8.6794631202
 40
3.5237015336
100
AcDbArc
 50
268.7036636598
 51
268.8451901511
  0
ARC
  5
2CD
100
AcDbEntity
  8
0
100
AcDbCircle
 62
7
  6
CONTINUOUS
 10
4.3854676045
 20
4.4823615862
 40
0.674848431
100
AcDbArc
 50
87.7232976725
 51
87.8830364256
  0
ARC
  5
2CE
100
AcDbEntity
  8
0
100
AcDbCircle
 62
7
  6
CONTINUOUS
 10
4.3880648989
 20
4.6424700777
 40
0.5145726364
100
AcDbArc
 50
87.896649356
 51
88.0498087192
  0
ARC
  5
2CF
100
AcDbEntity
  8
0
100
AcDbCircle
 62
7
  6
CONTINUOUS
 10
4.3894370861
 20
5.6489671896
 40
0.4926395561
100
AcDbArc
 50
269.0520255252
 51
269.7963779377
  0
ARC
  5
2D0
100
AcDbEntity
  8
ALL_ASSEMBLY_MEMBERS
100
AcDbCircle
 62
7
  6
CONTINUOUS
 10
5.105604451
 20
3.8350707675
 40
1.1630025116
100
AcDbArc
 50
255.2369687319
 51
284.7630312681
  0
ARC
  5
2D1
100
AcDbEntity
  8
ALL_ASSEMBLY_MEMBERS
100
AcDbCircle
 62
7
  6
CONTINUOUS
 10
5.105604451
 20
4.0165707675
 40
1.1630025116
100
AcDbArc
 50
255.2369687319
 51
284.7630312681
  0
ARC
  5
2D2
100
AcDbEntity
  8
ALL_ASSEMBLY_MEMBERS
100
AcDbCircle
 62
7
  6
CONTINUOUS
 10
5.105604451
 20
2.9158182559
 40
0.1875
100
AcDbArc
 50
194.8354885423
 51
345.1645114577
  0
CIRCLE
  5
2D3
100
AcDbEntity
  8
ALL_ASSEMBLY_MEMBERS
100
AcDbCircle
 62
7
  6
CONTINUOUS
 10
5.105604451
 20
3.2330682559
 40
0.1875
  0
ARC
  5
2D4
100
AcDbEntity
  8
ALL_ASSEMBLY_MEMBERS
100
AcDbCircle
 62
9
  6
CONTINUOUS
 10
5.105604451
 20
2.9158182559
 40
0.1776694563
100
AcDbArc
 50
196.2278607252
 51
343.7721392748
  0
ARC
  5
2D5
100
AcDbEntity
  8
ALL_ASSEMBLY_MEMBERS
100
AcDbCircle
 62
9
  6
CONTINUOUS
 10
5.105604451
 20
2.9158182559
 40
0.0802429566
100
AcDbArc
 50
229.5946664277
 51
310.4053335723
  0
ARC
  5
2D6
100
AcDbEntity
  8
0
100
AcDbCircle
 62
7
  6
CONTINUOUS
 10
5.516229451
 20
4.102161871
 40
0.075
100
AcDbArc
 50
306.1922176694
 51
360.0
  0
ARC
  5
2D7
100
AcDbEntity
  8
0
100
AcDbCircle
 62
7
  6
CONTINUOUS
 10
5.6131863119
 20
4.334500695
 40
0.0693674786
100
AcDbArc
 50
269.9963980156
 51
274.1689072229
  0
ARC
  5
2D8
100
AcDbEntity
  8
0
100
AcDbCircle
 62
7
  6
CONTINUOUS
 10
5.6131886521
 20
4.3344363422
 40
0.069303126
100
AcDbArc
 50
269.9944599293
 51
274.1708453092
  0
ARC
  5
2D9
100
AcDbEntity
  8
0
100
AcDbCircle
 62
7
  6
CONTINUOUS
 10
5.6127561765
 20
3.8493344546
 40
0.06
100
AcDbArc
 50
300.2628930981
 51
347.905242923
  0
ARC
  5
2DA
100
AcDbEntity
  8
ALL_FEATURES
100
AcDbCircle
 62
7
  6
CONTINUOUS
 10
5.368104451
 20
3.572055279
 40
0.0562370231
100
AcDbArc
 50
270.0
 51
303.871340548
  0
ARC
  5
2DB
100
AcDbEntity
  8
0
100
AcDbCircle
 62
7
  6
CONTINUOUS
 10
5.3785471535
 20
3.5564980942
 40
0.0375
100
AcDbArc
 50
303.871340548
 51
335.8818266344
  0
ARC
  5
2DC
100
AcDbEntity
  8
0
100
AcDbCircle
 62
7
  6
CONTINUOUS
 10
5.3479626042
 20
3.8210682559
 40
0.03
100
AcDbArc
 50
270.0
 51
336.7691079294
  0
ARC
  5
2DD
100
AcDbEntity
  8
ALL_ASSEMBLY_MEMBERS
100
AcDbCircle
 62
7
  6
CONTINUOUS
 10
5.396229451
 20
2.7322185162
 40
0.0225
100
AcDbArc
 50
284.7630312681
 51
350.0159018876
  0
ARC
  5
2DE
100
AcDbEntity
  8
ALL_ASSEMBLY_MEMBERS
100
AcDbCircle
 62
7
  6
CONTINUOUS
 10
5.396229451
 20
2.9137185162
 40
0.0225
100
AcDbArc
 50
284.7630312681
 51
359.6172289742
  0
ARC
  5
2DF
100
AcDbEntity
  8
0
100
AcDbCircle
 62
7
  6
CONTINUOUS
 10
5.9459929394
 20
-0.4348701031
 40
5.5931966136
100
AcDbArc
 50
90.7207102464
 51
90.8884286318
  0
ARC
  5
2E0
100
AcDbEntity
  8
0
100
AcDbCircle
 62
7
  6
CONTINUOUS
 10
6.007302332
 20
0.836384411
 40
4.323555693
100
AcDbArc
 50
91.119733813
 51
91.2846436402
  0
ARC
  5
2E1
100
AcDbEntity
  8
0
100
AcDbCircle
 62
7
  6
CONTINUOUS
 10
5.9292354105
 20
0.8539686506
 40
4.3042596149
100
AcDbArc
 50
91.1294499749
 51
91.2816820616
  0
ARC
  5
2E2
100
AcDbEntity
  8
0
100
AcDbCircle
 62
7
  6
CONTINUOUS
 10
5.9305417813
 20
1.0171028058
 40
4.1410432966
100
AcDbArc
 50
90.9455660063
 51
91.1219513709
  0
ARC
  5
2E3
100
AcDbEntity
  8
0
100
AcDbCircle
 62
7
  6
CONTINUOUS
 10
5.9235733345
 20
1.379780894
 40
3.7782982964
100
AcDbArc
 50
91.1239880369
 51
91.2438977598
  0
ARC
  5
2E4
100
AcDbEntity
  8
0
100
AcDbCircle
 62
7
  6
CONTINUOUS
 10
5.9183939483
 20
1.3905362373
 40
3.767582586
100
AcDbArc
 50
91.0100768817
 51
91.1254520951
  0
ARC
  5
2E5
100
AcDbEntity
  8
0
100
AcDbCircle
 62
7
  6
CONTINUOUS
 10
5.895317969
 20
2.6200385518
 40
2.537718933
100
AcDbArc
 50
91.2731025471
 51
91.5780278888
  0
ARC
  5
2E6
100
AcDbEntity
  8
0
100
AcDbCircle
 62
7
  6
CONTINUOUS
 10
5.9608215687
 20
2.8051249298
 40
2.3542669504
100
AcDbArc
 50
91.2995696912
 51
91.6087728001
  0
ARC
  5
2E7
100
AcDbEntity
  8
0
100
AcDbCircle
 62
7
  6
CONTINUOUS
 10
5.973311601
 20
2.8964890738
 40
2.2631677566
100
AcDbArc
 50
90.7219976219
 51
90.8975565724
  0
ARC
  5
2E8
100
AcDbEntity
  8
0
100
AcDbCircle
 62
7
  6
CONTINUOUS
 10
5.9727609658
 20
2.9206201122
 40
2.2389218383
100
AcDbArc
 50
90.8873210506
 51
91.3013202554
  0
ARC
  5
2E9
100
AcDbEntity
  8
0
100
AcDbCircle
 62
7
  6
CONTINUOUS
 10
5.9629772504
 20
3.3272983513
 40
1.8321263764
100
AcDbArc
 50
91.2842647229
 51
91.6153136489
  0
ARC
  5
2EA
100
AcDbEntity
  8
0
100
AcDbCircle
 62
7
  6
CONTINUOUS
 10
5.9340469254
 20
3.8157558366
 40
1.3432836797
100
AcDbArc
 50
91.6774050154
 51
92.1459877139
  0
ARC
  5
2EB
100
AcDbEntity
  8
0
100
AcDbCircle
 62
7
  6
CONTINUOUS
 10
5.9611092781
 20
3.8482962338
 40
1.3112824211
100
AcDbArc
 50
90.514302948
 51
90.7129211843
  0
ARC
  5
2EC
100
AcDbEntity
  8
0
100
AcDbCircle
 62
7
  6
CONTINUOUS
 10
5.9453570727
 20
3.9575856938
 40
1.2015925841
100
AcDbArc
 50
91.7317314345
 51
92.0163923709
  0
ARC
  5
2ED
100
AcDbEntity
  8
0
100
AcDbCircle
 62
7
  6
CONTINUOUS
 10
5.8566370411
 20
4.0611832888
 40
1.0960560194
100
AcDbArc
 50
91.6313697766
 51
91.7685612841
  0
ARC
  5
2EE
100
AcDbEntity
  8
ALL_ASSEMBLY_MEMBERS
100
AcDbCircle
 62
7
  6
CONTINUOUS
 10
5.6518285366
 20
3.0545068943
 40
1.02
100
AcDbArc
 50
157.4255442891
 51
160.9862257999
  0
ARC
  5
2EF
100
AcDbEntity
  8
ALL_ASSEMBLY_MEMBERS
100
AcDbCircle
 62
7
  6
CONTINUOUS
 10
5.6592034846
 20
3.3894027647
 40
1.02
100
AcDbArc
 50
197.6982774827
 51
201.2739720086
  0
ARC
  5
2F0
100
AcDbEntity
  8
0
100
AcDbCircle
 62
7
  6
CONTINUOUS
 10
5.9352790024
 20
4.2478806613
 40
0.9111227769
100
AcDbArc
 50
92.0253421939
 51
92.3266155735
  0
ARC
  5
2F1
100
AcDbEntity
  8
0
100
AcDbCircle
 62
7
  6
CONTINUOUS
 10
5.8931135581
 20
3.5870682559
 40
0.56325
100
AcDbArc
 50
126.1922176694
 51
156.7691079294
  0
ARC
  5
2F2
100
AcDbEntity
  8
0
100
AcDbCircle
 62
7
  6
CONTINUOUS
 10
5.926854451
 20
3.3110196429
 40
0.56325
100
AcDbArc
 50
120.2628930981
 51
155.8818266345
  0
ARC
  5
2F3
100
AcDbEntity
  8
ALL_ASSEMBLY_MEMBERS
100
AcDbCircle
 62
7
  6
CONTINUOUS
 10
5.977149323
 20
3.2908182559
 40
0.5625
100
AcDbArc
 50
259.2724717156
 51
280.7275282844
  0
ARC
  5
2F4
100
AcDbEntity
  8
ALL_ASSEMBLY_MEMBERS
100
AcDbCircle
 62
7
  6
CONTINUOUS
 10
5.977149323
 20
2.5408182559
 40
0.5625
100
AcDbArc
 50
79.2724717156
 51
100.7275282844
  0
ARC
  5
2F5
100
AcDbEntity
  8
ALL_ASSEMBLY_MEMBERS
100
AcDbCircle
 62
7
  6
CONTINUOUS
 10
5.6313522249
 20
3.4033182559
 40
0.375
100
AcDbArc
 50
270.0
 51
297.0541341025
  0
ARC
  5
2F6
100
AcDbEntity
  8
ALL_ASSEMBLY_MEMBERS
100
AcDbCircle
 62
7
  6
CONTINUOUS
 10
5.6313522249
 20
2.4283182559
 40
0.375
100
AcDbArc
 50
62.9458658975
 51
90.0
  0
ARC
  5
2F7
100
AcDbEntity
  8
ALL_ASSEMBLY_MEMBERS
100
AcDbCircle
 62
7
  6
CONTINUOUS
 10
6.0329909328
 20
2.9960612126
 40
0.2625
100
AcDbArc
 50
280.7275282844
 51
322.3110157293
  0
ARC
  5
2F8
100
AcDbEntity
  8
ALL_ASSEMBLY_MEMBERS
100
AcDbCircle
 62
7
  6
CONTINUOUS
 10
5.9213077132
 20
2.9960612126
 40
0.2625
100
AcDbArc
 50
242.9458655473
 51
259.2724717156
  0
ARC
  5
2F9
100
AcDbEntity
  8
ALL_ASSEMBLY_MEMBERS
100
AcDbCircle
 62
7
  6
CONTINUOUS
 10
6.0329909328
 20
2.8355752993
 40
0.2625
100
AcDbArc
 50
37.6889842707
 51
79.2724717156
  0
ARC
  5
2FA
100
AcDbEntity
  8
ALL_ASSEMBLY_MEMBERS
100
AcDbCircle
 62
7
  6
CONTINUOUS
 10
5.9213077132
 20
2.8355752993
 40
0.2625
100
AcDbArc
 50
100.7275282844
 51
117.0541344527
  0
ARC
  5
2FB
100
AcDbEntity
  8
ALL_ASSEMBLY_MEMBERS
100
AcDbCircle
 62
7
  6
CONTINUOUS
 10
6.136854451
 20
2.9158182559
 40
0.13125
100
AcDbArc
 50
322.3110157293
 51
37.6889842707
  0
ARC
  5
2FC
100
AcDbEntity
  8
0
100
AcDbCircle
 62
7
  6
CONTINUOUS
 10
5.650854451
 20
3.9379889117
 40
0.075
100
AcDbArc
 50
308.5742429229
 51
360.0
  0
ARC
  5
2FD
100
AcDbEntity
  8
0
100
AcDbCircle
 62
7
  6
CONTINUOUS
 10
5.7176642026
 20
3.837781506
 40
0.045
100
AcDbArc
 50
128.574242923
 51
167.905242923
  0
ARC
  5
2FE
100
AcDbEntity
  8
0
100
AcDbCircle
 62
7
  6
CONTINUOUS
 10
5.9727724948
 20
7.922079816
 40
2.7626500093
100
AcDbArc
 50
270.104477605
 51
270.3142560795
  0
ARC
  5
2FF
100
AcDbEntity
  8
0
100
AcDbCircle
 62
7
  6
CONTINUOUS
 10
5.8456953534
 20
6.3282816172
 40
1.1712097921
100
AcDbArc
 50
271.6201778201
 51
272.0543221143
  0
ARC
  5
300
100
AcDbEntity
  8
0
100
AcDbCircle
 62
7
  6
CONTINUOUS
 10
5.8586898336
 20
5.9725925293
 40
0.8152831864
100
AcDbArc
 50
272.1264979584
 51
272.4450590244
  0
ARC
  5
301
100
AcDbEntity
  8
0
100
AcDbCircle
 62
7
  6
CONTINUOUS
 10
5.8451362398
 20
4.4348357737
 40
0.7222265852
100
AcDbArc
 50
91.7714535959
 51
91.9543800606
  0
ARC
  5
302
100
AcDbEntity
  8
0
100
AcDbCircle
 62
7
  6
CONTINUOUS
 10
5.9322617544
 20
5.8104146463
 40
0.6515073441
100
AcDbArc
 50
271.4980655407
 51
272.0198471724
  0
ARC
  5
303
100
AcDbEntity
  8
0
100
AcDbCircle
 62
7
  6
CONTINUOUS
 10
5.8211303471
 20
4.889032453
 40
0.2677081715
100
AcDbArc
 50
92.2181604395
 51
92.5138529005
  0
ARC
  5
304
100
AcDbEntity
  8
0
100
AcDbCircle
 62
7
  6
CONTINUOUS
 10
5.94676459
 20
5.3966666736
 40
0.2375052964
100
AcDbArc
 50
272.0413186863
 51
272.257908356
  0
ARC
  5
305
100
AcDbEntity
  8
0
100
AcDbCircle
 62
7
  6
CONTINUOUS
 10
5.9546465586
 20
4.9494059186
 40
0.2101451701
100
AcDbArc
 50
89.6132850329
 51
89.7855698813
  0
ARC
  5
306
100
AcDbEntity
  8
0
100
AcDbCircle
 62
7
  6
CONTINUOUS
 10
5.9550669372
 20
5.0099929356
 40
0.1495566962
100
AcDbArc
 50
89.2753084995
 51
89.6176689343
  0
ARC
  5
307
100
AcDbEntity
  8
0
100
AcDbCircle
 62
7
  6
CONTINUOUS
 10
5.8183018465
 20
5.2729470474
 40
0.1165525799
100
AcDbArc
 50
269.5841571944
 51
270.22948103
  0
ARC
  5
308
100
AcDbEntity
  8
0
100
AcDbCircle
 62
7
  6
CONTINUOUS
 10
5.6563144725
 20
4.3776288557
 40
0.0693674786
100
AcDbArc
 50
355.8310920192
 51
0.0036019849
  0
ARC
  5
309
100
AcDbEntity
  8
0
100
AcDbCircle
 62
7
  6
CONTINUOUS
 10
5.6563788253
 20
4.3776265155
 40
0.069303126
100
AcDbArc
 50
355.8291539348
 51
0.0055400693
  0
ARC
  5
30A
100
AcDbEntity
  8
0
100
AcDbCircle
 62
7
  6
CONTINUOUS
 10
5.9480014029
 20
5.1095021563
 40
0.0498740477
100
AcDbArc
 50
89.0968792832
 51
89.6599520796
  0
SPLINE
  5
30B
100
AcDbEntity
  8
ALL_ASSEMBLY_MEMBERS
100
AcDbSpline
 62
7
  6
CONTINUOUS
 70
0
 71
3
 72
18
 73
14
 74
0
 42
0.0000001
 43
0.0000001
 44
0.0000000001
 40
0.0
 40
0.0
 40
0.0
 40
0.0
 40
0.0793294516
 40
0.1741583575
 40
0.29994442
 40
0.3728104576
 40
0.451409129
 40
0.5350131909
 40
0.622872262
 40
0.7141760928
 40
0.8080804673
 40
0.9036685994
 40
1.0
 40
1.0
 40
1.0
 40
1.0
 10
5.480604451
 20
2.7984432559
 30
0.0
 10
5.4796403033
 20
2.8015235047
 30
0.0
 10
5.4775921042
 20
2.8083073213
 30
0.0
 10
5.4743360012
 20
2.8200696269
 30
0.0
 10
5.4715050082
 20
2.8316726524
 30
0.0
 10
5.4691525391
 20
2.8427055454
 30
0.0
 10
5.4673740124
 20
2.8521036309
 30
0.0
 10
5.4657346159
 20
2.862145813
 30
0.0
 10
5.4643040759
 20
2.8727419856
 30
0.0
 10
5.4631398074
 20
2.8837924488
 30
0.0
 10
5.4622977924
 20
2.8951877082
 30
0.0
 10
5.4618111811
 20
2.9068084274
 30
0.0
 10
5.4617429975
 20
2.914618195
 30
0.0
 10
5.461772731
 20
2.9185373912
 30
0.0
  0
SPLINE
  5
30C
100
AcDbEntity
  8
ALL_ASSEMBLY_MEMBERS
100
AcDbSpline
 62
7
  6
CONTINUOUS
 70
0
 71
3
 72
18
 73
14
 74
0
 42
0.0000001
 43
0.0000001
 44
0.0000000001
 40
0.0
 40
0.0
 40
0.0
 40
0.0
 40
0.0963314006
 40
0.1919195322
 40
0.2858239072
 40
0.3771277389
 40
0.4649868103
 40
0.5485908705
 40
0.627189542
 40
0.700055582
 40
0.8258416441
 40
0.9206705497
 40
1.0
 40
1.0
 40
1.0
 40
1.0
 10
4.7494361711
 20
2.9185373873
 30
0.0
 10
4.7494659045
 20
2.9146181911
 30
0.0
 10
4.7493977207
 20
2.9068084238
 30
0.0
 10
4.7489111095
 20
2.895187705
 30
0.0
 10
4.7480690943
 20
2.883792446
 30
0.0
 10
4.7469048258
 20
2.872741983
 30
0.0
 10
4.7454742858
 20
2.8621458108
 30
0.0
 10
4.7438348893
 20
2.8521036292
 30
0.0
 10
4.7420563626
 20
2.8427055439
 30
0.0
 10
4.7397038935
 20
2.8316726512
 30
0.0
 10
4.7368729006
 20
2.820069626
 30
0.0
 10
4.7336167977
 20
2.8083073208
 30
0.0
 10
4.7315685986
 20
2.8015235045
 30
0.0
 10
4.730604451
 20
2.7984432559
 30
0.0
  0
SPLINE
  5
30D
100
AcDbEntity
  8
0
100
AcDbSpline
 62
7
  6
CONTINUOUS
 70
0
 71
3
 72
35
 73
31
 74
0
 42
0.0000001
 43
0.0000001
 44
0.0000000001
 40
0.0
 40
0.0
 40
0.0
 40
0.0
 40
0.0198798482
 40
0.0389061
 40
0.0572349263
 40
0.0750085906
 40
0.1093037191
 40
0.1423092093
 40
0.1743589853
 40
0.2056530689
 40
0.2363464043
 40
0.2665723801
 40
0.3259971954
 40
0.3844687642
 40
0.4423690724
 40
0.5
 40
0.5576309276
 40
0.6155312358
 40
0.6740028046
 40
0.7334276199
 40
0.7636535957
 40
0.7943469311
 40
0.8256410147
 40
0.8576907907
 40
0.8906962809
 40
0.9249914094
 40
0.9427650737
 40
0.9610939
 40
0.9801201518
 40
1.0
 40
1.0
 40
1.0
 40
1.0
 10
4.598026951
 20
4.2651332166
 30
0.0
 10
4.5968829431
 20
4.2651332166
 30
0.0
 10
4.5946436286
 20
4.2651882224
 30
0.0
 10
4.5913576632
 20
4.2654293442
 30
0.0
 10
4.588206543
 20
4.2658055412
 30
0.0
 10
4.5842062791
 20
4.2664504224
 30
0.0
 10
4.5794161373
 20
4.2674811244
 30
0.0
 10
4.5739124861
 20
4.2690410984
 30
0.0
 10
4.5686670298
 20
4.2708455793
 30
0.0
 10
4.563647029
 20
4.2728726013
 30
0.0
 10
4.5588280029
 20
4.2750991863
 30
0.0
 10
4.5526761724
 20
4.2782833455
 30
0.0
 10
4.5453449983
 20
4.2826504493
 30
0.0
 10
4.5370642766
 20
4.2884768483
 30
0.0
 10
4.5292935268
 20
4.2948046097
 30
0.0
 10
4.5220113912
 20
4.3016176567
 30
0.0
 10
4.5151983441
 20
4.3088997924
 30
0.0
 10
4.5088705827
 20
4.3166705421
 30
0.0
 10
4.5030441837
 20
4.3249512639
 30
0.0
 10
4.4986770799
 20
4.3322824379
 30
0.0
 10
4.4954929207
 20
4.3384342684
 30
0.0
 10
4.4932663357
 20
4.3432532945
 30
0.0
 10
4.4912393137
 20
4.3482732954
 30
0.0
 10
4.4894348328
 20
4.3535187517
 30
0.0
 10
4.4878748589
 20
4.3590224028
 30
0.0
 10
4.4868441569
 20
4.3638125446
 30
0.0
 10
4.4861992757
 20
4.3678128085
 30
0.0
 10
4.4858230786
 20
4.3709639288
 30
0.0
 10
4.4855819568
 20
4.3742498942
 30
0.0
 10
4.485526951
 20
4.3764892086
 30
0.0
 10
4.485526951
 20
4.3776332166
 30
0.0
  0
SPLINE
  5
30E
100
AcDbEntity
  8
0
100
AcDbSpline
 62
7
  6
CONTINUOUS
 70
0
 71
3
 72
39
 73
35
 74
0
 42
0.0000001
 43
0.0000001
 44
0.0000000001
 40
0.0
 40
0.0
 40
0.0
 40
0.0
 40
0.0189207966
 40
0.0372305348
 40
0.0550542325
 40
0.0724822351
 40
0.1063471836
 40
0.1228752505
 40
0.1391807571
 40
0.171207758
 40
0.2025842549
 40
0.2334432417
 40
0.2638984405
 40
0.2940325334
 40
0.3239014194
 40
0.3830310758
 40
0.4416392352
 40
0.5000000007
 40
0.5583607662
 40
0.6169689255
 40
0.6760985819
 40
0.7059674678
 40
0.7361015607
 40
0.7665567595
 40
0.7974157462
 40
0.828792243
 40
0.8608192437
 40
0.8771247503
 40
0.8936528172
 40
0.9275177655
 40
0.944945768
 40
0.9627694655
 40
0.9810792036
 40
1.0
 40
1.0
 40
1.0
 40
1.0
 10
5.6182291176
 20
4.2653167576
 30
0.0
 10
5.6192515618
 20
4.2653912873
 30
0.0
 10
5.6212604585
 20
4.2655824461
 30
0.0
 10
5.6242162828
 20
4.2659888665
 30
0.0
 10
5.6270754091
 20
4.2664895671
 30
0.0
 10
5.6307416413
 20
4.2672553505
 30
0.0
 10
5.6343016955
 20
4.268176432
 30
0.0
 10
5.6377590485
 20
4.2692293315
 30
0.0
 10
5.6410934983
 20
4.2703401198
 30
0.0
 10
5.6451376341
 20
4.271861124
 30
0.0
 10
5.6498270341
 20
4.2738890362
 30
0.0
 10
5.6543435769
 20
4.2760886041
 30
0.0
 10
5.6587075768
 20
4.2784375548
 30
0.0
 10
5.6629344043
 20
4.2809208314
 30
0.0
 10
5.6683763938
 20
4.2843942655
 30
0.0
 10
5.6748841083
 20
4.2890548694
 30
0.0
 10
5.6822587907
 20
4.2951193717
 30
0.0
 10
5.6891903793
 20
4.3016247878
 30
0.0
 10
5.6956957954
 20
4.3085563763
 30
0.0
 10
5.7017602977
 20
4.3159310587
 30
0.0
 10
5.7064209017
 20
4.3224387732
 30
0.0
 10
5.7098943358
 20
4.3278807627
 30
0.0
 10
5.7123776124
 20
4.3321075901
 30
0.0
 10
5.7147265632
 20
4.33647159
 30
0.0
 10
5.716926131
 20
4.3409881327
 30
0.0
 10
5.7189540432
 20
4.3456775328
 30
0.0
 10
5.7204750475
 20
4.3497216685
 30
0.0
 10
5.7215858359
 20
4.3530561183
 30
0.0
 10
5.7226387353
 20
4.3565134713
 30
0.0
 10
5.7235598169
 20
4.3600735254
 30
0.0
 10
5.7243256003
 20
4.3637397577
 30
0.0
 10
5.7248263009
 20
4.3665988839
 30
0.0
 10
5.7252327214
 20
4.3695547082
 30
0.0
 10
5.7254238802
 20
4.3715636049
 30
0.0
 10
5.7254984099
 20
4.3725860491
 30
0.0
  0
LINE
  5
30F
100
AcDbEntity
  8
0
100
AcDbLine
 62
7
  6
CONTINUOUS
 10
5.8163242937
 20
5.1564378524
 11
5.8164627585
 21
5.1564186478
  0
LINE
  5
310
100
AcDbEntity
  8
0
100
AcDbLine
 62
7
  6
CONTINUOUS
 10
5.8164627585
 20
5.1564186478
 11
5.8168406549
 21
5.1564056826
  0
LINE
  5
311
100
AcDbEntity
  8
0
100
AcDbLine
 62
7
  6
CONTINUOUS
 10
5.8168406549
 20
5.1564056826
 11
5.8174559356
 21
5.1563975372
  0
LINE
  5
312
100
AcDbEntity
  8
0
100
AcDbLine
 62
7
  6
CONTINUOUS
 10
5.8068293133
 20
5.1563064649
 11
5.8093884165
 21
5.1564829945
  0
LINE
  5
313
100
AcDbEntity
  8
0
100
AcDbLine
 62
7
  6
CONTINUOUS
 10
5.855739971
 20
5.15759756
 11
5.8592682813
 21
5.1576541205
  0
LINE
  5
314
100
AcDbEntity
  8
0
100
AcDbLine
 62
7
  6
CONTINUOUS
 10
5.8756392791
 20
5.1578840235
 11
5.8778778653
 21
5.1579123783
  0
LINE
  5
315
100
AcDbEntity
  8
0
100
AcDbLine
 62
7
  6
CONTINUOUS
 10
5.8778778653
 20
5.1579123783
 11
5.8794225039
 21
5.1579316227
  0
LINE
  5
316
100
AcDbEntity
  8
0
100
AcDbLine
 62
7
  6
CONTINUOUS
 10
5.851978045
 20
5.1575333796
 11
5.855739971
 21
5.15759756
  0
LINE
  5
317
100
AcDbEntity
  8
0
100
AcDbLine
 62
7
  6
CONTINUOUS
 10
5.8107688274
 20
5.1565400304
 11
5.8234535449
 21
5.1569254138
  0
LINE
  5
318
100
AcDbEntity
  8
0
100
AcDbLine
 62
7
  6
CONTINUOUS
 10
5.8234535449
 20
5.1569254138
 11
5.8263945167
 21
5.1569986267
  0
LINE
  5
319
100
AcDbEntity
  8
0
100
AcDbLine
 62
7
  6
CONTINUOUS
 10
5.8263945167
 20
5.1569986267
 11
5.8295625281
 21
5.1570739364
  0
LINE
  5
31A
100
AcDbEntity
  8
0
100
AcDbLine
 62
7
  6
CONTINUOUS
 10
5.8295625281
 20
5.1570739364
 11
5.8329589953
 21
5.1571513896
  0
LINE
  5
31B
100
AcDbEntity
  8
0
100
AcDbLine
 62
7
  6
CONTINUOUS
 10
5.9569585176
 20
5.1595376691
 11
5.9582830649
 21
5.1594884469
  0
SPLINE
  5
31C
100
AcDbEntity
  8
0
100
AcDbSpline
 62
7
  6
CONTINUOUS
 70
0
 71
3
 72
9
 73
5
 74
0
 42
0.0000001
 43
0.0000001
 44
0.0000000001
 40
0.0
 40
0.0
 40
0.0
 40
0.0
 40
0.3879710723
 40
1.0
 40
1.0
 40
1.0
 40
1.0
 10
5.9582830649
 20
5.1594884469
 30
0.0
 10
5.958284989
 20
5.1594879156
 30
0.0
 10
5.9582894132
 20
5.1594864143
 30
0.0
 10
5.9582961757
 20
5.1594841694
 30
0.0
 10
5.9582963731
 20
5.1594810266
 30
0.0
  0
LINE
  5
31D
100
AcDbEntity
  8
0
100
AcDbLine
 62
7
  6
CONTINUOUS
 10
5.9493389983
 20
5.1595258279
 11
5.9554330275
 21
5.159549617
  0
LINE
  5
31E
100
AcDbEntity
  8
0
100
AcDbLine
 62
7
  6
CONTINUOUS
 10
5.9228122809
 20
5.1591144814
 11
5.9289422909
 21
5.1592293807
  0
LINE
  5
31F
100
AcDbEntity
  8
0
100
AcDbLine
 62
7
  6
CONTINUOUS
 10
5.9289422909
 20
5.1592293807
 11
5.9349218621
 21
5.1593321255
  0
LINE
  5
320
100
AcDbEntity
  8
0
100
AcDbLine
 62
7
  6
CONTINUOUS
 10
5.9349218621
 20
5.1593321255
 11
5.9378598097
 21
5.159379143
  0
LINE
  5
321
100
AcDbEntity
  8
0
100
AcDbLine
 62
7
  6
CONTINUOUS
 10
5.9074272058
 20
5.158786315
 11
5.9103708823
 21
5.1588533958
  0
LINE
  5
322
100
AcDbEntity
  8
0
100
AcDbLine
 62
7
  6
CONTINUOUS
 10
5.8794225039
 20
5.1579316227
 11
5.8830370849
 21
5.1580708397
  0
LINE
  5
323
100
AcDbEntity
  8
0
100
AcDbLine
 62
7
  6
CONTINUOUS
 10
5.8830370849
 20
5.1580708397
 11
5.8837466004
 21
5.1580974182
  0
LINE
  5
324
100
AcDbEntity
  8
0
100
AcDbLine
 62
7
  6
CONTINUOUS
 10
5.9879250107
 20
5.1594713611
 11
5.9929785895
 21
5.1595036712
  0
LINE
  5
325
100
AcDbEntity
  8
0
100
AcDbLine
 62
7
  6
CONTINUOUS
 10
5.957056718
 20
5.1590154505
 11
5.9583042599
 21
5.1590405799
  0
LINE
  5
326
100
AcDbEntity
  8
0
100
AcDbLine
 62
7
  6
CONTINUOUS
 10
5.9583042599
 20
5.1590405799
 11
5.9673901183
 21
5.1592238109
  0
LINE
  5
327
100
AcDbEntity
  8
0
100
AcDbLine
 62
7
  6
CONTINUOUS
 10
5.9673901183
 20
5.1592238109
 11
5.9778101241
 21
5.1594343997
  0
SPLINE
  5
328
100
AcDbEntity
  8
0
100
AcDbSpline
 62
7
  6
CONTINUOUS
 70
0
 71
3
 72
9
 73
5
 74
0
 42
0.0000001
 43
0.0000001
 44
0.0000000001
 40
0.0
 40
0.0
 40
0.0
 40
0.0
 40
0.7081424666
 40
1.0
 40
1.0
 40
1.0
 40
1.0
 10
5.9493156168
 20
5.1593357825
 30
0.0
 10
5.9493199695
 20
5.1593366951
 30
0.0
 10
5.9493250512
 20
5.1593379968
 30
0.0
 10
5.949332768
 20
5.1593408085
 30
0.0
 10
5.9493328537
 20
5.1593426395
 30
0.0
  0
LINE
  5
329
100
AcDbEntity
  8
0
100
AcDbLine
 62
7
  6
CONTINUOUS
 10
4.223386664
 20
5.1592840749
 11
4.2236505229
 21
5.1592489168
  0
LINE
  5
32A
100
AcDbEntity
  8
0
100
AcDbLine
 62
7
  6
CONTINUOUS
 10
4.2528653886
 20
5.1587273411
 11
4.232436254
 21
5.1591919188
  0
LINE
  5
32B
100
AcDbEntity
  8
0
100
AcDbLine
 62
7
  6
CONTINUOUS
 10
4.232436254
 20
5.1591919188
 11
4.223351273
 21
5.15939859
  0
LINE
  5
32C
100
AcDbEntity
  8
0
100
AcDbLine
 62
7
  6
CONTINUOUS
 10
4.223351273
 20
5.15939859
 11
4.2196947855
 21
5.1594817819
  0
LINE
  5
32D
100
AcDbEntity
  8
0
100
AcDbLine
 62
7
  6
CONTINUOUS
 10
4.2196947855
 20
5.1594817819
 11
4.2118211942
 21
5.1596609431
  0
LINE
  5
32E
100
AcDbEntity
  8
0
100
AcDbLine
 62
7
  6
CONTINUOUS
 10
4.2570322786
 20
5.159023843
 11
4.2572952991
 21
5.1589511812
  0
LINE
  5
32F
100
AcDbEntity
  8
0
100
AcDbLine
 62
7
  6
CONTINUOUS
 10
4.3663693482
 20
5.1567066801
 11
4.3682681055
 21
5.15666345
  0
LINE
  5
330
100
AcDbEntity
  8
0
100
AcDbLine
 62
7
  6
CONTINUOUS
 10
4.3769700187
 20
5.1564772852
 11
4.3799394169
 21
5.1564205258
  0
LINE
  5
331
100
AcDbEntity
  8
0
100
AcDbLine
 62
7
  6
CONTINUOUS
 10
4.3799394169
 20
5.1564205258
 11
4.3812866375
 21
5.1563968378
  0
LINE
  5
332
100
AcDbEntity
  8
0
100
AcDbLine
 62
7
  6
CONTINUOUS
 10
4.2454684631
 20
5.1594832129
 11
4.2533422926
 21
5.159302411
  0
LINE
  5
333
100
AcDbEntity
  8
0
100
AcDbLine
 62
7
  6
CONTINUOUS
 10
4.2533422926
 20
5.159302411
 11
4.2569986932
 21
5.1592184515
  0
LINE
  5
334
100
AcDbEntity
  8
0
100
AcDbLine
 62
7
  6
CONTINUOUS
 10
4.2569986932
 20
5.1592184515
 11
4.2657599262
 21
5.1590172734
  0
LINE
  5
335
100
AcDbEntity
  8
0
100
AcDbLine
 62
7
  6
CONTINUOUS
 10
4.3463605171
 20
5.1571665222
 11
4.3663693496
 21
5.1567070871
  0
LINE
  5
336
100
AcDbEntity
  8
0
100
AcDbLine
 62
7
  6
CONTINUOUS
 10
4.4092166089
 20
5.1564721029
 11
4.4102655329
 21
5.1564957852
  0
LINE
  5
337
100
AcDbEntity
  8
0
100
AcDbLine
 62
7
  6
CONTINUOUS
 10
4.4102655329
 20
5.1564957852
 11
4.4103763483
 21
5.1565134184
  0
LINE
  5
338
100
AcDbEntity
  8
0
100
AcDbLine
 62
7
  6
CONTINUOUS
 10
4.412276293
 20
5.1566773128
 11
4.4171061076
 21
5.1564404457
  0
LINE
  5
339
100
AcDbEntity
  8
0
100
AcDbLine
 62
7
  6
CONTINUOUS
 10
4.4171061076
 20
5.1564404457
 11
4.4177783212
 21
5.1563793764
  0
LINE
  5
33A
100
AcDbEntity
  8
0
100
AcDbLine
 62
7
  6
CONTINUOUS
 10
4.4177783212
 20
5.1563793764
 11
4.417984033
 21
5.1563303085
  0
LINE
  5
33B
100
AcDbEntity
  8
0
100
AcDbLine
 62
7
  6
CONTINUOUS
 10
4.3796888423
 20
5.1575956421
 11
4.3889741183
 21
5.1573761563
  0
LINE
  5
33C
100
AcDbEntity
  8
0
100
AcDbLine
 62
7
  6
CONTINUOUS
 10
4.4099346833
 20
5.1567663723
 11
4.4103962211
 21
5.1567494338
  0
LINE
  5
33D
100
AcDbEntity
  8
0
100
AcDbLine
 62
7
  6
CONTINUOUS
 10
4.3665398966
 20
5.1578782948
 11
4.3709458174
 21
5.1577870838
  0
LINE
  5
33E
100
AcDbEntity
  8
0
100
AcDbLine
 62
7
  6
CONTINUOUS
 10
4.3709458174
 20
5.1577870838
 11
4.3796888423
 21
5.1575956421
  0
LINE
  5
33F
100
AcDbEntity
  8
0
100
AcDbLine
 62
7
  6
CONTINUOUS
 10
4.3350824485
 20
5.1584248007
 11
4.3403112094
 21
5.1583477798
  0
LINE
  5
340
100
AcDbEntity
  8
0
100
AcDbLine
 62
7
  6
CONTINUOUS
 10
4.3067900438
 20
5.1591818225
 11
4.2913860876
 21
5.1596286214
  0
LINE
  5
341
100
AcDbEntity
  8
0
100
AcDbLine
 62
7
  6
CONTINUOUS
 10
5.9582963731
 20
5.1594810266
 11
5.956121761
 21
5.1593457744
  0
LINE
  5
342
100
AcDbEntity
  8
0
100
AcDbLine
 62
7
  6
CONTINUOUS
 10
5.820505603
 20
5.1566422381
 11
5.8164332555
 21
5.15645942
  0
LINE
  5
343
100
AcDbEntity
  8
0
100
AcDbLine
 62
7
  6
CONTINUOUS
 10
5.8164332555
 20
5.15645942
 11
5.8163242937
 21
5.1564378524
  0
LINE
  5
344
100
AcDbEntity
  8
0
100
AcDbLine
 62
7
  6
CONTINUOUS
 10
5.8756387937
 20
5.1577847532
 11
5.8734922033
 21
5.1577548514
  0
LINE
  5
345
100
AcDbEntity
  8
0
100
AcDbLine
 62
7
  6
CONTINUOUS
 10
5.8734922033
 20
5.1577548514
 11
5.871314154
 21
5.1577235986
  0
LINE
  5
346
100
AcDbEntity
  8
0
100
AcDbLine
 62
7
  6
CONTINUOUS
 10
5.871314154
 20
5.1577235986
 11
5.8622042516
 21
5.1575821943
  0
LINE
  5
347
100
AcDbEntity
  8
0
100
AcDbLine
 62
7
  6
CONTINUOUS
 10
5.8415525009
 20
5.1571888147
 11
5.8389349226
 21
5.1571310481
  0
LINE
  5
348
100
AcDbEntity
  8
0
100
AcDbLine
 62
7
  6
CONTINUOUS
 10
5.9583053071
 20
5.158988009
 11
5.959563637
 21
5.1590133548
  0
LINE
  5
349
100
AcDbEntity
  8
0
100
AcDbLine
 62
7
  6
CONTINUOUS
 10
5.959563637
 20
5.1590133548
 11
5.961609239
 21
5.1590182533
  0
LINE
  5
34A
100
AcDbEntity
  8
0
100
AcDbLine
 62
7
  6
CONTINUOUS
 10
5.961609239
 20
5.1590182533
 11
5.9636544311
 21
5.1590247004
  0
LINE
  5
34B
100
AcDbEntity
  8
0
100
AcDbLine
 62
7
  6
CONTINUOUS
 10
5.9636544311
 20
5.1590247004
 11
5.9656992132
 21
5.1590326936
  0
LINE
  5
34C
100
AcDbEntity
  8
0
100
AcDbLine
 62
7
  6
CONTINUOUS
 10
5.9656992132
 20
5.1590326936
 11
5.9718311009
 21
5.159065921
  0
LINE
  5
34D
100
AcDbEntity
  8
0
100
AcDbLine
 62
7
  6
CONTINUOUS
 10
5.9718311009
 20
5.159065921
 11
5.9858920008
 21
5.1593568061
  0
LINE
  5
34E
100
AcDbEntity
  8
0
100
AcDbLine
 62
7
  6
CONTINUOUS
 10
5.9858920008
 20
5.1593568061
 11
5.9929785895
 21
5.1595036712
  0
LINE
  5
34F
100
AcDbEntity
  8
0
100
AcDbLine
 62
7
  6
CONTINUOUS
 10
4.3733641826
 20
5.1563760041
 11
4.3729935921
 21
5.1563987349
  0
LINE
  5
350
100
AcDbEntity
  8
0
100
AcDbLine
 62
7
  6
CONTINUOUS
 10
4.417984033
 20
5.1563303085
 11
4.4145100455
 21
5.1562162153
  0
LINE
  5
351
100
AcDbEntity
  8
0
100
AcDbLine
 62
7
  6
CONTINUOUS
 10
4.2236505229
 20
5.1592489168
 11
4.2196915211
 21
5.1593383093
  0
LINE
  5
352
100
AcDbEntity
  8
0
100
AcDbLine
 62
7
  6
CONTINUOUS
 10
4.2241012286
 20
5.1592884541
 11
4.2233519693
 21
5.1592884872
  0
LINE
  5
353
100
AcDbEntity
  8
0
100
AcDbLine
 62
7
  6
CONTINUOUS
 10
4.235081536
 20
5.1590614051
 11
4.2241012286
 21
5.1592884541
  0
LINE
  5
354
100
AcDbEntity
  8
0
100
AcDbLine
 62
7
  6
CONTINUOUS
 10
4.2506930002
 20
5.1587075819
 11
4.2350815967
 21
5.1590614037
  0
LINE
  5
355
100
AcDbEntity
  8
0
100
AcDbLine
 62
7
  6
CONTINUOUS
 10
4.2196915211
 20
5.1593383093
 11
4.2157547849
 21
5.1594939665
  0
LINE
  5
356
100
AcDbEntity
  8
0
100
AcDbLine
 62
7
  6
CONTINUOUS
 10
4.2157547849
 20
5.1594939665
 11
4.2118211942
 21
5.1596609431
  0
LINE
  5
357
100
AcDbEntity
  8
0
100
AcDbLine
 62
7
  6
CONTINUOUS
 10
4.2572954329
 20
5.1589576193
 11
4.2533364591
 21
5.1590483662
  0
LINE
  5
358
100
AcDbEntity
  8
0
100
AcDbLine
 62
7
  6
CONTINUOUS
 10
4.2577467374
 20
5.1590399186
 11
4.256997514
 21
5.1590262127
  0
LINE
  5
359
100
AcDbEntity
  8
0
100
AcDbLine
 62
7
  6
CONTINUOUS
 10
4.2687276958
 20
5.1588271093
 11
4.2654250358
 21
5.1589013134
  0
LINE
  5
35A
100
AcDbEntity
  8
0
100
AcDbLine
 62
7
  6
CONTINUOUS
 10
4.2654250358
 20
5.1589013134
 11
4.2577467374
 21
5.1590399186
  0
LINE
  5
35B
100
AcDbEntity
  8
0
100
AcDbLine
 62
7
  6
CONTINUOUS
 10
4.3605961491
 20
5.156718953
 11
4.3454133134
 21
5.1570673351
  0
LINE
  5
35C
100
AcDbEntity
  8
0
100
AcDbLine
 62
7
  6
CONTINUOUS
 10
4.3454133134
 20
5.1570673351
 11
4.3301790482
 21
5.1574169089
  0
LINE
  5
35D
100
AcDbEntity
  8
0
100
AcDbLine
 62
7
  6
CONTINUOUS
 10
4.3729935921
 20
5.1563987349
 11
4.3718854928
 21
5.1564385842
  0
LINE
  5
35E
100
AcDbEntity
  8
0
100
AcDbLine
 62
7
  6
CONTINUOUS
 10
4.3718854928
 20
5.1564385842
 11
4.3626639597
 21
5.1566706784
  0
LINE
  5
35F
100
AcDbEntity
  8
0
100
AcDbLine
 62
7
  6
CONTINUOUS
 10
4.3626639597
 20
5.1566706784
 11
4.3616439486
 21
5.1566945673
  0
LINE
  5
360
100
AcDbEntity
  8
0
100
AcDbLine
 62
7
  6
CONTINUOUS
 10
4.3616439486
 20
5.1566945673
 11
4.3605961489
 21
5.156718953
  0
LINE
  5
361
100
AcDbEntity
  8
0
100
AcDbLine
 62
7
  6
CONTINUOUS
 10
4.375821025
 20
5.1562463909
 11
4.3732334361
 21
5.156305668
  0
LINE
  5
362
100
AcDbEntity
  8
0
100
AcDbLine
 62
7
  6
CONTINUOUS
 10
4.375821025
 20
5.1562463909
 11
4.3789482529
 21
5.1562323376
  0
LINE
  5
363
100
AcDbEntity
  8
0
100
AcDbLine
 62
7
  6
CONTINUOUS
 10
4.3789482529
 20
5.1562323376
 11
4.3852042608
 21
5.1562131323
  0
LINE
  5
364
100
AcDbEntity
  8
0
100
AcDbLine
 62
7
  6
CONTINUOUS
 10
4.4103763483
 20
5.1565134184
 11
4.4069508205
 21
5.1566960204
  0
LINE
  5
365
100
AcDbEntity
  8
0
100
AcDbLine
 62
7
  6
CONTINUOUS
 10
4.2533364591
 20
5.1590483662
 11
4.2494067153
 21
5.1592603069
  0
LINE
  5
366
100
AcDbEntity
  8
0
100
AcDbLine
 62
7
  6
CONTINUOUS
 10
4.2494067153
 20
5.1592603069
 11
4.2454684631
 21
5.1594832129
  0
LINE
  5
367
100
AcDbEntity
  8
0
100
AcDbLine
 62
7
  6
CONTINUOUS
 10
4.3239734829
 20
5.1582003306
 11
4.3183188977
 21
5.1582270994
  0
LINE
  5
368
100
AcDbEntity
  8
0
100
AcDbLine
 62
7
  6
CONTINUOUS
 10
4.388728222
 20
5.1572096437
 11
4.3844290102
 21
5.157309679
  0
LINE
  5
369
100
AcDbEntity
  8
0
100
AcDbLine
 62
7
  6
CONTINUOUS
 10
4.4145100455
 20
5.1562162153
 11
4.405742388
 21
5.1562511468
  0
LINE
  5
36A
100
AcDbEntity
  8
0
100
AcDbLine
 62
7
  6
CONTINUOUS
 10
4.2921396739
 20
5.1590707353
 11
4.2994686577
 21
5.1591194504
  0
LINE
  5
36B
100
AcDbEntity
  8
0
100
AcDbLine
 62
7
  6
CONTINUOUS
 10
4.2994686577
 20
5.1591194504
 11
4.305874559
 21
5.1591732781
  0
LINE
  5
36C
100
AcDbEntity
  8
0
100
AcDbLine
 62
7
  6
CONTINUOUS
 10
4.305874559
 20
5.1591732781
 11
4.3067900438
 21
5.1591818225
  0
LINE
  5
36D
100
AcDbEntity
  8
0
100
AcDbLine
 62
7
  6
CONTINUOUS
 10
4.3183188977
 20
5.1582270994
 11
4.3035405088
 21
5.1586394239
  0
LINE
  5
36E
100
AcDbEntity
  8
0
100
AcDbLine
 62
7
  6
CONTINUOUS
 10
4.2960622281
 20
5.158848658
 11
4.2885245564
 21
5.1590599348
  0
LINE
  5
36F
100
AcDbEntity
  8
0
100
AcDbLine
 62
7
  6
CONTINUOUS
 10
4.2885245564
 20
5.1590599348
 11
4.2732710398
 21
5.1594886036
  0
LINE
  5
370
100
AcDbEntity
  8
0
100
AcDbLine
 62
7
  6
CONTINUOUS
 10
5.9493328537
 20
5.1593426395
 11
5.9487875066
 21
5.1593700083
  0
LINE
  5
371
100
AcDbEntity
  8
0
100
AcDbLine
 62
7
  6
CONTINUOUS
 10
5.8088039555
 20
5.156234027
 11
5.8069317787
 21
5.1562829746
  0
LINE
  5
372
100
AcDbEntity
  8
0
100
AcDbLine
 62
7
  6
CONTINUOUS
 10
5.8069317787
 20
5.1562829746
 11
5.8068293133
 21
5.1563064649
  0
LINE
  5
373
100
AcDbEntity
  8
0
100
AcDbLine
 62
7
  6
CONTINUOUS
 10
5.8157544865
 20
5.1562527819
 11
5.8096529077
 21
5.1562288475
  0
LINE
  5
374
100
AcDbEntity
  8
0
100
AcDbLine
 62
7
  6
CONTINUOUS
 10
5.8889416262
 20
5.1578707958
 11
5.8876797144
 21
5.1578245737
  0
LINE
  5
375
100
AcDbEntity
  8
0
100
AcDbLine
 62
7
  6
CONTINUOUS
 10
5.8788097515
 20
5.1575400514
 11
5.877046337
 21
5.1574905638
  0
LINE
  5
376
100
AcDbEntity
  8
0
100
AcDbLine
 62
7
  6
CONTINUOUS
 10
5.896693365
 20
5.1580929013
 11
5.8947192047
 21
5.1580672485
  0
LINE
  5
377
100
AcDbEntity
  8
0
100
AcDbLine
 62
7
  6
CONTINUOUS
 10
5.8947192047
 20
5.1580672485
 11
5.8934709388
 21
5.1580515857
  0
LINE
  5
378
100
AcDbEntity
  8
0
100
AcDbLine
 62
7
  6
CONTINUOUS
 10
5.9113317934
 20
5.1586966712
 11
5.9090451686
 21
5.1586294832
  0
LINE
  5
379
100
AcDbEntity
  8
0
100
AcDbLine
 62
7
  6
CONTINUOUS
 10
5.8982911138
 20
5.1582523495
 11
5.8969028968
 21
5.1581944001
  0
LINE
  5
37A
100
AcDbEntity
  8
0
100
AcDbLine
 62
7
  6
CONTINUOUS
 10
5.9482974015
 20
5.1593753255
 11
5.9427754949
 21
5.159338999
  0
LINE
  5
37B
100
AcDbEntity
  8
0
100
AcDbLine
 62
7
  6
CONTINUOUS
 10
5.9427754949
 20
5.159338999
 11
5.9405975655
 21
5.1593103835
  0
LINE
  5
37C
100
AcDbEntity
  8
0
100
AcDbLine
 62
7
  6
CONTINUOUS
 10
5.9405975655
 20
5.1593103835
 11
5.9380888995
 21
5.1592734676
  0
ENDSEC
  0
SECTION
  2
OBJECTS
  0
DICTIONARY
  5
C
100
AcDbDictionary
280
0
281
1
  3
ACAD_GROUP
350
D
  3
ACAD_MLINESTYLE
350
17
  3
ACAD_LAYOUT
350
1A
  3
ACAD_PLOTSETTINGS
350
19
  3
ACAD_PLOTSTYLENAME
350
E
  0
DICTIONARY
  5
D
102
{ACAD_REACTORS
330
C
102
}
100
AcDbDictionary
280
0
281
1
  0
ACDBDICTIONARYWDFLT
  5
E
102
{ACAD_REACTORS
330
C
102
}
100
AcDbDictionary
281
1
  3
Normal
350
F
100
AcDbDictionaryWithDefault
340
F
  0
DICTIONARY
  5
17
102
{ACAD_REACTORS
330
C
102
}
100
AcDbDictionary
280
0
281
1
  3
Standard
350
18
  0
DICTIONARY
  5
19
102
{ACAD_REACTORS
330
C
102
}
100
AcDbDictionary
281
1
  0
DICTIONARY
  5
1A
102
{ACAD_REACTORS
330
C
102
}
100
AcDbDictionary
281
1
  3
Model
350
37D
  3
Layout1
350
37E
  0
ACDBPLACEHOLDER
  5
F
102
{ACAD_REACTORS
330
E
102
}
  0
MLINESTYLE
  5
18
102
{ACAD_REACTORS
330
17
102
}
100
AcDbMlineStyle
  2
STANDARD
 70
0
  3

 62
256
 51
90.0
 52
90.0
 71
2
 49
0.5
 62
256
  6
BYLAYER
 49
-0.5
 62
256
  6
BYLAYER
  0
LAYOUT
  5
37D
102
{ACAD_REACTORS
330
1A
102
}
100
AcDbPlotSettings
  1

  2
none_device
  4
ANSI_A_(11.00_x_8.50_Inches)
  6

 40
0.0
 41
0.0
 42
0.0
 43
0.0
 44
279.4
 45
215.9
 46
0.0
 47
0.0
 48
0.0
 49
0.0
140
0.0
141
0.0
142
1.0
143
1.0
 70
1024
 72
0
 73
0
 74
0
  7

 75
0
147
1.0
148
0.0
149
0.0
100
AcDbLayout
  1
Model
 70
0
 71
0
 10
0.0
 20
0.0
 11
11.0
 21
8.5
 12
0.0
 22
0.0
 32
0.0
 14
0.0
 24
0.0
 34
0.0
 15
0.0
 25
0.0
 35
0.0
146
0.0
 13
0.0
 23
0.0
 33
0.0
 16
1.0
 26
0.0
 36
0.0
 17
0.0
 27
1.0
 37
0.0
 76
0
330
220
345
0
346
0
  0
LAYOUT
  5
37E
102
{ACAD_REACTORS
330
1A
102
}
100
AcDbPlotSettings
  1

  2
none_device
  4
ANSI_A_(11.00_x_8.50_Inches)
  6

 40
0.0
 41
0.0
 42
0.0
 43
0.0
 44
279.4
 45
215.9
 46
0.0
 47
0.0
 48
0.0
 49
0.0
140
0.0
141
0.0
142
1.0
143
1.0
 70
0
 72
0
 73
0
 74
0
  7

 75
0
147
1.0
148
0.0
149
0.0
100
AcDbLayout
  1
Layout1
 70
0
 71
1
 10
0.0
 20
0.0
 11
11.0
 21
8.5
 12
0.0
 22
0.0
 32
0.0
 14
0.0
 24
0.0
 34
0.0
 15
0.0
 25
0.0
 35
0.0
146
0.0
 13
0.0
 23
0.0
 33
0.0
 16
1.0
 26
0.0
 36
0.0
 17
0.0
 27
1.0
 37
0.0
 76
0
330
221
345
0
346
0
  0
ENDSEC
  0
EOF
