999
DXF file: 3-1644tr_TOP.dxf
999
Pro/ENGINEER 2018400 by Parametric Technology Corporation
  0
SECTION
  2
HEADER
  9
$ACADVER
  1
AC1027
  9
$DWGCODEPAGE
  3
ANSI_1252
  9
$EXTMAX
 10
11.0
 20
8.5
 30
0.0
  9
$EXTMIN
 10
0.0
 20
0.0
 30
0.0
  9
$LIMMIN
 10
0.0
 20
0.0
  9
$LIMMAX
 10
11.0
 20
8.5
  9
$VIEWCTR
 10
5.5
 20
4.25
  9
$VIEWSIZE
 40
8.5
  9
$CLAYER
  8
0
  9
$LTSCALE
 40
0.605
  9
$CELTYPE
  6
BYLAYER
  9
$DIMSCALE
 40
1.0
  9
$DIMASZ
 40
0.1
  9
$DIMEXO
 40
0.0625
  9
$DIMDLI
 40
0.418
  9
$DIMEXE
 40
0.125
  9
$DIMCEN
 40
0.099
  9
$DIMLFAC
 40
1.0
  9
$DIMBLK
  1
_FILLED
  9
$DIMALT
 70
1
  9
$DIMALTD
 70
2
  9
$DIMALTTD
 70
2
  9
$DIMALTF
 40
25.4
  9
$DIMTXT
 40
0.08
  9
$DIMTOL
 70
1
  9
$DIMLIM
 70
0
  9
$DIMTFAC
 40
1.0
  9
$DIMTP
 40
0.001
  9
$DIMTM
 40
0.001
  9
$DIMGAP
 40
0.09
  9
$DIMDSEP
 70
46
  9
$AUNITS
 70
0
  9
$PDMODE
 70
3
  9
$PDSIZE
 40
0.3125
  9
$HANDSEED
  5
440
  9
$TILEMODE
 70
1
  9
$MEASUREMENT
 70
0
  9
$INSUNITS
 70
1
  0
ENDSEC
  0
SECTION
  2
CLASSES
  0
CLASS
  1
ACDBDICTIONARYWDFLT
  2
AcDbDictionaryWithDefault
  3
AutoCAD 2000
 90
0
 91
1
280
0
281
0
  0
CLASS
  1
ACDBPLACEHOLDER
  2
AcDbPlaceHolder
  3
AutoCAD 2000
 90
0
 91
1
280
0
281
0
  0
CLASS
  1
LAYOUT
  2
AcDbLayout
  3
AutoCAD 2000
 90
0
 91
0
280
0
281
0
  0
ENDSEC
  0
SECTION
  2
TABLES
  0
TABLE
  2
VPORT
  5
8
100
AcDbSymbolTable
 70
2
  0
VPORT
  5
1F4
100
AcDbSymbolTableRecord
100
AcDbViewportTableRecord
  2
*ACTIVE
 70
0
 10
0.0
 20
0.0
 11
1.0
 21
1.0
 12
5.5
 22
4.25
 13
0.0
 23
0.0
 14
1.0
 24
1.0
 15
0.0
 25
0.0
 16
0.0
 26
0.0
 36
1.0
 17
0.0
 27
0.0
 37
0.0
 40
8.5
 41
1.2941176471
 42
50.0
 43
0.0
 44
0.0
 50
0.0
 51
0.0
 71
0
 72
100
 73
1
 74
1
 75
0
 76
0
 77
0
 78
0
  0
ENDTAB
  0
TABLE
  2
LTYPE
  5
5
100
AcDbSymbolTable
 70
6
  0
LTYPE
  5
14
100
AcDbSymbolTableRecord
100
AcDbLinetypeTableRecord
  2
BYBLOCK
 70
0
  3

 72
65
 73
0
 40
0.0
  0
LTYPE
  5
15
100
AcDbSymbolTableRecord
100
AcDbLinetypeTableRecord
  2
BYLAYER
 70
0
  3

 72
65
 73
0
 40
0.0
  0
LTYPE
  5
16
100
AcDbSymbolTableRecord
100
AcDbLinetypeTableRecord
  2
CONTINUOUS
 70
64
  3
Solid line
 72
65
 73
0
 40
0.0
  0
LTYPE
  5
1F5
100
AcDbSymbolTableRecord
100
AcDbLinetypeTableRecord
  2
CENTER
 70
64
  3
____ _ ____ _ ____ _ ____ _ ____ _ ____ _ ____
 72
65
 73
4
 40
0.6
 49
0.375
 74
0
 49
-0.075
 74
0
 49
0.075
 74
0
 49
-0.075
 74
0
  0
LTYPE
  5
1F6
100
AcDbSymbolTableRecord
100
AcDbLinetypeTableRecord
  2
HIDDEN
 70
64
  3
- - - - - - - - - - - - - - - - - - - -
 72
65
 73
2
 40
0.2
 49
0.1
 74
0
 49
-0.1
 74
0
  0
LTYPE
  5
1F7
100
AcDbSymbolTableRecord
100
AcDbLinetypeTableRecord
  2
PHANTOM
 70
64
  3
_____ _ _ _____ _ _ _____ _ _ _____
 72
65
 73
6
 40
0.8
 49
0.45
 74
0
 49
-0.05
 74
0
 49
0.1
 74
0
 49
-0.05
 74
0
 49
0.1
 74
0
 49
-0.05
 74
0
  0
LTYPE
  5
1F8
100
AcDbSymbolTableRecord
100
AcDbLinetypeTableRecord
  2
DOT
 70
64
  3
. . . . . . . . . . . . . . . . . . . .
 72
65
 73
2
 40
0.2
 49
0.1
 74
0
 49
-0.1
 74
0
  0
LTYPE
  5
1F9
100
AcDbSymbolTableRecord
100
AcDbLinetypeTableRecord
  2
DASHED
 70
64
  3
- - - - - - - - - - - - - - - - - - - -
 72
65
 73
2
 40
0.2
 49
0.1
 74
0
 49
-0.1
 74
0
  0
ENDTAB
  0
TABLE
  2
LAYER
  5
2
100
AcDbSymbolTable
 70
36
  0
LAYER
  5
10
100
AcDbSymbolTableRecord
100
AcDbLayerTableRecord
  2
0
 70
0
 62
7
  6
CONTINUOUS
370
-3
390
F
  0
LAYER
  5
1FA
100
AcDbSymbolTableRecord
100
AcDbLayerTableRecord
  2
DEFAULT_1
 70
0
 62
7
  6
CENTER
370
-3
390
F
  0
LAYER
  5
1FB
100
AcDbSymbolTableRecord
100
AcDbLayerTableRecord
  2
DEFAULT_2
 70
0
 62
8
  6
HIDDEN
370
-3
390
F
  0
LAYER
  5
1FC
100
AcDbSymbolTableRecord
100
AcDbLayerTableRecord
  2
DEFAULT_3
 70
0
 62
7
  6
PHANTOM
370
-3
390
F
  0
LAYER
  5
1FD
100
AcDbSymbolTableRecord
100
AcDbLayerTableRecord
  2
1_PLATE
 70
0
 62
7
  6
CONTINUOUS
370
-3
390
F
  0
LAYER
  5
1FE
100
AcDbSymbolTableRecord
100
AcDbLayerTableRecord
  2
2-265_ASSY_PLANES
 70
0
 62
7
  6
CONTINUOUS
370
-3
390
F
  0
LAYER
  5
1FF
100
AcDbSymbolTableRecord
100
AcDbLayerTableRecord
  2
ALL_ASSEMBLY_MEMBERS
 70
0
 62
7
  6
CONTINUOUS
370
-3
390
F
  0
LAYER
  5
200
100
AcDbSymbolTableRecord
100
AcDbLayerTableRecord
  2
ALL_FEATURES
 70
0
 62
7
  6
CONTINUOUS
370
-3
390
F
  0
LAYER
  5
201
100
AcDbSymbolTableRecord
100
AcDbLayerTableRecord
  2
AXES_FEATURES
 70
0
 62
7
  6
CONTINUOUS
370
-3
390
F
  0
LAYER
  5
202
100
AcDbSymbolTableRecord
100
AcDbLayerTableRecord
  2
CHAMFER_FEATURES
 70
0
 62
7
  6
CONTINUOUS
370
-3
390
F
  0
LAYER
  5
203
100
AcDbSymbolTableRecord
100
AcDbLayerTableRecord
  2
CUT_FEATURES
 70
0
 62
7
  6
CONTINUOUS
370
-3
390
F
  0
LAYER
  5
204
100
AcDbSymbolTableRecord
100
AcDbLayerTableRecord
  2
DATUM_CURVES
 70
0
 62
7
  6
CONTINUOUS
370
-3
390
F
  0
LAYER
  5
205
100
AcDbSymbolTableRecord
100
AcDbLayerTableRecord
  2
DATUM_PLANES
 70
0
 62
7
  6
CONTINUOUS
370
-3
390
F
  0
LAYER
  5
206
100
AcDbSymbolTableRecord
100
AcDbLayerTableRecord
  2
DATUM_POINTS
 70
0
 62
7
  6
CONTINUOUS
370
-3
390
F
  0
LAYER
  5
207
100
AcDbSymbolTableRecord
100
AcDbLayerTableRecord
  2
DEFAULT_COORDINATE_SYSTEM
 70
0
 62
7
  6
CONTINUOUS
370
-3
390
F
  0
LAYER
  5
208
100
AcDbSymbolTableRecord
100
AcDbLayerTableRecord
  2
DEFAULT_DATUM_AXES
 70
0
 62
7
  6
CONTINUOUS
370
-3
390
F
  0
LAYER
  5
209
100
AcDbSymbolTableRecord
100
AcDbLayerTableRecord
  2
DEFAULT_DATUM_CURVES
 70
0
 62
7
  6
CONTINUOUS
370
-3
390
F
  0
LAYER
  5
20A
100
AcDbSymbolTableRecord
100
AcDbLayerTableRecord
  2
DEFAULT_DATUM_PLANES
 70
0
 62
7
  6
CONTINUOUS
370
-3
390
F
  0
LAYER
  5
20B
100
AcDbSymbolTableRecord
100
AcDbLayerTableRecord
  2
DEFAULT_SURFACES
 70
0
 62
7
  6
CONTINUOUS
370
-3
390
F
  0
LAYER
  5
20C
100
AcDbSymbolTableRecord
100
AcDbLayerTableRecord
  2
DIMENSIONS
 70
0
 62
7
  6
CONTINUOUS
370
-3
390
F
  0
LAYER
  5
20D
100
AcDbSymbolTableRecord
100
AcDbLayerTableRecord
  2
HOLE_FEATURES
 70
0
 62
7
  6
CONTINUOUS
370
-3
390
F
  0
LAYER
  5
20E
100
AcDbSymbolTableRecord
100
AcDbLayerTableRecord
  2
NOTES
 70
0
 62
7
  6
CONTINUOUS
370
-3
390
F
  0
LAYER
  5
20F
100
AcDbSymbolTableRecord
100
AcDbLayerTableRecord
  2
PART_REFERENCE_DIMENSIONS
 70
0
 62
7
  6
CONTINUOUS
370
-3
390
F
  0
LAYER
  5
210
100
AcDbSymbolTableRecord
100
AcDbLayerTableRecord
  2
PLATED_SURFACE_AREA
 70
0
 62
7
  6
CONTINUOUS
370
-3
390
F
  0
LAYER
  5
211
100
AcDbSymbolTableRecord
100
AcDbLayerTableRecord
  2
POINTS
 70
0
 62
7
  6
CONTINUOUS
370
-3
390
F
  0
LAYER
  5
212
100
AcDbSymbolTableRecord
100
AcDbLayerTableRecord
  2
PROTRUSION
 70
0
 62
7
  6
CONTINUOUS
370
-3
390
F
  0
LAYER
  5
213
100
AcDbSymbolTableRecord
100
AcDbLayerTableRecord
  2
PROTRUSION_FEATURES
 70
0
 62
7
  6
CONTINUOUS
370
-3
390
F
  0
LAYER
  5
214
100
AcDbSymbolTableRecord
100
AcDbLayerTableRecord
  2
QUILT
 70
0
 62
7
  6
CONTINUOUS
370
-3
390
F
  0
LAYER
  5
215
100
AcDbSymbolTableRecord
100
AcDbLayerTableRecord
  2
QUILTS
 70
0
 62
7
  6
CONTINUOUS
370
-3
390
F
  0
LAYER
  5
216
100
AcDbSymbolTableRecord
100
AcDbLayerTableRecord
  2
REFERENCE_DIMENSIONS
 70
0
 62
7
  6
CONTINUOUS
370
-3
390
F
  0
LAYER
  5
217
100
AcDbSymbolTableRecord
100
AcDbLayerTableRecord
  2
ROUND_FEATURES
 70
0
 62
7
  6
CONTINUOUS
370
-3
390
F
  0
LAYER
  5
218
100
AcDbSymbolTableRecord
100
AcDbLayerTableRecord
  2
SHELL_FEATURES
 70
0
 62
7
  6
CONTINUOUS
370
-3
390
F
  0
LAYER
  5
219
100
AcDbSymbolTableRecord
100
AcDbLayerTableRecord
  2
XSEC_DATUMS
 70
0
 62
7
  6
CONTINUOUS
370
-3
390
F
  0
ENDTAB
  0
TABLE
  2
STYLE
  5
3
100
AcDbSymbolTable
 70
1
  0
STYLE
  5
11
100
AcDbSymbolTableRecord
100
AcDbTextStyleTableRecord
  2
STANDARD
 70
0
 40
0.0
 41
0.8
 50
0.0
 71
0
 42
0.2
  3
txt
  4

  0
STYLE
  5
21A
100
AcDbSymbolTableRecord
100
AcDbTextStyleTableRecord
  2
TEXTSTYLE_1
 70
0
 40
0.0
 41
0.8
 50
0.0
 71
0
 42
0.2
  3
gdt
  4

  0
ENDTAB
  0
TABLE
  2
VIEW
  5
6
100
AcDbSymbolTable
 70
0
  0
ENDTAB
  0
TABLE
  2
UCS
  5
7
100
AcDbSymbolTable
 70
0
  0
ENDTAB
  0
TABLE
  2
APPID
  5
9
100
AcDbSymbolTable
 70
1
  0
APPID
  5
21B
100
AcDbSymbolTableRecord
100
AcDbRegAppTableRecord
  2
ACAD
 70
0
  0
ENDTAB
  0
TABLE
  2
BLOCK_RECORD
  5
1
100
AcDbSymbolTable
 70
0
  0
BLOCK_RECORD
  5
21C
100
AcDbSymbolTableRecord
100
AcDbBlockTableRecord
  2
*Model_Space
  0
BLOCK_RECORD
  5
21D
100
AcDbSymbolTableRecord
100
AcDbBlockTableRecord
  2
*Paper_Space
  0
BLOCK_RECORD
  5
21E
100
AcDbSymbolTableRecord
100
AcDbBlockTableRecord
  2
_FILLED
  0
ENDTAB
  0
TABLE
  2
DIMSTYLE
  5
A
100
AcDbSymbolTable
 70
1
100
AcDbDimStyleTable
 71
0
  0
DIMSTYLE
105
21F
100
AcDbSymbolTableRecord
100
AcDbDimStyleTableRecord
  2
STANDARD
 70
0
  3

  4

 40
1.0
 41
0.1
 42
0.0625
 43
0.38
 44
0.125
 45
0.0
 46
0.0
 47
0.001
 48
0.001
140
0.08
141
0.09
142
0.0
143
25.4
144
1.0
145
0.0
146
1.0
147
0.09
 71
1.0
 72
0.0
 73
1
 74
1
 75
0
 76
0
 77
0
 78
4
 79
1
170
1
171
2
172
0
173
0
174
0
175
0
176
0
177
0
178
0
270
2
179
3
271
3
272
3
273
2
274
2
275
0
280
0
281
0
282
0
283
1
284
4
285
0
286
0
287
3
288
0
340
11
278
46
341
21E
342
21E
343
21E
344
21E
  0
ENDTAB
  0
ENDSEC
  0
SECTION
  2
BLOCKS
  0
BLOCK
  5
20
100
AcDbEntity
  8
0
100
AcDbBlockBegin
  2
*Model_Space
 70
0
 10
0.0
 20
0.0
 30
0.0
  3
*Model_Space
  1

  0
ENDBLK
  5
21
100
AcDbEntity
  8
0
100
AcDbBlockEnd
  0
BLOCK
  5
1C
100
AcDbEntity
  8
0
100
AcDbBlockBegin
  2
*Paper_Space
 70
0
 10
0.0
 20
0.0
 30
0.0
  3
*Paper_Space
  1

  0
ENDBLK
  5
1D
100
AcDbEntity
  8
0
100
AcDbBlockEnd
  0
BLOCK
  5
220
100
AcDbEntity
  8
0
100
AcDbBlockBegin
  2
_FILLED
 70
64
 10
0.0
 20
0.0
  3
_FILLED
  1

  0
SOLID
  5
221
100
AcDbEntity
  8
0
  6
BYBLOCK
 62
0
100
AcDbTrace
 10
0.0
 20
0.0
 11
-1.0
 21
0.2
 12
-1.0
 22
-0.2
 13
-1.0
 23
-0.2
  0
ENDBLK
  5
222
100
AcDbEntity
  8
0
  6
BYBLOCK
 62
0
100
AcDbBlockEnd
  0
ENDSEC
  0
SECTION
  2
ENTITIES
  0
MTEXT
  5
223
100
AcDbEntity
  8
0
100
AcDbMText
 62
2
  6
CONTINUOUS
  7
STANDARD
 71
3
 72
1
 10
5.009996118
 20
3.0575362954
 30
0.0
 11
1.0
 21
0.0
 31
0.0
 73
2
 44
0.9
  1
SCALE  .500
 40
0.08
 41
0.704
  0
LINE
  5
224
100
AcDbEntity
  8
0
100
AcDbLine
 62
7
  6
CONTINUOUS
 10
0.0
 20
0.0
 11
0.0
 21
8.5
  0
LINE
  5
225
100
AcDbEntity
  8
0
100
AcDbLine
 62
7
  6
CONTINUOUS
 10
0.0
 20
0.0
 11
11.0
 21
0.0
  0
LINE
  5
226
100
AcDbEntity
  8
0
100
AcDbLine
 62
7
  6
CONTINUOUS
 10
0.0
 20
8.5
 11
11.0
 21
8.5
  0
LINE
  5
227
100
AcDbEntity
  8
0
100
AcDbLine
 62
7
  6
CONTINUOUS
 10
11.0
 20
0.0
 11
11.0
 21
8.5
  0
LINE
  5
228
100
AcDbEntity
  8
1_PLATE
100
AcDbLine
 62
7
  6
CONTINUOUS
 10
3.134996118
 20
5.0910361891
 11
3.134996118
 21
5.0155361891
  0
LINE
  5
229
100
AcDbEntity
  8
ALL_ASSEMBLY_MEMBERS
100
AcDbLine
 62
7
  6
CONTINUOUS
 10
5.2075684463
 20
3.1781316488
 11
4.8124237897
 21
3.1781316488
  0
LINE
  5
22A
100
AcDbEntity
  8
ALL_ASSEMBLY_MEMBERS
100
AcDbLine
 62
7
  6
CONTINUOUS
 10
4.7599972648
 20
3.1925362954
 11
5.2599949712
 21
3.1925362954
  0
LINE
  5
22B
100
AcDbEntity
  8
ALL_ASSEMBLY_MEMBERS
100
AcDbLine
 62
7
  6
CONTINUOUS
 10
4.8496219653
 20
3.2425362954
 11
4.7621562406
 21
3.2425362954
  0
LINE
  5
22C
100
AcDbEntity
  8
ALL_ASSEMBLY_MEMBERS
100
AcDbLine
 62
7
  6
CONTINUOUS
 10
5.1703688838
 20
3.2425362954
 11
5.2578359954
 21
3.2425362954
  0
LINE
  5
22D
100
AcDbEntity
  8
ALL_ASSEMBLY_MEMBERS
100
AcDbLine
 62
7
  6
CONTINUOUS
 10
4.8496224884
 20
3.3925362954
 11
4.7621562406
 21
3.3925362954
  0
LINE
  5
22E
100
AcDbEntity
  8
ALL_ASSEMBLY_MEMBERS
100
AcDbLine
 62
7
  6
CONTINUOUS
 10
5.1703691635
 20
3.3925362954
 11
5.2578359954
 21
3.3925362954
  0
LINE
  5
22F
100
AcDbEntity
  8
ALL_ASSEMBLY_MEMBERS
100
AcDbLine
 62
7
  6
CONTINUOUS
 10
4.759996118
 20
3.4425362954
 11
5.259996118
 21
3.4425362954
  0
LINE
  5
230
100
AcDbEntity
  8
ALL_ASSEMBLY_MEMBERS
100
AcDbLine
 62
7
  6
CONTINUOUS
 10
4.853746118
 20
3.4966628831
 11
5.166246118
 21
3.4966628831
  0
LINE
  5
231
100
AcDbEntity
  8
ALL_ASSEMBLY_MEMBERS
100
AcDbLine
 62
7
  6
CONTINUOUS
 10
4.8505910729
 20
3.3921855741
 11
4.8507157723
 21
3.3921347439
  0
LINE
  5
232
100
AcDbEntity
  8
ALL_ASSEMBLY_MEMBERS
100
AcDbLine
 62
7
  6
CONTINUOUS
 10
4.8505902844
 20
3.39218274
 11
4.8507147542
 21
3.3921272551
  0
LINE
  5
233
100
AcDbEntity
  8
0
100
AcDbLine
 62
7
  6
CONTINUOUS
 10
4.517496118
 20
4.6598161891
 11
4.517496118
 21
4.812886035
  0
LINE
  5
234
100
AcDbEntity
  8
ALL_ASSEMBLY_MEMBERS
100
AcDbLine
 62
7
  6
CONTINUOUS
 10
4.524996118
 20
4.01507237
 11
4.524996118
 21
4.4425362954
  0
LINE
  5
235
100
AcDbEntity
  8
ALL_ASSEMBLY_MEMBERS
100
AcDbLine
 62
7
  6
CONTINUOUS
 10
4.525246118
 20
4.5901740907
 11
4.525246118
 21
4.5015914135
  0
LINE
  5
236
100
AcDbEntity
  8
ALL_ASSEMBLY_MEMBERS
100
AcDbLine
 62
7
  6
CONTINUOUS
 10
4.525415017
 20
4.5901740907
 11
4.525415017
 21
4.5015914135
  0
LINE
  5
237
100
AcDbEntity
  8
ALL_ASSEMBLY_MEMBERS
100
AcDbLine
 62
7
  6
CONTINUOUS
 10
4.5277126534
 20
4.6393866891
 11
4.5277126534
 21
4.5901740907
  0
LINE
  5
238
100
AcDbEntity
  8
ALL_ASSEMBLY_MEMBERS
100
AcDbLine
 62
7
  6
CONTINUOUS
 10
4.5277126534
 20
4.5015914135
 11
4.5277126534
 21
4.4425362954
  0
LINE
  5
239
100
AcDbEntity
  8
ALL_ASSEMBLY_MEMBERS
100
AcDbLine
 62
7
  6
CONTINUOUS
 10
4.5278824166
 20
4.5901740907
 11
4.5278824166
 21
4.5015914135
  0
LINE
  5
23A
100
AcDbEntity
  8
ALL_ASSEMBLY_MEMBERS
100
AcDbLine
 62
7
  6
CONTINUOUS
 10
4.5400019189
 20
4.5289515234
 11
4.5400019189
 21
4.5234795019
  0
LINE
  5
23B
100
AcDbEntity
  8
ALL_ASSEMBLY_MEMBERS
100
AcDbLine
 62
7
  6
CONTINUOUS
 10
4.5403067252
 20
4.565431669
 11
4.5403067252
 21
4.5599596475
  0
LINE
  5
23C
100
AcDbEntity
  8
ALL_ASSEMBLY_MEMBERS
100
AcDbLine
 62
7
  6
CONTINUOUS
 10
4.5415558057
 20
4.5289515234
 11
4.5415558057
 21
4.5234795019
  0
LINE
  5
23D
100
AcDbEntity
  8
ALL_ASSEMBLY_MEMBERS
100
AcDbLine
 62
7
  6
CONTINUOUS
 10
4.541875529
 20
4.565431669
 11
4.541875529
 21
4.5617836547
  0
LINE
  5
23E
100
AcDbEntity
  8
ALL_ASSEMBLY_MEMBERS
100
AcDbLine
 62
7
  6
CONTINUOUS
 10
4.5438828332
 20
4.5289515234
 11
4.5438828332
 21
4.5234795019
  0
LINE
  5
23F
100
AcDbEntity
  8
ALL_ASSEMBLY_MEMBERS
100
AcDbLine
 62
7
  6
CONTINUOUS
 10
4.544202032
 20
4.565431669
 11
4.544202032
 21
4.5617836547
  0
LINE
  5
240
100
AcDbEntity
  8
ALL_ASSEMBLY_MEMBERS
100
AcDbLine
 62
7
  6
CONTINUOUS
 10
4.5504383123
 20
4.565431669
 11
4.5504383123
 21
4.5617836547
  0
LINE
  5
241
100
AcDbEntity
  8
ALL_ASSEMBLY_MEMBERS
100
AcDbLine
 62
7
  6
CONTINUOUS
 10
4.550832017
 20
4.5289515234
 11
4.550832017
 21
4.5234795019
  0
LINE
  5
242
100
AcDbEntity
  8
ALL_ASSEMBLY_MEMBERS
100
AcDbLine
 62
7
  6
CONTINUOUS
 10
4.5524362962
 20
4.565431669
 11
4.5524362962
 21
4.5599596475
  0
LINE
  5
243
100
AcDbEntity
  8
ALL_ASSEMBLY_MEMBERS
100
AcDbLine
 62
7
  6
CONTINUOUS
 10
4.5528447279
 20
4.5289515234
 11
4.5528447279
 21
4.5234795019
  0
LINE
  5
244
100
AcDbEntity
  8
ALL_ASSEMBLY_MEMBERS
100
AcDbLine
 62
7
  6
CONTINUOUS
 10
4.5547542646
 20
4.565431669
 11
4.5547542646
 21
4.5599596475
  0
LINE
  5
245
100
AcDbEntity
  8
ALL_ASSEMBLY_MEMBERS
100
AcDbLine
 62
7
  6
CONTINUOUS
 10
4.5551626296
 20
4.5289515234
 11
4.5551626296
 21
4.5234795019
  0
LINE
  5
246
100
AcDbEntity
  8
ALL_ASSEMBLY_MEMBERS
100
AcDbLine
 62
7
  6
CONTINUOUS
 10
4.5562181747
 20
4.58731976
 11
4.5562181747
 21
4.5398955688
  0
LINE
  5
247
100
AcDbEntity
  8
ALL_ASSEMBLY_MEMBERS
100
AcDbLine
 62
7
  6
CONTINUOUS
 10
4.5584222734
 20
4.5781997242
 11
4.5584222734
 21
4.5490156046
  0
LINE
  5
248
100
AcDbEntity
  8
ALL_ASSEMBLY_MEMBERS
100
AcDbLine
 62
7
  6
CONTINUOUS
 10
4.5607406775
 20
4.5781997242
 11
4.5607406775
 21
4.5544876261
  0
LINE
  5
249
100
AcDbEntity
  8
ALL_ASSEMBLY_MEMBERS
100
AcDbLine
 62
7
  6
CONTINUOUS
 10
4.571073515
 20
4.5307755305
 11
4.571073515
 21
4.5271275162
  0
LINE
  5
24A
100
AcDbEntity
  8
ALL_ASSEMBLY_MEMBERS
100
AcDbLine
 62
7
  6
CONTINUOUS
 10
4.5726623284
 20
4.58731976
 11
4.5726623284
 21
4.5781997242
  0
LINE
  5
24B
100
AcDbEntity
  8
ALL_ASSEMBLY_MEMBERS
100
AcDbLine
 62
7
  6
CONTINUOUS
 10
4.5737364618
 20
4.5325995377
 11
4.5737364618
 21
4.5253035091
  0
LINE
  5
24C
100
AcDbEntity
  8
ALL_ASSEMBLY_MEMBERS
100
AcDbLine
 62
7
  6
CONTINUOUS
 10
4.5749910995
 20
4.58731976
 11
4.5749910995
 21
4.5781997242
  0
LINE
  5
24D
100
AcDbEntity
  8
ALL_ASSEMBLY_MEMBERS
100
AcDbLine
 62
7
  6
CONTINUOUS
 10
4.576066427
 20
4.5325995377
 11
4.576066427
 21
4.5253035091
  0
LINE
  5
24E
100
AcDbEntity
  8
ALL_ASSEMBLY_MEMBERS
100
AcDbLine
 62
7
  6
CONTINUOUS
 10
4.8349774562
 20
3.6925362954
 11
5.1850147799
 21
3.6925362954
  0
LINE
  5
24F
100
AcDbEntity
  8
ALL_ASSEMBLY_MEMBERS
100
AcDbLine
 62
7
  6
CONTINUOUS
 10
4.803746118
 20
3.7148688407
 11
5.216246118
 21
3.7148688407
  0
LINE
  5
250
100
AcDbEntity
  8
ALL_ASSEMBLY_MEMBERS
100
AcDbLine
 62
7
  6
CONTINUOUS
 10
5.259996118
 20
3.4425362954
 11
5.166246118
 21
3.4966628831
  0
LINE
  5
251
100
AcDbEntity
  8
ALL_ASSEMBLY_MEMBERS
100
AcDbLine
 62
7
  6
CONTINUOUS
 10
4.7215705408
 20
4.5901740907
 11
4.7215705408
 21
4.5015914135
  0
LINE
  5
252
100
AcDbEntity
  8
ALL_ASSEMBLY_MEMBERS
100
AcDbLine
 62
7
  6
CONTINUOUS
 10
4.9864809236
 20
4.576375717
 11
4.9823552469
 21
4.5727277027
  0
LINE
  5
253
100
AcDbEntity
  8
ALL_ASSEMBLY_MEMBERS
100
AcDbLine
 62
7
  6
CONTINUOUS
 10
4.9851056994
 20
4.5854957528
 11
4.9782295703
 21
4.5800237313
  0
LINE
  5
254
100
AcDbEntity
  8
ALL_ASSEMBLY_MEMBERS
100
AcDbLine
 62
7
  6
CONTINUOUS
 10
4.6867249072
 20
3.8175362954
 11
5.3332673288
 21
3.8175362954
  0
LINE
  5
255
100
AcDbEntity
  8
ALL_ASSEMBLY_MEMBERS
100
AcDbLine
 62
7
  6
CONTINUOUS
 10
4.7425330931
 20
4.5901740907
 11
4.7425330931
 21
4.5015914135
  0
LINE
  5
256
100
AcDbEntity
  8
ALL_ASSEMBLY_MEMBERS
100
AcDbLine
 62
7
  6
CONTINUOUS
 10
4.7439483354
 20
4.5901740907
 11
4.7439483354
 21
4.5015914135
  0
LINE
  5
257
100
AcDbEntity
  8
ALL_ASSEMBLY_MEMBERS
100
AcDbLine
 62
7
  6
CONTINUOUS
 10
4.759996118
 20
3.1925362954
 11
4.759996118
 21
3.2424577788
  0
LINE
  5
258
100
AcDbEntity
  8
ALL_ASSEMBLY_MEMBERS
100
AcDbLine
 62
7
  6
CONTINUOUS
 10
4.759996118
 20
3.3925994089
 11
4.759996118
 21
3.4425362954
  0
LINE
  5
259
100
AcDbEntity
  8
ALL_ASSEMBLY_MEMBERS
100
AcDbLine
 62
7
  6
CONTINUOUS
 10
4.853746118
 20
3.4966628831
 11
4.853746118
 21
3.6925362954
  0
LINE
  5
25A
100
AcDbEntity
  8
ALL_ASSEMBLY_MEMBERS
100
AcDbLine
 62
7
  6
CONTINUOUS
 10
4.9741038936
 20
4.5745517099
 11
4.9713534431
 21
4.5672556813
  0
LINE
  5
25B
100
AcDbEntity
  8
ALL_ASSEMBLY_MEMBERS
100
AcDbLine
 62
7
  6
CONTINUOUS
 10
4.9823552469
 20
4.5727277027
 11
4.976854346
 21
4.5617836547
  0
LINE
  5
25C
100
AcDbEntity
  8
ALL_ASSEMBLY_MEMBERS
100
AcDbLine
 62
7
  6
CONTINUOUS
 10
5.0098597555
 20
4.5271275162
 11
5.0043588546
 21
4.516183472
  0
LINE
  5
25D
100
AcDbEntity
  8
ALL_ASSEMBLY_MEMBERS
100
AcDbLine
 62
7
  6
CONTINUOUS
 10
5.0428651689
 20
4.5727277027
 11
5.0373642719
 21
4.5617836547
  0
LINE
  5
25E
100
AcDbEntity
  8
ALL_ASSEMBLY_MEMBERS
100
AcDbLine
 62
7
  6
CONTINUOUS
 10
4.9493498336
 20
4.58731976
 11
4.9410984802
 21
4.5745517099
  0
LINE
  5
25F
100
AcDbEntity
  8
ALL_ASSEMBLY_MEMBERS
100
AcDbLine
 62
7
  6
CONTINUOUS
 10
4.9493498336
 20
4.5727277027
 11
4.9410984802
 21
4.5599596475
  0
LINE
  5
260
100
AcDbEntity
  8
ALL_ASSEMBLY_MEMBERS
100
AcDbLine
 62
7
  6
CONTINUOUS
 10
4.9782295703
 20
4.5800237313
 11
4.9741038936
 21
4.5745517099
  0
LINE
  5
261
100
AcDbEntity
  8
ALL_ASSEMBLY_MEMBERS
100
AcDbLine
 62
7
  6
CONTINUOUS
 10
5.0387394922
 20
4.5800237313
 11
5.0346138155
 21
4.5745517099
  0
LINE
  5
262
100
AcDbEntity
  8
ALL_ASSEMBLY_MEMBERS
100
AcDbLine
 62
7
  6
CONTINUOUS
 10
5.0126102118
 20
4.5143594649
 11
5.0084845352
 21
4.5088874428
  0
LINE
  5
263
100
AcDbEntity
  8
ALL_ASSEMBLY_MEMBERS
100
AcDbLine
 62
7
  6
CONTINUOUS
 10
5.0731201338
 20
4.5143594649
 11
5.0689944571
 21
4.5088874428
  0
LINE
  5
264
100
AcDbEntity
  8
ALL_ASSEMBLY_MEMBERS
100
AcDbLine
 62
7
  6
CONTINUOUS
 10
5.0469908455
 20
4.576375717
 11
5.0428651689
 21
4.5727277027
  0
LINE
  5
265
100
AcDbEntity
  8
ALL_ASSEMBLY_MEMBERS
100
AcDbLine
 62
7
  6
CONTINUOUS
 10
5.0043588546
 20
4.516183472
 11
5.0002331779
 21
4.5125354577
  0
LINE
  5
266
100
AcDbEntity
  8
ALL_ASSEMBLY_MEMBERS
100
AcDbLine
 62
7
  6
CONTINUOUS
 10
5.0648687804
 20
4.516183472
 11
5.0607431037
 21
4.5125354577
  0
LINE
  5
267
100
AcDbEntity
  8
ALL_ASSEMBLY_MEMBERS
100
AcDbLine
 62
7
  6
CONTINUOUS
 10
5.0456156252
 20
4.5854957528
 11
5.0387394922
 21
4.5800237313
  0
LINE
  5
268
100
AcDbEntity
  8
ALL_ASSEMBLY_MEMBERS
100
AcDbLine
 62
7
  6
CONTINUOUS
 10
5.0084845352
 20
4.5088874428
 11
5.0016084061
 21
4.5034154208
  0
LINE
  5
269
100
AcDbEntity
  8
ALL_ASSEMBLY_MEMBERS
100
AcDbLine
 62
7
  6
CONTINUOUS
 10
5.0689944571
 20
4.5088874428
 11
5.0621183319
 21
4.5034154208
  0
LINE
  5
26A
100
AcDbEntity
  8
ALL_ASSEMBLY_MEMBERS
100
AcDbLine
 62
7
  6
CONTINUOUS
 10
4.524996118
 20
4.01507237
 11
5.494996118
 21
4.01507237
  0
LINE
  5
26B
100
AcDbEntity
  8
ALL_ASSEMBLY_MEMBERS
100
AcDbLine
 62
7
  6
CONTINUOUS
 10
4.9410984802
 20
4.5745517099
 11
4.9410984802
 21
4.5599596475
  0
LINE
  5
26C
100
AcDbEntity
  8
ALL_ASSEMBLY_MEMBERS
100
AcDbLine
 62
7
  6
CONTINUOUS
 10
4.9493498336
 20
4.5727277027
 11
4.9493498336
 21
4.5015914135
  0
LINE
  5
26D
100
AcDbEntity
  8
ALL_ASSEMBLY_MEMBERS
100
AcDbLine
 62
7
  6
CONTINUOUS
 10
4.9576011869
 20
4.58731976
 11
4.9576011869
 21
4.5015914135
  0
LINE
  5
26E
100
AcDbEntity
  8
ALL_ASSEMBLY_MEMBERS
100
AcDbLine
 62
7
  6
CONTINUOUS
 10
4.9686029907
 20
4.5526636189
 11
4.9686029907
 21
4.5362475545
  0
LINE
  5
26F
100
AcDbEntity
  8
ALL_ASSEMBLY_MEMBERS
100
AcDbLine
 62
7
  6
CONTINUOUS
 10
4.9754791178
 20
4.5508396118
 11
4.9754791178
 21
4.5380715617
  0
LINE
  5
270
100
AcDbEntity
  8
ALL_ASSEMBLY_MEMBERS
100
AcDbLine
 62
7
  6
CONTINUOUS
 10
4.980496118
 20
4.1724564991
 11
4.980496118
 21
4.1779845055
  0
LINE
  5
271
100
AcDbEntity
  8
0
100
AcDbLine
 62
7
  6
CONTINUOUS
 10
4.9999966334
 20
4.7948161891
 11
4.9999966334
 21
4.7148161891
  0
LINE
  5
272
100
AcDbEntity
  8
ALL_ASSEMBLY_MEMBERS
100
AcDbLine
 62
7
  6
CONTINUOUS
 10
5.0112349837
 20
4.5508396118
 11
5.0112349837
 21
4.5380715617
  0
LINE
  5
273
100
AcDbEntity
  8
ALL_ASSEMBLY_MEMBERS
100
AcDbLine
 62
7
  6
CONTINUOUS
 10
5.0181111088
 20
4.5526636189
 11
5.0181111088
 21
4.5362475545
  0
LINE
  5
274
100
AcDbEntity
  8
0
100
AcDbLine
 62
7
  6
CONTINUOUS
 10
5.0199956027
 20
4.7948161891
 11
5.0199956027
 21
4.7148161891
  0
LINE
  5
275
100
AcDbEntity
  8
ALL_ASSEMBLY_MEMBERS
100
AcDbLine
 62
7
  6
CONTINUOUS
 10
5.0291129185
 20
4.5526636189
 11
5.0291129185
 21
4.5362475545
  0
LINE
  5
276
100
AcDbEntity
  8
ALL_ASSEMBLY_MEMBERS
100
AcDbLine
 62
7
  6
CONTINUOUS
 10
4.976854346
 20
4.5617836547
 11
4.9754791178
 21
4.5508396118
  0
LINE
  5
277
100
AcDbEntity
  8
ALL_ASSEMBLY_MEMBERS
100
AcDbLine
 62
7
  6
CONTINUOUS
 10
5.0112349837
 20
4.5380715617
 11
5.0098597555
 21
4.5271275162
  0
LINE
  5
278
100
AcDbEntity
  8
ALL_ASSEMBLY_MEMBERS
100
AcDbLine
 62
7
  6
CONTINUOUS
 10
5.0373642719
 20
4.5617836547
 11
5.0359890437
 21
4.5508396118
  0
LINE
  5
279
100
AcDbEntity
  8
ALL_ASSEMBLY_MEMBERS
100
AcDbLine
 62
7
  6
CONTINUOUS
 10
4.9699782169
 20
4.5617836547
 11
4.9686029907
 21
4.5526636189
  0
LINE
  5
27A
100
AcDbEntity
  8
ALL_ASSEMBLY_MEMBERS
100
AcDbLine
 62
7
  6
CONTINUOUS
 10
5.0181111088
 20
4.5362475545
 11
5.0167358885
 21
4.5271275162
  0
LINE
  5
27B
100
AcDbEntity
  8
ALL_ASSEMBLY_MEMBERS
100
AcDbLine
 62
7
  6
CONTINUOUS
 10
5.0304881388
 20
4.5617836547
 11
5.0291129185
 21
4.5526636189
  0
LINE
  5
27C
100
AcDbEntity
  8
ALL_ASSEMBLY_MEMBERS
100
AcDbLine
 62
7
  6
CONTINUOUS
 10
4.9713534431
 20
4.5672556813
 11
4.9699782169
 21
4.5617836547
  0
LINE
  5
27D
100
AcDbEntity
  8
ALL_ASSEMBLY_MEMBERS
100
AcDbLine
 62
7
  6
CONTINUOUS
 10
5.0167358885
 20
4.5271275162
 11
5.0153606603
 21
4.5216554947
  0
LINE
  5
27E
100
AcDbEntity
  8
ALL_ASSEMBLY_MEMBERS
100
AcDbLine
 62
7
  6
CONTINUOUS
 10
5.031863367
 20
4.5672556813
 11
5.0304881388
 21
4.5617836547
  0
LINE
  5
27F
100
AcDbEntity
  8
ALL_ASSEMBLY_MEMBERS
100
AcDbLine
 62
7
  6
CONTINUOUS
 10
5.0772458104
 20
4.5271275162
 11
5.0758705901
 21
4.5216554947
  0
LINE
  5
280
100
AcDbEntity
  8
ALL_ASSEMBLY_MEMBERS
100
AcDbLine
 62
7
  6
CONTINUOUS
 10
5.0346138155
 20
4.5745517099
 11
5.031863367
 21
4.5672556813
  0
LINE
  5
281
100
AcDbEntity
  8
ALL_ASSEMBLY_MEMBERS
100
AcDbLine
 62
7
  6
CONTINUOUS
 10
5.0153606603
 20
4.5216554947
 11
5.0126102118
 21
4.5143594649
  0
LINE
  5
282
100
AcDbEntity
  8
ALL_ASSEMBLY_MEMBERS
100
AcDbLine
 62
7
  6
CONTINUOUS
 10
5.0758705901
 20
4.5216554947
 11
5.0731201338
 21
4.5143594649
  0
LINE
  5
283
100
AcDbEntity
  8
ALL_ASSEMBLY_MEMBERS
100
AcDbLine
 62
7
  6
CONTINUOUS
 10
5.0703696853
 20
4.5271275162
 11
5.0648687804
 21
4.516183472
  0
LINE
  5
284
100
AcDbEntity
  8
ALL_ASSEMBLY_MEMBERS
100
AcDbLine
 62
7
  6
CONTINUOUS
 10
5.036512384
 20
4.1792862954
 11
5.0154027246
 21
4.1792862954
  0
LINE
  5
285
100
AcDbEntity
  8
ALL_ASSEMBLY_MEMBERS
100
AcDbLine
 62
7
  6
CONTINUOUS
 10
5.0045895114
 20
4.1792862954
 11
4.9834798521
 21
4.1792862954
  0
LINE
  5
286
100
AcDbEntity
  8
ALL_ASSEMBLY_MEMBERS
100
AcDbLine
 62
7
  6
CONTINUOUS
 10
4.9699782169
 20
4.5271275162
 11
4.9686029907
 21
4.5362475545
  0
LINE
  5
287
100
AcDbEntity
  8
ALL_ASSEMBLY_MEMBERS
100
AcDbLine
 62
7
  6
CONTINUOUS
 10
4.976854346
 20
4.5271275162
 11
4.9754791178
 21
4.5380715617
  0
LINE
  5
288
100
AcDbEntity
  8
ALL_ASSEMBLY_MEMBERS
100
AcDbLine
 62
7
  6
CONTINUOUS
 10
5.1662261261
 20
3.6113991819
 11
5.1662446149
 21
3.6008126166
  0
LINE
  5
289
100
AcDbEntity
  8
ALL_ASSEMBLY_MEMBERS
100
AcDbLine
 62
7
  6
CONTINUOUS
 10
5.166224
 20
3.6150362954
 11
5.1662463163
 21
3.5985392047
  0
LINE
  5
28A
100
AcDbEntity
  8
ALL_ASSEMBLY_MEMBERS
100
AcDbLine
 62
7
  6
CONTINUOUS
 10
5.0359890437
 20
4.5508396118
 11
5.0359890437
 21
4.5380715617
  0
LINE
  5
28B
100
AcDbEntity
  8
ALL_ASSEMBLY_MEMBERS
100
AcDbLine
 62
7
  6
CONTINUOUS
 10
5.039496118
 20
4.1724564991
 11
5.039496118
 21
4.1779845055
  0
LINE
  5
28C
100
AcDbEntity
  8
ALL_ASSEMBLY_MEMBERS
100
AcDbLine
 62
7
  6
CONTINUOUS
 10
5.0717449056
 20
4.5508396118
 11
5.0717449056
 21
4.5380715617
  0
LINE
  5
28D
100
AcDbEntity
  8
ALL_ASSEMBLY_MEMBERS
100
AcDbLine
 62
7
  6
CONTINUOUS
 10
5.0786210307
 20
4.5526636189
 11
5.0786210307
 21
4.5362475545
  0
LINE
  5
28E
100
AcDbEntity
  8
ALL_ASSEMBLY_MEMBERS
100
AcDbLine
 62
7
  6
CONTINUOUS
 10
5.166246118
 20
3.4966628831
 11
5.166246118
 21
3.5985392331
  0
LINE
  5
28F
100
AcDbEntity
  8
ALL_ASSEMBLY_MEMBERS
100
AcDbLine
 62
7
  6
CONTINUOUS
 10
5.166246118
 20
3.6925362954
 11
5.1662446149
 21
3.6292600364
  0
LINE
  5
290
100
AcDbEntity
  8
ALL_ASSEMBLY_MEMBERS
100
AcDbLine
 62
7
  6
CONTINUOUS
 10
5.1662463163
 20
3.6315333861
 11
5.166224
 21
3.6150362954
  0
LINE
  5
291
100
AcDbEntity
  8
ALL_ASSEMBLY_MEMBERS
100
AcDbLine
 62
7
  6
CONTINUOUS
 10
5.0717449056
 20
4.5380715617
 11
5.0703696853
 21
4.5271275162
  0
LINE
  5
292
100
AcDbEntity
  8
ALL_ASSEMBLY_MEMBERS
100
AcDbLine
 62
7
  6
CONTINUOUS
 10
5.0786210307
 20
4.5362475545
 11
5.0772458104
 21
4.5271275162
  0
LINE
  5
293
100
AcDbEntity
  8
ALL_ASSEMBLY_MEMBERS
100
AcDbLine
 62
7
  6
CONTINUOUS
 10
4.9782295703
 20
4.5088874428
 11
4.9741038936
 21
4.5143594649
  0
LINE
  5
294
100
AcDbEntity
  8
ALL_ASSEMBLY_MEMBERS
100
AcDbLine
 62
7
  6
CONTINUOUS
 10
4.9823552469
 20
4.516183472
 11
4.976854346
 21
4.5271275162
  0
LINE
  5
295
100
AcDbEntity
  8
ALL_ASSEMBLY_MEMBERS
100
AcDbLine
 62
7
  6
CONTINUOUS
 10
5.0098597555
 20
4.5617836547
 11
5.0043588546
 21
4.5727277027
  0
LINE
  5
296
100
AcDbEntity
  8
ALL_ASSEMBLY_MEMBERS
100
AcDbLine
 62
7
  6
CONTINUOUS
 10
5.0428651689
 20
4.516183472
 11
5.0373642719
 21
4.5271275162
  0
LINE
  5
297
100
AcDbEntity
  8
ALL_ASSEMBLY_MEMBERS
100
AcDbLine
 62
7
  6
CONTINUOUS
 10
4.9741038936
 20
4.5143594649
 11
4.9713534431
 21
4.5216554947
  0
LINE
  5
298
100
AcDbEntity
  8
ALL_ASSEMBLY_MEMBERS
100
AcDbLine
 62
7
  6
CONTINUOUS
 10
5.0346138155
 20
4.5143594649
 11
5.031863367
 21
4.5216554947
  0
LINE
  5
299
100
AcDbEntity
  8
ALL_ASSEMBLY_MEMBERS
100
AcDbLine
 62
7
  6
CONTINUOUS
 10
5.0153606603
 20
4.5672556813
 11
5.0126102118
 21
4.5745517099
  0
LINE
  5
29A
100
AcDbEntity
  8
ALL_ASSEMBLY_MEMBERS
100
AcDbLine
 62
7
  6
CONTINUOUS
 10
4.9713534431
 20
4.5216554947
 11
4.9699782169
 21
4.5271275162
  0
LINE
  5
29B
100
AcDbEntity
  8
ALL_ASSEMBLY_MEMBERS
100
AcDbLine
 62
7
  6
CONTINUOUS
 10
5.0167358885
 20
4.5617836547
 11
5.0153606603
 21
4.5672556813
  0
LINE
  5
29C
100
AcDbEntity
  8
ALL_ASSEMBLY_MEMBERS
100
AcDbLine
 62
7
  6
CONTINUOUS
 10
5.031863367
 20
4.5216554947
 11
5.0304881388
 21
4.5271275162
  0
LINE
  5
29D
100
AcDbEntity
  8
ALL_ASSEMBLY_MEMBERS
100
AcDbLine
 62
7
  6
CONTINUOUS
 10
5.0772458104
 20
4.5617836547
 11
5.0758705901
 21
4.5672556813
  0
LINE
  5
29E
100
AcDbEntity
  8
ALL_ASSEMBLY_MEMBERS
100
AcDbLine
 62
7
  6
CONTINUOUS
 10
5.0181111088
 20
4.5526636189
 11
5.0167358885
 21
4.5617836547
  0
LINE
  5
29F
100
AcDbEntity
  8
ALL_ASSEMBLY_MEMBERS
100
AcDbLine
 62
7
  6
CONTINUOUS
 10
5.0304881388
 20
4.5271275162
 11
5.0291129185
 21
4.5362475545
  0
LINE
  5
2A0
100
AcDbEntity
  8
ALL_ASSEMBLY_MEMBERS
100
AcDbLine
 62
7
  6
CONTINUOUS
 10
5.0786210307
 20
4.5526636189
 11
5.0772458104
 21
4.5617836547
  0
LINE
  5
2A1
100
AcDbEntity
  8
ALL_ASSEMBLY_MEMBERS
100
AcDbLine
 62
7
  6
CONTINUOUS
 10
5.0112349837
 20
4.5508396118
 11
5.0098597555
 21
4.5617836547
  0
LINE
  5
2A2
100
AcDbEntity
  8
ALL_ASSEMBLY_MEMBERS
100
AcDbLine
 62
7
  6
CONTINUOUS
 10
5.0373642719
 20
4.5271275162
 11
5.0359890437
 21
4.5380715617
  0
LINE
  5
2A3
100
AcDbEntity
  8
ALL_ASSEMBLY_MEMBERS
100
AcDbLine
 62
7
  6
CONTINUOUS
 10
5.0717449056
 20
4.5508396118
 11
5.0703696853
 21
4.5617836547
  0
LINE
  5
2A4
100
AcDbEntity
  8
ALL_ASSEMBLY_MEMBERS
100
AcDbLine
 62
7
  6
CONTINUOUS
 10
5.259996118
 20
3.1925362954
 11
5.259996118
 21
3.2424731818
  0
LINE
  5
2A5
100
AcDbEntity
  8
ALL_ASSEMBLY_MEMBERS
100
AcDbLine
 62
7
  6
CONTINUOUS
 10
5.259996118
 20
3.392614812
 11
5.259996118
 21
3.4425362954
  0
LINE
  5
2A6
100
AcDbEntity
  8
ALL_ASSEMBLY_MEMBERS
100
AcDbLine
 62
7
  6
CONTINUOUS
 10
5.2760439006
 20
4.5901740907
 11
5.2760439006
 21
4.5015914135
  0
LINE
  5
2A7
100
AcDbEntity
  8
ALL_ASSEMBLY_MEMBERS
100
AcDbLine
 62
7
  6
CONTINUOUS
 10
5.2774591429
 20
4.5901740907
 11
5.2774591429
 21
4.5015914135
  0
LINE
  5
2A8
100
AcDbEntity
  8
ALL_ASSEMBLY_MEMBERS
100
AcDbLine
 62
7
  6
CONTINUOUS
 10
5.2984216952
 20
4.5901740907
 11
5.2984216952
 21
4.5015914135
  0
LINE
  5
2A9
100
AcDbEntity
  8
ALL_ASSEMBLY_MEMBERS
100
AcDbLine
 62
7
  6
CONTINUOUS
 10
5.0607431037
 20
4.5125354577
 11
5.0538669786
 21
4.5107114505
  0
LINE
  5
2AA
100
AcDbEntity
  8
ALL_ASSEMBLY_MEMBERS
100
AcDbLine
 62
7
  6
CONTINUOUS
 10
5.0002331779
 20
4.5125354577
 11
4.9933570527
 21
4.5107114505
  0
LINE
  5
2AB
100
AcDbEntity
  8
ALL_ASSEMBLY_MEMBERS
100
AcDbLine
 62
7
  6
CONTINUOUS
 10
5.0621183319
 20
4.5034154208
 11
5.0538669786
 21
4.5015914135
  0
LINE
  5
2AC
100
AcDbEntity
  8
ALL_ASSEMBLY_MEMBERS
100
AcDbLine
 62
7
  6
CONTINUOUS
 10
5.0016084061
 20
4.5034154208
 11
4.9933570527
 21
4.5015914135
  0
LINE
  5
2AD
100
AcDbEntity
  8
ALL_ASSEMBLY_MEMBERS
100
AcDbLine
 62
7
  6
CONTINUOUS
 10
4.524996118
 20
4.4425362954
 11
5.494996118
 21
4.4425362954
  0
LINE
  5
2AE
100
AcDbEntity
  8
ALL_ASSEMBLY_MEMBERS
100
AcDbLine
 62
7
  6
CONTINUOUS
 10
5.494746118
 20
4.5015914135
 11
5.4921098195
 21
4.5015914135
  0
LINE
  5
2AF
100
AcDbEntity
  8
ALL_ASSEMBLY_MEMBERS
100
AcDbLine
 62
7
  6
CONTINUOUS
 10
5.4776523578
 20
4.5015914135
 11
5.4723877272
 21
4.5015914135
  0
LINE
  5
2B0
100
AcDbEntity
  8
ALL_ASSEMBLY_MEMBERS
100
AcDbLine
 62
7
  6
CONTINUOUS
 10
5.461361218
 20
4.5015914135
 11
5.45502029
 21
4.5015914135
  0
LINE
  5
2B1
100
AcDbEntity
  8
ALL_ASSEMBLY_MEMBERS
100
AcDbLine
 62
7
  6
CONTINUOUS
 10
5.4470889713
 20
4.5015914135
 11
5.4399851639
 21
4.5015914135
  0
LINE
  5
2B2
100
AcDbEntity
  8
ALL_ASSEMBLY_MEMBERS
100
AcDbLine
 62
7
  6
CONTINUOUS
 10
5.2984216952
 20
4.5015914135
 11
5.2760439006
 21
4.5015914135
  0
LINE
  5
2B3
100
AcDbEntity
  8
ALL_ASSEMBLY_MEMBERS
100
AcDbLine
 62
7
  6
CONTINUOUS
 10
4.9576011869
 20
4.5015914135
 11
4.9493498336
 21
4.5015914135
  0
LINE
  5
2B4
100
AcDbEntity
  8
ALL_ASSEMBLY_MEMBERS
100
AcDbLine
 62
7
  6
CONTINUOUS
 10
4.525415017
 20
4.5015914135
 11
4.5278824166
 21
4.5015914135
  0
LINE
  5
2B5
100
AcDbEntity
  8
ALL_ASSEMBLY_MEMBERS
100
AcDbLine
 62
7
  6
CONTINUOUS
 10
4.5448867892
 20
4.5015914135
 11
4.5493481442
 21
4.5015914135
  0
LINE
  5
2B6
100
AcDbEntity
  8
ALL_ASSEMBLY_MEMBERS
100
AcDbLine
 62
7
  6
CONTINUOUS
 10
4.5630515331
 20
4.5015914135
 11
4.5682933769
 21
4.5015914135
  0
LINE
  5
2B7
100
AcDbEntity
  8
ALL_ASSEMBLY_MEMBERS
100
AcDbLine
 62
7
  6
CONTINUOUS
 10
4.7215705408
 20
4.5015914135
 11
4.7439483354
 21
4.5015914135
  0
LINE
  5
2B8
100
AcDbEntity
  8
ALL_ASSEMBLY_MEMBERS
100
AcDbLine
 62
7
  6
CONTINUOUS
 10
5.4720866055
 20
4.5034154208
 11
5.4697667541
 21
4.5034154208
  0
LINE
  5
2B9
100
AcDbEntity
  8
ALL_ASSEMBLY_MEMBERS
100
AcDbLine
 62
7
  6
CONTINUOUS
 10
4.5488929664
 20
4.5034154208
 11
4.5512122146
 21
4.5034154208
  0
LINE
  5
2BA
100
AcDbEntity
  8
ALL_ASSEMBLY_MEMBERS
100
AcDbLine
 62
7
  6
CONTINUOUS
 10
4.5684850566
 20
4.5034154208
 11
4.570809677
 21
4.5034154208
  0
LINE
  5
2BB
100
AcDbEntity
  8
ALL_ASSEMBLY_MEMBERS
100
AcDbLine
 62
7
  6
CONTINUOUS
 10
5.4693084123
 20
4.5088874428
 11
5.4669899744
 21
4.5088874428
  0
LINE
  5
2BC
100
AcDbEntity
  8
ALL_ASSEMBLY_MEMBERS
100
AcDbLine
 62
7
  6
CONTINUOUS
 10
4.550832017
 20
4.5088874428
 11
4.5531504033
 21
4.5088874428
  0
LINE
  5
2BD
100
AcDbEntity
  8
ALL_ASSEMBLY_MEMBERS
100
AcDbLine
 62
7
  6
CONTINUOUS
 10
4.571073515
 20
4.5088874428
 11
4.5734006127
 21
4.5088874428
  0
LINE
  5
2BE
100
AcDbEntity
  8
ALL_ASSEMBLY_MEMBERS
100
AcDbLine
 62
7
  6
CONTINUOUS
 10
5.4776523578
 20
4.5107114505
 11
5.4747097893
 21
4.5107114505
  0
LINE
  5
2BF
100
AcDbEntity
  8
ALL_ASSEMBLY_MEMBERS
100
AcDbLine
 62
7
  6
CONTINUOUS
 10
4.5659708473
 20
4.5107114505
 11
4.5630515331
 21
4.5107114505
  0
LINE
  5
2C0
100
AcDbEntity
  8
ALL_ASSEMBLY_MEMBERS
100
AcDbLine
 62
7
  6
CONTINUOUS
 10
4.5466634518
 20
4.5107114505
 11
4.5452362038
 21
4.5107114505
  0
LINE
  5
2C1
100
AcDbEntity
  8
ALL_ASSEMBLY_MEMBERS
100
AcDbLine
 62
7
  6
CONTINUOUS
 10
5.4794891857
 20
4.5125354577
 11
5.4771602809
 21
4.5125354577
  0
LINE
  5
2C2
100
AcDbEntity
  8
ALL_ASSEMBLY_MEMBERS
100
AcDbLine
 62
7
  6
CONTINUOUS
 10
4.5438563227
 20
4.5125354577
 11
4.5461800046
 21
4.5125354577
  0
LINE
  5
2C3
100
AcDbEntity
  8
ALL_ASSEMBLY_MEMBERS
100
AcDbLine
 62
7
  6
CONTINUOUS
 10
4.5611644301
 20
4.5125354577
 11
4.5634839259
 21
4.5125354577
  0
LINE
  5
2C4
100
AcDbEntity
  8
ALL_ASSEMBLY_MEMBERS
100
AcDbLine
 62
7
  6
CONTINUOUS
 10
4.552030808
 20
4.5143594649
 11
4.5543488583
 21
4.5143594649
  0
LINE
  5
2C5
100
AcDbEntity
  8
ALL_ASSEMBLY_MEMBERS
100
AcDbLine
 62
7
  6
CONTINUOUS
 10
5.4808009678
 20
4.516183472
 11
5.4784693708
 21
4.516183472
  0
LINE
  5
2C6
100
AcDbEntity
  8
ALL_ASSEMBLY_MEMBERS
100
AcDbLine
 62
7
  6
CONTINUOUS
 10
5.4675672136
 20
4.516183472
 11
5.4652492431
 21
4.516183472
  0
LINE
  5
2C7
100
AcDbEntity
  8
ALL_ASSEMBLY_MEMBERS
100
AcDbLine
 62
7
  6
CONTINUOUS
 10
4.5425239051
 20
4.516183472
 11
4.5448494057
 21
4.516183472
  0
LINE
  5
2C8
100
AcDbEntity
  8
ALL_ASSEMBLY_MEMBERS
100
AcDbLine
 62
7
  6
CONTINUOUS
 10
4.559780085
 20
4.516183472
 11
4.5620989669
 21
4.516183472
  0
LINE
  5
2C9
100
AcDbEntity
  8
ALL_ASSEMBLY_MEMBERS
100
AcDbLine
 62
7
  6
CONTINUOUS
 10
4.5726623284
 20
4.516183472
 11
4.5749910995
 21
4.516183472
  0
LINE
  5
2CA
100
AcDbEntity
  8
ALL_ASSEMBLY_MEMBERS
100
AcDbLine
 62
7
  6
CONTINUOUS
 10
5.4816440321
 20
4.5216554947
 11
5.4793104738
 21
4.5216554947
  0
LINE
  5
2CB
100
AcDbEntity
  8
ALL_ASSEMBLY_MEMBERS
100
AcDbLine
 62
7
  6
CONTINUOUS
 10
5.4698764358
 20
4.5234795019
 11
5.4640576697
 21
4.5234795019
  0
LINE
  5
2CC
100
AcDbEntity
  8
ALL_ASSEMBLY_MEMBERS
100
AcDbLine
 62
7
  6
CONTINUOUS
 10
4.5415558057
 20
4.5234795019
 11
4.5438828332
 21
4.5234795019
  0
LINE
  5
2CD
100
AcDbEntity
  8
ALL_ASSEMBLY_MEMBERS
100
AcDbLine
 62
7
  6
CONTINUOUS
 10
4.5528447279
 20
4.5234795019
 11
4.5551626296
 21
4.5234795019
  0
LINE
  5
2CE
100
AcDbEntity
  8
ALL_ASSEMBLY_MEMBERS
100
AcDbLine
 62
7
  6
CONTINUOUS
 10
4.5562181747
 20
4.5234795019
 11
4.5611904768
 21
4.5234795019
  0
LINE
  5
2CF
100
AcDbEntity
  8
ALL_ASSEMBLY_MEMBERS
100
AcDbLine
 62
7
  6
CONTINUOUS
 10
4.5737364618
 20
4.5253035091
 11
4.576066427
 21
4.5253035091
  0
LINE
  5
2D0
100
AcDbEntity
  8
ALL_ASSEMBLY_MEMBERS
100
AcDbLine
 62
7
  6
CONTINUOUS
 10
5.4820561009
 20
4.5271275162
 11
5.4797215116
 21
4.5271275162
  0
LINE
  5
2D1
100
AcDbEntity
  8
ALL_ASSEMBLY_MEMBERS
100
AcDbLine
 62
7
  6
CONTINUOUS
 10
4.9933570527
 20
4.5015914135
 11
4.9851056994
 21
4.5034154208
  0
LINE
  5
2D2
100
AcDbEntity
  8
ALL_ASSEMBLY_MEMBERS
100
AcDbLine
 62
7
  6
CONTINUOUS
 10
5.0538669786
 20
4.5015914135
 11
5.0456156252
 21
4.5034154208
  0
LINE
  5
2D3
100
AcDbEntity
  8
ALL_ASSEMBLY_MEMBERS
100
AcDbLine
 62
7
  6
CONTINUOUS
 10
4.9933570527
 20
4.5107114505
 11
4.9864809236
 21
4.5125354577
  0
LINE
  5
2D4
100
AcDbEntity
  8
ALL_ASSEMBLY_MEMBERS
100
AcDbLine
 62
7
  6
CONTINUOUS
 10
5.0538669786
 20
4.5107114505
 11
5.0469908455
 21
4.5125354577
  0
LINE
  5
2D5
100
AcDbEntity
  8
ALL_ASSEMBLY_MEMBERS
100
AcDbLine
 62
7
  6
CONTINUOUS
 10
4.9851056994
 20
4.5034154208
 11
4.9782295703
 21
4.5088874428
  0
LINE
  5
2D6
100
AcDbEntity
  8
ALL_ASSEMBLY_MEMBERS
100
AcDbLine
 62
7
  6
CONTINUOUS
 10
5.0456156252
 20
4.5034154208
 11
5.0387394922
 21
4.5088874428
  0
LINE
  5
2D7
100
AcDbEntity
  8
ALL_ASSEMBLY_MEMBERS
100
AcDbLine
 62
7
  6
CONTINUOUS
 10
5.0084845352
 20
4.5800237313
 11
5.0016084061
 21
4.5854957528
  0
LINE
  5
2D8
100
AcDbEntity
  8
ALL_ASSEMBLY_MEMBERS
100
AcDbLine
 62
7
  6
CONTINUOUS
 10
4.9864809236
 20
4.5125354577
 11
4.9823552469
 21
4.516183472
  0
LINE
  5
2D9
100
AcDbEntity
  8
ALL_ASSEMBLY_MEMBERS
100
AcDbLine
 62
7
  6
CONTINUOUS
 10
5.0469908455
 20
4.5125354577
 11
5.0428651689
 21
4.516183472
  0
LINE
  5
2DA
100
AcDbEntity
  8
ALL_ASSEMBLY_MEMBERS
100
AcDbLine
 62
7
  6
CONTINUOUS
 10
5.0043588546
 20
4.5727277027
 11
5.0002331779
 21
4.576375717
  0
LINE
  5
2DB
100
AcDbEntity
  8
ALL_ASSEMBLY_MEMBERS
100
AcDbLine
 62
7
  6
CONTINUOUS
 10
5.0648687804
 20
4.5727277027
 11
5.0607431037
 21
4.576375717
  0
LINE
  5
2DC
100
AcDbEntity
  8
ALL_ASSEMBLY_MEMBERS
100
AcDbLine
 62
7
  6
CONTINUOUS
 10
5.0387394922
 20
4.5088874428
 11
5.0346138155
 21
4.5143594649
  0
LINE
  5
2DD
100
AcDbEntity
  8
ALL_ASSEMBLY_MEMBERS
100
AcDbLine
 62
7
  6
CONTINUOUS
 10
5.0126102118
 20
4.5745517099
 11
5.0084845352
 21
4.5800237313
  0
LINE
  5
2DE
100
AcDbEntity
  8
ALL_ASSEMBLY_MEMBERS
100
AcDbLine
 62
7
  6
CONTINUOUS
 10
5.0731201338
 20
4.5745517099
 11
5.0689944571
 21
4.5800237313
  0
LINE
  5
2DF
100
AcDbEntity
  8
ALL_ASSEMBLY_MEMBERS
100
AcDbLine
 62
7
  6
CONTINUOUS
 10
5.0703696853
 20
4.5617836547
 11
5.0648687804
 21
4.5727277027
  0
LINE
  5
2E0
100
AcDbEntity
  8
ALL_ASSEMBLY_MEMBERS
100
AcDbLine
 62
7
  6
CONTINUOUS
 10
5.0758705901
 20
4.5672556813
 11
5.0731201338
 21
4.5745517099
  0
LINE
  5
2E1
100
AcDbEntity
  8
ALL_ASSEMBLY_MEMBERS
100
AcDbLine
 62
7
  6
CONTINUOUS
 10
5.4349816412
 20
4.5745517099
 11
5.4349816412
 21
4.5599596475
  0
LINE
  5
2E2
100
AcDbEntity
  8
ALL_ASSEMBLY_MEMBERS
100
AcDbLine
 62
7
  6
CONTINUOUS
 10
5.4373233213
 20
4.5745517099
 11
5.4373233213
 21
4.5599596475
  0
LINE
  5
2E3
100
AcDbEntity
  8
ALL_ASSEMBLY_MEMBERS
100
AcDbLine
 62
7
  6
CONTINUOUS
 10
5.4399851639
 20
4.5666899564
 11
5.4399851639
 21
4.5015914135
  0
LINE
  5
2E4
100
AcDbEntity
  8
ALL_ASSEMBLY_MEMBERS
100
AcDbLine
 62
7
  6
CONTINUOUS
 10
5.4423199136
 20
4.5727277027
 11
5.4423199136
 21
4.5015914135
  0
LINE
  5
2E5
100
AcDbEntity
  8
ALL_ASSEMBLY_MEMBERS
100
AcDbLine
 62
7
  6
CONTINUOUS
 10
5.4470889713
 20
4.58731976
 11
5.4470889713
 21
4.5015914135
  0
LINE
  5
2E6
100
AcDbEntity
  8
ALL_ASSEMBLY_MEMBERS
100
AcDbLine
 62
7
  6
CONTINUOUS
 10
5.4507733277
 20
4.5745517099
 11
5.4507733277
 21
4.5599596475
  0
LINE
  5
2E7
100
AcDbEntity
  8
ALL_ASSEMBLY_MEMBERS
100
AcDbLine
 62
7
  6
CONTINUOUS
 10
5.4530965886
 20
4.5745517099
 11
5.4530965886
 21
4.5599596475
  0
LINE
  5
2E8
100
AcDbEntity
  8
ALL_ASSEMBLY_MEMBERS
100
AcDbLine
 62
7
  6
CONTINUOUS
 10
5.45502029
 20
4.5656659405
 11
5.45502029
 21
4.5015914135
  0
LINE
  5
2E9
100
AcDbEntity
  8
ALL_ASSEMBLY_MEMBERS
100
AcDbLine
 62
7
  6
CONTINUOUS
 10
5.4573405801
 20
4.5727277027
 11
5.4573405801
 21
4.5015914135
  0
LINE
  5
2EA
100
AcDbEntity
  8
ALL_ASSEMBLY_MEMBERS
100
AcDbLine
 62
7
  6
CONTINUOUS
 10
5.0538669786
 20
4.5781997242
 11
5.0469908455
 21
4.576375717
  0
LINE
  5
2EB
100
AcDbEntity
  8
ALL_ASSEMBLY_MEMBERS
100
AcDbLine
 62
7
  6
CONTINUOUS
 10
4.9933570527
 20
4.5781997242
 11
4.9864809236
 21
4.576375717
  0
LINE
  5
2EC
100
AcDbEntity
  8
ALL_ASSEMBLY_MEMBERS
100
AcDbLine
 62
7
  6
CONTINUOUS
 10
5.0538669786
 20
4.58731976
 11
5.0456156252
 21
4.5854957528
  0
LINE
  5
2ED
100
AcDbEntity
  8
ALL_ASSEMBLY_MEMBERS
100
AcDbLine
 62
7
  6
CONTINUOUS
 10
4.9933570527
 20
4.58731976
 11
4.9851056994
 21
4.5854957528
  0
LINE
  5
2EE
100
AcDbEntity
  8
ALL_ASSEMBLY_MEMBERS
100
AcDbLine
 62
7
  6
CONTINUOUS
 10
4.5415558057
 20
4.5289515234
 11
4.5438828332
 21
4.5289515234
  0
LINE
  5
2EF
100
AcDbEntity
  8
ALL_ASSEMBLY_MEMBERS
100
AcDbLine
 62
7
  6
CONTINUOUS
 10
4.5528447279
 20
4.5289515234
 11
4.5551626296
 21
4.5289515234
  0
LINE
  5
2F0
100
AcDbEntity
  8
ALL_ASSEMBLY_MEMBERS
100
AcDbLine
 62
7
  6
CONTINUOUS
 10
5.4820561009
 20
4.5307755305
 11
5.4797215116
 21
4.5307755305
  0
LINE
  5
2F1
100
AcDbEntity
  8
ALL_ASSEMBLY_MEMBERS
100
AcDbLine
 62
7
  6
CONTINUOUS
 10
4.5737364618
 20
4.5325995377
 11
4.576066427
 21
4.5325995377
  0
LINE
  5
2F2
100
AcDbEntity
  8
ALL_ASSEMBLY_MEMBERS
100
AcDbLine
 62
7
  6
CONTINUOUS
 10
5.4816440321
 20
4.5362475545
 11
5.4793104738
 21
4.5362475545
  0
LINE
  5
2F3
100
AcDbEntity
  8
ALL_ASSEMBLY_MEMBERS
100
AcDbLine
 62
7
  6
CONTINUOUS
 10
4.5425239051
 20
4.5362475545
 11
4.5448494057
 21
4.5362475545
  0
LINE
  5
2F4
100
AcDbEntity
  8
ALL_ASSEMBLY_MEMBERS
100
AcDbLine
 62
7
  6
CONTINUOUS
 10
4.552030808
 20
4.5380715617
 11
4.5543488583
 21
4.5380715617
  0
LINE
  5
2F5
100
AcDbEntity
  8
ALL_ASSEMBLY_MEMBERS
100
AcDbLine
 62
7
  6
CONTINUOUS
 10
5.4704382705
 20
4.5398955688
 11
5.4640576697
 21
4.5398955688
  0
LINE
  5
2F6
100
AcDbEntity
  8
ALL_ASSEMBLY_MEMBERS
100
AcDbLine
 62
7
  6
CONTINUOUS
 10
4.5438563227
 20
4.5398955688
 11
4.5461800046
 21
4.5398955688
  0
LINE
  5
2F7
100
AcDbEntity
  8
ALL_ASSEMBLY_MEMBERS
100
AcDbLine
 62
7
  6
CONTINUOUS
 10
4.5562181747
 20
4.5398955688
 11
4.5616432405
 21
4.5398955688
  0
LINE
  5
2F8
100
AcDbEntity
  8
ALL_ASSEMBLY_MEMBERS
100
AcDbLine
 62
7
  6
CONTINUOUS
 10
5.4808009678
 20
4.541719576
 11
5.4784693708
 21
4.541719576
  0
LINE
  5
2F9
100
AcDbEntity
  8
ALL_ASSEMBLY_MEMBERS
100
AcDbLine
 62
7
  6
CONTINUOUS
 10
4.5466634518
 20
4.541719576
 11
4.5452362038
 21
4.541719576
  0
LINE
  5
2FA
100
AcDbEntity
  8
ALL_ASSEMBLY_MEMBERS
100
AcDbLine
 62
7
  6
CONTINUOUS
 10
4.5726623284
 20
4.541719576
 11
4.5749910995
 21
4.541719576
  0
LINE
  5
2FB
100
AcDbEntity
  8
ALL_ASSEMBLY_MEMBERS
100
AcDbLine
 62
7
  6
CONTINUOUS
 10
4.5504383123
 20
4.5435435831
 11
4.5527568407
 21
4.5435435831
  0
LINE
  5
2FC
100
AcDbEntity
  8
ALL_ASSEMBLY_MEMBERS
100
AcDbLine
 62
7
  6
CONTINUOUS
 10
5.4794891857
 20
4.5453675903
 11
5.4771602809
 21
4.5453675903
  0
LINE
  5
2FD
100
AcDbEntity
  8
ALL_ASSEMBLY_MEMBERS
100
AcDbLine
 62
7
  6
CONTINUOUS
 10
4.5496597427
 20
4.5453675903
 11
4.5519786007
 21
4.5453675903
  0
LINE
  5
2FE
100
AcDbEntity
  8
ALL_ASSEMBLY_MEMBERS
100
AcDbLine
 62
7
  6
CONTINUOUS
 10
4.5611644301
 20
4.5453675903
 11
4.5634839259
 21
4.5453675903
  0
LINE
  5
2FF
100
AcDbEntity
  8
ALL_ASSEMBLY_MEMBERS
100
AcDbLine
 62
7
  6
CONTINUOUS
 10
5.4776523578
 20
4.5471915975
 11
5.4747097893
 21
4.5471915975
  0
LINE
  5
300
100
AcDbEntity
  8
ALL_ASSEMBLY_MEMBERS
100
AcDbLine
 62
7
  6
CONTINUOUS
 10
4.5659708473
 20
4.5471915975
 11
4.5630515331
 21
4.5471915975
  0
LINE
  5
301
100
AcDbEntity
  8
ALL_ASSEMBLY_MEMBERS
100
AcDbLine
 62
7
  6
CONTINUOUS
 10
4.5504383123
 20
4.5471915975
 11
4.5527568407
 21
4.5471915975
  0
LINE
  5
302
100
AcDbEntity
  8
ALL_ASSEMBLY_MEMBERS
100
AcDbLine
 62
7
  6
CONTINUOUS
 10
4.5466634518
 20
4.5490156046
 11
4.5452362038
 21
4.5490156046
  0
LINE
  5
303
100
AcDbEntity
  8
ALL_ASSEMBLY_MEMBERS
100
AcDbLine
 62
7
  6
CONTINUOUS
 10
4.571073515
 20
4.5490156046
 11
4.5734006127
 21
4.5490156046
  0
LINE
  5
304
100
AcDbEntity
  8
ALL_ASSEMBLY_MEMBERS
100
AcDbLine
 62
7
  6
CONTINUOUS
 10
4.5438563227
 20
4.5508396118
 11
4.5461800046
 21
4.5508396118
  0
LINE
  5
305
100
AcDbEntity
  8
ALL_ASSEMBLY_MEMBERS
100
AcDbLine
 62
7
  6
CONTINUOUS
 10
4.5516282659
 20
4.5526636189
 11
4.5539464131
 21
4.5526636189
  0
LINE
  5
306
100
AcDbEntity
  8
ALL_ASSEMBLY_MEMBERS
100
AcDbLine
 62
7
  6
CONTINUOUS
 10
5.4720866055
 20
4.5544876261
 11
5.4697667541
 21
4.5544876261
  0
LINE
  5
307
100
AcDbEntity
  8
ALL_ASSEMBLY_MEMBERS
100
AcDbLine
 62
7
  6
CONTINUOUS
 10
4.5684850566
 20
4.5544876261
 11
4.570809677
 21
4.5544876261
  0
LINE
  5
308
100
AcDbEntity
  8
ALL_ASSEMBLY_MEMBERS
100
AcDbLine
 62
7
  6
CONTINUOUS
 10
5.4776523578
 20
4.5563116332
 11
5.4723877272
 21
4.5563116332
  0
LINE
  5
309
100
AcDbEntity
  8
ALL_ASSEMBLY_MEMBERS
100
AcDbLine
 62
7
  6
CONTINUOUS
 10
4.5425239051
 20
4.5563116332
 11
4.5448494057
 21
4.5563116332
  0
LINE
  5
30A
100
AcDbEntity
  8
ALL_ASSEMBLY_MEMBERS
100
AcDbLine
 62
7
  6
CONTINUOUS
 10
4.5630515331
 20
4.5563116332
 11
4.5682933769
 21
4.5563116332
  0
LINE
  5
30B
100
AcDbEntity
  8
ALL_ASSEMBLY_MEMBERS
100
AcDbLine
 62
7
  6
CONTINUOUS
 10
5.4530965886
 20
4.5599596475
 11
5.4507733277
 21
4.5599596475
  0
LINE
  5
30C
100
AcDbEntity
  8
ALL_ASSEMBLY_MEMBERS
100
AcDbLine
 62
7
  6
CONTINUOUS
 10
5.4373233213
 20
4.5599596475
 11
5.4349816412
 21
4.5599596475
  0
LINE
  5
30D
100
AcDbEntity
  8
ALL_ASSEMBLY_MEMBERS
100
AcDbLine
 62
7
  6
CONTINUOUS
 10
4.5524362962
 20
4.5599596475
 11
4.5547542646
 21
4.5599596475
  0
LINE
  5
30E
100
AcDbEntity
  8
ALL_ASSEMBLY_MEMBERS
100
AcDbLine
 62
7
  6
CONTINUOUS
 10
4.541875529
 20
4.5617836547
 11
4.544202032
 21
4.5617836547
  0
LINE
  5
30F
100
AcDbEntity
  8
ALL_ASSEMBLY_MEMBERS
100
AcDbLine
 62
7
  6
CONTINUOUS
 10
4.541875529
 20
4.565431669
 11
4.544202032
 21
4.565431669
  0
LINE
  5
310
100
AcDbEntity
  8
ALL_ASSEMBLY_MEMBERS
100
AcDbLine
 62
7
  6
CONTINUOUS
 10
4.5524362962
 20
4.565431669
 11
4.5547542646
 21
4.565431669
  0
LINE
  5
311
100
AcDbEntity
  8
ALL_ASSEMBLY_MEMBERS
100
AcDbLine
 62
7
  6
CONTINUOUS
 10
4.5425239051
 20
4.5709036956
 11
4.5448494057
 21
4.5709036956
  0
LINE
  5
312
100
AcDbEntity
  8
ALL_ASSEMBLY_MEMBERS
100
AcDbLine
 62
7
  6
CONTINUOUS
 10
5.4530965886
 20
4.5745517099
 11
5.4507733277
 21
4.5745517099
  0
LINE
  5
313
100
AcDbEntity
  8
ALL_ASSEMBLY_MEMBERS
100
AcDbLine
 62
7
  6
CONTINUOUS
 10
5.4373233213
 20
4.5745517099
 11
5.4349816412
 21
4.5745517099
  0
LINE
  5
314
100
AcDbEntity
  8
ALL_ASSEMBLY_MEMBERS
100
AcDbLine
 62
7
  6
CONTINUOUS
 10
4.5516282659
 20
4.5745517099
 11
4.5539464131
 21
4.5745517099
  0
LINE
  5
315
100
AcDbEntity
  8
ALL_ASSEMBLY_MEMBERS
100
AcDbLine
 62
7
  6
CONTINUOUS
 10
4.5438563227
 20
4.576375717
 11
4.5461800046
 21
4.576375717
  0
LINE
  5
316
100
AcDbEntity
  8
ALL_ASSEMBLY_MEMBERS
100
AcDbLine
 62
7
  6
CONTINUOUS
 10
5.4832543677
 20
4.5781997242
 11
5.4693084123
 21
4.5781997242
  0
LINE
  5
317
100
AcDbEntity
  8
ALL_ASSEMBLY_MEMBERS
100
AcDbLine
 62
7
  6
CONTINUOUS
 10
4.5466634518
 20
4.5781997242
 11
4.5452362038
 21
4.5781997242
  0
LINE
  5
318
100
AcDbEntity
  8
ALL_ASSEMBLY_MEMBERS
100
AcDbLine
 62
7
  6
CONTINUOUS
 10
4.5584222734
 20
4.5781997242
 11
4.5749910995
 21
4.5781997242
  0
LINE
  5
319
100
AcDbEntity
  8
ALL_ASSEMBLY_MEMBERS
100
AcDbLine
 62
7
  6
CONTINUOUS
 10
4.5504383123
 20
4.5800237313
 11
4.5527568407
 21
4.5800237313
  0
LINE
  5
31A
100
AcDbEntity
  8
ALL_ASSEMBLY_MEMBERS
100
AcDbLine
 62
7
  6
CONTINUOUS
 10
4.548514001
 20
4.5854957528
 11
4.550833467
 21
4.5854957528
  0
LINE
  5
31B
100
AcDbEntity
  8
ALL_ASSEMBLY_MEMBERS
100
AcDbLine
 62
7
  6
CONTINUOUS
 10
5.4832543677
 20
4.58731976
 11
5.4640576697
 21
4.58731976
  0
LINE
  5
31C
100
AcDbEntity
  8
ALL_ASSEMBLY_MEMBERS
100
AcDbLine
 62
7
  6
CONTINUOUS
 10
5.461361218
 20
4.58731976
 11
5.45502029
 21
4.58731976
  0
LINE
  5
31D
100
AcDbEntity
  8
ALL_ASSEMBLY_MEMBERS
100
AcDbLine
 62
7
  6
CONTINUOUS
 10
5.4470889713
 20
4.58731976
 11
5.4399851639
 21
4.58731976
  0
LINE
  5
31E
100
AcDbEntity
  8
ALL_ASSEMBLY_MEMBERS
100
AcDbLine
 62
7
  6
CONTINUOUS
 10
4.9576011869
 20
4.58731976
 11
4.9493498336
 21
4.58731976
  0
LINE
  5
31F
100
AcDbEntity
  8
ALL_ASSEMBLY_MEMBERS
100
AcDbLine
 62
7
  6
CONTINUOUS
 10
4.5452362038
 20
4.58731976
 11
4.5489842342
 21
4.58731976
  0
LINE
  5
320
100
AcDbEntity
  8
ALL_ASSEMBLY_MEMBERS
100
AcDbLine
 62
7
  6
CONTINUOUS
 10
4.5562181747
 20
4.58731976
 11
4.5749910995
 21
4.58731976
  0
LINE
  5
321
100
AcDbEntity
  8
ALL_ASSEMBLY_MEMBERS
100
AcDbLine
 62
7
  6
CONTINUOUS
 10
5.494746118
 20
4.5901740907
 11
5.4921098195
 21
4.5901740907
  0
LINE
  5
322
100
AcDbEntity
  8
ALL_ASSEMBLY_MEMBERS
100
AcDbLine
 62
7
  6
CONTINUOUS
 10
5.2984216952
 20
4.5901740907
 11
5.2760439006
 21
4.5901740907
  0
LINE
  5
323
100
AcDbEntity
  8
ALL_ASSEMBLY_MEMBERS
100
AcDbLine
 62
7
  6
CONTINUOUS
 10
4.525415017
 20
4.5901740907
 11
4.5278824166
 21
4.5901740907
  0
LINE
  5
324
100
AcDbEntity
  8
ALL_ASSEMBLY_MEMBERS
100
AcDbLine
 62
7
  6
CONTINUOUS
 10
4.7215705408
 20
4.5901740907
 11
4.7439483354
 21
4.5901740907
  0
LINE
  5
325
100
AcDbEntity
  8
ALL_ASSEMBLY_MEMBERS
100
AcDbLine
 62
7
  6
CONTINUOUS
 10
4.5277126534
 20
4.6393866891
 11
5.4922795826
 21
4.6393866891
  0
LINE
  5
326
100
AcDbEntity
  8
ALL_FEATURES
100
AcDbLine
 62
7
  6
CONTINUOUS
 10
4.517496118
 20
4.6598161891
 11
5.502496118
 21
4.6598161891
  0
LINE
  5
327
100
AcDbEntity
  8
ALL_ASSEMBLY_MEMBERS
100
AcDbLine
 62
7
  6
CONTINUOUS
 10
5.0016084061
 20
4.5854957528
 11
4.9933570527
 21
4.58731976
  0
LINE
  5
328
100
AcDbEntity
  8
ALL_ASSEMBLY_MEMBERS
100
AcDbLine
 62
7
  6
CONTINUOUS
 10
5.0621183319
 20
4.5854957528
 11
5.0538669786
 21
4.58731976
  0
LINE
  5
329
100
AcDbEntity
  8
ALL_ASSEMBLY_MEMBERS
100
AcDbLine
 62
7
  6
CONTINUOUS
 10
5.0002331779
 20
4.576375717
 11
4.9933570527
 21
4.5781997242
  0
LINE
  5
32A
100
AcDbEntity
  8
ALL_ASSEMBLY_MEMBERS
100
AcDbLine
 62
7
  6
CONTINUOUS
 10
5.0607431037
 20
4.576375717
 11
5.0538669786
 21
4.5781997242
  0
LINE
  5
32B
100
AcDbEntity
  8
ALL_ASSEMBLY_MEMBERS
100
AcDbLine
 62
7
  6
CONTINUOUS
 10
5.0689944571
 20
4.5800237313
 11
5.0621183319
 21
4.5854957528
  0
LINE
  5
32C
100
AcDbEntity
  8
ALL_ASSEMBLY_MEMBERS
100
AcDbLine
 62
7
  6
CONTINUOUS
 10
5.461361218
 20
4.58731976
 11
5.461361218
 21
4.5015914135
  0
LINE
  5
32D
100
AcDbEntity
  8
ALL_ASSEMBLY_MEMBERS
100
AcDbLine
 62
7
  6
CONTINUOUS
 10
5.4640576697
 20
4.58731976
 11
5.4640576697
 21
4.5398955688
  0
LINE
  5
32E
100
AcDbEntity
  8
ALL_ASSEMBLY_MEMBERS
100
AcDbLine
 62
7
  6
CONTINUOUS
 10
5.4663754868
 20
4.58731976
 11
5.4663754868
 21
4.5398955688
  0
LINE
  5
32F
100
AcDbEntity
  8
ALL_ASSEMBLY_MEMBERS
100
AcDbLine
 62
7
  6
CONTINUOUS
 10
5.4693084123
 20
4.5781997242
 11
5.4693084123
 21
4.5490156046
  0
LINE
  5
330
100
AcDbEntity
  8
ALL_ASSEMBLY_MEMBERS
100
AcDbLine
 62
7
  6
CONTINUOUS
 10
5.4797215116
 20
4.5307755305
 11
5.4797215116
 21
4.5271275162
  0
LINE
  5
331
100
AcDbEntity
  8
ALL_ASSEMBLY_MEMBERS
100
AcDbLine
 62
7
  6
CONTINUOUS
 10
5.4820561009
 20
4.5307755305
 11
5.4820561009
 21
4.5271275162
  0
LINE
  5
332
100
AcDbEntity
  8
ALL_ASSEMBLY_MEMBERS
100
AcDbLine
 62
7
  6
CONTINUOUS
 10
5.4832543677
 20
4.58731976
 11
5.4832543677
 21
4.5781997242
  0
LINE
  5
333
100
AcDbEntity
  8
ALL_ASSEMBLY_MEMBERS
100
AcDbLine
 62
7
  6
CONTINUOUS
 10
5.4840215037
 20
4.5325995377
 11
5.4840215037
 21
4.5253035091
  0
LINE
  5
334
100
AcDbEntity
  8
ALL_ASSEMBLY_MEMBERS
100
AcDbLine
 62
7
  6
CONTINUOUS
 10
5.4921098195
 20
4.5901740907
 11
5.4921098195
 21
4.5015914135
  0
LINE
  5
335
100
AcDbEntity
  8
ALL_ASSEMBLY_MEMBERS
100
AcDbLine
 62
7
  6
CONTINUOUS
 10
5.4922795826
 20
4.6393866891
 11
5.4922795826
 21
4.5901740907
  0
LINE
  5
336
100
AcDbEntity
  8
ALL_ASSEMBLY_MEMBERS
100
AcDbLine
 62
7
  6
CONTINUOUS
 10
5.4922795826
 20
4.5015914135
 11
5.4922795826
 21
4.4425362954
  0
LINE
  5
337
100
AcDbEntity
  8
ALL_ASSEMBLY_MEMBERS
100
AcDbLine
 62
7
  6
CONTINUOUS
 10
5.494577219
 20
4.5901740907
 11
5.494577219
 21
4.5015914135
  0
LINE
  5
338
100
AcDbEntity
  8
ALL_ASSEMBLY_MEMBERS
100
AcDbLine
 62
7
  6
CONTINUOUS
 10
5.494746118
 20
4.5901740907
 11
5.494746118
 21
4.5015914135
  0
LINE
  5
339
100
AcDbEntity
  8
ALL_ASSEMBLY_MEMBERS
100
AcDbLine
 62
7
  6
CONTINUOUS
 10
5.494996118
 20
4.01507237
 11
5.494996118
 21
4.4425362954
  0
LINE
  5
33A
100
AcDbEntity
  8
0
100
AcDbLine
 62
7
  6
CONTINUOUS
 10
5.502496118
 20
4.6598161891
 11
5.502496118
 21
4.812886035
  0
LINE
  5
33B
100
AcDbEntity
  8
ALL_ASSEMBLY_MEMBERS
100
AcDbLine
 62
7
  6
CONTINUOUS
 10
4.759996118
 20
3.4425362954
 11
4.853746118
 21
3.4966628831
  0
LINE
  5
33C
100
AcDbEntity
  8
0
100
AcDbLine
 62
7
  6
CONTINUOUS
 10
5.0199956027
 20
4.7148161891
 11
4.9999966334
 21
4.7148161891
  0
LINE
  5
33D
100
AcDbEntity
  8
0
100
AcDbLine
 62
7
  6
CONTINUOUS
 10
4.9999966334
 20
4.7948161891
 11
5.0199956027
 21
4.7948161891
  0
LINE
  5
33E
100
AcDbEntity
  8
1_PLATE
100
AcDbLine
 62
7
  6
CONTINUOUS
 10
3.822496118
 20
4.812886035
 11
6.197496118
 21
4.812886035
  0
LINE
  5
33F
100
AcDbEntity
  8
1_PLATE
100
AcDbLine
 62
7
  6
CONTINUOUS
 10
3.513996118
 20
4.8441196441
 11
6.505996118
 21
4.8441196441
  0
LINE
  5
340
100
AcDbEntity
  8
1_PLATE
100
AcDbLine
 62
7
  6
CONTINUOUS
 10
6.5886601255
 20
4.8753836126
 11
3.4313321105
 21
4.8753836126
  0
LINE
  5
341
100
AcDbEntity
  8
1_PLATE
100
AcDbLine
 62
7
  6
CONTINUOUS
 10
3.259996118
 20
4.8905361891
 11
6.759996118
 21
4.8905361891
  0
LINE
  5
342
100
AcDbEntity
  8
ALL_ASSEMBLY_MEMBERS
100
AcDbLine
 62
7
  6
CONTINUOUS
 10
4.8507147321
 20
3.2429453499
 11
4.8505929466
 21
3.2428910569
  0
LINE
  5
343
100
AcDbEntity
  8
ALL_ASSEMBLY_MEMBERS
100
AcDbLine
 62
7
  6
CONTINUOUS
 10
4.8507157724
 20
3.2429378477
 11
4.8505937626
 21
3.2428881102
  0
LINE
  5
344
100
AcDbEntity
  8
1_PLATE
100
AcDbLine
 62
7
  6
CONTINUOUS
 10
6.884996118
 20
5.0155361891
 11
3.134996118
 21
5.0155361891
  0
LINE
  5
345
100
AcDbEntity
  8
1_PLATE
100
AcDbLine
 62
7
  6
CONTINUOUS
 10
6.884996118
 20
5.0910361891
 11
3.134996118
 21
5.0910361891
  0
LINE
  5
346
100
AcDbEntity
  8
1_PLATE
100
AcDbLine
 62
7
  6
CONTINUOUS
 10
6.884996118
 20
5.0910361891
 11
6.884996118
 21
5.0155361891
  0
ARC
  5
347
100
AcDbEntity
  8
ALL_ASSEMBLY_MEMBERS
100
AcDbCircle
 62
7
  6
CONTINUOUS
 10
4.726496118
 20
4.01507237
 40
0.2015
100
AcDbArc
 50
180.0
 51
258.6164589941
  0
ARC
  5
348
100
AcDbEntity
  8
ALL_ASSEMBLY_MEMBERS
100
AcDbCircle
 62
7
  6
CONTINUOUS
 10
4.6558849485
 20
3.6643600588
 40
0.15625
100
AcDbArc
 50
18.8599610433
 51
78.6164589941
  0
ARC
  5
349
100
AcDbEntity
  8
ALL_ASSEMBLY_MEMBERS
100
AcDbCircle
 62
7
  6
CONTINUOUS
 10
4.816102677
 20
3.3147481079
 40
0.0802255261
100
AcDbArc
 50
316.3712626173
 51
316.6779038472
  0
ARC
  5
34A
100
AcDbEntity
  8
ALL_ASSEMBLY_MEMBERS
100
AcDbCircle
 62
7
  6
CONTINUOUS
 10
4.5502562506
 20
3.2610868931
 40
0.0620409321
100
AcDbArc
 50
254.7344024661
 51
256.3519988897
  0
ARC
  5
34B
100
AcDbEntity
  8
ALL_ASSEMBLY_MEMBERS
100
AcDbCircle
 62
7
  6
CONTINUOUS
 10
4.5502555631
 20
3.3739882751
 40
0.0620382646
100
AcDbArc
 50
103.6337655691
 51
105.2656117422
  0
ARC
  5
34C
100
AcDbEntity
  8
ALL_ASSEMBLY_MEMBERS
100
AcDbCircle
 62
7
  6
CONTINUOUS
 10
4.8514574605
 20
3.3538586753
 40
0.0419878298
100
AcDbArc
 50
102.7559533016
 51
112.7607019363
  0
ARC
  5
34D
100
AcDbEntity
  8
ALL_ASSEMBLY_MEMBERS
100
AcDbCircle
 62
7
  6
CONTINUOUS
 10
4.8514574542
 20
3.2812138975
 40
0.0419878108
100
AcDbArc
 50
247.2392965172
 51
257.2441648755
  0
ARC
  5
34E
100
AcDbEntity
  8
ALL_ASSEMBLY_MEMBERS
100
AcDbCircle
 62
7
  6
CONTINUOUS
 10
4.834974397
 20
3.7255362954
 40
0.033
100
AcDbArc
 50
198.8599610433
 51
270.0
  0
ARC
  5
34F
100
AcDbEntity
  8
ALL_ASSEMBLY_MEMBERS
100
AcDbCircle
 62
7
  6
CONTINUOUS
 10
4.816246118
 20
3.1926364689
 40
0.015
100
AcDbArc
 50
180.3824036553
 51
255.2369687319
  0
ARC
  5
350
100
AcDbEntity
  8
1_PLATE
100
AcDbCircle
 62
7
  6
CONTINUOUS
 10
3.822496118
 20
5.0005361891
 40
0.1876501541
100
AcDbArc
 50
236.5042044368
 51
270.0
  0
ARC
  5
351
100
AcDbEntity
  8
1_PLATE
100
AcDbCircle
 62
7
  6
CONTINUOUS
 10
3.348496118
 20
4.7815361891
 40
0.1251764377
100
AcDbArc
 50
48.5662292994
 51
60.6409205307
  0
ARC
  5
352
100
AcDbEntity
  8
1_PLATE
100
AcDbCircle
 62
7
  6
CONTINUOUS
 10
3.259996118
 20
5.0155361891
 40
0.125
100
AcDbArc
 50
180.0
 51
270.0
  0
ARC
  5
353
100
AcDbEntity
  8
1_PLATE
100
AcDbCircle
 62
7
  6
CONTINUOUS
 10
3.513996118
 20
4.9690361891
 40
0.124916545
100
AcDbArc
 50
228.5662292994
 51
270.0
  0
ARC
  5
354
100
AcDbEntity
  8
ALL_ASSEMBLY_MEMBERS
100
AcDbCircle
 62
7
  6
CONTINUOUS
 10
5.009996118
 20
3.9278713031
 40
0.7753350077
100
AcDbArc
 50
255.2369687319
 51
284.7630312681
  0
ARC
  5
355
100
AcDbEntity
  8
ALL_ASSEMBLY_MEMBERS
100
AcDbCircle
 62
7
  6
CONTINUOUS
 10
5.293496118
 20
4.01507237
 40
0.2015
100
AcDbArc
 50
281.3835410059
 51
360.0
  0
ARC
  5
356
100
AcDbEntity
  8
ALL_ASSEMBLY_MEMBERS
100
AcDbCircle
 62
7
  6
CONTINUOUS
 10
5.3641072876
 20
3.6643600588
 40
0.15625
100
AcDbArc
 50
101.3835410059
 51
161.1400389567
  0
ARC
  5
357
100
AcDbEntity
  8
ALL_ASSEMBLY_MEMBERS
100
AcDbCircle
 62
7
  6
CONTINUOUS
 10
5.1903297998
 20
3.3406637118
 40
0.0556103386
100
AcDbArc
 50
112.0569188771
 51
112.2459399188
  0
ARC
  5
358
100
AcDbEntity
  8
ALL_ASSEMBLY_MEMBERS
100
AcDbCircle
 62
7
  6
CONTINUOUS
 10
5.1903288572
 20
3.2944065799
 40
0.0556078536
100
AcDbArc
 50
247.7540785634
 51
247.947924128
  0
ARC
  5
359
100
AcDbEntity
  8
ALL_ASSEMBLY_MEMBERS
100
AcDbCircle
 62
7
  6
CONTINUOUS
 10
5.1685349407
 20
3.3538591461
 40
0.0419873318
100
AcDbArc
 50
67.2392573946
 51
77.2471542333
  0
ARC
  5
35A
100
AcDbEntity
  8
ALL_ASSEMBLY_MEMBERS
100
AcDbCircle
 62
7
  6
CONTINUOUS
 10
5.1685349538
 20
3.2812134075
 40
0.0419872925
100
AcDbArc
 50
282.7526001807
 51
292.7607458196
  0
ARC
  5
35B
100
AcDbEntity
  8
ALL_ASSEMBLY_MEMBERS
100
AcDbCircle
 62
7
  6
CONTINUOUS
 10
5.185017839
 20
3.7255362954
 40
0.033
100
AcDbArc
 50
270.0
 51
341.1400389567
  0
ARC
  5
35C
100
AcDbEntity
  8
ALL_ASSEMBLY_MEMBERS
100
AcDbCircle
 62
7
  6
CONTINUOUS
 10
5.203746118
 20
3.1926364689
 40
0.015
100
AcDbArc
 50
284.7630312681
 51
359.6175963447
  0
ARC
  5
35D
100
AcDbEntity
  8
1_PLATE
100
AcDbCircle
 62
7
  6
CONTINUOUS
 10
6.197496118
 20
5.0005361891
 40
0.1876501541
100
AcDbArc
 50
270.0
 51
303.4957955632
  0
ARC
  5
35E
100
AcDbEntity
  8
1_PLATE
100
AcDbCircle
 62
7
  6
CONTINUOUS
 10
6.671496118
 20
4.7815361891
 40
0.1251764377
100
AcDbArc
 50
119.3590794693
 51
131.4337707006
  0
ARC
  5
35F
100
AcDbEntity
  8
1_PLATE
100
AcDbCircle
 62
7
  6
CONTINUOUS
 10
6.759996118
 20
5.0155361891
 40
0.125
100
AcDbArc
 50
270.0
 51
360.0
  0
ARC
  5
360
100
AcDbEntity
  8
1_PLATE
100
AcDbCircle
 62
7
  6
CONTINUOUS
 10
6.505996118
 20
4.9690361891
 40
0.124916545
100
AcDbArc
 50
270.0
 51
311.4337707006
  0
CIRCLE
  5
361
100
AcDbEntity
  8
ALL_ASSEMBLY_MEMBERS
100
AcDbCircle
 62
7
  6
CONTINUOUS
 10
5.009996118
 20
4.1145362954
 40
0.07
  0
CIRCLE
  5
362
100
AcDbEntity
  8
ALL_FEATURES
100
AcDbCircle
 62
7
  6
CONTINUOUS
 10
5.009996118
 20
4.1145362954
 40
0.065
  0
CIRCLE
  5
363
100
AcDbEntity
  8
ALL_FEATURES
100
AcDbCircle
 62
7
  6
CONTINUOUS
 10
5.009996118
 20
4.1145362954
 40
0.0445454545
  0
SPLINE
  5
364
100
AcDbEntity
  8
ALL_ASSEMBLY_MEMBERS
100
AcDbSpline
 62
7
  6
CONTINUOUS
 70
0
 71
3
 72
24
 73
20
 74
0
 42
0.0000001
 43
0.0000001
 44
0.0000000001
 40
0.0
 40
0.0
 40
0.0
 40
0.0
 40
0.0625159525
 40
0.1251229103
 40
0.1876673421
 40
0.2501199406
 40
0.312511235
 40
0.3748493473
 40
0.4371181172
 40
0.4993139823
 40
0.5614468846
 40
0.6235468377
 40
0.6856638472
 40
0.7478834581
 40
0.8103325243
 40
0.8731430698
 40
0.9363996422
 40
0.9681862885
 40
1.0
 40
1.0
 40
1.0
 40
1.0
 10
5.4860709854
 20
3.2012350013
 30
0.0
 10
5.4893525136
 20
3.2021304111
 30
0.0
 10
5.4958598801
 20
3.2041530391
 30
0.0
 10
5.5053835478
 20
3.2078579775
 30
0.0
 10
5.5146197835
 20
3.2122241366
 30
0.0
 10
5.5235113831
 20
3.2172312483
 30
0.0
 10
5.5320108379
 20
3.2228585342
 30
0.0
 10
5.540070616
 20
3.229083313
 30
0.0
 10
5.5476404671
 20
3.2358800726
 30
0.0
 10
5.5546678302
 20
3.2432214687
 30
0.0
 10
5.5611015774
 20
3.2510770474
 30
0.0
 10
5.5668889022
 20
3.2594158919
 30
0.0
 10
5.5719741484
 20
3.2682069685
 30
0.0
 10
5.5762973776
 20
3.2774189157
 30
0.0
 10
5.5797915939
 20
3.2870179764
 30
0.0
 10
5.5823801417
 20
3.296959215
 30
0.0
 10
5.5837132897
 20
3.3054604123
 30
0.0
 10
5.584252211
 20
3.3123440669
 30
0.0
 10
5.5843434055
 20
3.315805309
 30
0.0
 10
5.5843434055
 20
3.3175362954
 30
0.0
  0
SPLINE
  5
365
100
AcDbEntity
  8
ALL_ASSEMBLY_MEMBERS
100
AcDbSpline
 62
7
  6
CONTINUOUS
 70
0
 71
3
 72
13
 73
9
 74
0
 42
0.0000001
 43
0.0000001
 44
0.0000000001
 40
0.0
 40
0.0
 40
0.0
 40
0.0
 40
0.1244516229
 40
0.2494991529
 40
0.4999963381
 40
0.750498814
 40
0.8755509688
 40
1.0
 40
1.0
 40
1.0
 40
1.0
 10
5.3556216361
 20
3.2012350013
 30
0.0
 10
5.3609016817
 20
3.1997942687
 30
0.0
 10
5.3715887331
 20
3.1972639898
 30
0.0
 10
5.393288061
 20
3.1936300977
 30
0.0
 10
5.4208460527
 20
3.1918067263
 30
0.0
 10
5.4484042666
 20
3.1936300337
 30
0.0
 10
5.4701038923
 20
3.1972640838
 30
0.0
 10
5.4807910498
 20
3.1997942987
 30
0.0
 10
5.4860709854
 20
3.2012350013
 30
0.0
  0
SPLINE
  5
366
100
AcDbEntity
  8
ALL_ASSEMBLY_MEMBERS
100
AcDbSpline
 62
7
  6
CONTINUOUS
 70
0
 71
3
 72
14
 73
10
 74
0
 42
0.0000001
 43
0.0000001
 44
0.0000000001
 40
0.0
 40
0.0
 40
0.0
 40
0.0
 40
0.1245756403
 40
0.2494590639
 40
0.3744385931
 40
0.4994205319
 40
0.6244781569
 40
0.7496760468
 40
1.0
 40
1.0
 40
1.0
 40
1.0
 10
5.3012759161
 20
3.2295360413
 30
0.0
 10
5.3032388817
 20
3.2278869853
 30
0.0
 10
5.3072636801
 20
3.2246949836
 30
0.0
 10
5.3135593562
 20
3.2202452619
 30
0.0
 10
5.3200960944
 20
3.2161416854
 30
0.0
 10
5.3268493298
 20
3.2123981644
 30
0.0
 10
5.3337989938
 20
3.2090221601
 30
0.0
 10
5.3432959829
 20
3.2050221846
 30
0.0
 10
5.350651772
 20
3.2025910966
 30
0.0
 10
5.3556216361
 20
3.2012350013
 30
0.0
  0
SPLINE
  5
367
100
AcDbEntity
  8
ALL_ASSEMBLY_MEMBERS
100
AcDbSpline
 62
7
  6
CONTINUOUS
 70
0
 71
3
 72
21
 73
17
 74
0
 42
0.0000001
 43
0.0000001
 44
0.0000000001
 40
0.0
 40
0.0
 40
0.0
 40
0.0
 40
0.0237650407
 40
0.0560435916
 40
0.0958888661
 40
0.1424637715
 40
0.1950325004
 40
0.2528991281
 40
0.3154290693
 40
0.3820275672
 40
0.4521240595
 40
0.5251861666
 40
0.600705571
 40
0.6781841271
 40
0.8372899873
 40
1.0
 40
1.0
 40
1.0
 40
1.0
 10
5.3012759165
 20
3.2295360409
 30
0.0
 10
5.3009961667
 20
3.2297710542
 30
0.0
 10
5.3003210935
 20
3.2303069938
 30
0.0
 10
5.2991293979
 20
3.2311755159
 30
0.0
 10
5.2976077223
 20
3.2321840012
 30
0.0
 10
5.2957752521
 20
3.2332844099
 30
0.0
 10
5.2936539073
 20
3.2344378447
 30
0.0
 10
5.2912627532
 20
3.2356033033
 30
0.0
 10
5.2886250306
 20
3.2367489009
 30
0.0
 10
5.2857651157
 20
3.2378480144
 30
0.0
 10
5.2827060236
 20
3.2388718212
 30
0.0
 10
5.2794731991
 20
3.2397984271
 30
0.0
 10
5.2760935344
 20
3.2406133604
 30
0.0
 10
5.2713838642
 20
3.2415381851
 30
0.0
 10
5.2652874515
 20
3.242322612
 30
0.0
 10
5.260337504
 20
3.2425362954
 30
0.0
 10
5.2578359954
 20
3.2425362954
 30
0.0
  0
SPLINE
  5
368
100
AcDbEntity
  8
ALL_ASSEMBLY_MEMBERS
100
AcDbSpline
 62
7
  6
CONTINUOUS
 70
0
 71
3
 72
23
 73
19
 74
0
 42
0.0000001
 43
0.0000001
 44
0.0000000001
 40
0.0
 40
0.0
 40
0.0
 40
0.0
 40
0.1629044433
 40
0.2430691375
 40
0.3219754444
 40
0.3993277531
 40
0.4747772559
 40
0.5478242483
 40
0.6179259473
 40
0.6845246912
 40
0.7470534242
 40
0.8049211966
 40
0.8575002382
 40
0.9041331
 40
0.9440699126
 40
0.9763644795
 40
0.9893301785
 40
1.0
 40
1.0
 40
1.0
 40
1.0
 10
5.2578359954
 20
3.3925362954
 30
0.0
 10
5.260340561
 20
3.3925362954
 30
0.0
 10
5.2640802173
 20
3.3926988683
 30
0.0
 10
5.2690028502
 20
3.3932295999
 30
0.0
 10
5.2725981145
 20
3.3937729505
 30
0.0
 10
5.2760952431
 20
3.3944575735
 30
0.0
 10
5.2794711209
 20
3.3952748875
 30
0.0
 10
5.2827018796
 20
3.3962044433
 30
0.0
 10
5.2857613543
 20
3.397226607
 30
0.0
 10
5.2886232894
 20
3.3983209824
 30
0.0
 10
5.2912604367
 20
3.3994683035
 30
0.0
 10
5.2936510123
 20
3.4006353346
 30
0.0
 10
5.2957745499
 20
3.4017870453
 30
0.0
 10
5.2976092442
 20
3.4028888148
 30
0.0
 10
5.2991313859
 20
3.4039011722
 30
0.0
 10
5.300190908
 20
3.4046720657
 30
0.0
 10
5.3008688249
 20
3.4052011606
 30
0.0
 10
5.3011503135
 20
3.4054310328
 30
0.0
 10
5.3012759166
 20
3.4055365499
 30
0.0
  0
SPLINE
  5
369
100
AcDbEntity
  8
ALL_ASSEMBLY_MEMBERS
100
AcDbSpline
 62
7
  6
CONTINUOUS
 70
0
 71
3
 72
14
 73
10
 74
0
 42
0.0000001
 43
0.0000001
 44
0.0000000001
 40
0.0
 40
0.0
 40
0.0
 40
0.0
 40
0.2503193861
 40
0.3755183033
 40
0.5005761679
 40
0.6255591599
 40
0.7505406662
 40
0.8754248933
 40
1.0
 40
1.0
 40
1.0
 40
1.0
 10
5.3556216361
 20
3.4338375895
 30
0.0
 10
5.3506518626
 20
3.4324815189
 30
0.0
 10
5.3432961423
 20
3.4300504599
 30
0.0
 10
5.3337991978
 20
3.4260505522
 30
0.0
 10
5.3268494896
 20
3.4226745282
 30
0.0
 10
5.3200961998
 20
3.4189309658
 30
0.0
 10
5.313559402
 20
3.4148273359
 30
0.0
 10
5.3072636806
 20
3.4103775985
 30
0.0
 10
5.3032388734
 20
3.4071855984
 30
0.0
 10
5.301275916
 20
3.4055365494
 30
0.0
  0
SPLINE
  5
36A
100
AcDbEntity
  8
ALL_ASSEMBLY_MEMBERS
100
AcDbSpline
 62
7
  6
CONTINUOUS
 70
0
 71
3
 72
23
 73
19
 74
0
 42
0.0000001
 43
0.0000001
 44
0.0000000001
 40
0.0
 40
0.0
 40
0.0
 40
0.0
 40
0.0635881336
 40
0.1268473166
 40
0.1896607286
 40
0.2521109684
 40
0.3143349871
 40
0.376457438
 40
0.4385626356
 40
0.5007010905
 40
0.5628971369
 40
0.6251617499
 40
0.6874924498
 40
0.7498835885
 40
0.8123305409
 40
0.8748529937
 40
0.9374423479
 40
1.0
 40
1.0
 40
1.0
 40
1.0
 10
5.5843434055
 20
3.3175362954
 30
0.0
 10
5.5843434055
 20
3.3209960568
 30
0.0
 10
5.5839813913
 20
3.3279030473
 30
0.0
 10
5.5823800598
 20
3.3381143151
 30
0.0
 10
5.5797909397
 20
3.3480562897
 30
0.0
 10
5.5762967616
 20
3.3576554202
 30
0.0
 10
5.5719730085
 20
3.3668676076
 30
0.0
 10
5.5668873759
 20
3.3756591385
 30
0.0
 10
5.5610994861
 20
3.3839984152
 30
0.0
 10
5.5546651739
 20
3.3918540363
 30
0.0
 10
5.5476375581
 20
3.3991949809
 30
0.0
 10
5.5400686945
 20
3.4059915917
 30
0.0
 10
5.5320091748
 20
3.4122153412
 30
0.0
 10
5.5235102051
 20
3.4178416462
 30
0.0
 10
5.5146200569
 20
3.4228477734
 30
0.0
 10
5.5053866141
 20
3.4272135318
 30
0.0
 10
5.4958632382
 20
3.4309190041
 30
0.0
 10
5.4893546326
 20
3.4329416015
 30
0.0
 10
5.4860709854
 20
3.4338375895
 30
0.0
  0
SPLINE
  5
36B
100
AcDbEntity
  8
ALL_ASSEMBLY_MEMBERS
100
AcDbSpline
 62
7
  6
CONTINUOUS
 70
0
 71
3
 72
13
 73
9
 74
0
 42
0.0000001
 43
0.0000001
 44
0.0000000001
 40
0.0
 40
0.0
 40
0.0
 40
0.0
 40
0.1244516229
 40
0.2494991529
 40
0.4999963381
 40
0.750498814
 40
0.8755509688
 40
1.0
 40
1.0
 40
1.0
 40
1.0
 10
5.4860709854
 20
3.4338375895
 30
0.0
 10
5.4807909398
 20
3.4352783221
 30
0.0
 10
5.4701038884
 20
3.437808601
 30
0.0
 10
5.4484045605
 20
3.4414424931
 30
0.0
 10
5.4208465688
 20
3.4432658645
 30
0.0
 10
5.3932883549
 20
3.441442557
 30
0.0
 10
5.3715887293
 20
3.437808507
 30
0.0
 10
5.3609015717
 20
3.435278292
 30
0.0
 10
5.3556216361
 20
3.4338375895
 30
0.0
  0
SPLINE
  5
36C
100
AcDbEntity
  8
ALL_ASSEMBLY_MEMBERS
100
AcDbSpline
 62
7
  6
CONTINUOUS
 70
0
 71
3
 72
23
 73
19
 74
0
 42
0.0000001
 43
0.0000001
 44
0.0000000001
 40
0.0
 40
0.0
 40
0.0
 40
0.0
 40
0.0709296768
 40
0.141653656
 40
0.2118360318
 40
0.2812336832
 40
0.3496327172
 40
0.4168206306
 40
0.482602256
 40
0.5468227511
 40
0.609360679
 40
0.6701398486
 40
0.7291265805
 40
0.7863451436
 40
0.8418722474
 40
0.8958488858
 40
0.9484721402
 40
1.0
 40
1.0
 40
1.0
 40
1.0
 10
5.2877346496
 20
3.3175362954
 30
0.0
 10
5.2877346496
 20
3.3209380735
 30
0.0
 10
5.2879423841
 20
3.3277335587
 30
0.0
 10
5.2888708878
 20
3.3378567693
 30
0.0
 10
5.2904132975
 20
3.3478309977
 30
0.0
 10
5.2925557492
 20
3.3575797386
 30
0.0
 10
5.2952841888
 20
3.3670319054
 30
0.0
 10
5.2985764269
 20
3.3761189534
 30
0.0
 10
5.3024110693
 20
3.3847725289
 30
0.0
 10
5.3067576603
 20
3.3929294335
 30
0.0
 10
5.3115867645
 20
3.4005283041
 30
0.0
 10
5.3168610817
 20
3.407514183
 30
0.0
 10
5.3225445543
 20
3.4138335063
 30
0.0
 10
5.3285939564
 20
3.4194406765
 30
0.0
 10
5.33496717
 20
3.4242913204
 30
0.0
 10
5.3416163903
 20
3.4283503897
 30
0.0
 10
5.3484928286
 20
3.4315834945
 30
0.0
 10
5.3532375585
 20
3.4331869224
 30
0.0
 10
5.3556216404
 20
3.4338375579
 30
0.0
  0
SPLINE
  5
36D
100
AcDbEntity
  8
ALL_ASSEMBLY_MEMBERS
100
AcDbSpline
 62
7
  6
CONTINUOUS
 70
0
 71
3
 72
41
 73
37
 74
0
 42
0.0000001
 43
0.0000001
 44
0.0000000001
 40
0.0
 40
0.0
 40
0.0
 40
0.0
 40
0.0362980159
 40
0.0724653974
 40
0.1082764918
 40
0.1435688418
 40
0.1782076908
 40
0.2120656245
 40
0.2450277418
 40
0.2770117958
 40
0.3079668944
 40
0.3230574277
 40
0.3378892135
 40
0.366784898
 40
0.3947334711
 40
0.4218511531
 40
0.4482970769
 40
0.4742707537
 40
0.5
 40
0.5257292463
 40
0.5517029231
 40
0.5781488469
 40
0.6052665289
 40
0.633215102
 40
0.6621107865
 40
0.6769425723
 40
0.6920331056
 40
0.7229882042
 40
0.7549722582
 40
0.7879343755
 40
0.8217923092
 40
0.8564311582
 40
0.8917235082
 40
0.9275346026
 40
0.9637019841
 40
1.0
 40
1.0
 40
1.0
 40
1.0
 10
5.5072668696
 20
3.3175362954
 30
0.0
 10
5.5072668696
 20
3.3157885386
 30
0.0
 10
5.5073884851
 20
3.3122981311
 30
0.0
 10
5.5079304989
 20
3.3071087764
 30
0.0
 10
5.5088300903
 20
3.3020180783
 30
0.0
 10
5.510076903
 20
3.2970768738
 30
0.0
 10
5.5116602211
 20
3.2923317436
 30
0.0
 10
5.5135637396
 20
3.2878269785
 30
0.0
 10
5.5157708894
 20
3.2836060912
 30
0.0
 10
5.5182601843
 20
3.2797097808
 30
0.0
 10
5.5205702869
 20
3.2767387436
 30
0.0
 10
5.5225385114
 20
3.2745650154
 30
0.0
 10
5.5245448045
 20
3.2725646879
 30
0.0
 10
5.527178786
 20
3.2703231262
 30
0.0
 10
5.530542706
 20
3.2680643886
 30
0.0
 10
5.5340504755
 20
3.2662810035
 30
0.0
 10
5.537669136
 20
3.2649939192
 30
0.0
 10
5.5413623953
 20
3.2642146898
 30
0.0
 10
5.5450937621
 20
3.263954957
 30
0.0
 10
5.5488251289
 20
3.2642146898
 30
0.0
 10
5.5525183882
 20
3.2649939192
 30
0.0
 10
5.5561370487
 20
3.2662810035
 30
0.0
 10
5.5596448182
 20
3.2680643886
 30
0.0
 10
5.5630087382
 20
3.2703231262
 30
0.0
 10
5.5656427197
 20
3.2725646879
 30
0.0
 10
5.5676490128
 20
3.2745650154
 30
0.0
 10
5.5696172373
 20
3.2767387436
 30
0.0
 10
5.5719273399
 20
3.2797097808
 30
0.0
 10
5.5744166348
 20
3.2836060912
 30
0.0
 10
5.5766237846
 20
3.2878269785
 30
0.0
 10
5.5785273031
 20
3.2923317436
 30
0.0
 10
5.5801106212
 20
3.2970768738
 30
0.0
 10
5.5813574339
 20
3.3020180783
 30
0.0
 10
5.5822570253
 20
3.3071087764
 30
0.0
 10
5.5827990391
 20
3.3122981311
 30
0.0
 10
5.5829206546
 20
3.3157885386
 30
0.0
 10
5.5829206546
 20
3.3175362954
 30
0.0
  0
SPLINE
  5
36E
100
AcDbEntity
  8
ALL_ASSEMBLY_MEMBERS
100
AcDbSpline
 62
7
  6
CONTINUOUS
 70
0
 71
3
 72
31
 73
27
 74
0
 42
0.0000001
 43
0.0000001
 44
0.0000000001
 40
0.0
 40
0.0
 40
0.0
 40
0.0
 40
0.0739818255
 40
0.1475607832
 40
0.1840415804
 40
0.2202473686
 40
0.2916375064
 40
0.3613866817
 40
0.3955532846
 40
0.4291991332
 40
0.4948043646
 40
0.5580741483
 40
0.6189605299
 40
0.6485415752
 40
0.6775632935
 40
0.7340234568
 40
0.7615745989
 40
0.7887309541
 40
0.8155526252
 40
0.8421054822
 40
0.8684617754
 40
0.8946972981
 40
0.9208900838
 40
0.9471197019
 40
0.9734643525
 40
1.0
 40
1.0
 40
1.0
 40
1.0
 10
5.386449602
 20
3.3175362954
 30
0.0
 10
5.386449602
 20
3.3131963914
 30
0.0
 10
5.3867866599
 20
3.3045367251
 30
0.0
 10
5.3880466008
 20
3.2938025729
 30
0.0
 10
5.3895564803
 20
3.2853541367
 30
0.0
 10
5.3913781037
 20
3.2770989638
 30
0.0
 10
5.3942415727
 20
3.2670842287
 30
0.0
 10
5.3979053769
 20
3.2574600846
 30
0.0
 10
5.4012840625
 20
3.2501289687
 30
0.0
 10
5.4048865312
 20
3.2431782548
 30
0.0
 10
5.4098741287
 20
3.2350334037
 30
0.0
 10
5.4166396024
 20
3.2261683511
 30
0.0
 10
5.422884931
 20
3.219631832
 30
0.0
 10
5.4281682864
 20
3.2150191658
 30
0.0
 10
5.4335220004
 20
3.210903297
 30
0.0
 10
5.4391618503
 20
3.2073714821
 30
0.0
 10
5.4450250063
 20
3.2045065181
 30
0.0
 10
5.4494650006
 20
3.2027171313
 30
0.0
 10
5.4539682785
 20
3.2012755855
 30
0.0
 10
5.4585217148
 20
3.2001873828
 30
0.0
 10
5.4631110924
 20
3.1994557169
 30
0.0
 10
5.4677222672
 20
3.1990820563
 30
0.0
 10
5.4723411358
 20
3.1990685964
 30
0.0
 10
5.4769534259
 20
3.1994155062
 30
0.0
 10
5.4815447046
 20
3.200120511
 30
0.0
 10
5.484569272
 20
3.2008252041
 30
0.0
 10
5.4860709811
 20
3.2012350328
 30
0.0
  0
SPLINE
  5
36F
100
AcDbEntity
  8
ALL_ASSEMBLY_MEMBERS
100
AcDbSpline
 62
7
  6
CONTINUOUS
 70
0
 71
3
 72
27
 73
23
 74
0
 42
0.0000001
 43
0.0000001
 44
0.0000000001
 40
0.0
 40
0.0
 40
0.0
 40
0.0
 40
0.0726227486
 40
0.1449387688
 40
0.2165413862
 40
0.2871308063
 40
0.4240269662
 40
0.4899500977
 40
0.5539184004
 40
0.5851436461
 40
0.6158472995
 40
0.646029034
 40
0.6756925126
 40
0.7334833577
 40
0.7893811487
 40
0.8167012202
 40
0.843642589
 40
0.8702474857
 40
0.8965632244
 40
0.9485105284
 40
0.9742860575
 40
1.0
 40
1.0
 40
1.0
 40
1.0
 10
5.2048029868
 20
3.3175362954
 30
0.0
 10
5.2048029868
 20
3.3150850508
 30
0.0
 10
5.2049729414
 20
3.3101911862
 30
0.0
 10
5.2057335089
 20
3.3029163747
 30
0.0
 10
5.206994594
 20
3.2957797504
 30
0.0
 10
5.2093011064
 20
3.2866408084
 30
0.0
 10
5.2125487798
 20
3.2779543277
 30
0.0
 10
5.2167250762
 20
3.2699668447
 30
0.0
 10
5.2196575794
 20
3.2653771578
 30
0.0
 10
5.2221905528
 20
3.2619635321
 30
0.0
 10
5.2241614673
 20
3.2595574286
 30
0.0
 10
5.2262135487
 20
3.2572906625
 30
0.0
 10
5.2290263578
 20
3.2544862022
 30
0.0
 10
5.232719274
 20
3.2513442026
 30
0.0
 10
5.2366801268
 20
3.2486838086
 30
0.0
 10
5.2399454
 20
3.2469009879
 30
0.0
 10
5.2424194487
 20
3.2457437517
 30
0.0
 10
5.2449311155
 20
3.2447595311
 30
0.0
 10
5.2483061454
 20
3.2436865624
 30
0.0
 10
5.251754964
 20
3.2429594374
 30
0.0
 10
5.255229437
 20
3.2425968051
 30
0.0
 10
5.2569680696
 20
3.2425364438
 30
0.0
 10
5.2578359954
 20
3.2425364438
 30
0.0
  0
SPLINE
  5
370
100
AcDbEntity
  8
ALL_ASSEMBLY_MEMBERS
100
AcDbSpline
 62
7
  6
CONTINUOUS
 70
0
 71
3
 72
17
 73
13
 74
0
 42
0.0000001
 43
0.0000001
 44
0.0000000001
 40
0.0
 40
0.0
 40
0.0
 40
0.0
 40
0.0676778992
 40
0.1352665324
 40
0.2694098207
 40
0.401326516
 40
0.5300800082
 40
0.5930183697
 40
0.6548658047
 40
0.7749618755
 40
0.8900321294
 40
1.0
 40
1.0
 40
1.0
 40
1.0
 10
5.2658633059
 20
3.3175362954
 30
0.0
 10
5.2658633059
 20
3.3153317874
 30
0.0
 10
5.2659643685
 20
3.3109249173
 30
0.0
 10
5.266565908
 20
3.3021676325
 30
0.0
 10
5.268057415
 20
3.2913848951
 30
0.0
 10
5.2710152765
 20
3.2788500113
 30
0.0
 10
5.2744354344
 20
3.2688582955
 30
0.0
 10
5.277717071
 20
3.2612757345
 30
0.0
 10
5.281275283
 20
3.2541332135
 30
0.0
 10
5.2863036804
 20
3.2458400608
 30
0.0
 10
5.2932648453
 20
3.2369774131
 30
0.0
 10
5.2985331944
 20
3.231840112
 30
0.0
 10
5.3012759582
 20
3.229536144
 30
0.0
  0
SPLINE
  5
371
100
AcDbEntity
  8
ALL_ASSEMBLY_MEMBERS
100
AcDbSpline
 62
7
  6
CONTINUOUS
 70
0
 71
3
 72
23
 73
19
 74
0
 42
0.0000001
 43
0.0000001
 44
0.0000000001
 40
0.0
 40
0.0
 40
0.0
 40
0.0
 40
0.0709296768
 40
0.141653656
 40
0.2118360318
 40
0.2812336832
 40
0.3496327172
 40
0.4168206306
 40
0.482602256
 40
0.5468227511
 40
0.609360679
 40
0.6701398486
 40
0.7291265805
 40
0.7863451436
 40
0.8418722474
 40
0.8958488858
 40
0.9484721402
 40
1.0
 40
1.0
 40
1.0
 40
1.0
 10
5.2877346496
 20
3.3175362954
 30
0.0
 10
5.2877346496
 20
3.3141345173
 30
0.0
 10
5.2879423841
 20
3.3073390321
 30
0.0
 10
5.2888708878
 20
3.2972158215
 30
0.0
 10
5.2904132975
 20
3.2872415931
 30
0.0
 10
5.2925557492
 20
3.2774928522
 30
0.0
 10
5.2952841888
 20
3.2680406854
 30
0.0
 10
5.2985764269
 20
3.2589536374
 30
0.0
 10
5.3024110693
 20
3.2503000619
 30
0.0
 10
5.3067576603
 20
3.2421431573
 30
0.0
 10
5.3115867645
 20
3.2345442867
 30
0.0
 10
5.3168610817
 20
3.2275584077
 30
0.0
 10
5.3225445543
 20
3.2212390845
 30
0.0
 10
5.3285939564
 20
3.2156319143
 30
0.0
 10
5.33496717
 20
3.2107812704
 30
0.0
 10
5.3416163903
 20
3.2067222011
 30
0.0
 10
5.3484928286
 20
3.2034890962
 30
0.0
 10
5.3532375585
 20
3.2018856683
 30
0.0
 10
5.3556216404
 20
3.2012350328
 30
0.0
  0
SPLINE
  5
372
100
AcDbEntity
  8
ALL_ASSEMBLY_MEMBERS
100
AcDbSpline
 62
7
  6
CONTINUOUS
 70
0
 71
3
 72
27
 73
23
 74
0
 42
0.0000001
 43
0.0000001
 44
0.0000000001
 40
0.0
 40
0.0
 40
0.0
 40
0.0
 40
0.0257139422
 40
0.05148947
 40
0.103436769
 40
0.1297525051
 40
0.1563573995
 40
0.1832987654
 40
0.2106188327
 40
0.266516608
 40
0.3243074348
 40
0.3539709058
 40
0.3841526317
 40
0.4148562748
 40
0.4460815067
 40
0.5100497725
 40
0.5759728735
 40
0.7128689472
 40
0.7834583337
 40
0.8550610163
 40
0.9273771858
 40
1.0
 40
1.0
 40
1.0
 40
1.0
 10
5.2578359954
 20
3.392536147
 30
0.0
 10
5.2569680696
 20
3.392536147
 30
0.0
 10
5.2552294371
 20
3.3924757857
 30
0.0
 10
5.2517549643
 20
3.3921131534
 30
0.0
 10
5.248306146
 20
3.3913860286
 30
0.0
 10
5.2449311163
 20
3.39031306
 30
0.0
 10
5.2424194498
 20
3.3893288394
 30
0.0
 10
5.2399454013
 20
3.3881716035
 30
0.0
 10
5.2366801288
 20
3.3863887833
 30
0.0
 10
5.2327192767
 20
3.3837283905
 30
0.0
 10
5.2290263616
 20
3.3805863919
 30
0.0
 10
5.2262135531
 20
3.3777819326
 30
0.0
 10
5.2241614718
 20
3.3755151676
 30
0.0
 10
5.2221905578
 20
3.3731090651
 30
0.0
 10
5.2196575853
 20
3.3696954413
 30
0.0
 10
5.2167250823
 20
3.3651057575
 30
0.0
 10
5.2125487879
 20
3.3571182794
 30
0.0
 10
5.2093011127
 20
3.3484318048
 30
0.0
 10
5.2069945997
 20
3.3392928648
 30
0.0
 10
5.2057335106
 20
3.3321562351
 30
0.0
 10
5.2049729433
 20
3.324881414
 30
0.0
 10
5.2048029868
 20
3.3199875422
 30
0.0
 10
5.2048029868
 20
3.3175362954
 30
0.0
  0
SPLINE
  5
373
100
AcDbEntity
  8
ALL_ASSEMBLY_MEMBERS
100
AcDbSpline
 62
7
  6
CONTINUOUS
 70
0
 71
3
 72
41
 73
37
 74
0
 42
0.0000001
 43
0.0000001
 44
0.0000000001
 40
0.0
 40
0.0
 40
0.0
 40
0.0
 40
0.0362980159
 40
0.0724653974
 40
0.1082764918
 40
0.1435688418
 40
0.1782076908
 40
0.2120656245
 40
0.2450277418
 40
0.2770117958
 40
0.3079668944
 40
0.3230574277
 40
0.3378892135
 40
0.366784898
 40
0.3947334711
 40
0.4218511531
 40
0.4482970769
 40
0.4742707537
 40
0.5
 40
0.5257292463
 40
0.5517029231
 40
0.5781488469
 40
0.6052665289
 40
0.633215102
 40
0.6621107865
 40
0.6769425723
 40
0.6920331056
 40
0.7229882042
 40
0.7549722582
 40
0.7879343755
 40
0.8217923092
 40
0.8564311582
 40
0.8917235082
 40
0.9275346026
 40
0.9637019841
 40
1.0
 40
1.0
 40
1.0
 40
1.0
 10
5.5072668696
 20
3.3175362954
 30
0.0
 10
5.5072668696
 20
3.3192840522
 30
0.0
 10
5.5073884851
 20
3.3227744597
 30
0.0
 10
5.5079304989
 20
3.3279638144
 30
0.0
 10
5.5088300903
 20
3.3330545124
 30
0.0
 10
5.510076903
 20
3.337995717
 30
0.0
 10
5.5116602211
 20
3.3427408472
 30
0.0
 10
5.5135637396
 20
3.3472456123
 30
0.0
 10
5.5157708894
 20
3.3514664996
 30
0.0
 10
5.5182601843
 20
3.35536281
 30
0.0
 10
5.5205702869
 20
3.3583338472
 30
0.0
 10
5.5225385114
 20
3.3605075754
 30
0.0
 10
5.5245448045
 20
3.3625079029
 30
0.0
 10
5.527178786
 20
3.3647494645
 30
0.0
 10
5.530542706
 20
3.3670082022
 30
0.0
 10
5.5340504755
 20
3.3687915872
 30
0.0
 10
5.537669136
 20
3.3700786716
 30
0.0
 10
5.5413623953
 20
3.3708579009
 30
0.0
 10
5.5450937621
 20
3.3711176338
 30
0.0
 10
5.5488251289
 20
3.3708579009
 30
0.0
 10
5.5525183882
 20
3.3700786716
 30
0.0
 10
5.5561370487
 20
3.3687915872
 30
0.0
 10
5.5596448182
 20
3.3670082022
 30
0.0
 10
5.5630087382
 20
3.3647494645
 30
0.0
 10
5.5656427197
 20
3.3625079029
 30
0.0
 10
5.5676490128
 20
3.3605075754
 30
0.0
 10
5.5696172373
 20
3.3583338472
 30
0.0
 10
5.5719273399
 20
3.35536281
 30
0.0
 10
5.5744166348
 20
3.3514664996
 30
0.0
 10
5.5766237846
 20
3.3472456123
 30
0.0
 10
5.5785273031
 20
3.3427408472
 30
0.0
 10
5.5801106212
 20
3.337995717
 30
0.0
 10
5.5813574339
 20
3.3330545124
 30
0.0
 10
5.5822570253
 20
3.3279638144
 30
0.0
 10
5.5827990391
 20
3.3227744597
 30
0.0
 10
5.5829206546
 20
3.3192840522
 30
0.0
 10
5.5829206546
 20
3.3175362954
 30
0.0
  0
SPLINE
  5
374
100
AcDbEntity
  8
ALL_ASSEMBLY_MEMBERS
100
AcDbSpline
 62
7
  6
CONTINUOUS
 70
0
 71
3
 72
17
 73
13
 74
0
 42
0.0000001
 43
0.0000001
 44
0.0000000001
 40
0.0
 40
0.0
 40
0.0
 40
0.0
 40
0.1099678376
 40
0.2250380518
 40
0.3451340548
 40
0.4069814476
 40
0.4699197686
 40
0.5986731946
 40
0.7305898415
 40
0.8647333184
 40
0.9323220609
 40
1.0
 40
1.0
 40
1.0
 40
1.0
 10
5.3012759558
 20
3.4055364451
 30
0.0
 10
5.2985331929
 20
3.4032324777
 30
0.0
 10
5.2932648457
 20
3.3980951782
 30
0.0
 10
5.2863036828
 20
3.3892325353
 30
0.0
 10
5.2812752869
 20
3.3809393876
 30
0.0
 10
5.2777170768
 20
3.3737968713
 30
0.0
 10
5.2744354414
 20
3.3662143153
 30
0.0
 10
5.2710152771
 20
3.3562226073
 30
0.0
 10
5.2680574157
 20
3.3436877207
 30
0.0
 10
5.2665659144
 20
3.3329049748
 30
0.0
 10
5.2659643704
 20
3.3241476795
 30
0.0
 10
5.2658633059
 20
3.3197408046
 30
0.0
 10
5.2658633059
 20
3.3175362954
 30
0.0
  0
SPLINE
  5
375
100
AcDbEntity
  8
ALL_ASSEMBLY_MEMBERS
100
AcDbSpline
 62
7
  6
CONTINUOUS
 70
0
 71
3
 72
31
 73
27
 74
0
 42
0.0000001
 43
0.0000001
 44
0.0000000001
 40
0.0
 40
0.0
 40
0.0
 40
0.0
 40
0.0739818255
 40
0.1475607832
 40
0.1840415804
 40
0.2202473686
 40
0.2916375064
 40
0.3613866817
 40
0.3955532846
 40
0.4291991332
 40
0.4948043646
 40
0.5580741483
 40
0.6189605299
 40
0.6485415752
 40
0.6775632935
 40
0.7340234568
 40
0.7615745989
 40
0.7887309541
 40
0.8155526252
 40
0.8421054822
 40
0.8684617754
 40
0.8946972981
 40
0.9208900838
 40
0.9471197019
 40
0.9734643525
 40
1.0
 40
1.0
 40
1.0
 40
1.0
 10
5.386449602
 20
3.3175362954
 30
0.0
 10
5.386449602
 20
3.3218761993
 30
0.0
 10
5.3867866599
 20
3.3305358657
 30
0.0
 10
5.3880466008
 20
3.3412700178
 30
0.0
 10
5.3895564803
 20
3.3497184541
 30
0.0
 10
5.3913781037
 20
3.3579736269
 30
0.0
 10
5.3942415727
 20
3.3679883621
 30
0.0
 10
5.3979053769
 20
3.3776125062
 30
0.0
 10
5.4012840625
 20
3.3849436221
 30
0.0
 10
5.4048865312
 20
3.391894336
 30
0.0
 10
5.4098741287
 20
3.4000391871
 30
0.0
 10
5.4166396024
 20
3.4089042397
 30
0.0
 10
5.422884931
 20
3.4154407587
 30
0.0
 10
5.4281682864
 20
3.420053425
 30
0.0
 10
5.4335220004
 20
3.4241692938
 30
0.0
 10
5.4391618503
 20
3.4277011087
 30
0.0
 10
5.4450250063
 20
3.4305660727
 30
0.0
 10
5.4494650006
 20
3.4323554595
 30
0.0
 10
5.4539682785
 20
3.4337970053
 30
0.0
 10
5.4585217148
 20
3.4348852079
 30
0.0
 10
5.4631110924
 20
3.4356168739
 30
0.0
 10
5.4677222672
 20
3.4359905344
 30
0.0
 10
5.4723411358
 20
3.4360039943
 30
0.0
 10
5.4769534259
 20
3.4356570846
 30
0.0
 10
5.4815447046
 20
3.4349520798
 30
0.0
 10
5.484569272
 20
3.4342473867
 30
0.0
 10
5.4860709811
 20
3.4338375579
 30
0.0
  0
SPLINE
  5
376
100
AcDbEntity
  8
ALL_ASSEMBLY_MEMBERS
100
AcDbSpline
 62
7
  6
CONTINUOUS
 70
0
 71
3
 72
23
 73
19
 74
0
 42
0.0000001
 43
0.0000001
 44
0.0000000001
 40
0.0
 40
0.0
 40
0.0
 40
0.0
 40
0.1629044433
 40
0.2430691375
 40
0.3219754444
 40
0.3993277531
 40
0.4747772559
 40
0.5478242483
 40
0.6179259473
 40
0.6845246912
 40
0.7470534242
 40
0.8049211966
 40
0.8575002382
 40
0.9041331
 40
0.9440699126
 40
0.9763644795
 40
0.9893301785
 40
1.0
 40
1.0
 40
1.0
 40
1.0
 10
4.7621562406
 20
3.2425362954
 30
0.0
 10
4.759651675
 20
3.2425362954
 30
0.0
 10
4.7559120188
 20
3.2423737225
 30
0.0
 10
4.7509893859
 20
3.2418429909
 30
0.0
 10
4.7473941215
 20
3.2412996403
 30
0.0
 10
4.7438969929
 20
3.2406150172
 30
0.0
 10
4.7405211151
 20
3.2397977033
 30
0.0
 10
4.7372903564
 20
3.2388681475
 30
0.0
 10
4.7342308818
 20
3.2378459838
 30
0.0
 10
4.7313689466
 20
3.2367516084
 30
0.0
 10
4.7287317994
 20
3.2356042873
 30
0.0
 10
4.7263412237
 20
3.2344372562
 30
0.0
 10
4.7242176861
 20
3.2332855455
 30
0.0
 10
4.7223829918
 20
3.232183776
 30
0.0
 10
4.7208608501
 20
3.2311714186
 30
0.0
 10
4.719801328
 20
3.2304005251
 30
0.0
 10
4.7191234112
 20
3.2298714302
 30
0.0
 10
4.7188419225
 20
3.229641558
 30
0.0
 10
4.7187163195
 20
3.2295360409
 30
0.0
  0
SPLINE
  5
377
100
AcDbEntity
  8
ALL_ASSEMBLY_MEMBERS
100
AcDbSpline
 62
7
  6
CONTINUOUS
 70
0
 71
3
 72
21
 73
17
 74
0
 42
0.0000001
 43
0.0000001
 44
0.0000000001
 40
0.0
 40
0.0
 40
0.0
 40
0.0
 40
0.0237650407
 40
0.0560435916
 40
0.0958888661
 40
0.1424637715
 40
0.1950325004
 40
0.2528991281
 40
0.3154290693
 40
0.3820275672
 40
0.4521240595
 40
0.5251861666
 40
0.600705571
 40
0.6781841271
 40
0.8372899873
 40
1.0
 40
1.0
 40
1.0
 40
1.0
 10
4.7187163195
 20
3.4055365498
 30
0.0
 10
4.7189960693
 20
3.4053015366
 30
0.0
 10
4.7196711426
 20
3.404765597
 30
0.0
 10
4.7208628381
 20
3.4038970749
 30
0.0
 10
4.7223845138
 20
3.4028885896
 30
0.0
 10
4.7242169839
 20
3.4017881809
 30
0.0
 10
4.7263383287
 20
3.4006347461
 30
0.0
 10
4.7287294828
 20
3.3994692875
 30
0.0
 10
4.7313672054
 20
3.3983236899
 30
0.0
 10
4.7342271204
 20
3.3972245764
 30
0.0
 10
4.7372862124
 20
3.3962007696
 30
0.0
 10
4.7405190369
 20
3.3952741636
 30
0.0
 10
4.7438987017
 20
3.3944592304
 30
0.0
 10
4.7486083718
 20
3.3935344057
 30
0.0
 10
4.7547047845
 20
3.3927499787
 30
0.0
 10
4.759654732
 20
3.3925362954
 30
0.0
 10
4.7621562406
 20
3.3925362954
 30
0.0
  0
SPLINE
  5
378
100
AcDbEntity
  8
ALL_ASSEMBLY_MEMBERS
100
AcDbSpline
 62
7
  6
CONTINUOUS
 70
0
 71
3
 72
23
 73
19
 74
0
 42
0.0000001
 43
0.0000001
 44
0.0000000001
 40
0.0
 40
0.0
 40
0.0
 40
0.0
 40
0.0635881336
 40
0.1268473166
 40
0.1896607286
 40
0.2521109684
 40
0.3143349871
 40
0.376457438
 40
0.4385626356
 40
0.5007010905
 40
0.5628971369
 40
0.6251617499
 40
0.6874924498
 40
0.7498835885
 40
0.8123305409
 40
0.8748529937
 40
0.9374423479
 40
1.0
 40
1.0
 40
1.0
 40
1.0
 10
4.4356488305
 20
3.3175362954
 30
0.0
 10
4.4356488305
 20
3.314076534
 30
0.0
 10
4.4360108447
 20
3.3071695435
 30
0.0
 10
4.4376121762
 20
3.2969582757
 30
0.0
 10
4.4402012963
 20
3.2870163011
 30
0.0
 10
4.4436954745
 20
3.2774171706
 30
0.0
 10
4.4480192275
 20
3.2682049832
 30
0.0
 10
4.4531048601
 20
3.2594134522
 30
0.0
 10
4.4588927499
 20
3.2510741755
 30
0.0
 10
4.4653270621
 20
3.2432185545
 30
0.0
 10
4.4723546779
 20
3.2358776099
 30
0.0
 10
4.4799235416
 20
3.229080999
 30
0.0
 10
4.4879830612
 20
3.2228572496
 30
0.0
 10
4.4964820309
 20
3.2172309446
 30
0.0
 10
4.5053721791
 20
3.2122248174
 30
0.0
 10
4.5146056219
 20
3.207859059
 30
0.0
 10
4.5241289979
 20
3.2041535867
 30
0.0
 10
4.5306376035
 20
3.2021309893
 30
0.0
 10
4.5339212506
 20
3.2012350013
 30
0.0
  0
SPLINE
  5
379
100
AcDbEntity
  8
ALL_ASSEMBLY_MEMBERS
100
AcDbSpline
 62
7
  6
CONTINUOUS
 70
0
 71
3
 72
13
 73
9
 74
0
 42
0.0000001
 43
0.0000001
 44
0.0000000001
 40
0.0
 40
0.0
 40
0.0
 40
0.0
 40
0.1244516229
 40
0.2494991529
 40
0.4999963381
 40
0.750498814
 40
0.8755509688
 40
1.0
 40
1.0
 40
1.0
 40
1.0
 10
4.5339212506
 20
3.2012350013
 30
0.0
 10
4.5392012962
 20
3.1997942687
 30
0.0
 10
4.5498883476
 20
3.1972639898
 30
0.0
 10
4.5715876755
 20
3.1936300977
 30
0.0
 10
4.5991456672
 20
3.1918067263
 30
0.0
 10
4.6267038812
 20
3.1936300337
 30
0.0
 10
4.6484035068
 20
3.1972640838
 30
0.0
 10
4.6590906643
 20
3.1997942987
 30
0.0
 10
4.6643705999
 20
3.2012350013
 30
0.0
  0
SPLINE
  5
37A
100
AcDbEntity
  8
ALL_ASSEMBLY_MEMBERS
100
AcDbSpline
 62
7
  6
CONTINUOUS
 70
0
 71
3
 72
14
 73
10
 74
0
 42
0.0000001
 43
0.0000001
 44
0.0000000001
 40
0.0
 40
0.0
 40
0.0
 40
0.0
 40
0.2503193861
 40
0.3755183033
 40
0.5005761679
 40
0.6255591599
 40
0.7505406662
 40
0.8754248933
 40
1.0
 40
1.0
 40
1.0
 40
1.0
 10
4.6643705999
 20
3.2012350013
 30
0.0
 10
4.6693403734
 20
3.2025910719
 30
0.0
 10
4.6766960937
 20
3.2050221308
 30
0.0
 10
4.6861930382
 20
3.2090220385
 30
0.0
 10
4.6931427465
 20
3.2123980625
 30
0.0
 10
4.6998960363
 20
3.216141625
 30
0.0
 10
4.706432834
 20
3.2202452549
 30
0.0
 10
4.7127285554
 20
3.2246949923
 30
0.0
 10
4.7167533627
 20
3.2278869924
 30
0.0
 10
4.71871632
 20
3.2295360413
 30
0.0
  0
SPLINE
  5
37B
100
AcDbEntity
  8
ALL_ASSEMBLY_MEMBERS
100
AcDbSpline
 62
7
  6
CONTINUOUS
 70
0
 71
3
 72
24
 73
20
 74
0
 42
0.0000001
 43
0.0000001
 44
0.0000000001
 40
0.0
 40
0.0
 40
0.0
 40
0.0
 40
0.0625159525
 40
0.1251229103
 40
0.1876673421
 40
0.2501199406
 40
0.312511235
 40
0.3748493473
 40
0.4371181172
 40
0.4993139823
 40
0.5614468846
 40
0.6235468377
 40
0.6856638472
 40
0.7478834581
 40
0.8103325243
 40
0.8731430698
 40
0.9363996422
 40
0.9681862885
 40
1.0
 40
1.0
 40
1.0
 40
1.0
 10
4.5339212506
 20
3.4338375895
 30
0.0
 10
4.5306397225
 20
3.4329421797
 30
0.0
 10
4.5241323559
 20
3.4309195517
 30
0.0
 10
4.5146086882
 20
3.4272146133
 30
0.0
 10
4.5053724525
 20
3.4228484542
 30
0.0
 10
4.496480853
 20
3.4178413424
 30
0.0
 10
4.4879813981
 20
3.4122140566
 30
0.0
 10
4.47992162
 20
3.4059892778
 30
0.0
 10
4.4723517689
 20
3.3991925182
 30
0.0
 10
4.4653244058
 20
3.3918511221
 30
0.0
 10
4.4588906586
 20
3.3839955434
 30
0.0
 10
4.4531033338
 20
3.3756566989
 30
0.0
 10
4.4480180876
 20
3.3668656223
 30
0.0
 10
4.4436948585
 20
3.357653675
 30
0.0
 10
4.4402006421
 20
3.3480546144
 30
0.0
 10
4.4376120943
 20
3.3381133758
 30
0.0
 10
4.4362789463
 20
3.3296121785
 30
0.0
 10
4.435740025
 20
3.3227285238
 30
0.0
 10
4.4356488305
 20
3.3192672818
 30
0.0
 10
4.4356488305
 20
3.3175362954
 30
0.0
  0
SPLINE
  5
37C
100
AcDbEntity
  8
ALL_ASSEMBLY_MEMBERS
100
AcDbSpline
 62
7
  6
CONTINUOUS
 70
0
 71
3
 72
14
 73
10
 74
0
 42
0.0000001
 43
0.0000001
 44
0.0000000001
 40
0.0
 40
0.0
 40
0.0
 40
0.0
 40
0.1245756403
 40
0.2494590639
 40
0.3744385931
 40
0.4994205319
 40
0.6244781569
 40
0.7496760468
 40
1.0
 40
1.0
 40
1.0
 40
1.0
 10
4.71871632
 20
3.4055365494
 30
0.0
 10
4.7167533543
 20
3.4071856054
 30
0.0
 10
4.7127285559
 20
3.4103776072
 30
0.0
 10
4.7064328798
 20
3.4148273289
 30
0.0
 10
4.6998961417
 20
3.4189309054
 30
0.0
 10
4.6931429063
 20
3.4226744264
 30
0.0
 10
4.6861932422
 20
3.4260504307
 30
0.0
 10
4.6766962531
 20
3.4300504062
 30
0.0
 10
4.669340464
 20
3.4324814942
 30
0.0
 10
4.6643705999
 20
3.4338375895
 30
0.0
  0
SPLINE
  5
37D
100
AcDbEntity
  8
ALL_ASSEMBLY_MEMBERS
100
AcDbSpline
 62
7
  6
CONTINUOUS
 70
0
 71
3
 72
13
 73
9
 74
0
 42
0.0000001
 43
0.0000001
 44
0.0000000001
 40
0.0
 40
0.0
 40
0.0
 40
0.0
 40
0.1244516229
 40
0.2494991529
 40
0.4999963381
 40
0.750498814
 40
0.8755509688
 40
1.0
 40
1.0
 40
1.0
 40
1.0
 10
4.6643705999
 20
3.4338375895
 30
0.0
 10
4.6590905543
 20
3.4352783221
 30
0.0
 10
4.6484035029
 20
3.437808601
 30
0.0
 10
4.626704175
 20
3.4414424931
 30
0.0
 10
4.5991461833
 20
3.4432658645
 30
0.0
 10
4.5715879694
 20
3.441442557
 30
0.0
 10
4.5498883438
 20
3.437808507
 30
0.0
 10
4.5392011862
 20
3.435278292
 30
0.0
 10
4.5339212506
 20
3.4338375895
 30
0.0
  0
SPLINE
  5
37E
100
AcDbEntity
  8
ALL_ASSEMBLY_MEMBERS
100
AcDbSpline
 62
7
  6
CONTINUOUS
 70
0
 71
3
 72
27
 73
23
 74
0
 42
0.0000001
 43
0.0000001
 44
0.0000000001
 40
0.0
 40
0.0
 40
0.0
 40
0.0
 40
0.0726227486
 40
0.1449387688
 40
0.2165413862
 40
0.2871308063
 40
0.4240269662
 40
0.4899500977
 40
0.5539184004
 40
0.5851436461
 40
0.6158472995
 40
0.646029034
 40
0.6756925126
 40
0.7334833577
 40
0.7893811487
 40
0.8167012202
 40
0.843642589
 40
0.8702474857
 40
0.8965632244
 40
0.9485105284
 40
0.9742860575
 40
1.0
 40
1.0
 40
1.0
 40
1.0
 10
4.8151892492
 20
3.3175362954
 30
0.0
 10
4.8151892492
 20
3.31998754
 30
0.0
 10
4.8150192947
 20
3.3248814046
 30
0.0
 10
4.8142587271
 20
3.3321562161
 30
0.0
 10
4.812997642
 20
3.3392928403
 30
0.0
 10
4.8106911296
 20
3.3484317824
 30
0.0
 10
4.8074434562
 20
3.3571182631
 30
0.0
 10
4.8032671599
 20
3.365105746
 30
0.0
 10
4.8003346567
 20
3.369695433
 30
0.0
 10
4.7978016832
 20
3.3731090586
 30
0.0
 10
4.7958307687
 20
3.3755151622
 30
0.0
 10
4.7937786873
 20
3.3777819282
 30
0.0
 10
4.7909658782
 20
3.3805863886
 30
0.0
 10
4.787272962
 20
3.3837283882
 30
0.0
 10
4.7833121092
 20
3.3863887822
 30
0.0
 10
4.7800468361
 20
3.3881716028
 30
0.0
 10
4.7775727873
 20
3.389328839
 30
0.0
 10
4.7750611206
 20
3.3903130596
 30
0.0
 10
4.7716860906
 20
3.3913860284
 30
0.0
 10
4.768237272
 20
3.3921131534
 30
0.0
 10
4.764762799
 20
3.3924757857
 30
0.0
 10
4.7630241665
 20
3.392536147
 30
0.0
 10
4.7621562406
 20
3.392536147
 30
0.0
  0
SPLINE
  5
37F
100
AcDbEntity
  8
ALL_ASSEMBLY_MEMBERS
100
AcDbSpline
 62
7
  6
CONTINUOUS
 70
0
 71
3
 72
17
 73
13
 74
0
 42
0.0000001
 43
0.0000001
 44
0.0000000001
 40
0.0
 40
0.0
 40
0.0
 40
0.0
 40
0.0676778992
 40
0.1352665324
 40
0.2694098207
 40
0.401326516
 40
0.5300800082
 40
0.5930183697
 40
0.6548658047
 40
0.7749618755
 40
0.8900321294
 40
1.0
 40
1.0
 40
1.0
 40
1.0
 10
4.7541289301
 20
3.3175362954
 30
0.0
 10
4.7541289301
 20
3.3197408034
 30
0.0
 10
4.7540278676
 20
3.3241476734
 30
0.0
 10
4.753426328
 20
3.3329049583
 30
0.0
 10
4.751934821
 20
3.3436876957
 30
0.0
 10
4.7489769595
 20
3.3562225795
 30
0.0
 10
4.7455568016
 20
3.3662142953
 30
0.0
 10
4.7422751651
 20
3.3737968563
 30
0.0
 10
4.738716953
 20
3.3809393773
 30
0.0
 10
4.7336885556
 20
3.38923253
 30
0.0
 10
4.7267273908
 20
3.3980951777
 30
0.0
 10
4.7214590416
 20
3.4032324788
 30
0.0
 10
4.7187162778
 20
3.4055364468
 30
0.0
  0
SPLINE
  5
380
100
AcDbEntity
  8
ALL_ASSEMBLY_MEMBERS
100
AcDbSpline
 62
7
  6
CONTINUOUS
 70
0
 71
3
 72
41
 73
37
 74
0
 42
0.0000001
 43
0.0000001
 44
0.0000000001
 40
0.0
 40
0.0
 40
0.0
 40
0.0
 40
0.0362980159
 40
0.0724653974
 40
0.1082764918
 40
0.1435688418
 40
0.1782076908
 40
0.2120656245
 40
0.2450277418
 40
0.2770117958
 40
0.3079668944
 40
0.3230574277
 40
0.3378892135
 40
0.366784898
 40
0.3947334711
 40
0.4218511531
 40
0.4482970769
 40
0.4742707537
 40
0.5
 40
0.5257292463
 40
0.5517029231
 40
0.5781488469
 40
0.6052665289
 40
0.633215102
 40
0.6621107865
 40
0.6769425723
 40
0.6920331056
 40
0.7229882042
 40
0.7549722582
 40
0.7879343755
 40
0.8217923092
 40
0.8564311582
 40
0.8917235082
 40
0.9275346026
 40
0.9637019841
 40
1.0
 40
1.0
 40
1.0
 40
1.0
 10
4.4370715814
 20
3.3175362954
 30
0.0
 10
4.4370715814
 20
3.3157885386
 30
0.0
 10
4.437193197
 20
3.3122981311
 30
0.0
 10
4.4377352107
 20
3.3071087764
 30
0.0
 10
4.4386348022
 20
3.3020180783
 30
0.0
 10
4.4398816148
 20
3.2970768738
 30
0.0
 10
4.4414649329
 20
3.2923317436
 30
0.0
 10
4.4433684514
 20
3.2878269785
 30
0.0
 10
4.4455756012
 20
3.2836060912
 30
0.0
 10
4.4480648961
 20
3.2797097808
 30
0.0
 10
4.4503749988
 20
3.2767387436
 30
0.0
 10
4.4523432233
 20
3.2745650154
 30
0.0
 10
4.4543495163
 20
3.2725646879
 30
0.0
 10
4.4569834978
 20
3.2703231262
 30
0.0
 10
4.4603474179
 20
3.2680643886
 30
0.0
 10
4.4638551874
 20
3.2662810035
 30
0.0
 10
4.4674738478
 20
3.2649939192
 30
0.0
 10
4.4711671071
 20
3.2642146898
 30
0.0
 10
4.4748984739
 20
3.263954957
 30
0.0
 10
4.4786298407
 20
3.2642146898
 30
0.0
 10
4.4823231
 20
3.2649939192
 30
0.0
 10
4.4859417605
 20
3.2662810035
 30
0.0
 10
4.48944953
 20
3.2680643886
 30
0.0
 10
4.49281345
 20
3.2703231262
 30
0.0
 10
4.4954474316
 20
3.2725646879
 30
0.0
 10
4.4974537246
 20
3.2745650154
 30
0.0
 10
4.4994219491
 20
3.2767387436
 30
0.0
 10
4.5017320517
 20
3.2797097808
 30
0.0
 10
4.5042213467
 20
3.2836060912
 30
0.0
 10
4.5064284964
 20
3.2878269785
 30
0.0
 10
4.5083320149
 20
3.2923317436
 30
0.0
 10
4.509915333
 20
3.2970768738
 30
0.0
 10
4.5111621457
 20
3.3020180783
 30
0.0
 10
4.5120617371
 20
3.3071087764
 30
0.0
 10
4.5126037509
 20
3.3122981311
 30
0.0
 10
4.5127253664
 20
3.3157885386
 30
0.0
 10
4.5127253664
 20
3.3175362954
 30
0.0
  0
SPLINE
  5
381
100
AcDbEntity
  8
ALL_ASSEMBLY_MEMBERS
100
AcDbSpline
 62
7
  6
CONTINUOUS
 70
0
 71
3
 72
32
 73
28
 74
0
 42
0.0000001
 43
0.0000001
 44
0.0000000001
 40
0.0
 40
0.0
 40
0.0
 40
0.0
 40
0.026409496
 40
0.0526574592
 40
0.0788187286
 40
0.1049702549
 40
0.1311893831
 40
0.1575514909
 40
0.184129721
 40
0.210992801
 40
0.2382032401
 40
0.2658181627
 40
0.3224221117
 40
0.3515170543
 40
0.3811690061
 40
0.4421824023
 40
0.4735834332
 40
0.505569577
 40
0.5712308234
 40
0.6048882564
 40
0.6390556957
 40
0.7087758867
 40
0.7800988508
 40
0.8162591274
 40
0.8526880748
 40
0.9261486275
 40
1.0
 40
1.0
 40
1.0
 40
1.0
 10
4.5356173007
 20
3.2007977696
 30
0.0
 10
4.5371078654
 20
3.2004359069
 30
0.0
 10
4.5401080979
 20
3.1998251491
 30
0.0
 10
4.5446544257
 20
3.1992543975
 30
0.0
 10
4.5492164726
 20
3.1990340758
 30
0.0
 10
4.553780193
 20
3.1991661878
 30
0.0
 10
4.5583318694
 20
3.1996493506
 30
0.0
 10
4.5628579464
 20
3.2004816566
 30
0.0
 10
4.5673446599
 20
3.2016616723
 30
0.0
 10
4.5717785484
 20
3.2031852053
 30
0.0
 10
4.576146964
 20
3.2050470378
 30
0.0
 10
4.5819119546
 20
3.2079971899
 30
0.0
 10
4.5874511323
 20
3.211592765
 30
0.0
 10
4.5927055785
 20
3.2157540444
 30
0.0
 10
4.597887602
 20
3.2203994814
 30
0.0
 10
4.6027391777
 20
3.225593574
 30
0.0
 10
4.6072301556
 20
3.231256585
 30
0.0
 10
4.6115760499
 20
3.2373667563
 30
0.0
 10
4.6155172952
 20
3.2439123352
 30
0.0
 10
4.6190422585
 20
3.2508197269
 30
0.0
 10
4.622346395
 20
3.2580958144
 30
0.0
 10
4.6259281477
 20
3.2676353858
 30
0.0
 10
4.6287272626
 20
3.2775520993
 30
0.0
 10
4.6305074214
 20
3.2857206825
 30
0.0
 10
4.6319825389
 20
3.2940760482
 30
0.0
 10
4.6332133332
 20
3.304687789
 30
0.0
 10
4.633542634
 20
3.3132470165
 30
0.0
 10
4.633542634
 20
3.3175362954
 30
0.0
  0
SPLINE
  5
382
100
AcDbEntity
  8
ALL_ASSEMBLY_MEMBERS
100
AcDbSpline
 62
7
  6
CONTINUOUS
 70
0
 71
3
 72
23
 73
19
 74
0
 42
0.0000001
 43
0.0000001
 44
0.0000000001
 40
0.0
 40
0.0
 40
0.0
 40
0.0
 40
0.0515278598
 40
0.1041511142
 40
0.1581277526
 40
0.2136548564
 40
0.2708734195
 40
0.3298601514
 40
0.390639321
 40
0.4531772489
 40
0.517397744
 40
0.5831793694
 40
0.6503672828
 40
0.7187663168
 40
0.7881639682
 40
0.858346344
 40
0.9290703232
 40
1.0
 40
1.0
 40
1.0
 40
1.0
 10
4.6643705956
 20
3.2012350328
 30
0.0
 10
4.6667546775
 20
3.2018856683
 30
0.0
 10
4.6714994074
 20
3.2034890962
 30
0.0
 10
4.6783758458
 20
3.2067222011
 30
0.0
 10
4.685025066
 20
3.2107812704
 30
0.0
 10
4.6913982797
 20
3.2156319143
 30
0.0
 10
4.6974476818
 20
3.2212390845
 30
0.0
 10
4.7031311544
 20
3.2275584077
 30
0.0
 10
4.7084054715
 20
3.2345442867
 30
0.0
 10
4.7132345758
 20
3.2421431573
 30
0.0
 10
4.7175811668
 20
3.2503000619
 30
0.0
 10
4.7214158091
 20
3.2589536374
 30
0.0
 10
4.7247080472
 20
3.2680406854
 30
0.0
 10
4.7274364868
 20
3.2774928522
 30
0.0
 10
4.7295789385
 20
3.2872415931
 30
0.0
 10
4.7311213482
 20
3.2972158215
 30
0.0
 10
4.7320498519
 20
3.3073390321
 30
0.0
 10
4.7322575864
 20
3.3141345173
 30
0.0
 10
4.7322575864
 20
3.3175362954
 30
0.0
  0
SPLINE
  5
383
100
AcDbEntity
  8
ALL_ASSEMBLY_MEMBERS
100
AcDbSpline
 62
7
  6
CONTINUOUS
 70
0
 71
3
 72
17
 73
13
 74
0
 42
0.0000001
 43
0.0000001
 44
0.0000000001
 40
0.0
 40
0.0
 40
0.0
 40
0.0
 40
0.1099678376
 40
0.2250380518
 40
0.3451340548
 40
0.4069814476
 40
0.4699197686
 40
0.5986731946
 40
0.7305898415
 40
0.8647333184
 40
0.9323220609
 40
1.0
 40
1.0
 40
1.0
 40
1.0
 10
4.7187162802
 20
3.2295361457
 30
0.0
 10
4.7214590432
 20
3.231840113
 30
0.0
 10
4.7267273903
 20
3.2369774125
 30
0.0
 10
4.7336885533
 20
3.2458400555
 30
0.0
 10
4.7387169492
 20
3.2541332032
 30
0.0
 10
4.7422751593
 20
3.2612757195
 30
0.0
 10
4.7455567946
 20
3.2688582755
 30
0.0
 10
4.7489769589
 20
3.2788499835
 30
0.0
 10
4.7519348203
 20
3.29138487
 30
0.0
 10
4.7534263216
 20
3.302167616
 30
0.0
 10
4.7540278657
 20
3.3109249113
 30
0.0
 10
4.7541289301
 20
3.3153317861
 30
0.0
 10
4.7541289301
 20
3.3175362954
 30
0.0
  0
SPLINE
  5
384
100
AcDbEntity
  8
ALL_ASSEMBLY_MEMBERS
100
AcDbSpline
 62
7
  6
CONTINUOUS
 70
0
 71
3
 72
27
 73
23
 74
0
 42
0.0000001
 43
0.0000001
 44
0.0000000001
 40
0.0
 40
0.0
 40
0.0
 40
0.0
 40
0.0257139422
 40
0.05148947
 40
0.103436769
 40
0.1297525051
 40
0.1563573995
 40
0.1832987654
 40
0.2106188327
 40
0.266516608
 40
0.3243074348
 40
0.3539709058
 40
0.3841526317
 40
0.4148562748
 40
0.4460815067
 40
0.5100497725
 40
0.5759728735
 40
0.7128689472
 40
0.7834583337
 40
0.8550610163
 40
0.9273771858
 40
1.0
 40
1.0
 40
1.0
 40
1.0
 10
4.7621562406
 20
3.2425364438
 30
0.0
 10
4.7630241665
 20
3.2425364438
 30
0.0
 10
4.7647627989
 20
3.2425968051
 30
0.0
 10
4.7682372717
 20
3.2429594373
 30
0.0
 10
4.77168609
 20
3.2436865622
 30
0.0
 10
4.7750611197
 20
3.2447595308
 30
0.0
 10
4.7775727862
 20
3.2457437513
 30
0.0
 10
4.7800468347
 20
3.2469009873
 30
0.0
 10
4.7833121073
 20
3.2486838074
 30
0.0
 10
4.7872729593
 20
3.2513442003
 30
0.0
 10
4.7909658745
 20
3.2544861989
 30
0.0
 10
4.793778683
 20
3.2572906582
 30
0.0
 10
4.7958307642
 20
3.2595574232
 30
0.0
 10
4.7978016782
 20
3.2619635257
 30
0.0
 10
4.8003346508
 20
3.2653771495
 30
0.0
 10
4.8032671538
 20
3.2699668333
 30
0.0
 10
4.8074434481
 20
3.2779543114
 30
0.0
 10
4.8106911234
 20
3.2866407859
 30
0.0
 10
4.8129976363
 20
3.295779726
 30
0.0
 10
4.8142587255
 20
3.3029163557
 30
0.0
 10
4.8150192927
 20
3.3101911768
 30
0.0
 10
4.8151892492
 20
3.3150850486
 30
0.0
 10
4.8151892492
 20
3.3175362954
 30
0.0
  0
SPLINE
  5
385
100
AcDbEntity
  8
ALL_ASSEMBLY_MEMBERS
100
AcDbSpline
 62
7
  6
CONTINUOUS
 70
0
 71
3
 72
41
 73
37
 74
0
 42
0.0000001
 43
0.0000001
 44
0.0000000001
 40
0.0
 40
0.0
 40
0.0
 40
0.0
 40
0.0362980159
 40
0.0724653974
 40
0.1082764918
 40
0.1435688418
 40
0.1782076908
 40
0.2120656245
 40
0.2450277418
 40
0.2770117958
 40
0.3079668944
 40
0.3230574277
 40
0.3378892135
 40
0.366784898
 40
0.3947334711
 40
0.4218511531
 40
0.4482970769
 40
0.4742707537
 40
0.5
 40
0.5257292463
 40
0.5517029231
 40
0.5781488469
 40
0.6052665289
 40
0.633215102
 40
0.6621107865
 40
0.6769425723
 40
0.6920331056
 40
0.7229882042
 40
0.7549722582
 40
0.7879343755
 40
0.8217923092
 40
0.8564311582
 40
0.8917235082
 40
0.9275346026
 40
0.9637019841
 40
1.0
 40
1.0
 40
1.0
 40
1.0
 10
4.4370715814
 20
3.3175362954
 30
0.0
 10
4.4370715814
 20
3.3192840522
 30
0.0
 10
4.437193197
 20
3.3227744597
 30
0.0
 10
4.4377352107
 20
3.3279638144
 30
0.0
 10
4.4386348022
 20
3.3330545124
 30
0.0
 10
4.4398816148
 20
3.337995717
 30
0.0
 10
4.4414649329
 20
3.3427408472
 30
0.0
 10
4.4433684514
 20
3.3472456123
 30
0.0
 10
4.4455756012
 20
3.3514664996
 30
0.0
 10
4.4480648961
 20
3.35536281
 30
0.0
 10
4.4503749988
 20
3.3583338472
 30
0.0
 10
4.4523432233
 20
3.3605075754
 30
0.0
 10
4.4543495163
 20
3.3625079029
 30
0.0
 10
4.4569834978
 20
3.3647494645
 30
0.0
 10
4.4603474179
 20
3.3670082022
 30
0.0
 10
4.4638551874
 20
3.3687915872
 30
0.0
 10
4.4674738478
 20
3.3700786716
 30
0.0
 10
4.4711671071
 20
3.3708579009
 30
0.0
 10
4.4748984739
 20
3.3711176338
 30
0.0
 10
4.4786298407
 20
3.3708579009
 30
0.0
 10
4.4823231
 20
3.3700786716
 30
0.0
 10
4.4859417605
 20
3.3687915872
 30
0.0
 10
4.48944953
 20
3.3670082022
 30
0.0
 10
4.49281345
 20
3.3647494645
 30
0.0
 10
4.4954474316
 20
3.3625079029
 30
0.0
 10
4.4974537246
 20
3.3605075754
 30
0.0
 10
4.4994219491
 20
3.3583338472
 30
0.0
 10
4.5017320517
 20
3.35536281
 30
0.0
 10
4.5042213467
 20
3.3514664996
 30
0.0
 10
4.5064284964
 20
3.3472456123
 30
0.0
 10
4.5083320149
 20
3.3427408472
 30
0.0
 10
4.509915333
 20
3.337995717
 30
0.0
 10
4.5111621457
 20
3.3330545124
 30
0.0
 10
4.5120617371
 20
3.3279638144
 30
0.0
 10
4.5126037509
 20
3.3227744597
 30
0.0
 10
4.5127253664
 20
3.3192840522
 30
0.0
 10
4.5127253664
 20
3.3175362954
 30
0.0
  0
SPLINE
  5
386
100
AcDbEntity
  8
ALL_ASSEMBLY_MEMBERS
100
AcDbSpline
 62
7
  6
CONTINUOUS
 70
0
 71
3
 72
32
 73
28
 74
0
 42
0.0000001
 43
0.0000001
 44
0.0000000001
 40
0.0
 40
0.0
 40
0.0
 40
0.0
 40
0.026408431
 40
0.052655586
 40
0.078816294
 40
0.104967494
 40
0.1311865103
 40
0.1575486973
 40
0.1841271741
 40
0.2109906368
 40
0.2382015658
 40
0.2658170596
 40
0.3224222818
 40
0.3515178689
 40
0.3811704417
 40
0.4421849456
 40
0.4735864283
 40
0.5055729411
 40
0.5712346656
 40
0.6048921931
 40
0.6390596328
 40
0.7087795561
 40
0.7801019186
 40
0.8162617905
 40
0.8526902776
 40
0.9261497815
 40
1.0
 40
1.0
 40
1.0
 40
1.0
 10
4.5356322217
 20
3.4342784415
 30
0.0
 10
4.5371226851
 20
3.4346398866
 30
0.0
 10
4.5401226971
 20
3.4352498279
 30
0.0
 10
4.5446686216
 20
3.4358194128
 30
0.0
 10
4.5492302195
 20
3.4360386344
 30
0.0
 10
4.5537934488
 20
3.4359054938
 30
0.0
 10
4.558344597
 20
3.4354213824
 30
0.0
 10
4.5628701133
 20
3.4345882047
 30
0.0
 10
4.5673562369
 20
3.4334073953
 30
0.0
 10
4.5717895131
 20
3.4318831548
 30
0.0
 10
4.5761572977
 20
3.4300206975
 30
0.0
 10
4.5819214236
 20
3.4270698127
 30
0.0
 10
4.5874597171
 20
3.4234736918
 30
0.0
 10
4.5927132915
 20
3.4193120261
 30
0.0
 10
4.5978944277
 20
3.4146663126
 30
0.0
 10
4.6027451446
 20
3.4094721086
 30
0.0
 10
4.6072353105
 20
3.4038091237
 30
0.0
 10
4.6115803946
 20
3.3976990946
 30
0.0
 10
4.6155208906
 20
3.3911537906
 30
0.0
 10
4.6190451772
 20
3.3842467831
 30
0.0
 10
4.6223486617
 20
3.3769711839
 30
0.0
 10
4.6259296978
 20
3.3674323592
 30
0.0
 10
4.6287282504
 20
3.3575165094
 30
0.0
 10
4.6305080471
 20
3.3493486881
 30
0.0
 10
4.6319828611
 20
3.3409941405
 30
0.0
 10
4.6332134009
 20
3.3303834751
 30
0.0
 10
4.633542634
 20
3.3218251297
 30
0.0
 10
4.633542634
 20
3.3175362954
 30
0.0
  0
SPLINE
  5
387
100
AcDbEntity
  8
ALL_ASSEMBLY_MEMBERS
100
AcDbSpline
 62
7
  6
CONTINUOUS
 70
0
 71
3
 72
23
 73
19
 74
0
 42
0.0000001
 43
0.0000001
 44
0.0000000001
 40
0.0
 40
0.0
 40
0.0
 40
0.0
 40
0.0515278598
 40
0.1041511142
 40
0.1581277526
 40
0.2136548564
 40
0.2708734195
 40
0.3298601514
 40
0.390639321
 40
0.4531772489
 40
0.517397744
 40
0.5831793694
 40
0.6503672828
 40
0.7187663168
 40
0.7881639682
 40
0.858346344
 40
0.9290703232
 40
1.0
 40
1.0
 40
1.0
 40
1.0
 10
4.6643705956
 20
3.4338375579
 30
0.0
 10
4.6667546775
 20
3.4331869224
 30
0.0
 10
4.6714994074
 20
3.4315834945
 30
0.0
 10
4.6783758458
 20
3.4283503897
 30
0.0
 10
4.685025066
 20
3.4242913204
 30
0.0
 10
4.6913982797
 20
3.4194406765
 30
0.0
 10
4.6974476818
 20
3.4138335063
 30
0.0
 10
4.7031311544
 20
3.407514183
 30
0.0
 10
4.7084054715
 20
3.4005283041
 30
0.0
 10
4.7132345758
 20
3.3929294335
 30
0.0
 10
4.7175811668
 20
3.3847725289
 30
0.0
 10
4.7214158091
 20
3.3761189534
 30
0.0
 10
4.7247080472
 20
3.3670319054
 30
0.0
 10
4.7274364868
 20
3.3575797386
 30
0.0
 10
4.7295789385
 20
3.3478309977
 30
0.0
 10
4.7311213482
 20
3.3378567693
 30
0.0
 10
4.7320498519
 20
3.3277335587
 30
0.0
 10
4.7322575864
 20
3.3209380735
 30
0.0
 10
4.7322575864
 20
3.3175362954
 30
0.0
  0
SPLINE
  5
388
100
AcDbEntity
  8
ALL_ASSEMBLY_MEMBERS
100
AcDbSpline
 62
7
  6
CONTINUOUS
 70
0
 71
3
 72
9
 73
5
 74
0
 42
0.0000001
 43
0.0000001
 44
0.0000000001
 40
0.0
 40
0.0
 40
0.0
 40
0.0
 40
0.4852364211
 40
1.0
 40
1.0
 40
1.0
 40
1.0
 10
5.1867728133
 20
3.2392862954
 30
0.0
 10
5.1838985803
 20
3.2392862954
 30
0.0
 10
5.1779638302
 20
3.2399442259
 30
0.0
 10
5.1722770046
 20
3.2417220387
 30
0.0
 10
5.1694509358
 20
3.2428668304
 30
0.0
  0
SPLINE
  5
389
100
AcDbEntity
  8
ALL_ASSEMBLY_MEMBERS
100
AcDbSpline
 62
7
  6
CONTINUOUS
 70
0
 71
3
 72
33
 73
29
 74
0
 42
0.0000001
 43
0.0000001
 44
0.0000000001
 40
0.0
 40
0.0
 40
0.0
 40
0.0
 40
0.054799824
 40
0.0834165341
 40
0.112766559
 40
0.17339088
 40
0.2362086206
 40
0.268301544
 40
0.3007550323
 40
0.3335134577
 40
0.3665199731
 40
0.3997214299
 40
0.4330686334
 40
0.4665101931
 40
0.499999882
 40
0.5334895751
 40
0.56693116
 40
0.6002783957
 40
0.633479875
 40
0.6664864196
 40
0.6992448783
 40
0.7316984194
 40
0.7637914
 40
0.8266092015
 40
0.8872334874
 40
0.9165834839
 40
0.9452001802
 40
1.0
 40
1.0
 40
1.0
 40
1.0
 10
5.1692766841
 20
3.2429377603
 30
0.0
 10
5.1661332789
 20
3.2442234965
 30
0.0
 10
5.1615181366
 20
3.2466222942
 30
0.0
 10
5.1557315866
 20
3.2505481137
 30
0.0
 10
5.1499745129
 20
3.255127684
 30
0.0
 10
5.143235836
 20
3.2618288229
 30
0.0
 10
5.1373952427
 20
3.2695384505
 30
0.0
 10
5.1333023934
 20
3.2762939364
 30
0.0
 10
5.130542988
 20
3.2816618543
 30
0.0
 10
5.1281489059
 20
3.2872638506
 30
0.0
 10
5.1261456812
 20
3.2930665036
 30
0.0
 10
5.1245593987
 20
3.29903469
 30
0.0
 10
5.123411097
 20
3.3051299208
 30
0.0
 10
5.1227142276
 20
3.3113112417
 30
0.0
 10
5.1224823814
 20
3.3175362656
 30
0.0
 10
5.1227142206
 20
3.3237612917
 30
0.0
 10
5.123411093
 20
3.3299426159
 30
0.0
 10
5.1245593844
 20
3.3360378537
 30
0.0
 10
5.126145671
 20
3.3420060444
 30
0.0
 10
5.1281488904
 20
3.3478087048
 30
0.0
 10
5.130542975
 20
3.3534107079
 30
0.0
 10
5.1333023833
 20
3.3587786342
 30
0.0
 10
5.1373952349
 20
3.3655341311
 30
0.0
 10
5.1432358322
 20
3.3732437624
 30
0.0
 10
5.1499745073
 20
3.3799449027
 30
0.0
 10
5.1557315774
 20
3.3845244698
 30
0.0
 10
5.1615181242
 20
3.3884502891
 30
0.0
 10
5.1661332648
 20
3.3908490874
 30
0.0
 10
5.1692766693
 20
3.3921348246
 30
0.0
  0
SPLINE
  5
38A
100
AcDbEntity
  8
ALL_ASSEMBLY_MEMBERS
100
AcDbSpline
 62
7
  6
CONTINUOUS
 70
0
 71
3
 72
9
 73
5
 74
0
 42
0.0000001
 43
0.0000001
 44
0.0000000001
 40
0.0
 40
0.0
 40
0.0
 40
0.0
 40
0.5147674131
 40
1.0
 40
1.0
 40
1.0
 40
1.0
 10
5.1694465888
 20
3.3922039995
 30
0.0
 10
5.1722733247
 20
3.3933493397
 30
0.0
 10
5.1779615337
 20
3.3951280212
 30
0.0
 10
5.1838978475
 20
3.3957862954
 30
0.0
 10
5.1867728133
 20
3.3957862954
 30
0.0
  0
SPLINE
  5
38B
100
AcDbEntity
  8
ALL_ASSEMBLY_MEMBERS
100
AcDbSpline
 62
7
  6
CONTINUOUS
 70
0
 71
3
 72
9
 73
5
 74
0
 42
0.0000001
 43
0.0000001
 44
0.0000000001
 40
0.0
 40
0.0
 40
0.0
 40
0.0
 40
0.4851930789
 40
1.0
 40
1.0
 40
1.0
 40
1.0
 10
4.8332194227
 20
3.3957862954
 30
0.0
 10
4.8361020497
 20
3.3957862954
 30
0.0
 10
4.8420547062
 20
3.3951244193
 30
0.0
 10
4.8477573723
 20
3.393336653
 30
0.0
 10
4.8505910729
 20
3.3921855741
 30
0.0
  0
SPLINE
  5
38C
100
AcDbEntity
  8
ALL_ASSEMBLY_MEMBERS
100
AcDbSpline
 62
7
  6
CONTINUOUS
 70
0
 71
3
 72
32
 73
28
 74
0
 42
0.0000001
 43
0.0000001
 44
0.0000000001
 40
0.0
 40
0.0
 40
0.0
 40
0.0
 40
0.0536401712
 40
0.0814628852
 40
0.1099051038
 40
0.1684731716
 40
0.1985430581
 40
0.2290702663
 40
0.2912967008
 40
0.3548401964
 40
0.3870196017
 40
0.4194117416
 40
0.4519794895
 40
0.4846906635
 40
0.5503728193
 40
0.5833088581
 40
0.6162551715
 40
0.6491784178
 40
0.6820472773
 40
0.7148294273
 40
0.747489026
 40
0.7799930292
 40
0.8123077132
 40
0.8443946749
 40
0.8762173127
 40
0.9388837959
 40
1.0
 40
1.0
 40
1.0
 40
1.0
 10
4.8507157723
 20
3.3921347439
 30
0.0
 10
4.8533084518
 20
3.3910742523
 30
0.0
 10
4.8571300125
 20
3.3891640975
 30
0.0
 10
4.8619876407
 20
3.3861025909
 30
0.0
 10
4.866848343
 20
3.3825842244
 30
0.0
 10
4.8714562076
 20
3.3785386252
 30
0.0
 10
4.8757563849
 20
3.3740367166
 30
0.0
 10
4.8799106829
 20
3.3691454291
 30
0.0
 10
4.8846436388
 20
3.3624721444
 30
0.0
 10
4.8886185051
 20
3.355222061
 30
0.0
 10
4.8913110683
 20
3.3490938402
 30
0.0
 10
4.8930743935
 20
3.3443341373
 30
0.0
 10
4.8945588551
 20
3.3394509579
 30
0.0
 10
4.8961479306
 20
3.3327959098
 30
0.0
 10
4.8971280726
 20
3.3259870751
 30
0.0
 10
4.8974706004
 20
3.3191217409
 30
0.0
 10
4.8974091927
 20
3.3139588111
 30
0.0
 10
4.8970283827
 20
3.308813324
 30
0.0
 10
4.8963306008
 20
3.3037098196
 30
0.0
 10
4.8953253077
 20
3.2986720156
 30
0.0
 10
4.894019874
 20
3.2937232506
 30
0.0
 10
4.8924259868
 20
3.2888855264
 30
0.0
 10
4.8905588741
 20
3.2841788267
 30
0.0
 10
4.8884320635
 20
3.2796227778
 30
0.0
 10
4.8852897889
 20
3.2738038224
 30
0.0
 10
4.8808162755
 20
3.266997692
 30
0.0
 10
4.8766571591
 20
3.2620273664
 30
0.0
 10
4.8744674064
 20
3.2597054572
 30
0.0
  0
SPLINE
  5
38D
100
AcDbEntity
  8
ALL_ASSEMBLY_MEMBERS
100
AcDbSpline
 62
7
  6
CONTINUOUS
 70
0
 71
3
 72
11
 73
7
 74
0
 42
0.0000001
 43
0.0000001
 44
0.0000000001
 40
0.0
 40
0.0
 40
0.0
 40
0.0
 40
0.2627163374
 40
0.5175236725
 40
0.7635175246
 40
1.0
 40
1.0
 40
1.0
 40
1.0
 10
4.8741719893
 20
3.2593938849
 30
0.0
 10
4.8724288207
 20
3.257565219
 30
0.0
 10
4.8688223588
 20
3.254122494
 30
0.0
 10
4.8630284171
 20
3.2495928018
 30
0.0
 10
4.8570105659
 20
3.2458198667
 30
0.0
 10
4.8528206162
 20
3.2437987981
 30
0.0
 10
4.8507157724
 20
3.2429378477
 30
0.0
  0
SPLINE
  5
38E
100
AcDbEntity
  8
ALL_ASSEMBLY_MEMBERS
100
AcDbSpline
 62
7
  6
CONTINUOUS
 70
0
 71
3
 72
9
 73
5
 74
0
 42
0.0000001
 43
0.0000001
 44
0.0000000001
 40
0.0
 40
0.0
 40
0.0
 40
0.0
 40
0.5148095728
 40
1.0
 40
1.0
 40
1.0
 40
1.0
 10
4.8505937626
 20
3.2428881102
 30
0.0
 10
4.8477596478
 20
3.2417366907
 30
0.0
 10
4.8420561265
 20
3.2399483824
 30
0.0
 10
4.8361025016
 20
3.2392862954
 30
0.0
 10
4.8332194227
 20
3.2392862954
 30
0.0
  0
SPLINE
  5
38F
100
AcDbEntity
  8
ALL_ASSEMBLY_MEMBERS
100
AcDbSpline
 62
7
  6
CONTINUOUS
 70
0
 71
3
 72
11
 73
7
 74
0
 42
0.0000001
 43
0.0000001
 44
0.0000000001
 40
0.0
 40
0.0
 40
0.0
 40
0.0
 40
0.2548290235
 40
0.5054956217
 40
0.7533191459
 40
1.0
 40
1.0
 40
1.0
 40
1.0
 10
4.8332194227
 20
3.2392862954
 30
0.0
 10
4.8319061236
 20
3.2392862954
 30
0.0
 10
4.8292988178
 20
3.2394186497
 30
0.0
 10
4.825456775
 20
3.2400250059
 30
0.0
 10
4.8217438572
 20
3.241035094
 30
0.0
 10
4.8193680691
 20
3.241973931
 30
0.0
 10
4.8182129408
 20
3.2425048722
 30
0.0
  0
SPLINE
  5
390
100
AcDbEntity
  8
ALL_ASSEMBLY_MEMBERS
100
AcDbSpline
 62
7
  6
CONTINUOUS
 70
0
 71
3
 72
11
 73
7
 74
0
 42
0.0000001
 43
0.0000001
 44
0.0000000001
 40
0.0
 40
0.0
 40
0.0
 40
0.0
 40
0.2466809444
 40
0.4945046178
 40
0.7451711829
 40
1.0
 40
1.0
 40
1.0
 40
1.0
 10
4.8182134635
 20
3.3925679574
 30
0.0
 10
4.819368558
 20
3.3930988601
 30
0.0
 10
4.8217442721
 20
3.3940376288
 30
0.0
 10
4.8254570629
 20
3.3950476412
 30
0.0
 10
4.8292989658
 20
3.3956539513
 30
0.0
 10
4.8319061734
 20
3.3957862954
 30
0.0
 10
4.8332194227
 20
3.3957862954
 30
0.0
  0
SPLINE
  5
391
100
AcDbEntity
  8
ALL_ASSEMBLY_MEMBERS
100
AcDbSpline
 62
7
  6
CONTINUOUS
 70
0
 71
3
 72
11
 73
7
 74
0
 42
0.0000001
 43
0.0000001
 44
0.0000000001
 40
0.0
 40
0.0
 40
0.0
 40
0.0
 40
0.2548300601
 40
0.5054956978
 40
0.7533177066
 40
1.0
 40
1.0
 40
1.0
 40
1.0
 10
5.1867728133
 20
3.3957862954
 30
0.0
 10
5.1880861547
 20
3.3957862954
 30
0.0
 10
5.1906935339
 20
3.3956539421
 30
0.0
 10
5.1945356781
 20
3.3950475638
 30
0.0
 10
5.1982486789
 20
3.394037388
 30
0.0
 10
5.2006245242
 20
3.3930985034
 30
0.0
 10
5.2017796863
 20
3.3925675326
 30
0.0
  0
SPLINE
  5
392
100
AcDbEntity
  8
ALL_ASSEMBLY_MEMBERS
100
AcDbSpline
 62
7
  6
CONTINUOUS
 70
0
 71
3
 72
11
 73
7
 74
0
 42
0.0000001
 43
0.0000001
 44
0.0000000001
 40
0.0
 40
0.0
 40
0.0
 40
0.0
 40
0.2466821702
 40
0.4945043457
 40
0.745170071
 40
1.0
 40
1.0
 40
1.0
 40
1.0
 10
5.2017794607
 20
3.2425049542
 30
0.0
 10
5.2006243141
 20
3.2419740002
 30
0.0
 10
5.1982485011
 20
3.241035145
 30
0.0
 10
5.1945355542
 20
3.2400250045
 30
0.0
 10
5.1906934701
 20
3.239418645
 30
0.0
 10
5.1880861329
 20
3.2392862954
 30
0.0
 10
5.1867728133
 20
3.2392862954
 30
0.0
  0
SPLINE
  5
393
100
AcDbEntity
  8
0
100
AcDbSpline
 62
7
  6
CONTINUOUS
 70
0
 71
3
 72
19
 73
15
 74
0
 42
0.0000001
 43
0.0000001
 44
0.0000000001
 40
0.0
 40
0.0
 40
0.0
 40
0.0
 40
0.1249158798
 40
0.1874766357
 40
0.2500078059
 40
0.3749226349
 40
0.4998388355
 40
0.5623760549
 40
0.624922107
 40
0.6874570601
 40
0.7499641082
 40
0.8124888753
 40
0.8750775682
 40
1.0
 40
1.0
 40
1.0
 40
1.0
 10
5.0199956027
 20
4.7948161891
 30
0.0
 10
5.0199956027
 20
4.795469878
 30
0.0
 10
5.0198984883
 20
4.7964544704
 30
0.0
 10
5.019580068
 20
4.7977249796
 30
0.0
 10
5.0191386107
 20
4.7989585873
 30
0.0
 10
5.0183627484
 20
4.8004099933
 30
0.0
 10
5.0173179726
 20
4.8016817458
 30
0.0
 10
5.0163470592
 20
4.8025612079
 30
0.0
 10
5.0155570024
 20
4.8031468563
 30
0.0
 10
5.0147135462
 20
4.8036521843
 30
0.0
 10
5.0138241886
 20
4.8040712059
 30
0.0
 10
5.0128976483
 20
4.8044010609
 30
0.0
 10
5.0116279409
 20
4.8047216856
 30
0.0
 10
5.0106436079
 20
4.8048259099
 30
0.0
 10
5.0099898847
 20
4.8048259099
 30
0.0
  0
SPLINE
  5
394
100
AcDbEntity
  8
0
100
AcDbSpline
 62
7
  6
CONTINUOUS
 70
0
 71
3
 72
19
 73
15
 74
0
 42
0.0000001
 43
0.0000001
 44
0.0000000001
 40
0.0
 40
0.0
 40
0.0
 40
0.0
 40
0.1249852322
 40
0.1876498082
 40
0.2502234468
 40
0.3127340834
 40
0.3752485557
 40
0.4377807889
 40
0.5003042382
 40
0.6251763742
 40
0.750059398
 40
0.8125725634
 40
0.8751106733
 40
1.0
 40
1.0
 40
1.0
 40
1.0
 10
5.0099898847
 20
4.8048259099
 30
0.0
 10
5.0093363405
 20
4.8048259099
 30
0.0
 10
5.008351894
 20
4.8047217379
 30
0.0
 10
5.0070829169
 20
4.8043981602
 30
0.0
 10
5.0061572932
 20
4.8040661128
 30
0.0
 10
5.005268893
 20
4.8036465422
 30
0.0
 10
5.0044265577
 20
4.8031411214
 30
0.0
 10
5.0036379178
 20
4.8025552608
 30
0.0
 10
5.0026688086
 20
4.8016758913
 30
0.0
 10
5.0016261013
 20
4.8004047326
 30
0.0
 10
5.0008518484
 20
4.7989545007
 30
0.0
 10
5.0004113333
 20
4.7977220457
 30
0.0
 10
5.0000934972
 20
4.7964528039
 30
0.0
 10
4.9999966334
 20
4.7954692318
 30
0.0
 10
4.9999966334
 20
4.7948161891
 30
0.0
  0
SPLINE
  5
395
100
AcDbEntity
  8
0
100
AcDbSpline
 62
7
  6
CONTINUOUS
 70
0
 71
3
 72
19
 73
15
 74
0
 42
0.0000001
 43
0.0000001
 44
0.0000000001
 40
0.0
 40
0.0
 40
0.0
 40
0.0
 40
0.1248897374
 40
0.1874284864
 40
0.2499423405
 40
0.3748263175
 40
0.4996987803
 40
0.5622219563
 40
0.6247539668
 40
0.6872683074
 40
0.7497784126
 40
0.8123512284
 40
0.8750150897
 40
1.0
 40
1.0
 40
1.0
 40
1.0
 10
4.9999966334
 20
4.7148161891
 30
0.0
 10
4.9999966334
 20
4.714163142
 30
0.0
 10
5.0000934988
 20
4.7131795609
 30
0.0
 10
5.0004113413
 20
4.7119103065
 30
0.0
 10
5.0008518655
 20
4.7106778372
 30
0.0
 10
5.0016261352
 20
4.7092275956
 30
0.0
 10
5.0026688578
 20
4.7079564354
 30
0.0
 10
5.0036379758
 20
4.7070770699
 30
0.0
 10
5.0044266212
 20
4.7064912167
 30
0.0
 10
5.0052689544
 20
4.7059857951
 30
0.0
 10
5.0061573546
 20
4.7055662336
 30
0.0
 10
5.0070829777
 20
4.705234206
 30
0.0
 10
5.0083519535
 20
4.7049106462
 30
0.0
 10
5.009336397
 20
4.7048064712
 30
0.0
 10
5.0099899417
 20
4.7048064712
 30
0.0
  0
SPLINE
  5
396
100
AcDbEntity
  8
0
100
AcDbSpline
 62
7
  6
CONTINUOUS
 70
0
 71
3
 72
19
 73
15
 74
0
 42
0.0000001
 43
0.0000001
 44
0.0000000001
 40
0.0
 40
0.0
 40
0.0
 40
0.0
 40
0.1249225465
 40
0.1875115499
 40
0.2500366903
 40
0.3125439719
 40
0.3750791332
 40
0.4376254688
 40
0.5001629066
 40
0.625079081
 40
0.7499938268
 40
0.8125248195
 40
0.8750850005
 40
1.0
 40
1.0
 40
1.0
 40
1.0
 10
5.0099899417
 20
4.7048064712
 30
0.0
 10
5.0106436632
 20
4.7048064712
 30
0.0
 10
5.0116279956
 20
4.704910695
 30
0.0
 10
5.0128976992
 20
4.7052313332
 30
0.0
 10
5.0138242371
 20
4.7055611981
 30
0.0
 10
5.0147135952
 20
4.7059802201
 30
0.0
 10
5.0155570491
 20
4.7064855525
 30
0.0
 10
5.0163471034
 20
4.7070712046
 30
0.0
 10
5.0173180082
 20
4.7079506729
 30
0.0
 10
5.0183627765
 20
4.7092224243
 30
0.0
 10
5.0191386275
 20
4.7106738283
 30
0.0
 10
5.0195800753
 20
4.7119074294
 30
0.0
 10
5.0198984938
 20
4.7131779254
 30
0.0
 10
5.0199956027
 20
4.7141625072
 30
0.0
 10
5.0199956027
 20
4.7148161891
 30
0.0
  0
SPLINE
  5
397
100
AcDbEntity
  8
ALL_ASSEMBLY_MEMBERS
100
AcDbSpline
 62
7
  6
CONTINUOUS
 70
0
 71
3
 72
23
 73
19
 74
0
 42
0.0000001
 43
0.0000001
 44
0.0000000001
 40
0.0
 40
0.0
 40
0.0
 40
0.0
 40
0.0625896051
 40
0.1251105549
 40
0.1875529431
 40
0.2499536192
 40
0.312371529
 40
0.3748505889
 40
0.4374004402
 40
0.4999979437
 40
0.5625956039
 40
0.6251456092
 40
0.6876247296
 40
0.7500420843
 40
0.8124423434
 40
0.8748846849
 40
0.9374075992
 40
1.0
 40
1.0
 40
1.0
 40
1.0
 10
5.009996118
 20
4.2020362954
 30
0.0
 10
5.0155010504
 20
4.2020362954
 30
0.0
 10
5.0265437098
 20
4.2007976327
 30
0.0
 10
5.0422519205
 20
4.1953679518
 30
0.0
 10
5.0564414546
 20
4.1867526929
 30
0.0
 10
5.0685839084
 20
4.1754662871
 30
0.0
 10
5.0783280988
 20
4.1620620639
 30
0.0
 10
5.0854380503
 20
4.1470863955
 30
0.0
 10
5.0897621949
 20
4.1310707409
 30
0.0
 10
5.0912132268
 20
4.1145368303
 30
0.0
 10
5.089762383
 20
4.0980028893
 30
0.0
 10
5.0854384091
 20
4.0819871539
 30
0.0
 10
5.0783286328
 20
4.067011437
 30
0.0
 10
5.068584665
 20
4.0536071518
 30
0.0
 10
5.0564424257
 20
4.0423206571
 30
0.0
 10
5.0422529406
 20
4.0337050531
 30
0.0
 10
5.0265443676
 20
4.0282751254
 30
0.0
 10
5.0155012962
 20
4.0270362954
 30
0.0
 10
5.009996118
 20
4.0270362954
 30
0.0
  0
SPLINE
  5
398
100
AcDbEntity
  8
ALL_ASSEMBLY_MEMBERS
100
AcDbSpline
 62
7
  6
CONTINUOUS
 70
0
 71
3
 72
23
 73
19
 74
0
 42
0.0000001
 43
0.0000001
 44
0.0000000001
 40
0.0
 40
0.0
 40
0.0
 40
0.0
 40
0.0625893598
 40
0.125110194
 40
0.187552642
 40
0.249953392
 40
0.3123713752
 40
0.3748504743
 40
0.437400375
 40
0.4999979289
 40
0.5625956395
 40
0.6251456932
 40
0.687624854
 40
0.7500422825
 40
0.8124426153
 40
0.874885017
 40
0.937407823
 40
1.0
 40
1.0
 40
1.0
 40
1.0
 10
5.009996118
 20
4.0270362954
 30
0.0
 10
5.0044912072
 20
4.0270362954
 30
0.0
 10
4.9934485789
 20
4.0282749443
 30
0.0
 10
4.9777403907
 20
4.0337046079
 30
0.0
 10
4.9635508435
 20
4.0423198481
 30
0.0
 10
4.9514083675
 20
4.053606258
 30
0.0
 10
4.9416641588
 20
4.0670104884
 30
0.0
 10
4.9345541955
 20
4.0819861674
 30
0.0
 10
4.9302300433
 20
4.0980018328
 30
0.0
 10
4.9287790085
 20
4.1145357566
 30
0.0
 10
4.9302298539
 20
4.1310697109
 30
0.0
 10
4.934553834
 20
4.1470854576
 30
0.0
 10
4.9416636208
 20
4.1620611856
 30
0.0
 10
4.9514076057
 20
4.1754654791
 30
0.0
 10
4.9635498663
 20
4.186751979
 30
0.0
 10
4.9777393641
 20
4.1953675661
 30
0.0
 10
4.9934479167
 20
4.2007974789
 30
0.0
 10
5.0044909594
 20
4.2020362954
 30
0.0
 10
5.009996118
 20
4.2020362954
 30
0.0
  0
ELLIPSE
  5
399
100
AcDbEntity
  8
ALL_ASSEMBLY_MEMBERS
100
AcDbEllipse
 62
7
  6
CONTINUOUS
 10
5.009996118
 20
4.5390938484
 30
0.0
 11
0.4356620756
 21
0.3097087495
 31
0.0
 40
0.6863174071
 41
-3.9803437747
 42
-3.9676270558
  0
ELLIPSE
  5
39A
100
AcDbEntity
  8
ALL_ASSEMBLY_MEMBERS
100
AcDbEllipse
 62
7
  6
CONTINUOUS
 10
5.009996118
 20
4.5493563668
 30
0.0
 11
0.4845296417
 21
0.0531218498
 31
0.0
 40
0.2751161207
 41
2.7138845034
 42
2.7266070117
  0
ELLIPSE
  5
39B
100
AcDbEntity
  8
ALL_ASSEMBLY_MEMBERS
100
AcDbEllipse
 62
7
  6
CONTINUOUS
 10
5.009996118
 20
4.5085466805
 30
0.0
 11
0.4845296416
 21
-0.0531218552
 31
0.0
 40
0.2751161442
 41
-2.726607006
 42
-2.7138844977
  0
ELLIPSE
  5
39C
100
AcDbEntity
  8
ALL_ASSEMBLY_MEMBERS
100
AcDbEllipse
 62
7
  6
CONTINUOUS
 10
5.009996118
 20
4.5188091998
 30
0.0
 11
-0.4356620527
 21
0.3097088087
 31
0.0
 40
0.6863174268
 41
0.8260345095
 42
0.8387512283
  0
ELLIPSE
  5
39D
100
AcDbEntity
  8
ALL_ASSEMBLY_MEMBERS
100
AcDbEllipse
 62
7
  6
CONTINUOUS
 10
5.009996118
 20
4.5309357624
 30
0.0
 11
-0.2110172983
 21
0.9517381511
 31
0.0
 40
0.4585406789
 41
1.4848993014
 42
1.4925274221
  0
ELLIPSE
  5
39E
100
AcDbEntity
  8
ALL_ASSEMBLY_MEMBERS
100
AcDbEllipse
 62
7
  6
CONTINUOUS
 10
5.009996118
 20
4.5383119517
 30
0.0
 11
-0.1839239125
 21
1.4338152941
 31
0.0
 40
0.3128035903
 41
1.5410292945
 42
1.5461141727
  0
ELLIPSE
  5
39F
100
AcDbEntity
  8
ALL_ASSEMBLY_MEMBERS
100
AcDbEllipse
 62
7
  6
CONTINUOUS
 10
5.009996118
 20
4.4992813656
 30
0.0
 11
0.4841680723
 21
0.069531332
 31
0.0
 40
0.3415053426
 41
2.6695629887
 42
2.6797561081
  0
ELLIPSE
  5
3A0
100
AcDbEntity
  8
ALL_ASSEMBLY_MEMBERS
100
AcDbEllipse
 62
7
  6
CONTINUOUS
 10
5.009996118
 20
4.4771911953
 30
0.0
 11
0.4021127937
 21
0.3867250719
 31
0.0
 40
0.7000252448
 41
-4.164805553
 42
-4.15715572
  0
ELLIPSE
  5
3A1
100
AcDbEntity
  8
ALL_ASSEMBLY_MEMBERS
100
AcDbEllipse
 62
7
  6
CONTINUOUS
 10
5.009996118
 20
4.4284507452
 30
0.0
 11
0.2001645895
 21
1.0730713555
 31
0.0
 40
0.4114299686
 41
1.5606800957
 42
1.5657826121
  0
ELLIPSE
  5
3A2
100
AcDbEntity
  8
ALL_ASSEMBLY_MEMBERS
100
AcDbEllipse
 62
7
  6
CONTINUOUS
 10
5.009996118
 20
4.3352465725
 30
0.0
 11
0.173492527
 21
2.1521377604
 31
0.0
 40
0.2103210759
 41
1.498485551
 42
1.5010376571
  0
ELLIPSE
  5
3A3
100
AcDbEntity
  8
ALL_ASSEMBLY_MEMBERS
100
AcDbEllipse
 62
7
  6
CONTINUOUS
 10
5.009996118
 20
4.7226565638
 30
0.0
 11
-0.1734925196
 21
2.1521387659
 31
0.0
 40
0.210320979
 41
-4.6426302942
 42
-4.6400781881
  0
ELLIPSE
  5
3A4
100
AcDbEntity
  8
ALL_ASSEMBLY_MEMBERS
100
AcDbEllipse
 62
7
  6
CONTINUOUS
 10
5.009996118
 20
4.6294522823
 30
0.0
 11
-0.2001646079
 21
1.0730711015
 31
0.0
 40
0.4114300582
 41
-4.7073753074
 42
-4.7022727909
  0
ELLIPSE
  5
3A5
100
AcDbEntity
  8
ALL_ASSEMBLY_MEMBERS
100
AcDbEllipse
 62
7
  6
CONTINUOUS
 10
5.009996118
 20
4.5807118527
 30
0.0
 11
-0.4021127937
 21
0.3867250719
 31
0.0
 40
0.7000252448
 41
1.0155630664
 42
1.0232128994
  0
ELLIPSE
  5
3A6
100
AcDbEntity
  8
ALL_ASSEMBLY_MEMBERS
100
AcDbEllipse
 62
7
  6
CONTINUOUS
 10
5.009996118
 20
4.5586216824
 30
0.0
 11
0.4841680723
 21
-0.069531332
 31
0.0
 40
0.3415053426
 41
-2.6797561081
 42
-2.6695629887
  0
ELLIPSE
  5
3A7
100
AcDbEntity
  8
ALL_ASSEMBLY_MEMBERS
100
AcDbEllipse
 62
7
  6
CONTINUOUS
 10
5.009996118
 20
4.558105593
 30
0.0
 11
0.4841680714
 21
0.0695313633
 31
0.0
 40
0.3415054598
 41
2.7840417005
 42
2.7942212431
  0
ELLIPSE
  5
3A8
100
AcDbEntity
  8
ALL_ASSEMBLY_MEMBERS
100
AcDbEllipse
 62
7
  6
CONTINUOUS
 10
5.009996118
 20
4.5726375632
 30
0.0
 11
0.3546536662
 21
0.4793660332
 31
0.0
 40
0.6893673371
 41
-4.2104130135
 42
-4.2002376741
  0
ELLIPSE
  5
3A9
100
AcDbEntity
  8
ALL_ASSEMBLY_MEMBERS
100
AcDbEllipse
 62
7
  6
CONTINUOUS
 10
5.009996118
 20
4.5889634698
 30
0.0
 11
0.2001647206
 21
1.0730695455
 31
0.0
 40
0.4114306072
 41
-4.6105355829
 42
-4.6054491537
  0
ELLIPSE
  5
3AA
100
AcDbEntity
  8
ALL_ASSEMBLY_MEMBERS
100
AcDbEllipse
 62
7
  6
CONTINUOUS
 10
5.009996118
 20
4.5382518285
 30
0.0
 11
-0.200164647
 21
1.0730705612
 31
0.0
 40
0.4114302488
 41
1.4638566668
 42
1.468943096
  0
ELLIPSE
  5
3AB
100
AcDbEntity
  8
ALL_ASSEMBLY_MEMBERS
100
AcDbEllipse
 62
7
  6
CONTINUOUS
 10
5.009996118
 20
4.5545777656
 30
0.0
 11
-0.3546536662
 21
0.4793660332
 31
0.0
 40
0.6893673371
 41
1.0586450205
 42
1.06882036
  0
ELLIPSE
  5
3AC
100
AcDbEntity
  8
ALL_ASSEMBLY_MEMBERS
100
AcDbEllipse
 62
7
  6
CONTINUOUS
 10
5.009996118
 20
4.5691097358
 30
0.0
 11
0.4841680714
 21
-0.0695313633
 31
0.0
 40
0.3415054598
 41
-2.7942212431
 42
-2.7840417005
  0
ELLIPSE
  5
3AD
100
AcDbEntity
  8
ALL_ASSEMBLY_MEMBERS
100
AcDbEllipse
 62
7
  6
CONTINUOUS
 10
5.009996118
 20
4.5198014389
 30
0.0
 11
0.4841680714
 21
0.0695313633
 31
0.0
 40
0.3415054598
 41
2.7840417005
 42
2.7942212431
  0
ELLIPSE
  5
3AE
100
AcDbEntity
  8
ALL_ASSEMBLY_MEMBERS
100
AcDbEllipse
 62
7
  6
CONTINUOUS
 10
5.009996118
 20
4.5270674253
 30
0.0
 11
0.4668511673
 21
0.2089255909
 31
0.0
 40
0.6246664746
 41
2.5502781873
 42
2.5604535267
  0
ELLIPSE
  5
3AF
100
AcDbEntity
  8
ALL_ASSEMBLY_MEMBERS
100
AcDbEllipse
 62
7
  6
CONTINUOUS
 10
5.009996118
 20
4.5452073456
 30
0.0
 11
0.2110171867
 21
0.9517391668
 31
0.0
 40
0.4585402462
 41
-4.5883562274
 42
-4.5807268405
  0
ELLIPSE
  5
3B0
100
AcDbEntity
  8
ALL_ASSEMBLY_MEMBERS
100
AcDbEllipse
 62
7
  6
CONTINUOUS
 10
5.009996118
 20
4.5072236758
 30
0.0
 11
-0.211017168
 21
0.9517393376
 31
0.0
 40
0.4585401734
 41
1.4391342299
 42
1.4467636167
  0
ELLIPSE
  5
3B1
100
AcDbEntity
  8
ALL_ASSEMBLY_MEMBERS
100
AcDbEllipse
 62
7
  6
CONTINUOUS
 10
5.009996118
 20
4.5253636012
 30
0.0
 11
0.4668511673
 21
-0.2089255909
 31
0.0
 40
0.6246664746
 41
-2.5604535267
 42
-2.5502781873
  0
ELLIPSE
  5
3B2
100
AcDbEntity
  8
ALL_ASSEMBLY_MEMBERS
100
AcDbEllipse
 62
7
  6
CONTINUOUS
 10
5.009996118
 20
4.5326295876
 30
0.0
 11
0.4841680714
 21
-0.0695313633
 31
0.0
 40
0.3415054598
 41
-2.7942212431
 42
-2.7840417005
  0
ELLIPSE
  5
3B3
100
AcDbEntity
  8
ALL_ASSEMBLY_MEMBERS
100
AcDbEllipse
 62
7
  6
CONTINUOUS
 10
5.009996118
 20
4.5162435726
 30
0.0
 11
0.4668512029
 21
-0.2089254365
 31
0.0
 40
0.6246663258
 41
-2.6063101801
 42
-2.6012078026
  0
ELLIPSE
  5
3B4
100
AcDbEntity
  8
ALL_ASSEMBLY_MEMBERS
100
AcDbEllipse
 62
7
  6
CONTINUOUS
 10
5.009996118
 20
4.4852955404
 30
0.0
 11
-0.2578960711
 21
0.7014332479
 31
0.0
 40
0.5851642007
 41
1.2648458323
 42
1.272503669
  0
ELLIPSE
  5
3B5
100
AcDbEntity
  8
ALL_ASSEMBLY_MEMBERS
100
AcDbEllipse
 62
7
  6
CONTINUOUS
 10
5.009996118
 20
4.4179274598
 30
0.0
 11
-0.1839239562
 21
1.4338136914
 31
0.0
 40
0.3128039274
 41
1.4315508783
 42
1.436659149
  0
ELLIPSE
  5
3B6
100
AcDbEntity
  8
ALL_ASSEMBLY_MEMBERS
100
AcDbEllipse
 62
7
  6
CONTINUOUS
 10
5.009996118
 20
4.6420504731
 30
0.0
 11
0.3259986888
 21
0.53452672
 31
0.0
 40
0.6711697407
 41
-1.3248817727
 42
-1.3025825674
  0
ELLIPSE
  5
3B7
100
AcDbEntity
  8
ALL_ASSEMBLY_MEMBERS
100
AcDbEllipse
 62
7
  6
CONTINUOUS
 10
5.009996118
 20
4.7429720031
 30
0.0
 11
0.1770586083
 21
1.7931568303
 31
0.0
 40
0.2516550235
 41
-4.5935119134
 42
-4.5884036427
  0
ELLIPSE
  5
3B8
100
AcDbEntity
  8
ALL_ASSEMBLY_MEMBERS
100
AcDbEllipse
 62
7
  6
CONTINUOUS
 10
5.009996118
 20
4.6419197884
 30
0.0
 11
0.2578960711
 21
0.7014332479
 31
0.0
 40
0.5851642007
 41
-4.4140963225
 42
-4.4064384859
  0
ELLIPSE
  5
3B9
100
AcDbEntity
  8
ALL_ASSEMBLY_MEMBERS
100
AcDbEllipse
 62
7
  6
CONTINUOUS
 10
5.009996118
 20
4.6171613638
 30
0.0
 11
0.4356621873
 21
0.3097084593
 31
0.0
 40
0.6863173103
 41
-3.8709533301
 42
-3.8582013196
  0
ELLIPSE
  5
3BA
100
AcDbEntity
  8
ALL_ASSEMBLY_MEMBERS
100
AcDbEllipse
 62
7
  6
CONTINUOUS
 10
5.009996118
 20
4.5960509565
 30
0.0
 11
0.4845296421
 21
0.0531218233
 31
0.0
 40
0.2751160055
 41
2.8232569308
 42
2.835996958
  0
ELLIPSE
  5
3BB
100
AcDbEntity
  8
ALL_ASSEMBLY_MEMBERS
100
AcDbEllipse
 62
7
  6
CONTINUOUS
 10
5.009996118
 20
4.5994902807
 30
0.0
 11
0.3259987817
 21
0.5345265359
 31
0.0
 40
0.671169814
 41
-1.2507643659
 42
-1.2286210799
  0
ELLIPSE
  5
3BC
100
AcDbEntity
  8
ALL_ASSEMBLY_MEMBERS
100
AcDbEllipse
 62
7
  6
CONTINUOUS
 10
5.009996118
 20
4.5283719651
 30
0.0
 11
0.4630591816
 21
0.2245111552
 31
0.0
 40
0.6386464466
 41
-0.6183052266
 42
-0.6035566623
  0
ELLIPSE
  5
3BD
100
AcDbEntity
  8
ALL_ASSEMBLY_MEMBERS
100
AcDbEllipse
 62
7
  6
CONTINUOUS
 10
5.009996118
 20
4.5397023859
 30
0.0
 11
0.4846322909
 21
0.0448829864
 31
0.0
 40
0.2379966242
 41
-0.3253141803
 42
-0.3105556307
  0
ELLIPSE
  5
3BE
100
AcDbEntity
  8
ALL_ASSEMBLY_MEMBERS
100
AcDbEllipse
 62
7
  6
CONTINUOUS
 10
5.009996118
 20
4.5182006621
 30
0.0
 11
0.4846322909
 21
-0.0448829864
 31
0.0
 40
0.2379966242
 41
0.3105556307
 42
0.3253141803
  0
ELLIPSE
  5
3BF
100
AcDbEntity
  8
ALL_ASSEMBLY_MEMBERS
100
AcDbEllipse
 62
7
  6
CONTINUOUS
 10
5.009996118
 20
4.5276426765
 30
0.0
 11
0.4734427814
 21
-0.1768432279
 31
0.0
 40
0.588594106
 41
0.5196885314
 42
0.5307507159
  0
ELLIPSE
  5
3C0
100
AcDbEntity
  8
ALL_ASSEMBLY_MEMBERS
100
AcDbEllipse
 62
7
  6
CONTINUOUS
 10
5.009996118
 20
4.5505610752
 30
0.0
 11
-0.207495773
 21
0.9858241387
 31
0.0
 40
0.4443956471
 41
-1.6987885097
 42
-1.6914161614
  0
ELLIPSE
  5
3C1
100
AcDbEntity
  8
ALL_ASSEMBLY_MEMBERS
100
AcDbEllipse
 62
7
  6
CONTINUOUS
 10
5.009996118
 20
4.493411229
 30
0.0
 11
0.4847035227
 21
0.0351495033
 31
0.0
 40
0.1909698234
 41
-0.2802019056
 42
-0.2617015349
  0
ELLIPSE
  5
3C2
100
AcDbEntity
  8
ALL_ASSEMBLY_MEMBERS
100
AcDbEllipse
 62
7
  6
CONTINUOUS
 10
5.009996118
 20
4.4734028454
 30
0.0
 11
0.4782981758
 21
0.1456294577
 31
0.0
 40
0.5412725914
 41
-0.4111891223
 42
-0.3926539211
  0
ELLIPSE
  5
3C3
100
AcDbEntity
  8
ALL_ASSEMBLY_MEMBERS
100
AcDbEllipse
 62
7
  6
CONTINUOUS
 10
5.009996118
 20
4.430032812
 30
0.0
 11
0.2800134072
 21
0.636735321
 31
0.0
 40
0.6214444929
 41
-1.1842741772
 42
-1.1731335909
  0
ELLIPSE
  5
3C4
100
AcDbEntity
  8
ALL_ASSEMBLY_MEMBERS
100
AcDbEllipse
 62
7
  6
CONTINUOUS
 10
5.009996118
 20
4.3546512842
 30
0.0
 11
0.190868369
 21
1.2357421379
 31
0.0
 40
0.3605861895
 41
-1.3842710587
 42
-1.3768349866
  0
ELLIPSE
  5
3C5
100
AcDbEntity
  8
ALL_ASSEMBLY_MEMBERS
100
AcDbEllipse
 62
7
  6
CONTINUOUS
 10
5.009996118
 20
4.7032517864
 30
0.0
 11
-0.1908683611
 21
1.2357423122
 31
0.0
 40
0.3605861413
 41
-1.7647576494
 42
-1.7573215773
  0
ELLIPSE
  5
3C6
100
AcDbEntity
  8
ALL_ASSEMBLY_MEMBERS
100
AcDbEllipse
 62
7
  6
CONTINUOUS
 10
5.009996118
 20
4.6278702284
 30
0.0
 11
-0.2800134331
 21
0.6367352539
 31
0.0
 40
0.6214445296
 41
-1.968459128
 42
-1.9573185418
  0
ELLIPSE
  5
3C7
100
AcDbEntity
  8
ALL_ASSEMBLY_MEMBERS
100
AcDbEllipse
 62
7
  6
CONTINUOUS
 10
5.009996118
 20
4.5845001989
 30
0.0
 11
0.4782981788
 21
-0.1456294353
 31
0.0
 40
0.541272552
 41
0.3926538838
 42
0.411189085
  0
ELLIPSE
  5
3C8
100
AcDbEntity
  8
ALL_ASSEMBLY_MEMBERS
100
AcDbEllipse
 62
7
  6
CONTINUOUS
 10
5.009996118
 20
4.564491817
 30
0.0
 11
0.4847035227
 21
-0.0351495
 31
0.0
 40
0.1909698069
 41
0.2617015324
 42
0.2802019031
  0
ELLIPSE
  5
3C9
100
AcDbEntity
  8
ALL_ASSEMBLY_MEMBERS
100
AcDbEllipse
 62
7
  6
CONTINUOUS
 10
5.009996118
 20
4.4924954146
 30
0.0
 11
0.484529642
 21
-0.0531218287
 31
0.0
 40
0.275116029
 41
-2.8385463295
 42
-2.8258040739
  0
ELLIPSE
  5
3CA
100
AcDbEntity
  8
ALL_ASSEMBLY_MEMBERS
100
AcDbEllipse
 62
7
  6
CONTINUOUS
 10
5.009996118
 20
4.4706553998
 30
0.0
 11
-0.4356621459
 21
0.3097085669
 31
0.0
 40
0.6863173461
 41
0.7140568349
 42
0.7268114943
  0
ELLIPSE
  5
3CB
100
AcDbEntity
  8
ALL_ASSEMBLY_MEMBERS
100
AcDbEllipse
 62
7
  6
CONTINUOUS
 10
5.009996118
 20
4.4451673671
 30
0.0
 11
-0.2578960294
 21
0.701433387
 31
0.0
 40
0.5851641221
 41
1.2622921148
 42
1.2699517446
  0
ELLIPSE
  5
3CC
100
AcDbEntity
  8
ALL_ASSEMBLY_MEMBERS
100
AcDbEllipse
 62
7
  6
CONTINUOUS
 10
5.009996118
 20
4.3413792318
 30
0.0
 11
-0.1770586193
 21
1.7931559956
 31
0.0
 40
0.2516551382
 41
1.4442558639
 42
1.4493654161
  0
ELLIPSE
  5
3CD
100
AcDbEntity
  8
ALL_ASSEMBLY_MEMBERS
100
AcDbEllipse
 62
7
  6
CONTINUOUS
 10
5.009996118
 20
4.7110518189
 30
0.0
 11
0.177058616
 21
1.7931562471
 31
0.0
 40
0.2516551037
 41
-4.5909580771
 42
-4.5858485249
  0
ELLIPSE
  5
3CE
100
AcDbEntity
  8
ALL_ASSEMBLY_MEMBERS
100
AcDbEllipse
 62
7
  6
CONTINUOUS
 10
5.009996118
 20
4.5899656266
 30
0.0
 11
0.3546537589
 21
0.4793658574
 31
0.0
 40
0.6893673822
 41
-4.1543810131
 42
-4.1441693573
  0
ELLIPSE
  5
3CF
100
AcDbEntity
  8
ALL_ASSEMBLY_MEMBERS
100
AcDbEllipse
 62
7
  6
CONTINUOUS
 10
5.009996118
 20
4.574491608
 30
0.0
 11
0.4668512029
 21
0.2089254365
 31
0.0
 40
0.6246663258
 41
2.6012078026
 42
2.6063101801
  0
ELLIPSE
  5
3D0
100
AcDbEntity
  8
ALL_ASSEMBLY_MEMBERS
100
AcDbEllipse
 62
7
  6
CONTINUOUS
 10
5.009996118
 20
4.5194055385
 30
0.0
 11
0.4817044942
 21
-0.0691776629
 31
0.0
 40
0.3415058114
 41
-2.7050160301
 42
-2.6947853447
  0
ELLIPSE
  5
3D1
100
AcDbEntity
  8
ALL_ASSEMBLY_MEMBERS
100
AcDbEllipse
 62
7
  6
CONTINUOUS
 10
5.009996118
 20
4.4870594491
 30
0.0
 11
0.4644757236
 21
-0.2078624458
 31
0.0
 40
0.6246664002
 41
-2.6016242452
 42
-2.5913732513
  0
ELLIPSE
  5
3D2
100
AcDbEntity
  8
ALL_ASSEMBLY_MEMBERS
100
AcDbEllipse
 62
7
  6
CONTINUOUS
 10
5.009996118
 20
4.4870594491
 30
0.0
 11
0.4668511851
 21
-0.2089255137
 31
0.0
 40
0.6246664002
 41
-2.601207666
 42
-2.5910091369
  0
ELLIPSE
  5
3D3
100
AcDbEntity
  8
ALL_ASSEMBLY_MEMBERS
100
AcDbEllipse
 62
7
  6
CONTINUOUS
 10
5.009996118
 20
4.4997974557
 30
0.0
 11
0.4817044969
 21
-0.0691775694
 31
0.0
 40
0.3415054598
 41
-2.8149612884
 42
-2.8098396765
  0
ELLIPSE
  5
3D4
100
AcDbEntity
  8
ALL_ASSEMBLY_MEMBERS
100
AcDbEllipse
 62
7
  6
CONTINUOUS
 10
5.009996118
 20
4.4997974557
 30
0.0
 11
0.4841680714
 21
-0.0695313633
 31
0.0
 40
0.3415054598
 41
-2.8145971741
 42
-2.804406043
  0
ELLIPSE
  5
3D5
100
AcDbEntity
  8
ALL_ASSEMBLY_MEMBERS
100
AcDbEllipse
 62
7
  6
CONTINUOUS
 10
5.009996118
 20
4.5194055385
 30
0.0
 11
0.4841680686
 21
-0.0695314572
 31
0.0
 40
0.3415058114
 41
-2.7052120566
 42
-2.6950335265
  0
ELLIPSE
  5
3D6
100
AcDbEntity
  8
ALL_ASSEMBLY_MEMBERS
100
AcDbEllipse
 62
7
  6
CONTINUOUS
 10
5.009996118
 20
4.6566425026
 30
0.0
 11
0.3259988447
 21
0.534526411
 31
0.0
 40
0.6711698637
 41
-1.3248813381
 42
-1.3025821329
  0
ELLIPSE
  5
3D7
100
AcDbEntity
  8
ALL_ASSEMBLY_MEMBERS
100
AcDbEllipse
 62
7
  6
CONTINUOUS
 10
5.009996118
 20
4.6566425026
 30
0.0
 11
0.3243400769
 21
0.5318066001
 31
0.0
 40
0.6711698637
 41
-1.3256157268
 42
-1.3032004624
  0
ELLIPSE
  5
3D8
100
AcDbEntity
  8
ALL_ASSEMBLY_MEMBERS
100
AcDbEllipse
 62
7
  6
CONTINUOUS
 10
5.009996118
 20
4.5654556986
 30
0.0
 11
0.4820642286
 21
-0.0528514816
 31
0.0
 40
0.2751158134
 41
-2.6982804374
 42
-2.6854723786
  0
ELLIPSE
  5
3D9
100
AcDbEntity
  8
ALL_ASSEMBLY_MEMBERS
100
AcDbEllipse
 62
7
  6
CONTINUOUS
 10
5.009996118
 20
4.5654556986
 30
0.0
 11
0.4845296428
 21
-0.0531217792
 31
0.0
 40
0.2751158134
 41
-2.6986070031
 42
-2.6858644385
  0
ELLIPSE
  5
3DA
100
AcDbEntity
  8
ALL_ASSEMBLY_MEMBERS
100
AcDbEllipse
 62
7
  6
CONTINUOUS
 10
5.009996118
 20
4.5873918812
 30
0.0
 11
-0.4334453124
 21
0.30813287
 31
0.0
 40
0.6863174071
 41
0.879885828
 42
0.8927065257
  0
ELLIPSE
  5
3DB
100
AcDbEntity
  8
ALL_ASSEMBLY_MEMBERS
100
AcDbEllipse
 62
7
  6
CONTINUOUS
 10
5.009996118
 20
4.5873918812
 30
0.0
 11
-0.4356620756
 21
0.3097087495
 31
0.0
 40
0.6863174071
 41
0.879493768
 42
0.8922487784
  0
ELLIPSE
  5
3DC
100
AcDbEntity
  8
ALL_ASSEMBLY_MEMBERS
100
AcDbEllipse
 62
7
  6
CONTINUOUS
 10
5.009996118
 20
4.6342961867
 30
0.0
 11
-0.2099434945
 21
0.9468962978
 31
0.0
 40
0.4585403189
 41
1.5591997581
 42
1.5668991476
  0
ELLIPSE
  5
3DD
100
AcDbEntity
  8
ALL_ASSEMBLY_MEMBERS
100
AcDbEllipse
 62
7
  6
CONTINUOUS
 10
5.009996118
 20
4.6342961867
 30
0.0
 11
-0.2110172055
 21
0.951738996
 31
0.0
 40
0.4585403189
 41
1.5587420108
 42
1.5664018812
  0
ELLIPSE
  5
3DE
100
AcDbEntity
  8
ALL_ASSEMBLY_MEMBERS
100
AcDbEllipse
 62
7
  6
CONTINUOUS
 10
5.009996118
 20
4.6140823272
 30
0.0
 11
0.3259989376
 21
0.5345262269
 31
0.0
 40
0.6711699369
 41
-1.2507639313
 42
-1.2286206453
  0
ELLIPSE
  5
3DF
100
AcDbEntity
  8
ALL_ASSEMBLY_MEMBERS
100
AcDbEllipse
 62
7
  6
CONTINUOUS
 10
5.009996118
 20
4.6140823272
 30
0.0
 11
0.3243401693
 21
0.5318064169
 31
0.0
 40
0.6711699369
 41
-1.2511147927
 42
-1.2288578778
  0
ELLIPSE
  5
3E0
100
AcDbEntity
  8
ALL_ASSEMBLY_MEMBERS
100
AcDbEllipse
 62
7
  6
CONTINUOUS
 10
5.009996118
 20
4.5384975095
 30
0.0
 11
0.4817044942
 21
0.0691776629
 31
0.0
 40
0.3415058114
 41
8.9779706519
 42
8.9882013373
  0
ELLIPSE
  5
3E1
100
AcDbEntity
  8
ALL_ASSEMBLY_MEMBERS
100
AcDbEllipse
 62
7
  6
CONTINUOUS
 10
5.009996118
 20
4.5800477677
 30
0.0
 11
0.4820642278
 21
-0.0528515343
 31
0.0
 40
0.2751160439
 41
-2.8133316337
 42
-2.8005427031
  0
ELLIPSE
  5
3E2
100
AcDbEntity
  8
ALL_ASSEMBLY_MEMBERS
100
AcDbEllipse
 62
7
  6
CONTINUOUS
 10
5.009996118
 20
4.5384975095
 30
0.0
 11
0.4841680686
 21
0.0695314572
 31
0.0
 40
0.3415058114
 41
2.6950335265
 42
2.7052120566
  0
ELLIPSE
  5
3E3
100
AcDbEntity
  8
ALL_ASSEMBLY_MEMBERS
100
AcDbEllipse
 62
7
  6
CONTINUOUS
 10
5.009996118
 20
4.5800477677
 30
0.0
 11
0.484529642
 21
-0.0531218322
 31
0.0
 40
0.2751160439
 41
-2.8130721217
 42
-2.8003483937
  0
ELLIPSE
  5
3E4
100
AcDbEntity
  8
ALL_ASSEMBLY_MEMBERS
100
AcDbEllipse
 62
7
  6
CONTINUOUS
 10
5.009996118
 20
4.5247573774
 30
0.0
 11
0.3528493905
 21
0.4769263331
 31
0.0
 40
0.6893674814
 41
-4.2792623293
 42
-4.2690356602
  0
ELLIPSE
  5
3E5
100
AcDbEntity
  8
ALL_ASSEMBLY_MEMBERS
100
AcDbEllipse
 62
7
  6
CONTINUOUS
 10
5.009996118
 20
4.5691518022
 30
0.0
 11
-0.4334454607
 21
0.308132485
 31
0.0
 40
0.686317278
 41
0.7648147469
 42
0.777597438
  0
ELLIPSE
  5
3E6
100
AcDbEntity
  8
ALL_ASSEMBLY_MEMBERS
100
AcDbEllipse
 62
7
  6
CONTINUOUS
 10
5.009996118
 20
4.5691518022
 30
0.0
 11
-0.4356622246
 21
0.3097083626
 31
0.0
 40
0.686317278
 41
0.7650090563
 42
0.7777266395
  0
ELLIPSE
  5
3E7
100
AcDbEntity
  8
ALL_ASSEMBLY_MEMBERS
100
AcDbEllipse
 62
7
  6
CONTINUOUS
 10
5.009996118
 20
4.5247573774
 30
0.0
 11
0.3546539631
 21
0.4793654706
 31
0.0
 40
0.6893674814
 41
-4.2790663028
 42
-4.2688917277
  0
ELLIPSE
  5
3E8
100
AcDbEntity
  8
ALL_ASSEMBLY_MEMBERS
100
AcDbEllipse
 62
7
  6
CONTINUOUS
 10
5.009996118
 20
4.561903846
 30
0.0
 11
-0.2565838281
 21
0.6978641712
 31
0.0
 40
0.5851642007
 41
1.3334926163
 42
1.3411601046
  0
ELLIPSE
  5
3E9
100
AcDbEntity
  8
ALL_ASSEMBLY_MEMBERS
100
AcDbEllipse
 62
7
  6
CONTINUOUS
 10
5.009996118
 20
4.7153009352
 30
0.0
 11
-0.176157672
 21
1.7840339535
 31
0.0
 40
0.251654861
 41
-4.6398114528
 42
-4.6346753393
  0
ELLIPSE
  5
3EA
100
AcDbEntity
  8
ALL_ASSEMBLY_MEMBERS
100
AcDbEllipse
 62
7
  6
CONTINUOUS
 10
5.009996118
 20
4.561903846
 30
0.0
 11
-0.2578960711
 21
0.7014332479
 31
0.0
 40
0.5851642007
 41
1.3336218178
 42
1.3412502738
  0
ELLIPSE
  5
3EB
100
AcDbEntity
  8
ALL_ASSEMBLY_MEMBERS
100
AcDbEllipse
 62
7
  6
CONTINUOUS
 10
5.009996118
 20
4.557416833
 30
0.0
 11
0.4846322902
 21
-0.0448830582
 31
0.0
 40
0.2379969588
 41
0.2735943692
 42
0.2883920801
  0
ELLIPSE
  5
3EC
100
AcDbEntity
  8
ALL_ASSEMBLY_MEMBERS
100
AcDbEllipse
 62
7
  6
CONTINUOUS
 10
5.009996118
 20
4.557416833
 30
0.0
 11
0.4821663537
 21
-0.0446546814
 31
0.0
 40
0.2379969588
 41
6.5562793864
 42
6.5711534012
  0
ELLIPSE
  5
3ED
100
AcDbEntity
  8
ALL_ASSEMBLY_MEMBERS
100
AcDbEllipse
 62
7
  6
CONTINUOUS
 10
5.009996118
 20
4.5429320475
 30
0.0
 11
-0.1761576992
 21
1.7840318986
 31
0.0
 40
0.2516551449
 41
1.5282335062
 42
1.533344561
  0
ELLIPSE
  5
3EE
100
AcDbEntity
  8
ALL_ASSEMBLY_MEMBERS
100
AcDbEllipse
 62
7
  6
CONTINUOUS
 10
5.009996118
 20
4.5774988736
 30
0.0
 11
0.4734427814
 21
-0.1768432279
 31
0.0
 40
0.588594106
 41
0.4568564648
 42
0.4679686539
  0
ELLIPSE
  5
3EF
100
AcDbEntity
  8
ALL_ASSEMBLY_MEMBERS
100
AcDbEllipse
 62
7
  6
CONTINUOUS
 10
5.009996118
 20
4.5774988736
 30
0.0
 11
0.47103378
 21
-0.175943403
 31
0.0
 40
0.588594106
 41
0.4562987307
 42
0.467468364
  0
ELLIPSE
  5
3F0
100
AcDbEntity
  8
ALL_ASSEMBLY_MEMBERS
100
AcDbEllipse
 62
7
  6
CONTINUOUS
 10
5.009996118
 20
4.622222842
 30
0.0
 11
-0.2501318493
 21
0.728790877
 31
0.0
 40
0.569753021
 41
-1.8799443451
 42
-1.8725288025
  0
ELLIPSE
  5
3F1
100
AcDbEntity
  8
ALL_ASSEMBLY_MEMBERS
100
AcDbEllipse
 62
7
  6
CONTINUOUS
 10
5.009996118
 20
4.622222842
 30
0.0
 11
-0.2488591127
 21
0.7250825974
 31
0.0
 40
0.569753021
 41
-1.880540491
 42
-1.8730865367
  0
ELLIPSE
  5
3F2
100
AcDbEntity
  8
ALL_ASSEMBLY_MEMBERS
100
AcDbEllipse
 62
7
  6
CONTINUOUS
 10
5.009996118
 20
4.7081991937
 30
0.0
 11
-0.1826258381
 21
1.484169538
 31
0.0
 40
0.3025481177
 41
-1.7277547305
 42
-1.7240446013
  0
ELLIPSE
  5
3F3
100
AcDbEntity
  8
ALL_ASSEMBLY_MEMBERS
100
AcDbEllipse
 62
7
  6
CONTINUOUS
 10
5.009996118
 20
4.7081991937
 30
0.0
 11
-0.1816965899
 21
1.4766176932
 31
0.0
 40
0.3025481177
 41
-1.7283701194
 42
-1.7246407472
  0
ELLIPSE
  5
3F4
100
AcDbEntity
  8
ALL_ASSEMBLY_MEMBERS
100
AcDbEllipse
 62
7
  6
CONTINUOUS
 10
5.009996118
 20
4.3497039358
 30
0.0
 11
0.1826258551
 21
1.4841688429
 31
0.0
 40
0.3025482548
 41
-1.4175480146
 42
-1.4138378854
  0
ELLIPSE
  5
3F5
100
AcDbEntity
  8
ALL_ASSEMBLY_MEMBERS
100
AcDbEllipse
 62
7
  6
CONTINUOUS
 10
5.009996118
 20
4.3497039358
 30
0.0
 11
0.1816966067
 21
1.4766170017
 31
0.0
 40
0.3025482548
 41
-1.4169518687
 42
-1.4132224965
  0
ELLIPSE
  5
3F6
100
AcDbEntity
  8
ALL_ASSEMBLY_MEMBERS
100
AcDbEllipse
 62
7
  6
CONTINUOUS
 10
5.009996118
 20
4.4356801872
 30
0.0
 11
0.250131799
 21
0.7287910644
 31
0.0
 40
0.5697529161
 41
-1.269063972
 42
-1.2616484294
  0
ELLIPSE
  5
3F7
100
AcDbEntity
  8
ALL_ASSEMBLY_MEMBERS
100
AcDbEllipse
 62
7
  6
CONTINUOUS
 10
5.009996118
 20
4.4356801872
 30
0.0
 11
0.2488590627
 21
0.7250827838
 31
0.0
 40
0.5697529161
 41
-1.2685062378
 42
-1.2610522835
  0
ELLIPSE
  5
3F8
100
AcDbEntity
  8
ALL_ASSEMBLY_MEMBERS
100
AcDbEllipse
 62
7
  6
CONTINUOUS
 10
5.009996118
 20
4.4804041744
 30
0.0
 11
0.4734427814
 21
0.1768432279
 31
0.0
 40
0.588594106
 41
-0.4679686539
 42
-0.4568564648
  0
ELLIPSE
  5
3F9
100
AcDbEntity
  8
ALL_ASSEMBLY_MEMBERS
100
AcDbEllipse
 62
7
  6
CONTINUOUS
 10
5.009996118
 20
4.4804041744
 30
0.0
 11
0.47103378
 21
0.175943403
 31
0.0
 40
0.588594106
 41
-0.467468364
 42
-0.4562987307
  0
ELLIPSE
  5
3FA
100
AcDbEntity
  8
ALL_ASSEMBLY_MEMBERS
100
AcDbEllipse
 62
7
  6
CONTINUOUS
 10
5.009996118
 20
4.500486215
 30
0.0
 11
0.4846322902
 21
0.0448830582
 31
0.0
 40
0.2379969588
 41
-0.2883920801
 42
-0.2735943692
  0
ELLIPSE
  5
3FB
100
AcDbEntity
  8
ALL_ASSEMBLY_MEMBERS
100
AcDbEllipse
 62
7
  6
CONTINUOUS
 10
5.009996118
 20
4.500486215
 30
0.0
 11
0.4821663537
 21
0.0446546814
 31
0.0
 40
0.2379969588
 41
-0.287968094
 42
-0.2730940792
  0
ELLIPSE
  5
3FC
100
AcDbEntity
  8
ALL_ASSEMBLY_MEMBERS
100
AcDbEllipse
 62
7
  6
CONTINUOUS
 10
5.009996118
 20
4.7153009352
 30
0.0
 11
-0.1770585927
 21
1.7931580129
 31
0.0
 40
0.251654861
 41
-4.6403087193
 42
-4.6351990007
  0
ELLIPSE
  5
3FD
100
AcDbEntity
  8
ALL_ASSEMBLY_MEMBERS
100
AcDbEllipse
 62
7
  6
CONTINUOUS
 10
5.009996118
 20
4.5429320475
 30
0.0
 11
-0.17705862
 21
1.7931559474
 31
0.0
 40
0.2516551449
 41
1.5283236754
 42
1.5334087178
  0
ELLIPSE
  5
3FE
100
AcDbEntity
  8
ALL_ASSEMBLY_MEMBERS
100
AcDbEllipse
 62
7
  6
CONTINUOUS
 10
5.009996118
 20
4.5779593347
 30
0.0
 11
0.182988122
 21
1.4265173665
 31
0.0
 40
0.3128040763
 41
-4.6596770866
 42
-4.6545660318
  0
ELLIPSE
  5
3FF
100
AcDbEntity
  8
ALL_ASSEMBLY_MEMBERS
100
AcDbEllipse
 62
7
  6
CONTINUOUS
 10
5.009996118
 20
4.589113719
 30
0.0
 11
0.4817044969
 21
0.0691775694
 31
0.0
 40
0.3415054598
 41
9.0930249837
 42
9.0981465956
  0
ELLIPSE
  5
400
100
AcDbEntity
  8
ALL_ASSEMBLY_MEMBERS
100
AcDbEllipse
 62
7
  6
CONTINUOUS
 10
5.009996118
 20
4.5779593347
 30
0.0
 11
0.1839239755
 21
1.4338129838
 31
0.0
 40
0.3128040763
 41
-4.6597412434
 42
-4.654656201
  0
ELLIPSE
  5
401
100
AcDbEntity
  8
ALL_ASSEMBLY_MEMBERS
100
AcDbEllipse
 62
7
  6
CONTINUOUS
 10
5.009996118
 20
4.589113719
 30
0.0
 11
0.4841680714
 21
0.0695313633
 31
0.0
 40
0.3415054598
 41
2.804406043
 42
2.8145971741
  0
ELLIPSE
  5
402
100
AcDbEntity
  8
ALL_ASSEMBLY_MEMBERS
100
AcDbEllipse
 62
7
  6
CONTINUOUS
 10
5.009996118
 20
4.5653114828
 30
0.0
 11
0.2565838281
 21
0.6978641712
 31
0.0
 40
0.5851642007
 41
-4.4827527582
 42
-4.4750852699
  0
ELLIPSE
  5
403
100
AcDbEntity
  8
ALL_ASSEMBLY_MEMBERS
100
AcDbEllipse
 62
7
  6
CONTINUOUS
 10
5.009996118
 20
4.5653114828
 30
0.0
 11
0.2578960711
 21
0.7014332479
 31
0.0
 40
0.5851642007
 41
-4.4828429274
 42
-4.4752144714
  0
ELLIPSE
  5
404
100
AcDbEntity
  8
ALL_ASSEMBLY_MEMBERS
100
AcDbEllipse
 62
7
  6
CONTINUOUS
 10
5.009996118
 20
4.528672996
 30
0.0
 11
-0.207495773
 21
0.9858241387
 31
0.0
 40
0.4443956471
 41
-1.6766755349
 42
-1.6693064443
  0
ELLIPSE
  5
405
100
AcDbEntity
  8
ALL_ASSEMBLY_MEMBERS
100
AcDbEllipse
 62
7
  6
CONTINUOUS
 10
5.009996118
 20
4.528672996
 30
0.0
 11
-0.2064399799
 21
0.9808080064
 31
0.0
 40
0.4443956471
 41
-1.676740052
 42
-1.6693332706
  0
ELLIPSE
  5
406
100
AcDbEntity
  8
ALL_ASSEMBLY_MEMBERS
100
AcDbEllipse
 62
7
  6
CONTINUOUS
 10
5.009996118
 20
4.5245098246
 30
0.0
 11
-0.2800134072
 21
0.636735321
 31
0.0
 40
0.6214444929
 41
-1.8612406191
 42
-1.8501855787
  0
ELLIPSE
  5
407
100
AcDbEntity
  8
ALL_ASSEMBLY_MEMBERS
100
AcDbEllipse
 62
7
  6
CONTINUOUS
 10
5.009996118
 20
4.5245098246
 30
0.0
 11
-0.2785886254
 21
0.6334954443
 31
0.0
 40
0.6214444929
 41
-1.8613616941
 42
-1.8502500958
  0
ELLIPSE
  5
408
100
AcDbEntity
  8
ALL_ASSEMBLY_MEMBERS
100
AcDbEllipse
 62
7
  6
CONTINUOUS
 10
5.009996118
 20
4.5159175172
 30
0.0
 11
0.4782981758
 21
-0.1456294577
 31
0.0
 40
0.5412725914
 41
0.4702996175
 42
0.4887317785
  0
ELLIPSE
  5
409
100
AcDbEntity
  8
ALL_ASSEMBLY_MEMBERS
100
AcDbEllipse
 62
7
  6
CONTINUOUS
 10
5.009996118
 20
4.5159175172
 30
0.0
 11
0.475864469
 21
-0.1448884567
 31
0.0
 40
0.5412725914
 41
0.4700841696
 42
0.4886107035
  0
ELLIPSE
  5
40A
100
AcDbEntity
  8
ALL_ASSEMBLY_MEMBERS
100
AcDbEllipse
 62
7
  6
CONTINUOUS
 10
5.009996118
 20
4.5075827815
 30
0.0
 11
0.4847035229
 21
-0.0351494601
 31
0.0
 40
0.1909696071
 41
0.3023654898
 42
0.3208119973
  0
ELLIPSE
  5
40B
100
AcDbEntity
  8
ALL_ASSEMBLY_MEMBERS
100
AcDbEllipse
 62
7
  6
CONTINUOUS
 10
5.009996118
 20
4.5075827815
 30
0.0
 11
0.482237224
 21
-0.0349706104
 31
0.0
 40
0.1909696071
 41
0.3020554476
 42
0.3205965494
  0
ELLIPSE
  5
40C
100
AcDbEntity
  8
ALL_ASSEMBLY_MEMBERS
100
AcDbEllipse
 62
7
  6
CONTINUOUS
 10
5.009996118
 20
4.6145897299
 30
0.0
 11
0.3528491689
 21
0.4769267529
 31
0.0
 40
0.6893673732
 41
-4.1693178615
 42
-4.1590668675
  0
ELLIPSE
  5
40D
100
AcDbEntity
  8
ALL_ASSEMBLY_MEMBERS
100
AcDbEllipse
 62
7
  6
CONTINUOUS
 10
5.009996118
 20
4.5562515358
 30
0.0
 11
0.4644757768
 21
0.2078622154
 31
0.0
 40
0.6246661769
 41
2.545321506
 42
2.5504339689
  0
ELLIPSE
  5
40E
100
AcDbEntity
  8
ALL_ASSEMBLY_MEMBERS
100
AcDbEllipse
 62
7
  6
CONTINUOUS
 10
5.009996118
 20
4.5562515358
 30
0.0
 11
0.4668512386
 21
0.2089252821
 31
0.0
 40
0.6246661769
 41
2.5451923044
 42
2.5502787336
  0
ELLIPSE
  5
40F
100
AcDbEntity
  8
ALL_ASSEMBLY_MEMBERS
100
AcDbEllipse
 62
7
  6
CONTINUOUS
 10
5.009996118
 20
4.6145897299
 30
0.0
 11
0.3546537404
 21
0.4793658925
 31
0.0
 40
0.6893673732
 41
-4.1696819759
 42
-4.1594834467
  0
ELLIPSE
  5
410
100
AcDbEntity
  8
ALL_ASSEMBLY_MEMBERS
100
AcDbEllipse
 62
7
  6
CONTINUOUS
 10
5.009996118
 20
4.5344836448
 30
0.0
 11
0.4644757768
 21
-0.2078622154
 31
0.0
 40
0.6246661769
 41
-2.5504339689
 42
-2.545321506
  0
ELLIPSE
  5
411
100
AcDbEntity
  8
ALL_ASSEMBLY_MEMBERS
100
AcDbEllipse
 62
7
  6
CONTINUOUS
 10
5.009996118
 20
4.5344836448
 30
0.0
 11
0.4668512386
 21
-0.2089252821
 31
0.0
 40
0.6246661769
 41
-2.5502787336
 42
-2.5451923044
  0
ELLIPSE
  5
412
100
AcDbEntity
  8
ALL_ASSEMBLY_MEMBERS
100
AcDbEllipse
 62
7
  6
CONTINUOUS
 10
5.009996118
 20
4.5299536659
 30
0.0
 11
-0.3528490951
 21
0.4769268928
 31
0.0
 40
0.6893673371
 41
1.0737775876
 42
1.0840006492
  0
ELLIPSE
  5
413
100
AcDbEntity
  8
ALL_ASSEMBLY_MEMBERS
100
AcDbEllipse
 62
7
  6
CONTINUOUS
 10
5.009996118
 20
4.5299536659
 30
0.0
 11
-0.3546536662
 21
0.4793660332
 31
0.0
 40
0.6893673371
 41
1.0739067891
 42
1.0840778115
  0
ELLIPSE
  5
414
100
AcDbEntity
  8
ALL_ASSEMBLY_MEMBERS
100
AcDbEllipse
 62
7
  6
CONTINUOUS
 10
5.009996118
 20
4.6582758302
 30
0.0
 11
0.1991461286
 21
1.0676108832
 31
0.0
 40
0.4114301116
 41
-4.5541034629
 42
-4.5489748047
  0
ELLIPSE
  5
415
100
AcDbEntity
  8
ALL_ASSEMBLY_MEMBERS
100
AcDbEllipse
 62
7
  6
CONTINUOUS
 10
5.009996118
 20
4.5110119208
 30
0.0
 11
-0.1761577058
 21
1.7840313981
 31
0.0
 40
0.251655214
 41
1.5307890648
 42
1.5358999382
  0
ELLIPSE
  5
416
100
AcDbEntity
  8
ALL_ASSEMBLY_MEMBERS
100
AcDbEllipse
 62
7
  6
CONTINUOUS
 10
5.009996118
 20
4.6582758302
 30
0.0
 11
0.2001646188
 21
1.0730709503
 31
0.0
 40
0.4114301116
 41
-4.5545200421
 42
-4.5494176646
  0
ELLIPSE
  5
417
100
AcDbEntity
  8
ALL_ASSEMBLY_MEMBERS
100
AcDbEllipse
 62
7
  6
CONTINUOUS
 10
5.009996118
 20
4.5110119208
 30
0.0
 11
-0.1770586266
 21
1.7931554444
 31
0.0
 40
0.251655214
 41
1.530866227
 42
1.5359510908
  0
ELLIPSE
  5
418
100
AcDbEntity
  8
ALL_ASSEMBLY_MEMBERS
100
AcDbEllipse
 62
7
  6
CONTINUOUS
 10
5.009996118
 20
4.541419102
 30
0.0
 11
0.1761577091
 21
1.7840311479
 31
0.0
 40
0.2516552486
 41
1.6056927228
 42
1.6108035962
  0
ELLIPSE
  5
419
100
AcDbEntity
  8
ALL_ASSEMBLY_MEMBERS
100
AcDbEllipse
 62
7
  6
CONTINUOUS
 10
5.009996118
 20
4.541419102
 30
0.0
 11
0.1770586299
 21
1.7931551929
 31
0.0
 40
0.2516552486
 41
-4.677543737
 42
-4.6724588732
  0
ELLIPSE
  5
41A
100
AcDbEntity
  8
ALL_ASSEMBLY_MEMBERS
100
AcDbEllipse
 62
7
  6
CONTINUOUS
 10
5.009996118
 20
4.5251833246
 30
0.0
 11
0.2565838006
 21
0.6978642627
 31
0.0
 40
0.5851641487
 41
-4.4853083988
 42
-4.4776413078
  0
ELLIPSE
  5
41B
100
AcDbEntity
  8
ALL_ASSEMBLY_MEMBERS
100
AcDbEllipse
 62
7
  6
CONTINUOUS
 10
5.009996118
 20
4.5251833246
 30
0.0
 11
0.2578960435
 21
0.70143334
 31
0.0
 40
0.5851641487
 41
-4.485385561
 42
-4.4777574963
  0
ELLIPSE
  5
41C
100
AcDbEntity
  8
ALL_ASSEMBLY_MEMBERS
100
AcDbEllipse
 62
7
  6
CONTINUOUS
 10
5.009996118
 20
4.5503202657
 30
0.0
 11
0.4847035229
 21
0.0351494568
 31
0.0
 40
0.1909695906
 41
-0.3208119948
 42
-0.3023654873
  0
ELLIPSE
  5
41D
100
AcDbEntity
  8
ALL_ASSEMBLY_MEMBERS
100
AcDbEllipse
 62
7
  6
CONTINUOUS
 10
5.009996118
 20
4.5503202657
 30
0.0
 11
0.482237224
 21
0.0349706071
 31
0.0
 40
0.1909695906
 41
-0.3205965469
 42
-0.3020554451
  0
ELLIPSE
  5
41E
100
AcDbEntity
  8
ALL_ASSEMBLY_MEMBERS
100
AcDbEllipse
 62
7
  6
CONTINUOUS
 10
5.009996118
 20
4.5419855307
 30
0.0
 11
0.4782981788
 21
0.1456294353
 31
0.0
 40
0.541272552
 41
-0.4887317412
 42
-0.4702995801
  0
ELLIPSE
  5
41F
100
AcDbEntity
  8
ALL_ASSEMBLY_MEMBERS
100
AcDbEllipse
 62
7
  6
CONTINUOUS
 10
5.009996118
 20
4.5419855307
 30
0.0
 11
0.4758644719
 21
0.1448884344
 31
0.0
 40
0.541272552
 41
-0.4732157386
 42
-0.4700841322
  0
ELLIPSE
  5
420
100
AcDbEntity
  8
ALL_ASSEMBLY_MEMBERS
100
AcDbEllipse
 62
7
  6
CONTINUOUS
 10
5.009996118
 20
4.5186649753
 30
0.0
 11
0.4334452897
 21
0.3081329288
 31
0.0
 40
0.6863174268
 41
-3.9217468707
 42
-3.9089651839
  0
ELLIPSE
  5
421
100
AcDbEntity
  8
ALL_ASSEMBLY_MEMBERS
100
AcDbEllipse
 62
7
  6
CONTINUOUS
 10
5.009996118
 20
4.5186649753
 30
0.0
 11
0.4356620527
 21
0.3097088087
 31
0.0
 40
0.6863174268
 41
-3.9218630593
 42
-3.9091464651
  0
ELLIPSE
  5
422
100
AcDbEntity
  8
ALL_ASSEMBLY_MEMBERS
100
AcDbEllipse
 62
7
  6
CONTINUOUS
 10
5.009996118
 20
4.4689395801
 30
0.0
 11
-0.1991462019
 21
1.0676098726
 31
0.0
 40
0.41143047
 41
1.4073819844
 42
1.4125106426
  0
ELLIPSE
  5
423
100
AcDbEntity
  8
ALL_ASSEMBLY_MEMBERS
100
AcDbEllipse
 62
7
  6
CONTINUOUS
 10
5.009996118
 20
4.4689395801
 30
0.0
 11
-0.2001646924
 21
1.0730699345
 31
0.0
 40
0.41143047
 41
1.4078248443
 42
1.4129272218
  0
ELLIPSE
  5
424
100
AcDbEntity
  8
ALL_ASSEMBLY_MEMBERS
100
AcDbEllipse
 62
7
  6
CONTINUOUS
 10
5.009996118
 20
4.5084986027
 30
0.0
 11
0.482064228
 21
0.0528515221
 31
0.0
 40
0.2751159905
 41
2.797985741
 42
2.8107732586
  0
ELLIPSE
  5
425
100
AcDbEntity
  8
ALL_ASSEMBLY_MEMBERS
100
AcDbEllipse
 62
7
  6
CONTINUOUS
 10
5.009996118
 20
4.5084986027
 30
0.0
 11
0.4845296422
 21
0.0531218199
 31
0.0
 40
0.2751159905
 41
2.7978044598
 42
2.8105267963
  0
ELLIPSE
  5
426
100
AcDbEntity
  8
ALL_ASSEMBLY_MEMBERS
100
AcDbEllipse
 62
7
  6
CONTINUOUS
 10
5.009996118
 20
4.3426021371
 30
0.0
 11
0.1761576753
 21
1.7840337033
 31
0.0
 40
0.2516548955
 41
1.4930826931
 42
1.4982188066
  0
ELLIPSE
  5
427
100
AcDbEntity
  8
ALL_ASSEMBLY_MEMBERS
100
AcDbEllipse
 62
7
  6
CONTINUOUS
 10
5.009996118
 20
4.5126255989
 30
0.0
 11
-0.3528491689
 21
0.4769267529
 31
0.0
 40
0.6893673732
 41
1.017474214
 42
1.0277252079
  0
ELLIPSE
  5
428
100
AcDbEntity
  8
ALL_ASSEMBLY_MEMBERS
100
AcDbEllipse
 62
7
  6
CONTINUOUS
 10
5.009996118
 20
4.5126255989
 30
0.0
 11
-0.3546537404
 21
0.4793658925
 31
0.0
 40
0.6893673732
 41
1.0178907931
 42
1.0280893223
  0
ELLIPSE
  5
429
100
AcDbEntity
  8
ALL_ASSEMBLY_MEMBERS
100
AcDbEllipse
 62
7
  6
CONTINUOUS
 10
5.009996118
 20
4.5381016097
 30
0.0
 11
0.4817044969
 21
-0.0691775694
 31
0.0
 40
0.3415054598
 41
-2.8149612884
 42
-2.8098396765
  0
ELLIPSE
  5
42A
100
AcDbEntity
  8
ALL_ASSEMBLY_MEMBERS
100
AcDbEllipse
 62
7
  6
CONTINUOUS
 10
5.009996118
 20
4.3426021371
 30
0.0
 11
0.177058596
 21
1.7931577614
 31
0.0
 40
0.2516548955
 41
1.4936063544
 42
1.498716073
  0
ELLIPSE
  5
42B
100
AcDbEntity
  8
ALL_ASSEMBLY_MEMBERS
100
AcDbEllipse
 62
7
  6
CONTINUOUS
 10
5.009996118
 20
4.5381016097
 30
0.0
 11
0.4841680714
 21
-0.0695313633
 31
0.0
 40
0.3415054598
 41
-2.8145971741
 42
-2.804406043
  0
ELLIPSE
  5
42C
100
AcDbEntity
  8
ALL_ASSEMBLY_MEMBERS
100
AcDbEllipse
 62
7
  6
CONTINUOUS
 10
5.009996118
 20
4.4236068532
 30
0.0
 11
0.2099434851
 21
0.9468963828
 31
0.0
 40
0.4585402825
 41
-4.7084918227
 42
-4.7007924332
  0
ELLIPSE
  5
42D
100
AcDbEntity
  8
ALL_ASSEMBLY_MEMBERS
100
AcDbEllipse
 62
7
  6
CONTINUOUS
 10
5.009996118
 20
4.4236068532
 30
0.0
 11
0.2110171961
 21
0.9517390814
 31
0.0
 40
0.4585402825
 41
-4.7079945563
 42
-4.7003346858
  0
ELLIPSE
  5
42E
100
AcDbEntity
  8
ALL_ASSEMBLY_MEMBERS
100
AcDbEllipse
 62
7
  6
CONTINUOUS
 10
5.009996118
 20
4.4705111628
 30
0.0
 11
0.4334452897
 21
0.3081329288
 31
0.0
 40
0.6863174268
 41
-4.0342992866
 42
-4.0214785888
  0
ELLIPSE
  5
42F
100
AcDbEntity
  8
ALL_ASSEMBLY_MEMBERS
100
AcDbEllipse
 62
7
  6
CONTINUOUS
 10
5.009996118
 20
4.4705111628
 30
0.0
 11
0.4356620527
 21
0.3097088087
 31
0.0
 40
0.6863174268
 41
-4.0338415392
 42
-4.0210865289
  0
ELLIPSE
  5
430
100
AcDbEntity
  8
ALL_ASSEMBLY_MEMBERS
100
AcDbEllipse
 62
7
  6
CONTINUOUS
 10
5.009996118
 20
4.4924473474
 30
0.0
 11
0.4820642285
 21
0.052851487
 31
0.0
 40
0.2751158369
 41
2.6854723729
 42
2.6982804317
  0
ELLIPSE
  5
431
100
AcDbEntity
  8
ALL_ASSEMBLY_MEMBERS
100
AcDbEllipse
 62
7
  6
CONTINUOUS
 10
5.009996118
 20
4.4924473474
 30
0.0
 11
0.4845296427
 21
0.0531217846
 31
0.0
 40
0.2751158369
 41
2.6858644329
 42
2.6986069975
  0
ELLIPSE
  5
432
100
AcDbEntity
  8
ALL_ASSEMBLY_MEMBERS
100
AcDbEllipse
 62
7
  6
CONTINUOUS
 10
5.009996118
 20
4.5526335709
 30
0.0
 11
0.4817044969
 21
0.0691775694
 31
0.0
 40
0.3415054598
 41
9.0930249837
 42
9.0981465956
  0
ELLIPSE
  5
433
100
AcDbEntity
  8
ALL_ASSEMBLY_MEMBERS
100
AcDbEllipse
 62
7
  6
CONTINUOUS
 10
5.009996118
 20
4.5601999467
 30
0.0
 11
-0.182988171
 21
1.4265155693
 31
0.0
 40
0.3128044563
 41
1.5564159305
 42
1.5615284492
  0
ELLIPSE
  5
434
100
AcDbEntity
  8
ALL_ASSEMBLY_MEMBERS
100
AcDbEllipse
 62
7
  6
CONTINUOUS
 10
5.009996118
 20
4.5526335709
 30
0.0
 11
0.4841680714
 21
0.0695313633
 31
0.0
 40
0.3415054598
 41
2.804406043
 42
2.8145971741
  0
ELLIPSE
  5
435
100
AcDbEntity
  8
ALL_ASSEMBLY_MEMBERS
100
AcDbEllipse
 62
7
  6
CONTINUOUS
 10
5.009996118
 20
4.5601999467
 30
0.0
 11
-0.1839240248
 21
1.4338111775
 31
0.0
 40
0.3128044563
 41
1.556285014
 42
1.5613714981
  0
ELLIPSE
  5
436
100
AcDbEntity
  8
ALL_ASSEMBLY_MEMBERS
100
AcDbEllipse
 62
7
  6
CONTINUOUS
 10
5.009996118
 20
4.5653715774
 30
0.0
 11
0.4644757236
 21
0.2078624458
 31
0.0
 40
0.6246664002
 41
2.5913732513
 42
2.6016242452
  0
ELLIPSE
  5
437
100
AcDbEntity
  8
ALL_ASSEMBLY_MEMBERS
100
AcDbEllipse
 62
7
  6
CONTINUOUS
 10
5.009996118
 20
4.5653715774
 30
0.0
 11
0.4668511851
 21
0.2089255137
 31
0.0
 40
0.6246664002
 41
2.5910091369
 42
2.601207666
  0
ELLIPSE
  5
438
100
AcDbEntity
  8
ALL_ASSEMBLY_MEMBERS
100
AcDbEllipse
 62
7
  6
CONTINUOUS
 10
5.009996118
 20
4.6139116289
 30
0.0
 11
0.2099434699
 21
0.946896522
 31
0.0
 40
0.4585402229
 41
-4.5293809328
 42
-4.5216870953
  0
ELLIPSE
  5
439
100
AcDbEntity
  8
ALL_ASSEMBLY_MEMBERS
100
AcDbEllipse
 62
7
  6
CONTINUOUS
 10
5.009996118
 20
4.6139116289
 30
0.0
 11
0.2110171808
 21
0.9517392213
 31
0.0
 40
0.4585402229
 41
-4.529797512
 42
-4.5221431086
  0
ELLIPSE
  5
43A
100
AcDbEntity
  8
ALL_ASSEMBLY_MEMBERS
100
AcDbEllipse
 62
7
  6
CONTINUOUS
 10
5.009996118
 20
4.5308556557
 30
0.0
 11
-0.4000667381
 21
0.3847573131
 31
0.0
 40
0.7000252448
 41
0.972439552
 42
0.9801098693
  0
ELLIPSE
  5
43B
100
AcDbEntity
  8
ALL_ASSEMBLY_MEMBERS
100
AcDbEllipse
 62
7
  6
CONTINUOUS
 10
5.009996118
 20
4.4385194112
 30
0.0
 11
-0.2099434885
 21
0.9468963521
 31
0.0
 40
0.4585402957
 41
1.3800943987
 42
1.3877882363
  0
ELLIPSE
  5
43C
100
AcDbEntity
  8
ALL_ASSEMBLY_MEMBERS
100
AcDbEllipse
 62
7
  6
CONTINUOUS
 10
5.009996118
 20
4.5308556557
 30
0.0
 11
-0.4021127937
 21
0.3867250719
 31
0.0
 40
0.7000252448
 41
0.9722826009
 42
0.9799138428
  0
ELLIPSE
  5
43D
100
AcDbEntity
  8
ALL_ASSEMBLY_MEMBERS
100
AcDbEllipse
 62
7
  6
CONTINUOUS
 10
5.009996118
 20
4.4385194112
 30
0.0
 11
-0.2110171995
 21
0.9517390505
 31
0.0
 40
0.4585402957
 41
1.380550412
 42
1.3882048155
  0
ENDSEC
  0
SECTION
  2
OBJECTS
  0
DICTIONARY
  5
C
100
AcDbDictionary
280
0
281
1
  3
ACAD_GROUP
350
D
  3
ACAD_MLINESTYLE
350
17
  3
ACAD_LAYOUT
350
1A
  3
ACAD_PLOTSETTINGS
350
19
  3
ACAD_PLOTSTYLENAME
350
E
  0
DICTIONARY
  5
D
102
{ACAD_REACTORS
330
C
102
}
100
AcDbDictionary
280
0
281
1
  0
ACDBDICTIONARYWDFLT
  5
E
102
{ACAD_REACTORS
330
C
102
}
100
AcDbDictionary
281
1
  3
Normal
350
F
100
AcDbDictionaryWithDefault
340
F
  0
DICTIONARY
  5
17
102
{ACAD_REACTORS
330
C
102
}
100
AcDbDictionary
280
0
281
1
  3
Standard
350
18
  0
DICTIONARY
  5
19
102
{ACAD_REACTORS
330
C
102
}
100
AcDbDictionary
281
1
  0
DICTIONARY
  5
1A
102
{ACAD_REACTORS
330
C
102
}
100
AcDbDictionary
281
1
  3
Model
350
43E
  3
Layout1
350
43F
  0
ACDBPLACEHOLDER
  5
F
102
{ACAD_REACTORS
330
E
102
}
  0
MLINESTYLE
  5
18
102
{ACAD_REACTORS
330
17
102
}
100
AcDbMlineStyle
  2
STANDARD
 70
0
  3

 62
256
 51
90.0
 52
90.0
 71
2
 49
0.5
 62
256
  6
BYLAYER
 49
-0.5
 62
256
  6
BYLAYER
  0
LAYOUT
  5
43E
102
{ACAD_REACTORS
330
1A
102
}
100
AcDbPlotSettings
  1

  2
none_device
  4
ANSI_A_(11.00_x_8.50_Inches)
  6

 40
0.0
 41
0.0
 42
0.0
 43
0.0
 44
279.4
 45
215.9
 46
0.0
 47
0.0
 48
0.0
 49
0.0
140
0.0
141
0.0
142
1.0
143
1.0
 70
1024
 72
0
 73
0
 74
0
  7

 75
0
147
1.0
148
0.0
149
0.0
100
AcDbLayout
  1
Model
 70
0
 71
0
 10
0.0
 20
0.0
 11
11.0
 21
8.5
 12
0.0
 22
0.0
 32
0.0
 14
0.0
 24
0.0
 34
0.0
 15
0.0
 25
0.0
 35
0.0
146
0.0
 13
0.0
 23
0.0
 33
0.0
 16
1.0
 26
0.0
 36
0.0
 17
0.0
 27
1.0
 37
0.0
 76
0
330
21C
345
0
346
0
  0
LAYOUT
  5
43F
102
{ACAD_REACTORS
330
1A
102
}
100
AcDbPlotSettings
  1

  2
none_device
  4
ANSI_A_(11.00_x_8.50_Inches)
  6

 40
0.0
 41
0.0
 42
0.0
 43
0.0
 44
279.4
 45
215.9
 46
0.0
 47
0.0
 48
0.0
 49
0.0
140
0.0
141
0.0
142
1.0
143
1.0
 70
0
 72
0
 73
0
 74
0
  7

 75
0
147
1.0
148
0.0
149
0.0
100
AcDbLayout
  1
Layout1
 70
0
 71
1
 10
0.0
 20
0.0
 11
11.0
 21
8.5
 12
0.0
 22
0.0
 32
0.0
 14
0.0
 24
0.0
 34
0.0
 15
0.0
 25
0.0
 35
0.0
146
0.0
 13
0.0
 23
0.0
 33
0.0
 16
1.0
 26
0.0
 36
0.0
 17
0.0
 27
1.0
 37
0.0
 76
0
330
21D
345
0
346
0
  0
ENDSEC
  0
EOF
