999
DXF file: 3-1644ts_RIGHT.dxf
999
Pro/ENGINEER 2018400 by Parametric Technology Corporation
  0
SECTION
  2
HEADER
  9
$ACADVER
  1
AC1027
  9
$DWGCODEPAGE
  3
ANSI_1252
  9
$EXTMAX
 10
11.0
 20
8.5
 30
0.0
  9
$EXTMIN
 10
0.0
 20
0.0
 30
0.0
  9
$LIMMIN
 10
0.0
 20
0.0
  9
$LIMMAX
 10
11.0
 20
8.5
  9
$VIEWCTR
 10
5.5
 20
4.25
  9
$VIEWSIZE
 40
8.5
  9
$CLAYER
  8
0
  9
$LTSCALE
 40
0.605
  9
$CELTYPE
  6
BYLAYER
  9
$DIMSCALE
 40
1.0
  9
$DIMASZ
 40
0.1
  9
$DIMEXO
 40
0.0625
  9
$DIMDLI
 40
0.418
  9
$DIMEXE
 40
0.125
  9
$DIMCEN
 40
0.099
  9
$DIMLFAC
 40
1.0
  9
$DIMBLK
  1
_FILLED
  9
$DIMALT
 70
1
  9
$DIMALTD
 70
2
  9
$DIMALTTD
 70
2
  9
$DIMALTF
 40
25.4
  9
$DIMTXT
 40
0.08
  9
$DIMTOL
 70
1
  9
$DIMLIM
 70
0
  9
$DIMTFAC
 40
1.0
  9
$DIMTP
 40
0.001
  9
$DIMTM
 40
0.001
  9
$DIMGAP
 40
0.09
  9
$DIMDSEP
 70
46
  9
$AUNITS
 70
0
  9
$PDMODE
 70
3
  9
$PDSIZE
 40
0.3125
  9
$HANDSEED
  5
46E
  9
$TILEMODE
 70
1
  9
$MEASUREMENT
 70
0
  9
$INSUNITS
 70
1
  0
ENDSEC
  0
SECTION
  2
CLASSES
  0
CLASS
  1
ACDBDICTIONARYWDFLT
  2
AcDbDictionaryWithDefault
  3
AutoCAD 2000
 90
0
 91
1
280
0
281
0
  0
CLASS
  1
ACDBPLACEHOLDER
  2
AcDbPlaceHolder
  3
AutoCAD 2000
 90
0
 91
1
280
0
281
0
  0
CLASS
  1
LAYOUT
  2
AcDbLayout
  3
AutoCAD 2000
 90
0
 91
0
280
0
281
0
  0
ENDSEC
  0
SECTION
  2
TABLES
  0
TABLE
  2
VPORT
  5
8
100
AcDbSymbolTable
 70
2
  0
VPORT
  5
1F4
100
AcDbSymbolTableRecord
100
AcDbViewportTableRecord
  2
*ACTIVE
 70
0
 10
0.0
 20
0.0
 11
1.0
 21
1.0
 12
5.5
 22
4.25
 13
0.0
 23
0.0
 14
1.0
 24
1.0
 15
0.0
 25
0.0
 16
0.0
 26
0.0
 36
1.0
 17
0.0
 27
0.0
 37
0.0
 40
8.5
 41
1.2941176471
 42
50.0
 43
0.0
 44
0.0
 50
0.0
 51
0.0
 71
0
 72
100
 73
1
 74
1
 75
0
 76
0
 77
0
 78
0
  0
ENDTAB
  0
TABLE
  2
LTYPE
  5
5
100
AcDbSymbolTable
 70
6
  0
LTYPE
  5
14
100
AcDbSymbolTableRecord
100
AcDbLinetypeTableRecord
  2
BYBLOCK
 70
0
  3

 72
65
 73
0
 40
0.0
  0
LTYPE
  5
15
100
AcDbSymbolTableRecord
100
AcDbLinetypeTableRecord
  2
BYLAYER
 70
0
  3

 72
65
 73
0
 40
0.0
  0
LTYPE
  5
16
100
AcDbSymbolTableRecord
100
AcDbLinetypeTableRecord
  2
CONTINUOUS
 70
64
  3
Solid line
 72
65
 73
0
 40
0.0
  0
LTYPE
  5
1F5
100
AcDbSymbolTableRecord
100
AcDbLinetypeTableRecord
  2
CENTER
 70
64
  3
____ _ ____ _ ____ _ ____ _ ____ _ ____ _ ____
 72
65
 73
4
 40
0.6
 49
0.375
 74
0
 49
-0.075
 74
0
 49
0.075
 74
0
 49
-0.075
 74
0
  0
LTYPE
  5
1F6
100
AcDbSymbolTableRecord
100
AcDbLinetypeTableRecord
  2
HIDDEN
 70
64
  3
- - - - - - - - - - - - - - - - - - - -
 72
65
 73
2
 40
0.2
 49
0.1
 74
0
 49
-0.1
 74
0
  0
LTYPE
  5
1F7
100
AcDbSymbolTableRecord
100
AcDbLinetypeTableRecord
  2
PHANTOM
 70
64
  3
_____ _ _ _____ _ _ _____ _ _ _____
 72
65
 73
6
 40
0.8
 49
0.45
 74
0
 49
-0.05
 74
0
 49
0.1
 74
0
 49
-0.05
 74
0
 49
0.1
 74
0
 49
-0.05
 74
0
  0
LTYPE
  5
1F8
100
AcDbSymbolTableRecord
100
AcDbLinetypeTableRecord
  2
DOT
 70
64
  3
. . . . . . . . . . . . . . . . . . . .
 72
65
 73
2
 40
0.2
 49
0.1
 74
0
 49
-0.1
 74
0
  0
LTYPE
  5
1F9
100
AcDbSymbolTableRecord
100
AcDbLinetypeTableRecord
  2
DASHED
 70
64
  3
- - - - - - - - - - - - - - - - - - - -
 72
65
 73
2
 40
0.2
 49
0.1
 74
0
 49
-0.1
 74
0
  0
ENDTAB
  0
TABLE
  2
LAYER
  5
2
100
AcDbSymbolTable
 70
36
  0
LAYER
  5
10
100
AcDbSymbolTableRecord
100
AcDbLayerTableRecord
  2
0
 70
0
 62
7
  6
CONTINUOUS
370
-3
390
F
  0
LAYER
  5
1FA
100
AcDbSymbolTableRecord
100
AcDbLayerTableRecord
  2
DEFAULT_1
 70
0
 62
7
  6
CENTER
370
-3
390
F
  0
LAYER
  5
1FB
100
AcDbSymbolTableRecord
100
AcDbLayerTableRecord
  2
DEFAULT_2
 70
0
 62
8
  6
HIDDEN
370
-3
390
F
  0
LAYER
  5
1FC
100
AcDbSymbolTableRecord
100
AcDbLayerTableRecord
  2
DEFAULT_3
 70
0
 62
7
  6
PHANTOM
370
-3
390
F
  0
LAYER
  5
1FD
100
AcDbSymbolTableRecord
100
AcDbLayerTableRecord
  2
2-265_ASSY_PLANES
 70
0
 62
7
  6
CONTINUOUS
370
-3
390
F
  0
LAYER
  5
1FE
100
AcDbSymbolTableRecord
100
AcDbLayerTableRecord
  2
AA
 70
0
 62
7
  6
CONTINUOUS
370
-3
390
F
  0
LAYER
  5
1FF
100
AcDbSymbolTableRecord
100
AcDbLayerTableRecord
  2
ALL_ASSEMBLY_MEMBERS
 70
0
 62
7
  6
CONTINUOUS
370
-3
390
F
  0
LAYER
  5
200
100
AcDbSymbolTableRecord
100
AcDbLayerTableRecord
  2
ALL_FEATURES
 70
0
 62
7
  6
CONTINUOUS
370
-3
390
F
  0
LAYER
  5
201
100
AcDbSymbolTableRecord
100
AcDbLayerTableRecord
  2
AXES_FEATURES
 70
0
 62
7
  6
CONTINUOUS
370
-3
390
F
  0
LAYER
  5
202
100
AcDbSymbolTableRecord
100
AcDbLayerTableRecord
  2
CHAMFER_FEATURES
 70
0
 62
7
  6
CONTINUOUS
370
-3
390
F
  0
LAYER
  5
203
100
AcDbSymbolTableRecord
100
AcDbLayerTableRecord
  2
CURVE
 70
0
 62
7
  6
CONTINUOUS
370
-3
390
F
  0
LAYER
  5
204
100
AcDbSymbolTableRecord
100
AcDbLayerTableRecord
  2
CUT_FEATURES
 70
0
 62
7
  6
CONTINUOUS
370
-3
390
F
  0
LAYER
  5
205
100
AcDbSymbolTableRecord
100
AcDbLayerTableRecord
  2
DATUM_CURVES
 70
0
 62
7
  6
CONTINUOUS
370
-3
390
F
  0
LAYER
  5
206
100
AcDbSymbolTableRecord
100
AcDbLayerTableRecord
  2
DATUM_PLANES
 70
0
 62
7
  6
CONTINUOUS
370
-3
390
F
  0
LAYER
  5
207
100
AcDbSymbolTableRecord
100
AcDbLayerTableRecord
  2
DATUM_POINTS
 70
0
 62
7
  6
CONTINUOUS
370
-3
390
F
  0
LAYER
  5
208
100
AcDbSymbolTableRecord
100
AcDbLayerTableRecord
  2
DEFAULT_COORDINATE_SYSTEM
 70
0
 62
7
  6
CONTINUOUS
370
-3
390
F
  0
LAYER
  5
209
100
AcDbSymbolTableRecord
100
AcDbLayerTableRecord
  2
DEFAULT_DATUM_AXES
 70
0
 62
7
  6
CONTINUOUS
370
-3
390
F
  0
LAYER
  5
20A
100
AcDbSymbolTableRecord
100
AcDbLayerTableRecord
  2
DEFAULT_DATUM_CURVES
 70
0
 62
7
  6
CONTINUOUS
370
-3
390
F
  0
LAYER
  5
20B
100
AcDbSymbolTableRecord
100
AcDbLayerTableRecord
  2
DEFAULT_DATUM_PLANES
 70
0
 62
7
  6
CONTINUOUS
370
-3
390
F
  0
LAYER
  5
20C
100
AcDbSymbolTableRecord
100
AcDbLayerTableRecord
  2
DEFAULT_SURFACES
 70
0
 62
7
  6
CONTINUOUS
370
-3
390
F
  0
LAYER
  5
20D
100
AcDbSymbolTableRecord
100
AcDbLayerTableRecord
  2
DIMENSIONS
 70
0
 62
7
  6
CONTINUOUS
370
-3
390
F
  0
LAYER
  5
20E
100
AcDbSymbolTableRecord
100
AcDbLayerTableRecord
  2
HOLE_FEATURES
 70
0
 62
7
  6
CONTINUOUS
370
-3
390
F
  0
LAYER
  5
20F
100
AcDbSymbolTableRecord
100
AcDbLayerTableRecord
  2
LAY0001
 70
0
 62
7
  6
CONTINUOUS
370
-3
390
F
  0
LAYER
  5
210
100
AcDbSymbolTableRecord
100
AcDbLayerTableRecord
  2
NOTES
 70
0
 62
7
  6
CONTINUOUS
370
-3
390
F
  0
LAYER
  5
211
100
AcDbSymbolTableRecord
100
AcDbLayerTableRecord
  2
PART_REFERENCE_DIMENSIONS
 70
0
 62
7
  6
CONTINUOUS
370
-3
390
F
  0
LAYER
  5
212
100
AcDbSymbolTableRecord
100
AcDbLayerTableRecord
  2
PLATED_SURFACE_AREA
 70
0
 62
7
  6
CONTINUOUS
370
-3
390
F
  0
LAYER
  5
213
100
AcDbSymbolTableRecord
100
AcDbLayerTableRecord
  2
POINTS
 70
0
 62
7
  6
CONTINUOUS
370
-3
390
F
  0
LAYER
  5
214
100
AcDbSymbolTableRecord
100
AcDbLayerTableRecord
  2
PROTRUSION
 70
0
 62
7
  6
CONTINUOUS
370
-3
390
F
  0
LAYER
  5
215
100
AcDbSymbolTableRecord
100
AcDbLayerTableRecord
  2
PROTRUSION_FEATURES
 70
0
 62
7
  6
CONTINUOUS
370
-3
390
F
  0
LAYER
  5
216
100
AcDbSymbolTableRecord
100
AcDbLayerTableRecord
  2
QUILT
 70
0
 62
7
  6
CONTINUOUS
370
-3
390
F
  0
LAYER
  5
217
100
AcDbSymbolTableRecord
100
AcDbLayerTableRecord
  2
QUILTS
 70
0
 62
7
  6
CONTINUOUS
370
-3
390
F
  0
LAYER
  5
218
100
AcDbSymbolTableRecord
100
AcDbLayerTableRecord
  2
REFERENCE_DIMENSIONS
 70
0
 62
7
  6
CONTINUOUS
370
-3
390
F
  0
LAYER
  5
219
100
AcDbSymbolTableRecord
100
AcDbLayerTableRecord
  2
ROUND_FEATURES
 70
0
 62
7
  6
CONTINUOUS
370
-3
390
F
  0
LAYER
  5
21A
100
AcDbSymbolTableRecord
100
AcDbLayerTableRecord
  2
SHELL_FEATURES
 70
0
 62
7
  6
CONTINUOUS
370
-3
390
F
  0
LAYER
  5
21B
100
AcDbSymbolTableRecord
100
AcDbLayerTableRecord
  2
XSEC_DATUMS
 70
0
 62
7
  6
CONTINUOUS
370
-3
390
F
  0
ENDTAB
  0
TABLE
  2
STYLE
  5
3
100
AcDbSymbolTable
 70
1
  0
STYLE
  5
11
100
AcDbSymbolTableRecord
100
AcDbTextStyleTableRecord
  2
STANDARD
 70
0
 40
0.0
 41
0.8
 50
0.0
 71
0
 42
0.2
  3
txt
  4

  0
STYLE
  5
21C
100
AcDbSymbolTableRecord
100
AcDbTextStyleTableRecord
  2
TEXTSTYLE_1
 70
0
 40
0.0
 41
0.8
 50
0.0
 71
0
 42
0.2
  3
gdt
  4

  0
ENDTAB
  0
TABLE
  2
VIEW
  5
6
100
AcDbSymbolTable
 70
0
  0
ENDTAB
  0
TABLE
  2
UCS
  5
7
100
AcDbSymbolTable
 70
0
  0
ENDTAB
  0
TABLE
  2
APPID
  5
9
100
AcDbSymbolTable
 70
1
  0
APPID
  5
21D
100
AcDbSymbolTableRecord
100
AcDbRegAppTableRecord
  2
ACAD
 70
0
  0
ENDTAB
  0
TABLE
  2
BLOCK_RECORD
  5
1
100
AcDbSymbolTable
 70
0
  0
BLOCK_RECORD
  5
21E
100
AcDbSymbolTableRecord
100
AcDbBlockTableRecord
  2
*Model_Space
  0
BLOCK_RECORD
  5
21F
100
AcDbSymbolTableRecord
100
AcDbBlockTableRecord
  2
*Paper_Space
  0
BLOCK_RECORD
  5
220
100
AcDbSymbolTableRecord
100
AcDbBlockTableRecord
  2
_FILLED
  0
ENDTAB
  0
TABLE
  2
DIMSTYLE
  5
A
100
AcDbSymbolTable
 70
1
100
AcDbDimStyleTable
 71
0
  0
DIMSTYLE
105
221
100
AcDbSymbolTableRecord
100
AcDbDimStyleTableRecord
  2
STANDARD
 70
0
  3

  4

 40
1.0
 41
0.1
 42
0.0625
 43
0.38
 44
0.125
 45
0.0
 46
0.0
 47
0.001
 48
0.001
140
0.08
141
0.09
142
0.0
143
25.4
144
1.0
145
0.0
146
1.0
147
0.09
 71
1.0
 72
0.0
 73
1
 74
1
 75
0
 76
0
 77
0
 78
4
 79
1
170
1
171
2
172
0
173
0
174
0
175
0
176
0
177
0
178
0
270
2
179
3
271
3
272
3
273
2
274
2
275
0
280
0
281
0
282
0
283
1
284
4
285
0
286
0
287
3
288
0
340
11
278
46
341
220
342
220
343
220
344
220
  0
ENDTAB
  0
ENDSEC
  0
SECTION
  2
BLOCKS
  0
BLOCK
  5
20
100
AcDbEntity
  8
0
100
AcDbBlockBegin
  2
*Model_Space
 70
0
 10
0.0
 20
0.0
 30
0.0
  3
*Model_Space
  1

  0
ENDBLK
  5
21
100
AcDbEntity
  8
0
100
AcDbBlockEnd
  0
BLOCK
  5
1C
100
AcDbEntity
  8
0
100
AcDbBlockBegin
  2
*Paper_Space
 70
0
 10
0.0
 20
0.0
 30
0.0
  3
*Paper_Space
  1

  0
ENDBLK
  5
1D
100
AcDbEntity
  8
0
100
AcDbBlockEnd
  0
BLOCK
  5
222
100
AcDbEntity
  8
0
100
AcDbBlockBegin
  2
_FILLED
 70
64
 10
0.0
 20
0.0
  3
_FILLED
  1

  0
SOLID
  5
223
100
AcDbEntity
  8
0
  6
BYBLOCK
 62
0
100
AcDbTrace
 10
0.0
 20
0.0
 11
-1.0
 21
0.2
 12
-1.0
 22
-0.2
 13
-1.0
 23
-0.2
  0
ENDBLK
  5
224
100
AcDbEntity
  8
0
  6
BYBLOCK
 62
0
100
AcDbBlockEnd
  0
ENDSEC
  0
SECTION
  2
ENTITIES
  0
MTEXT
  5
225
100
AcDbEntity
  8
0
100
AcDbMText
 62
2
  6
CONTINUOUS
  7
STANDARD
 71
3
 72
1
 10
5.5749417702
 20
2.4435287267
 30
0.0
 11
1.0
 21
0.0
 31
0.0
 73
2
 44
0.9
  1
SCALE  .500
 40
0.08
 41
0.704
  0
LINE
  5
226
100
AcDbEntity
  8
0
100
AcDbLine
 62
7
  6
CONTINUOUS
 10
0.0
 20
0.0
 11
0.0
 21
8.5
  0
LINE
  5
227
100
AcDbEntity
  8
0
100
AcDbLine
 62
7
  6
CONTINUOUS
 10
0.0
 20
0.0
 11
11.0
 21
0.0
  0
LINE
  5
228
100
AcDbEntity
  8
0
100
AcDbLine
 62
7
  6
CONTINUOUS
 10
0.0
 20
8.5
 11
11.0
 21
8.5
  0
LINE
  5
229
100
AcDbEntity
  8
0
100
AcDbLine
 62
7
  6
CONTINUOUS
 10
11.0
 20
0.0
 11
11.0
 21
8.5
  0
LINE
  5
22A
100
AcDbEntity
  8
ALL_ASSEMBLY_MEMBERS
100
AcDbLine
 62
7
  6
CONTINUOUS
 10
6.350801717
 20
2.5385287267
 11
6.444801717
 21
2.5385287267
  0
LINE
  5
22B
100
AcDbEntity
  8
ALL_ASSEMBLY_MEMBERS
100
AcDbLine
 62
7
  6
CONTINUOUS
 10
4.5318971767
 20
3.9659563984
 11
4.5318971767
 21
4.361101055
  0
LINE
  5
22C
100
AcDbEntity
  8
ALL_ASSEMBLY_MEMBERS
100
AcDbLine
 62
7
  6
CONTINUOUS
 10
4.5463018233
 20
3.9135298735
 11
4.5463018233
 21
4.4135275799
  0
LINE
  5
22D
100
AcDbEntity
  8
ALL_ASSEMBLY_MEMBERS
100
AcDbLine
 62
7
  6
CONTINUOUS
 10
4.5963018233
 20
4.0031545568
 11
4.5963018233
 21
3.9156888493
  0
LINE
  5
22E
100
AcDbEntity
  8
ALL_ASSEMBLY_MEMBERS
100
AcDbLine
 62
7
  6
CONTINUOUS
 10
4.5963018233
 20
4.3239021567
 11
4.5963018233
 21
4.4113686041
  0
LINE
  5
22F
100
AcDbEntity
  8
ALL_ASSEMBLY_MEMBERS
100
AcDbLine
 62
7
  6
CONTINUOUS
 10
4.7463018233
 20
4.0031552157
 11
4.7463018233
 21
3.9156888493
  0
LINE
  5
230
100
AcDbEntity
  8
ALL_ASSEMBLY_MEMBERS
100
AcDbLine
 62
7
  6
CONTINUOUS
 10
4.7463018233
 20
4.3239018813
 11
4.7463018233
 21
4.4113686041
  0
LINE
  5
231
100
AcDbEntity
  8
ALL_ASSEMBLY_MEMBERS
100
AcDbLine
 62
7
  6
CONTINUOUS
 10
4.7963018233
 20
4.4135287267
 11
4.7963018233
 21
3.9135287267
  0
LINE
  5
232
100
AcDbEntity
  8
ALL_ASSEMBLY_MEMBERS
100
AcDbLine
 62
7
  6
CONTINUOUS
 10
4.5966537021
 20
4.0041265288
 11
4.5967033758
 21
4.0042483815
  0
LINE
  5
233
100
AcDbEntity
  8
ALL_ASSEMBLY_MEMBERS
100
AcDbLine
 62
7
  6
CONTINUOUS
 10
4.5966566516
 20
4.004125712
 11
4.5967108751
 21
4.0042473408
  0
LINE
  5
234
100
AcDbEntity
  8
ALL_ASSEMBLY_MEMBERS
100
AcDbLine
 62
7
  6
CONTINUOUS
 10
4.7458927733
 20
4.0042473649
 11
4.7459486614
 21
4.0041219864
  0
LINE
  5
235
100
AcDbEntity
  8
ALL_ASSEMBLY_MEMBERS
100
AcDbLine
 62
7
  6
CONTINUOUS
 10
4.7459002728
 20
4.0042483792
 11
4.7459514728
 21
4.0041227693
  0
LINE
  5
236
100
AcDbEntity
  8
ALL_ASSEMBLY_MEMBERS
100
AcDbLine
 62
7
  6
CONTINUOUS
 10
4.8504284111
 20
4.3197787267
 11
4.8504284111
 21
4.0072787267
  0
LINE
  5
237
100
AcDbEntity
  8
ALL_ASSEMBLY_MEMBERS
100
AcDbLine
 62
7
  6
CONTINUOUS
 10
4.9488018233
 20
4.1358594207
 11
4.9488018233
 21
4.1135523192
  0
LINE
  5
238
100
AcDbEntity
  8
ALL_ASSEMBLY_MEMBERS
100
AcDbLine
 62
7
  6
CONTINUOUS
 10
4.9488018233
 20
4.0216284377
 11
4.9488018233
 21
4.0156512679
  0
LINE
  5
239
100
AcDbEntity
  8
ALL_ASSEMBLY_MEMBERS
100
AcDbLine
 62
7
  6
CONTINUOUS
 10
4.9688018233
 20
4.012662683
 11
4.9688018233
 21
4.0246170226
  0
LINE
  5
23A
100
AcDbEntity
  8
ALL_ASSEMBLY_MEMBERS
100
AcDbLine
 62
7
  6
CONTINUOUS
 10
4.9688018233
 20
4.1023987685
 11
4.9688018233
 21
4.1121044827
  0
LINE
  5
23B
100
AcDbEntity
  8
ALL_ASSEMBLY_MEMBERS
100
AcDbLine
 62
7
  6
CONTINUOUS
 10
4.9888018233
 20
4.0156512679
 11
4.9888018233
 21
4.0216284377
  0
LINE
  5
23C
100
AcDbEntity
  8
ALL_ASSEMBLY_MEMBERS
100
AcDbLine
 62
7
  6
CONTINUOUS
 10
4.9888018233
 20
4.1135523192
 11
4.9888018233
 21
4.1358594207
  0
LINE
  5
23D
100
AcDbEntity
  8
ALL_ASSEMBLY_MEMBERS
100
AcDbLine
 62
7
  6
CONTINUOUS
 10
5.0463018233
 20
4.3385504477
 11
5.0463018233
 21
3.9885070057
  0
LINE
  5
23E
100
AcDbEntity
  8
ALL_ASSEMBLY_MEMBERS
100
AcDbLine
 62
7
  6
CONTINUOUS
 10
5.0686343686
 20
4.3697787267
 11
5.0686343686
 21
3.9572787267
  0
LINE
  5
23F
100
AcDbEntity
  8
ALL_ASSEMBLY_MEMBERS
100
AcDbLine
 62
7
  6
CONTINUOUS
 10
4.7963018233
 20
3.9135287267
 11
4.8504284111
 21
4.0072787267
  0
LINE
  5
240
100
AcDbEntity
  8
ALL_ASSEMBLY_MEMBERS
100
AcDbLine
 62
7
  6
CONTINUOUS
 10
4.938935399
 20
4.0164899918
 11
4.9365594641
 21
4.0187010483
  0
LINE
  5
241
100
AcDbEntity
  8
ALL_ASSEMBLY_MEMBERS
100
AcDbLine
 62
7
  6
CONTINUOUS
 10
4.7963018233
 20
4.4135287267
 11
4.8504284111
 21
4.3197787267
  0
LINE
  5
242
100
AcDbEntity
  8
ALL_ASSEMBLY_MEMBERS
100
AcDbLine
 62
7
  6
CONTINUOUS
 10
5.1713018233
 20
4.4867999375
 11
5.1713018233
 21
3.8402575159
  0
LINE
  5
243
100
AcDbEntity
  8
ALL_FEATURES
100
AcDbLine
 62
7
  6
CONTINUOUS
 10
6.013581717
 20
3.6710287267
 11
6.208801717
 21
3.6710287267
  0
LINE
  5
244
100
AcDbEntity
  8
ALL_ASSEMBLY_MEMBERS
100
AcDbLine
 62
7
  6
CONTINUOUS
 10
5.7963018233
 20
3.6785287267
 11
5.368837898
 21
3.6785287267
  0
LINE
  5
245
100
AcDbEntity
  8
ALL_ASSEMBLY_MEMBERS
100
AcDbLine
 62
7
  6
CONTINUOUS
 10
5.9410852879
 20
3.6787787267
 11
5.930141245
 21
3.6787787267
  0
LINE
  5
246
100
AcDbEntity
  8
ALL_ASSEMBLY_MEMBERS
100
AcDbLine
 62
7
  6
CONTINUOUS
 10
5.9064291469
 20
3.6788066759
 11
5.8954851039
 21
3.6788066759
  0
LINE
  5
247
100
AcDbEntity
  8
ALL_ASSEMBLY_MEMBERS
100
AcDbLine
 62
7
  6
CONTINUOUS
 10
5.930141245
 20
3.6805124341
 11
5.9064291469
 21
3.6805124341
  0
LINE
  5
248
100
AcDbEntity
  8
ALL_ASSEMBLY_MEMBERS
100
AcDbLine
 62
7
  6
CONTINUOUS
 10
5.8954851039
 20
3.6805124341
 11
5.8553569414
 21
3.6805124341
  0
LINE
  5
249
100
AcDbEntity
  8
ALL_ASSEMBLY_MEMBERS
100
AcDbLine
 62
7
  6
CONTINUOUS
 10
5.7963018233
 20
3.6812452621
 11
5.8553569414
 21
3.6812452621
  0
LINE
  5
24A
100
AcDbEntity
  8
ALL_ASSEMBLY_MEMBERS
100
AcDbLine
 62
7
  6
CONTINUOUS
 10
5.9410852879
 20
3.6812452621
 11
5.993152217
 21
3.6812452621
  0
LINE
  5
24B
100
AcDbEntity
  8
ALL_ASSEMBLY_MEMBERS
100
AcDbLine
 62
7
  6
CONTINUOUS
 10
5.9410852879
 20
3.6812832678
 11
5.8553569414
 21
3.6812832678
  0
LINE
  5
24C
100
AcDbEntity
  8
ALL_ASSEMBLY_MEMBERS
100
AcDbLine
 62
7
  6
CONTINUOUS
 10
5.9133879879
 20
3.6837626792
 11
5.8553569414
 21
3.6837626792
  0
LINE
  5
24D
100
AcDbEntity
  8
ALL_ASSEMBLY_MEMBERS
100
AcDbLine
 62
7
  6
CONTINUOUS
 10
4.9346066248
 20
4.0234158656
 11
4.9351280358
 21
4.0231564532
  0
LINE
  5
24E
100
AcDbEntity
  8
ALL_ASSEMBLY_MEMBERS
100
AcDbLine
 62
7
  6
CONTINUOUS
 10
4.9986682477
 20
4.0164899918
 11
5.0052068937
 21
4.0225748876
  0
LINE
  5
24F
100
AcDbEntity
  8
ALL_ASSEMBLY_MEMBERS
100
AcDbLine
 62
7
  6
CONTINUOUS
 10
4.9688018233
 20
4.1470129714
 11
4.9488018233
 21
4.1358594207
  0
LINE
  5
250
100
AcDbEntity
  8
ALL_ASSEMBLY_MEMBERS
100
AcDbLine
 62
7
  6
CONTINUOUS
 10
4.9688018233
 20
4.1121044827
 11
4.9888018233
 21
4.1232580334
  0
LINE
  5
251
100
AcDbEntity
  8
ALL_ASSEMBLY_MEMBERS
100
AcDbLine
 62
7
  6
CONTINUOUS
 10
6.208801717
 20
4.6935287267
 11
6.288301717
 21
4.7235287267
  0
LINE
  5
252
100
AcDbEntity
  8
ALL_ASSEMBLY_MEMBERS
100
AcDbLine
 62
7
  6
CONTINUOUS
 10
4.5463018233
 20
3.9135287267
 11
4.5962387098
 21
3.9135287267
  0
LINE
  5
253
100
AcDbEntity
  8
ALL_ASSEMBLY_MEMBERS
100
AcDbLine
 62
7
  6
CONTINUOUS
 10
4.7463803399
 20
3.9135287267
 11
4.7963018233
 21
3.9135287267
  0
LINE
  5
254
100
AcDbEntity
  8
ALL_ASSEMBLY_MEMBERS
100
AcDbLine
 62
7
  6
CONTINUOUS
 10
6.208801717
 20
3.6335287267
 11
6.288301717
 21
3.6035287267
  0
LINE
  5
255
100
AcDbEntity
  8
ALL_ASSEMBLY_MEMBERS
100
AcDbLine
 62
7
  6
CONTINUOUS
 10
4.9488018233
 20
4.1135523192
 11
4.9688018233
 21
4.1023987685
  0
LINE
  5
256
100
AcDbEntity
  8
ALL_ASSEMBLY_MEMBERS
100
AcDbLine
 62
7
  6
CONTINUOUS
 10
4.9488018233
 20
4.1232580334
 11
4.9688018233
 21
4.1121044827
  0
LINE
  5
257
100
AcDbEntity
  8
ALL_ASSEMBLY_MEMBERS
100
AcDbLine
 62
7
  6
CONTINUOUS
 10
4.9888018233
 20
4.1358594207
 11
4.9688018233
 21
4.1470129714
  0
LINE
  5
258
100
AcDbEntity
  8
ALL_ASSEMBLY_MEMBERS
100
AcDbLine
 62
7
  6
CONTINUOUS
 10
5.368837898
 20
4.6485287267
 11
5.368837898
 21
3.6785287267
  0
LINE
  5
259
100
AcDbEntity
  8
0
100
AcDbLine
 62
7
  6
CONTINUOUS
 10
5.4033018233
 20
4.6455174079
 11
5.4033018233
 21
4.7593119948
  0
LINE
  5
25A
100
AcDbEntity
  8
ALL_ASSEMBLY_MEMBERS
100
AcDbLine
 62
7
  6
CONTINUOUS
 10
4.9688018233
 20
4.1023987685
 11
4.9888018233
 21
4.1135523192
  0
LINE
  5
25B
100
AcDbEntity
  8
ALL_ASSEMBLY_MEMBERS
100
AcDbLine
 62
7
  6
CONTINUOUS
 10
4.9523047326
 20
4.0072785284
 11
4.9688018233
 21
4.0073008447
  0
LINE
  5
25C
100
AcDbEntity
  8
ALL_ASSEMBLY_MEMBERS
100
AcDbLine
 62
7
  6
CONTINUOUS
 10
4.9615851518
 20
4.0072932975
 11
4.9651646841
 21
4.0072987186
  0
LINE
  5
25D
100
AcDbEntity
  8
ALL_ASSEMBLY_MEMBERS
100
AcDbLine
 62
7
  6
CONTINUOUS
 10
5.9064291469
 20
3.9349179209
 11
5.8900130825
 21
3.9349179209
  0
LINE
  5
25E
100
AcDbEntity
  8
ALL_ASSEMBLY_MEMBERS
100
AcDbLine
 62
7
  6
CONTINUOUS
 10
5.9046051397
 20
3.9410602026
 11
5.8918370896
 21
3.9410602026
  0
LINE
  5
25F
100
AcDbEntity
  8
ALL_ASSEMBLY_MEMBERS
100
AcDbLine
 62
7
  6
CONTINUOUS
 10
5.9046051397
 20
3.9419107721
 11
5.8918370896
 21
3.9419107721
  0
LINE
  5
260
100
AcDbEntity
  8
ALL_ASSEMBLY_MEMBERS
100
AcDbLine
 62
7
  6
CONTINUOUS
 10
5.9046051397
 20
3.9735476228
 11
5.8918370896
 21
3.9735476228
  0
LINE
  5
261
100
AcDbEntity
  8
ALL_ASSEMBLY_MEMBERS
100
AcDbLine
 62
7
  6
CONTINUOUS
 10
5.9064291469
 20
3.9798995202
 11
5.8900130825
 21
3.9798995202
  0
LINE
  5
262
100
AcDbEntity
  8
ALL_ASSEMBLY_MEMBERS
100
AcDbLine
 62
7
  6
CONTINUOUS
 10
5.9064291469
 20
3.9807437851
 11
5.8900130825
 21
3.9807437851
  0
LINE
  5
263
100
AcDbEntity
  8
ALL_ASSEMBLY_MEMBERS
100
AcDbLine
 62
7
  6
CONTINUOUS
 10
5.9210212092
 20
3.9901320985
 11
5.9173731898
 21
3.9901320985
  0
LINE
  5
264
100
AcDbEntity
  8
ALL_ASSEMBLY_MEMBERS
100
AcDbLine
 62
7
  6
CONTINUOUS
 10
5.8644769785
 20
3.9901320985
 11
5.8553569414
 21
3.9901320985
  0
LINE
  5
265
100
AcDbEntity
  8
ALL_ASSEMBLY_MEMBERS
100
AcDbLine
 62
7
  6
CONTINUOUS
 10
5.9210212092
 20
3.9978626077
 11
5.9173731898
 21
3.9978626077
  0
LINE
  5
266
100
AcDbEntity
  8
ALL_ASSEMBLY_MEMBERS
100
AcDbLine
 62
7
  6
CONTINUOUS
 10
5.9210212092
 20
3.9987062125
 11
5.9173731898
 21
3.9987062125
  0
LINE
  5
267
100
AcDbEntity
  8
ALL_ASSEMBLY_MEMBERS
100
AcDbLine
 62
7
  6
CONTINUOUS
 10
4.8504284111
 20
4.0072787267
 11
4.9523047611
 21
4.0072787267
  0
LINE
  5
268
100
AcDbEntity
  8
ALL_ASSEMBLY_MEMBERS
100
AcDbLine
 62
7
  6
CONTINUOUS
 10
5.8644769785
 20
4.0372368343
 11
5.8553569414
 21
4.0372368343
  0
LINE
  5
269
100
AcDbEntity
  8
ALL_ASSEMBLY_MEMBERS
100
AcDbLine
 62
7
  6
CONTINUOUS
 10
5.8644769785
 20
4.0380835476
 11
5.8553569414
 21
4.0380835476
  0
LINE
  5
26A
100
AcDbEntity
  8
ALL_ASSEMBLY_MEMBERS
100
AcDbLine
 62
7
  6
CONTINUOUS
 10
5.9410852879
 20
4.0479408992
 11
5.8553569414
 21
4.0479408992
  0
LINE
  5
26B
100
AcDbEntity
  8
ALL_ASSEMBLY_MEMBERS
100
AcDbLine
 62
7
  6
CONTINUOUS
 10
4.9830255144
 20
4.0072802298
 11
5.0463018233
 21
4.0072787267
  0
LINE
  5
26C
100
AcDbEntity
  8
ALL_ASSEMBLY_MEMBERS
100
AcDbLine
 62
7
  6
CONTINUOUS
 10
4.9688018233
 20
4.0073008447
 11
4.9852989141
 21
4.0072785284
  0
LINE
  5
26D
100
AcDbEntity
  8
ALL_ASSEMBLY_MEMBERS
100
AcDbLine
 62
7
  6
CONTINUOUS
 10
4.9760184552
 20
4.0072932976
 11
4.9795403664
 21
4.0072862389
  0
LINE
  5
26E
100
AcDbEntity
  8
ALL_ASSEMBLY_MEMBERS
100
AcDbLine
 62
7
  6
CONTINUOUS
 10
4.9488018233
 20
4.0156512679
 11
4.9688018233
 21
4.012662683
  0
LINE
  5
26F
100
AcDbEntity
  8
ALL_ASSEMBLY_MEMBERS
100
AcDbLine
 62
7
  6
CONTINUOUS
 10
4.9888018233
 20
4.0216284377
 11
4.9688018233
 21
4.0246170226
  0
LINE
  5
270
100
AcDbEntity
  8
ALL_FEATURES
100
AcDbLine
 62
7
  6
CONTINUOUS
 10
5.5333018233
 20
4.6455178827
 11
5.5333018233
 21
4.7593119948
  0
LINE
  5
271
100
AcDbEntity
  8
ALL_ASSEMBLY_MEMBERS
100
AcDbLine
 62
7
  6
CONTINUOUS
 10
4.9688018233
 20
4.012662683
 11
4.9888018233
 21
4.0156512679
  0
LINE
  5
272
100
AcDbEntity
  8
ALL_ASSEMBLY_MEMBERS
100
AcDbLine
 62
7
  6
CONTINUOUS
 10
4.9688018233
 20
4.0246170226
 11
4.9488018233
 21
4.0216284377
  0
LINE
  5
273
100
AcDbEntity
  8
ALL_ASSEMBLY_MEMBERS
100
AcDbLine
 62
7
  6
CONTINUOUS
 10
5.9264932307
 20
4.0560259602
 11
5.8553569414
 21
4.0560259602
  0
LINE
  5
274
100
AcDbEntity
  8
ALL_ASSEMBLY_MEMBERS
100
AcDbLine
 62
7
  6
CONTINUOUS
 10
5.9251551344
 20
4.0568762802
 11
5.8553569414
 21
4.0568762802
  0
LINE
  5
275
100
AcDbEntity
  8
ALL_ASSEMBLY_MEMBERS
100
AcDbLine
 62
7
  6
CONTINUOUS
 10
5.9283172378
 20
4.0641602133
 11
5.9137251755
 21
4.0641602133
  0
LINE
  5
276
100
AcDbEntity
  8
ALL_ASSEMBLY_MEMBERS
100
AcDbLine
 62
7
  6
CONTINUOUS
 10
5.9283172378
 20
4.0650125152
 11
5.9137251755
 21
4.0650125152
  0
LINE
  5
277
100
AcDbEntity
  8
ALL_ASSEMBLY_MEMBERS
100
AcDbLine
 62
7
  6
CONTINUOUS
 10
5.9439396186
 20
4.1507334511
 11
5.8553569414
 21
4.1507334511
  0
LINE
  5
278
100
AcDbEntity
  8
ALL_ASSEMBLY_MEMBERS
100
AcDbLine
 62
7
  6
CONTINUOUS
 10
5.9439396186
 20
4.1763240023
 11
5.8553569414
 21
4.1763240023
  0
LINE
  5
279
100
AcDbEntity
  8
ALL_ASSEMBLY_MEMBERS
100
AcDbLine
 62
7
  6
CONTINUOUS
 10
5.8863650656
 20
4.2640795882
 11
5.879069037
 21
4.2640795882
  0
LINE
  5
27A
100
AcDbEntity
  8
ALL_ASSEMBLY_MEMBERS
100
AcDbLine
 62
7
  6
CONTINUOUS
 10
5.8863650656
 20
4.2649313706
 11
5.879069037
 21
4.2649313706
  0
LINE
  5
27B
100
AcDbEntity
  8
ALL_ASSEMBLY_MEMBERS
100
AcDbLine
 62
7
  6
CONTINUOUS
 10
5.9410852879
 20
4.2676025009
 11
5.9319652521
 21
4.2676025009
  0
LINE
  5
27C
100
AcDbEntity
  8
ALL_ASSEMBLY_MEMBERS
100
AcDbLine
 62
7
  6
CONTINUOUS
 10
5.9410852879
 20
4.2684534215
 11
5.9319652521
 21
4.2684534215
  0
LINE
  5
27D
100
AcDbEntity
  8
ALL_ASSEMBLY_MEMBERS
100
AcDbLine
 62
7
  6
CONTINUOUS
 10
5.8845410585
 20
4.2737191756
 11
5.8808930442
 21
4.2737191756
  0
LINE
  5
27E
100
AcDbEntity
  8
ALL_ASSEMBLY_MEMBERS
100
AcDbLine
 62
7
  6
CONTINUOUS
 10
5.7963018233
 20
4.6485287267
 11
5.7963018233
 21
3.6785287267
  0
LINE
  5
27F
100
AcDbEntity
  8
ALL_ASSEMBLY_MEMBERS
100
AcDbLine
 62
7
  6
CONTINUOUS
 10
5.9319652521
 20
4.3176519092
 11
5.9033263921
 21
4.3176519092
  0
LINE
  5
280
100
AcDbEntity
  8
ALL_ASSEMBLY_MEMBERS
100
AcDbLine
 62
7
  6
CONTINUOUS
 10
5.9319652521
 20
4.3184957516
 11
5.9027811326
 21
4.3184957516
  0
LINE
  5
281
100
AcDbEntity
  8
ALL_ASSEMBLY_MEMBERS
100
AcDbLine
 62
7
  6
CONTINUOUS
 10
4.8504284111
 20
4.3197787267
 11
5.0463018233
 21
4.3197787267
  0
LINE
  5
282
100
AcDbEntity
  8
ALL_ASSEMBLY_MEMBERS
100
AcDbLine
 62
7
  6
CONTINUOUS
 10
5.9410852879
 20
4.3269314017
 11
5.8936610968
 21
4.3269314017
  0
LINE
  5
283
100
AcDbEntity
  8
ALL_ASSEMBLY_MEMBERS
100
AcDbLine
 62
7
  6
CONTINUOUS
 10
5.9410852879
 20
4.3394675332
 11
5.8553569414
 21
4.3394675332
  0
LINE
  5
284
100
AcDbEntity
  8
ALL_ASSEMBLY_MEMBERS
100
AcDbLine
 62
7
  6
CONTINUOUS
 10
5.9410852879
 20
4.340311387
 11
5.8553569414
 21
4.340311387
  0
LINE
  5
285
100
AcDbEntity
  8
ALL_ASSEMBLY_MEMBERS
100
AcDbLine
 62
7
  6
CONTINUOUS
 10
5.9264932307
 20
4.3502517695
 11
5.8553569414
 21
4.3502517695
  0
LINE
  5
286
100
AcDbEntity
  8
ALL_ASSEMBLY_MEMBERS
100
AcDbLine
 62
7
  6
CONTINUOUS
 10
5.9283172378
 20
4.3601108608
 11
5.9137251755
 21
4.3601108608
  0
LINE
  5
287
100
AcDbEntity
  8
ALL_ASSEMBLY_MEMBERS
100
AcDbLine
 62
7
  6
CONTINUOUS
 10
5.9410852879
 20
4.3722816002
 11
5.8553569414
 21
4.3722816002
  0
LINE
  5
288
100
AcDbEntity
  8
ALL_ASSEMBLY_MEMBERS
100
AcDbLine
 62
7
  6
CONTINUOUS
 10
5.9410852879
 20
4.3731292994
 11
5.8553569414
 21
4.3731292994
  0
LINE
  5
289
100
AcDbEntity
  8
ALL_ASSEMBLY_MEMBERS
100
AcDbLine
 62
7
  6
CONTINUOUS
 10
5.9264932307
 20
4.3827972795
 11
5.8553569414
 21
4.3827972795
  0
LINE
  5
28A
100
AcDbEntity
  8
ALL_ASSEMBLY_MEMBERS
100
AcDbLine
 62
7
  6
CONTINUOUS
 10
5.9283172378
 20
4.3923824437
 11
5.9137251755
 21
4.3923824437
  0
LINE
  5
28B
100
AcDbEntity
  8
ALL_ASSEMBLY_MEMBERS
100
AcDbLine
 62
7
  6
CONTINUOUS
 10
4.5463018233
 20
4.4135287267
 11
4.5962233067
 21
4.4135287267
  0
LINE
  5
28C
100
AcDbEntity
  8
ALL_ASSEMBLY_MEMBERS
100
AcDbLine
 62
7
  6
CONTINUOUS
 10
4.7463649369
 20
4.4135287267
 11
4.7963018233
 21
4.4135287267
  0
LINE
  5
28D
100
AcDbEntity
  8
ALL_ASSEMBLY_MEMBERS
100
AcDbLine
 62
7
  6
CONTINUOUS
 10
5.8553569414
 20
4.6479930742
 11
5.8553569414
 21
4.6438126925
  0
LINE
  5
28E
100
AcDbEntity
  8
ALL_ASSEMBLY_MEMBERS
100
AcDbLine
 62
7
  6
CONTINUOUS
 10
5.8553569414
 20
3.6805124341
 11
5.8553569414
 21
3.6837626792
  0
LINE
  5
28F
100
AcDbEntity
  8
ALL_ASSEMBLY_MEMBERS
100
AcDbLine
 62
7
  6
CONTINUOUS
 10
5.8553569414
 20
3.9901320985
 11
5.8553569414
 21
4.0380835476
  0
LINE
  5
290
100
AcDbEntity
  8
ALL_ASSEMBLY_MEMBERS
100
AcDbLine
 62
7
  6
CONTINUOUS
 10
5.8553569414
 20
4.0479408992
 11
5.8553569414
 21
4.0568762802
  0
LINE
  5
291
100
AcDbEntity
  8
ALL_ASSEMBLY_MEMBERS
100
AcDbLine
 62
7
  6
CONTINUOUS
 10
5.8553569414
 20
4.1507334511
 11
5.8553569414
 21
4.1763240023
  0
LINE
  5
292
100
AcDbEntity
  8
ALL_ASSEMBLY_MEMBERS
100
AcDbLine
 62
7
  6
CONTINUOUS
 10
5.8553569414
 20
4.2911226288
 11
5.8553569414
 21
4.3014553965
  0
LINE
  5
293
100
AcDbEntity
  8
ALL_ASSEMBLY_MEMBERS
100
AcDbLine
 62
7
  6
CONTINUOUS
 10
5.8553569414
 20
4.3394675332
 11
5.8553569414
 21
4.3502517695
  0
LINE
  5
294
100
AcDbEntity
  8
ALL_ASSEMBLY_MEMBERS
100
AcDbLine
 62
7
  6
CONTINUOUS
 10
5.8553569414
 20
4.3722816002
 11
5.8553569414
 21
4.3827972795
  0
LINE
  5
295
100
AcDbEntity
  8
ALL_ASSEMBLY_MEMBERS
100
AcDbLine
 62
7
  6
CONTINUOUS
 10
5.8553569414
 20
4.5511140822
 11
5.8553569414
 21
4.5678133948
  0
LINE
  5
296
100
AcDbEntity
  8
ALL_ASSEMBLY_MEMBERS
100
AcDbLine
 62
7
  6
CONTINUOUS
 10
5.8571809488
 20
4.6482061543
 11
5.8571809488
 21
4.6469682919
  0
LINE
  5
297
100
AcDbEntity
  8
ALL_ASSEMBLY_MEMBERS
100
AcDbLine
 62
7
  6
CONTINUOUS
 10
5.8571809488
 20
4.6454683882
 11
5.8571809488
 21
4.6429873954
  0
LINE
  5
298
100
AcDbEntity
  8
ALL_ASSEMBLY_MEMBERS
100
AcDbLine
 62
7
  6
CONTINUOUS
 10
5.8571809488
 20
4.2824494738
 11
5.8571809488
 21
4.2816015072
  0
LINE
  5
299
100
AcDbEntity
  8
ALL_ASSEMBLY_MEMBERS
100
AcDbLine
 62
7
  6
CONTINUOUS
 10
5.8571809488
 20
3.9647112692
 11
5.8571809488
 21
3.9655571725
  0
LINE
  5
29A
100
AcDbEntity
  8
ALL_ASSEMBLY_MEMBERS
100
AcDbLine
 62
7
  6
CONTINUOUS
 10
5.8626529707
 20
4.6482763699
 11
5.8626529707
 21
4.6474258035
  0
LINE
  5
29B
100
AcDbEntity
  8
ALL_ASSEMBLY_MEMBERS
100
AcDbLine
 62
7
  6
CONTINUOUS
 10
5.8626529707
 20
4.6446750231
 11
5.8626529707
 21
4.6421899181
  0
LINE
  5
29C
100
AcDbEntity
  8
ALL_ASSEMBLY_MEMBERS
100
AcDbLine
 62
7
  6
CONTINUOUS
 10
5.8626529707
 20
4.2737191756
 11
5.8626529707
 21
4.2728694546
  0
LINE
  5
29D
100
AcDbEntity
  8
ALL_ASSEMBLY_MEMBERS
100
AcDbLine
 62
7
  6
CONTINUOUS
 10
5.8626529707
 20
3.9710162425
 11
5.8626529707
 21
3.9718613419
  0
LINE
  5
29E
100
AcDbEntity
  8
ALL_ASSEMBLY_MEMBERS
100
AcDbLine
 62
7
  6
CONTINUOUS
 10
5.8644769785
 20
3.9901320985
 11
5.8644769785
 21
4.0266191245
  0
LINE
  5
29F
100
AcDbEntity
  8
ALL_ASSEMBLY_MEMBERS
100
AcDbLine
 62
7
  6
CONTINUOUS
 10
5.8644769785
 20
4.0372368343
 11
5.8644769785
 21
4.0380835476
  0
LINE
  5
2A0
100
AcDbEntity
  8
ALL_ASSEMBLY_MEMBERS
100
AcDbLine
 62
7
  6
CONTINUOUS
 10
5.8644769785
 20
4.2911226288
 11
5.8644769785
 21
4.3014553965
  0
LINE
  5
2A1
100
AcDbEntity
  8
ALL_ASSEMBLY_MEMBERS
100
AcDbLine
 62
7
  6
CONTINUOUS
 10
5.8663009856
 20
4.6468649995
 11
5.8663009856
 21
4.6456151359
  0
LINE
  5
2A2
100
AcDbEntity
  8
ALL_ASSEMBLY_MEMBERS
100
AcDbLine
 62
7
  6
CONTINUOUS
 10
5.8663009856
 20
4.3082986264
 11
5.8663009856
 21
4.3074541319
  0
LINE
  5
2A3
100
AcDbEntity
  8
ALL_ASSEMBLY_MEMBERS
100
AcDbLine
 62
7
  6
CONTINUOUS
 10
5.8663009856
 20
3.9509588959
 11
5.8663009856
 21
3.9518071858
  0
LINE
  5
2A4
100
AcDbEntity
  8
ALL_ASSEMBLY_MEMBERS
100
AcDbLine
 62
7
  6
CONTINUOUS
 10
5.8681249928
 20
4.6482716782
 11
5.8681249928
 21
4.6476532267
  0
LINE
  5
2A5
100
AcDbEntity
  8
ALL_ASSEMBLY_MEMBERS
100
AcDbLine
 62
7
  6
CONTINUOUS
 10
5.8681249928
 20
4.6441511577
 11
5.8681249928
 21
4.64166333
  0
LINE
  5
2A6
100
AcDbEntity
  8
ALL_ASSEMBLY_MEMBERS
100
AcDbLine
 62
7
  6
CONTINUOUS
 10
5.8681249928
 20
3.9748153272
 11
5.8681249928
 21
3.9756600275
  0
LINE
  5
2A7
100
AcDbEntity
  8
ALL_ASSEMBLY_MEMBERS
100
AcDbLine
 62
7
  6
CONTINUOUS
 10
5.869949
 20
4.6471630803
 11
5.869949
 21
4.6451629795
  0
LINE
  5
2A8
100
AcDbEntity
  8
ALL_ASSEMBLY_MEMBERS
100
AcDbLine
 62
7
  6
CONTINUOUS
 10
5.869949
 20
4.3134073354
 11
5.869949
 21
4.312563219
  0
LINE
  5
2A9
100
AcDbEntity
  8
ALL_ASSEMBLY_MEMBERS
100
AcDbLine
 62
7
  6
CONTINUOUS
 10
5.869949
 20
4.2684534215
 11
5.869949
 21
4.2676025009
  0
LINE
  5
2AA
100
AcDbEntity
  8
ALL_ASSEMBLY_MEMBERS
100
AcDbLine
 62
7
  6
CONTINUOUS
 10
5.869949
 20
3.9472366746
 11
5.869949
 21
3.948085765
  0
LINE
  5
2AB
100
AcDbEntity
  8
ALL_ASSEMBLY_MEMBERS
100
AcDbLine
 62
7
  6
CONTINUOUS
 10
5.8754210227
 20
4.6482490421
 11
5.8754210227
 21
4.6477852558
  0
LINE
  5
2AC
100
AcDbEntity
  8
ALL_ASSEMBLY_MEMBERS
100
AcDbLine
 62
7
  6
CONTINUOUS
 10
5.8754210227
 20
4.6437819062
 11
5.8754210227
 21
4.6412921557
  0
LINE
  5
2AD
100
AcDbEntity
  8
ALL_ASSEMBLY_MEMBERS
100
AcDbLine
 62
7
  6
CONTINUOUS
 10
5.8754210227
 20
3.9773547467
 11
5.8754210227
 21
3.9781992156
  0
LINE
  5
2AE
100
AcDbEntity
  8
ALL_ASSEMBLY_MEMBERS
100
AcDbLine
 62
7
  6
CONTINUOUS
 10
5.8772450298
 20
4.3159579457
 11
5.8772450298
 21
4.3269314017
  0
LINE
  5
2AF
100
AcDbEntity
  8
ALL_ASSEMBLY_MEMBERS
100
AcDbLine
 62
7
  6
CONTINUOUS
 10
5.879069037
 20
4.2649313706
 11
5.879069037
 21
4.2640795882
  0
LINE
  5
2B0
100
AcDbEntity
  8
ALL_ASSEMBLY_MEMBERS
100
AcDbLine
 62
7
  6
CONTINUOUS
 10
5.8808930442
 20
4.6482318709
 11
5.8808930442
 21
4.6478453995
  0
LINE
  5
2B1
100
AcDbEntity
  8
ALL_ASSEMBLY_MEMBERS
100
AcDbLine
 62
7
  6
CONTINUOUS
 10
5.8808930442
 20
4.6475055305
 11
5.8808930442
 21
4.6450350344
  0
LINE
  5
2B2
100
AcDbEntity
  8
ALL_ASSEMBLY_MEMBERS
100
AcDbLine
 62
7
  6
CONTINUOUS
 10
5.8808930442
 20
4.6435912657
 11
5.8808930442
 21
4.6411005214
  0
LINE
  5
2B3
100
AcDbEntity
  8
ALL_ASSEMBLY_MEMBERS
100
AcDbLine
 62
7
  6
CONTINUOUS
 10
5.8808930442
 20
3.9422927636
 11
5.8808930442
 21
3.9431430226
  0
LINE
  5
2B4
100
AcDbEntity
  8
ALL_ASSEMBLY_MEMBERS
100
AcDbLine
 62
7
  6
CONTINUOUS
 10
5.8808930442
 20
3.9786264681
 11
5.8808930442
 21
3.9794708315
  0
LINE
  5
2B5
100
AcDbEntity
  8
ALL_ASSEMBLY_MEMBERS
100
AcDbLine
 62
7
  6
CONTINUOUS
 10
5.8863650656
 20
4.2649313706
 11
5.8863650656
 21
4.2640795882
  0
LINE
  5
2B6
100
AcDbEntity
  8
ALL_ASSEMBLY_MEMBERS
100
AcDbLine
 62
7
  6
CONTINUOUS
 10
5.8900130825
 20
4.6482107972
 11
5.8900130825
 21
4.647901631
  0
LINE
  5
2B7
100
AcDbEntity
  8
ALL_ASSEMBLY_MEMBERS
100
AcDbLine
 62
7
  6
CONTINUOUS
 10
5.8900130825
 20
4.6433966084
 11
5.8900130825
 21
4.6409048484
  0
LINE
  5
2B8
100
AcDbEntity
  8
ALL_ASSEMBLY_MEMBERS
100
AcDbLine
 62
7
  6
CONTINUOUS
 10
5.8900130825
 20
3.9798995202
 11
5.8900130825
 21
3.9807437851
  0
LINE
  5
2B9
100
AcDbEntity
  8
ALL_ASSEMBLY_MEMBERS
100
AcDbLine
 62
7
  6
CONTINUOUS
 10
5.8918370896
 20
4.6475813378
 11
5.8918370896
 21
4.6451112306
  0
LINE
  5
2BA
100
AcDbEntity
  8
ALL_ASSEMBLY_MEMBERS
100
AcDbLine
 62
7
  6
CONTINUOUS
 10
5.8918370896
 20
3.9410602026
 11
5.8918370896
 21
3.9419107721
  0
LINE
  5
2BB
100
AcDbEntity
  8
ALL_ASSEMBLY_MEMBERS
100
AcDbLine
 62
7
  6
CONTINUOUS
 10
5.8936610968
 20
4.3142617126
 11
5.8936610968
 21
4.3269314017
  0
LINE
  5
2BC
100
AcDbEntity
  8
ALL_ASSEMBLY_MEMBERS
100
AcDbLine
 62
7
  6
CONTINUOUS
 10
5.8954851039
 20
4.2684534215
 11
5.8954851039
 21
4.2676025009
  0
LINE
  5
2BD
100
AcDbEntity
  8
ALL_ASSEMBLY_MEMBERS
100
AcDbLine
 62
7
  6
CONTINUOUS
 10
5.8954851039
 20
3.6788066759
 11
5.8954851039
 21
3.6805124341
  0
LINE
  5
2BE
100
AcDbEntity
  8
ALL_ASSEMBLY_MEMBERS
100
AcDbLine
 62
7
  6
CONTINUOUS
 10
5.8991331183
 20
4.3082986264
 11
5.8991331183
 21
4.3074541319
  0
LINE
  5
2BF
100
AcDbEntity
  8
ALL_ASSEMBLY_MEMBERS
100
AcDbLine
 62
7
  6
CONTINUOUS
 10
5.9009571254
 20
4.2911226288
 11
5.9009571254
 21
4.3014553965
  0
LINE
  5
2C0
100
AcDbEntity
  8
ALL_ASSEMBLY_MEMBERS
100
AcDbLine
 62
7
  6
CONTINUOUS
 10
5.9027811326
 20
4.2737191756
 11
5.9027811326
 21
4.2728694546
  0
LINE
  5
2C1
100
AcDbEntity
  8
ALL_ASSEMBLY_MEMBERS
100
AcDbLine
 62
7
  6
CONTINUOUS
 10
5.9046051397
 20
4.6475813378
 11
5.9046051397
 21
4.6451112306
  0
LINE
  5
2C2
100
AcDbEntity
  8
ALL_ASSEMBLY_MEMBERS
100
AcDbLine
 62
7
  6
CONTINUOUS
 10
5.9046051397
 20
3.9410602026
 11
5.9046051397
 21
3.9419107721
  0
LINE
  5
2C3
100
AcDbEntity
  8
ALL_ASSEMBLY_MEMBERS
100
AcDbLine
 62
7
  6
CONTINUOUS
 10
5.9064291469
 20
4.6482107972
 11
5.9064291469
 21
4.647901631
  0
LINE
  5
2C4
100
AcDbEntity
  8
ALL_ASSEMBLY_MEMBERS
100
AcDbLine
 62
7
  6
CONTINUOUS
 10
5.9064291469
 20
4.6433966084
 11
5.9064291469
 21
4.6409048484
  0
LINE
  5
2C5
100
AcDbEntity
  8
ALL_ASSEMBLY_MEMBERS
100
AcDbLine
 62
7
  6
CONTINUOUS
 10
5.9064291469
 20
3.6788066759
 11
5.9064291469
 21
3.6805124341
  0
LINE
  5
2C6
100
AcDbEntity
  8
ALL_ASSEMBLY_MEMBERS
100
AcDbLine
 62
7
  6
CONTINUOUS
 10
5.9064291469
 20
3.9798995202
 11
5.9064291469
 21
3.9807437851
  0
LINE
  5
2C7
100
AcDbEntity
  8
ALL_ASSEMBLY_MEMBERS
100
AcDbLine
 62
7
  6
CONTINUOUS
 10
5.908253154
 20
4.2824494738
 11
5.908253154
 21
4.2816015072
  0
LINE
  5
2C8
100
AcDbEntity
  8
ALL_ASSEMBLY_MEMBERS
100
AcDbLine
 62
7
  6
CONTINUOUS
 10
5.9100771612
 20
4.0004501172
 11
5.9100771612
 21
4.0012937371
  0
LINE
  5
2C9
100
AcDbEntity
  8
ALL_ASSEMBLY_MEMBERS
100
AcDbLine
 62
7
  6
CONTINUOUS
 10
5.9100771612
 20
4.2911226288
 11
5.9100771612
 21
4.3014553965
  0
LINE
  5
2CA
100
AcDbEntity
  8
ALL_ASSEMBLY_MEMBERS
100
AcDbLine
 62
7
  6
CONTINUOUS
 10
5.9104750517
 20
3.6877164446
 11
5.9104750517
 21
3.6852165378
  0
LINE
  5
2CB
100
AcDbEntity
  8
ALL_ASSEMBLY_MEMBERS
100
AcDbLine
 62
7
  6
CONTINUOUS
 10
5.9137251755
 20
4.3923824437
 11
5.9137251755
 21
4.3915301418
  0
LINE
  5
2CC
100
AcDbEntity
  8
ALL_ASSEMBLY_MEMBERS
100
AcDbLine
 62
7
  6
CONTINUOUS
 10
5.9137251755
 20
4.3601108608
 11
5.9137251755
 21
4.3592652629
  0
LINE
  5
2CD
100
AcDbEntity
  8
ALL_ASSEMBLY_MEMBERS
100
AcDbLine
 62
7
  6
CONTINUOUS
 10
5.9137251755
 20
4.0641602133
 11
5.9137251755
 21
4.0650125152
  0
LINE
  5
2CE
100
AcDbEntity
  8
ALL_ASSEMBLY_MEMBERS
100
AcDbLine
 62
7
  6
CONTINUOUS
 10
5.9155491826
 20
4.6482318709
 11
5.9155491826
 21
4.6478453995
  0
LINE
  5
2CF
100
AcDbEntity
  8
ALL_ASSEMBLY_MEMBERS
100
AcDbLine
 62
7
  6
CONTINUOUS
 10
5.9155491826
 20
4.6475055305
 11
5.9155491826
 21
4.6450350344
  0
LINE
  5
2D0
100
AcDbEntity
  8
ALL_ASSEMBLY_MEMBERS
100
AcDbLine
 62
7
  6
CONTINUOUS
 10
5.9155491826
 20
4.6435912657
 11
5.9155491826
 21
4.6411005214
  0
LINE
  5
2D1
100
AcDbEntity
  8
ALL_ASSEMBLY_MEMBERS
100
AcDbLine
 62
7
  6
CONTINUOUS
 10
5.9155491826
 20
3.9422927636
 11
5.9155491826
 21
3.9431430226
  0
LINE
  5
2D2
100
AcDbEntity
  8
ALL_ASSEMBLY_MEMBERS
100
AcDbLine
 62
7
  6
CONTINUOUS
 10
5.9155491826
 20
3.9786264681
 11
5.9155491826
 21
3.9794708315
  0
LINE
  5
2D3
100
AcDbEntity
  8
ALL_ASSEMBLY_MEMBERS
100
AcDbLine
 62
7
  6
CONTINUOUS
 10
5.9173731898
 20
3.9978626077
 11
5.9173731898
 21
3.9987062125
  0
LINE
  5
2D4
100
AcDbEntity
  8
ALL_ASSEMBLY_MEMBERS
100
AcDbLine
 62
7
  6
CONTINUOUS
 10
5.9210212092
 20
4.6482490421
 11
5.9210212092
 21
4.6477852558
  0
LINE
  5
2D5
100
AcDbEntity
  8
ALL_ASSEMBLY_MEMBERS
100
AcDbLine
 62
7
  6
CONTINUOUS
 10
5.9210212092
 20
4.6437819062
 11
5.9210212092
 21
4.6412921557
  0
LINE
  5
2D6
100
AcDbEntity
  8
ALL_ASSEMBLY_MEMBERS
100
AcDbLine
 62
7
  6
CONTINUOUS
 10
5.9210212092
 20
3.9773547467
 11
5.9210212092
 21
3.9781992156
  0
LINE
  5
2D7
100
AcDbEntity
  8
ALL_ASSEMBLY_MEMBERS
100
AcDbLine
 62
7
  6
CONTINUOUS
 10
5.9210212092
 20
3.9978626077
 11
5.9210212092
 21
3.9987062125
  0
LINE
  5
2D8
100
AcDbEntity
  8
ALL_ASSEMBLY_MEMBERS
100
AcDbLine
 62
7
  6
CONTINUOUS
 10
5.9210212092
 20
4.02926548
 11
5.9210212092
 21
4.0367514167
  0
LINE
  5
2D9
100
AcDbEntity
  8
ALL_ASSEMBLY_MEMBERS
100
AcDbLine
 62
7
  6
CONTINUOUS
 10
5.9264932307
 20
4.6471630803
 11
5.9264932307
 21
4.6451629795
  0
LINE
  5
2DA
100
AcDbEntity
  8
ALL_ASSEMBLY_MEMBERS
100
AcDbLine
 62
7
  6
CONTINUOUS
 10
5.9264932307
 20
3.9472366746
 11
5.9264932307
 21
3.948085765
  0
LINE
  5
2DB
100
AcDbEntity
  8
ALL_ASSEMBLY_MEMBERS
100
AcDbLine
 62
7
  6
CONTINUOUS
 10
5.9264932307
 20
4.0004501172
 11
5.9264932307
 21
4.0012937371
  0
LINE
  5
2DC
100
AcDbEntity
  8
ALL_ASSEMBLY_MEMBERS
100
AcDbLine
 62
7
  6
CONTINUOUS
 10
5.9283172378
 20
4.6482716782
 11
5.9283172378
 21
4.6476532267
  0
LINE
  5
2DD
100
AcDbEntity
  8
ALL_ASSEMBLY_MEMBERS
100
AcDbLine
 62
7
  6
CONTINUOUS
 10
5.9283172378
 20
4.6441511577
 11
5.9283172378
 21
4.64166333
  0
LINE
  5
2DE
100
AcDbEntity
  8
ALL_ASSEMBLY_MEMBERS
100
AcDbLine
 62
7
  6
CONTINUOUS
 10
5.9283172378
 20
3.9748153272
 11
5.9283172378
 21
3.9756600275
  0
LINE
  5
2DF
100
AcDbEntity
  8
ALL_ASSEMBLY_MEMBERS
100
AcDbLine
 62
7
  6
CONTINUOUS
 10
5.9283172378
 20
4.0345743291
 11
5.9283172378
 21
4.035420641
  0
LINE
  5
2E0
100
AcDbEntity
  8
ALL_ASSEMBLY_MEMBERS
100
AcDbLine
 62
7
  6
CONTINUOUS
 10
5.9283172378
 20
4.0641602133
 11
5.9283172378
 21
4.0650125152
  0
LINE
  5
2E1
100
AcDbEntity
  8
ALL_ASSEMBLY_MEMBERS
100
AcDbLine
 62
7
  6
CONTINUOUS
 10
5.930141245
 20
4.6468649995
 11
5.930141245
 21
4.6456151359
  0
LINE
  5
2E2
100
AcDbEntity
  8
ALL_ASSEMBLY_MEMBERS
100
AcDbLine
 62
7
  6
CONTINUOUS
 10
5.930141245
 20
3.6787787322
 11
5.930141245
 21
3.6805124341
  0
LINE
  5
2E3
100
AcDbEntity
  8
ALL_ASSEMBLY_MEMBERS
100
AcDbLine
 62
7
  6
CONTINUOUS
 10
5.930141245
 20
3.9509588959
 11
5.930141245
 21
3.9518071858
  0
LINE
  5
2E4
100
AcDbEntity
  8
ALL_ASSEMBLY_MEMBERS
100
AcDbLine
 62
7
  6
CONTINUOUS
 10
5.930141245
 20
4.004341394
 11
5.930141245
 21
4.0051850876
  0
LINE
  5
2E5
100
AcDbEntity
  8
ALL_ASSEMBLY_MEMBERS
100
AcDbLine
 62
7
  6
CONTINUOUS
 10
5.9319652521
 20
4.0108535559
 11
5.9319652521
 21
4.0160873309
  0
LINE
  5
2E6
100
AcDbEntity
  8
ALL_ASSEMBLY_MEMBERS
100
AcDbLine
 62
7
  6
CONTINUOUS
 10
5.9319652521
 20
4.2676025009
 11
5.9319652521
 21
4.3184957516
  0
LINE
  5
2E7
100
AcDbEntity
  8
ALL_ASSEMBLY_MEMBERS
100
AcDbLine
 62
7
  6
CONTINUOUS
 10
5.9337892593
 20
4.6482763699
 11
5.9337892593
 21
4.6474258035
  0
LINE
  5
2E8
100
AcDbEntity
  8
ALL_ASSEMBLY_MEMBERS
100
AcDbLine
 62
7
  6
CONTINUOUS
 10
5.9337892593
 20
4.6446750231
 11
5.9337892593
 21
4.6421899181
  0
LINE
  5
2E9
100
AcDbEntity
  8
ALL_ASSEMBLY_MEMBERS
100
AcDbLine
 62
7
  6
CONTINUOUS
 10
5.9337892593
 20
3.9710162425
 11
5.9337892593
 21
3.9718613419
  0
LINE
  5
2EA
100
AcDbEntity
  8
ALL_ASSEMBLY_MEMBERS
100
AcDbLine
 62
7
  6
CONTINUOUS
 10
5.9356132664
 20
4.02926548
 11
5.9356132664
 21
4.0301110736
  0
LINE
  5
2EB
100
AcDbEntity
  8
ALL_ASSEMBLY_MEMBERS
100
AcDbLine
 62
7
  6
CONTINUOUS
 10
5.9392612807
 20
4.6482061543
 11
5.9392612807
 21
4.6469682919
  0
LINE
  5
2EC
100
AcDbEntity
  8
ALL_ASSEMBLY_MEMBERS
100
AcDbLine
 62
7
  6
CONTINUOUS
 10
5.9392612807
 20
4.6454683882
 11
5.9392612807
 21
4.6429873954
  0
LINE
  5
2ED
100
AcDbEntity
  8
ALL_ASSEMBLY_MEMBERS
100
AcDbLine
 62
7
  6
CONTINUOUS
 10
5.9392612807
 20
3.9647112692
 11
5.9392612807
 21
3.9655571725
  0
LINE
  5
2EE
100
AcDbEntity
  8
ALL_ASSEMBLY_MEMBERS
100
AcDbLine
 62
7
  6
CONTINUOUS
 10
5.9392612807
 20
4.0239781344
 11
5.9392612807
 21
4.024823121
  0
LINE
  5
2EF
100
AcDbEntity
  8
ALL_ASSEMBLY_MEMBERS
100
AcDbLine
 62
7
  6
CONTINUOUS
 10
5.9410852879
 20
4.6479930742
 11
5.9410852879
 21
4.6438126925
  0
LINE
  5
2F0
100
AcDbEntity
  8
ALL_ASSEMBLY_MEMBERS
100
AcDbLine
 62
7
  6
CONTINUOUS
 10
5.9410852879
 20
3.6787787362
 11
5.9410852879
 21
3.6837626792
  0
LINE
  5
2F1
100
AcDbEntity
  8
ALL_ASSEMBLY_MEMBERS
100
AcDbLine
 62
7
  6
CONTINUOUS
 10
5.9410852879
 20
4.0095484504
 11
5.9410852879
 21
4.0147768827
  0
LINE
  5
2F2
100
AcDbEntity
  8
ALL_ASSEMBLY_MEMBERS
100
AcDbLine
 62
7
  6
CONTINUOUS
 10
5.9410852879
 20
4.0479408992
 11
5.9410852879
 21
4.0568762802
  0
LINE
  5
2F3
100
AcDbEntity
  8
ALL_ASSEMBLY_MEMBERS
100
AcDbLine
 62
7
  6
CONTINUOUS
 10
5.9410852879
 20
4.2676025009
 11
5.9410852879
 21
4.3269314017
  0
LINE
  5
2F4
100
AcDbEntity
  8
ALL_ASSEMBLY_MEMBERS
100
AcDbLine
 62
7
  6
CONTINUOUS
 10
5.9410852879
 20
4.3394675332
 11
5.9410852879
 21
4.3502517695
  0
LINE
  5
2F5
100
AcDbEntity
  8
ALL_ASSEMBLY_MEMBERS
100
AcDbLine
 62
7
  6
CONTINUOUS
 10
5.9410852879
 20
4.3722816002
 11
5.9410852879
 21
4.3827972795
  0
LINE
  5
2F6
100
AcDbEntity
  8
ALL_ASSEMBLY_MEMBERS
100
AcDbLine
 62
7
  6
CONTINUOUS
 10
5.9439396186
 20
3.6877164446
 11
5.9439396186
 21
3.6852165378
  0
LINE
  5
2F7
100
AcDbEntity
  8
ALL_ASSEMBLY_MEMBERS
100
AcDbLine
 62
7
  6
CONTINUOUS
 10
5.9439396186
 20
4.1507334511
 11
5.9439396186
 21
4.1763240023
  0
LINE
  5
2F8
100
AcDbEntity
  8
ALL_ASSEMBLY_MEMBERS
100
AcDbLine
 62
7
  6
CONTINUOUS
 10
5.9439396186
 20
4.5511140822
 11
5.9439396186
 21
4.5678133948
  0
LINE
  5
2F9
100
AcDbEntity
  8
ALL_ASSEMBLY_MEMBERS
100
AcDbLine
 62
7
  6
CONTINUOUS
 10
5.9439396186
 20
4.5511140822
 11
5.8553569414
 21
4.5511140822
  0
LINE
  5
2FA
100
AcDbEntity
  8
ALL_ASSEMBLY_MEMBERS
100
AcDbLine
 62
7
  6
CONTINUOUS
 10
5.9439396186
 20
4.5531352576
 11
5.8553569414
 21
4.5531352576
  0
LINE
  5
2FB
100
AcDbEntity
  8
ALL_ASSEMBLY_MEMBERS
100
AcDbLine
 62
7
  6
CONTINUOUS
 10
5.9439396186
 20
4.5678133948
 11
5.8553569414
 21
4.5678133948
  0
LINE
  5
2FC
100
AcDbEntity
  8
ALL_ASSEMBLY_MEMBERS
100
AcDbLine
 62
7
  6
CONTINUOUS
 10
5.993152217
 20
3.6812452621
 11
5.993152217
 21
4.6458121913
  0
LINE
  5
2FD
100
AcDbEntity
  8
ALL_FEATURES
100
AcDbLine
 62
7
  6
CONTINUOUS
 10
6.013581717
 20
4.6560287267
 11
6.013581717
 21
3.6710287267
  0
LINE
  5
2FE
100
AcDbEntity
  8
0
100
AcDbLine
 62
7
  6
CONTINUOUS
 10
6.1585914378
 20
4.6560287267
 11
6.1582154365
 21
4.6560214253
  0
LINE
  5
2FF
100
AcDbEntity
  8
0
100
AcDbLine
 62
7
  6
CONTINUOUS
 10
6.1582205768
 20
4.6560215428
 11
6.1585914378
 21
4.6560287267
  0
LINE
  5
300
100
AcDbEntity
  8
ALL_ASSEMBLY_MEMBERS
100
AcDbLine
 62
7
  6
CONTINUOUS
 10
5.9064291469
 20
4.6409048484
 11
5.8900130825
 21
4.6409048484
  0
LINE
  5
301
100
AcDbEntity
  8
ALL_ASSEMBLY_MEMBERS
100
AcDbLine
 62
7
  6
CONTINUOUS
 10
5.9064291469
 20
4.6433966084
 11
5.8900130825
 21
4.6433966084
  0
LINE
  5
302
100
AcDbEntity
  8
ALL_ASSEMBLY_MEMBERS
100
AcDbLine
 62
7
  6
CONTINUOUS
 10
5.9046051397
 20
4.6443297768
 11
5.8918370896
 21
4.6443297768
  0
LINE
  5
303
100
AcDbEntity
  8
ALL_ASSEMBLY_MEMBERS
100
AcDbLine
 62
7
  6
CONTINUOUS
 10
5.9046051397
 20
4.6451112306
 11
5.8918370896
 21
4.6451112306
  0
LINE
  5
304
100
AcDbEntity
  8
ALL_ASSEMBLY_MEMBERS
100
AcDbLine
 62
7
  6
CONTINUOUS
 10
5.7963018233
 20
4.6458121913
 11
5.8553569414
 21
4.6458121913
  0
LINE
  5
305
100
AcDbEntity
  8
ALL_ASSEMBLY_MEMBERS
100
AcDbLine
 62
7
  6
CONTINUOUS
 10
5.9410852879
 20
4.6458121913
 11
5.993152217
 21
4.6458121913
  0
LINE
  5
306
100
AcDbEntity
  8
ALL_ASSEMBLY_MEMBERS
100
AcDbLine
 62
7
  6
CONTINUOUS
 10
5.9046051397
 20
4.6475813378
 11
5.8918370896
 21
4.6475813378
  0
LINE
  5
307
100
AcDbEntity
  8
ALL_ASSEMBLY_MEMBERS
100
AcDbLine
 62
7
  6
CONTINUOUS
 10
5.9064291469
 20
4.647901631
 11
5.8900130825
 21
4.647901631
  0
LINE
  5
308
100
AcDbEntity
  8
ALL_ASSEMBLY_MEMBERS
100
AcDbLine
 62
7
  6
CONTINUOUS
 10
5.9064291469
 20
4.6482107972
 11
5.8900130825
 21
4.6482107972
  0
LINE
  5
309
100
AcDbEntity
  8
ALL_ASSEMBLY_MEMBERS
100
AcDbLine
 62
7
  6
CONTINUOUS
 10
5.7963018233
 20
4.6485287267
 11
5.5558018233
 21
4.6485287267
  0
LINE
  5
30A
100
AcDbEntity
  8
ALL_ASSEMBLY_MEMBERS
100
AcDbLine
 62
7
  6
CONTINUOUS
 10
5.3808018233
 20
4.6485287267
 11
5.368837898
 21
4.6485287267
  0
LINE
  5
30B
100
AcDbEntity
  8
0
100
AcDbLine
 62
7
  6
CONTINUOUS
 10
6.148581717
 20
4.6559272039
 11
6.068581717
 21
4.6559272039
  0
LINE
  5
30C
100
AcDbEntity
  8
ALL_FEATURES
100
AcDbLine
 62
7
  6
CONTINUOUS
 10
6.013581717
 20
4.6560287267
 11
6.058581717
 21
4.6560287267
  0
LINE
  5
30D
100
AcDbEntity
  8
ALL_FEATURES
100
AcDbLine
 62
7
  6
CONTINUOUS
 10
6.158581717
 20
4.6560287267
 11
6.208801717
 21
4.6560287267
  0
LINE
  5
30E
100
AcDbEntity
  8
0
100
AcDbLine
 62
7
  6
CONTINUOUS
 10
6.0585720013
 20
4.6560287267
 11
6.0589416635
 21
4.656021566
  0
LINE
  5
30F
100
AcDbEntity
  8
0
100
AcDbLine
 62
7
  6
CONTINUOUS
 10
6.0589472864
 20
4.6560214425
 11
6.0585719991
 21
4.6560287267
  0
LINE
  5
310
100
AcDbEntity
  8
ALL_ASSEMBLY_MEMBERS
100
AcDbLine
 62
7
  6
CONTINUOUS
 10
6.208801717
 20
3.6335297462
 11
6.208801717
 21
4.6935277072
  0
LINE
  5
311
100
AcDbEntity
  8
ALL_FEATURES
100
AcDbLine
 62
7
  6
CONTINUOUS
 10
5.4033018233
 20
4.7593119948
 11
5.5333018233
 21
4.7593119948
  0
LINE
  5
312
100
AcDbEntity
  8
ALL_FEATURES
100
AcDbLine
 62
7
  6
CONTINUOUS
 10
5.5128472779
 20
4.7877528861
 11
5.4237563688
 21
4.7877528861
  0
LINE
  5
313
100
AcDbEntity
  8
ALL_ASSEMBLY_MEMBERS
100
AcDbLine
 62
7
  6
CONTINUOUS
 10
6.288301717
 20
2.5960287267
 11
6.288301717
 21
5.7310287267
  0
LINE
  5
314
100
AcDbEntity
  8
ALL_ASSEMBLY_MEMBERS
100
AcDbLine
 62
7
  6
CONTINUOUS
 10
6.350801717
 20
2.5385287267
 11
6.350801717
 21
5.7885287267
  0
LINE
  5
315
100
AcDbEntity
  8
ALL_ASSEMBLY_MEMBERS
100
AcDbLine
 62
7
  6
CONTINUOUS
 10
6.444801717
 20
2.5385287267
 11
6.444801717
 21
5.7885287267
  0
LINE
  5
316
100
AcDbEntity
  8
ALL_ASSEMBLY_MEMBERS
100
AcDbLine
 62
7
  6
CONTINUOUS
 10
6.350801717
 20
5.7885287267
 11
6.444801717
 21
5.7885287267
  0
ARC
  5
317
100
AcDbEntity
  8
ALL_ASSEMBLY_MEMBERS
100
AcDbCircle
 62
7
  6
CONTINUOUS
 10
5.368837898
 20
3.8800287267
 40
0.2015
100
AcDbArc
 50
191.3835410059
 51
270.0
  0
ARC
  5
318
100
AcDbEntity
  8
ALL_ASSEMBLY_MEMBERS
100
AcDbCircle
 62
7
  6
CONTINUOUS
 10
5.0181255868
 20
3.8094175572
 40
0.15625
100
AcDbArc
 50
11.3835410059
 51
71.1400389567
  0
ARC
  5
319
100
AcDbEntity
  8
ALL_ASSEMBLY_MEMBERS
100
AcDbCircle
 62
7
  6
CONTINUOUS
 10
4.9688163466
 20
4.1128996147
 40
0.0532583989
100
AcDbArc
 50
93.9318769521
 51
95.4241993174
  0
ARC
  5
31A
100
AcDbEntity
  8
ALL_ASSEMBLY_MEMBERS
100
AcDbCircle
 62
7
  6
CONTINUOUS
 10
4.9688032764
 20
4.1131378306
 40
0.0530198475
100
AcDbArc
 50
90.0015702926
 51
93.9354378234
  0
ARC
  5
31B
100
AcDbEntity
  8
ALL_ASSEMBLY_MEMBERS
100
AcDbCircle
 62
7
  6
CONTINUOUS
 10
4.9462624068
 20
4.067252485
 40
0.0469559999
100
AcDbArc
 50
255.8055564443
 51
255.9741121754
  0
ARC
  5
31C
100
AcDbEntity
  8
ALL_ASSEMBLY_MEMBERS
100
AcDbCircle
 62
7
  6
CONTINUOUS
 10
4.9688017313
 20
4.1218497262
 40
0.0439408763
100
AcDbArc
 50
89.9998800517
 51
96.5049340133
  0
ARC
  5
31D
100
AcDbEntity
  8
ALL_ASSEMBLY_MEMBERS
100
AcDbCircle
 62
7
  6
CONTINUOUS
 10
4.9645205717
 20
4.1221914733
 40
0.0433218473
100
AcDbArc
 50
84.3802592697
 51
90.9216641808
  0
ARC
  5
31E
100
AcDbEntity
  8
ALL_ASSEMBLY_MEMBERS
100
AcDbCircle
 62
7
  6
CONTINUOUS
 10
4.9645713122
 20
4.1228165405
 40
0.0426948168
100
AcDbArc
 50
83.3971747668
 51
84.3658817931
  0
ARC
  5
31F
100
AcDbEntity
  8
ALL_ASSEMBLY_MEMBERS
100
AcDbCircle
 62
7
  6
CONTINUOUS
 10
4.9649529395
 20
4.1318778986
 40
0.0420460912
100
AcDbArc
 50
249.9336670433
 51
251.5385051521
  0
ARC
  5
320
100
AcDbEntity
  8
ALL_ASSEMBLY_MEMBERS
100
AcDbCircle
 62
7
  6
CONTINUOUS
 10
4.707624205
 20
4.0049900686
 40
0.041987828
100
AcDbArc
 50
337.2392979145
 51
347.244058097
  0
ARC
  5
321
100
AcDbEntity
  8
ALL_ASSEMBLY_MEMBERS
100
AcDbCircle
 62
7
  6
CONTINUOUS
 10
4.6349794259
 20
4.004990063
 40
0.0419878112
100
AcDbArc
 50
192.755837618
 51
202.7607034502
  0
ARC
  5
322
100
AcDbEntity
  8
ALL_ASSEMBLY_MEMBERS
100
AcDbCircle
 62
7
  6
CONTINUOUS
 10
4.9648947231
 20
4.1317066815
 40
0.0418652503
100
AcDbArc
 50
251.5398759301
 51
251.8000127331
  0
ARC
  5
323
100
AcDbEntity
  8
ALL_ASSEMBLY_MEMBERS
100
AcDbCircle
 62
7
  6
CONTINUOUS
 10
4.9702555064
 20
4.1266614942
 40
0.0395663792
100
AcDbArc
 50
233.5661856179
 51
242.1041427452
  0
ARC
  5
324
100
AcDbEntity
  8
ALL_ASSEMBLY_MEMBERS
100
AcDbCircle
 62
7
  6
CONTINUOUS
 10
4.9707696256
 20
4.1238986604
 40
0.0373797463
100
AcDbArc
 50
93.0176337496
 51
108.794713032
  0
ARC
  5
325
100
AcDbEntity
  8
ALL_ASSEMBLY_MEMBERS
100
AcDbCircle
 62
7
  6
CONTINUOUS
 10
4.9676515892
 20
4.1239984608
 40
0.0364212114
100
AcDbArc
 50
104.1939089201
 51
134.5633191144
  0
ARC
  5
326
100
AcDbEntity
  8
ALL_ASSEMBLY_MEMBERS
100
AcDbCircle
 62
7
  6
CONTINUOUS
 10
4.9426173011
 20
4.0542173389
 40
0.0334190915
100
AcDbArc
 50
252.2278292952
 51
253.2331035984
  0
ARC
  5
327
100
AcDbEntity
  8
ALL_ASSEMBLY_MEMBERS
100
AcDbCircle
 62
7
  6
CONTINUOUS
 10
5.0793018233
 20
3.9885070057
 40
0.033
100
AcDbArc
 50
180.0
 51
251.1400389567
  0
ARC
  5
328
100
AcDbEntity
  8
ALL_ASSEMBLY_MEMBERS
100
AcDbCircle
 62
7
  6
CONTINUOUS
 10
4.9484010728
 20
4.0511471655
 40
0.0309727585
100
AcDbArc
 50
243.4139655171
 51
243.5527588241
  0
ARC
  5
329
100
AcDbEntity
  8
ALL_ASSEMBLY_MEMBERS
100
AcDbCircle
 62
7
  6
CONTINUOUS
 10
4.9413623325
 20
4.0349685241
 40
0.0155260472
100
AcDbArc
 50
243.5370029872
 51
246.1650991286
  0
ARC
  5
32A
100
AcDbEntity
  8
ALL_ASSEMBLY_MEMBERS
100
AcDbCircle
 62
7
  6
CONTINUOUS
 10
4.5464019968
 20
3.9697787267
 40
0.015
100
AcDbArc
 50
194.7630312681
 51
269.6172289742
  0
ARC
  5
32B
100
AcDbEntity
  8
ALL_ASSEMBLY_MEMBERS
100
AcDbCircle
 62
7
  6
CONTINUOUS
 10
5.2816368311
 20
4.1635287267
 40
0.7753350077
100
AcDbArc
 50
165.2369687319
 51
194.7630312681
  0
ARC
  5
32C
100
AcDbEntity
  8
ALL_ASSEMBLY_MEMBERS
100
AcDbCircle
 62
7
  6
CONTINUOUS
 10
5.368837898
 20
4.4470287267
 40
0.2015
100
AcDbArc
 50
90.0
 51
168.6164589941
  0
ARC
  5
32D
100
AcDbEntity
  8
ALL_ASSEMBLY_MEMBERS
100
AcDbCircle
 62
7
  6
CONTINUOUS
 10
4.9594622804
 20
4.173043511
 40
0.1650886955
100
AcDbArc
 50
271.5138610587
 51
272.5983565396
  0
ARC
  5
32E
100
AcDbEntity
  8
ALL_ASSEMBLY_MEMBERS
100
AcDbCircle
 62
7
  6
CONTINUOUS
 10
4.9688018265
 20
4.1719257064
 40
0.163989068
100
AcDbArc
 50
269.7103938071
 51
269.9999988984
  0
ARC
  5
32F
100
AcDbEntity
  8
ALL_ASSEMBLY_MEMBERS
100
AcDbCircle
 62
7
  6
CONTINUOUS
 10
4.9688010649
 20
4.1717972083
 40
0.1638605678
100
AcDbArc
 50
269.4203329165
 51
269.7104330048
  0
ARC
  5
330
100
AcDbEntity
  8
ALL_ASSEMBLY_MEMBERS
100
AcDbCircle
 62
7
  6
CONTINUOUS
 10
4.9687883276
 20
4.1707202537
 40
0.1627835394
100
AcDbArc
 50
268.2523110954
 51
269.4209809663
  0
ARC
  5
331
100
AcDbEntity
  8
ALL_ASSEMBLY_MEMBERS
100
AcDbCircle
 62
7
  6
CONTINUOUS
 10
5.0181255868
 20
4.5176398962
 40
0.15625
100
AcDbArc
 50
288.8599610433
 51
348.6164589941
  0
ARC
  5
332
100
AcDbEntity
  8
ALL_ASSEMBLY_MEMBERS
100
AcDbCircle
 62
7
  6
CONTINUOUS
 10
4.6684949769
 20
4.3574026477
 40
0.0801985226
100
AcDbArc
 50
226.3724460719
 51
226.6026281078
  0
ARC
  5
333
100
AcDbEntity
  8
ALL_ASSEMBLY_MEMBERS
100
AcDbCircle
 62
7
  6
CONTINUOUS
 10
4.614852421
 20
4.6232685941
 40
0.0620409321
100
AcDbArc
 50
164.7344024662
 51
166.3519988896
  0
ARC
  5
334
100
AcDbEntity
  8
ALL_ASSEMBLY_MEMBERS
100
AcDbCircle
 62
7
  6
CONTINUOUS
 10
4.7277538031
 20
4.6232692816
 40
0.0620382646
100
AcDbArc
 50
13.633765569
 51
15.2656117423
  0
ARC
  5
335
100
AcDbEntity
  8
ALL_ASSEMBLY_MEMBERS
100
AcDbCircle
 62
7
  6
CONTINUOUS
 10
4.6481779489
 20
4.3438638569
 40
0.0556141653
100
AcDbArc
 50
202.0642742499
 51
202.2459613349
  0
ARC
  5
336
100
AcDbEntity
  8
ALL_ASSEMBLY_MEMBERS
100
AcDbCircle
 62
7
  6
CONTINUOUS
 10
4.6944279792
 20
4.3438629214
 40
0.0556116993
100
AcDbArc
 50
337.7540574274
 51
337.9405317738
  0
ARC
  5
337
100
AcDbEntity
  8
ALL_ASSEMBLY_MEMBERS
100
AcDbCircle
 62
7
  6
CONTINUOUS
 10
4.6349790026
 20
4.3220675389
 40
0.0419873634
100
AcDbArc
 50
157.2392599788
 51
167.2469567887
  0
ARC
  5
338
100
AcDbEntity
  8
ALL_ASSEMBLY_MEMBERS
100
AcDbCircle
 62
7
  6
CONTINUOUS
 10
4.707624681
 20
4.3220675519
 40
0.0419873244
100
AcDbArc
 50
12.7527993774
 51
22.7607432125
  0
ARC
  5
339
100
AcDbEntity
  8
ALL_ASSEMBLY_MEMBERS
100
AcDbCircle
 62
7
  6
CONTINUOUS
 10
5.0793018233
 20
4.3385504477
 40
0.033
100
AcDbArc
 50
108.8599610433
 51
180.0
  0
ARC
  5
33A
100
AcDbEntity
  8
ALL_ASSEMBLY_MEMBERS
100
AcDbCircle
 62
7
  6
CONTINUOUS
 10
4.5464019968
 20
4.3572787267
 40
0.015
100
AcDbArc
 50
90.3827710258
 51
165.2369687319
  0
ARC
  5
33B
100
AcDbEntity
  8
ALL_ASSEMBLY_MEMBERS
100
AcDbCircle
 62
7
  6
CONTINUOUS
 10
6.288301717
 20
2.5333113354
 40
0.0627173913
100
AcDbArc
 50
4.7718880608
 51
90.0
  0
ARC
  5
33C
100
AcDbEntity
  8
ALL_ASSEMBLY_MEMBERS
100
AcDbCircle
 62
7
  6
CONTINUOUS
 10
5.9272072247
 20
3.7295573644
 40
0.0454241773
100
AcDbArc
 50
270.0001392818
 51
270.9972673083
  0
ARC
  5
33D
100
AcDbEntity
  8
0
100
AcDbCircle
 62
7
  6
CONTINUOUS
 10
6.1485812297
 20
5.1484381114
 40
0.4925109075
100
AcDbArc
 50
270.000056693
 51
271.1214557203
  0
ARC
  5
33E
100
AcDbEntity
  8
0
100
AcDbCircle
 62
7
  6
CONTINUOUS
 10
6.0685750483
 20
5.1477077617
 40
0.4917805579
100
AcDbArc
 50
268.8775733666
 51
270.0007769503
  0
ARC
  5
33F
100
AcDbEntity
  8
ALL_FEATURES
100
AcDbCircle
 62
7
  6
CONTINUOUS
 10
5.4683018233
 20
4.6550287267
 40
0.14
100
AcDbArc
 50
71.446995465
 51
108.553004535
  0
ARC
  5
340
100
AcDbEntity
  8
ALL_ASSEMBLY_MEMBERS
100
AcDbCircle
 62
7
  6
CONTINUOUS
 10
6.288301717
 20
5.793746118
 40
0.0627173913
100
AcDbArc
 50
270.0
 51
355.2281119392
  0
ARC
  5
341
100
AcDbEntity
  8
ALL_FEATURES
100
AcDbCircle
 62
7
  6
CONTINUOUS
 10
5.4333018233
 20
4.7593119948
 40
0.03
100
AcDbArc
 50
108.553004535
 51
180.0
  0
ARC
  5
342
100
AcDbEntity
  8
ALL_FEATURES
100
AcDbCircle
 62
7
  6
CONTINUOUS
 10
5.5033018233
 20
4.7593119948
 40
0.03
100
AcDbArc
 50
0.0
 51
71.446995465
  0
SPLINE
  5
343
100
AcDbEntity
  8
ALL_ASSEMBLY_MEMBERS
100
AcDbSpline
 62
7
  6
CONTINUOUS
 70
0
 71
3
 72
20
 73
16
 74
0
 42
0.0000001
 43
0.0000001
 44
0.0000000001
 40
0.0
 40
0.0
 40
0.0
 40
0.0
 40
0.1246278246
 40
0.1838649438
 40
0.2415995255
 40
0.2983284958
 40
0.3545797367
 40
0.4108987572
 40
0.4678329137
 40
0.5259110157
 40
0.5856277362
 40
0.7116323306
 40
0.7787853555
 40
0.8490825442
 40
1.0
 40
1.0
 40
1.0
 40
1.0
 10
4.9354454777
 20
4.0238031613
 30
0.0
 10
4.9353213173
 20
4.0235999826
 30
0.0
 10
4.935159636
 20
4.0232856623
 30
0.0
 10
4.9350062229
 20
4.0228497461
 30
0.0
 10
4.9349261712
 20
4.0225271077
 30
0.0
 10
4.9348794185
 20
4.0222037542
 30
0.0
 10
4.9348660805
 20
4.0218799933
 30
0.0
 10
4.9348862597
 20
4.0215561932
 30
0.0
 10
4.9349400209
 20
4.0212327332
 30
0.0
 10
4.9350272706
 20
4.0209099438
 30
0.0
 10
4.9351908927
 20
4.0204732171
 30
0.0
 10
4.9354212951
 20
4.0200455665
 30
0.0
 10
4.9357081105
 20
4.0196316069
 30
0.0
 10
4.9360527247
 20
4.0192012454
 30
0.0
 10
4.9363483909
 20
4.0188974856
 30
0.0
 10
4.9365594664
 20
4.0187010486
 30
0.0
  0
SPLINE
  5
344
100
AcDbEntity
  8
ALL_ASSEMBLY_MEMBERS
100
AcDbSpline
 62
7
  6
CONTINUOUS
 70
0
 71
3
 72
29
 73
25
 74
0
 42
0.0000001
 43
0.0000001
 44
0.0000000001
 40
0.0
 40
0.0
 40
0.0
 40
0.0
 40
0.0814626591
 40
0.1624759502
 40
0.242469141
 40
0.3209634663
 40
0.3974987506
 40
0.471612194
 40
0.5428570646
 40
0.6108207763
 40
0.6751169411
 40
0.735396936
 40
0.7639331952
 40
0.7913546681
 40
0.8176305096
 40
0.8427325829
 40
0.8666399729
 40
0.8893368884
 40
0.9108113227
 40
0.9310571625
 40
0.950079491
 40
0.9678924614
 40
0.9845199478
 40
1.0
 40
1.0
 40
1.0
 40
1.0
 10
4.9688018233
 20
4.0106164624
 30
0.0
 10
4.9679636772
 20
4.0106164624
 30
0.0
 10
4.9662919553
 20
4.0106340385
 30
0.0
 10
4.9637983218
 20
4.0107127339
 30
0.0
 10
4.9613374389
 20
4.0108434779
 30
0.0
 10
4.9589259899
 20
4.0110252267
 30
0.0
 10
4.9565795857
 20
4.0112568601
 30
0.0
 10
4.9543135554
 20
4.0115367078
 30
0.0
 10
4.9521428669
 20
4.0118630502
 30
0.0
 10
4.9500817785
 20
4.0122335489
 30
0.0
 10
4.9481438113
 20
4.012645849
 30
0.0
 10
4.946615211
 20
4.0130284933
 30
0.0
 10
4.9454646887
 20
4.0133552366
 30
0.0
 10
4.9446560693
 20
4.0136044615
 30
0.0
 10
4.9438872017
 20
4.0138619264
 30
0.0
 10
4.9431593689
 20
4.0141272582
 30
0.0
 10
4.9424737423
 20
4.0143999918
 30
0.0
 10
4.9418314077
 20
4.0146796564
 30
0.0
 10
4.9412334152
 20
4.014965799
 30
0.0
 10
4.9406807626
 20
4.015258014
 30
0.0
 10
4.9401743033
 20
4.0155557925
 30
0.0
 10
4.9397147942
 20
4.0158586637
 30
0.0
 10
4.9393030043
 20
4.0161661564
 30
0.0
 10
4.9390520165
 20
4.0163814847
 30
0.0
 10
4.938935429
 20
4.0164899939
 30
0.0
  0
SPLINE
  5
345
100
AcDbEntity
  8
ALL_ASSEMBLY_MEMBERS
100
AcDbSpline
 62
7
  6
CONTINUOUS
 70
0
 71
3
 72
29
 73
25
 74
0
 42
0.0000001
 43
0.0000001
 44
0.0000000001
 40
0.0
 40
0.0
 40
0.0
 40
0.0
 40
0.0154800522
 40
0.0321075386
 40
0.049920509
 40
0.0689428375
 40
0.0891886773
 40
0.1106631116
 40
0.1333600271
 40
0.1572674171
 40
0.1823694904
 40
0.2086453319
 40
0.2360668048
 40
0.264603064
 40
0.3248830589
 40
0.3891792237
 40
0.4571429354
 40
0.528387806
 40
0.6025012494
 40
0.6790365337
 40
0.757530859
 40
0.8375240498
 40
0.9185373409
 40
1.0
 40
1.0
 40
1.0
 40
1.0
 10
4.9986682176
 20
4.0164899939
 30
0.0
 10
4.9985516301
 20
4.0163814847
 30
0.0
 10
4.9983006424
 20
4.0161661564
 30
0.0
 10
4.9978888525
 20
4.0158586637
 30
0.0
 10
4.9974293434
 20
4.0155557925
 30
0.0
 10
4.9969228841
 20
4.015258014
 30
0.0
 10
4.9963702314
 20
4.014965799
 30
0.0
 10
4.995772239
 20
4.0146796564
 30
0.0
 10
4.9951299044
 20
4.0143999918
 30
0.0
 10
4.9944442778
 20
4.0141272582
 30
0.0
 10
4.993716445
 20
4.0138619264
 30
0.0
 10
4.9929475773
 20
4.0136044615
 30
0.0
 10
4.992138958
 20
4.0133552366
 30
0.0
 10
4.9909884357
 20
4.0130284933
 30
0.0
 10
4.9894598353
 20
4.012645849
 30
0.0
 10
4.9875218681
 20
4.0122335489
 30
0.0
 10
4.9854607798
 20
4.0118630502
 30
0.0
 10
4.9832900913
 20
4.0115367078
 30
0.0
 10
4.981024061
 20
4.0112568601
 30
0.0
 10
4.9786776568
 20
4.0110252267
 30
0.0
 10
4.9762662077
 20
4.0108434779
 30
0.0
 10
4.9738053248
 20
4.0107127339
 30
0.0
 10
4.9713116913
 20
4.0106340385
 30
0.0
 10
4.9696399695
 20
4.0106164624
 30
0.0
 10
4.9688018233
 20
4.0106164624
 30
0.0
  0
SPLINE
  5
346
100
AcDbEntity
  8
ALL_ASSEMBLY_MEMBERS
100
AcDbSpline
 62
7
  6
CONTINUOUS
 70
0
 71
3
 72
43
 73
39
 74
0
 42
0.0000001
 43
0.0000001
 44
0.0000000001
 40
0.0
 40
0.0
 40
0.0
 40
0.0
 40
0.0172891577
 40
0.0252952094
 40
0.0329167309
 40
0.0471653839
 40
0.0539135293
 40
0.0604882913
 40
0.0669586521
 40
0.0733974706
 40
0.0798789644
 40
0.086475545
 40
0.0932554447
 40
0.1002810955
 40
0.1152725395
 40
0.1233396322
 40
0.131830304
 40
0.1407721974
 40
0.1501879932
 40
0.1705049407
 40
0.1928822991
 40
0.2173678334
 40
0.2439763347
 40
0.2726892686
 40
0.3034705747
 40
0.3362662005
 40
0.3710036624
 40
0.4076028157
 40
0.4459694678
 40
0.4859991877
 40
0.5275828804
 40
0.5706004399
 40
0.6149270401
 40
0.6604327194
 40
0.7069776659
 40
0.8026149005
 40
0.9007100481
 40
1.0
 40
1.0
 40
1.0
 40
1.0
 10
4.938935429
 20
4.0164899939
 30
0.0
 10
4.9387841272
 20
4.0166308122
 30
0.0
 10
4.9385730785
 20
4.0168488236
 30
0.0
 10
4.9383301767
 20
4.0171588492
 30
0.0
 10
4.9381315934
 20
4.0174559866
 30
0.0
 10
4.9379766494
 20
4.0177635553
 30
0.0
 10
4.9378738643
 20
4.018077263
 30
0.0
 10
4.9378239017
 20
4.018309032
 30
0.0
 10
4.9377998514
 20
4.018541194
 30
0.0
 10
4.9378018116
 20
4.0187734873
 30
0.0
 10
4.9378297722
 20
4.0190056083
 30
0.0
 10
4.9378836163
 20
4.0192372807
 30
0.0
 10
4.9379632288
 20
4.0194682749
 30
0.0
 10
4.9381066021
 20
4.0197817612
 30
0.0
 10
4.938300667
 20
4.0200868838
 30
0.0
 10
4.9385365626
 20
4.0203813838
 30
0.0
 10
4.9387428294
 20
4.0206061815
 30
0.0
 10
4.9389738688
 20
4.0208292369
 30
0.0
 10
4.9393236954
 20
4.0211318555
 30
0.0
 10
4.9398250226
 20
4.0215032607
 30
0.0
 10
4.9405070646
 20
4.0219285888
 30
0.0
 10
4.941282104
 20
4.0223430755
 30
0.0
 10
4.9421477298
 20
4.0227453089
 30
0.0
 10
4.9431011822
 20
4.02313417
 30
0.0
 10
4.9441394381
 20
4.0235082973
 30
0.0
 10
4.9452591415
 20
4.0238664285
 30
0.0
 10
4.9464566215
 20
4.0242074768
 30
0.0
 10
4.9477279781
 20
4.0245301882
 30
0.0
 10
4.9490690194
 20
4.0248335322
 30
0.0
 10
4.9504753216
 20
4.0251165379
 30
0.0
 10
4.9519422596
 20
4.0253781561
 30
0.0
 10
4.9534649912
 20
4.0256176013
 30
0.0
 10
4.9550384949
 20
4.0258340516
 30
0.0
 10
4.9566575589
 20
4.0260267256
 30
0.0
 10
4.9588900122
 20
4.0262532178
 30
0.0
 10
4.9617548138
 20
4.0264712559
 30
0.0
 10
4.9652548948
 20
4.0266282283
 30
0.0
 10
4.9676148051
 20
4.0266632432
 30
0.0
 10
4.9688018233
 20
4.0266632432
 30
0.0
  0
SPLINE
  5
347
100
AcDbEntity
  8
ALL_ASSEMBLY_MEMBERS
100
AcDbSpline
 62
7
  6
CONTINUOUS
 70
0
 71
3
 72
23
 73
19
 74
0
 42
0.0000001
 43
0.0000001
 44
0.0000000001
 40
0.0
 40
0.0
 40
0.0
 40
0.0
 40
0.0755621259
 40
0.1508439595
 40
0.2254535823
 40
0.2990539908
 40
0.3713397588
 40
0.442004723
 40
0.5107414893
 40
0.5772524054
 40
0.6412621785
 40
0.7025059287
 40
0.7607430227
 40
0.8157483412
 40
0.8673257675
 40
0.9153082023
 40
0.9595612394
 40
1.0
 40
1.0
 40
1.0
 40
1.0
 10
4.9688018233
 20
4.0266632432
 30
0.0
 10
4.9695111439
 20
4.0266632432
 30
0.0
 10
4.970927186
 20
4.026650632
 30
0.0
 10
4.9730429294
 20
4.0265941598
 30
0.0
 10
4.9751389191
 20
4.0265002507
 30
0.0
 10
4.9772047497
 20
4.0263694064
 30
0.0
 10
4.9792308145
 20
4.0262022576
 30
0.0
 10
4.9812077526
 20
4.0259995839
 30
0.0
 10
4.9831262516
 20
4.0257624201
 30
0.0
 10
4.9849772114
 20
4.0254917656
 30
0.0
 10
4.9867519069
 20
4.0251890721
 30
0.0
 10
4.9884420112
 20
4.0248556362
 30
0.0
 10
4.9900395995
 20
4.024493188
 30
0.0
 10
4.9915371916
 20
4.024103372
 30
0.0
 10
4.9929277878
 20
4.0236880813
 30
0.0
 10
4.9942049853
 20
4.0232493397
 30
0.0
 10
4.995362814
 20
4.0227891298
 30
0.0
 10
4.9960845777
 20
4.022454314
 30
0.0
 10
4.9964230256
 20
4.0222823958
 30
0.0
  0
SPLINE
  5
348
100
AcDbEntity
  8
ALL_ASSEMBLY_MEMBERS
100
AcDbSpline
 62
7
  6
CONTINUOUS
 70
0
 71
3
 72
23
 73
19
 74
0
 42
0.0000001
 43
0.0000001
 44
0.0000000001
 40
0.0
 40
0.0
 40
0.0
 40
0.0
 40
0.0918834239
 40
0.1773773641
 40
0.2565820918
 40
0.3296731038
 40
0.396947926
 40
0.4588471575
 40
0.5159753012
 40
0.5691500316
 40
0.6194283715
 40
0.668074828
 40
0.7164977266
 40
0.7661279752
 40
0.8182837923
 40
0.8740906874
 40
0.9344412791
 40
1.0
 40
1.0
 40
1.0
 40
1.0
 10
4.9964230256
 20
4.0222823958
 30
0.0
 10
4.996633352
 20
4.0221755582
 30
0.0
 10
4.9970348719
 20
4.021960214
 30
0.0
 10
4.9975984183
 20
4.0216184094
 30
0.0
 10
4.9981004098
 20
4.0212701625
 30
0.0
 10
4.9985397642
 20
4.0209160367
 30
0.0
 10
4.998915603
 20
4.0205566237
 30
0.0
 10
4.9992271973
 20
4.0201924874
 30
0.0
 10
4.9994736928
 20
4.0198240066
 30
0.0
 10
4.9996540426
 20
4.0194515808
 30
0.0
 10
4.9997672858
 20
4.0190759671
 30
0.0
 10
4.999812374
 20
4.0186983174
 30
0.0
 10
4.9997885545
 20
4.0183203657
 30
0.0
 10
4.9996962751
 20
4.0179439724
 30
0.0
 10
4.9995365678
 20
4.0175704682
 30
0.0
 10
4.9993104151
 20
4.0172007026
 30
0.0
 10
4.9990188673
 20
4.0168352121
 30
0.0
 10
4.9987914288
 20
4.0166046678
 30
0.0
 10
4.9986682176
 20
4.0164899939
 30
0.0
  0
SPLINE
  5
349
100
AcDbEntity
  8
ALL_ASSEMBLY_MEMBERS
100
AcDbSpline
 62
7
  6
CONTINUOUS
 70
0
 71
3
 72
38
 73
34
 74
0
 42
0.0000001
 43
0.0000001
 44
0.0000000001
 40
0.0
 40
0.0
 40
0.0
 40
0.0
 40
0.0316765261
 40
0.0633267098
 40
0.0949427905
 40
0.1265191175
 40
0.1580515358
 40
0.1895364199
 40
0.2209705505
 40
0.2523521439
 40
0.283680061
 40
0.314954866
 40
0.3461778714
 40
0.3773520311
 40
0.4084808928
 40
0.4395694178
 40
0.4706228542
 40
0.5016475017
 40
0.5326501468
 40
0.5636381786
 40
0.5946195926
 40
0.625602521
 40
0.6565954446
 40
0.6876063721
 40
0.7186432539
 40
0.7497127533
 40
0.7808217329
 40
0.8119761173
 40
0.8431809393
 40
0.8744379312
 40
0.9057503054
 40
0.9371251883
 40
1.0
 40
1.0
 40
1.0
 40
1.0
 10
4.9587267316
 20
4.1592851321
 30
0.0
 10
4.9580032017
 20
4.159038509
 30
0.0
 10
4.9565716418
 20
4.1585004422
 30
0.0
 10
4.9544799665
 20
4.1575620067
 30
0.0
 10
4.9524532647
 20
4.1564953955
 30
0.0
 10
4.9505001233
 20
4.1553048654
 30
0.0
 10
4.9486289503
 20
4.1539947206
 30
0.0
 10
4.94684776
 20
4.1525701068
 30
0.0
 10
4.9451643455
 20
4.1510365515
 30
0.0
 10
4.9435862189
 20
4.1494000838
 30
0.0
 10
4.9421202907
 20
4.1476673987
 30
0.0
 10
4.9407734099
 20
4.1458453734
 30
0.0
 10
4.9395514745
 20
4.1439416842
 30
0.0
 10
4.9384604933
 20
4.1419640394
 30
0.0
 10
4.9375052748
 20
4.1399209255
 30
0.0
 10
4.9366908199
 20
4.1378208375
 30
0.0
 10
4.9360207854
 20
4.1356729291
 30
0.0
 10
4.935498971
 20
4.1334863964
 30
0.0
 10
4.9351278647
 20
4.1312708921
 30
0.0
 10
4.93490985
 20
4.1290361581
 30
0.0
 10
4.9348462296
 20
4.1267921826
 30
0.0
 10
4.9349378587
 20
4.1245490448
 30
0.0
 10
4.9351847872
 20
4.1223169338
 30
0.0
 10
4.9355863188
 20
4.1201060605
 30
0.0
 10
4.9361411783
 20
4.1179266924
 30
0.0
 10
4.9368470728
 20
4.1157889588
 30
0.0
 10
4.9377013783
 20
4.1137030191
 30
0.0
 10
4.9387002872
 20
4.1116786924
 30
0.0
 10
4.9398397572
 20
4.1097258674
 30
0.0
 10
4.9411143553
 20
4.1078538814
 30
0.0
 10
4.9425189317
 20
4.1060718514
 30
0.0
 10
4.9445564209
 20
4.1038269439
 30
0.0
 10
4.946259358
 20
4.102304766
 30
0.0
 10
4.9474578819
 20
4.1013743575
 30
0.0
  0
SPLINE
  5
34A
100
AcDbEntity
  8
ALL_ASSEMBLY_MEMBERS
100
AcDbSpline
 62
7
  6
CONTINUOUS
 70
0
 71
3
 72
15
 73
11
 74
0
 42
0.0000001
 43
0.0000001
 44
0.0000000001
 40
0.0
 40
0.0
 40
0.0
 40
0.0
 40
0.1240046487
 40
0.2483908439
 40
0.3730924229
 40
0.4980954747
 40
0.6233461625
 40
0.7487824136
 40
0.8743680848
 40
1.0
 40
1.0
 40
1.0
 40
1.0
 10
4.9474578819
 20
4.1013743575
 30
0.0
 10
4.9481909216
 20
4.100759228
 30
0.0
 10
4.9497150223
 20
4.0995918703
 30
0.0
 10
4.9521493021
 20
4.0980478001
 30
0.0
 10
4.9547167839
 20
4.0967198113
 30
0.0
 10
4.9573964955
 20
4.0956185462
 30
0.0
 10
4.9601672316
 20
4.0947528547
 30
0.0
 10
4.9630069662
 20
4.0941294382
 30
0.0
 10
4.9658926518
 20
4.0937535061
 30
0.0
 10
4.9678323272
 20
4.0936696894
 30
0.0
 10
4.9688018233
 20
4.0936696894
 30
0.0
  0
SPLINE
  5
34B
100
AcDbEntity
  8
ALL_ASSEMBLY_MEMBERS
100
AcDbSpline
 62
7
  6
CONTINUOUS
 70
0
 71
3
 72
17
 73
13
 74
0
 42
0.0000001
 43
0.0000001
 44
0.0000000001
 40
0.0
 40
0.0
 40
0.0
 40
0.0
 40
0.1258639161
 40
0.1887964369
 40
0.2516845411
 40
0.3772685238
 40
0.5025852218
 40
0.6275594138
 40
0.7521323843
 40
0.8142779686
 40
0.8763200341
 40
1.0
 40
1.0
 40
1.0
 40
1.0
 10
4.9688018233
 20
4.0936696894
 30
0.0
 10
4.9699605617
 20
4.0936696894
 30
0.0
 10
4.971700421
 20
4.0937595757
 30
0.0
 10
4.973998952
 20
4.0940579488
 30
0.0
 10
4.9762766509
 20
4.0944742411
 30
0.0
 10
4.9790749816
 20
4.0952138667
 30
0.0
 10
4.9823165204
 20
4.0964425048
 30
0.0
 10
4.985404075
 20
4.0979981337
 30
0.0
 10
4.9878220493
 20
4.0995539848
 30
0.0
 10
4.9896443743
 20
4.1009426619
 30
0.0
 10
4.9913840704
 20
4.1024205519
 30
0.0
 10
4.9925977772
 20
4.1036309419
 30
0.0
 10
4.9933596275
 20
4.1044771498
 30
0.0
  0
SPLINE
  5
34C
100
AcDbEntity
  8
ALL_ASSEMBLY_MEMBERS
100
AcDbSpline
 62
7
  6
CONTINUOUS
 70
0
 71
3
 72
51
 73
47
 74
0
 42
0.0000001
 43
0.0000001
 44
0.0000000001
 40
0.0
 40
0.0
 40
0.0
 40
0.0
 40
0.0317765404
 40
0.0476718256
 40
0.0635569157
 40
0.0794288834
 40
0.0952871924
 40
0.126950725
 40
0.1427610407
 40
0.1585509377
 40
0.1900540355
 40
0.2057740364
 40
0.2214687927
 40
0.2527707499
 40
0.2839665044
 40
0.2995297049
 40
0.3150673008
 40
0.3460599266
 40
0.3769633498
 40
0.4077908051
 40
0.4385584857
 40
0.4539305036
 40
0.4692946932
 40
0.5
 40
0.5307053068
 40
0.5460694964
 40
0.5614415143
 40
0.5922091949
 40
0.6230366502
 40
0.6539400734
 40
0.6849326992
 40
0.7004702951
 40
0.7160334956
 40
0.7472292501
 40
0.7785312073
 40
0.7942259636
 40
0.8099459645
 40
0.8414490623
 40
0.8572389593
 40
0.873049275
 40
0.9047128076
 40
0.9205711166
 40
0.9364430843
 40
0.9523281744
 40
0.9682234596
 40
1.0
 40
1.0
 40
1.0
 40
1.0
 10
4.9688018233
 20
4.0947621693
 30
0.0
 10
4.9677880512
 20
4.0947621693
 30
0.0
 10
4.9662658792
 20
4.0948345537
 30
0.0
 10
4.9642519207
 20
4.0950742797
 30
0.0
 10
4.9627519601
 20
4.0953256384
 30
0.0
 10
4.9612668225
 20
4.0956477976
 30
0.0
 10
4.9593123757
 20
4.0961701297
 30
0.0
 10
4.957399229
 20
4.0968312726
 30
0.0
 10
4.9555432084
 20
4.0976258254
 30
0.0
 10
4.9537320524
 20
4.0985062769
 30
0.0
 10
4.9519889546
 20
4.0995151925
 30
0.0
 10
4.9503287131
 20
4.1006444835
 30
0.0
 10
4.9487304004
 20
4.1018493267
 30
0.0
 10
4.9468498876
 20
4.1034948259
 30
0.0
 10
4.9451427241
 20
4.1053138947
 30
0.0
 10
4.9438931209
 20
4.1068602851
 30
0.0
 10
4.9427256
 20
4.1084615099
 30
0.0
 10
4.9414202981
 20
4.1105641107
 30
0.0
 10
4.9401170302
 20
4.1132251669
 30
0.0
 10
4.9390898087
 20
4.1159968532
 30
0.0
 10
4.9384722127
 20
4.1183781204
 30
0.0
 10
4.9381250765
 20
4.1203100763
 30
0.0
 10
4.9378767691
 20
4.1222552078
 30
0.0
 10
4.937751872
 20
4.1247058699
 30
0.0
 10
4.9378767691
 20
4.127156532
 30
0.0
 10
4.9381250765
 20
4.1291016636
 30
0.0
 10
4.9384722127
 20
4.1310336195
 30
0.0
 10
4.9390898087
 20
4.1334148867
 30
0.0
 10
4.9401170302
 20
4.136186573
 30
0.0
 10
4.9414202981
 20
4.1388476292
 30
0.0
 10
4.9427256
 20
4.14095023
 30
0.0
 10
4.9438931209
 20
4.1425514548
 30
0.0
 10
4.9451427241
 20
4.1440978452
 30
0.0
 10
4.9468498876
 20
4.145916914
 30
0.0
 10
4.9487304004
 20
4.1475624132
 30
0.0
 10
4.9503287131
 20
4.1487672564
 30
0.0
 10
4.9519889546
 20
4.1498965474
 30
0.0
 10
4.9537320524
 20
4.150905463
 30
0.0
 10
4.9555432084
 20
4.1517859145
 30
0.0
 10
4.957399229
 20
4.1525804673
 30
0.0
 10
4.9593123757
 20
4.1532416102
 30
0.0
 10
4.9612668225
 20
4.1537639423
 30
0.0
 10
4.9627519601
 20
4.1540861015
 30
0.0
 10
4.9642519207
 20
4.1543374602
 30
0.0
 10
4.9662658792
 20
4.1545771862
 30
0.0
 10
4.9677880512
 20
4.1546495706
 30
0.0
 10
4.9688018233
 20
4.1546495706
 30
0.0
  0
SPLINE
  5
34D
100
AcDbEntity
  8
ALL_ASSEMBLY_MEMBERS
100
AcDbSpline
 62
7
  6
CONTINUOUS
 70
0
 71
3
 72
25
 73
21
 74
0
 42
0.0000001
 43
0.0000001
 44
0.0000000001
 40
0.0
 40
0.0
 40
0.0
 40
0.0
 40
0.0644256873
 40
0.1287300345
 40
0.1928946516
 40
0.2568829028
 40
0.3206598597
 40
0.3524639679
 40
0.3842032805
 40
0.4474571291
 40
0.5104004759
 40
0.5730024185
 40
0.6352362273
 40
0.6970780192
 40
0.7278540276
 40
0.7585251583
 40
0.8195301265
 40
0.8801076576
 40
0.9402759498
 40
1.0
 40
1.0
 40
1.0
 40
1.0
 10
4.9518187524
 20
4.0919358609
 30
0.0
 10
4.9527691917
 20
4.0916233728
 30
0.0
 10
4.9546913916
 20
4.0910668503
 30
0.0
 10
4.9576239287
 20
4.0904435058
 30
0.0
 10
4.9605877322
 20
4.0900373856
 30
0.0
 10
4.9635652334
 20
4.0898522992
 30
0.0
 10
4.9660456188
 20
4.0898850428
 30
0.0
 10
4.9680183448
 20
4.0900242539
 30
0.0
 10
4.9699761576
 20
4.0902385042
 30
0.0
 10
4.9723973366
 20
4.0906468641
 30
0.0
 10
4.9752438509
 20
4.091361994
 30
0.0
 10
4.9780088913
 20
4.0922985649
 30
0.0
 10
4.9806719676
 20
4.0934522403
 30
0.0
 10
4.9827934967
 20
4.0945911571
 30
0.0
 10
4.9844188505
 20
4.0956040438
 30
0.0
 10
4.9859880169
 20
4.0966791103
 30
0.0
 10
4.9878491066
 20
4.0981428987
 30
0.0
 10
4.989904371
 20
4.1000830885
 30
0.0
 10
4.9917584566
 20
4.1021899175
 30
0.0
 10
4.9928528255
 20
4.1037003823
 30
0.0
 10
4.9933596275
 20
4.1044771498
 30
0.0
  0
SPLINE
  5
34E
100
AcDbEntity
  8
ALL_ASSEMBLY_MEMBERS
100
AcDbSpline
 62
7
  6
CONTINUOUS
 70
0
 71
3
 72
51
 73
47
 74
0
 42
0.0000001
 43
0.0000001
 44
0.0000000001
 40
0.0
 40
0.0
 40
0.0
 40
0.0
 40
0.0317765404
 40
0.0476718256
 40
0.0635569157
 40
0.0794288834
 40
0.0952871924
 40
0.126950725
 40
0.1427610407
 40
0.1585509377
 40
0.1900540355
 40
0.2057740364
 40
0.2214687927
 40
0.2527707499
 40
0.2839665044
 40
0.2995297049
 40
0.3150673008
 40
0.3460599266
 40
0.3769633498
 40
0.4077908051
 40
0.4385584857
 40
0.4539305036
 40
0.4692946932
 40
0.5
 40
0.5307053068
 40
0.5460694964
 40
0.5614415143
 40
0.5922091949
 40
0.6230366502
 40
0.6539400734
 40
0.6849326992
 40
0.7004702951
 40
0.7160334956
 40
0.7472292501
 40
0.7785312073
 40
0.7942259636
 40
0.8099459645
 40
0.8414490623
 40
0.8572389593
 40
0.873049275
 40
0.9047128076
 40
0.9205711166
 40
0.9364430843
 40
0.9523281744
 40
0.9682234596
 40
1.0
 40
1.0
 40
1.0
 40
1.0
 10
4.9688018233
 20
4.1546495706
 30
0.0
 10
4.9698155955
 20
4.1546495706
 30
0.0
 10
4.9713377674
 20
4.1545771862
 30
0.0
 10
4.9733517259
 20
4.1543374602
 30
0.0
 10
4.9748516866
 20
4.1540861015
 30
0.0
 10
4.9763368242
 20
4.1537639423
 30
0.0
 10
4.978291271
 20
4.1532416102
 30
0.0
 10
4.9802044177
 20
4.1525804673
 30
0.0
 10
4.9820604383
 20
4.1517859145
 30
0.0
 10
4.9838715943
 20
4.150905463
 30
0.0
 10
4.985614692
 20
4.1498965474
 30
0.0
 10
4.9872749336
 20
4.1487672564
 30
0.0
 10
4.9888732463
 20
4.1475624132
 30
0.0
 10
4.990753759
 20
4.145916914
 30
0.0
 10
4.9924609226
 20
4.1440978452
 30
0.0
 10
4.9937105258
 20
4.1425514548
 30
0.0
 10
4.9948780467
 20
4.14095023
 30
0.0
 10
4.9961833486
 20
4.1388476292
 30
0.0
 10
4.9974866164
 20
4.136186573
 30
0.0
 10
4.998513838
 20
4.1334148867
 30
0.0
 10
4.999131434
 20
4.1310336195
 30
0.0
 10
4.9994785702
 20
4.1291016636
 30
0.0
 10
4.9997268776
 20
4.127156532
 30
0.0
 10
4.9998517746
 20
4.1247058699
 30
0.0
 10
4.9997268776
 20
4.1222552078
 30
0.0
 10
4.9994785702
 20
4.1203100763
 30
0.0
 10
4.999131434
 20
4.1183781204
 30
0.0
 10
4.998513838
 20
4.1159968532
 30
0.0
 10
4.9974866164
 20
4.1132251669
 30
0.0
 10
4.9961833486
 20
4.1105641107
 30
0.0
 10
4.9948780467
 20
4.1084615099
 30
0.0
 10
4.9937105258
 20
4.1068602851
 30
0.0
 10
4.9924609226
 20
4.1053138947
 30
0.0
 10
4.990753759
 20
4.1034948259
 30
0.0
 10
4.9888732463
 20
4.1018493267
 30
0.0
 10
4.9872749336
 20
4.1006444835
 30
0.0
 10
4.985614692
 20
4.0995151925
 30
0.0
 10
4.9838715943
 20
4.0985062769
 30
0.0
 10
4.9820604383
 20
4.0976258254
 30
0.0
 10
4.9802044177
 20
4.0968312726
 30
0.0
 10
4.978291271
 20
4.0961701297
 30
0.0
 10
4.9763368242
 20
4.0956477976
 30
0.0
 10
4.9748516866
 20
4.0953256384
 30
0.0
 10
4.9733517259
 20
4.0950742797
 30
0.0
 10
4.9713377674
 20
4.0948345537
 30
0.0
 10
4.9698155955
 20
4.0947621693
 30
0.0
 10
4.9688018233
 20
4.0947621693
 30
0.0
  0
SPLINE
  5
34F
100
AcDbEntity
  8
ALL_ASSEMBLY_MEMBERS
100
AcDbSpline
 62
7
  6
CONTINUOUS
 70
0
 71
3
 72
23
 73
19
 74
0
 42
0.0000001
 43
0.0000001
 44
0.0000000001
 40
0.0
 40
0.0
 40
0.0
 40
0.0
 40
0.1629044433
 40
0.2430691375
 40
0.3219754444
 40
0.3993277531
 40
0.4747772559
 40
0.5478242483
 40
0.6179259473
 40
0.6845246912
 40
0.7470534242
 40
0.8049211966
 40
0.8575002382
 40
0.9041331
 40
0.9440699126
 40
0.9763644795
 40
0.9893301785
 40
1.0
 40
1.0
 40
1.0
 40
1.0
 10
4.5963018233
 20
4.4113686041
 30
0.0
 10
4.5963018233
 20
4.4138731697
 30
0.0
 10
4.5961392504
 20
4.417612826
 30
0.0
 10
4.5956085189
 20
4.4225354589
 30
0.0
 10
4.5950651682
 20
4.4261307232
 30
0.0
 10
4.5943805452
 20
4.4296278518
 30
0.0
 10
4.5935632312
 20
4.4330037296
 30
0.0
 10
4.5926336754
 20
4.4362344883
 30
0.0
 10
4.5916115118
 20
4.439293963
 30
0.0
 10
4.5905171363
 20
4.4421558981
 30
0.0
 10
4.5893698152
 20
4.4447930454
 30
0.0
 10
4.5882027842
 20
4.447183621
 30
0.0
 10
4.5870510734
 20
4.4493071586
 30
0.0
 10
4.5859493039
 20
4.4511418529
 30
0.0
 10
4.5849369466
 20
4.4526639946
 30
0.0
 10
4.584166053
 20
4.4537235167
 30
0.0
 10
4.5836369581
 20
4.4544014335
 30
0.0
 10
4.5834070859
 20
4.4546829222
 30
0.0
 10
4.5833015688
 20
4.4548085253
 30
0.0
  0
SPLINE
  5
350
100
AcDbEntity
  8
ALL_ASSEMBLY_MEMBERS
100
AcDbSpline
 62
7
  6
CONTINUOUS
 70
0
 71
3
 72
21
 73
17
 74
0
 42
0.0000001
 43
0.0000001
 44
0.0000000001
 40
0.0
 40
0.0
 40
0.0
 40
0.0
 40
0.0237650407
 40
0.0560435916
 40
0.0958888661
 40
0.1424637715
 40
0.1950325004
 40
0.2528991281
 40
0.3154290693
 40
0.3820275672
 40
0.4521240595
 40
0.5251861666
 40
0.600705571
 40
0.6781841271
 40
0.8372899873
 40
1.0
 40
1.0
 40
1.0
 40
1.0
 10
4.7593020778
 20
4.4548085252
 30
0.0
 10
4.7590670645
 20
4.4545287754
 30
0.0
 10
4.7585311249
 20
4.4538537022
 30
0.0
 10
4.7576626028
 20
4.4526620066
 30
0.0
 10
4.7566541175
 20
4.451140331
 30
0.0
 10
4.7555537089
 20
4.4493078608
 30
0.0
 10
4.754400274
 20
4.447186516
 30
0.0
 10
4.7532348154
 20
4.4447953619
 30
0.0
 10
4.7520892179
 20
4.4421576393
 30
0.0
 10
4.7509901043
 20
4.4392977244
 30
0.0
 10
4.7499662976
 20
4.4362386323
 30
0.0
 10
4.7490396916
 20
4.4330058078
 30
0.0
 10
4.7482247583
 20
4.4296261431
 30
0.0
 10
4.7472999336
 20
4.4249164729
 30
0.0
 10
4.7465155067
 20
4.4188200602
 30
0.0
 10
4.7463018233
 20
4.4138701127
 30
0.0
 10
4.7463018233
 20
4.4113686041
 30
0.0
  0
SPLINE
  5
351
100
AcDbEntity
  8
ALL_ASSEMBLY_MEMBERS
100
AcDbSpline
 62
7
  6
CONTINUOUS
 70
0
 71
3
 72
23
 73
19
 74
0
 42
0.0000001
 43
0.0000001
 44
0.0000000001
 40
0.0
 40
0.0
 40
0.0
 40
0.0
 40
0.0635881336
 40
0.1268473166
 40
0.1896607286
 40
0.2521109684
 40
0.3143349871
 40
0.376457438
 40
0.4385626356
 40
0.5007010905
 40
0.5628971369
 40
0.6251617499
 40
0.6874924498
 40
0.7498835885
 40
0.8123305409
 40
0.8748529937
 40
0.9374423479
 40
1.0
 40
1.0
 40
1.0
 40
1.0
 10
4.6713018233
 20
4.7378760142
 30
0.0
 10
4.6678420619
 20
4.7378760142
 30
0.0
 10
4.6609350714
 20
4.737514
 30
0.0
 10
4.6507238036
 20
4.7359126685
 30
0.0
 10
4.640781829
 20
4.7333235484
 30
0.0
 10
4.6311826986
 20
4.7298293703
 30
0.0
 10
4.6219705112
 20
4.7255056172
 30
0.0
 10
4.6131789802
 20
4.7204199846
 30
0.0
 10
4.6048397035
 20
4.7146320948
 30
0.0
 10
4.5969840824
 20
4.7081977826
 30
0.0
 10
4.5896431379
 20
4.7011701668
 30
0.0
 10
4.582846527
 20
4.6936013031
 30
0.0
 10
4.5766227775
 20
4.6855417835
 30
0.0
 10
4.5709964725
 20
4.6770428138
 30
0.0
 10
4.5659903453
 20
4.6681526656
 30
0.0
 10
4.5616245869
 20
4.6589192228
 30
0.0
 10
4.5579191146
 20
4.6493958469
 30
0.0
 10
4.5558965172
 20
4.6428872413
 30
0.0
 10
4.5550005293
 20
4.6396035941
 30
0.0
  0
SPLINE
  5
352
100
AcDbEntity
  8
ALL_ASSEMBLY_MEMBERS
100
AcDbSpline
 62
7
  6
CONTINUOUS
 70
0
 71
3
 72
13
 73
9
 74
0
 42
0.0000001
 43
0.0000001
 44
0.0000000001
 40
0.0
 40
0.0
 40
0.0
 40
0.0
 40
0.1244516229
 40
0.2494991529
 40
0.4999963381
 40
0.750498814
 40
0.8755509688
 40
1.0
 40
1.0
 40
1.0
 40
1.0
 10
4.5550005293
 20
4.6396035941
 30
0.0
 10
4.5535597967
 20
4.6343235485
 30
0.0
 10
4.5510295177
 20
4.6236364971
 30
0.0
 10
4.5473956257
 20
4.6019371692
 30
0.0
 10
4.5455722542
 20
4.5743791775
 30
0.0
 10
4.5473955617
 20
4.5468209636
 30
0.0
 10
4.5510296118
 20
4.5251213379
 30
0.0
 10
4.5535598267
 20
4.5144341804
 30
0.0
 10
4.5550005293
 20
4.5091542448
 30
0.0
  0
SPLINE
  5
353
100
AcDbEntity
  8
ALL_ASSEMBLY_MEMBERS
100
AcDbSpline
 62
7
  6
CONTINUOUS
 70
0
 71
3
 72
14
 73
10
 74
0
 42
0.0000001
 43
0.0000001
 44
0.0000000001
 40
0.0
 40
0.0
 40
0.0
 40
0.0
 40
0.2503193861
 40
0.3755183033
 40
0.5005761679
 40
0.6255591599
 40
0.7505406662
 40
0.8754248933
 40
1.0
 40
1.0
 40
1.0
 40
1.0
 10
4.5550005293
 20
4.5091542448
 30
0.0
 10
4.5563565998
 20
4.5041844713
 30
0.0
 10
4.5587876588
 20
4.496828751
 30
0.0
 10
4.5627875665
 20
4.4873318065
 30
0.0
 10
4.5661635905
 20
4.4803820983
 30
0.0
 10
4.569907153
 20
4.4736288085
 30
0.0
 10
4.5740107829
 20
4.4670920107
 30
0.0
 10
4.5784605202
 20
4.4607962893
 30
0.0
 10
4.5816525203
 20
4.4567714821
 30
0.0
 10
4.5833015693
 20
4.4548085247
 30
0.0
  0
SPLINE
  5
354
100
AcDbEntity
  8
ALL_ASSEMBLY_MEMBERS
100
AcDbSpline
 62
7
  6
CONTINUOUS
 70
0
 71
3
 72
24
 73
20
 74
0
 42
0.0000001
 43
0.0000001
 44
0.0000000001
 40
0.0
 40
0.0
 40
0.0
 40
0.0
 40
0.0625159525
 40
0.1251229103
 40
0.1876673421
 40
0.2501199406
 40
0.312511235
 40
0.3748493473
 40
0.4371181172
 40
0.4993139823
 40
0.5614468846
 40
0.6235468377
 40
0.6856638472
 40
0.7478834581
 40
0.8103325243
 40
0.8731430698
 40
0.9363996422
 40
0.9681862885
 40
1.0
 40
1.0
 40
1.0
 40
1.0
 10
4.7876031174
 20
4.6396035941
 30
0.0
 10
4.7867077076
 20
4.6428851223
 30
0.0
 10
4.7846850796
 20
4.6493924888
 30
0.0
 10
4.7809801412
 20
4.6589161565
 30
0.0
 10
4.7766139822
 20
4.6681523922
 30
0.0
 10
4.7716068704
 20
4.6770439918
 30
0.0
 10
4.7659795845
 20
4.6855434466
 30
0.0
 10
4.7597548058
 20
4.6936032247
 30
0.0
 10
4.7529580461
 20
4.7011730758
 30
0.0
 10
4.7456166501
 20
4.7082004389
 30
0.0
 10
4.7377610713
 20
4.7146341861
 30
0.0
 10
4.7294222268
 20
4.7204215109
 30
0.0
 10
4.7206311502
 20
4.7255067571
 30
0.0
 10
4.711419203
 20
4.7298299863
 30
0.0
 10
4.7018201423
 20
4.7333242026
 30
0.0
 10
4.6918789037
 20
4.7359127504
 30
0.0
 10
4.6833777064
 20
4.7372458984
 30
0.0
 10
4.6764940518
 20
4.7377848197
 30
0.0
 10
4.6730328097
 20
4.7378760142
 30
0.0
 10
4.6713018233
 20
4.7378760142
 30
0.0
  0
SPLINE
  5
355
100
AcDbEntity
  8
ALL_ASSEMBLY_MEMBERS
100
AcDbSpline
 62
7
  6
CONTINUOUS
 70
0
 71
3
 72
14
 73
10
 74
0
 42
0.0000001
 43
0.0000001
 44
0.0000000001
 40
0.0
 40
0.0
 40
0.0
 40
0.0
 40
0.1245756403
 40
0.2494590639
 40
0.3744385931
 40
0.4994205319
 40
0.6244781569
 40
0.7496760468
 40
1.0
 40
1.0
 40
1.0
 40
1.0
 10
4.7593020774
 20
4.4548085247
 30
0.0
 10
4.7609511334
 20
4.4567714904
 30
0.0
 10
4.7641431352
 20
4.4607962888
 30
0.0
 10
4.7685928568
 20
4.4670919649
 30
0.0
 10
4.7726964333
 20
4.4736287031
 30
0.0
 10
4.7764399544
 20
4.4803819385
 30
0.0
 10
4.7798159586
 20
4.4873316025
 30
0.0
 10
4.7838159342
 20
4.4968285916
 30
0.0
 10
4.7862470221
 20
4.5041843807
 30
0.0
 10
4.7876031174
 20
4.5091542448
 30
0.0
  0
SPLINE
  5
356
100
AcDbEntity
  8
ALL_ASSEMBLY_MEMBERS
100
AcDbSpline
 62
7
  6
CONTINUOUS
 70
0
 71
3
 72
13
 73
9
 74
0
 42
0.0000001
 43
0.0000001
 44
0.0000000001
 40
0.0
 40
0.0
 40
0.0
 40
0.0
 40
0.1244516229
 40
0.2494991529
 40
0.4999963381
 40
0.750498814
 40
0.8755509688
 40
1.0
 40
1.0
 40
1.0
 40
1.0
 10
4.7876031174
 20
4.5091542448
 30
0.0
 10
4.78904385
 20
4.5144342904
 30
0.0
 10
4.791574129
 20
4.5251213418
 30
0.0
 10
4.795208021
 20
4.5468206697
 30
0.0
 10
4.7970313925
 20
4.5743786614
 30
0.0
 10
4.795208085
 20
4.6019368753
 30
0.0
 10
4.7915740349
 20
4.623636501
 30
0.0
 10
4.78904382
 20
4.6343236585
 30
0.0
 10
4.7876031174
 20
4.6396035941
 30
0.0
  0
SPLINE
  5
357
100
AcDbEntity
  8
ALL_ASSEMBLY_MEMBERS
100
AcDbSpline
 62
7
  6
CONTINUOUS
 70
0
 71
3
 72
27
 73
23
 74
0
 42
0.0000001
 43
0.0000001
 44
0.0000000001
 40
0.0
 40
0.0
 40
0.0
 40
0.0
 40
0.0726227486
 40
0.1449387688
 40
0.2165413862
 40
0.2871308063
 40
0.4240269662
 40
0.4899500977
 40
0.5539184004
 40
0.5851436461
 40
0.6158472995
 40
0.646029034
 40
0.6756925126
 40
0.7334833577
 40
0.7893811487
 40
0.8167012202
 40
0.843642589
 40
0.8702474857
 40
0.8965632244
 40
0.9485105284
 40
0.9742860575
 40
1.0
 40
1.0
 40
1.0
 40
1.0
 10
4.6713018233
 20
4.3583355955
 30
0.0
 10
4.673753068
 20
4.3583355955
 30
0.0
 10
4.6786469326
 20
4.3585055501
 30
0.0
 10
4.6859217441
 20
4.3592661176
 30
0.0
 10
4.6930583683
 20
4.3605272027
 30
0.0
 10
4.7021973104
 20
4.3628337151
 30
0.0
 10
4.7108837911
 20
4.3660813885
 30
0.0
 10
4.718871274
 20
4.3702576848
 30
0.0
 10
4.7234609609
 20
4.3731901881
 30
0.0
 10
4.7268745866
 20
4.3757231615
 30
0.0
 10
4.7292806902
 20
4.377694076
 30
0.0
 10
4.7315474562
 20
4.3797461574
 30
0.0
 10
4.7343519165
 20
4.3825589665
 30
0.0
 10
4.7374939162
 20
4.3862518827
 30
0.0
 10
4.7401543101
 20
4.3902127355
 30
0.0
 10
4.7419371308
 20
4.3934780087
 30
0.0
 10
4.743094367
 20
4.3959520574
 30
0.0
 10
4.7440785876
 20
4.3984637242
 30
0.0
 10
4.7451515563
 20
4.4018387541
 30
0.0
 10
4.7458786813
 20
4.4052875727
 30
0.0
 10
4.7462413137
 20
4.4087620457
 30
0.0
 10
4.746301675
 20
4.4105006783
 30
0.0
 10
4.746301675
 20
4.4113686041
 30
0.0
  0
SPLINE
  5
358
100
AcDbEntity
  8
ALL_ASSEMBLY_MEMBERS
100
AcDbSpline
 62
7
  6
CONTINUOUS
 70
0
 71
3
 72
17
 73
13
 74
0
 42
0.0000001
 43
0.0000001
 44
0.0000000001
 40
0.0
 40
0.0
 40
0.0
 40
0.0
 40
0.0676778992
 40
0.1352665324
 40
0.2694098207
 40
0.401326516
 40
0.5300800082
 40
0.5930183697
 40
0.6548658047
 40
0.7749618755
 40
0.8900321294
 40
1.0
 40
1.0
 40
1.0
 40
1.0
 10
4.6713018233
 20
4.4193959146
 30
0.0
 10
4.6735063313
 20
4.4193959146
 30
0.0
 10
4.6779132014
 20
4.4194969772
 30
0.0
 10
4.6866704863
 20
4.4200985167
 30
0.0
 10
4.6974532236
 20
4.4215900237
 30
0.0
 10
4.7099881074
 20
4.4245478852
 30
0.0
 10
4.7199798232
 20
4.4279680431
 30
0.0
 10
4.7275623842
 20
4.4312496797
 30
0.0
 10
4.7347049052
 20
4.4348078917
 30
0.0
 10
4.742998058
 20
4.4398362891
 30
0.0
 10
4.7518607056
 20
4.446797454
 30
0.0
 10
4.7569980068
 20
4.4520658031
 30
0.0
 10
4.7593019748
 20
4.4548085669
 30
0.0
  0
SPLINE
  5
359
100
AcDbEntity
  8
ALL_ASSEMBLY_MEMBERS
100
AcDbSpline
 62
7
  6
CONTINUOUS
 70
0
 71
3
 72
41
 73
37
 74
0
 42
0.0000001
 43
0.0000001
 44
0.0000000001
 40
0.0
 40
0.0
 40
0.0
 40
0.0
 40
0.0362980159
 40
0.0724653974
 40
0.1082764918
 40
0.1435688418
 40
0.1782076908
 40
0.2120656245
 40
0.2450277418
 40
0.2770117958
 40
0.3079668944
 40
0.3230574277
 40
0.3378892135
 40
0.366784898
 40
0.3947334711
 40
0.4218511531
 40
0.4482970769
 40
0.4742707537
 40
0.5
 40
0.5257292463
 40
0.5517029231
 40
0.5781488469
 40
0.6052665289
 40
0.633215102
 40
0.6621107865
 40
0.6769425723
 40
0.6920331056
 40
0.7229882042
 40
0.7549722582
 40
0.7879343755
 40
0.8217923092
 40
0.8564311582
 40
0.8917235082
 40
0.9275346026
 40
0.9637019841
 40
1.0
 40
1.0
 40
1.0
 40
1.0
 10
4.6713018233
 20
4.7364532633
 30
0.0
 10
4.6695540665
 20
4.7364532633
 30
0.0
 10
4.666063659
 20
4.7363316478
 30
0.0
 10
4.6608743043
 20
4.735789634
 30
0.0
 10
4.6557836063
 20
4.7348900426
 30
0.0
 10
4.6508424018
 20
4.7336432299
 30
0.0
 10
4.6460972715
 20
4.7320599118
 30
0.0
 10
4.6415925064
 20
4.7301563933
 30
0.0
 10
4.6373716192
 20
4.7279492435
 30
0.0
 10
4.6334753087
 20
4.7254599486
 30
0.0
 10
4.6305042715
 20
4.7231498459
 30
0.0
 10
4.6283305433
 20
4.7211816215
 30
0.0
 10
4.6263302158
 20
4.7191753284
 30
0.0
 10
4.6240886542
 20
4.7165413469
 30
0.0
 10
4.6218299165
 20
4.7131774269
 30
0.0
 10
4.6200465315
 20
4.7096696574
 30
0.0
 10
4.6187594471
 20
4.7060509969
 30
0.0
 10
4.6179802178
 20
4.7023577376
 30
0.0
 10
4.617720485
 20
4.6986263708
 30
0.0
 10
4.6179802178
 20
4.694895004
 30
0.0
 10
4.6187594471
 20
4.6912017447
 30
0.0
 10
4.6200465315
 20
4.6875830842
 30
0.0
 10
4.6218299165
 20
4.6840753147
 30
0.0
 10
4.6240886542
 20
4.6807113947
 30
0.0
 10
4.6263302158
 20
4.6780774132
 30
0.0
 10
4.6283305433
 20
4.6760711201
 30
0.0
 10
4.6305042715
 20
4.6741028956
 30
0.0
 10
4.6334753087
 20
4.671792793
 30
0.0
 10
4.6373716192
 20
4.6693034981
 30
0.0
 10
4.6415925064
 20
4.6670963483
 30
0.0
 10
4.6460972715
 20
4.6651928298
 30
0.0
 10
4.6508424018
 20
4.6636095117
 30
0.0
 10
4.6557836063
 20
4.662362699
 30
0.0
 10
4.6608743043
 20
4.6614631076
 30
0.0
 10
4.666063659
 20
4.6609210938
 30
0.0
 10
4.6695540665
 20
4.6607994783
 30
0.0
 10
4.6713018233
 20
4.6607994783
 30
0.0
  0
SPLINE
  5
35A
100
AcDbEntity
  8
ALL_ASSEMBLY_MEMBERS
100
AcDbSpline
 62
7
  6
CONTINUOUS
 70
0
 71
3
 72
32
 73
28
 74
0
 42
0.0000001
 43
0.0000001
 44
0.0000000001
 40
0.0
 40
0.0
 40
0.0
 40
0.0
 40
0.026409496
 40
0.0526574592
 40
0.0788187286
 40
0.1049702549
 40
0.1311893831
 40
0.1575514909
 40
0.184129721
 40
0.210992801
 40
0.2382032401
 40
0.2658181627
 40
0.3224221117
 40
0.3515170543
 40
0.3811690061
 40
0.4421824023
 40
0.4735834332
 40
0.505569577
 40
0.5712308234
 40
0.6048882564
 40
0.6390556957
 40
0.7087758867
 40
0.7800988508
 40
0.8162591274
 40
0.8526880748
 40
0.9261486275
 40
1.0
 40
1.0
 40
1.0
 40
1.0
 10
4.5545632976
 20
4.637907544
 30
0.0
 10
4.5542014349
 20
4.6364169793
 30
0.0
 10
4.553590677
 20
4.6334167468
 30
0.0
 10
4.5530199254
 20
4.628870419
 30
0.0
 10
4.5527996038
 20
4.6243083721
 30
0.0
 10
4.5529317158
 20
4.6197446517
 30
0.0
 10
4.5534148785
 20
4.6151929753
 30
0.0
 10
4.5542471845
 20
4.6106668983
 30
0.0
 10
4.5554272002
 20
4.6061801848
 30
0.0
 10
4.5569507332
 20
4.6017462963
 30
0.0
 10
4.5588125658
 20
4.5973778807
 30
0.0
 10
4.5617627178
 20
4.5916128901
 30
0.0
 10
4.565358293
 20
4.5860737124
 30
0.0
 10
4.5695195723
 20
4.5808192662
 30
0.0
 10
4.5741650094
 20
4.5756372427
 30
0.0
 10
4.5793591019
 20
4.5707856671
 30
0.0
 10
4.5850221129
 20
4.5662946891
 30
0.0
 10
4.5911322842
 20
4.5619487949
 30
0.0
 10
4.5976778632
 20
4.5580075495
 30
0.0
 10
4.6045852549
 20
4.5544825862
 30
0.0
 10
4.6118613424
 20
4.5511784498
 30
0.0
 10
4.6214009138
 20
4.547596697
 30
0.0
 10
4.6313176273
 20
4.5447975821
 30
0.0
 10
4.6394862104
 20
4.5430174233
 30
0.0
 10
4.6478415761
 20
4.5415423058
 30
0.0
 10
4.6584533169
 20
4.5403115116
 30
0.0
 10
4.6670125445
 20
4.5399822107
 30
0.0
 10
4.6713018233
 20
4.5399822107
 30
0.0
  0
SPLINE
  5
35B
100
AcDbEntity
  8
ALL_ASSEMBLY_MEMBERS
100
AcDbSpline
 62
7
  6
CONTINUOUS
 70
0
 71
3
 72
23
 73
19
 74
0
 42
0.0000001
 43
0.0000001
 44
0.0000000001
 40
0.0
 40
0.0
 40
0.0
 40
0.0
 40
0.0515278598
 40
0.1041511142
 40
0.1581277526
 40
0.2136548564
 40
0.2708734195
 40
0.3298601514
 40
0.390639321
 40
0.4531772489
 40
0.517397744
 40
0.5831793694
 40
0.6503672828
 40
0.7187663168
 40
0.7881639682
 40
0.858346344
 40
0.9290703232
 40
1.0
 40
1.0
 40
1.0
 40
1.0
 10
4.5550005608
 20
4.5091542491
 30
0.0
 10
4.5556511963
 20
4.5067701672
 30
0.0
 10
4.5572546242
 20
4.5020254373
 30
0.0
 10
4.560487729
 20
4.4951489989
 30
0.0
 10
4.5645467983
 20
4.4884997787
 30
0.0
 10
4.5693974422
 20
4.4821265651
 30
0.0
 10
4.5750046124
 20
4.476077163
 30
0.0
 10
4.5813239357
 20
4.4703936904
 30
0.0
 10
4.5883098147
 20
4.4651193732
 30
0.0
 10
4.5959086852
 20
4.460290269
 30
0.0
 10
4.6040655898
 20
4.4559436779
 30
0.0
 10
4.6127191653
 20
4.4521090356
 30
0.0
 10
4.6218062134
 20
4.4488167975
 30
0.0
 10
4.6312583801
 20
4.4460883579
 30
0.0
 10
4.641007121
 20
4.4439459062
 30
0.0
 10
4.6509813494
 20
4.4424034965
 30
0.0
 10
4.66110456
 20
4.4414749928
 30
0.0
 10
4.6679000452
 20
4.4412672583
 30
0.0
 10
4.6713018233
 20
4.4412672583
 30
0.0
  0
SPLINE
  5
35C
100
AcDbEntity
  8
ALL_ASSEMBLY_MEMBERS
100
AcDbSpline
 62
7
  6
CONTINUOUS
 70
0
 71
3
 72
17
 73
13
 74
0
 42
0.0000001
 43
0.0000001
 44
0.0000000001
 40
0.0
 40
0.0
 40
0.0
 40
0.0
 40
0.1099678376
 40
0.2250380518
 40
0.3451340548
 40
0.4069814476
 40
0.4699197686
 40
0.5986731946
 40
0.7305898415
 40
0.8647333184
 40
0.9323220609
 40
1.0
 40
1.0
 40
1.0
 40
1.0
 10
4.5833016737
 20
4.4548085645
 30
0.0
 10
4.585605641
 20
4.4520658015
 30
0.0
 10
4.5907429405
 20
4.4467974544
 30
0.0
 10
4.5996055834
 20
4.4398362915
 30
0.0
 10
4.6078987311
 20
4.4348078956
 30
0.0
 10
4.6150412475
 20
4.4312496855
 30
0.0
 10
4.6226238034
 20
4.4279680501
 30
0.0
 10
4.6326155114
 20
4.4245478858
 30
0.0
 10
4.645150398
 20
4.4215900244
 30
0.0
 10
4.6559331439
 20
4.4200985231
 30
0.0
 10
4.6646904393
 20
4.419496979
 30
0.0
 10
4.6690973141
 20
4.4193959146
 30
0.0
 10
4.6713018233
 20
4.4193959146
 30
0.0
  0
SPLINE
  5
35D
100
AcDbEntity
  8
ALL_ASSEMBLY_MEMBERS
100
AcDbSpline
 62
7
  6
CONTINUOUS
 70
0
 71
3
 72
27
 73
23
 74
0
 42
0.0000001
 43
0.0000001
 44
0.0000000001
 40
0.0
 40
0.0
 40
0.0
 40
0.0
 40
0.0257139422
 40
0.05148947
 40
0.103436769
 40
0.1297525051
 40
0.1563573995
 40
0.1832987654
 40
0.2106188327
 40
0.266516608
 40
0.3243074348
 40
0.3539709058
 40
0.3841526317
 40
0.4148562748
 40
0.4460815067
 40
0.5100497725
 40
0.5759728735
 40
0.7128689472
 40
0.7834583337
 40
0.8550610163
 40
0.9273771858
 40
1.0
 40
1.0
 40
1.0
 40
1.0
 10
4.5963019717
 20
4.4113686041
 30
0.0
 10
4.5963019717
 20
4.4105006783
 30
0.0
 10
4.596362333
 20
4.4087620458
 30
0.0
 10
4.5967249653
 20
4.405287573
 30
0.0
 10
4.5974520901
 20
4.4018387547
 30
0.0
 10
4.5985250588
 20
4.398463725
 30
0.0
 10
4.5995092793
 20
4.3959520585
 30
0.0
 10
4.6006665152
 20
4.39347801
 30
0.0
 10
4.6024493354
 20
4.3902127375
 30
0.0
 10
4.6051097282
 20
4.3862518854
 30
0.0
 10
4.6082517269
 20
4.3825589703
 30
0.0
 10
4.6110561862
 20
4.3797461618
 30
0.0
 10
4.6133229511
 20
4.3776940805
 30
0.0
 10
4.6157290537
 20
4.3757231665
 30
0.0
 10
4.6191426774
 20
4.373190194
 30
0.0
 10
4.6237323612
 20
4.3702576909
 30
0.0
 10
4.6317198393
 20
4.3660813966
 30
0.0
 10
4.6404063139
 20
4.3628337214
 30
0.0
 10
4.6495452539
 20
4.3605272084
 30
0.0
 10
4.6566818837
 20
4.3592661193
 30
0.0
 10
4.6639567047
 20
4.358505552
 30
0.0
 10
4.6688505765
 20
4.3583355955
 30
0.0
 10
4.6713018233
 20
4.3583355955
 30
0.0
  0
SPLINE
  5
35E
100
AcDbEntity
  8
ALL_ASSEMBLY_MEMBERS
100
AcDbSpline
 62
7
  6
CONTINUOUS
 70
0
 71
3
 72
41
 73
37
 74
0
 42
0.0000001
 43
0.0000001
 44
0.0000000001
 40
0.0
 40
0.0
 40
0.0
 40
0.0
 40
0.0362980159
 40
0.0724653974
 40
0.1082764918
 40
0.1435688418
 40
0.1782076908
 40
0.2120656245
 40
0.2450277418
 40
0.2770117958
 40
0.3079668944
 40
0.3230574277
 40
0.3378892135
 40
0.366784898
 40
0.3947334711
 40
0.4218511531
 40
0.4482970769
 40
0.4742707537
 40
0.5
 40
0.5257292463
 40
0.5517029231
 40
0.5781488469
 40
0.6052665289
 40
0.633215102
 40
0.6621107865
 40
0.6769425723
 40
0.6920331056
 40
0.7229882042
 40
0.7549722582
 40
0.7879343755
 40
0.8217923092
 40
0.8564311582
 40
0.8917235082
 40
0.9275346026
 40
0.9637019841
 40
1.0
 40
1.0
 40
1.0
 40
1.0
 10
4.6713018233
 20
4.7364532633
 30
0.0
 10
4.6730495802
 20
4.7364532633
 30
0.0
 10
4.6765399876
 20
4.7363316478
 30
0.0
 10
4.6817293424
 20
4.735789634
 30
0.0
 10
4.6868200404
 20
4.7348900426
 30
0.0
 10
4.6917612449
 20
4.7336432299
 30
0.0
 10
4.6965063751
 20
4.7320599118
 30
0.0
 10
4.7010111402
 20
4.7301563933
 30
0.0
 10
4.7052320275
 20
4.7279492435
 30
0.0
 10
4.7091283379
 20
4.7254599486
 30
0.0
 10
4.7120993751
 20
4.7231498459
 30
0.0
 10
4.7142731033
 20
4.7211816215
 30
0.0
 10
4.7162734308
 20
4.7191753284
 30
0.0
 10
4.7185149925
 20
4.7165413469
 30
0.0
 10
4.7207737302
 20
4.7131774269
 30
0.0
 10
4.7225571152
 20
4.7096696574
 30
0.0
 10
4.7238441995
 20
4.7060509969
 30
0.0
 10
4.7246234289
 20
4.7023577376
 30
0.0
 10
4.7248831617
 20
4.6986263708
 30
0.0
 10
4.7246234289
 20
4.694895004
 30
0.0
 10
4.7238441995
 20
4.6912017447
 30
0.0
 10
4.7225571152
 20
4.6875830842
 30
0.0
 10
4.7207737302
 20
4.6840753147
 30
0.0
 10
4.7185149925
 20
4.6807113947
 30
0.0
 10
4.7162734308
 20
4.6780774132
 30
0.0
 10
4.7142731033
 20
4.6760711201
 30
0.0
 10
4.7120993751
 20
4.6741028956
 30
0.0
 10
4.7091283379
 20
4.671792793
 30
0.0
 10
4.7052320275
 20
4.6693034981
 30
0.0
 10
4.7010111402
 20
4.6670963483
 30
0.0
 10
4.6965063751
 20
4.6651928298
 30
0.0
 10
4.6917612449
 20
4.6636095117
 30
0.0
 10
4.6868200404
 20
4.662362699
 30
0.0
 10
4.6817293424
 20
4.6614631076
 30
0.0
 10
4.6765399876
 20
4.6609210938
 30
0.0
 10
4.6730495802
 20
4.6607994783
 30
0.0
 10
4.6713018233
 20
4.6607994783
 30
0.0
  0
SPLINE
  5
35F
100
AcDbEntity
  8
ALL_ASSEMBLY_MEMBERS
100
AcDbSpline
 62
7
  6
CONTINUOUS
 70
0
 71
3
 72
32
 73
28
 74
0
 42
0.0000001
 43
0.0000001
 44
0.0000000001
 40
0.0
 40
0.0
 40
0.0
 40
0.0
 40
0.026408431
 40
0.052655586
 40
0.078816294
 40
0.104967494
 40
0.1311865103
 40
0.1575486973
 40
0.1841271741
 40
0.2109906368
 40
0.2382015658
 40
0.2658170596
 40
0.3224222818
 40
0.3515178689
 40
0.3811704417
 40
0.4421849456
 40
0.4735864283
 40
0.5055729411
 40
0.5712346656
 40
0.6048921931
 40
0.6390596328
 40
0.7087795561
 40
0.7801019186
 40
0.8162617905
 40
0.8526902776
 40
0.9261497815
 40
1.0
 40
1.0
 40
1.0
 40
1.0
 10
4.7880439695
 20
4.637892623
 30
0.0
 10
4.7884054146
 20
4.6364021596
 30
0.0
 10
4.7890153558
 20
4.6334021476
 30
0.0
 10
4.7895849407
 20
4.6288562231
 30
0.0
 10
4.7898041623
 20
4.6242946252
 30
0.0
 10
4.7896710218
 20
4.6197313959
 30
0.0
 10
4.7891869103
 20
4.6151802477
 30
0.0
 10
4.7883537326
 20
4.6106547315
 30
0.0
 10
4.7871729233
 20
4.6061686078
 30
0.0
 10
4.7856486828
 20
4.6017353317
 30
0.0
 10
4.7837862255
 20
4.597367547
 30
0.0
 10
4.7808353406
 20
4.5916034211
 30
0.0
 10
4.7772392198
 20
4.5860651276
 30
0.0
 10
4.7730775541
 20
4.5808115532
 30
0.0
 10
4.7684318406
 20
4.575630417
 30
0.0
 10
4.7632376366
 20
4.5707797001
 30
0.0
 10
4.7575746517
 20
4.5662895342
 30
0.0
 10
4.7514646226
 20
4.5619444502
 30
0.0
 10
4.7449193185
 20
4.5580039541
 30
0.0
 10
4.7380123111
 20
4.5544796676
 30
0.0
 10
4.7307367119
 20
4.551176183
 30
0.0
 10
4.7211978872
 20
4.5475951469
 30
0.0
 10
4.7112820373
 20
4.5447965943
 30
0.0
 10
4.7031142161
 20
4.5430167976
 30
0.0
 10
4.6947596685
 20
4.5415419836
 30
0.0
 10
4.6841490031
 20
4.5403114438
 30
0.0
 10
4.6755906577
 20
4.5399822107
 30
0.0
 10
4.6713018233
 20
4.5399822107
 30
0.0
  0
SPLINE
  5
360
100
AcDbEntity
  8
ALL_ASSEMBLY_MEMBERS
100
AcDbSpline
 62
7
  6
CONTINUOUS
 70
0
 71
3
 72
23
 73
19
 74
0
 42
0.0000001
 43
0.0000001
 44
0.0000000001
 40
0.0
 40
0.0
 40
0.0
 40
0.0
 40
0.0515278598
 40
0.1041511142
 40
0.1581277526
 40
0.2136548564
 40
0.2708734195
 40
0.3298601514
 40
0.390639321
 40
0.4531772489
 40
0.517397744
 40
0.5831793694
 40
0.6503672828
 40
0.7187663168
 40
0.7881639682
 40
0.858346344
 40
0.9290703232
 40
1.0
 40
1.0
 40
1.0
 40
1.0
 10
4.7876030859
 20
4.5091542491
 30
0.0
 10
4.7869524504
 20
4.5067701672
 30
0.0
 10
4.7853490225
 20
4.5020254373
 30
0.0
 10
4.7821159176
 20
4.4951489989
 30
0.0
 10
4.7780568483
 20
4.4884997787
 30
0.0
 10
4.7732062045
 20
4.4821265651
 30
0.0
 10
4.7675990342
 20
4.476077163
 30
0.0
 10
4.761279711
 20
4.4703936904
 30
0.0
 10
4.754293832
 20
4.4651193732
 30
0.0
 10
4.7466949614
 20
4.460290269
 30
0.0
 10
4.7385380569
 20
4.4559436779
 30
0.0
 10
4.7298844814
 20
4.4521090356
 30
0.0
 10
4.7207974333
 20
4.4488167975
 30
0.0
 10
4.7113452665
 20
4.4460883579
 30
0.0
 10
4.7015965256
 20
4.4439459062
 30
0.0
 10
4.6916222973
 20
4.4424034965
 30
0.0
 10
4.6814990867
 20
4.4414749928
 30
0.0
 10
4.6747036015
 20
4.4412672583
 30
0.0
 10
4.6713018233
 20
4.4412672583
 30
0.0
  0
SPLINE
  5
361
100
AcDbEntity
  8
ALL_ASSEMBLY_MEMBERS
100
AcDbSpline
 62
7
  6
CONTINUOUS
 70
0
 71
3
 72
24
 73
20
 74
0
 42
0.0000001
 43
0.0000001
 44
0.0000000001
 40
0.0
 40
0.0
 40
0.0
 40
0.0
 40
0.0625159525
 40
0.1251229103
 40
0.1876673421
 40
0.2501199406
 40
0.312511235
 40
0.3748493473
 40
0.4371181172
 40
0.4993139823
 40
0.5614468846
 40
0.6235468377
 40
0.6856638472
 40
0.7478834581
 40
0.8103325243
 40
0.8731430698
 40
0.9363996422
 40
0.9681862885
 40
1.0
 40
1.0
 40
1.0
 40
1.0
 10
4.5550005293
 20
3.6874538593
 30
0.0
 10
4.555895939
 20
3.6841723311
 30
0.0
 10
4.557918567
 20
3.6776649646
 30
0.0
 10
4.5616235055
 20
3.6681412969
 30
0.0
 10
4.5659896645
 20
3.6589050612
 30
0.0
 10
4.5709967763
 20
3.6500134617
 30
0.0
 10
4.5766240621
 20
3.6415140068
 30
0.0
 10
4.5828488409
 20
3.6334542287
 30
0.0
 10
4.5896456006
 20
3.6258843776
 30
0.0
 10
4.5969869966
 20
3.6188570145
 30
0.0
 10
4.6048425754
 20
3.6124232673
 30
0.0
 10
4.6131814198
 20
3.6066359425
 30
0.0
 10
4.6219724964
 20
3.6015506963
 30
0.0
 10
4.6311844437
 20
3.5972274672
 30
0.0
 10
4.6407835043
 20
3.5937332508
 30
0.0
 10
4.6507247429
 20
3.591144703
 30
0.0
 10
4.6592259403
 20
3.589811555
 30
0.0
 10
4.6661095949
 20
3.5892726337
 30
0.0
 10
4.669570837
 20
3.5891814392
 30
0.0
 10
4.6713018233
 20
3.5891814392
 30
0.0
  0
SPLINE
  5
362
100
AcDbEntity
  8
ALL_ASSEMBLY_MEMBERS
100
AcDbSpline
 62
7
  6
CONTINUOUS
 70
0
 71
3
 72
13
 73
9
 74
0
 42
0.0000001
 43
0.0000001
 44
0.0000000001
 40
0.0
 40
0.0
 40
0.0
 40
0.0
 40
0.1244516229
 40
0.2494991529
 40
0.4999963381
 40
0.750498814
 40
0.8755509688
 40
1.0
 40
1.0
 40
1.0
 40
1.0
 10
4.5550005293
 20
3.8179032086
 30
0.0
 10
4.5535597967
 20
3.812623163
 30
0.0
 10
4.5510295177
 20
3.8019361116
 30
0.0
 10
4.5473956257
 20
3.7802367837
 30
0.0
 10
4.5455722542
 20
3.752678792
 30
0.0
 10
4.5473955617
 20
3.7251205781
 30
0.0
 10
4.5510296118
 20
3.7034209525
 30
0.0
 10
4.5535598267
 20
3.6927337949
 30
0.0
 10
4.5550005293
 20
3.6874538593
 30
0.0
  0
SPLINE
  5
363
100
AcDbEntity
  8
ALL_ASSEMBLY_MEMBERS
100
AcDbSpline
 62
7
  6
CONTINUOUS
 70
0
 71
3
 72
14
 73
10
 74
0
 42
0.0000001
 43
0.0000001
 44
0.0000000001
 40
0.0
 40
0.0
 40
0.0
 40
0.0
 40
0.1245756403
 40
0.2494590639
 40
0.3744385931
 40
0.4994205319
 40
0.6244781569
 40
0.7496760468
 40
1.0
 40
1.0
 40
1.0
 40
1.0
 10
4.5833015693
 20
3.8722489287
 30
0.0
 10
4.5816525133
 20
3.870285963
 30
0.0
 10
4.5784605115
 20
3.8662611646
 30
0.0
 10
4.5740107898
 20
3.8599654885
 30
0.0
 10
4.5699072134
 20
3.8534287504
 30
0.0
 10
4.5661636923
 20
3.8466755149
 30
0.0
 10
4.562787688
 20
3.8397258509
 30
0.0
 10
4.5587877125
 20
3.8302288618
 30
0.0
 10
4.5563566246
 20
3.8228730727
 30
0.0
 10
4.5550005293
 20
3.8179032086
 30
0.0
  0
SPLINE
  5
364
100
AcDbEntity
  8
ALL_ASSEMBLY_MEMBERS
100
AcDbSpline
 62
7
  6
CONTINUOUS
 70
0
 71
3
 72
21
 73
17
 74
0
 42
0.0000001
 43
0.0000001
 44
0.0000000001
 40
0.0
 40
0.0
 40
0.0
 40
0.0
 40
0.0237650407
 40
0.0560435916
 40
0.0958888661
 40
0.1424637715
 40
0.1950325004
 40
0.2528991281
 40
0.3154290693
 40
0.3820275672
 40
0.4521240595
 40
0.5251861666
 40
0.600705571
 40
0.6781841271
 40
0.8372899873
 40
1.0
 40
1.0
 40
1.0
 40
1.0
 10
4.5833015689
 20
3.8722489282
 30
0.0
 10
4.5835365822
 20
3.872528678
 30
0.0
 10
4.5840725218
 20
3.8732037513
 30
0.0
 10
4.5849410438
 20
3.8743954468
 30
0.0
 10
4.5859495291
 20
3.8759171225
 30
0.0
 10
4.5870499378
 20
3.8777495926
 30
0.0
 10
4.5882033726
 20
3.8798709374
 30
0.0
 10
4.5893688312
 20
3.8822620915
 30
0.0
 10
4.5905144288
 20
3.8848998141
 30
0.0
 10
4.5916135423
 20
3.8877597291
 30
0.0
 10
4.5926373491
 20
3.8908188211
 30
0.0
 10
4.5935639551
 20
3.8940516456
 30
0.0
 10
4.5943788883
 20
3.8974313104
 30
0.0
 10
4.5953037131
 20
3.9021409805
 30
0.0
 10
4.59608814
 20
3.9082373932
 30
0.0
 10
4.5963018233
 20
3.9131873407
 30
0.0
 10
4.5963018233
 20
3.9156888493
 30
0.0
  0
SPLINE
  5
365
100
AcDbEntity
  8
ALL_ASSEMBLY_MEMBERS
100
AcDbSpline
 62
7
  6
CONTINUOUS
 70
0
 71
3
 72
23
 73
19
 74
0
 42
0.0000001
 43
0.0000001
 44
0.0000000001
 40
0.0
 40
0.0
 40
0.0
 40
0.0
 40
0.1629044433
 40
0.2430691375
 40
0.3219754444
 40
0.3993277531
 40
0.4747772559
 40
0.5478242483
 40
0.6179259473
 40
0.6845246912
 40
0.7470534242
 40
0.8049211966
 40
0.8575002382
 40
0.9041331
 40
0.9440699126
 40
0.9763644795
 40
0.9893301785
 40
1.0
 40
1.0
 40
1.0
 40
1.0
 10
4.7463018233
 20
3.9156888493
 30
0.0
 10
4.7463018233
 20
3.9131842837
 30
0.0
 10
4.7464643962
 20
3.9094446275
 30
0.0
 10
4.7469951278
 20
3.9045219946
 30
0.0
 10
4.7475384784
 20
3.9009267302
 30
0.0
 10
4.7482231015
 20
3.8974296016
 30
0.0
 10
4.7490404154
 20
3.8940537238
 30
0.0
 10
4.7499699713
 20
3.8908229651
 30
0.0
 10
4.7509921349
 20
3.8877634905
 30
0.0
 10
4.7520865103
 20
3.8849015553
 30
0.0
 10
4.7532338315
 20
3.8822644081
 30
0.0
 10
4.7544008625
 20
3.8798738324
 30
0.0
 10
4.7555525733
 20
3.8777502948
 30
0.0
 10
4.7566543428
 20
3.8759156005
 30
0.0
 10
4.7576667001
 20
3.8743934588
 30
0.0
 10
4.7584375937
 20
3.8733339367
 30
0.0
 10
4.7589666885
 20
3.8726560199
 30
0.0
 10
4.7591965608
 20
3.8723745312
 30
0.0
 10
4.7593020778
 20
3.8722489282
 30
0.0
  0
SPLINE
  5
366
100
AcDbEntity
  8
ALL_ASSEMBLY_MEMBERS
100
AcDbSpline
 62
7
  6
CONTINUOUS
 70
0
 71
3
 72
14
 73
10
 74
0
 42
0.0000001
 43
0.0000001
 44
0.0000000001
 40
0.0
 40
0.0
 40
0.0
 40
0.0
 40
0.2503193861
 40
0.3755183033
 40
0.5005761679
 40
0.6255591599
 40
0.7505406662
 40
0.8754248933
 40
1.0
 40
1.0
 40
1.0
 40
1.0
 10
4.7876031174
 20
3.8179032086
 30
0.0
 10
4.7862470468
 20
3.8228729821
 30
0.0
 10
4.7838159879
 20
3.8302287024
 30
0.0
 10
4.7798160802
 20
3.8397256469
 30
0.0
 10
4.7764400562
 20
3.8466753552
 30
0.0
 10
4.7726964937
 20
3.853428645
 30
0.0
 10
4.7685928638
 20
3.8599654427
 30
0.0
 10
4.7641431264
 20
3.8662611641
 30
0.0
 10
4.7609511264
 20
3.8702859714
 30
0.0
 10
4.7593020774
 20
3.8722489287
 30
0.0
  0
SPLINE
  5
367
100
AcDbEntity
  8
ALL_ASSEMBLY_MEMBERS
100
AcDbSpline
 62
7
  6
CONTINUOUS
 70
0
 71
3
 72
23
 73
19
 74
0
 42
0.0000001
 43
0.0000001
 44
0.0000000001
 40
0.0
 40
0.0
 40
0.0
 40
0.0
 40
0.0635881336
 40
0.1268473166
 40
0.1896607286
 40
0.2521109684
 40
0.3143349871
 40
0.376457438
 40
0.4385626356
 40
0.5007010905
 40
0.5628971369
 40
0.6251617499
 40
0.6874924498
 40
0.7498835885
 40
0.8123305409
 40
0.8748529937
 40
0.9374423479
 40
1.0
 40
1.0
 40
1.0
 40
1.0
 10
4.6713018233
 20
3.5891814392
 30
0.0
 10
4.6747615847
 20
3.5891814392
 30
0.0
 10
4.6816685752
 20
3.5895434534
 30
0.0
 10
4.691879843
 20
3.5911447849
 30
0.0
 10
4.7018218176
 20
3.593733905
 30
0.0
 10
4.7114209481
 20
3.5972280832
 30
0.0
 10
4.7206331355
 20
3.6015518362
 30
0.0
 10
4.7294246665
 20
3.6066374688
 30
0.0
 10
4.7377639432
 20
3.6124253586
 30
0.0
 10
4.7456195643
 20
3.6188596708
 30
0.0
 10
4.7529605088
 20
3.6258872866
 30
0.0
 10
4.7597571197
 20
3.6334561503
 30
0.0
 10
4.7659808691
 20
3.6415156699
 30
0.0
 10
4.7716071741
 20
3.6500146396
 30
0.0
 10
4.7766133014
 20
3.6589047878
 30
0.0
 10
4.7809790597
 20
3.6681382306
 30
0.0
 10
4.7846845321
 20
3.6776616066
 30
0.0
 10
4.7867071294
 20
3.6841702122
 30
0.0
 10
4.7876031174
 20
3.6874538593
 30
0.0
  0
SPLINE
  5
368
100
AcDbEntity
  8
ALL_ASSEMBLY_MEMBERS
100
AcDbSpline
 62
7
  6
CONTINUOUS
 70
0
 71
3
 72
13
 73
9
 74
0
 42
0.0000001
 43
0.0000001
 44
0.0000000001
 40
0.0
 40
0.0
 40
0.0
 40
0.0
 40
0.1244516229
 40
0.2494991529
 40
0.4999963381
 40
0.750498814
 40
0.8755509688
 40
1.0
 40
1.0
 40
1.0
 40
1.0
 10
4.7876031174
 20
3.6874538593
 30
0.0
 10
4.78904385
 20
3.6927339049
 30
0.0
 10
4.791574129
 20
3.7034209563
 30
0.0
 10
4.795208021
 20
3.7251202842
 30
0.0
 10
4.7970313925
 20
3.7526782759
 30
0.0
 10
4.795208085
 20
3.7802364899
 30
0.0
 10
4.7915740349
 20
3.8019361155
 30
0.0
 10
4.78904382
 20
3.812623273
 30
0.0
 10
4.7876031174
 20
3.8179032086
 30
0.0
  0
SPLINE
  5
369
100
AcDbEntity
  8
ALL_ASSEMBLY_MEMBERS
100
AcDbSpline
 62
7
  6
CONTINUOUS
 70
0
 71
3
 72
23
 73
19
 74
0
 42
0.0000001
 43
0.0000001
 44
0.0000000001
 40
0.0
 40
0.0
 40
0.0
 40
0.0
 40
0.0709296768
 40
0.141653656
 40
0.2118360318
 40
0.2812336832
 40
0.3496327172
 40
0.4168206306
 40
0.482602256
 40
0.5468227511
 40
0.609360679
 40
0.6701398486
 40
0.7291265805
 40
0.7863451436
 40
0.8418722474
 40
0.8958488858
 40
0.9484721402
 40
1.0
 40
1.0
 40
1.0
 40
1.0
 10
4.6713018233
 20
3.8857901951
 30
0.0
 10
4.6747036015
 20
3.8857901951
 30
0.0
 10
4.6814990867
 20
3.8855824606
 30
0.0
 10
4.6916222973
 20
3.8846539569
 30
0.0
 10
4.7015965256
 20
3.8831115472
 30
0.0
 10
4.7113452665
 20
3.8809690955
 30
0.0
 10
4.7207974333
 20
3.8782406559
 30
0.0
 10
4.7298844814
 20
3.8749484178
 30
0.0
 10
4.7385380569
 20
3.8711137755
 30
0.0
 10
4.7466949614
 20
3.8667671844
 30
0.0
 10
4.754293832
 20
3.8619380802
 30
0.0
 10
4.761279711
 20
3.8566637631
 30
0.0
 10
4.7675990342
 20
3.8509802905
 30
0.0
 10
4.7732062045
 20
3.8449308884
 30
0.0
 10
4.7780568483
 20
3.8385576747
 30
0.0
 10
4.7821159176
 20
3.8319084545
 30
0.0
 10
4.7853490225
 20
3.8250320161
 30
0.0
 10
4.7869524504
 20
3.8202872862
 30
0.0
 10
4.7876030859
 20
3.8179032043
 30
0.0
  0
SPLINE
  5
36A
100
AcDbEntity
  8
ALL_ASSEMBLY_MEMBERS
100
AcDbSpline
 62
7
  6
CONTINUOUS
 70
0
 71
3
 72
41
 73
37
 74
0
 42
0.0000001
 43
0.0000001
 44
0.0000000001
 40
0.0
 40
0.0
 40
0.0
 40
0.0
 40
0.0362980159
 40
0.0724653974
 40
0.1082764918
 40
0.1435688418
 40
0.1782076908
 40
0.2120656245
 40
0.2450277418
 40
0.2770117958
 40
0.3079668944
 40
0.3230574277
 40
0.3378892135
 40
0.366784898
 40
0.3947334711
 40
0.4218511531
 40
0.4482970769
 40
0.4742707537
 40
0.5
 40
0.5257292463
 40
0.5517029231
 40
0.5781488469
 40
0.6052665289
 40
0.633215102
 40
0.6621107865
 40
0.6769425723
 40
0.6920331056
 40
0.7229882042
 40
0.7549722582
 40
0.7879343755
 40
0.8217923092
 40
0.8564311582
 40
0.8917235082
 40
0.9275346026
 40
0.9637019841
 40
1.0
 40
1.0
 40
1.0
 40
1.0
 10
4.6713018233
 20
3.6662579751
 30
0.0
 10
4.6695540665
 20
3.6662579751
 30
0.0
 10
4.666063659
 20
3.6661363596
 30
0.0
 10
4.6608743043
 20
3.6655943458
 30
0.0
 10
4.6557836063
 20
3.6646947544
 30
0.0
 10
4.6508424018
 20
3.6634479417
 30
0.0
 10
4.6460972715
 20
3.6618646236
 30
0.0
 10
4.6415925064
 20
3.6599611051
 30
0.0
 10
4.6373716192
 20
3.6577539553
 30
0.0
 10
4.6334753087
 20
3.6552646604
 30
0.0
 10
4.6305042715
 20
3.6529545578
 30
0.0
 10
4.6283305433
 20
3.6509863333
 30
0.0
 10
4.6263302158
 20
3.6489800402
 30
0.0
 10
4.6240886542
 20
3.6463460587
 30
0.0
 10
4.6218299165
 20
3.6429821387
 30
0.0
 10
4.6200465315
 20
3.6394743692
 30
0.0
 10
4.6187594471
 20
3.6358557087
 30
0.0
 10
4.6179802178
 20
3.6321624494
 30
0.0
 10
4.617720485
 20
3.6284310826
 30
0.0
 10
4.6179802178
 20
3.6246997158
 30
0.0
 10
4.6187594471
 20
3.6210064565
 30
0.0
 10
4.6200465315
 20
3.6173877961
 30
0.0
 10
4.6218299165
 20
3.6138800266
 30
0.0
 10
4.6240886542
 20
3.6105161065
 30
0.0
 10
4.6263302158
 20
3.607882125
 30
0.0
 10
4.6283305433
 20
3.605875832
 30
0.0
 10
4.6305042715
 20
3.6039076075
 30
0.0
 10
4.6334753087
 20
3.6015975048
 30
0.0
 10
4.6373716192
 20
3.5991082099
 30
0.0
 10
4.6415925064
 20
3.5969010601
 30
0.0
 10
4.6460972715
 20
3.5949975416
 30
0.0
 10
4.6508424018
 20
3.5934142235
 30
0.0
 10
4.6557836063
 20
3.5921674109
 30
0.0
 10
4.6608743043
 20
3.5912678194
 30
0.0
 10
4.666063659
 20
3.5907258057
 30
0.0
 10
4.6695540665
 20
3.5906041901
 30
0.0
 10
4.6713018233
 20
3.5906041901
 30
0.0
  0
SPLINE
  5
36B
100
AcDbEntity
  8
ALL_ASSEMBLY_MEMBERS
100
AcDbSpline
 62
7
  6
CONTINUOUS
 70
0
 71
3
 72
31
 73
27
 74
0
 42
0.0000001
 43
0.0000001
 44
0.0000000001
 40
0.0
 40
0.0
 40
0.0
 40
0.0
 40
0.0739818255
 40
0.1475607832
 40
0.1840415804
 40
0.2202473686
 40
0.2916375064
 40
0.3613866817
 40
0.3955532846
 40
0.4291991332
 40
0.4948043646
 40
0.5580741483
 40
0.6189605299
 40
0.6485415752
 40
0.6775632935
 40
0.7340234568
 40
0.7615745989
 40
0.7887309541
 40
0.8155526252
 40
0.8421054822
 40
0.8684617754
 40
0.8946972981
 40
0.9208900838
 40
0.9471197019
 40
0.9734643525
 40
1.0
 40
1.0
 40
1.0
 40
1.0
 10
4.6713018233
 20
3.7870752427
 30
0.0
 10
4.6669619194
 20
3.7870752427
 30
0.0
 10
4.6583022531
 20
3.7867381848
 30
0.0
 10
4.6475681009
 20
3.7854782439
 30
0.0
 10
4.6391196646
 20
3.7839683645
 30
0.0
 10
4.6308644918
 20
3.7821467411
 30
0.0
 10
4.6208497566
 20
3.779283272
 30
0.0
 10
4.6112256125
 20
3.7756194679
 30
0.0
 10
4.6038944966
 20
3.7722407822
 30
0.0
 10
4.5969437828
 20
3.7686383135
 30
0.0
 10
4.5887989316
 20
3.763650716
 30
0.0
 10
4.579933879
 20
3.7568852423
 30
0.0
 10
4.57339736
 20
3.7506399137
 30
0.0
 10
4.5687846937
 20
3.7453565583
 30
0.0
 10
4.5646688249
 20
3.7400028443
 30
0.0
 10
4.56113701
 20
3.7343629945
 30
0.0
 10
4.558272046
 20
3.7284998385
 30
0.0
 10
4.5564826592
 20
3.7240598442
 30
0.0
 10
4.5550411135
 20
3.7195565662
 30
0.0
 10
4.5539529108
 20
3.7150031299
 30
0.0
 10
4.5532212448
 20
3.7104137523
 30
0.0
 10
4.5528475843
 20
3.7058025776
 30
0.0
 10
4.5528341244
 20
3.7011837089
 30
0.0
 10
4.5531810341
 20
3.6965714189
 30
0.0
 10
4.553886039
 20
3.6919801401
 30
0.0
 10
4.554590732
 20
3.6889555727
 30
0.0
 10
4.5550005608
 20
3.6874538636
 30
0.0
  0
SPLINE
  5
36C
100
AcDbEntity
  8
ALL_ASSEMBLY_MEMBERS
100
AcDbSpline
 62
7
  6
CONTINUOUS
 70
0
 71
3
 72
27
 73
23
 74
0
 42
0.0000001
 43
0.0000001
 44
0.0000000001
 40
0.0
 40
0.0
 40
0.0
 40
0.0
 40
0.0726227486
 40
0.1449387688
 40
0.2165413862
 40
0.2871308063
 40
0.4240269662
 40
0.4899500977
 40
0.5539184004
 40
0.5851436461
 40
0.6158472995
 40
0.646029034
 40
0.6756925126
 40
0.7334833577
 40
0.7893811487
 40
0.8167012202
 40
0.843642589
 40
0.8702474857
 40
0.8965632244
 40
0.9485105284
 40
0.9742860575
 40
1.0
 40
1.0
 40
1.0
 40
1.0
 10
4.6713018233
 20
3.9687218579
 30
0.0
 10
4.6688505787
 20
3.9687218579
 30
0.0
 10
4.6639567141
 20
3.9685519034
 30
0.0
 10
4.6566819026
 20
3.9677913358
 30
0.0
 10
4.6495452784
 20
3.9665302507
 30
0.0
 10
4.6404063363
 20
3.9642237383
 30
0.0
 10
4.6317198556
 20
3.9609760649
 30
0.0
 10
4.6237323727
 20
3.9567997686
 30
0.0
 10
4.6191426857
 20
3.9538672654
 30
0.0
 10
4.6157290601
 20
3.9513342919
 30
0.0
 10
4.6133229565
 20
3.9493633774
 30
0.0
 10
4.6110561905
 20
3.947311296
 30
0.0
 10
4.6082517302
 20
3.9444984869
 30
0.0
 10
4.6051097305
 20
3.9408055707
 30
0.0
 10
4.6024493366
 20
3.9368447179
 30
0.0
 10
4.6006665159
 20
3.9335794448
 30
0.0
 10
4.5995092797
 20
3.931105396
 30
0.0
 10
4.5985250591
 20
3.9285937293
 30
0.0
 10
4.5974520903
 20
3.9252186993
 30
0.0
 10
4.5967249653
 20
3.9217698807
 30
0.0
 10
4.596362333
 20
3.9182954077
 30
0.0
 10
4.5963019717
 20
3.9165567752
 30
0.0
 10
4.5963019717
 20
3.9156888493
 30
0.0
  0
SPLINE
  5
36D
100
AcDbEntity
  8
ALL_ASSEMBLY_MEMBERS
100
AcDbSpline
 62
7
  6
CONTINUOUS
 70
0
 71
3
 72
17
 73
13
 74
0
 42
0.0000001
 43
0.0000001
 44
0.0000000001
 40
0.0
 40
0.0
 40
0.0
 40
0.0
 40
0.0676778992
 40
0.1352665324
 40
0.2694098207
 40
0.401326516
 40
0.5300800082
 40
0.5930183697
 40
0.6548658047
 40
0.7749618755
 40
0.8900321294
 40
1.0
 40
1.0
 40
1.0
 40
1.0
 10
4.6713018233
 20
3.9076615388
 30
0.0
 10
4.6690973153
 20
3.9076615388
 30
0.0
 10
4.6646904453
 20
3.9075604763
 30
0.0
 10
4.6559331604
 20
3.9069589367
 30
0.0
 10
4.6451504231
 20
3.9054674297
 30
0.0
 10
4.6326155393
 20
3.9025095682
 30
0.0
 10
4.6226238234
 20
3.8990894103
 30
0.0
 10
4.6150412624
 20
3.8958077737
 30
0.0
 10
4.6078987414
 20
3.8922495617
 30
0.0
 10
4.5996055887
 20
3.8872211643
 30
0.0
 10
4.590742941
 20
3.8802599995
 30
0.0
 10
4.5856056399
 20
3.8749916503
 30
0.0
 10
4.5833016719
 20
3.8722488865
 30
0.0
  0
SPLINE
  5
36E
100
AcDbEntity
  8
ALL_ASSEMBLY_MEMBERS
100
AcDbSpline
 62
7
  6
CONTINUOUS
 70
0
 71
3
 72
23
 73
19
 74
0
 42
0.0000001
 43
0.0000001
 44
0.0000000001
 40
0.0
 40
0.0
 40
0.0
 40
0.0
 40
0.0709296768
 40
0.141653656
 40
0.2118360318
 40
0.2812336832
 40
0.3496327172
 40
0.4168206306
 40
0.482602256
 40
0.5468227511
 40
0.609360679
 40
0.6701398486
 40
0.7291265805
 40
0.7863451436
 40
0.8418722474
 40
0.8958488858
 40
0.9484721402
 40
1.0
 40
1.0
 40
1.0
 40
1.0
 10
4.6713018233
 20
3.8857901951
 30
0.0
 10
4.6679000452
 20
3.8857901951
 30
0.0
 10
4.66110456
 20
3.8855824606
 30
0.0
 10
4.6509813494
 20
3.8846539569
 30
0.0
 10
4.641007121
 20
3.8831115472
 30
0.0
 10
4.6312583801
 20
3.8809690955
 30
0.0
 10
4.6218062134
 20
3.8782406559
 30
0.0
 10
4.6127191653
 20
3.8749484178
 30
0.0
 10
4.6040655898
 20
3.8711137755
 30
0.0
 10
4.5959086852
 20
3.8667671844
 30
0.0
 10
4.5883098147
 20
3.8619380802
 30
0.0
 10
4.5813239357
 20
3.8566637631
 30
0.0
 10
4.5750046124
 20
3.8509802905
 30
0.0
 10
4.5693974422
 20
3.8449308884
 30
0.0
 10
4.5645467983
 20
3.8385576747
 30
0.0
 10
4.560487729
 20
3.8319084545
 30
0.0
 10
4.5572546242
 20
3.8250320161
 30
0.0
 10
4.5556511963
 20
3.8202872862
 30
0.0
 10
4.5550005608
 20
3.8179032043
 30
0.0
  0
SPLINE
  5
36F
100
AcDbEntity
  8
ALL_ASSEMBLY_MEMBERS
100
AcDbSpline
 62
7
  6
CONTINUOUS
 70
0
 71
3
 72
27
 73
23
 74
0
 42
0.0000001
 43
0.0000001
 44
0.0000000001
 40
0.0
 40
0.0
 40
0.0
 40
0.0
 40
0.0257139422
 40
0.05148947
 40
0.103436769
 40
0.1297525051
 40
0.1563573995
 40
0.1832987654
 40
0.2106188327
 40
0.266516608
 40
0.3243074348
 40
0.3539709058
 40
0.3841526317
 40
0.4148562748
 40
0.4460815067
 40
0.5100497725
 40
0.5759728735
 40
0.7128689472
 40
0.7834583337
 40
0.8550610163
 40
0.9273771858
 40
1.0
 40
1.0
 40
1.0
 40
1.0
 10
4.746301675
 20
3.9156888493
 30
0.0
 10
4.746301675
 20
3.9165567752
 30
0.0
 10
4.7462413137
 20
3.9182954076
 30
0.0
 10
4.7458786814
 20
3.9217698804
 30
0.0
 10
4.7451515566
 20
3.9252186987
 30
0.0
 10
4.7440785879
 20
3.9285937284
 30
0.0
 10
4.7430943674
 20
3.9311053949
 30
0.0
 10
4.7419371315
 20
3.9335794434
 30
0.0
 10
4.7401543113
 20
3.936844716
 30
0.0
 10
4.7374939185
 20
3.940805568
 30
0.0
 10
4.7343519198
 20
3.9444984832
 30
0.0
 10
4.7315474605
 20
3.9473112917
 30
0.0
 10
4.7292806955
 20
3.9493633729
 30
0.0
 10
4.726874593
 20
3.9513342869
 30
0.0
 10
4.7234609693
 20
3.9538672595
 30
0.0
 10
4.7188712854
 20
3.9567997625
 30
0.0
 10
4.7108838074
 20
3.9609760568
 30
0.0
 10
4.7021973328
 20
3.9642237321
 30
0.0
 10
4.6930583928
 20
3.966530245
 30
0.0
 10
4.685921763
 20
3.9677913342
 30
0.0
 10
4.6786469419
 20
3.9685519014
 30
0.0
 10
4.6737530702
 20
3.9687218579
 30
0.0
 10
4.6713018233
 20
3.9687218579
 30
0.0
  0
SPLINE
  5
370
100
AcDbEntity
  8
ALL_ASSEMBLY_MEMBERS
100
AcDbSpline
 62
7
  6
CONTINUOUS
 70
0
 71
3
 72
41
 73
37
 74
0
 42
0.0000001
 43
0.0000001
 44
0.0000000001
 40
0.0
 40
0.0
 40
0.0
 40
0.0
 40
0.0362980159
 40
0.0724653974
 40
0.1082764918
 40
0.1435688418
 40
0.1782076908
 40
0.2120656245
 40
0.2450277418
 40
0.2770117958
 40
0.3079668944
 40
0.3230574277
 40
0.3378892135
 40
0.366784898
 40
0.3947334711
 40
0.4218511531
 40
0.4482970769
 40
0.4742707537
 40
0.5
 40
0.5257292463
 40
0.5517029231
 40
0.5781488469
 40
0.6052665289
 40
0.633215102
 40
0.6621107865
 40
0.6769425723
 40
0.6920331056
 40
0.7229882042
 40
0.7549722582
 40
0.7879343755
 40
0.8217923092
 40
0.8564311582
 40
0.8917235082
 40
0.9275346026
 40
0.9637019841
 40
1.0
 40
1.0
 40
1.0
 40
1.0
 10
4.6713018233
 20
3.6662579751
 30
0.0
 10
4.6730495802
 20
3.6662579751
 30
0.0
 10
4.6765399876
 20
3.6661363596
 30
0.0
 10
4.6817293424
 20
3.6655943458
 30
0.0
 10
4.6868200404
 20
3.6646947544
 30
0.0
 10
4.6917612449
 20
3.6634479417
 30
0.0
 10
4.6965063751
 20
3.6618646236
 30
0.0
 10
4.7010111402
 20
3.6599611051
 30
0.0
 10
4.7052320275
 20
3.6577539553
 30
0.0
 10
4.7091283379
 20
3.6552646604
 30
0.0
 10
4.7120993751
 20
3.6529545578
 30
0.0
 10
4.7142731033
 20
3.6509863333
 30
0.0
 10
4.7162734308
 20
3.6489800402
 30
0.0
 10
4.7185149925
 20
3.6463460587
 30
0.0
 10
4.7207737302
 20
3.6429821387
 30
0.0
 10
4.7225571152
 20
3.6394743692
 30
0.0
 10
4.7238441995
 20
3.6358557087
 30
0.0
 10
4.7246234289
 20
3.6321624494
 30
0.0
 10
4.7248831617
 20
3.6284310826
 30
0.0
 10
4.7246234289
 20
3.6246997158
 30
0.0
 10
4.7238441995
 20
3.6210064565
 30
0.0
 10
4.7225571152
 20
3.6173877961
 30
0.0
 10
4.7207737302
 20
3.6138800266
 30
0.0
 10
4.7185149925
 20
3.6105161065
 30
0.0
 10
4.7162734308
 20
3.607882125
 30
0.0
 10
4.7142731033
 20
3.605875832
 30
0.0
 10
4.7120993751
 20
3.6039076075
 30
0.0
 10
4.7091283379
 20
3.6015975048
 30
0.0
 10
4.7052320275
 20
3.5991082099
 30
0.0
 10
4.7010111402
 20
3.5969010601
 30
0.0
 10
4.6965063751
 20
3.5949975416
 30
0.0
 10
4.6917612449
 20
3.5934142235
 30
0.0
 10
4.6868200404
 20
3.5921674109
 30
0.0
 10
4.6817293424
 20
3.5912678194
 30
0.0
 10
4.6765399876
 20
3.5907258057
 30
0.0
 10
4.6730495802
 20
3.5906041901
 30
0.0
 10
4.6713018233
 20
3.5906041901
 30
0.0
  0
SPLINE
  5
371
100
AcDbEntity
  8
ALL_ASSEMBLY_MEMBERS
100
AcDbSpline
 62
7
  6
CONTINUOUS
 70
0
 71
3
 72
17
 73
13
 74
0
 42
0.0000001
 43
0.0000001
 44
0.0000000001
 40
0.0
 40
0.0
 40
0.0
 40
0.0
 40
0.1099678376
 40
0.2250380518
 40
0.3451340548
 40
0.4069814476
 40
0.4699197686
 40
0.5986731946
 40
0.7305898415
 40
0.8647333184
 40
0.9323220609
 40
1.0
 40
1.0
 40
1.0
 40
1.0
 10
4.759301973
 20
3.8722488889
 30
0.0
 10
4.7569980057
 20
3.8749916519
 30
0.0
 10
4.7518607062
 20
3.880259999
 30
0.0
 10
4.7429980632
 20
3.887221162
 30
0.0
 10
4.7347049155
 20
3.8922495579
 30
0.0
 10
4.7275623992
 20
3.895807768
 30
0.0
 10
4.7199798432
 20
3.8990894033
 30
0.0
 10
4.7099881352
 20
3.9025095676
 30
0.0
 10
4.6974532487
 20
3.905467429
 30
0.0
 10
4.6866705027
 20
3.9069589303
 30
0.0
 10
4.6779132074
 20
3.9075604744
 30
0.0
 10
4.6735063326
 20
3.9076615388
 30
0.0
 10
4.6713018233
 20
3.9076615388
 30
0.0
  0
SPLINE
  5
372
100
AcDbEntity
  8
ALL_ASSEMBLY_MEMBERS
100
AcDbSpline
 62
7
  6
CONTINUOUS
 70
0
 71
3
 72
31
 73
27
 74
0
 42
0.0000001
 43
0.0000001
 44
0.0000000001
 40
0.0
 40
0.0
 40
0.0
 40
0.0
 40
0.0739818255
 40
0.1475607832
 40
0.1840415804
 40
0.2202473686
 40
0.2916375064
 40
0.3613866817
 40
0.3955532846
 40
0.4291991332
 40
0.4948043646
 40
0.5580741483
 40
0.6189605299
 40
0.6485415752
 40
0.6775632935
 40
0.7340234568
 40
0.7615745989
 40
0.7887309541
 40
0.8155526252
 40
0.8421054822
 40
0.8684617754
 40
0.8946972981
 40
0.9208900838
 40
0.9471197019
 40
0.9734643525
 40
1.0
 40
1.0
 40
1.0
 40
1.0
 10
4.6713018233
 20
3.7870752427
 30
0.0
 10
4.6756417273
 20
3.7870752427
 30
0.0
 10
4.6843013936
 20
3.7867381848
 30
0.0
 10
4.6950355458
 20
3.7854782439
 30
0.0
 10
4.703483982
 20
3.7839683645
 30
0.0
 10
4.7117391549
 20
3.7821467411
 30
0.0
 10
4.72175389
 20
3.779283272
 30
0.0
 10
4.7313780341
 20
3.7756194679
 30
0.0
 10
4.73870915
 20
3.7722407822
 30
0.0
 10
4.7456598639
 20
3.7686383135
 30
0.0
 10
4.753804715
 20
3.763650716
 30
0.0
 10
4.7626697676
 20
3.7568852423
 30
0.0
 10
4.7692062867
 20
3.7506399137
 30
0.0
 10
4.7738189529
 20
3.7453565583
 30
0.0
 10
4.7779348217
 20
3.7400028443
 30
0.0
 10
4.7814666366
 20
3.7343629945
 30
0.0
 10
4.7843316006
 20
3.7284998385
 30
0.0
 10
4.7861209875
 20
3.7240598442
 30
0.0
 10
4.7875625332
 20
3.7195565662
 30
0.0
 10
4.7886507359
 20
3.7150031299
 30
0.0
 10
4.7893824019
 20
3.7104137523
 30
0.0
 10
4.7897560624
 20
3.7058025776
 30
0.0
 10
4.7897695223
 20
3.7011837089
 30
0.0
 10
4.7894226126
 20
3.6965714189
 30
0.0
 10
4.7887176077
 20
3.6919801401
 30
0.0
 10
4.7880129146
 20
3.6889555727
 30
0.0
 10
4.7876030859
 20
3.6874538636
 30
0.0
  0
SPLINE
  5
373
100
AcDbEntity
  8
ALL_ASSEMBLY_MEMBERS
100
AcDbSpline
 62
7
  6
CONTINUOUS
 70
0
 71
3
 72
20
 73
16
 74
0
 42
0.0000001
 43
0.0000001
 44
0.0000000001
 40
0.0
 40
0.0
 40
0.0
 40
0.0
 40
0.0750514176
 40
0.1499207843
 40
0.2242699133
 40
0.2977766978
 40
0.4411512736
 40
0.5778055572
 40
0.7051187512
 40
0.7643643019
 40
0.8201353659
 40
0.8720029188
 40
0.9195280185
 40
0.9623074757
 40
1.0
 40
1.0
 40
1.0
 40
1.0
 10
4.9688018233
 20
4.0295458878
 30
0.0
 10
4.9675682828
 20
4.0295458878
 30
0.0
 10
4.9651039674
 20
4.0295012487
 30
0.0
 10
4.9614224827
 20
4.0293031621
 30
0.0
 10
4.957775558
 20
4.0289762903
 30
0.0
 10
4.9530257523
 20
4.0283770518
 30
0.0
 10
4.9473020151
 20
4.0273442063
 30
0.0
 10
4.9408108216
 20
4.0256821808
 30
0.0
 10
4.9357709067
 20
4.023983916
 30
0.0
 10
4.9320826914
 20
4.0224775272
 30
0.0
 10
4.9295911494
 20
4.0213280362
 30
0.0
 10
4.9273297918
 20
4.0201465781
 30
0.0
 10
4.9253216548
 20
4.0189486841
 30
0.0
 10
4.9235904347
 20
4.0177505077
 30
0.0
 10
4.922567838
 20
4.0169075702
 30
0.0
 10
4.9221143045
 20
4.0164855482
 30
0.0
  0
SPLINE
  5
374
100
AcDbEntity
  8
ALL_ASSEMBLY_MEMBERS
100
AcDbSpline
 62
7
  6
CONTINUOUS
 70
0
 71
3
 72
9
 73
5
 74
0
 42
0.0000001
 43
0.0000001
 44
0.0000000001
 40
0.0
 40
0.0
 40
0.0
 40
0.0
 40
0.4852304042
 40
1.0
 40
1.0
 40
1.0
 40
1.0
 10
4.7495518233
 20
4.340305422
 30
0.0
 10
4.7495518233
 20
4.3374300709
 30
0.0
 10
4.7488933692
 20
4.3314929326
 30
0.0
 10
4.7471142283
 20
4.3258039945
 30
0.0
 10
4.7459685987
 20
4.322976906
 30
0.0
  0
SPLINE
  5
375
100
AcDbEntity
  8
ALL_ASSEMBLY_MEMBERS
100
AcDbSpline
 62
7
  6
CONTINUOUS
 70
0
 71
3
 72
32
 73
28
 74
0
 42
0.0000001
 43
0.0000001
 44
0.0000000001
 40
0.0
 40
0.0
 40
0.0
 40
0.0
 40
0.0536422643
 40
0.0814666397
 40
0.1099108444
 40
0.1684834959
 40
0.1985558042
 40
0.2290854641
 40
0.2913176503
 40
0.3548684747
 40
0.3870523146
 40
0.4194488675
 40
0.4520201659
 40
0.4847334118
 40
0.5504167407
 40
0.5833526354
 40
0.6162983739
 40
0.649220577
 40
0.6820880705
 40
0.7148687805
 40
0.7475273166
 40
0.7800307409
 40
0.8123443716
 40
0.8444289564
 40
0.8762477199
 40
0.9389019329
 40
1.0
 40
1.0
 40
1.0
 40
1.0
 10
4.7459003504
 20
4.3228092733
 30
0.0
 10
4.7448391156
 20
4.3202147388
 30
0.0
 10
4.7429273811
 20
4.3163904992
 30
0.0
 10
4.7398631131
 20
4.3115296763
 30
0.0
 10
4.736341372
 20
4.3066658844
 30
0.0
 10
4.7322917652
 20
4.3020553803
 30
0.0
 10
4.727785328
 20
4.2977531459
 30
0.0
 10
4.7228890856
 20
4.2935971314
 30
0.0
 10
4.716208905
 20
4.2888629148
 30
0.0
 10
4.7089513811
 20
4.2848880463
 30
0.0
 10
4.7028168358
 20
4.282196538
 30
0.0
 10
4.6980523116
 20
4.2804344996
 30
0.0
 10
4.6931644397
 20
4.2789518256
 30
0.0
 10
4.6865035191
 20
4.2773659205
 30
0.0
 10
4.6796891682
 20
4.2763901805
 30
0.0
 10
4.6728189082
 20
4.2760528877
 30
0.0
 10
4.6676526355
 20
4.2761186619
 30
0.0
 10
4.6625041731
 20
4.2765043164
 30
0.0
 10
4.6573980595
 20
4.2772071646
 30
0.0
 10
4.6523580001
 20
4.27821785
 30
0.0
 10
4.647407377
 20
4.2795291441
 30
0.0
 10
4.6425681456
 20
4.2811289751
 30
0.0
 10
4.6378604074
 20
4.2830021652
 30
0.0
 10
4.6333039342
 20
4.2851351831
 30
0.0
 10
4.6274854292
 20
4.2882856381
 30
0.0
 10
4.620681416
 20
4.2927691345
 30
0.0
 10
4.6157141531
 20
4.2969362773
 30
0.0
 10
4.6133942466
 20
4.299129905
 30
0.0
  0
SPLINE
  5
376
100
AcDbEntity
  8
ALL_ASSEMBLY_MEMBERS
100
AcDbSpline
 62
7
  6
CONTINUOUS
 70
0
 71
3
 72
11
 73
7
 74
0
 42
0.0000001
 43
0.0000001
 44
0.0000000001
 40
0.0
 40
0.0
 40
0.0
 40
0.0
 40
0.2627152133
 40
0.5175224568
 40
0.7635168909
 40
1.0
 40
1.0
 40
1.0
 40
1.0
 10
4.6131605849
 20
4.2993517383
 30
0.0
 10
4.6113317749
 20
4.3010949705
 30
0.0
 10
4.607888781
 20
4.3047015946
 30
0.0
 10
4.603358722
 20
4.3104958315
 30
0.0
 10
4.5995855072
 20
4.3165140499
 30
0.0
 10
4.5975642993
 20
4.3207042724
 30
0.0
 10
4.5967033022
 20
4.3228092584
 30
0.0
  0
SPLINE
  5
377
100
AcDbEntity
  8
ALL_ASSEMBLY_MEMBERS
100
AcDbSpline
 62
7
  6
CONTINUOUS
 70
0
 71
3
 72
9
 73
5
 74
0
 42
0.0000001
 43
0.0000001
 44
0.0000000001
 40
0.0
 40
0.0
 40
0.0
 40
0.0
 40
0.5147734004
 40
1.0
 40
1.0
 40
1.0
 40
1.0
 10
4.5966367961
 20
4.322972592
 30
0.0
 10
4.595490622
 20
4.3258003424
 30
0.0
 10
4.5937106187
 20
4.3314906534
 30
0.0
 10
4.5930518233
 20
4.3374293437
 30
0.0
 10
4.5930518233
 20
4.340305422
 30
0.0
  0
SPLINE
  5
378
100
AcDbEntity
  8
ALL_ASSEMBLY_MEMBERS
100
AcDbSpline
 62
7
  6
CONTINUOUS
 70
0
 71
3
 72
9
 73
5
 74
0
 42
0.0000001
 43
0.0000001
 44
0.0000000001
 40
0.0
 40
0.0
 40
0.0
 40
0.0
 40
0.4851902815
 40
1.0
 40
1.0
 40
1.0
 40
1.0
 10
4.5930518233
 20
3.9867520314
 30
0.0
 10
4.5930518233
 20
3.9896351368
 30
0.0
 10
4.5937139228
 20
3.9955888184
 30
0.0
 10
4.5955022628
 20
4.0012923897
 30
0.0
 10
4.5966537021
 20
4.0041265288
 30
0.0
  0
SPLINE
  5
379
100
AcDbEntity
  8
ALL_ASSEMBLY_MEMBERS
100
AcDbSpline
 62
7
  6
CONTINUOUS
 70
0
 71
3
 72
33
 73
29
 74
0
 42
0.0000001
 43
0.0000001
 44
0.0000000001
 40
0.0
 40
0.0
 40
0.0
 40
0.0
 40
0.054800014
 40
0.0834169221
 40
0.112767234
 40
0.1733925052
 40
0.23621096
 40
0.2683035376
 40
0.3007560437
 40
0.3335126784
 40
0.3665174281
 40
0.3997183262
 40
0.4330661868
 40
0.4665089643
 40
0.5000000276
 40
0.5334910905
 40
0.5669338611
 40
0.6002817169
 40
0.6334826216
 40
0.6664873759
 40
0.6992440068
 40
0.7316964905
 40
0.7637890585
 40
0.8266075818
 40
0.8872328235
 40
0.9165831019
 40
0.9452000035
 40
1.0
 40
1.0
 40
1.0
 40
1.0
 10
4.5967033758
 20
4.0042483815
 30
0.0
 10
4.5979891305
 20
4.0073917828
 30
0.0
 10
4.6003879511
 20
4.0120069256
 30
0.0
 10
4.6043138087
 20
4.0177934796
 30
0.0
 10
4.6088934388
 20
4.0235505968
 30
0.0
 10
4.6155946887
 20
4.0302893021
 30
0.0
 10
4.6233043861
 20
4.036129901
 30
0.0
 10
4.6300598606
 20
4.0402226602
 30
0.0
 10
4.6354276118
 20
4.0429819301
 30
0.0
 10
4.6410293055
 20
4.0453759612
 30
0.0
 10
4.6468316968
 20
4.0473791278
 30
0.0
 10
4.6527997939
 20
4.0489652791
 30
0.0
 10
4.6588950697
 20
4.0501136847
 30
0.0
 10
4.6650765747
 20
4.0508106127
 30
0.0
 10
4.6713018299
 20
4.0510424357
 30
0.0
 10
4.6775270844
 20
4.0508106105
 30
0.0
 10
4.683708589
 20
4.050113685
 30
0.0
 10
4.6898038636
 20
4.0489652749
 30
0.0
 10
4.6957719617
 20
4.0473791256
 30
0.0
 10
4.7015743522
 20
4.0453759551
 30
0.0
 10
4.7071760452
 20
4.042981926
 30
0.0
 10
4.7125437945
 20
4.040222657
 30
0.0
 10
4.7192992695
 20
4.0361298944
 30
0.0
 10
4.7270089664
 20
4.0302892921
 30
0.0
 10
4.733710218
 20
4.0235505879
 30
0.0
 10
4.7382898433
 20
4.0177934724
 30
0.0
 10
4.7422156969
 20
4.01200692
 30
0.0
 10
4.7446145183
 20
4.0073917794
 30
0.0
 10
4.7459002728
 20
4.0042483792
 30
0.0
  0
SPLINE
  5
37A
100
AcDbEntity
  8
ALL_ASSEMBLY_MEMBERS
100
AcDbSpline
 62
7
  6
CONTINUOUS
 70
0
 71
3
 72
9
 73
5
 74
0
 42
0.0000001
 43
0.0000001
 44
0.0000000001
 40
0.0
 40
0.0
 40
0.0
 40
0.0
 40
0.5148060733
 40
1.0
 40
1.0
 40
1.0
 40
1.0
 10
4.7459514728
 20
4.0041227693
 30
0.0
 10
4.7471024363
 20
4.0012892089
 30
0.0
 10
4.7488900192
 20
3.9955868329
 30
0.0
 10
4.7495518233
 20
3.9896345048
 30
0.0
 10
4.7495518233
 20
3.9867520314
 30
0.0
  0
SPLINE
  5
37B
100
AcDbEntity
  8
ALL_ASSEMBLY_MEMBERS
100
AcDbSpline
 62
7
  6
CONTINUOUS
 70
0
 71
3
 72
11
 73
7
 74
0
 42
0.0000001
 43
0.0000001
 44
0.0000000001
 40
0.0
 40
0.0
 40
0.0
 40
0.0
 40
0.2140872937
 40
0.4513497697
 40
0.7130901715
 40
1.0
 40
1.0
 40
1.0
 40
1.0
 10
4.9322852672
 20
4.0225282145
 30
0.0
 10
4.9324167981
 20
4.0223957787
 30
0.0
 10
4.9327113835
 20
4.022133522
 30
0.0
 10
4.933213622
 20
4.0217658954
 30
0.0
 10
4.9337970399
 20
4.0214054425
 30
0.0
 10
4.9342197301
 20
4.0211808214
 30
0.0
 10
4.9344436193
 20
4.0210692598
 30
0.0
  0
SPLINE
  5
37C
100
AcDbEntity
  8
ALL_ASSEMBLY_MEMBERS
100
AcDbSpline
 62
7
  6
CONTINUOUS
 70
0
 71
3
 72
20
 73
16
 74
0
 42
0.0000001
 43
0.0000001
 44
0.0000000001
 40
0.0
 40
0.0
 40
0.0
 40
0.0
 40
0.0376925272
 40
0.0804719865
 40
0.1279970869
 40
0.1798646394
 40
0.2356357027
 40
0.2948812533
 40
0.4221944482
 40
0.5588487329
 40
0.7022233071
 40
0.7757300901
 40
0.8500792177
 40
0.9249485832
 40
1.0
 40
1.0
 40
1.0
 40
1.0
 10
5.0154893421
 20
4.0164855482
 30
0.0
 10
5.0150358086
 20
4.0169075702
 30
0.0
 10
5.0140132118
 20
4.0177505078
 30
0.0
 10
5.0122819917
 20
4.0189486842
 30
0.0
 10
5.0102738547
 20
4.0201465782
 30
0.0
 10
5.008012497
 20
4.0213280363
 30
0.0
 10
5.0055209551
 20
4.0224775273
 30
0.0
 10
5.0018327398
 20
4.0239839161
 30
0.0
 10
4.9967928248
 20
4.0256821809
 30
0.0
 10
4.9903016313
 20
4.0273442063
 30
0.0
 10
4.9845778941
 20
4.0283770519
 30
0.0
 10
4.9798280885
 20
4.0289762903
 30
0.0
 10
4.9761811639
 20
4.0293031621
 30
0.0
 10
4.9724996792
 20
4.0295012487
 30
0.0
 10
4.9700353639
 20
4.0295458878
 30
0.0
 10
4.9688018233
 20
4.0295458878
 30
0.0
  0
SPLINE
  5
37D
100
AcDbEntity
  8
ALL_ASSEMBLY_MEMBERS
100
AcDbSpline
 62
7
  6
CONTINUOUS
 70
0
 71
3
 72
11
 73
7
 74
0
 42
0.0000001
 43
0.0000001
 44
0.0000000001
 40
0.0
 40
0.0
 40
0.0
 40
0.0
 40
0.2532210722
 40
0.5012489102
 40
0.7486483882
 40
1.0
 40
1.0
 40
1.0
 40
1.0
 10
5.0109332898
 20
4.0197453886
 30
0.0
 10
5.0109854782
 20
4.0195723069
 30
0.0
 10
5.011066373
 20
4.0192223605
 30
0.0
 10
5.0111122058
 20
4.018688065
 30
0.0
 10
5.0110806405
 20
4.018154067
 30
0.0
 10
5.0110090398
 20
4.017803898
 30
0.0
 10
5.0109614461
 20
4.0176308808
 30
0.0
  0
SPLINE
  5
37E
100
AcDbEntity
  8
ALL_ASSEMBLY_MEMBERS
100
AcDbSpline
 62
7
  6
CONTINUOUS
 70
0
 71
3
 72
24
 73
20
 74
0
 42
0.0000001
 43
0.0000001
 44
0.0000000001
 40
0.0
 40
0.0
 40
0.0
 40
0.0
 40
0.0629155203
 40
0.0943159012
 40
0.1256709988
 40
0.1882258987
 40
0.2506269608
 40
0.3128998482
 40
0.375081896
 40
0.437210752
 40
0.4993296758
 40
0.5614795761
 40
0.6237003437
 40
0.6860275207
 40
0.7484895083
 40
0.8111091755
 40
0.8738977776
 40
0.9368632671
 40
1.0
 40
1.0
 40
1.0
 40
1.0
 10
4.9420952271
 20
4.149947379
 30
0.0
 10
4.9411555931
 20
4.1490207864
 30
0.0
 10
4.9398220836
 20
4.1475523788
 30
0.0
 10
4.9382163983
 20
4.1454607314
 30
0.0
 10
4.936732011
 20
4.1432901763
 30
0.0
 10
4.9351081971
 20
4.1404335918
 30
0.0
 10
4.9335522059
 20
4.1368193661
 30
0.0
 10
4.9324066816
 20
4.1330627902
 30
0.0
 10
4.9316833902
 20
4.1292085488
 30
0.0
 10
4.9313883025
 20
4.1253013892
 30
0.0
 10
4.9315239755
 20
4.1213862256
 30
0.0
 10
4.9320853005
 20
4.1175072453
 30
0.0
 10
4.9330660504
 20
4.113708163
 30
0.0
 10
4.9344508742
 20
4.1100301478
 30
0.0
 10
4.9362251705
 20
4.1065141431
 30
0.0
 10
4.938364853
 20
4.1031964312
 30
0.0
 10
4.940847478
 20
4.1001133336
 30
0.0
 10
4.9436421619
 20
4.0972955222
 30
0.0
 10
4.9456919118
 20
4.0956152281
 30
0.0
 10
4.9467572787
 20
4.0948286234
 30
0.0
  0
SPLINE
  5
37F
100
AcDbEntity
  8
ALL_ASSEMBLY_MEMBERS
100
AcDbSpline
 62
7
  6
CONTINUOUS
 70
0
 71
3
 72
15
 73
11
 74
0
 42
0.0000001
 43
0.0000001
 44
0.0000000001
 40
0.0
 40
0.0
 40
0.0
 40
0.0
 40
0.1224686348
 40
0.2451940692
 40
0.3685633301
 40
0.4928669324
 40
0.6182491797
 40
0.7447061195
 40
0.8720607883
 40
1.0
 40
1.0
 40
1.0
 40
1.0
 10
5.0109614461
 20
4.1296111972
 30
0.0
 10
5.0111950126
 20
4.1268567197
 30
0.0
 10
5.0110702598
 20
4.1212730991
 30
0.0
 10
5.0090907596
 20
4.1131289517
 30
0.0
 10
5.0053932038
 20
4.1055571987
 30
0.0
 10
5.0001287464
 20
4.0989027411
 30
0.0
 10
4.9935220807
 20
4.0934689262
 30
0.0
 10
4.9858602475
 20
4.0895116246
 30
0.0
 10
4.977489811
 20
4.0872240612
 30
0.0
 10
4.9716862739
 20
4.0868948137
 30
0.0
 10
4.9688018233
 20
4.0870347789
 30
0.0
  0
SPLINE
  5
380
100
AcDbEntity
  8
ALL_ASSEMBLY_MEMBERS
100
AcDbSpline
 62
7
  6
CONTINUOUS
 70
0
 71
3
 72
21
 73
17
 74
0
 42
0.0000001
 43
0.0000001
 44
0.0000000001
 40
0.0
 40
0.0
 40
0.0
 40
0.0
 40
0.1268360413
 40
0.1902581848
 40
0.2535562195
 40
0.3167220537
 40
0.3797421808
 40
0.4425894004
 40
0.5052448887
 40
0.5677048606
 40
0.6299711651
 40
0.6920464761
 40
0.7539335596
 40
0.8156591036
 40
0.8772680316
 40
1.0
 40
1.0
 40
1.0
 40
1.0
 10
4.9688018233
 20
4.1657906025
 30
0.0
 10
4.9713672705
 20
4.1657906025
 30
0.0
 10
4.9752267412
 20
4.1654511992
 30
0.0
 10
4.9802366329
 20
4.1643336982
 30
0.0
 10
4.9839022811
 20
4.1631692837
 30
0.0
 10
4.9874427475
 20
4.1616888681
 30
0.0
 10
4.9908298362
 20
4.1599041075
 30
0.0
 10
4.9940361913
 20
4.1578308629
 30
0.0
 10
4.9970340824
 20
4.1554844366
 30
0.0
 10
4.9998000537
 20
4.1528856932
 30
0.0
 10
5.0023101206
 20
4.1500545991
 30
0.0
 10
5.0045447049
 20
4.1470156788
 30
0.0
 10
5.0064848333
 20
4.1437936757
 30
0.0
 10
5.0081146096
 20
4.1404138552
 30
0.0
 10
5.0098525194
 20
4.1357449511
 30
0.0
 10
5.0106589633
 20
4.1320751359
 30
0.0
 10
5.0109614461
 20
4.1296111972
 30
0.0
  0
SPLINE
  5
381
100
AcDbEntity
  8
ALL_ASSEMBLY_MEMBERS
100
AcDbSpline
 62
7
  6
CONTINUOUS
 70
0
 71
3
 72
11
 73
7
 74
0
 42
0.0000001
 43
0.0000001
 44
0.0000000001
 40
0.0
 40
0.0
 40
0.0
 40
0.0
 40
0.2495657047
 40
0.4996042324
 40
0.7499637454
 40
1.0
 40
1.0
 40
1.0
 40
1.0
 10
4.9517437463
 20
4.0916927495
 30
0.0
 10
4.9530534722
 20
4.0909990763
 30
0.0
 10
4.9557553825
 20
4.0897560251
 30
0.0
 10
4.9599899566
 20
4.088348249
 30
0.0
 10
4.9643559535
 20
4.0874127844
 30
0.0
 10
4.9673186929
 20
4.0871067463
 30
0.0
 10
4.9688018233
 20
4.0870347789
 30
0.0
  0
SPLINE
  5
382
100
AcDbEntity
  8
ALL_ASSEMBLY_MEMBERS
100
AcDbSpline
 62
7
  6
CONTINUOUS
 70
0
 71
3
 72
13
 73
9
 74
0
 42
0.0000001
 43
0.0000001
 44
0.0000000001
 40
0.0
 40
0.0
 40
0.0
 40
0.0
 40
0.1274454106
 40
0.2542779926
 40
0.380451483
 40
0.5059553733
 40
0.7545529815
 40
1.0
 40
1.0
 40
1.0
 40
1.0
 10
4.9694806241
 20
4.1652281668
 30
0.0
 10
4.9705764076
 20
4.165101318
 30
0.0
 10
4.9727538955
 20
4.1647630967
 30
0.0
 10
4.97596059
 20
4.1639997491
 30
0.0
 10
4.9790799839
 20
4.1629858917
 30
0.0
 10
4.9830778298
 20
4.1613117305
 30
0.0
 10
4.9877506594
 20
4.1586267049
 30
0.0
 10
4.9910505654
 20
4.1558652944
 30
0.0
 10
4.9925478034
 20
4.1543581066
 30
0.0
  0
SPLINE
  5
383
100
AcDbEntity
  8
ALL_ASSEMBLY_MEMBERS
100
AcDbSpline
 62
7
  6
CONTINUOUS
 70
0
 71
3
 72
37
 73
33
 74
0
 42
0.0000001
 43
0.0000001
 44
0.0000000001
 40
0.0
 40
0.0
 40
0.0
 40
0.0
 40
0.0318381389
 40
0.063653164
 40
0.126817934
 40
0.1581292078
 40
0.1892183886
 40
0.2200736382
 40
0.2507045609
 40
0.2811300492
 40
0.3113985822
 40
0.3415595534
 40
0.3716858791
 40
0.4018472742
 40
0.4321209066
 40
0.4625666124
 40
0.4932317681
 40
0.5241340614
 40
0.5552694554
 40
0.5866129971
 40
0.6181262731
 40
0.6497709977
 40
0.6815055361
 40
0.7133034095
 40
0.7451342312
 40
0.7769895199
 40
0.8088522365
 40
0.8407191176
 40
0.8725828288
 40
0.9044491161
 40
0.9363289757
 40
1.0
 40
1.0
 40
1.0
 40
1.0
 10
4.9688018233
 20
4.083138047
 30
0.0
 10
4.9703117262
 20
4.083138047
 30
0.0
 10
4.97333186
 20
4.083248874
 30
0.0
 10
4.9793133794
 20
4.0839087105
 30
0.0
 10
4.9851842377
 20
4.0852284061
 30
0.0
 10
4.990804528
 20
4.0872113894
 30
0.0
 10
4.9948463259
 20
4.0890199485
 30
0.0
 10
4.9986908347
 20
4.0911515161
 30
0.0
 10
5.0023024832
 20
4.0936030427
 30
0.0
 10
5.0056437431
 20
4.0963696444
 30
0.0
 10
5.0086733566
 20
4.0994443058
 30
0.0
 10
5.0113495431
 20
4.1028141788
 30
0.0
 10
5.0136247724
 20
4.1064618325
 30
0.0
 10
5.0154563774
 20
4.1103581398
 30
0.0
 10
5.0167982782
 20
4.1144656609
 30
0.0
 10
5.0176199046
 20
4.1187327965
 30
0.0
 10
5.0178930392
 20
4.1230996558
 30
0.0
 10
5.0176157217
 20
4.1274987292
 30
0.0
 10
5.016791381
 20
4.1318609566
 30
0.0
 10
5.0154488895
 20
4.1361220785
 30
0.0
 10
5.013619117
 20
4.1402233921
 30
0.0
 10
5.0113473249
 20
4.1441178843
 30
0.0
 10
5.008675541
 20
4.1477655417
 30
0.0
 10
5.0056503384
 20
4.1511369046
 30
0.0
 10
5.0023128813
 20
4.1542072562
 30
0.0
 10
4.998704102
 20
4.1569580351
 30
0.0
 10
4.9948609833
 20
4.1593732842
 30
0.0
 10
4.9908196925
 20
4.1614404281
 30
0.0
 10
4.9866139723
 20
4.1631480453
 30
0.0
 10
4.9822756102
 20
4.1644871214
 30
0.0
 10
4.9763652642
 20
4.1657684678
 30
0.0
 10
4.97182138
 20
4.1661576781
 30
0.0
 10
4.9688018233
 20
4.1661576781
 30
0.0
  0
SPLINE
  5
384
100
AcDbEntity
  8
ALL_ASSEMBLY_MEMBERS
100
AcDbSpline
 62
7
  6
CONTINUOUS
 70
0
 71
3
 72
42
 73
38
 74
0
 42
0.0000001
 43
0.0000001
 44
0.0000000001
 40
0.0
 40
0.0
 40
0.0
 40
0.0
 40
0.0319037799
 40
0.0638021272
 40
0.095687571
 40
0.1275705968
 40
0.1594569491
 40
0.1913395212
 40
0.2550075688
 40
0.286832286
 40
0.3186036893
 40
0.3502931308
 40
0.3818697747
 40
0.4132910099
 40
0.4445257495
 40
0.4600680264
 40
0.4755538754
 40
0.4909828376
 40
0.5063544027
 40
0.5216688162
 40
0.5369297137
 40
0.5673029103
 40
0.5824386225
 40
0.5975455393
 40
0.6126350647
 40
0.6277155734
 40
0.6578638234
 40
0.6880764872
 40
0.7184089863
 40
0.7489100872
 40
0.7796167016
 40
0.8105432699
 40
0.8416951997
 40
0.8730585147
 40
0.904616946
 40
0.9363447227
 40
1.0
 40
1.0
 40
1.0
 40
1.0
 10
4.9637818947
 20
4.1659195293
 30
0.0
 10
4.9623287164
 20
4.1657815463
 30
0.0
 10
4.9594325007
 20
4.1653861061
 30
0.0
 10
4.9551537728
 20
4.1644365695
 30
0.0
 10
4.9509690036
 20
4.1631359216
 30
0.0
 10
4.9469075886
 20
4.1614919081
 30
0.0
 10
4.9429982002
 20
4.1595122239
 30
0.0
 10
4.938034658
 20
4.1564431052
 30
0.0
 10
4.9334887207
 20
4.1527374132
 30
0.0
 10
4.9295182714
 20
4.1484691315
 30
0.0
 10
4.9268604393
 20
4.145004246
 30
0.0
 10
4.9245651377
 20
4.141302437
 30
0.0
 10
4.922671547
 20
4.1373967727
 30
0.0
 10
4.9212189615
 20
4.1333281898
 30
0.0
 10
4.9204028995
 20
4.1298357007
 30
0.0
 10
4.9200007232
 20
4.1270140615
 30
0.0
 10
4.9198275558
 20
4.1248942005
 30
0.0
 10
4.9197824001
 20
4.1227756367
 30
0.0
 10
4.9198651978
 20
4.12066605
 30
0.0
 10
4.9200762127
 20
4.118573006
 30
0.0
 10
4.9205265872
 20
4.1158196591
 30
0.0
 10
4.9212256538
 20
4.1131201014
 30
0.0
 10
4.9221613875
 20
4.110508006
 30
0.0
 10
4.9229765633
 20
4.1085994104
 30
0.0
 10
4.9239005192
 20
4.1067439762
 30
0.0
 10
4.9252704742
 20
4.1043467781
 30
0.0
 10
4.9272341898
 20
4.1014987935
 30
0.0
 10
4.9299459191
 20
4.0983482795
 30
0.0
 10
4.9329735449
 20
4.0954771785
 30
0.0
 10
4.9362793181
 20
4.0928956444
 30
0.0
 10
4.9398271966
 20
4.0906089779
 30
0.0
 10
4.9435839745
 20
4.0886212953
 30
0.0
 10
4.9475176636
 20
4.0869350701
 30
0.0
 10
4.9515980504
 20
4.0855521841
 30
0.0
 10
4.9557968196
 20
4.0844744544
 30
0.0
 10
4.9615166934
 20
4.0834464443
 30
0.0
 10
4.9658893617
 20
4.083138047
 30
0.0
 10
4.9688018233
 20
4.083138047
 30
0.0
  0
SPLINE
  5
385
100
AcDbEntity
  8
ALL_ASSEMBLY_MEMBERS
100
AcDbSpline
 62
7
  6
CONTINUOUS
 70
0
 71
3
 72
11
 73
7
 74
0
 42
0.0000001
 43
0.0000001
 44
0.0000000001
 40
0.0
 40
0.0
 40
0.0
 40
0.0
 40
0.2548302916
 40
0.5054958744
 40
0.7533176589
 40
1.0
 40
1.0
 40
1.0
 40
1.0
 10
4.5930518233
 20
4.340305422
 30
0.0
 10
4.5930518233
 20
4.3416187946
 30
0.0
 10
4.5931841821
 20
4.3442262345
 30
0.0
 10
4.5937905877
 20
4.3480684647
 30
0.0
 10
4.5948008131
 20
4.3517815424
 30
0.0
 10
4.5957397394
 20
4.3541574332
 30
0.0
 10
4.5962707339
 20
4.3553126167
 30
0.0
  0
SPLINE
  5
386
100
AcDbEntity
  8
ALL_ASSEMBLY_MEMBERS
100
AcDbSpline
 62
7
  6
CONTINUOUS
 70
0
 71
3
 72
11
 73
7
 74
0
 42
0.0000001
 43
0.0000001
 44
0.0000000001
 40
0.0
 40
0.0
 40
0.0
 40
0.0
 40
0.2466822167
 40
0.4945041693
 40
0.7451698405
 40
1.0
 40
1.0
 40
1.0
 40
1.0
 10
4.7463330183
 20
4.3553123876
 30
0.0
 10
4.7468639958
 20
4.3541572198
 30
0.0
 10
4.7478028922
 20
4.3517813618
 30
0.0
 10
4.7488130818
 20
4.3480683389
 30
0.0
 10
4.7494194682
 20
4.3442261696
 30
0.0
 10
4.7495518233
 20
4.3416187725
 30
0.0
 10
4.7495518233
 20
4.340305422
 30
0.0
  0
SPLINE
  5
387
100
AcDbEntity
  8
ALL_ASSEMBLY_MEMBERS
100
AcDbSpline
 62
7
  6
CONTINUOUS
 70
0
 71
3
 72
11
 73
7
 74
0
 42
0.0000001
 43
0.0000001
 44
0.0000000001
 40
0.0
 40
0.0
 40
0.0
 40
0.0
 40
0.2548288239
 40
0.5054953882
 40
0.7533190555
 40
1.0
 40
1.0
 40
1.0
 40
1.0
 10
4.7495518233
 20
3.9867520314
 30
0.0
 10
4.7495518233
 20
3.9854387807
 30
0.0
 10
4.749419479
 20
3.9828315706
 30
0.0
 10
4.7488131677
 20
3.978989664
 30
0.0
 10
4.7478031533
 20
3.9752768698
 30
0.0
 10
4.7468643827
 20
3.9729011538
 30
0.0
 10
4.746333479
 20
3.9717460584
 30
0.0
  0
SPLINE
  5
388
100
AcDbEntity
  8
ALL_ASSEMBLY_MEMBERS
100
AcDbSpline
 62
7
  6
CONTINUOUS
 70
0
 71
3
 72
11
 73
7
 74
0
 42
0.0000001
 43
0.0000001
 44
0.0000000001
 40
0.0
 40
0.0
 40
0.0
 40
0.0
 40
0.2466808529
 40
0.4945044142
 40
0.7451710171
 40
1.0
 40
1.0
 40
1.0
 40
1.0
 10
4.5962703568
 20
3.971745644
 30
0.0
 10
4.5957394227
 20
3.9729007661
 30
0.0
 10
4.594800598
 20
3.9752765408
 30
0.0
 10
4.5937905238
 20
3.9789894357
 30
0.0
 10
4.5931841759
 20
3.9828314533
 30
0.0
 10
4.5930518233
 20
3.9854387413
 30
0.0
 10
4.5930518233
 20
3.9867520314
 30
0.0
  0
LINE
  5
389
100
AcDbEntity
  8
ALL_ASSEMBLY_MEMBERS
100
AcDbLine
 62
7
  6
CONTINUOUS
 10
4.932976607
 20
4.0222190157
 11
4.9347481678
 21
4.0217300923
  0
SPLINE
  5
38A
100
AcDbEntity
  8
ALL_ASSEMBLY_MEMBERS
100
AcDbSpline
 62
7
  6
CONTINUOUS
 70
0
 71
3
 72
32
 73
28
 74
0
 42
0.0000001
 43
0.0000001
 44
0.0000000001
 40
0.0
 40
0.0
 40
0.0
 40
0.0
 40
0.1037644893
 40
0.2039862697
 40
0.2999216241
 40
0.3908171101
 40
0.4758944856
 40
0.5543609232
 40
0.6254450818
 40
0.6579816587
 40
0.6884000314
 40
0.7166331276
 40
0.7426336958
 40
0.766382139
 40
0.7879000597
 40
0.8072737228
 40
0.8246890272
 40
0.8404508861
 40
0.8550158318
 40
0.869005677
 40
0.8831339092
 40
0.8980867484
 40
0.9144399995
 40
0.9326114757
 40
0.9528480474
 40
0.9752881341
 40
1.0
 40
1.0
 40
1.0
 40
1.0
 10
4.9852989141
 20
4.0072785284
 30
0.0
 10
4.9866460058
 20
4.0072785443
 30
0.0
 10
4.9892942014
 20
4.0072823996
 30
0.0
 10
4.9931877877
 20
4.0073082245
 30
0.0
 10
4.996913989
 20
4.0073661407
 30
0.0
 10
5.0004426173
 20
4.0074683656
 30
0.0
 10
5.0037422551
 20
4.0076280278
 30
0.0
 10
5.006779863
 20
4.0078599134
 30
0.0
 10
5.009129112
 20
4.008131879
 30
0.0
 10
5.010847599
 20
4.0084071651
 30
0.0
 10
5.0120096142
 20
4.0086348416
 30
0.0
 10
5.0130785896
 20
4.008891529
 30
0.0
 10
5.0140500606
 20
4.009178337
 30
0.0
 10
5.014919695
 20
4.0094963768
 30
0.0
 10
5.0156833863
 20
4.009846901
 30
0.0
 10
5.0163370843
 20
4.0102317734
 30
0.0
 10
5.0168776626
 20
4.0106517706
 30
0.0
 10
5.0173018056
 20
4.0111082585
 30
0.0
 10
5.0176043833
 20
4.01160296
 30
0.0
 10
5.0177781053
 20
4.0121347555
 30
0.0
 10
5.0178206706
 20
4.0126973849
 30
0.0
 10
5.0177338417
 20
4.0132850337
 30
0.0
 10
5.0175207969
 20
4.0138943181
 30
0.0
 10
5.0171849726
 20
4.0145234138
 30
0.0
 10
5.0167302166
 20
4.0151712156
 30
0.0
 10
5.0161593598
 20
4.0158355942
 30
0.0
 10
5.0157242046
 20
4.016267004
 30
0.0
 10
5.0154893421
 20
4.0164855482
 30
0.0
  0
SPLINE
  5
38B
100
AcDbEntity
  8
ALL_ASSEMBLY_MEMBERS
100
AcDbSpline
 62
7
  6
CONTINUOUS
 70
0
 71
3
 72
32
 73
28
 74
0
 42
0.0000001
 43
0.0000001
 44
0.0000000001
 40
0.0
 40
0.0
 40
0.0
 40
0.0
 40
0.0247118637
 40
0.0471519497
 40
0.0673885206
 40
0.0855599948
 40
0.1019132441
 40
0.1168660845
 40
0.1309943177
 40
0.1449841627
 40
0.1595491088
 40
0.1753109679
 40
0.192726272
 40
0.2120999352
 40
0.2336178564
 40
0.2573662997
 40
0.2833668676
 40
0.3115999635
 40
0.3420183363
 40
0.3745549134
 40
0.4456390718
 40
0.5241055092
 40
0.609182886
 40
0.7000783731
 40
0.7960137292
 40
0.8962355106
 40
1.0
 40
1.0
 40
1.0
 40
1.0
 10
4.9221143045
 20
4.0164855482
 30
0.0
 10
4.9218794421
 20
4.016267004
 30
0.0
 10
4.9214442869
 20
4.0158355943
 30
0.0
 10
4.9208734301
 20
4.0151712157
 30
0.0
 10
4.9204186741
 20
4.0145234139
 30
0.0
 10
4.9200828498
 20
4.0138943183
 30
0.0
 10
4.9198698051
 20
4.0132850339
 30
0.0
 10
4.9197829762
 20
4.0126973851
 30
0.0
 10
4.9198255413
 20
4.0121347557
 30
0.0
 10
4.9199992633
 20
4.0116029602
 30
0.0
 10
4.9203018411
 20
4.0111082587
 30
0.0
 10
4.920725984
 20
4.0106517708
 30
0.0
 10
4.9212665622
 20
4.0102317735
 30
0.0
 10
4.9219202602
 20
4.0098469011
 30
0.0
 10
4.9226839515
 20
4.0094963769
 30
0.0
 10
4.9235535859
 20
4.0091783371
 30
0.0
 10
4.9245250569
 20
4.008891529
 30
0.0
 10
4.9255940323
 20
4.0086348417
 30
0.0
 10
4.9267560475
 20
4.0084071652
 30
0.0
 10
4.9284745345
 20
4.008131879
 30
0.0
 10
4.9308237835
 20
4.0078599134
 30
0.0
 10
4.9338613914
 20
4.0076280278
 30
0.0
 10
4.9371610292
 20
4.0074683656
 30
0.0
 10
4.9406896576
 20
4.0073661407
 30
0.0
 10
4.9444158589
 20
4.0073082245
 30
0.0
 10
4.9483094453
 20
4.0072823996
 30
0.0
 10
4.9509576408
 20
4.0072785443
 30
0.0
 10
4.9523047326
 20
4.0072785284
 30
0.0
  0
SPLINE
  5
38C
100
AcDbEntity
  8
ALL_ASSEMBLY_MEMBERS
100
AcDbSpline
 62
7
  6
CONTINUOUS
 70
0
 71
3
 72
20
 73
16
 74
0
 42
0.0000001
 43
0.0000001
 44
0.0000000001
 40
0.0
 40
0.0
 40
0.0
 40
0.0
 40
0.15767125
 40
0.3126944618
 40
0.4612487248
 40
0.5319750423
 40
0.5997487116
 40
0.6641908377
 40
0.7249520381
 40
0.7817238608
 40
0.8342691991
 40
0.8823980595
 40
0.9260201105
 40
0.9651650218
 40
1.0
 40
1.0
 40
1.0
 40
1.0
 10
4.9669464665
 20
4.0081245481
 30
0.0
 10
4.9692919043
 20
4.0082309166
 30
0.0
 10
4.9739396347
 20
4.0085396975
 30
0.0
 10
4.9807683929
 20
4.0092960406
 30
0.0
 10
4.9862751361
 20
4.0101752397
 30
0.0
 10
4.9904644343
 20
4.0110269832
 30
0.0
 10
4.993406399
 20
4.0117200777
 30
0.0
 10
4.9961799757
 20
4.0124739081
 30
0.0
 10
4.9987664057
 20
4.0132846372
 30
0.0
 10
5.0011481101
 20
4.0141485384
 30
0.0
 10
5.0033093693
 20
4.0150603083
 30
0.0
 10
5.0052357379
 20
4.0160156806
 30
0.0
 10
5.0069148131
 20
4.0170100188
 30
0.0
 10
5.0083361395
 20
4.0180375865
 30
0.0
 10
5.0091510295
 20
4.0187846626
 30
0.0
 10
5.0095048385
 20
4.0191639907
 30
0.0
  0
LINE
  5
38D
100
AcDbEntity
  8
ALL_ASSEMBLY_MEMBERS
100
AcDbLine
 62
7
  6
CONTINUOUS
 10
5.0095048385
 20
4.0191639907
 11
5.0102758359
 21
4.0201147412
  0
SPLINE
  5
38E
100
AcDbEntity
  8
ALL_ASSEMBLY_MEMBERS
100
AcDbSpline
 62
7
  6
CONTINUOUS
 70
0
 71
3
 72
11
 73
7
 74
0
 42
0.0000001
 43
0.0000001
 44
0.0000000001
 40
0.0
 40
0.0
 40
0.0
 40
0.0
 40
0.2428616682
 40
0.4920169084
 40
0.745247669
 40
1.0
 40
1.0
 40
1.0
 40
1.0
 10
4.9795322747
 20
4.0111098152
 30
0.0
 10
4.9782793488
 20
4.0107748873
 30
0.0
 10
4.9757278643
 20
4.0101448908
 30
0.0
 10
4.9718337661
 20
4.0093206628
 30
0.0
 10
4.967853946
 20
4.0086041868
 30
0.0
 10
4.965171396
 20
4.0081982174
 30
0.0
 10
4.9638237233
 20
4.0080124376
 30
0.0
  0
SPLINE
  5
38F
100
AcDbEntity
  8
ALL_ASSEMBLY_MEMBERS
100
AcDbSpline
 62
7
  6
CONTINUOUS
 70
0
 71
3
 72
24
 73
20
 74
0
 42
0.0000001
 43
0.0000001
 44
0.0000000001
 40
0.0
 40
0.0
 40
0.0
 40
0.0
 40
0.0262922793
 40
0.0411022549
 40
0.0571734825
 40
0.074591139
 40
0.0934121686
 40
0.1136698319
 40
0.1353820418
 40
0.183177182
 40
0.2367132646
 40
0.2957469913
 40
0.3599545336
 40
0.4289214484
 40
0.5021892589
 40
0.5792195183
 40
0.6594425121
 40
0.827095971
 40
1.0
 40
1.0
 40
1.0
 40
1.0
 10
5.0109614461
 20
4.0176308808
 30
0.0
 10
5.0107995356
 20
4.0172774887
 30
0.0
 10
5.0104586046
 20
4.0167640443
 30
0.0
 10
5.0098866743
 20
4.0161413156
 30
0.0
 10
5.009356409
 20
4.0156613773
 30
0.0
 10
5.0087433365
 20
4.0151889567
 30
0.0
 10
5.0080484192
 20
4.0147245239
 30
0.0
 10
5.0072732437
 20
4.0142688472
 30
0.0
 10
5.0060964866
 20
4.0136542521
 30
0.0
 10
5.0044291546
 20
4.0129215836
 30
0.0
 10
5.0021978122
 20
4.0121162571
 30
0.0
 10
4.9996932606
 20
4.0113653649
 30
0.0
 10
4.9969356403
 20
4.0106757715
 30
0.0
 10
4.9939470838
 20
4.0100526147
 30
0.0
 10
4.9907519126
 20
4.0095018554
 30
0.0
 10
4.9873764534
 20
4.0090274166
 30
0.0
 10
4.9826019459
 20
4.0084948685
 30
0.0
 10
4.9763938059
 20
4.0080536311
 30
0.0
 10
4.9713581152
 20
4.0079366383
 30
0.0
 10
4.9688018233
 20
4.0079366383
 30
0.0
  0
SPLINE
  5
390
100
AcDbEntity
  8
ALL_ASSEMBLY_MEMBERS
100
AcDbSpline
 62
7
  6
CONTINUOUS
 70
0
 71
3
 72
20
 73
16
 74
0
 42
0.0000001
 43
0.0000001
 44
0.0000000001
 40
0.0
 40
0.0
 40
0.0
 40
0.0
 40
0.0161728331
 40
0.0258036186
 40
0.0369209756
 40
0.0643334836
 40
0.0992315881
 40
0.1417947005
 40
0.1919721843
 40
0.2494665808
 40
0.313814204
 40
0.4610154349
 40
0.6286948361
 40
0.8109417894
 40
1.0
 40
1.0
 40
1.0
 40
1.0
 10
5.9340968286
 20
3.6852165551
 30
0.0
 10
5.934096827
 20
3.6852551074
 30
0.0
 10
5.9340759414
 20
3.6853168827
 30
0.0
 10
5.9340225654
 20
3.6853869465
 30
0.0
 10
5.9339389921
 20
3.6854663991
 30
0.0
 10
5.9337904619
 20
3.6855612077
 30
0.0
 10
5.9335633186
 20
3.6856663756
 30
0.0
 10
5.9332763761
 20
3.685768613
 30
0.0
 10
5.9329317772
 20
3.6858667004
 30
0.0
 10
5.9325322447
 20
3.6859595886
 30
0.0
 10
5.9319023055
 20
3.686080609
 30
0.0
 10
5.9310066665
 20
3.68620708
 30
0.0
 10
5.9298264813
 20
3.6863177092
 30
0.0
 10
5.9285431855
 20
3.6863861204
 30
0.0
 10
5.9276580063
 20
3.6864018263
 30
0.0
 10
5.9272073351
 20
3.6864018263
 30
0.0
  0
SPLINE
  5
391
100
AcDbEntity
  8
ALL_ASSEMBLY_MEMBERS
100
AcDbSpline
 62
7
  6
CONTINUOUS
 70
0
 71
3
 72
23
 73
19
 74
0
 42
0.0000001
 43
0.0000001
 44
0.0000000001
 40
0.0
 40
0.0
 40
0.0
 40
0.0
 40
0.0078034152
 40
0.0161641464
 40
0.0256081261
 40
0.0365034451
 40
0.0490751587
 40
0.0634558353
 40
0.0979038589
 40
0.1401458142
 40
0.1900907423
 40
0.247437934
 40
0.3118120388
 40
0.3826710245
 40
0.459367591
 40
0.6275128975
 40
0.8101911166
 40
1.0
 40
1.0
 40
1.0
 40
1.0
 10
5.9439393955
 20
3.6852165785
 30
0.0
 10
5.9439393973
 20
3.6851716215
 30
0.0
 10
5.9439250598
 20
3.6850779847
 30
0.0
 10
5.9438619234
 20
3.6849429217
 30
0.0
 10
5.9437591088
 20
3.6848120274
 30
0.0
 10
5.9436176074
 20
3.6846848101
 30
0.0
 10
5.9434378803
 20
3.6845605744
 30
0.0
 10
5.9431284386
 20
3.68438833
 30
0.0
 10
5.9426423136
 20
3.6841870467
 30
0.0
 10
5.9419450374
 20
3.6839706653
 30
0.0
 10
5.9411070724
 20
3.6837686431
 30
0.0
 10
5.9401355603
 20
3.6835821165
 30
0.0
 10
5.9390388482
 20
3.6834128812
 30
0.0
 10
5.9378271398
 20
3.6832616855
 30
0.0
 10
5.936017329
 20
3.6830795643
 30
0.0
 10
5.9335596398
 20
3.6829087501
 30
0.0
 10
5.9304469485
 20
3.6827879089
 30
0.0
 10
5.9283008613
 20
3.6827610218
 30
0.0
 10
5.9272073351
 20
3.6827610218
 30
0.0
  0
SPLINE
  5
392
100
AcDbEntity
  8
ALL_ASSEMBLY_MEMBERS
100
AcDbSpline
 62
7
  6
CONTINUOUS
 70
0
 71
3
 72
20
 73
16
 74
0
 42
0.0000001
 43
0.0000001
 44
0.0000000001
 40
0.0
 40
0.0
 40
0.0
 40
0.0
 40
0.189057575
 40
0.3713042276
 40
0.5389848736
 40
0.6861864316
 40
0.7505333508
 40
0.8080268943
 40
0.8582038084
 40
0.9007670648
 40
0.9356657355
 40
0.9630788201
 40
0.9741963456
 40
0.9838271894
 40
1.0
 40
1.0
 40
1.0
 40
1.0
 10
5.9272073351
 20
3.6864018263
 30
0.0
 10
5.9267566655
 20
3.6864018263
 30
0.0
 10
5.9258714885
 20
3.6863861213
 30
0.0
 10
5.924588192
 20
3.6863177093
 30
0.0
 10
5.923408004
 20
3.6862070786
 30
0.0
 10
5.9225123626
 20
3.6860806095
 30
0.0
 10
5.9218824261
 20
3.6859595902
 30
0.0
 10
5.9214828986
 20
3.6858667029
 30
0.0
 10
5.921138303
 20
3.6857686152
 30
0.0
 10
5.9208513603
 20
3.6856663773
 30
0.0
 10
5.920624214
 20
3.6855612089
 30
0.0
 10
5.9204756802
 20
3.6854664
 30
0.0
 10
5.9203921047
 20
3.6853869469
 30
0.0
 10
5.920338728
 20
3.685316883
 30
0.0
 10
5.9203178428
 20
3.6852551073
 30
0.0
 10
5.9203178415
 20
3.6852165551
 30
0.0
  0
SPLINE
  5
393
100
AcDbEntity
  8
ALL_ASSEMBLY_MEMBERS
100
AcDbSpline
 62
7
  6
CONTINUOUS
 70
0
 71
3
 72
23
 73
19
 74
0
 42
0.0000001
 43
0.0000001
 44
0.0000000001
 40
0.0
 40
0.0
 40
0.0
 40
0.0
 40
0.1898090382
 40
0.3724871401
 40
0.5406320978
 40
0.6173287805
 40
0.6881879839
 40
0.752562232
 40
0.8099093563
 40
0.859854115
 40
0.9020959549
 40
0.9365440101
 40
0.9509247321
 40
0.9634964936
 40
0.9743918508
 40
0.9838358491
 40
0.9921965845
 40
1.0
 40
1.0
 40
1.0
 40
1.0
 10
5.9272073351
 20
3.6827610218
 30
0.0
 10
5.9261138081
 20
3.6827610218
 30
0.0
 10
5.9239677207
 20
3.6827879092
 30
0.0
 10
5.9208550312
 20
3.6829087497
 30
0.0
 10
5.9183973441
 20
3.683079564
 30
0.0
 10
5.9165875334
 20
3.6832616857
 30
0.0
 10
5.9153758222
 20
3.6834128817
 30
0.0
 10
5.9142791083
 20
3.6835821166
 30
0.0
 10
5.9133075968
 20
3.6837686427
 30
0.0
 10
5.9124696338
 20
3.6839706645
 30
0.0
 10
5.9117723591
 20
3.6841870462
 30
0.0
 10
5.9112862344
 20
3.6843883295
 30
0.0
 10
5.9109767919
 20
3.6845605739
 30
0.0
 10
5.9107970639
 20
3.6846848097
 30
0.0
 10
5.9106555618
 20
3.684812027
 30
0.0
 10
5.9105527468
 20
3.6849429215
 30
0.0
 10
5.9104896103
 20
3.6850779847
 30
0.0
 10
5.9104752729
 20
3.6851716215
 30
0.0
 10
5.9104752749
 20
3.6852165785
 30
0.0
  0
LINE
  5
394
100
AcDbEntity
  8
ALL_ASSEMBLY_MEMBERS
100
AcDbLine
 62
7
  6
CONTINUOUS
 10
5.9272073351
 20
3.6882734526
 11
5.9348176065
 21
3.6879093035
  0
SPLINE
  5
395
100
AcDbEntity
  8
ALL_ASSEMBLY_MEMBERS
100
AcDbSpline
 62
7
  6
CONTINUOUS
 70
0
 71
3
 72
19
 73
15
 74
0
 42
0.0000001
 43
0.0000001
 44
0.0000000001
 40
0.0
 40
0.0
 40
0.0
 40
0.0
 40
0.20355588
 40
0.388916636
 40
0.5529760947
 40
0.6930837406
 40
0.7535900277
 40
0.8074763989
 40
0.8546516999
 40
0.8951680966
 40
0.9292150896
 40
0.95723513
 40
0.9801956094
 40
1.0
 40
1.0
 40
1.0
 40
1.0
 10
5.9348176065
 20
3.6879093035
 30
0.0
 10
5.9354784567
 20
3.6878428662
 30
0.0
 10
5.9367392308
 20
3.6876961613
 30
0.0
 10
5.9385230519
 20
3.6874218949
 30
0.0
 10
5.9400903167
 20
3.6871109874
 30
0.0
 10
5.9412440321
 20
3.6868157953
 30
0.0
 10
5.9420350385
 20
3.6865622475
 30
0.0
 10
5.9425290503
 20
3.6863774987
 30
0.0
 10
5.9429515417
 20
3.6861897999
 30
0.0
 10
5.9433012141
 20
3.6860002201
 30
0.0
 10
5.9435773869
 20
3.685809535
 30
0.0
 10
5.943779742
 20
3.6856174285
 30
0.0
 10
5.9439077228
 20
3.6854215102
 30
0.0
 10
5.9439393928
 20
3.6852811982
 30
0.0
 10
5.9439393955
 20
3.6852165785
 30
0.0
  0
SPLINE
  5
396
100
AcDbEntity
  8
ALL_ASSEMBLY_MEMBERS
100
AcDbSpline
 62
7
  6
CONTINUOUS
 70
0
 71
3
 72
18
 73
14
 74
0
 42
0.0000001
 43
0.0000001
 44
0.0000000001
 40
0.0
 40
0.0
 40
0.0
 40
0.0
 40
0.0196331412
 40
0.0421488034
 40
0.0696179638
 40
0.1031481057
 40
0.143227933
 40
0.1900563012
 40
0.3040558468
 40
0.4444578624
 40
0.6090795544
 40
0.7953332078
 40
1.0
 40
1.0
 40
1.0
 40
1.0
 10
5.9203178415
 20
3.6852165551
 30
0.0
 10
5.9203178407
 20
3.6851900331
 30
0.0
 10
5.9203307895
 20
3.6851326913
 30
0.0
 10
5.9203843225
 20
3.685053665
 30
0.0
 10
5.9204690056
 20
3.6849780423
 30
0.0
 10
5.9205846079
 20
3.6849046355
 30
0.0
 10
5.9207309588
 20
3.6848330333
 30
0.0
 10
5.920983748
 20
3.6847336766
 30
0.0
 10
5.9213754387
 20
3.6846206831
 30
0.0
 10
5.9219294178
 20
3.6845032864
 30
0.0
 10
5.9225850467
 20
3.6843988109
 30
0.0
 10
5.9233303283
 20
3.6843095839
 30
0.0
 10
5.923856454
 20
3.684263139
 30
0.0
 10
5.9241321485
 20
3.6842423096
 30
0.0
  0
LINE
  5
397
100
AcDbEntity
  8
ALL_ASSEMBLY_MEMBERS
100
AcDbLine
 62
7
  6
CONTINUOUS
 10
5.9241321485
 20
3.6842423096
 11
5.9272073351
 21
3.6841331871
  0
SPLINE
  5
398
100
AcDbEntity
  8
ALL_ASSEMBLY_MEMBERS
100
AcDbSpline
 62
7
  6
CONTINUOUS
 70
0
 71
3
 72
23
 73
19
 74
0
 42
0.0000001
 43
0.0000001
 44
0.0000000001
 40
0.0
 40
0.0
 40
0.0
 40
0.0
 40
0.0078812127
 40
0.0164536615
 40
0.0261985843
 40
0.0374419714
 40
0.0503770288
 40
0.0651150352
 40
0.1002079959
 40
0.1429471231
 40
0.1932146859
 40
0.2507048315
 40
0.3150490248
 40
0.385731092
 40
0.4621336633
 40
0.6294611839
 40
0.8111746924
 40
1.0
 40
1.0
 40
1.0
 40
1.0
 10
5.9439393932
 20
3.687716486
 30
0.0
 10
5.9439393908
 20
3.6877622428
 30
0.0
 10
5.9439246206
 20
3.6878582053
 30
0.0
 10
5.9438613214
 20
3.6879980592
 30
0.0
 10
5.9437585185
 20
3.6881367154
 30
0.0
 10
5.9436170122
 20
3.6882745783
 30
0.0
 10
5.943437241
 20
3.6884121071
 30
0.0
 10
5.9431284467
 20
3.688606317
 30
0.0
 10
5.942643488
 20
3.6888412101
 30
0.0
 10
5.9419471909
 20
3.6891040694
 30
0.0
 10
5.9411108757
 20
3.6893588621
 30
0.0
 10
5.9401415235
 20
3.6896024766
 30
0.0
 10
5.9390472007
 20
3.6898311844
 30
0.0
 10
5.9378377306
 20
3.69004204
 30
0.0
 10
5.9360308987
 20
3.6903033217
 30
0.0
 10
5.9335730859
 20
3.6905593813
 30
0.0
 10
5.9304551666
 20
3.6907469144
 30
0.0
 10
5.9283036194
 20
3.6907895246
 30
0.0
 10
5.9272073351
 20
3.6907895246
 30
0.0
  0
SPLINE
  5
399
100
AcDbEntity
  8
ALL_ASSEMBLY_MEMBERS
100
AcDbSpline
 62
7
  6
CONTINUOUS
 70
0
 71
3
 72
19
 73
15
 74
0
 42
0.0000001
 43
0.0000001
 44
0.0000000001
 40
0.0
 40
0.0
 40
0.0
 40
0.0
 40
0.0198049523
 40
0.0427658196
 40
0.0707860016
 40
0.1048329554
 40
0.1453492186
 40
0.1925243779
 40
0.2464106673
 40
0.3069168988
 40
0.4470242174
 40
0.6110828505
 40
0.7964431978
 40
1.0
 40
1.0
 40
1.0
 40
1.0
 10
5.9104752749
 20
3.6852165785
 30
0.0
 10
5.9104752776
 20
3.6852811953
 30
0.0
 10
5.9105069447
 20
3.6854215002
 30
0.0
 10
5.9106349136
 20
3.68561741
 30
0.0
 10
5.9108372506
 20
3.6858095085
 30
0.0
 10
5.9111133991
 20
3.6860001856
 30
0.0
 10
5.9114630417
 20
3.6861897574
 30
0.0
 10
5.9118854983
 20
3.6863774489
 30
0.0
 10
5.9123794706
 20
3.6865621911
 30
0.0
 10
5.9131704146
 20
3.6868157306
 30
0.0
 10
5.9143240383
 20
3.687110915
 30
0.0
 10
5.9158911802
 20
3.687421818
 30
0.0
 10
5.9176748674
 20
3.6876960837
 30
0.0
 10
5.9189355498
 20
3.6878427916
 30
0.0
 10
5.9195963541
 20
3.6879092318
 30
0.0
  0
LINE
  5
39A
100
AcDbEntity
  8
ALL_ASSEMBLY_MEMBERS
100
AcDbLine
 62
7
  6
CONTINUOUS
 10
5.9195963541
 20
3.6879092318
 11
5.9272073351
 21
3.6882734526
  0
LINE
  5
39B
100
AcDbEntity
  8
ALL_ASSEMBLY_MEMBERS
100
AcDbLine
 62
7
  6
CONTINUOUS
 10
5.9279978198
 20
3.6841400676
 11
5.9302824475
 21
3.6842423046
  0
SPLINE
  5
39C
100
AcDbEntity
  8
ALL_ASSEMBLY_MEMBERS
100
AcDbSpline
 62
7
  6
CONTINUOUS
 70
0
 71
3
 72
18
 73
14
 74
0
 42
0.0000001
 43
0.0000001
 44
0.0000000001
 40
0.0
 40
0.0
 40
0.0
 40
0.0
 40
0.2046682898
 40
0.3909226323
 40
0.5555427642
 40
0.6959425846
 40
0.8099416072
 40
0.856770528
 40
0.8968510988
 40
0.9303819048
 40
0.9578513979
 40
0.9803670226
 40
1.0
 40
1.0
 40
1.0
 40
1.0
 10
5.9302824475
 20
3.6842423046
 30
0.0
 10
5.9305581491
 20
3.6842631341
 30
0.0
 10
5.9310842874
 20
3.6843095792
 30
0.0
 10
5.9318295839
 20
3.6843988048
 30
0.0
 10
5.9324852212
 20
3.6845032789
 30
0.0
 10
5.9330392051
 20
3.6846206756
 30
0.0
 10
5.9334309
 20
3.6847336706
 30
0.0
 10
5.9336836953
 20
3.684833028
 30
0.0
 10
5.933830052
 20
3.6849046312
 30
0.0
 10
5.9339456595
 20
3.684978039
 30
0.0
 10
5.9340303464
 20
3.6850536624
 30
0.0
 10
5.9340838811
 20
3.6851326901
 30
0.0
 10
5.9340968297
 20
3.6851900328
 30
0.0
 10
5.9340968286
 20
3.6852165551
 30
0.0
  0
SPLINE
  5
39D
100
AcDbEntity
  8
ALL_ASSEMBLY_MEMBERS
100
AcDbSpline
 62
7
  6
CONTINUOUS
 70
0
 71
3
 72
23
 73
19
 74
0
 42
0.0000001
 43
0.0000001
 44
0.0000000001
 40
0.0
 40
0.0
 40
0.0
 40
0.0
 40
0.1888229036
 40
0.3705327349
 40
0.5378605567
 40
0.6142646738
 40
0.6849485675
 40
0.7492938873
 40
0.8067841067
 40
0.8570512933
 40
0.899790283
 40
0.9348837029
 40
0.9496220702
 40
0.9625575115
 40
0.9738012536
 40
0.9835463683
 40
0.9921188286
 40
1.0
 40
1.0
 40
1.0
 40
1.0
 10
5.9272073351
 20
3.6907895246
 30
0.0
 10
5.9261110648
 20
3.6907895246
 30
0.0
 10
5.9239595529
 20
3.6907469191
 30
0.0
 10
5.9208416673
 20
3.6905593865
 30
0.0
 10
5.9183838645
 20
3.6903033335
 30
0.0
 10
5.9165770116
 20
3.690042048
 30
0.0
 10
5.9153675153
 20
3.6898311912
 30
0.0
 10
5.9142731744
 20
3.6896024841
 30
0.0
 10
5.9133038168
 20
3.6893588713
 30
0.0
 10
5.9124675039
 20
3.68910408
 30
0.0
 10
5.9117712076
 20
3.6888412193
 30
0.0
 10
5.9112862456
 20
3.6886063243
 30
0.0
 10
5.9109774443
 20
3.6884121124
 30
0.0
 10
5.9107976667
 20
3.6882745814
 30
0.0
 10
5.910656154
 20
3.6881367174
 30
0.0
 10
5.9105533466
 20
3.6879980604
 30
0.0
 10
5.9104900473
 20
3.6878582053
 30
0.0
 10
5.9104752788
 20
3.6877622426
 30
0.0
 10
5.9104752773
 20
3.687716486
 30
0.0
  0
SPLINE
  5
39E
100
AcDbEntity
  8
ALL_ASSEMBLY_MEMBERS
100
AcDbSpline
 62
7
  6
CONTINUOUS
 70
0
 71
3
 72
15
 73
11
 74
0
 42
0.0000001
 43
0.0000001
 44
0.0000000001
 40
0.0
 40
0.0
 40
0.0
 40
0.0
 40
0.0414433687
 40
0.1545443019
 40
0.3155767614
 40
0.4999968917
 40
0.6844178382
 40
0.8454508257
 40
0.9585536103
 40
1.0
 40
1.0
 40
1.0
 40
1.0
 10
5.5558018233
 20
4.6485287267
 30
0.0
 10
5.5534028468
 20
4.6481620543
 30
0.0
 10
5.5444487695
 20
4.6468471723
 30
0.0
 10
5.5261067184
 20
4.6445682843
 30
0.0
 10
5.4993353427
 20
4.6423502511
 30
0.0
 10
5.4683023218
 20
4.6414480807
 30
0.0
 10
5.437269268
 20
4.642350191
 30
0.0
 10
5.410497702
 20
4.6445681969
 30
0.0
 10
5.3921553347
 20
4.6468471063
 30
0.0
 10
5.3832009746
 20
4.6481620273
 30
0.0
 10
5.3808018233
 20
4.6485287267
 30
0.0
  0
ELLIPSE
  5
39F
100
AcDbEntity
  8
ALL_ASSEMBLY_MEMBERS
100
AcDbEllipse
 62
7
  6
CONTINUOUS
 10
5.8590350989
 20
4.1635287267
 30
0.0
 11
0.0
 21
0.48475
 31
0.0
 40
0.2210555332
 41
6.3004893413
 42
6.3175170955
  0
ELLIPSE
  5
3A0
100
AcDbEntity
  8
ALL_ASSEMBLY_MEMBERS
100
AcDbEllipse
 62
7
  6
CONTINUOUS
 10
5.863855888
 20
4.1635287267
 30
0.0
 11
0.0
 21
0.48475
 31
0.0
 40
0.7957997678
 41
6.2863035852
 42
6.3004893413
  0
ELLIPSE
  5
3A1
100
AcDbEntity
  8
ALL_ASSEMBLY_MEMBERS
100
AcDbEllipse
 62
7
  6
CONTINUOUS
 10
5.9325863421
 20
4.1635287267
 30
0.0
 11
0.0
 21
0.48475
 31
0.0
 40
0.7957996981
 41
-0.0173040341
 42
-0.0031182781
  0
ELLIPSE
  5
3A2
100
AcDbEntity
  8
ALL_ASSEMBLY_MEMBERS
100
AcDbEllipse
 62
7
  6
CONTINUOUS
 10
5.9374071308
 20
4.1635287267
 30
0.0
 11
0.0
 21
0.48475
 31
0.0
 40
0.2210555139
 41
-0.0343317884
 42
-0.0173040341
  0
ELLIPSE
  5
3A3
100
AcDbEntity
  8
ALL_ASSEMBLY_MEMBERS
100
AcDbEllipse
 62
7
  6
CONTINUOUS
 10
6.0167898265
 20
4.1635287267
 30
0.0
 11
3.2147129739
 21
0.0
 31
0.0
 40
0.1507910672
 41
1.6102429677
 42
1.6130823074
  0
ELLIPSE
  5
3A4
100
AcDbEntity
  8
ALL_ASSEMBLY_MEMBERS
100
AcDbEllipse
 62
7
  6
CONTINUOUS
 10
5.9624306242
 20
4.1635287267
 30
0.0
 11
1.9288162072
 21
-0.0
 31
0.0
 40
0.2513199538
 41
1.6130823074
 42
1.6159220045
  0
ELLIPSE
  5
3A5
100
AcDbEntity
  8
ALL_ASSEMBLY_MEMBERS
100
AcDbEllipse
 62
7
  6
CONTINUOUS
 10
5.9334275998
 20
4.1635287267
 30
0.0
 11
1.2858813755
 21
-0.0
 31
0.0
 40
0.3769787861
 41
1.6159220045
 42
1.621602498
  0
ELLIPSE
  5
3A6
100
AcDbEntity
  8
ALL_ASSEMBLY_MEMBERS
100
AcDbEllipse
 62
7
  6
CONTINUOUS
 10
5.9007762632
 20
4.1635287267
 30
0.0
 11
0.6429400371
 21
0.0
 31
0.0
 40
0.7539583352
 41
1.621602498
 42
1.6301263818
  0
ELLIPSE
  5
3A7
100
AcDbEntity
  8
ALL_ASSEMBLY_MEMBERS
100
AcDbEllipse
 62
7
  6
CONTINUOUS
 10
5.8855269281
 20
4.1635287267
 30
0.0
 11
0.0
 21
0.48475
 31
0.0
 40
0.7957993124
 41
0.059330055
 42
0.0735464445
  0
ELLIPSE
  5
3A8
100
AcDbEntity
  8
ALL_ASSEMBLY_MEMBERS
100
AcDbEllipse
 62
7
  6
CONTINUOUS
 10
5.8650548379
 20
4.1635287267
 30
0.0
 11
0.0
 21
0.48475
 31
0.0
 40
0.2210555332
 41
0.0735464445
 42
0.0906260353
  0
ELLIPSE
  5
3A9
100
AcDbEntity
  8
ALL_ASSEMBLY_MEMBERS
100
AcDbEllipse
 62
7
  6
CONTINUOUS
 10
5.9313873923
 20
4.1635287267
 30
0.0
 11
-0.0
 21
0.48475
 31
0.0
 40
0.2210555139
 41
-0.0906260353
 42
-0.0735464445
  0
ELLIPSE
  5
3AA
100
AcDbEntity
  8
ALL_ASSEMBLY_MEMBERS
100
AcDbEllipse
 62
7
  6
CONTINUOUS
 10
5.9109153039
 20
4.1635287267
 30
0.0
 11
-0.0
 21
0.48475
 31
0.0
 40
0.7957992427
 41
-0.0735464445
 42
-0.059330055
  0
ELLIPSE
  5
3AB
100
AcDbEntity
  8
ALL_ASSEMBLY_MEMBERS
100
AcDbEllipse
 62
7
  6
CONTINUOUS
 10
5.8956659712
 20
4.1635287267
 30
0.0
 11
0.642939962
 21
-0.0
 31
0.0
 40
0.7539584232
 41
7.794651579
 42
7.8031754627
  0
ELLIPSE
  5
3AC
100
AcDbEntity
  8
ALL_ASSEMBLY_MEMBERS
100
AcDbEllipse
 62
7
  6
CONTINUOUS
 10
5.8630146423
 20
4.1635287267
 30
0.0
 11
1.2858811504
 21
0.0
 31
0.0
 40
0.3769788521
 41
1.5199901556
 42
1.5256706491
  0
ELLIPSE
  5
3AD
100
AcDbEntity
  8
ALL_ASSEMBLY_MEMBERS
100
AcDbEllipse
 62
7
  6
CONTINUOUS
 10
5.8340115265
 20
4.1635287267
 30
0.0
 11
1.9288180083
 21
0.0
 31
0.0
 40
0.2513197191
 41
1.5256706491
 42
1.5285103462
  0
ELLIPSE
  5
3AE
100
AcDbEntity
  8
ALL_ASSEMBLY_MEMBERS
100
AcDbEllipse
 62
7
  6
CONTINUOUS
 10
5.7796524384
 20
4.1635287267
 30
0.0
 11
3.2147120734
 21
0.0
 31
0.0
 40
0.1507911094
 41
1.5285103462
 42
1.5313496859
  0
ELLIPSE
  5
3AF
100
AcDbEntity
  8
ALL_ASSEMBLY_MEMBERS
100
AcDbEllipse
 62
7
  6
CONTINUOUS
 10
5.9436027313
 20
4.1635287267
 30
0.0
 11
0.0
 21
0.48475
 31
0.0
 40
0.2652667178
 41
0.0906260353
 42
0.1048790886
  0
ELLIPSE
  5
3B0
100
AcDbEntity
  8
ALL_ASSEMBLY_MEMBERS
100
AcDbEllipse
 62
7
  6
CONTINUOUS
 10
5.975012849
 20
4.1635287267
 30
0.0
 11
0.0
 21
0.48475
 31
0.0
 40
0.8842220554
 41
0.1048790886
 42
0.1134410125
  0
ELLIPSE
  5
3B1
100
AcDbEntity
  8
ALL_ASSEMBLY_MEMBERS
100
AcDbEllipse
 62
7
  6
CONTINUOUS
 10
6.0356623708
 20
4.1635287267
 30
0.0
 11
0.9644099335
 21
-0.0
 31
0.0
 40
0.5026389538
 41
1.6842373393
 42
1.6956663613
  0
ELLIPSE
  5
3B2
100
AcDbEntity
  8
ALL_ASSEMBLY_MEMBERS
100
AcDbEllipse
 62
7
  6
CONTINUOUS
 10
6.396003773
 20
4.1635287267
 30
0.0
 11
3.857654488
 21
-0.0
 31
0.0
 40
0.1256592578
 41
1.6956663613
 42
1.6985261089
  0
ELLIPSE
  5
3B3
100
AcDbEntity
  8
ALL_ASSEMBLY_MEMBERS
100
AcDbEllipse
 62
7
  6
CONTINUOUS
 10
5.4004383416
 20
4.1635287267
 30
0.0
 11
3.8576553886
 21
-0.0
 31
0.0
 40
0.1256592285
 41
1.4430665446
 42
1.4459262923
  0
ELLIPSE
  5
3B4
100
AcDbEntity
  8
ALL_ASSEMBLY_MEMBERS
100
AcDbEllipse
 62
7
  6
CONTINUOUS
 10
5.760779898
 20
4.1635287267
 30
0.0
 11
0.9644095958
 21
0.0
 31
0.0
 40
0.5026391298
 41
1.4459262923
 42
1.4573553143
  0
ELLIPSE
  5
3B5
100
AcDbEntity
  8
ALL_ASSEMBLY_MEMBERS
100
AcDbEllipse
 62
7
  6
CONTINUOUS
 10
5.8214293816
 20
4.1635287267
 30
0.0
 11
0.0
 21
0.48475
 31
0.0
 40
0.8842220554
 41
-0.1134410125
 42
-0.1048790886
  0
ELLIPSE
  5
3B6
100
AcDbEntity
  8
ALL_ASSEMBLY_MEMBERS
100
AcDbEllipse
 62
7
  6
CONTINUOUS
 10
5.8528394993
 20
4.1635287267
 30
0.0
 11
0.0
 21
0.48475
 31
0.0
 40
0.2652667178
 41
-0.1048790886
 42
-0.0906260353
  0
ELLIPSE
  5
3B7
100
AcDbEntity
  8
ALL_ASSEMBLY_MEMBERS
100
AcDbEllipse
 62
7
  6
CONTINUOUS
 10
6.0104080305
 20
4.1635287267
 30
0.0
 11
0.5716780154
 21
-0.4744956074
 31
0.0
 40
0.1734875795
 41
1.8341228243
 42
1.8564220296
  0
ELLIPSE
  5
3B8
100
AcDbEntity
  8
ALL_ASSEMBLY_MEMBERS
100
AcDbEllipse
 62
7
  6
CONTINUOUS
 10
5.9678478552
 20
4.1635287267
 30
0.0
 11
0.5716778757
 21
-0.4744956116
 31
0.0
 40
0.1734875871
 41
1.7601616376
 42
1.7823049235
  0
ELLIPSE
  5
3B9
100
AcDbEntity
  8
ALL_ASSEMBLY_MEMBERS
100
AcDbEllipse
 62
7
  6
CONTINUOUS
 10
5.911182361
 20
4.1635287267
 30
0.0
 11
0.117123106
 21
0.4846535957
 31
0.0
 40
0.0825387411
 41
1.3243861563
 42
1.3391838673
  0
ELLIPSE
  5
3BA
100
AcDbEntity
  8
ALL_ASSEMBLY_MEMBERS
100
AcDbEllipse
 62
7
  6
CONTINUOUS
 10
5.9312644015
 20
4.1635287267
 30
0.0
 11
0.3205164298
 21
0.4819141273
 31
0.0
 40
0.1633544133
 41
1.4274608739
 42
1.438573063
  0
ELLIPSE
  5
3BB
100
AcDbEntity
  8
ALL_ASSEMBLY_MEMBERS
100
AcDbEllipse
 62
7
  6
CONTINUOUS
 10
5.97598837
 20
4.1635287267
 30
0.0
 11
0.7387483593
 21
0.4700085841
 31
0.0
 40
0.1605905019
 41
1.5775999118
 42
1.5850154544
  0
ELLIPSE
  5
3BC
100
AcDbEntity
  8
ALL_ASSEMBLY_MEMBERS
100
AcDbEllipse
 62
7
  6
CONTINUOUS
 10
6.0619647217
 20
4.1635287267
 30
0.0
 11
1.4844556253
 21
0.4605286781
 31
0.0
 40
0.1019322549
 41
1.6552211679
 42
1.6589312972
  0
ELLIPSE
  5
3BD
100
AcDbEntity
  8
ALL_ASSEMBLY_MEMBERS
100
AcDbEllipse
 62
7
  6
CONTINUOUS
 10
5.7034694638
 20
4.1635287267
 30
0.0
 11
1.4844549309
 21
-0.4605286823
 31
0.0
 40
0.1019322941
 41
1.4826613836
 42
1.4863715129
  0
ELLIPSE
  5
3BE
100
AcDbEntity
  8
ALL_ASSEMBLY_MEMBERS
100
AcDbEllipse
 62
7
  6
CONTINUOUS
 10
5.7894457151
 20
4.1635287267
 30
0.0
 11
0.7387485344
 21
-0.47000858
 31
0.0
 40
0.1605904861
 41
1.5565771643
 42
1.5639927069
  0
ELLIPSE
  5
3BF
100
AcDbEntity
  8
ALL_ASSEMBLY_MEMBERS
100
AcDbEllipse
 62
7
  6
CONTINUOUS
 10
5.8341697024
 20
4.1635287267
 30
0.0
 11
-0.3205164298
 21
0.4819141273
 31
0.0
 40
0.1633544133
 41
-1.438573063
 42
-1.4274608739
  0
ELLIPSE
  5
3C0
100
AcDbEntity
  8
ALL_ASSEMBLY_MEMBERS
100
AcDbEllipse
 62
7
  6
CONTINUOUS
 10
6.098688407
 20
4.1635287267
 30
0.0
 11
3.8575848219
 21
0.456341581
 31
0.0
 40
0.0423861521
 41
-1.6322987713
 42
-1.629457479
  0
ELLIPSE
  5
3C1
100
AcDbEntity
  8
ALL_ASSEMBLY_MEMBERS
100
AcDbEllipse
 62
7
  6
CONTINUOUS
 10
5.8542517429
 20
4.1635287267
 30
0.0
 11
-0.117123106
 21
0.4846535957
 31
0.0
 40
0.0825387411
 41
-1.3391838673
 42
-1.3243861563
  0
ELLIPSE
  5
3C2
100
AcDbEntity
  8
ALL_ASSEMBLY_MEMBERS
100
AcDbEllipse
 62
7
  6
CONTINUOUS
 10
5.9353420343
 20
4.1635287267
 30
0.0
 11
0.9622071635
 21
0.4656770005
 31
0.0
 40
0.1399266045
 41
-1.7062712763
 42
-1.6949013418
  0
ELLIPSE
  5
3C3
100
AcDbEntity
  8
ALL_ASSEMBLY_MEMBERS
100
AcDbEllipse
 62
7
  6
CONTINUOUS
 10
5.8990125397
 20
4.1635287267
 30
0.0
 11
0.4203531079
 21
0.479141308
 31
0.0
 40
0.1749164141
 41
-1.8439863269
 42
-1.8354531791
  0
ELLIPSE
  5
3C4
100
AcDbEntity
  8
ALL_ASSEMBLY_MEMBERS
100
AcDbEllipse
 62
7
  6
CONTINUOUS
 10
5.8761144444
 20
4.1635287267
 30
0.0
 11
0.1217484006
 21
0.4846385345
 31
0.0
 40
0.0853799597
 41
-1.9890427863
 42
-1.9748081556
  0
ELLIPSE
  5
3C5
100
AcDbEntity
  8
ALL_ASSEMBLY_MEMBERS
100
AcDbEllipse
 62
7
  6
CONTINUOUS
 10
5.8824385239
 20
4.1635287267
 30
0.0
 11
0.9880542361
 21
0.465285186
 31
0.0
 40
0.1376303424
 41
1.5113205669
 42
1.5186896574
  0
ELLIPSE
  5
3C6
100
AcDbEntity
  8
ALL_ASSEMBLY_MEMBERS
100
AcDbEllipse
 62
7
  6
CONTINUOUS
 10
5.8782753525
 20
4.1635287267
 30
0.0
 11
0.6553159276
 21
0.4721187462
 31
0.0
 40
0.1677639688
 41
1.4631295299
 42
1.4741845703
  0
ELLIPSE
  5
3C7
100
AcDbEntity
  8
ALL_ASSEMBLY_MEMBERS
100
AcDbEllipse
 62
7
  6
CONTINUOUS
 10
5.8696830452
 20
4.1635287267
 30
0.0
 11
0.2873264341
 21
0.4826711449
 31
0.0
 40
0.1560789432
 41
1.3380452399
 42
1.356477401
  0
ELLIPSE
  5
3C8
100
AcDbEntity
  8
ALL_ASSEMBLY_MEMBERS
100
AcDbEllipse
 62
7
  6
CONTINUOUS
 10
5.8613483095
 20
4.1635287267
 30
0.0
 11
0.0934735408
 21
0.4847090996
 31
0.0
 40
0.0673658948
 41
1.2768224913
 42
1.2952689988
  0
ELLIPSE
  5
3C9
100
AcDbEntity
  8
ALL_ASSEMBLY_MEMBERS
100
AcDbEllipse
 62
7
  6
CONTINUOUS
 10
5.9040857937
 20
4.1635287267
 30
0.0
 11
-0.0934735326
 21
0.4847090996
 31
0.0
 40
0.0673658893
 41
-1.2952689966
 42
-1.2768224891
  0
ELLIPSE
  5
3CA
100
AcDbEntity
  8
ALL_ASSEMBLY_MEMBERS
100
AcDbEllipse
 62
7
  6
CONTINUOUS
 10
5.8957510587
 20
4.1635287267
 30
0.0
 11
-0.287326408
 21
0.4826711454
 31
0.0
 40
0.1560789367
 41
-1.3564773887
 42
-1.3380452276
  0
ELLIPSE
  5
3CB
100
AcDbEntity
  8
ALL_ASSEMBLY_MEMBERS
100
AcDbEllipse
 62
7
  6
CONTINUOUS
 10
5.9203277863
 20
4.1635287267
 30
0.0
 11
-0.1217484006
 21
0.4846385345
 31
0.0
 40
0.0853799597
 41
-4.3083771516
 42
-4.2941425209
  0
ELLIPSE
  5
3CC
100
AcDbEntity
  8
ALL_ASSEMBLY_MEMBERS
100
AcDbEllipse
 62
7
  6
CONTINUOUS
 10
5.897429691
 20
4.1635287267
 30
0.0
 11
-0.4203531079
 21
0.479141308
 31
0.0
 40
0.1749164141
 41
-4.4477321281
 42
-4.4391989803
  0
ELLIPSE
  5
3CD
100
AcDbEntity
  8
ALL_ASSEMBLY_MEMBERS
100
AcDbEllipse
 62
7
  6
CONTINUOUS
 10
5.8611001734
 20
4.1635287267
 30
0.0
 11
0.962207503
 21
-0.4656769952
 31
0.0
 40
0.1399265741
 41
-1.4466913509
 42
-1.4353214165
  0
ELLIPSE
  5
3CE
100
AcDbEntity
  8
ALL_ASSEMBLY_MEMBERS
100
AcDbEllipse
 62
7
  6
CONTINUOUS
 10
5.6977538706
 20
4.1635287267
 30
0.0
 11
3.8575839213
 21
-0.4563415814
 31
0.0
 40
0.0423861617
 41
-1.5121351722
 42
-1.5092938799
  0
ELLIPSE
  5
3CF
100
AcDbEntity
  8
ALL_ASSEMBLY_MEMBERS
100
AcDbEllipse
 62
7
  6
CONTINUOUS
 10
6.0203366372
 20
4.1635287267
 30
0.0
 11
0.7463252756
 21
-0.4698307894
 31
0.0
 40
0.1599009769
 41
-1.6130857077
 42
-1.5959095904
  0
ELLIPSE
  5
3D0
100
AcDbEntity
  8
ALL_ASSEMBLY_MEMBERS
100
AcDbEllipse
 62
7
  6
CONTINUOUS
 10
5.8999489189
 20
4.1635287267
 30
0.0
 11
0.5597140252
 21
-0.4748533936
 31
0.0
 40
0.1741096516
 41
-1.4868806225
 42
-1.4159149133
  0
ELLIPSE
  5
3D1
100
AcDbEntity
  8
ALL_ASSEMBLY_MEMBERS
100
AcDbEllipse
 62
7
  6
CONTINUOUS
 10
5.8966684159
 20
4.1635287267
 30
0.0
 11
0.9622042765
 21
-0.4656770454
 31
0.0
 40
0.139926863
 41
-1.4949495759
 42
-1.489275252
  0
ELLIPSE
  5
3D2
100
AcDbEntity
  8
ALL_ASSEMBLY_MEMBERS
100
AcDbEllipse
 62
7
  6
CONTINUOUS
 10
5.8743203024
 20
4.1635287267
 30
0.0
 11
2.5716108227
 21
-0.4573304865
 31
0.0
 40
0.0624983615
 41
-1.5457781432
 42
-1.5429408411
  0
ELLIPSE
  5
3D3
100
AcDbEntity
  8
ALL_ASSEMBLY_MEMBERS
100
AcDbEllipse
 62
7
  6
CONTINUOUS
 10
5.9640740966
 20
4.1635287267
 30
0.0
 11
2.5716108227
 21
0.4573304865
 31
0.0
 40
0.0624983615
 41
-1.5986518125
 42
-1.5958145104
  0
ELLIPSE
  5
3D4
100
AcDbEntity
  8
ALL_ASSEMBLY_MEMBERS
100
AcDbEllipse
 62
7
  6
CONTINUOUS
 10
5.9372564142
 20
4.1635287267
 30
0.0
 11
0.6379530235
 21
0.4725921354
 31
0.0
 40
0.1691116546
 41
-1.7093280947
 42
-1.6979797282
  0
ELLIPSE
  5
3D5
100
AcDbEntity
  8
ALL_ASSEMBLY_MEMBERS
100
AcDbEllipse
 62
7
  6
CONTINUOUS
 10
5.9507831835
 20
4.1635287267
 30
0.0
 11
0.10123742
 21
0.4846944896
 31
0.0
 40
0.0724615456
 41
-2.012460577
 42
-1.9953544323
  0
ELLIPSE
  5
3D6
100
AcDbEntity
  8
ALL_ASSEMBLY_MEMBERS
100
AcDbEllipse
 62
7
  6
CONTINUOUS
 10
5.9807401466
 20
4.1635287267
 30
0.0
 11
0.3768576551
 21
0.4804196369
 31
0.0
 40
0.1715483869
 41
-1.9081086021
 42
-1.8938294856
  0
ELLIPSE
  5
3D7
100
AcDbEntity
  8
ALL_ASSEMBLY_MEMBERS
100
AcDbEllipse
 62
7
  6
CONTINUOUS
 10
5.9364348409
 20
4.1635287267
 30
0.0
 11
0.3118799231
 21
0.4821211713
 31
0.0
 40
0.1616508637
 41
-1.8182260229
 42
-1.8068779936
  0
ELLIPSE
  5
3D8
100
AcDbEntity
  8
ALL_ASSEMBLY_MEMBERS
100
AcDbEllipse
 62
7
  6
CONTINUOUS
 10
6.0120407083
 20
4.1635287267
 30
0.0
 11
0.6379533341
 21
0.4725921268
 31
0.0
 40
0.1691116311
 41
-1.8260145634
 42
-1.8174352631
  0
ELLIPSE
  5
3D9
100
AcDbEntity
  8
ALL_ASSEMBLY_MEMBERS
100
AcDbEllipse
 62
7
  6
CONTINUOUS
 10
6.0957638593
 20
4.1635287267
 30
0.0
 11
1.2847916974
 21
0.4619431809
 31
0.0
 40
0.1143679302
 41
-1.7482093125
 42
-1.7424844324
  0
ELLIPSE
  5
3DA
100
AcDbEntity
  8
ALL_ASSEMBLY_MEMBERS
100
AcDbEllipse
 62
7
  6
CONTINUOUS
 10
5.9383191344
 20
4.1635287267
 30
0.0
 11
0.10123742
 21
0.4846944896
 31
0.0
 40
0.0724615456
 41
-1.89593605
 42
-1.8789114217
  0
ELLIPSE
  5
3DB
100
AcDbEntity
  8
ALL_ASSEMBLY_MEMBERS
100
AcDbEllipse
 62
7
  6
CONTINUOUS
 10
6.1831369289
 20
4.1635287267
 30
0.0
 11
1.9284678459
 21
0.4586391126
 31
0.0
 40
0.0813849018
 41
-1.7293289027
 42
-1.7264648042
  0
ELLIPSE
  5
3DC
100
AcDbEntity
  8
ALL_ASSEMBLY_MEMBERS
100
AcDbEllipse
 62
7
  6
CONTINUOUS
 10
6.3615283434
 20
4.1635287267
 30
0.0
 11
3.2146291591
 21
0.4566950122
 31
0.0
 40
0.0505558762
 41
-1.7200233845
 42
-1.7171581365
  0
ELLIPSE
  5
3DD
100
AcDbEntity
  8
ALL_ASSEMBLY_MEMBERS
100
AcDbEllipse
 62
7
  6
CONTINUOUS
 10
5.4349137585
 20
4.1635287267
 30
0.0
 11
3.2146300597
 21
-0.4566950116
 31
0.0
 40
0.0505558626
 41
-1.4244345211
 42
-1.421569273
  0
ELLIPSE
  5
3DE
100
AcDbEntity
  8
ALL_ASSEMBLY_MEMBERS
100
AcDbEllipse
 62
7
  6
CONTINUOUS
 10
5.6133055477
 20
4.1635287267
 30
0.0
 11
1.9284660439
 21
-0.458639118
 31
0.0
 40
0.0813849697
 41
-1.4151278149
 42
-1.4122637165
  0
ELLIPSE
  5
3DF
100
AcDbEntity
  8
ALL_ASSEMBLY_MEMBERS
100
AcDbEllipse
 62
7
  6
CONTINUOUS
 10
5.986956815
 20
4.1635287267
 30
0.0
 11
0.9622070503
 21
-0.4656770023
 31
0.0
 40
0.1399266146
 41
-1.5716017881
 42
-1.5659156053
  0
ELLIPSE
  5
3E0
100
AcDbEntity
  8
ALL_ASSEMBLY_MEMBERS
100
AcDbEllipse
 62
7
  6
CONTINUOUS
 10
5.700678342
 20
4.1635287267
 30
0.0
 11
1.2847919231
 21
-0.461943179
 31
0.0
 40
0.1143679148
 41
-1.3991082341
 42
-1.393383354
  0
ELLIPSE
  5
3E1
100
AcDbEntity
  8
ALL_ASSEMBLY_MEMBERS
100
AcDbEllipse
 62
7
  6
CONTINUOUS
 10
5.7844015126
 20
4.1635287267
 30
0.0
 11
0.6379534101
 21
-0.4725921247
 31
0.0
 40
0.1691116253
 41
-1.3241574099
 42
-1.3155781096
  0
ELLIPSE
  5
3E2
100
AcDbEntity
  8
ALL_ASSEMBLY_MEMBERS
100
AcDbEllipse
 62
7
  6
CONTINUOUS
 10
5.9533659092
 20
4.1635287267
 30
0.0
 11
-0.4203531079
 21
0.479141308
 31
0.0
 40
0.1749164141
 41
-4.5783263692
 42
-4.5698008357
  0
ELLIPSE
  5
3E3
100
AcDbEntity
  8
ALL_ASSEMBLY_MEMBERS
100
AcDbEllipse
 62
7
  6
CONTINUOUS
 10
5.8157020793
 20
4.1635287267
 30
0.0
 11
-0.3768576893
 21
0.480419636
 31
0.0
 40
0.1715483905
 41
-4.3893558366
 42
-4.3750767201
  0
ELLIPSE
  5
3E4
100
AcDbEntity
  8
ALL_ASSEMBLY_MEMBERS
100
AcDbEllipse
 62
7
  6
CONTINUOUS
 10
5.9371086429
 20
4.1635287267
 30
0.0
 11
-0.1217484712
 21
0.4846385342
 31
0.0
 40
0.0853800028
 41
-4.4389790303
 42
-4.4247782581
  0
ELLIPSE
  5
3E5
100
AcDbEntity
  8
ALL_ASSEMBLY_MEMBERS
100
AcDbEllipse
 62
7
  6
CONTINUOUS
 10
5.845659045
 20
4.1635287267
 30
0.0
 11
-0.101237429
 21
0.4846944896
 31
0.0
 40
0.0724615514
 41
-4.2878308774
 42
-4.2707247327
  0
ELLIPSE
  5
3E6
100
AcDbEntity
  8
ALL_ASSEMBLY_MEMBERS
100
AcDbEllipse
 62
7
  6
CONTINUOUS
 10
5.8540755535
 20
4.1635287267
 30
0.0
 11
1.9288162072
 21
0.0
 31
0.0
 40
0.2513199538
 41
7.8400775852
 42
7.8429147916
  0
ELLIPSE
  5
3E7
100
AcDbEntity
  8
ALL_ASSEMBLY_MEMBERS
100
AcDbEllipse
 62
7
  6
CONTINUOUS
 10
5.8361969582
 20
4.1635287267
 30
0.0
 11
3.2147129739
 21
0.0
 31
0.0
 40
0.1507910672
 41
7.837240283
 42
7.8400775852
  0
ELLIPSE
  5
3E8
100
AcDbEntity
  8
ALL_ASSEMBLY_MEMBERS
100
AcDbEllipse
 62
7
  6
CONTINUOUS
 10
5.9602452561
 20
4.1635287267
 30
0.0
 11
3.2147120734
 21
-0.0
 31
0.0
 40
0.1507911094
 41
1.5847003756
 42
1.5875376778
  0
ELLIPSE
  5
3E9
100
AcDbEntity
  8
ALL_ASSEMBLY_MEMBERS
100
AcDbEllipse
 62
7
  6
CONTINUOUS
 10
5.8761144444
 20
4.1635287267
 30
0.0
 11
-0.0
 21
0.48475
 31
0.0
 40
0.2652664142
 41
0.0763914046
 42
0.0906260353
  0
ELLIPSE
  5
3EA
100
AcDbEntity
  8
ALL_ASSEMBLY_MEMBERS
100
AcDbEllipse
 62
7
  6
CONTINUOUS
 10
5.8990125397
 20
4.1635287267
 30
0.0
 11
-0.0
 21
0.48475
 31
0.0
 40
0.8842220554
 41
0.0678582568
 42
0.0763914046
  0
ELLIPSE
  5
3EB
100
AcDbEntity
  8
ALL_ASSEMBLY_MEMBERS
100
AcDbEllipse
 62
7
  6
CONTINUOUS
 10
5.9353420343
 20
4.1635287267
 30
0.0
 11
0.9644109754
 21
-0.0
 31
0.0
 40
0.5026384108
 41
1.6272846492
 42
1.6386545836
  0
ELLIPSE
  5
3EC
100
AcDbEntity
  8
ALL_ASSEMBLY_MEMBERS
100
AcDbEllipse
 62
7
  6
CONTINUOUS
 10
5.9353420343
 20
4.1635287267
 30
0.0
 11
0.9595037988
 21
0.0
 31
0.0
 40
0.5026384108
 41
1.6275738566
 42
1.6336193552
  0
ELLIPSE
  5
3ED
100
AcDbEntity
  8
ALL_ASSEMBLY_MEMBERS
100
AcDbEllipse
 62
7
  6
CONTINUOUS
 10
6.098688407
 20
4.1635287267
 30
0.0
 11
3.857633315
 21
-0.0
 31
0.0
 40
0.1256599475
 41
1.6244433569
 42
1.6272846492
  0
ELLIPSE
  5
3EE
100
AcDbEntity
  8
ALL_ASSEMBLY_MEMBERS
100
AcDbEllipse
 62
7
  6
CONTINUOUS
 10
6.098688407
 20
4.1635287267
 30
0.0
 11
3.8380046625
 21
0.0
 31
0.0
 40
0.1256599475
 41
1.6247179887
 42
1.6275738566
  0
ELLIPSE
  5
3EF
100
AcDbEntity
  8
ALL_ASSEMBLY_MEMBERS
100
AcDbEllipse
 62
7
  6
CONTINUOUS
 10
5.9423666983
 20
4.1635287267
 30
0.0
 11
1.9288180083
 21
-0.0
 31
0.0
 40
0.2513197191
 41
1.5818631691
 42
1.5847003756
  0
ELLIPSE
  5
3F0
100
AcDbEntity
  8
ALL_ASSEMBLY_MEMBERS
100
AcDbEllipse
 62
7
  6
CONTINUOUS
 10
5.9352515627
 20
4.1635287267
 30
0.0
 11
1.2858811504
 21
0.0
 31
0.0
 40
0.3769788521
 41
1.5761890168
 42
1.5818631691
  0
ELLIPSE
  5
3F1
100
AcDbEntity
  8
ALL_ASSEMBLY_MEMBERS
100
AcDbEllipse
 62
7
  6
CONTINUOUS
 10
5.995816001
 20
4.1635287267
 30
0.0
 11
0.57167825
 21
-0.4744956005
 31
0.0
 40
0.1734875667
 41
1.8341227539
 42
1.8564219592
  0
ELLIPSE
  5
3F2
100
AcDbEntity
  8
ALL_ASSEMBLY_MEMBERS
100
AcDbEllipse
 62
7
  6
CONTINUOUS
 10
5.995816001
 20
4.1635287267
 30
0.0
 11
0.5687694008
 21
-0.4720812421
 31
0.0
 40
0.1734875667
 41
8.1199044316
 42
8.140341655
  0
ELLIPSE
  5
3F3
100
AcDbEntity
  8
ALL_ASSEMBLY_MEMBERS
100
AcDbEllipse
 62
7
  6
CONTINUOUS
 10
5.931784397
 20
4.1635287267
 30
0.0
 11
0.642939962
 21
0.0
 31
0.0
 40
0.7539584232
 41
7.8508633559
 42
7.859374324
  0
ELLIPSE
  5
3F4
100
AcDbEntity
  8
ALL_ASSEMBLY_MEMBERS
100
AcDbEllipse
 62
7
  6
CONTINUOUS
 10
5.9532558087
 20
4.1635287267
 30
0.0
 11
0.5716781103
 21
-0.4744956046
 31
0.0
 40
0.1734875743
 41
1.7601615672
 42
1.7823048532
  0
ELLIPSE
  5
3F5
100
AcDbEntity
  8
ALL_ASSEMBLY_MEMBERS
100
AcDbEllipse
 62
7
  6
CONTINUOUS
 10
5.9532558087
 20
4.1635287267
 30
0.0
 11
0.5687692618
 21
-0.4720812463
 31
0.0
 40
0.1734875743
 41
8.0454832217
 42
8.0658410218
  0
ELLIPSE
  5
3F6
100
AcDbEntity
  8
ALL_ASSEMBLY_MEMBERS
100
AcDbEllipse
 62
7
  6
CONTINUOUS
 10
5.882137493
 20
4.1635287267
 30
0.0
 11
-0.3622025764
 21
0.4808294012
 31
0.0
 40
0.1698707729
 41
-1.3947898515
 42
-1.3800412872
  0
ELLIPSE
  5
3F7
100
AcDbEntity
  8
ALL_ASSEMBLY_MEMBERS
100
AcDbEllipse
 62
7
  6
CONTINUOUS
 10
5.882137493
 20
4.1635287267
 30
0.0
 11
-0.3603595945
 21
0.4783828148
 31
0.0
 40
0.1698707729
 41
-1.3950241974
 42
-1.3802000911
  0
ELLIPSE
  5
3F8
100
AcDbEntity
  8
ALL_ASSEMBLY_MEMBERS
100
AcDbEllipse
 62
7
  6
CONTINUOUS
 10
5.8934679139
 20
4.1635287267
 30
0.0
 11
-0.1171229363
 21
0.4846535963
 31
0.0
 40
0.082538636
 41
-1.3022224851
 42
-1.2874639355
  0
ELLIPSE
  5
3F9
100
AcDbEntity
  8
ALL_ASSEMBLY_MEMBERS
100
AcDbEllipse
 62
7
  6
CONTINUOUS
 10
5.8934679139
 20
4.1635287267
 30
0.0
 11
-0.116526984
 21
0.4821875514
 31
0.0
 40
0.082538636
 41
4.9806527798
 42
4.9954870257
  0
ELLIPSE
  5
3FA
100
AcDbEntity
  8
ALL_ASSEMBLY_MEMBERS
100
AcDbEllipse
 62
7
  6
CONTINUOUS
 10
5.845659045
 20
4.1635287267
 30
0.0
 11
-0.0
 21
0.48475
 31
0.0
 40
0.2210555332
 41
-0.10773218
 42
-0.0906260353
  0
ELLIPSE
  5
3FB
100
AcDbEntity
  8
ALL_ASSEMBLY_MEMBERS
100
AcDbEllipse
 62
7
  6
CONTINUOUS
 10
5.845659045
 20
4.1635287267
 30
0.0
 11
0.0
 21
0.4822834646
 31
0.0
 40
0.2210555332
 41
-0.1082853113
 42
-0.0910908057
  0
ELLIPSE
  5
3FC
100
AcDbEntity
  8
ALL_ASSEMBLY_MEMBERS
100
AcDbEllipse
 62
7
  6
CONTINUOUS
 10
5.8157020793
 20
4.1635287267
 30
0.0
 11
-0.0
 21
0.48475
 31
0.0
 40
0.7958002231
 41
-0.1220112966
 42
-0.10773218
  0
ELLIPSE
  5
3FD
100
AcDbEntity
  8
ALL_ASSEMBLY_MEMBERS
100
AcDbEllipse
 62
7
  6
CONTINUOUS
 10
5.8157020793
 20
4.1635287267
 30
0.0
 11
-0.0
 21
0.4822834646
 31
0.0
 40
0.7958002231
 41
-0.1226384364
 42
-0.1082853113
  0
ELLIPSE
  5
3FE
100
AcDbEntity
  8
ALL_ASSEMBLY_MEMBERS
100
AcDbEllipse
 62
7
  6
CONTINUOUS
 10
5.7844015126
 20
4.1635287267
 30
0.0
 11
0.6429400371
 21
0.0
 31
0.0
 40
0.7539583352
 41
1.4402057299
 42
1.4487850302
  0
ELLIPSE
  5
3FF
100
AcDbEntity
  8
ALL_ASSEMBLY_MEMBERS
100
AcDbEllipse
 62
7
  6
CONTINUOUS
 10
5.7844015126
 20
4.1635287267
 30
0.0
 11
0.6396685892
 21
0.0
 31
0.0
 40
0.7539583352
 41
1.4395339999
 42
1.4481578904
  0
ELLIPSE
  5
400
100
AcDbEntity
  8
ALL_ASSEMBLY_MEMBERS
100
AcDbEllipse
 62
7
  6
CONTINUOUS
 10
5.87196619
 20
4.1635287267
 30
0.0
 11
0.1171229363
 21
0.4846535963
 31
0.0
 40
0.082538636
 41
1.2874639355
 42
1.3022224851
  0
ELLIPSE
  5
401
100
AcDbEntity
  8
ALL_ASSEMBLY_MEMBERS
100
AcDbEllipse
 62
7
  6
CONTINUOUS
 10
5.87196619
 20
4.1635287267
 30
0.0
 11
0.116526984
 21
0.4821875514
 31
0.0
 40
0.082538636
 41
1.2876982814
 42
1.3025325273
  0
ELLIPSE
  5
402
100
AcDbEntity
  8
ALL_ASSEMBLY_MEMBERS
100
AcDbEllipse
 62
7
  6
CONTINUOUS
 10
5.8528394993
 20
4.1635287267
 30
0.0
 11
-0.1211290532
 21
0.4821725657
 31
0.0
 40
0.0853800458
 41
-4.2918879649
 42
-4.2793511418
  0
ELLIPSE
  5
403
100
AcDbEntity
  8
ALL_ASSEMBLY_MEMBERS
100
AcDbEllipse
 62
7
  6
CONTINUOUS
 10
5.8814082045
 20
4.1635287267
 30
0.0
 11
0.3205164298
 21
0.4819141273
 31
0.0
 40
0.1633544133
 41
1.364678812
 42
1.3757409965
  0
ELLIPSE
  5
404
100
AcDbEntity
  8
ALL_ASSEMBLY_MEMBERS
100
AcDbEllipse
 62
7
  6
CONTINUOUS
 10
5.8814082045
 20
4.1635287267
 30
0.0
 11
0.318885558
 21
0.4794620215
 31
0.0
 40
0.1633544133
 41
1.3648564897
 42
1.3759753424
  0
ELLIPSE
  5
405
100
AcDbEntity
  8
ALL_ASSEMBLY_MEMBERS
100
AcDbEllipse
 62
7
  6
CONTINUOUS
 10
5.9043266032
 20
4.1635287267
 30
0.0
 11
0.9880542361
 21
0.465285186
 31
0.0
 40
0.1376303424
 41
1.533430284
 42
1.5408026323
  0
ELLIPSE
  5
406
100
AcDbEntity
  8
ALL_ASSEMBLY_MEMBERS
100
AcDbEllipse
 62
7
  6
CONTINUOUS
 10
5.9043266032
 20
4.1635287267
 30
0.0
 11
0.9830267564
 21
0.4629176926
 31
0.0
 40
0.1376303424
 41
1.5335702205
 42
1.5409803099
  0
ELLIPSE
  5
407
100
AcDbEntity
  8
ALL_ASSEMBLY_MEMBERS
100
AcDbEllipse
 62
7
  6
CONTINUOUS
 10
5.8528394993
 20
4.1635287267
 30
0.0
 11
-0.1217485418
 21
0.484638534
 31
0.0
 40
0.0853800458
 41
-4.2941425674
 42
-4.2798895141
  0
ELLIPSE
  5
408
100
AcDbEntity
  8
ALL_ASSEMBLY_MEMBERS
100
AcDbEllipse
 62
7
  6
CONTINUOUS
 10
5.700678342
 20
4.1635287267
 30
0.0
 11
1.2858776966
 21
-0.0
 31
0.0
 40
0.3769798646
 41
7.7176661569
 42
7.7233910371
  0
ELLIPSE
  5
409
100
AcDbEntity
  8
ALL_ASSEMBLY_MEMBERS
100
AcDbEllipse
 62
7
  6
CONTINUOUS
 10
5.700678342
 20
4.1635287267
 30
0.0
 11
1.2793348128
 21
-0.0
 31
0.0
 40
0.3769798646
 41
1.4337793091
 42
1.4395339999
  0
ELLIPSE
  5
40A
100
AcDbEntity
  8
ALL_ASSEMBLY_MEMBERS
100
AcDbEllipse
 62
7
  6
CONTINUOUS
 10
5.8214293816
 20
4.1635287267
 30
0.0
 11
-0.4182142408
 21
0.4767033111
 31
0.0
 40
0.1749164141
 41
-4.4101729241
 42
-4.4015666817
  0
ELLIPSE
  5
40B
100
AcDbEntity
  8
ALL_ASSEMBLY_MEMBERS
100
AcDbEllipse
 62
7
  6
CONTINUOUS
 10
5.8214293816
 20
4.1635287267
 30
0.0
 11
-0.4203531079
 21
0.479141308
 31
0.0
 40
0.1749164141
 41
-4.4107112963
 42
-4.4021493725
  0
ELLIPSE
  5
40C
100
AcDbEntity
  8
ALL_ASSEMBLY_MEMBERS
100
AcDbEllipse
 62
7
  6
CONTINUOUS
 10
5.6133055477
 20
4.1635287267
 30
0.0
 11
1.928827244
 21
-0.0
 31
0.0
 40
0.2513185157
 41
1.4316167513
 42
1.4344808497
  0
ELLIPSE
  5
40D
100
AcDbEntity
  8
ALL_ASSEMBLY_MEMBERS
100
AcDbEllipse
 62
7
  6
CONTINUOUS
 10
5.760779898
 20
4.1635287267
 30
0.0
 11
0.9573098206
 21
-0.463307535
 31
0.0
 40
0.1399267287
 41
-1.3891557708
 42
-1.3776674525
  0
ELLIPSE
  5
40E
100
AcDbEntity
  8
ALL_ASSEMBLY_MEMBERS
100
AcDbEllipse
 62
7
  6
CONTINUOUS
 10
5.760779898
 20
4.1635287267
 30
0.0
 11
0.9622057766
 21
-0.4656770221
 31
0.0
 40
0.1399267287
 41
-1.3897384615
 42
-1.3783094395
  0
ELLIPSE
  5
40F
100
AcDbEntity
  8
ALL_ASSEMBLY_MEMBERS
100
AcDbEllipse
 62
7
  6
CONTINUOUS
 10
5.6133055477
 20
4.1635287267
 30
0.0
 11
1.9190128639
 21
0.0
 31
0.0
 40
0.2513185157
 41
1.4309002792
 42
1.4337793091
  0
ELLIPSE
  5
410
100
AcDbEntity
  8
ALL_ASSEMBLY_MEMBERS
100
AcDbEllipse
 62
7
  6
CONTINUOUS
 10
5.4004383416
 20
4.1635287267
 30
0.0
 11
3.8379783783
 21
-0.4540195858
 31
0.0
 40
0.0423859163
 41
-1.4402702398
 42
-1.4373956289
  0
ELLIPSE
  5
411
100
AcDbEntity
  8
ALL_ASSEMBLY_MEMBERS
100
AcDbEllipse
 62
7
  6
CONTINUOUS
 10
5.4004383416
 20
4.1635287267
 30
0.0
 11
3.8576068963
 21
-0.4563415717
 31
0.0
 40
0.0423859163
 41
-1.4409122269
 42
-1.4380524792
  0
ELLIPSE
  5
412
100
AcDbEntity
  8
ALL_ASSEMBLY_MEMBERS
100
AcDbEllipse
 62
7
  6
CONTINUOUS
 10
5.847176757
 20
4.1635287267
 30
0.0
 11
-0.0934736487
 21
0.4847090994
 31
0.0
 40
0.0673659664
 41
-1.3359330152
 42
-1.3174326445
  0
ELLIPSE
  5
413
100
AcDbEntity
  8
ALL_ASSEMBLY_MEMBERS
100
AcDbEllipse
 62
7
  6
CONTINUOUS
 10
5.847176757
 20
4.1635287267
 30
0.0
 11
-0.0929980302
 21
0.4822427721
 31
0.0
 40
0.0673659664
 41
-1.3364524313
 42
-1.3178566306
  0
ELLIPSE
  5
414
100
AcDbEntity
  8
ALL_ASSEMBLY_MEMBERS
100
AcDbEllipse
 62
7
  6
CONTINUOUS
 10
5.4349137585
 20
4.1635287267
 30
0.0
 11
3.2147129739
 21
0.0
 31
0.0
 40
0.1507910672
 41
1.4287515033
 42
1.4316167513
  0
ELLIPSE
  5
415
100
AcDbEntity
  8
ALL_ASSEMBLY_MEMBERS
100
AcDbEllipse
 62
7
  6
CONTINUOUS
 10
5.8271683733
 20
4.1635287267
 30
0.0
 11
-0.2873264341
 21
0.4826711449
 31
0.0
 40
0.1560789432
 41
-1.4341230973
 42
-1.4155878961
  0
ELLIPSE
  5
416
100
AcDbEntity
  8
ALL_ASSEMBLY_MEMBERS
100
AcDbEllipse
 62
7
  6
CONTINUOUS
 10
5.8271683733
 20
4.1635287267
 30
0.0
 11
-0.2858644416
 21
0.4802151872
 31
0.0
 40
0.1560789432
 41
-1.4347384861
 42
-1.4161073122
  0
ELLIPSE
  5
417
100
AcDbEntity
  8
ALL_ASSEMBLY_MEMBERS
100
AcDbEllipse
 62
7
  6
CONTINUOUS
 10
5.78379834
 20
4.1635287267
 30
0.0
 11
0.6553159276
 21
-0.4721187462
 31
0.0
 40
0.1677639688
 41
1.5601896397
 42
1.5713302259
  0
ELLIPSE
  5
418
100
AcDbEntity
  8
ALL_ASSEMBLY_MEMBERS
100
AcDbEllipse
 62
7
  6
CONTINUOUS
 10
5.78379834
 20
4.1635287267
 30
0.0
 11
0.6519815079
 21
-0.4697164819
 31
0.0
 40
0.1677639688
 41
1.5595163628
 42
1.5707148371
  0
ELLIPSE
  5
419
100
AcDbEntity
  8
ALL_ASSEMBLY_MEMBERS
100
AcDbEllipse
 62
7
  6
CONTINUOUS
 10
5.7084168121
 20
4.1635287267
 30
0.0
 11
1.2364591409
 21
-0.462368365
 31
0.0
 40
0.1177519922
 41
1.4764767822
 42
1.4839128544
  0
ELLIPSE
  5
41A
100
AcDbEntity
  8
ALL_ASSEMBLY_MEMBERS
100
AcDbEllipse
 62
7
  6
CONTINUOUS
 10
5.7084168121
 20
4.1635287267
 30
0.0
 11
1.2301677117
 21
-0.4600157132
 31
0.0
 40
0.1177519922
 41
1.475764772
 42
1.4832395775
  0
ELLIPSE
  5
41B
100
AcDbEntity
  8
ALL_ASSEMBLY_MEMBERS
100
AcDbEllipse
 62
7
  6
CONTINUOUS
 10
6.0570173144
 20
4.1635287267
 30
0.0
 11
1.2364593147
 21
0.4623683634
 31
0.0
 40
0.1177519797
 41
1.6576798102
 42
1.6651158823
  0
ELLIPSE
  5
41C
100
AcDbEntity
  8
ALL_ASSEMBLY_MEMBERS
100
AcDbEllipse
 62
7
  6
CONTINUOUS
 10
6.0570173144
 20
4.1635287267
 30
0.0
 11
1.2301678846
 21
0.4600157117
 31
0.0
 40
0.1177519797
 41
1.6583530871
 42
1.6658278925
  0
ELLIPSE
  5
41D
100
AcDbEntity
  8
ALL_ASSEMBLY_MEMBERS
100
AcDbEllipse
 62
7
  6
CONTINUOUS
 10
5.9816357564
 20
4.1635287267
 30
0.0
 11
0.6553158691
 21
0.4721187478
 31
0.0
 40
0.1677639734
 41
1.5702624133
 42
1.5814029995
  0
ELLIPSE
  5
41E
100
AcDbEntity
  8
ALL_ASSEMBLY_MEMBERS
100
AcDbEllipse
 62
7
  6
CONTINUOUS
 10
5.9816357564
 20
4.1635287267
 30
0.0
 11
0.6519814497
 21
0.4697164835
 31
0.0
 40
0.1677639734
 41
1.5708778021
 42
1.5820762764
  0
ELLIPSE
  5
41F
100
AcDbEntity
  8
ALL_ASSEMBLY_MEMBERS
100
AcDbEllipse
 62
7
  6
CONTINUOUS
 10
5.9382657268
 20
4.1635287267
 30
0.0
 11
0.287326408
 21
0.4826711454
 31
0.0
 40
0.1560789367
 41
1.4155878838
 42
1.434123085
  0
ELLIPSE
  5
420
100
AcDbEntity
  8
ALL_ASSEMBLY_MEMBERS
100
AcDbEllipse
 62
7
  6
CONTINUOUS
 10
5.9382657268
 20
4.1635287267
 30
0.0
 11
0.2858644157
 21
0.4802151878
 31
0.0
 40
0.1560789367
 41
1.4161072999
 42
1.4347384738
  0
ELLIPSE
  5
421
100
AcDbEntity
  8
ALL_ASSEMBLY_MEMBERS
100
AcDbEllipse
 62
7
  6
CONTINUOUS
 10
5.918257345
 20
4.1635287267
 30
0.0
 11
0.0934736405
 21
0.4847090994
 31
0.0
 40
0.0673659609
 41
1.3174326423
 42
1.335933013
  0
ELLIPSE
  5
422
100
AcDbEntity
  8
ALL_ASSEMBLY_MEMBERS
100
AcDbEllipse
 62
7
  6
CONTINUOUS
 10
5.918257345
 20
4.1635287267
 30
0.0
 11
0.092998022
 21
0.4822427721
 31
0.0
 40
0.0673659609
 41
1.3178566284
 42
1.3364524291
  0
ELLIPSE
  5
423
100
AcDbEntity
  8
ALL_ASSEMBLY_MEMBERS
100
AcDbEllipse
 62
7
  6
CONTINUOUS
 10
5.4349137585
 20
4.1635287267
 30
0.0
 11
3.1983556692
 21
0.0
 31
0.0
 40
0.1507910672
 41
1.4280200816
 42
1.4309002792
  0
ELLIPSE
  5
424
100
AcDbEntity
  8
ALL_ASSEMBLY_MEMBERS
100
AcDbEllipse
 62
7
  6
CONTINUOUS
 10
6.396003773
 20
4.1635287267
 30
0.0
 11
3.8379774823
 21
0.4540195862
 31
0.0
 40
0.0423859259
 41
-1.704197027
 42
-1.7013224161
  0
ELLIPSE
  5
425
100
AcDbEntity
  8
ALL_ASSEMBLY_MEMBERS
100
AcDbEllipse
 62
7
  6
CONTINUOUS
 10
6.396003773
 20
4.1635287267
 30
0.0
 11
3.8576059957
 21
0.4563415721
 31
0.0
 40
0.0423859259
 41
-1.7035401767
 42
-1.700680429
  0
ELLIPSE
  5
426
100
AcDbEntity
  8
ALL_ASSEMBLY_MEMBERS
100
AcDbEllipse
 62
7
  6
CONTINUOUS
 10
6.0356623708
 20
4.1635287267
 30
0.0
 11
0.9573101584
 21
0.4633075297
 31
0.0
 40
0.1399266983
 41
-1.7639251619
 42
-1.7524368436
  0
ELLIPSE
  5
427
100
AcDbEntity
  8
ALL_ASSEMBLY_MEMBERS
100
AcDbEllipse
 62
7
  6
CONTINUOUS
 10
6.0356623708
 20
4.1635287267
 30
0.0
 11
0.9622061161
 21
0.4656770168
 31
0.0
 40
0.1399266983
 41
-1.7632831748
 42
-1.7518541529
  0
ELLIPSE
  5
428
100
AcDbEntity
  8
ALL_ASSEMBLY_MEMBERS
100
AcDbEllipse
 62
7
  6
CONTINUOUS
 10
6.3615283434
 20
4.1635287267
 30
0.0
 11
3.2147120734
 21
-0.0
 31
0.0
 40
0.1507911094
 41
1.7099759023
 42
1.7128411503
  0
ELLIPSE
  5
429
100
AcDbEntity
  8
ALL_ASSEMBLY_MEMBERS
100
AcDbEllipse
 62
7
  6
CONTINUOUS
 10
6.3615283434
 20
4.1635287267
 30
0.0
 11
3.1983547732
 21
0.0
 31
0.0
 40
0.1507911094
 41
1.7106923744
 42
1.713572572
  0
ELLIPSE
  5
42A
100
AcDbEntity
  8
ALL_ASSEMBLY_MEMBERS
100
AcDbEllipse
 62
7
  6
CONTINUOUS
 10
6.1831369289
 20
4.1635287267
 30
0.0
 11
1.9288290452
 21
0.0
 31
0.0
 40
0.251318281
 41
1.7071118038
 42
1.7099759023
  0
ELLIPSE
  5
42B
100
AcDbEntity
  8
ALL_ASSEMBLY_MEMBERS
100
AcDbEllipse
 62
7
  6
CONTINUOUS
 10
5.975012849
 20
4.1635287267
 30
0.0
 11
0.4182142408
 21
0.4767033111
 31
0.0
 40
0.1749164141
 41
-1.8816186254
 42
-1.8730123831
  0
ELLIPSE
  5
42C
100
AcDbEntity
  8
ALL_ASSEMBLY_MEMBERS
100
AcDbEllipse
 62
7
  6
CONTINUOUS
 10
5.975012849
 20
4.1635287267
 30
0.0
 11
0.4203531079
 21
0.479141308
 31
0.0
 40
0.1749164141
 41
-1.8810359347
 42
-1.8724740109
  0
ELLIPSE
  5
42D
100
AcDbEntity
  8
ALL_ASSEMBLY_MEMBERS
100
AcDbEllipse
 62
7
  6
CONTINUOUS
 10
6.1831369289
 20
4.1635287267
 30
0.0
 11
1.9190146559
 21
0.0
 31
0.0
 40
0.251318281
 41
1.7078133445
 42
1.7106923744
  0
ELLIPSE
  5
42E
100
AcDbEntity
  8
ALL_ASSEMBLY_MEMBERS
100
AcDbEllipse
 62
7
  6
CONTINUOUS
 10
5.9436027313
 20
4.1635287267
 30
0.0
 11
0.1211290532
 21
0.4821725657
 31
0.0
 40
0.0853800458
 41
-2.0038341653
 42
-1.9912973423
  0
ELLIPSE
  5
42F
100
AcDbEntity
  8
ALL_ASSEMBLY_MEMBERS
100
AcDbEllipse
 62
7
  6
CONTINUOUS
 10
5.9436027313
 20
4.1635287267
 30
0.0
 11
0.1217485418
 21
0.484638534
 31
0.0
 40
0.0853800458
 41
-2.0032957931
 42
-1.9890427398
  0
ELLIPSE
  5
430
100
AcDbEntity
  8
ALL_ASSEMBLY_MEMBERS
100
AcDbEllipse
 62
7
  6
CONTINUOUS
 10
6.0957638593
 20
4.1635287267
 30
0.0
 11
1.2858774715
 21
0.0
 31
0.0
 40
0.3769799306
 41
1.7013869237
 42
1.7071118038
  0
ELLIPSE
  5
431
100
AcDbEntity
  8
ALL_ASSEMBLY_MEMBERS
100
AcDbEllipse
 62
7
  6
CONTINUOUS
 10
6.0957638593
 20
4.1635287267
 30
0.0
 11
1.2793345889
 21
-0.0
 31
0.0
 40
0.3769799306
 41
1.7020586537
 42
1.7078133445
  0
ELLIPSE
  5
432
100
AcDbEntity
  8
ALL_ASSEMBLY_MEMBERS
100
AcDbEllipse
 62
7
  6
CONTINUOUS
 10
6.0120407083
 20
4.1635287267
 30
0.0
 11
0.642939962
 21
0.0
 31
0.0
 40
0.7539584232
 41
1.6928076234
 42
1.7013869237
  0
ELLIPSE
  5
433
100
AcDbEntity
  8
ALL_ASSEMBLY_MEMBERS
100
AcDbEllipse
 62
7
  6
CONTINUOUS
 10
6.0120407083
 20
4.1635287267
 30
0.0
 11
0.6396685145
 21
0.0
 31
0.0
 40
0.7539584232
 41
1.6934347632
 42
1.7020586537
  0
ELLIPSE
  5
434
100
AcDbEntity
  8
ALL_ASSEMBLY_MEMBERS
100
AcDbEllipse
 62
7
  6
CONTINUOUS
 10
6.0349286569
 20
4.1635287267
 30
0.0
 11
0.7463249724
 21
-0.4698307965
 31
0.0
 40
0.1599010046
 41
-1.6130856485
 42
-1.5959095311
  0
ELLIPSE
  5
435
100
AcDbEntity
  8
ALL_ASSEMBLY_MEMBERS
100
AcDbEllipse
 62
7
  6
CONTINUOUS
 10
6.0349286569
 20
4.1635287267
 30
0.0
 11
0.7425274748
 21
-0.4674401739
 31
0.0
 40
0.1599010046
 41
-1.6138200371
 42
-1.5965544644
  0
ELLIPSE
  5
436
100
AcDbEntity
  8
ALL_ASSEMBLY_MEMBERS
100
AcDbEllipse
 62
7
  6
CONTINUOUS
 10
5.9807401466
 20
4.1635287267
 30
0.0
 11
0.0
 21
0.48475
 31
0.0
 40
0.7958001534
 41
0.10773218
 42
0.1220112966
  0
ELLIPSE
  5
437
100
AcDbEntity
  8
ALL_ASSEMBLY_MEMBERS
100
AcDbEllipse
 62
7
  6
CONTINUOUS
 10
5.9807401466
 20
4.1635287267
 30
0.0
 11
0.0
 21
0.4822834646
 31
0.0
 40
0.7958001534
 41
0.1082853113
 42
0.1226384364
  0
ELLIPSE
  5
438
100
AcDbEntity
  8
ALL_ASSEMBLY_MEMBERS
100
AcDbEllipse
 62
7
  6
CONTINUOUS
 10
5.7796524384
 20
4.1635287267
 30
0.0
 11
3.1982722808
 21
-0.4543712279
 31
0.0
 40
0.0505558762
 41
-1.5239656048
 42
-1.5211117194
  0
ELLIPSE
  5
439
100
AcDbEntity
  8
ALL_ASSEMBLY_MEMBERS
100
AcDbEllipse
 62
7
  6
CONTINUOUS
 10
5.7796524384
 20
4.1635287267
 30
0.0
 11
3.2146291591
 21
-0.4566950122
 31
0.0
 40
0.0505558762
 41
-1.5241674517
 42
-1.521328112
  0
ELLIPSE
  5
43A
100
AcDbEntity
  8
ALL_ASSEMBLY_MEMBERS
100
AcDbEllipse
 62
7
  6
CONTINUOUS
 10
5.9507831835
 20
4.1635287267
 30
0.0
 11
0.0
 21
0.48475
 31
0.0
 40
0.2210555139
 41
0.0906260353
 42
0.10773218
  0
ELLIPSE
  5
43B
100
AcDbEntity
  8
ALL_ASSEMBLY_MEMBERS
100
AcDbEllipse
 62
7
  6
CONTINUOUS
 10
5.9507831835
 20
4.1635287267
 30
0.0
 11
-0.0
 21
0.4822834646
 31
0.0
 40
0.2210555139
 41
0.0910908057
 42
0.1082853113
  0
ELLIPSE
  5
43C
100
AcDbEntity
  8
ALL_ASSEMBLY_MEMBERS
100
AcDbEllipse
 62
7
  6
CONTINUOUS
 10
5.8340115265
 20
4.1635287267
 30
0.0
 11
1.9186443081
 21
-0.4563054692
 31
0.0
 40
0.0813853176
 41
-1.5089407422
 42
-1.5060864941
  0
ELLIPSE
  5
43D
100
AcDbEntity
  8
ALL_ASSEMBLY_MEMBERS
100
AcDbEllipse
 62
7
  6
CONTINUOUS
 10
5.8340115265
 20
4.1635287267
 30
0.0
 11
1.9284568033
 21
-0.4586391457
 31
0.0
 40
0.0813853176
 41
-1.5091571348
 42
-1.5063174377
  0
ELLIPSE
  5
43E
100
AcDbEntity
  8
ALL_ASSEMBLY_MEMBERS
100
AcDbEllipse
 62
7
  6
CONTINUOUS
 10
5.8630146423
 20
4.1635287267
 30
0.0
 11
1.2782580077
 21
-0.4595926617
 31
0.0
 40
0.114367678
 41
-1.484342408
 42
-1.4786327952
  0
ELLIPSE
  5
43F
100
AcDbEntity
  8
ALL_ASSEMBLY_MEMBERS
100
AcDbEllipse
 62
7
  6
CONTINUOUS
 10
5.8630146423
 20
4.1635287267
 30
0.0
 11
1.2847953844
 21
-0.4619431499
 31
0.0
 40
0.114367678
 41
-1.4845733516
 42
-1.478892858
  0
ELLIPSE
  5
440
100
AcDbEntity
  8
ALL_ASSEMBLY_MEMBERS
100
AcDbEllipse
 62
7
  6
CONTINUOUS
 10
5.8956659712
 20
4.1635287267
 30
0.0
 11
0.6347072598
 21
-0.4701874538
 31
0.0
 40
0.1691116311
 41
-1.3951024531
 42
-1.386534842
  0
ELLIPSE
  5
441
100
AcDbEntity
  8
ALL_ASSEMBLY_MEMBERS
100
AcDbEllipse
 62
7
  6
CONTINUOUS
 10
5.8956659712
 20
4.1635287267
 30
0.0
 11
0.6379533341
 21
-0.4725921268
 31
0.0
 40
0.1691116311
 41
-1.3953625159
 42
-1.3868386321
  0
ELLIPSE
  5
442
100
AcDbEntity
  8
ALL_ASSEMBLY_MEMBERS
100
AcDbEllipse
 62
7
  6
CONTINUOUS
 10
5.9109153039
 20
4.1635287267
 30
0.0
 11
-0.3749396591
 21
0.4779751482
 31
0.0
 40
0.1715483401
 41
-4.4374539601
 42
-4.4231645383
  0
ELLIPSE
  5
443
100
AcDbEntity
  8
ALL_ASSEMBLY_MEMBERS
100
AcDbEllipse
 62
7
  6
CONTINUOUS
 10
5.9109153039
 20
4.1635287267
 30
0.0
 11
-0.3768572076
 21
0.4804196496
 31
0.0
 40
0.1715483401
 41
-4.4377577502
 42
-4.4235413607
  0
ELLIPSE
  5
444
100
AcDbEntity
  8
ALL_ASSEMBLY_MEMBERS
100
AcDbEllipse
 62
7
  6
CONTINUOUS
 10
5.9313873923
 20
4.1635287267
 30
0.0
 11
-0.1007222974
 21
0.4822282366
 31
0.0
 40
0.0724615456
 41
-4.3045336433
 42
-4.2873661045
  0
ELLIPSE
  5
445
100
AcDbEntity
  8
ALL_ASSEMBLY_MEMBERS
100
AcDbEllipse
 62
7
  6
CONTINUOUS
 10
5.9313873923
 20
4.1635287267
 30
0.0
 11
-0.10123742
 21
0.4846944896
 31
0.0
 40
0.0724615456
 41
-4.3049104657
 42
-4.2878308749
  0
ELLIPSE
  5
446
100
AcDbEntity
  8
ALL_ASSEMBLY_MEMBERS
100
AcDbEllipse
 62
7
  6
CONTINUOUS
 10
5.8646578333
 20
4.1635287267
 30
0.0
 11
0.6429400371
 21
0.0
 31
0.0
 40
0.7539583352
 41
7.8485889439
 42
7.857099912
  0
ELLIPSE
  5
447
100
AcDbEntity
  8
ALL_ASSEMBLY_MEMBERS
100
AcDbEllipse
 62
7
  6
CONTINUOUS
 10
5.6977538706
 20
4.1635287267
 30
0.0
 11
3.8576324144
 21
0.0
 31
0.0
 40
0.1256599769
 41
1.5143080044
 42
1.5171492967
  0
ELLIPSE
  5
448
100
AcDbEntity
  8
ALL_ASSEMBLY_MEMBERS
100
AcDbEllipse
 62
7
  6
CONTINUOUS
 10
5.6977538706
 20
4.1635287267
 30
0.0
 11
3.8380037666
 21
0.0
 31
0.0
 40
0.1256599769
 41
7.7972041041
 42
7.8000599721
  0
ELLIPSE
  5
449
100
AcDbEntity
  8
ALL_ASSEMBLY_MEMBERS
100
AcDbEllipse
 62
7
  6
CONTINUOUS
 10
5.9444985674
 20
4.1635287267
 30
0.0
 11
-0.0866566919
 21
0.4847194462
 31
0.0
 40
0.0628055002
 41
-4.4316026612
 42
-4.4117214252
  0
ELLIPSE
  5
44A
100
AcDbEntity
  8
ALL_ASSEMBLY_MEMBERS
100
AcDbEllipse
 62
7
  6
CONTINUOUS
 10
5.9444985674
 20
4.1635287267
 30
0.0
 11
-0.0862157599
 21
0.4822530662
 31
0.0
 40
0.0628055002
 41
-4.4318947599
 42
-4.4119116145
  0
ELLIPSE
  5
44B
100
AcDbEntity
  8
ALL_ASSEMBLY_MEMBERS
100
AcDbEllipse
 62
7
  6
CONTINUOUS
 10
5.957591786
 20
4.1635287267
 30
0.0
 11
-0.3118799231
 21
0.4821211713
 31
0.0
 40
0.1616508637
 41
-4.5359371337
 42
-4.5245667903
  0
ELLIPSE
  5
44C
100
AcDbEntity
  8
ALL_ASSEMBLY_MEMBERS
100
AcDbEllipse
 62
7
  6
CONTINUOUS
 10
5.957591786
 20
4.1635287267
 30
0.0
 11
-0.310292996
 21
0.4796680121
 31
0.0
 40
0.1616508637
 41
-4.5362876155
 42
-4.524858889
  0
ELLIPSE
  5
44D
100
AcDbEntity
  8
ALL_ASSEMBLY_MEMBERS
100
AcDbEllipse
 62
7
  6
CONTINUOUS
 10
5.9795702898
 20
4.1635287267
 30
0.0
 11
0.6379532564
 21
-0.4725921289
 31
0.0
 40
0.169111637
 41
-1.525970049
 42
-1.5145908343
  0
ELLIPSE
  5
44E
100
AcDbEntity
  8
ALL_ASSEMBLY_MEMBERS
100
AcDbEllipse
 62
7
  6
CONTINUOUS
 10
5.9795702898
 20
4.1635287267
 30
0.0
 11
0.6347071826
 21
-0.470187456
 31
0.0
 40
0.169111637
 41
-1.5263790513
 42
-1.5149413162
  0
ELLIPSE
  5
44F
100
AcDbEntity
  8
ALL_ASSEMBLY_MEMBERS
100
AcDbEllipse
 62
7
  6
CONTINUOUS
 10
6.1333293725
 20
4.1635287267
 30
0.0
 11
2.5715997839
 21
-0.4573305014
 31
0.0
 40
0.0624986133
 41
-1.6423298464
 42
-1.639483481
  0
ELLIPSE
  5
450
100
AcDbEntity
  8
ALL_ASSEMBLY_MEMBERS
100
AcDbEllipse
 62
7
  6
CONTINUOUS
 10
6.1333293725
 20
4.1635287267
 30
0.0
 11
2.5585148082
 21
-0.4550034836
 31
0.0
 40
0.0624986133
 41
-1.6427535031
 42
-1.6398924833
  0
ELLIPSE
  5
451
100
AcDbEntity
  8
ALL_ASSEMBLY_MEMBERS
100
AcDbEllipse
 62
7
  6
CONTINUOUS
 10
5.8611001734
 20
4.1635287267
 30
0.0
 11
0.9644113131
 21
-0.0
 31
0.0
 40
0.5026382348
 41
7.7861233771
 42
7.7974933116
  0
ELLIPSE
  5
452
100
AcDbEntity
  8
ALL_ASSEMBLY_MEMBERS
100
AcDbEllipse
 62
7
  6
CONTINUOUS
 10
5.8611001734
 20
4.1635287267
 30
0.0
 11
0.9595041348
 21
0.0
 31
0.0
 40
0.5026382348
 41
7.7911586055
 42
7.7972041041
  0
ELLIPSE
  5
453
100
AcDbEntity
  8
ALL_ASSEMBLY_MEMBERS
100
AcDbEllipse
 62
7
  6
CONTINUOUS
 10
5.897429691
 20
4.1635287267
 30
0.0
 11
-0.0
 21
0.48475
 31
0.0
 40
0.8842220554
 41
6.2067939025
 42
6.2153270503
  0
ELLIPSE
  5
454
100
AcDbEntity
  8
ALL_ASSEMBLY_MEMBERS
100
AcDbEllipse
 62
7
  6
CONTINUOUS
 10
5.9203277863
 20
4.1635287267
 30
0.0
 11
-0.0
 21
0.48475
 31
0.0
 40
0.2652664142
 41
6.1925592719
 42
6.2067939025
  0
ELLIPSE
  5
455
100
AcDbEntity
  8
ALL_ASSEMBLY_MEMBERS
100
AcDbEllipse
 62
7
  6
CONTINUOUS
 10
5.8611906667
 20
4.1635287267
 30
0.0
 11
1.2858813755
 21
-0.0
 31
0.0
 40
0.3769787861
 41
7.8429147916
 42
7.8485889439
  0
ELLIPSE
  5
456
100
AcDbEntity
  8
ALL_ASSEMBLY_MEMBERS
100
AcDbEllipse
 62
7
  6
CONTINUOUS
 10
5.8650548379
 20
4.1635287267
 30
0.0
 11
0.1007223063
 21
0.4822282366
 31
0.0
 40
0.0724615514
 41
-1.9958192001
 42
-1.9786516613
  0
ELLIPSE
  5
457
100
AcDbEntity
  8
ALL_ASSEMBLY_MEMBERS
100
AcDbEllipse
 62
7
  6
CONTINUOUS
 10
5.8650548379
 20
4.1635287267
 30
0.0
 11
0.101237429
 21
0.4846944896
 31
0.0
 40
0.0724615514
 41
-1.9953544298
 42
-1.9782748389
  0
ELLIPSE
  5
458
100
AcDbEntity
  8
ALL_ASSEMBLY_MEMBERS
100
AcDbEllipse
 62
7
  6
CONTINUOUS
 10
5.9282810664
 20
4.1635287267
 30
0.0
 11
0.1217484712
 21
0.4846385342
 31
0.0
 40
0.0853800028
 41
-1.8839500288
 42
-1.8697617145
  0
ELLIPSE
  5
459
100
AcDbEntity
  8
ALL_ASSEMBLY_MEMBERS
100
AcDbEllipse
 62
7
  6
CONTINUOUS
 10
5.9282810664
 20
4.1635287267
 30
0.0
 11
0.121128983
 21
0.482172566
 31
0.0
 40
0.0853800028
 41
-1.8838760368
 42
-1.8713258838
  0
ELLIPSE
  5
45A
100
AcDbEntity
  8
ALL_ASSEMBLY_MEMBERS
100
AcDbEllipse
 62
7
  6
CONTINUOUS
 10
5.9239406487
 20
4.1635287267
 30
0.0
 11
0.4203531079
 21
0.479141308
 31
0.0
 40
0.1749164141
 41
-1.7616396296
 42
-1.7531282233
  0
ELLIPSE
  5
45B
100
AcDbEntity
  8
ALL_ASSEMBLY_MEMBERS
100
AcDbEllipse
 62
7
  6
CONTINUOUS
 10
5.9239406487
 20
4.1635287267
 30
0.0
 11
0.4182142408
 21
0.4767033111
 31
0.0
 40
0.1749164141
 41
-1.7616091722
 42
-1.7530542313
  0
ELLIPSE
  5
45C
100
AcDbEntity
  8
ALL_ASSEMBLY_MEMBERS
100
AcDbEllipse
 62
7
  6
CONTINUOUS
 10
5.9207499157
 20
4.1635287267
 30
0.0
 11
0.9622070503
 21
0.4656770023
 31
0.0
 40
0.1399266146
 41
-1.6381317277
 42
-1.6324577399
  0
ELLIPSE
  5
45D
100
AcDbEntity
  8
ALL_ASSEMBLY_MEMBERS
100
AcDbEllipse
 62
7
  6
CONTINUOUS
 10
5.9207499157
 20
4.1635287267
 30
0.0
 11
0.9573110879
 21
0.4633075153
 31
0.0
 40
0.1399266146
 41
-1.638130289
 42
-1.6324272825
  0
ELLIPSE
  5
45E
100
AcDbEntity
  8
ALL_ASSEMBLY_MEMBERS
100
AcDbEllipse
 62
7
  6
CONTINUOUS
 10
5.9177349144
 20
4.1635287267
 30
0.0
 11
1.2847953844
 21
-0.4619431499
 31
0.0
 40
0.114367678
 41
-1.5356543218
 42
-1.5299803341
  0
ELLIPSE
  5
45F
100
AcDbEntity
  8
ALL_ASSEMBLY_MEMBERS
100
AcDbEllipse
 62
7
  6
CONTINUOUS
 10
5.9177349144
 20
4.1635287267
 30
0.0
 11
1.2782580077
 21
-0.4595926617
 31
0.0
 40
0.114367678
 41
-1.5356847793
 42
-1.5299817728
  0
ELLIPSE
  5
460
100
AcDbEntity
  8
ALL_ASSEMBLY_MEMBERS
100
AcDbEllipse
 62
7
  6
CONTINUOUS
 10
5.913495798
 20
4.1635287267
 30
0.0
 11
0.5681047491
 21
-0.4746020763
 31
0.0
 40
0.1736797508
 41
-1.5122023158
 42
-1.4326628245
  0
ELLIPSE
  5
461
100
AcDbEntity
  8
ALL_ASSEMBLY_MEMBERS
100
AcDbEllipse
 62
7
  6
CONTINUOUS
 10
5.913495798
 20
4.1635287267
 30
0.0
 11
0.5652140828
 21
-0.4721871761
 31
0.0
 40
0.1736797508
 41
-1.5126406373
 42
-1.4326932819
  0
ELLIPSE
  5
462
100
AcDbEntity
  8
ALL_ASSEMBLY_MEMBERS
100
AcDbEllipse
 62
7
  6
CONTINUOUS
 10
6.0167898265
 20
4.1635287267
 30
0.0
 11
3.2146300597
 21
0.4566950116
 31
0.0
 40
0.0505558626
 41
-1.6202645376
 42
-1.6174251979
  0
ELLIPSE
  5
463
100
AcDbEntity
  8
ALL_ASSEMBLY_MEMBERS
100
AcDbEllipse
 62
7
  6
CONTINUOUS
 10
6.0167898265
 20
4.1635287267
 30
0.0
 11
3.1982731769
 21
0.4543712273
 31
0.0
 40
0.0505558626
 41
-1.6204809302
 42
-1.6176270448
  0
ELLIPSE
  5
464
100
AcDbEntity
  8
ALL_ASSEMBLY_MEMBERS
100
AcDbEllipse
 62
7
  6
CONTINUOUS
 10
5.9624306242
 20
4.1635287267
 30
0.0
 11
1.9284550012
 21
0.4586391511
 31
0.0
 40
0.0813853855
 41
-1.6352752504
 42
-1.6324355533
  0
ELLIPSE
  5
465
100
AcDbEntity
  8
ALL_ASSEMBLY_MEMBERS
100
AcDbEllipse
 62
7
  6
CONTINUOUS
 10
5.9624306242
 20
4.1635287267
 30
0.0
 11
1.9186425152
 21
0.4563054746
 31
0.0
 40
0.0813853855
 41
-1.635506194
 42
-1.6326519458
  0
ELLIPSE
  5
466
100
AcDbEntity
  8
ALL_ASSEMBLY_MEMBERS
100
AcDbEllipse
 62
7
  6
CONTINUOUS
 10
5.9334275998
 20
4.1635287267
 30
0.0
 11
1.28479561
 21
0.461943148
 31
0.0
 40
0.1143676625
 41
-1.6626997827
 42
-1.6570192891
  0
ELLIPSE
  5
467
100
AcDbEntity
  8
ALL_ASSEMBLY_MEMBERS
100
AcDbEllipse
 62
7
  6
CONTINUOUS
 10
5.9334275998
 20
4.1635287267
 30
0.0
 11
1.2782582322
 21
0.4595926598
 31
0.0
 40
0.1143676625
 41
-1.6629598455
 42
-1.6572502327
  0
ELLIPSE
  5
468
100
AcDbEntity
  8
ALL_ASSEMBLY_MEMBERS
100
AcDbEllipse
 62
7
  6
CONTINUOUS
 10
5.9007762632
 20
4.1635287267
 30
0.0
 11
0.6379534101
 21
0.4725921247
 31
0.0
 40
0.1691116253
 41
-1.754754002
 42
-1.7462301183
  0
ELLIPSE
  5
469
100
AcDbEntity
  8
ALL_ASSEMBLY_MEMBERS
100
AcDbEllipse
 62
7
  6
CONTINUOUS
 10
5.9007762632
 20
4.1635287267
 30
0.0
 11
0.6347073354
 21
0.4701874517
 31
0.0
 40
0.1691116253
 41
-1.7550577922
 42
-1.7464901811
  0
ELLIPSE
  5
46A
100
AcDbEntity
  8
ALL_ASSEMBLY_MEMBERS
100
AcDbEllipse
 62
7
  6
CONTINUOUS
 10
5.8855269281
 20
4.1635287267
 30
0.0
 11
0.3768572419
 21
0.4804196487
 31
0.0
 40
0.1715483437
 41
-1.8596439314
 42
-1.8454275419
  0
ELLIPSE
  5
46B
100
AcDbEntity
  8
ALL_ASSEMBLY_MEMBERS
100
AcDbEllipse
 62
7
  6
CONTINUOUS
 10
5.8855269281
 20
4.1635287267
 30
0.0
 11
0.3749396931
 21
0.4779751472
 31
0.0
 40
0.1715483437
 41
-1.8600207538
 42
-1.8457313321
  0
ENDSEC
  0
SECTION
  2
OBJECTS
  0
DICTIONARY
  5
C
100
AcDbDictionary
280
0
281
1
  3
ACAD_GROUP
350
D
  3
ACAD_MLINESTYLE
350
17
  3
ACAD_LAYOUT
350
1A
  3
ACAD_PLOTSETTINGS
350
19
  3
ACAD_PLOTSTYLENAME
350
E
  0
DICTIONARY
  5
D
102
{ACAD_REACTORS
330
C
102
}
100
AcDbDictionary
280
0
281
1
  0
ACDBDICTIONARYWDFLT
  5
E
102
{ACAD_REACTORS
330
C
102
}
100
AcDbDictionary
281
1
  3
Normal
350
F
100
AcDbDictionaryWithDefault
340
F
  0
DICTIONARY
  5
17
102
{ACAD_REACTORS
330
C
102
}
100
AcDbDictionary
280
0
281
1
  3
Standard
350
18
  0
DICTIONARY
  5
19
102
{ACAD_REACTORS
330
C
102
}
100
AcDbDictionary
281
1
  0
DICTIONARY
  5
1A
102
{ACAD_REACTORS
330
C
102
}
100
AcDbDictionary
281
1
  3
Model
350
46C
  3
Layout1
350
46D
  0
ACDBPLACEHOLDER
  5
F
102
{ACAD_REACTORS
330
E
102
}
  0
MLINESTYLE
  5
18
102
{ACAD_REACTORS
330
17
102
}
100
AcDbMlineStyle
  2
STANDARD
 70
0
  3

 62
256
 51
90.0
 52
90.0
 71
2
 49
0.5
 62
256
  6
BYLAYER
 49
-0.5
 62
256
  6
BYLAYER
  0
LAYOUT
  5
46C
102
{ACAD_REACTORS
330
1A
102
}
100
AcDbPlotSettings
  1

  2
none_device
  4
ANSI_A_(11.00_x_8.50_Inches)
  6

 40
0.0
 41
0.0
 42
0.0
 43
0.0
 44
279.4
 45
215.9
 46
0.0
 47
0.0
 48
0.0
 49
0.0
140
0.0
141
0.0
142
1.0
143
1.0
 70
1024
 72
0
 73
0
 74
0
  7

 75
0
147
1.0
148
0.0
149
0.0
100
AcDbLayout
  1
Model
 70
0
 71
0
 10
0.0
 20
0.0
 11
11.0
 21
8.5
 12
0.0
 22
0.0
 32
0.0
 14
0.0
 24
0.0
 34
0.0
 15
0.0
 25
0.0
 35
0.0
146
0.0
 13
0.0
 23
0.0
 33
0.0
 16
1.0
 26
0.0
 36
0.0
 17
0.0
 27
1.0
 37
0.0
 76
0
330
21E
345
0
346
0
  0
LAYOUT
  5
46D
102
{ACAD_REACTORS
330
1A
102
}
100
AcDbPlotSettings
  1

  2
none_device
  4
ANSI_A_(11.00_x_8.50_Inches)
  6

 40
0.0
 41
0.0
 42
0.0
 43
0.0
 44
279.4
 45
215.9
 46
0.0
 47
0.0
 48
0.0
 49
0.0
140
0.0
141
0.0
142
1.0
143
1.0
 70
0
 72
0
 73
0
 74
0
  7

 75
0
147
1.0
148
0.0
149
0.0
100
AcDbLayout
  1
Layout1
 70
0
 71
1
 10
0.0
 20
0.0
 11
11.0
 21
8.5
 12
0.0
 22
0.0
 32
0.0
 14
0.0
 24
0.0
 34
0.0
 15
0.0
 25
0.0
 35
0.0
146
0.0
 13
0.0
 23
0.0
 33
0.0
 16
1.0
 26
0.0
 36
0.0
 17
0.0
 27
1.0
 37
0.0
 76
0
330
21F
345
0
346
0
  0
ENDSEC
  0
EOF
