999
DXF file: 3-1644ts_TOP.dxf
999
Pro/ENGINEER 2018400 by Parametric Technology Corporation
  0
SECTION
  2
HEADER
  9
$ACADVER
  1
AC1027
  9
$DWGCODEPAGE
  3
ANSI_1252
  9
$EXTMAX
 10
11.0
 20
8.5
 30
0.0
  9
$EXTMIN
 10
0.0
 20
0.0
 30
0.0
  9
$LIMMIN
 10
0.0
 20
0.0
  9
$LIMMAX
 10
11.0
 20
8.5
  9
$VIEWCTR
 10
5.5
 20
4.25
  9
$VIEWSIZE
 40
8.5
  9
$CLAYER
  8
0
  9
$LTSCALE
 40
0.605
  9
$CELTYPE
  6
BYLAYER
  9
$DIMSCALE
 40
1.0
  9
$DIMASZ
 40
0.1
  9
$DIMEXO
 40
0.0625
  9
$DIMDLI
 40
0.418
  9
$DIMEXE
 40
0.125
  9
$DIMCEN
 40
0.099
  9
$DIMLFAC
 40
1.0
  9
$DIMBLK
  1
_FILLED
  9
$DIMALT
 70
1
  9
$DIMALTD
 70
2
  9
$DIMALTTD
 70
2
  9
$DIMALTF
 40
25.4
  9
$DIMTXT
 40
0.08
  9
$DIMTOL
 70
1
  9
$DIMLIM
 70
0
  9
$DIMTFAC
 40
1.0
  9
$DIMTP
 40
0.001
  9
$DIMTM
 40
0.001
  9
$DIMGAP
 40
0.09
  9
$DIMDSEP
 70
46
  9
$AUNITS
 70
0
  9
$PDMODE
 70
3
  9
$PDSIZE
 40
0.3125
  9
$HANDSEED
  5
43C
  9
$TILEMODE
 70
1
  9
$MEASUREMENT
 70
0
  9
$INSUNITS
 70
1
  0
ENDSEC
  0
SECTION
  2
CLASSES
  0
CLASS
  1
ACDBDICTIONARYWDFLT
  2
AcDbDictionaryWithDefault
  3
AutoCAD 2000
 90
0
 91
1
280
0
281
0
  0
CLASS
  1
ACDBPLACEHOLDER
  2
AcDbPlaceHolder
  3
AutoCAD 2000
 90
0
 91
1
280
0
281
0
  0
CLASS
  1
LAYOUT
  2
AcDbLayout
  3
AutoCAD 2000
 90
0
 91
0
280
0
281
0
  0
ENDSEC
  0
SECTION
  2
TABLES
  0
TABLE
  2
VPORT
  5
8
100
AcDbSymbolTable
 70
2
  0
VPORT
  5
1F4
100
AcDbSymbolTableRecord
100
AcDbViewportTableRecord
  2
*ACTIVE
 70
0
 10
0.0
 20
0.0
 11
1.0
 21
1.0
 12
5.5
 22
4.25
 13
0.0
 23
0.0
 14
1.0
 24
1.0
 15
0.0
 25
0.0
 16
0.0
 26
0.0
 36
1.0
 17
0.0
 27
0.0
 37
0.0
 40
8.5
 41
1.2941176471
 42
50.0
 43
0.0
 44
0.0
 50
0.0
 51
0.0
 71
0
 72
100
 73
1
 74
1
 75
0
 76
0
 77
0
 78
0
  0
ENDTAB
  0
TABLE
  2
LTYPE
  5
5
100
AcDbSymbolTable
 70
6
  0
LTYPE
  5
14
100
AcDbSymbolTableRecord
100
AcDbLinetypeTableRecord
  2
BYBLOCK
 70
0
  3

 72
65
 73
0
 40
0.0
  0
LTYPE
  5
15
100
AcDbSymbolTableRecord
100
AcDbLinetypeTableRecord
  2
BYLAYER
 70
0
  3

 72
65
 73
0
 40
0.0
  0
LTYPE
  5
16
100
AcDbSymbolTableRecord
100
AcDbLinetypeTableRecord
  2
CONTINUOUS
 70
64
  3
Solid line
 72
65
 73
0
 40
0.0
  0
LTYPE
  5
1F5
100
AcDbSymbolTableRecord
100
AcDbLinetypeTableRecord
  2
CENTER
 70
64
  3
____ _ ____ _ ____ _ ____ _ ____ _ ____ _ ____
 72
65
 73
4
 40
0.6
 49
0.375
 74
0
 49
-0.075
 74
0
 49
0.075
 74
0
 49
-0.075
 74
0
  0
LTYPE
  5
1F6
100
AcDbSymbolTableRecord
100
AcDbLinetypeTableRecord
  2
HIDDEN
 70
64
  3
- - - - - - - - - - - - - - - - - - - -
 72
65
 73
2
 40
0.2
 49
0.1
 74
0
 49
-0.1
 74
0
  0
LTYPE
  5
1F7
100
AcDbSymbolTableRecord
100
AcDbLinetypeTableRecord
  2
PHANTOM
 70
64
  3
_____ _ _ _____ _ _ _____ _ _ _____
 72
65
 73
6
 40
0.8
 49
0.45
 74
0
 49
-0.05
 74
0
 49
0.1
 74
0
 49
-0.05
 74
0
 49
0.1
 74
0
 49
-0.05
 74
0
  0
LTYPE
  5
1F8
100
AcDbSymbolTableRecord
100
AcDbLinetypeTableRecord
  2
DOT
 70
64
  3
. . . . . . . . . . . . . . . . . . . .
 72
65
 73
2
 40
0.2
 49
0.1
 74
0
 49
-0.1
 74
0
  0
LTYPE
  5
1F9
100
AcDbSymbolTableRecord
100
AcDbLinetypeTableRecord
  2
DASHED
 70
64
  3
- - - - - - - - - - - - - - - - - - - -
 72
65
 73
2
 40
0.2
 49
0.1
 74
0
 49
-0.1
 74
0
  0
ENDTAB
  0
TABLE
  2
LAYER
  5
2
100
AcDbSymbolTable
 70
36
  0
LAYER
  5
10
100
AcDbSymbolTableRecord
100
AcDbLayerTableRecord
  2
0
 70
0
 62
7
  6
CONTINUOUS
370
-3
390
F
  0
LAYER
  5
1FA
100
AcDbSymbolTableRecord
100
AcDbLayerTableRecord
  2
DEFAULT_1
 70
0
 62
7
  6
CENTER
370
-3
390
F
  0
LAYER
  5
1FB
100
AcDbSymbolTableRecord
100
AcDbLayerTableRecord
  2
DEFAULT_2
 70
0
 62
8
  6
HIDDEN
370
-3
390
F
  0
LAYER
  5
1FC
100
AcDbSymbolTableRecord
100
AcDbLayerTableRecord
  2
DEFAULT_3
 70
0
 62
7
  6
PHANTOM
370
-3
390
F
  0
LAYER
  5
1FD
100
AcDbSymbolTableRecord
100
AcDbLayerTableRecord
  2
2-265_ASSY_PLANES
 70
0
 62
7
  6
CONTINUOUS
370
-3
390
F
  0
LAYER
  5
1FE
100
AcDbSymbolTableRecord
100
AcDbLayerTableRecord
  2
AA
 70
0
 62
7
  6
CONTINUOUS
370
-3
390
F
  0
LAYER
  5
1FF
100
AcDbSymbolTableRecord
100
AcDbLayerTableRecord
  2
ALL_ASSEMBLY_MEMBERS
 70
0
 62
7
  6
CONTINUOUS
370
-3
390
F
  0
LAYER
  5
200
100
AcDbSymbolTableRecord
100
AcDbLayerTableRecord
  2
ALL_FEATURES
 70
0
 62
7
  6
CONTINUOUS
370
-3
390
F
  0
LAYER
  5
201
100
AcDbSymbolTableRecord
100
AcDbLayerTableRecord
  2
AXES_FEATURES
 70
0
 62
7
  6
CONTINUOUS
370
-3
390
F
  0
LAYER
  5
202
100
AcDbSymbolTableRecord
100
AcDbLayerTableRecord
  2
CHAMFER_FEATURES
 70
0
 62
7
  6
CONTINUOUS
370
-3
390
F
  0
LAYER
  5
203
100
AcDbSymbolTableRecord
100
AcDbLayerTableRecord
  2
CURVE
 70
0
 62
7
  6
CONTINUOUS
370
-3
390
F
  0
LAYER
  5
204
100
AcDbSymbolTableRecord
100
AcDbLayerTableRecord
  2
CUT_FEATURES
 70
0
 62
7
  6
CONTINUOUS
370
-3
390
F
  0
LAYER
  5
205
100
AcDbSymbolTableRecord
100
AcDbLayerTableRecord
  2
DATUM_CURVES
 70
0
 62
7
  6
CONTINUOUS
370
-3
390
F
  0
LAYER
  5
206
100
AcDbSymbolTableRecord
100
AcDbLayerTableRecord
  2
DATUM_PLANES
 70
0
 62
7
  6
CONTINUOUS
370
-3
390
F
  0
LAYER
  5
207
100
AcDbSymbolTableRecord
100
AcDbLayerTableRecord
  2
DATUM_POINTS
 70
0
 62
7
  6
CONTINUOUS
370
-3
390
F
  0
LAYER
  5
208
100
AcDbSymbolTableRecord
100
AcDbLayerTableRecord
  2
DEFAULT_COORDINATE_SYSTEM
 70
0
 62
7
  6
CONTINUOUS
370
-3
390
F
  0
LAYER
  5
209
100
AcDbSymbolTableRecord
100
AcDbLayerTableRecord
  2
DEFAULT_DATUM_AXES
 70
0
 62
7
  6
CONTINUOUS
370
-3
390
F
  0
LAYER
  5
20A
100
AcDbSymbolTableRecord
100
AcDbLayerTableRecord
  2
DEFAULT_DATUM_CURVES
 70
0
 62
7
  6
CONTINUOUS
370
-3
390
F
  0
LAYER
  5
20B
100
AcDbSymbolTableRecord
100
AcDbLayerTableRecord
  2
DEFAULT_DATUM_PLANES
 70
0
 62
7
  6
CONTINUOUS
370
-3
390
F
  0
LAYER
  5
20C
100
AcDbSymbolTableRecord
100
AcDbLayerTableRecord
  2
DEFAULT_SURFACES
 70
0
 62
7
  6
CONTINUOUS
370
-3
390
F
  0
LAYER
  5
20D
100
AcDbSymbolTableRecord
100
AcDbLayerTableRecord
  2
DIMENSIONS
 70
0
 62
7
  6
CONTINUOUS
370
-3
390
F
  0
LAYER
  5
20E
100
AcDbSymbolTableRecord
100
AcDbLayerTableRecord
  2
HOLE_FEATURES
 70
0
 62
7
  6
CONTINUOUS
370
-3
390
F
  0
LAYER
  5
20F
100
AcDbSymbolTableRecord
100
AcDbLayerTableRecord
  2
LAY0001
 70
0
 62
7
  6
CONTINUOUS
370
-3
390
F
  0
LAYER
  5
210
100
AcDbSymbolTableRecord
100
AcDbLayerTableRecord
  2
NOTES
 70
0
 62
7
  6
CONTINUOUS
370
-3
390
F
  0
LAYER
  5
211
100
AcDbSymbolTableRecord
100
AcDbLayerTableRecord
  2
PART_REFERENCE_DIMENSIONS
 70
0
 62
7
  6
CONTINUOUS
370
-3
390
F
  0
LAYER
  5
212
100
AcDbSymbolTableRecord
100
AcDbLayerTableRecord
  2
PLATED_SURFACE_AREA
 70
0
 62
7
  6
CONTINUOUS
370
-3
390
F
  0
LAYER
  5
213
100
AcDbSymbolTableRecord
100
AcDbLayerTableRecord
  2
POINTS
 70
0
 62
7
  6
CONTINUOUS
370
-3
390
F
  0
LAYER
  5
214
100
AcDbSymbolTableRecord
100
AcDbLayerTableRecord
  2
PROTRUSION
 70
0
 62
7
  6
CONTINUOUS
370
-3
390
F
  0
LAYER
  5
215
100
AcDbSymbolTableRecord
100
AcDbLayerTableRecord
  2
PROTRUSION_FEATURES
 70
0
 62
7
  6
CONTINUOUS
370
-3
390
F
  0
LAYER
  5
216
100
AcDbSymbolTableRecord
100
AcDbLayerTableRecord
  2
QUILT
 70
0
 62
7
  6
CONTINUOUS
370
-3
390
F
  0
LAYER
  5
217
100
AcDbSymbolTableRecord
100
AcDbLayerTableRecord
  2
QUILTS
 70
0
 62
7
  6
CONTINUOUS
370
-3
390
F
  0
LAYER
  5
218
100
AcDbSymbolTableRecord
100
AcDbLayerTableRecord
  2
REFERENCE_DIMENSIONS
 70
0
 62
7
  6
CONTINUOUS
370
-3
390
F
  0
LAYER
  5
219
100
AcDbSymbolTableRecord
100
AcDbLayerTableRecord
  2
ROUND_FEATURES
 70
0
 62
7
  6
CONTINUOUS
370
-3
390
F
  0
LAYER
  5
21A
100
AcDbSymbolTableRecord
100
AcDbLayerTableRecord
  2
SHELL_FEATURES
 70
0
 62
7
  6
CONTINUOUS
370
-3
390
F
  0
LAYER
  5
21B
100
AcDbSymbolTableRecord
100
AcDbLayerTableRecord
  2
XSEC_DATUMS
 70
0
 62
7
  6
CONTINUOUS
370
-3
390
F
  0
ENDTAB
  0
TABLE
  2
STYLE
  5
3
100
AcDbSymbolTable
 70
1
  0
STYLE
  5
11
100
AcDbSymbolTableRecord
100
AcDbTextStyleTableRecord
  2
STANDARD
 70
0
 40
0.0
 41
0.8
 50
0.0
 71
0
 42
0.2
  3
txt
  4

  0
STYLE
  5
21C
100
AcDbSymbolTableRecord
100
AcDbTextStyleTableRecord
  2
TEXTSTYLE_1
 70
0
 40
0.0
 41
0.8
 50
0.0
 71
0
 42
0.2
  3
gdt
  4

  0
ENDTAB
  0
TABLE
  2
VIEW
  5
6
100
AcDbSymbolTable
 70
0
  0
ENDTAB
  0
TABLE
  2
UCS
  5
7
100
AcDbSymbolTable
 70
0
  0
ENDTAB
  0
TABLE
  2
APPID
  5
9
100
AcDbSymbolTable
 70
1
  0
APPID
  5
21D
100
AcDbSymbolTableRecord
100
AcDbRegAppTableRecord
  2
ACAD
 70
0
  0
ENDTAB
  0
TABLE
  2
BLOCK_RECORD
  5
1
100
AcDbSymbolTable
 70
0
  0
BLOCK_RECORD
  5
21E
100
AcDbSymbolTableRecord
100
AcDbBlockTableRecord
  2
*Model_Space
  0
BLOCK_RECORD
  5
21F
100
AcDbSymbolTableRecord
100
AcDbBlockTableRecord
  2
*Paper_Space
  0
BLOCK_RECORD
  5
220
100
AcDbSymbolTableRecord
100
AcDbBlockTableRecord
  2
_FILLED
  0
ENDTAB
  0
TABLE
  2
DIMSTYLE
  5
A
100
AcDbSymbolTable
 70
1
100
AcDbDimStyleTable
 71
0
  0
DIMSTYLE
105
221
100
AcDbSymbolTableRecord
100
AcDbDimStyleTableRecord
  2
STANDARD
 70
0
  3

  4

 40
1.0
 41
0.1
 42
0.0625
 43
0.38
 44
0.125
 45
0.0
 46
0.0
 47
0.001
 48
0.001
140
0.08
141
0.09
142
0.0
143
25.4
144
1.0
145
0.0
146
1.0
147
0.09
 71
1.0
 72
0.0
 73
1
 74
1
 75
0
 76
0
 77
0
 78
4
 79
1
170
1
171
2
172
0
173
0
174
0
175
0
176
0
177
0
178
0
270
2
179
3
271
3
272
3
273
2
274
2
275
0
280
0
281
0
282
0
283
1
284
4
285
0
286
0
287
3
288
0
340
11
278
46
341
220
342
220
343
220
344
220
  0
ENDTAB
  0
ENDSEC
  0
SECTION
  2
BLOCKS
  0
BLOCK
  5
20
100
AcDbEntity
  8
0
100
AcDbBlockBegin
  2
*Model_Space
 70
0
 10
0.0
 20
0.0
 30
0.0
  3
*Model_Space
  1

  0
ENDBLK
  5
21
100
AcDbEntity
  8
0
100
AcDbBlockEnd
  0
BLOCK
  5
1C
100
AcDbEntity
  8
0
100
AcDbBlockBegin
  2
*Paper_Space
 70
0
 10
0.0
 20
0.0
 30
0.0
  3
*Paper_Space
  1

  0
ENDBLK
  5
1D
100
AcDbEntity
  8
0
100
AcDbBlockEnd
  0
BLOCK
  5
222
100
AcDbEntity
  8
0
100
AcDbBlockBegin
  2
_FILLED
 70
64
 10
0.0
 20
0.0
  3
_FILLED
  1

  0
SOLID
  5
223
100
AcDbEntity
  8
0
  6
BYBLOCK
 62
0
100
AcDbTrace
 10
0.0
 20
0.0
 11
-1.0
 21
0.2
 12
-1.0
 22
-0.2
 13
-1.0
 23
-0.2
  0
ENDBLK
  5
224
100
AcDbEntity
  8
0
  6
BYBLOCK
 62
0
100
AcDbBlockEnd
  0
ENDSEC
  0
SECTION
  2
ENTITIES
  0
MTEXT
  5
225
100
AcDbEntity
  8
0
100
AcDbMText
 62
2
  6
CONTINUOUS
  7
STANDARD
 71
3
 72
1
 10
5.5749417702
 20
2.9998887799
 30
0.0
 11
1.0
 21
0.0
 31
0.0
 73
2
 44
0.9
  1
SCALE  .500
 40
0.08
 41
0.704
  0
LINE
  5
226
100
AcDbEntity
  8
0
100
AcDbLine
 62
7
  6
CONTINUOUS
 10
0.0
 20
0.0
 11
0.0
 21
8.5
  0
LINE
  5
227
100
AcDbEntity
  8
0
100
AcDbLine
 62
7
  6
CONTINUOUS
 10
0.0
 20
0.0
 11
11.0
 21
0.0
  0
LINE
  5
228
100
AcDbEntity
  8
0
100
AcDbLine
 62
7
  6
CONTINUOUS
 10
0.0
 20
8.5
 11
11.0
 21
8.5
  0
LINE
  5
229
100
AcDbEntity
  8
0
100
AcDbLine
 62
7
  6
CONTINUOUS
 10
11.0
 20
0.0
 11
11.0
 21
8.5
  0
LINE
  5
22A
100
AcDbEntity
  8
ALL_ASSEMBLY_MEMBERS
100
AcDbLine
 62
7
  6
CONTINUOUS
 10
3.9499417702
 20
4.9393886736
 11
3.9499417702
 21
5.0333886736
  0
LINE
  5
22B
100
AcDbEntity
  8
ALL_ASSEMBLY_MEMBERS
100
AcDbLine
 62
7
  6
CONTINUOUS
 10
5.7725140985
 20
3.1204841332
 11
5.3773694419
 21
3.1204841332
  0
LINE
  5
22C
100
AcDbEntity
  8
ALL_ASSEMBLY_MEMBERS
100
AcDbLine
 62
7
  6
CONTINUOUS
 10
5.324942917
 20
3.1348887799
 11
5.8249406234
 21
3.1348887799
  0
LINE
  5
22D
100
AcDbEntity
  8
ALL_ASSEMBLY_MEMBERS
100
AcDbLine
 62
7
  6
CONTINUOUS
 10
5.4145676175
 20
3.1848887799
 11
5.3271018928
 21
3.1848887799
  0
LINE
  5
22E
100
AcDbEntity
  8
ALL_ASSEMBLY_MEMBERS
100
AcDbLine
 62
7
  6
CONTINUOUS
 10
5.735314536
 20
3.1848887799
 11
5.8227816476
 21
3.1848887799
  0
LINE
  5
22F
100
AcDbEntity
  8
ALL_ASSEMBLY_MEMBERS
100
AcDbLine
 62
7
  6
CONTINUOUS
 10
5.4145681406
 20
3.3348887799
 11
5.3271018928
 21
3.3348887799
  0
LINE
  5
230
100
AcDbEntity
  8
ALL_ASSEMBLY_MEMBERS
100
AcDbLine
 62
7
  6
CONTINUOUS
 10
5.7353148157
 20
3.3348887799
 11
5.8227816476
 21
3.3348887799
  0
LINE
  5
231
100
AcDbEntity
  8
ALL_ASSEMBLY_MEMBERS
100
AcDbLine
 62
7
  6
CONTINUOUS
 10
5.3249417702
 20
3.3848887799
 11
5.8249417702
 21
3.3848887799
  0
LINE
  5
232
100
AcDbEntity
  8
ALL_ASSEMBLY_MEMBERS
100
AcDbLine
 62
7
  6
CONTINUOUS
 10
5.415536725
 20
3.3345380586
 11
5.4156614245
 21
3.3344872284
  0
LINE
  5
233
100
AcDbEntity
  8
ALL_ASSEMBLY_MEMBERS
100
AcDbLine
 62
7
  6
CONTINUOUS
 10
5.4155359366
 20
3.3345352245
 11
5.4156604064
 21
3.3344797396
  0
LINE
  5
234
100
AcDbEntity
  8
ALL_ASSEMBLY_MEMBERS
100
AcDbLine
 62
7
  6
CONTINUOUS
 10
5.4186917702
 20
3.4390153676
 11
5.7311917702
 21
3.4390153676
  0
LINE
  5
235
100
AcDbEntity
  8
ALL_ASSEMBLY_MEMBERS
100
AcDbLine
 62
7
  6
CONTINUOUS
 10
5.3999231083
 20
3.6348887799
 11
5.749960432
 21
3.6348887799
  0
LINE
  5
236
100
AcDbEntity
  8
ALL_ASSEMBLY_MEMBERS
100
AcDbLine
 62
7
  6
CONTINUOUS
 10
5.3686917702
 20
3.6572213251
 11
5.7811917702
 21
3.6572213251
  0
LINE
  5
237
100
AcDbEntity
  8
ALL_ASSEMBLY_MEMBERS
100
AcDbLine
 62
7
  6
CONTINUOUS
 10
5.8249417702
 20
3.3848887799
 11
5.7311917702
 21
3.4390153676
  0
LINE
  5
238
100
AcDbEntity
  8
0
100
AcDbLine
 62
7
  6
CONTINUOUS
 10
5.0824417702
 20
4.6021686736
 11
5.0824417702
 21
4.7973886736
  0
LINE
  5
239
100
AcDbEntity
  8
ALL_ASSEMBLY_MEMBERS
100
AcDbLine
 62
7
  6
CONTINUOUS
 10
5.0899417702
 20
3.9574248545
 11
5.0899417702
 21
4.3848887799
  0
LINE
  5
23A
100
AcDbEntity
  8
ALL_ASSEMBLY_MEMBERS
100
AcDbLine
 62
7
  6
CONTINUOUS
 10
5.0901917702
 20
4.5325265751
 11
5.0901917702
 21
4.443943898
  0
LINE
  5
23B
100
AcDbEntity
  8
ALL_ASSEMBLY_MEMBERS
100
AcDbLine
 62
7
  6
CONTINUOUS
 10
5.0903606692
 20
4.5325265751
 11
5.0903606692
 21
4.443943898
  0
LINE
  5
23C
100
AcDbEntity
  8
ALL_ASSEMBLY_MEMBERS
100
AcDbLine
 62
7
  6
CONTINUOUS
 10
5.0926583056
 20
4.5817391736
 11
5.0926583056
 21
4.5325265751
  0
LINE
  5
23D
100
AcDbEntity
  8
ALL_ASSEMBLY_MEMBERS
100
AcDbLine
 62
7
  6
CONTINUOUS
 10
5.0926583056
 20
4.443943898
 11
5.0926583056
 21
4.3848887799
  0
LINE
  5
23E
100
AcDbEntity
  8
ALL_ASSEMBLY_MEMBERS
100
AcDbLine
 62
7
  6
CONTINUOUS
 10
5.0928280687
 20
4.5325265751
 11
5.0928280687
 21
4.443943898
  0
LINE
  5
23F
100
AcDbEntity
  8
ALL_ASSEMBLY_MEMBERS
100
AcDbLine
 62
7
  6
CONTINUOUS
 10
5.1049475711
 20
4.4713040078
 11
5.1049475711
 21
4.4658319864
  0
LINE
  5
240
100
AcDbEntity
  8
ALL_ASSEMBLY_MEMBERS
100
AcDbLine
 62
7
  6
CONTINUOUS
 10
5.1052523773
 20
4.5077841535
 11
5.1052523773
 21
4.502312132
  0
LINE
  5
241
100
AcDbEntity
  8
ALL_ASSEMBLY_MEMBERS
100
AcDbLine
 62
7
  6
CONTINUOUS
 10
5.1065014579
 20
4.4713040078
 11
5.1065014579
 21
4.4658319864
  0
LINE
  5
242
100
AcDbEntity
  8
ALL_ASSEMBLY_MEMBERS
100
AcDbLine
 62
7
  6
CONTINUOUS
 10
5.1068211812
 20
4.5077841535
 11
5.1068211812
 21
4.5041361392
  0
LINE
  5
243
100
AcDbEntity
  8
ALL_ASSEMBLY_MEMBERS
100
AcDbLine
 62
7
  6
CONTINUOUS
 10
5.1088284853
 20
4.4713040078
 11
5.1088284853
 21
4.4658319864
  0
LINE
  5
244
100
AcDbEntity
  8
ALL_ASSEMBLY_MEMBERS
100
AcDbLine
 62
7
  6
CONTINUOUS
 10
5.1091476841
 20
4.5077841535
 11
5.1091476841
 21
4.5041361392
  0
LINE
  5
245
100
AcDbEntity
  8
ALL_ASSEMBLY_MEMBERS
100
AcDbLine
 62
7
  6
CONTINUOUS
 10
5.1153839645
 20
4.5077841535
 11
5.1153839645
 21
4.5041361392
  0
LINE
  5
246
100
AcDbEntity
  8
ALL_ASSEMBLY_MEMBERS
100
AcDbLine
 62
7
  6
CONTINUOUS
 10
5.1157776692
 20
4.4713040078
 11
5.1157776692
 21
4.4658319864
  0
LINE
  5
247
100
AcDbEntity
  8
ALL_ASSEMBLY_MEMBERS
100
AcDbLine
 62
7
  6
CONTINUOUS
 10
5.1173819484
 20
4.5077841535
 11
5.1173819484
 21
4.502312132
  0
LINE
  5
248
100
AcDbEntity
  8
ALL_ASSEMBLY_MEMBERS
100
AcDbLine
 62
7
  6
CONTINUOUS
 10
5.1177903801
 20
4.4713040078
 11
5.1177903801
 21
4.4658319864
  0
LINE
  5
249
100
AcDbEntity
  8
ALL_ASSEMBLY_MEMBERS
100
AcDbLine
 62
7
  6
CONTINUOUS
 10
5.1196999168
 20
4.5077841535
 11
5.1196999168
 21
4.502312132
  0
LINE
  5
24A
100
AcDbEntity
  8
ALL_ASSEMBLY_MEMBERS
100
AcDbLine
 62
7
  6
CONTINUOUS
 10
5.1201082818
 20
4.4713040078
 11
5.1201082818
 21
4.4658319864
  0
LINE
  5
24B
100
AcDbEntity
  8
ALL_ASSEMBLY_MEMBERS
100
AcDbLine
 62
7
  6
CONTINUOUS
 10
5.1211638269
 20
4.5296722444
 11
5.1211638269
 21
4.4822480533
  0
LINE
  5
24C
100
AcDbEntity
  8
ALL_ASSEMBLY_MEMBERS
100
AcDbLine
 62
7
  6
CONTINUOUS
 10
5.1233679255
 20
4.5205522087
 11
5.1233679255
 21
4.4913680891
  0
LINE
  5
24D
100
AcDbEntity
  8
ALL_ASSEMBLY_MEMBERS
100
AcDbLine
 62
7
  6
CONTINUOUS
 10
5.1256863297
 20
4.5205522087
 11
5.1256863297
 21
4.4968401105
  0
LINE
  5
24E
100
AcDbEntity
  8
ALL_ASSEMBLY_MEMBERS
100
AcDbLine
 62
7
  6
CONTINUOUS
 10
5.1360191672
 20
4.473128015
 11
5.1360191672
 21
4.4694800007
  0
LINE
  5
24F
100
AcDbEntity
  8
ALL_ASSEMBLY_MEMBERS
100
AcDbLine
 62
7
  6
CONTINUOUS
 10
5.1376079806
 20
4.5296722444
 11
5.1376079806
 21
4.5205522087
  0
LINE
  5
250
100
AcDbEntity
  8
ALL_ASSEMBLY_MEMBERS
100
AcDbLine
 62
7
  6
CONTINUOUS
 10
5.138682114
 20
4.4749520221
 11
5.138682114
 21
4.4676559935
  0
LINE
  5
251
100
AcDbEntity
  8
ALL_ASSEMBLY_MEMBERS
100
AcDbLine
 62
7
  6
CONTINUOUS
 10
5.1399367517
 20
4.5296722444
 11
5.1399367517
 21
4.5205522087
  0
LINE
  5
252
100
AcDbEntity
  8
ALL_ASSEMBLY_MEMBERS
100
AcDbLine
 62
7
  6
CONTINUOUS
 10
5.1410120792
 20
4.4749520221
 11
5.1410120792
 21
4.4676559935
  0
LINE
  5
253
100
AcDbEntity
  8
ALL_ASSEMBLY_MEMBERS
100
AcDbLine
 62
7
  6
CONTINUOUS
 10
5.2516705594
 20
3.7598887799
 11
5.898212981
 21
3.7598887799
  0
LINE
  5
254
100
AcDbEntity
  8
ALL_ASSEMBLY_MEMBERS
100
AcDbLine
 62
7
  6
CONTINUOUS
 10
5.286516193
 20
4.5325265751
 11
5.286516193
 21
4.443943898
  0
LINE
  5
255
100
AcDbEntity
  8
ALL_ASSEMBLY_MEMBERS
100
AcDbLine
 62
7
  6
CONTINUOUS
 10
5.3074787453
 20
4.5325265751
 11
5.3074787453
 21
4.443943898
  0
LINE
  5
256
100
AcDbEntity
  8
ALL_ASSEMBLY_MEMBERS
100
AcDbLine
 62
7
  6
CONTINUOUS
 10
5.3088939876
 20
4.5325265751
 11
5.3088939876
 21
4.443943898
  0
LINE
  5
257
100
AcDbEntity
  8
ALL_ASSEMBLY_MEMBERS
100
AcDbLine
 62
7
  6
CONTINUOUS
 10
5.3249417702
 20
3.1348887799
 11
5.3249417702
 21
3.1848102633
  0
LINE
  5
258
100
AcDbEntity
  8
ALL_ASSEMBLY_MEMBERS
100
AcDbLine
 62
7
  6
CONTINUOUS
 10
5.3249417702
 20
3.3349518934
 11
5.3249417702
 21
3.3848887799
  0
LINE
  5
259
100
AcDbEntity
  8
ALL_ASSEMBLY_MEMBERS
100
AcDbLine
 62
7
  6
CONTINUOUS
 10
5.5142954857
 20
4.5296722444
 11
5.5060441324
 21
4.5169041943
  0
LINE
  5
25A
100
AcDbEntity
  8
ALL_ASSEMBLY_MEMBERS
100
AcDbLine
 62
7
  6
CONTINUOUS
 10
5.5514265758
 20
4.5187282015
 11
5.5473008991
 21
4.5150801872
  0
LINE
  5
25B
100
AcDbEntity
  8
ALL_ASSEMBLY_MEMBERS
100
AcDbLine
 62
7
  6
CONTINUOUS
 10
5.5500513516
 20
4.5278482373
 11
5.5431752225
 21
4.5223762158
  0
LINE
  5
25C
100
AcDbEntity
  8
ALL_ASSEMBLY_MEMBERS
100
AcDbLine
 62
7
  6
CONTINUOUS
 10
5.6105612774
 20
4.5278482373
 11
5.6036851444
 21
4.5223762158
  0
LINE
  5
25D
100
AcDbEntity
  8
ALL_ASSEMBLY_MEMBERS
100
AcDbLine
 62
7
  6
CONTINUOUS
 10
5.0149417702
 20
4.8768886736
 11
5.0449417702
 21
4.7973886736
  0
LINE
  5
25E
100
AcDbEntity
  8
ALL_ASSEMBLY_MEMBERS
100
AcDbLine
 62
7
  6
CONTINUOUS
 10
5.4186917702
 20
3.4390153676
 11
5.4186917702
 21
3.6348887799
  0
LINE
  5
25F
100
AcDbEntity
  8
ALL_ASSEMBLY_MEMBERS
100
AcDbLine
 62
7
  6
CONTINUOUS
 10
5.5362990953
 20
4.5096081657
 11
5.5349238691
 21
4.5041361392
  0
LINE
  5
260
100
AcDbEntity
  8
ALL_ASSEMBLY_MEMBERS
100
AcDbLine
 62
7
  6
CONTINUOUS
 10
5.5390495458
 20
4.5169041943
 11
5.5362990953
 21
4.5096081657
  0
LINE
  5
261
100
AcDbEntity
  8
ALL_ASSEMBLY_MEMBERS
100
AcDbLine
 62
7
  6
CONTINUOUS
 10
5.5473008991
 20
4.5150801872
 11
5.5417999982
 21
4.5041361392
  0
LINE
  5
262
100
AcDbEntity
  8
ALL_ASSEMBLY_MEMBERS
100
AcDbLine
 62
7
  6
CONTINUOUS
 10
5.5748054077
 20
4.4694800007
 11
5.5693045067
 21
4.4585359565
  0
LINE
  5
263
100
AcDbEntity
  8
ALL_ASSEMBLY_MEMBERS
100
AcDbLine
 62
7
  6
CONTINUOUS
 10
5.607810821
 20
4.5150801872
 11
5.6023099241
 21
4.5041361392
  0
LINE
  5
264
100
AcDbEntity
  8
ALL_ASSEMBLY_MEMBERS
100
AcDbLine
 62
7
  6
CONTINUOUS
 10
5.5142954857
 20
4.5150801872
 11
5.5060441324
 21
4.502312132
  0
LINE
  5
265
100
AcDbEntity
  8
ALL_ASSEMBLY_MEMBERS
100
AcDbLine
 62
7
  6
CONTINUOUS
 10
5.5431752225
 20
4.5223762158
 11
5.5390495458
 21
4.5169041943
  0
LINE
  5
266
100
AcDbEntity
  8
ALL_ASSEMBLY_MEMBERS
100
AcDbLine
 62
7
  6
CONTINUOUS
 10
5.6036851444
 20
4.5223762158
 11
5.5995594677
 21
4.5169041943
  0
LINE
  5
267
100
AcDbEntity
  8
ALL_ASSEMBLY_MEMBERS
100
AcDbLine
 62
7
  6
CONTINUOUS
 10
5.577555864
 20
4.4567119493
 11
5.5734301873
 21
4.4512399272
  0
LINE
  5
268
100
AcDbEntity
  8
ALL_ASSEMBLY_MEMBERS
100
AcDbLine
 62
7
  6
CONTINUOUS
 10
5.6380657859
 20
4.4567119493
 11
5.6339401093
 21
4.4512399272
  0
LINE
  5
269
100
AcDbEntity
  8
ALL_ASSEMBLY_MEMBERS
100
AcDbLine
 62
7
  6
CONTINUOUS
 10
5.6119364977
 20
4.5187282015
 11
5.607810821
 21
4.5150801872
  0
LINE
  5
26A
100
AcDbEntity
  8
ALL_ASSEMBLY_MEMBERS
100
AcDbLine
 62
7
  6
CONTINUOUS
 10
5.5693045067
 20
4.4585359565
 11
5.5651788301
 21
4.4548879422
  0
LINE
  5
26B
100
AcDbEntity
  8
ALL_ASSEMBLY_MEMBERS
100
AcDbLine
 62
7
  6
CONTINUOUS
 10
5.6298144326
 20
4.4585359565
 11
5.6256887559
 21
4.4548879422
  0
LINE
  5
26C
100
AcDbEntity
  8
ALL_ASSEMBLY_MEMBERS
100
AcDbLine
 62
7
  6
CONTINUOUS
 10
5.5734301873
 20
4.4512399272
 11
5.5665540582
 21
4.4457679053
  0
LINE
  5
26D
100
AcDbEntity
  8
ALL_ASSEMBLY_MEMBERS
100
AcDbLine
 62
7
  6
CONTINUOUS
 10
5.6339401093
 20
4.4512399272
 11
5.6270639841
 21
4.4457679053
  0
LINE
  5
26E
100
AcDbEntity
  8
ALL_ASSEMBLY_MEMBERS
100
AcDbLine
 62
7
  6
CONTINUOUS
 10
5.0899417702
 20
3.9574248545
 11
6.0599417702
 21
3.9574248545
  0
LINE
  5
26F
100
AcDbEntity
  8
ALL_ASSEMBLY_MEMBERS
100
AcDbLine
 62
7
  6
CONTINUOUS
 10
5.5060441324
 20
4.5169041943
 11
5.5060441324
 21
4.502312132
  0
LINE
  5
270
100
AcDbEntity
  8
ALL_ASSEMBLY_MEMBERS
100
AcDbLine
 62
7
  6
CONTINUOUS
 10
5.5142954857
 20
4.5150801872
 11
5.5142954857
 21
4.443943898
  0
LINE
  5
271
100
AcDbEntity
  8
ALL_ASSEMBLY_MEMBERS
100
AcDbLine
 62
7
  6
CONTINUOUS
 10
5.5225468391
 20
4.5296722444
 11
5.5225468391
 21
4.443943898
  0
LINE
  5
272
100
AcDbEntity
  8
ALL_ASSEMBLY_MEMBERS
100
AcDbLine
 62
7
  6
CONTINUOUS
 10
5.5335486429
 20
4.4950161034
 11
5.5335486429
 21
4.478600039
  0
LINE
  5
273
100
AcDbEntity
  8
ALL_ASSEMBLY_MEMBERS
100
AcDbLine
 62
7
  6
CONTINUOUS
 10
5.54042477
 20
4.4931920962
 11
5.54042477
 21
4.4804240462
  0
LINE
  5
274
100
AcDbEntity
  8
ALL_ASSEMBLY_MEMBERS
100
AcDbLine
 62
7
  6
CONTINUOUS
 10
5.5454417702
 20
4.1148089836
 11
5.5454417702
 21
4.12033699
  0
LINE
  5
275
100
AcDbEntity
  8
0
100
AcDbLine
 62
7
  6
CONTINUOUS
 10
5.5649422855
 20
4.7371686736
 11
5.5649422855
 21
4.6571686736
  0
LINE
  5
276
100
AcDbEntity
  8
ALL_ASSEMBLY_MEMBERS
100
AcDbLine
 62
7
  6
CONTINUOUS
 10
5.5761806358
 20
4.4931920962
 11
5.5761806358
 21
4.4804240462
  0
LINE
  5
277
100
AcDbEntity
  8
ALL_ASSEMBLY_MEMBERS
100
AcDbLine
 62
7
  6
CONTINUOUS
 10
5.583056761
 20
4.4950161034
 11
5.583056761
 21
4.478600039
  0
LINE
  5
278
100
AcDbEntity
  8
0
100
AcDbLine
 62
7
  6
CONTINUOUS
 10
5.5849412548
 20
4.7371686736
 11
5.5849412548
 21
4.6571686736
  0
LINE
  5
279
100
AcDbEntity
  8
ALL_ASSEMBLY_MEMBERS
100
AcDbLine
 62
7
  6
CONTINUOUS
 10
5.5417999982
 20
4.5041361392
 11
5.54042477
 21
4.4931920962
  0
LINE
  5
27A
100
AcDbEntity
  8
ALL_ASSEMBLY_MEMBERS
100
AcDbLine
 62
7
  6
CONTINUOUS
 10
5.5761806358
 20
4.4804240462
 11
5.5748054077
 21
4.4694800007
  0
LINE
  5
27B
100
AcDbEntity
  8
ALL_ASSEMBLY_MEMBERS
100
AcDbLine
 62
7
  6
CONTINUOUS
 10
5.6023099241
 20
4.5041361392
 11
5.6009346959
 21
4.4931920962
  0
LINE
  5
27C
100
AcDbEntity
  8
ALL_ASSEMBLY_MEMBERS
100
AcDbLine
 62
7
  6
CONTINUOUS
 10
5.5349238691
 20
4.5041361392
 11
5.5335486429
 21
4.4950161034
  0
LINE
  5
27D
100
AcDbEntity
  8
ALL_ASSEMBLY_MEMBERS
100
AcDbLine
 62
7
  6
CONTINUOUS
 10
5.583056761
 20
4.478600039
 11
5.5816815407
 21
4.4694800007
  0
LINE
  5
27E
100
AcDbEntity
  8
ALL_ASSEMBLY_MEMBERS
100
AcDbLine
 62
7
  6
CONTINUOUS
 10
5.595433791
 20
4.5041361392
 11
5.5940585707
 21
4.4950161034
  0
LINE
  5
27F
100
AcDbEntity
  8
ALL_ASSEMBLY_MEMBERS
100
AcDbLine
 62
7
  6
CONTINUOUS
 10
5.5816815407
 20
4.4694800007
 11
5.5803063125
 21
4.4640079792
  0
LINE
  5
280
100
AcDbEntity
  8
ALL_ASSEMBLY_MEMBERS
100
AcDbLine
 62
7
  6
CONTINUOUS
 10
5.5968090192
 20
4.5096081657
 11
5.595433791
 21
4.5041361392
  0
LINE
  5
281
100
AcDbEntity
  8
ALL_ASSEMBLY_MEMBERS
100
AcDbLine
 62
7
  6
CONTINUOUS
 10
5.6421914626
 20
4.4694800007
 11
5.6408162423
 21
4.4640079792
  0
LINE
  5
282
100
AcDbEntity
  8
ALL_ASSEMBLY_MEMBERS
100
AcDbLine
 62
7
  6
CONTINUOUS
 10
5.5995594677
 20
4.5169041943
 11
5.5968090192
 21
4.5096081657
  0
LINE
  5
283
100
AcDbEntity
  8
ALL_ASSEMBLY_MEMBERS
100
AcDbLine
 62
7
  6
CONTINUOUS
 10
5.5803063125
 20
4.4640079792
 11
5.577555864
 21
4.4567119493
  0
LINE
  5
284
100
AcDbEntity
  8
ALL_ASSEMBLY_MEMBERS
100
AcDbLine
 62
7
  6
CONTINUOUS
 10
5.6408162423
 20
4.4640079792
 11
5.6380657859
 21
4.4567119493
  0
LINE
  5
285
100
AcDbEntity
  8
ALL_ASSEMBLY_MEMBERS
100
AcDbLine
 62
7
  6
CONTINUOUS
 10
5.6353153374
 20
4.4694800007
 11
5.6298144326
 21
4.4585359565
  0
LINE
  5
286
100
AcDbEntity
  8
ALL_ASSEMBLY_MEMBERS
100
AcDbLine
 62
7
  6
CONTINUOUS
 10
5.6014580361
 20
4.1216387799
 11
5.5803483768
 21
4.1216387799
  0
LINE
  5
287
100
AcDbEntity
  8
ALL_ASSEMBLY_MEMBERS
100
AcDbLine
 62
7
  6
CONTINUOUS
 10
5.5695351636
 20
4.1216387799
 11
5.5484255042
 21
4.1216387799
  0
LINE
  5
288
100
AcDbEntity
  8
ALL_ASSEMBLY_MEMBERS
100
AcDbLine
 62
7
  6
CONTINUOUS
 10
5.5349238691
 20
4.4694800007
 11
5.5335486429
 21
4.478600039
  0
LINE
  5
289
100
AcDbEntity
  8
ALL_ASSEMBLY_MEMBERS
100
AcDbLine
 62
7
  6
CONTINUOUS
 10
5.5417999982
 20
4.4694800007
 11
5.54042477
 21
4.4804240462
  0
LINE
  5
28A
100
AcDbEntity
  8
ALL_ASSEMBLY_MEMBERS
100
AcDbLine
 62
7
  6
CONTINUOUS
 10
5.5940585707
 20
4.4950161034
 11
5.5940585707
 21
4.478600039
  0
LINE
  5
28B
100
AcDbEntity
  8
ALL_ASSEMBLY_MEMBERS
100
AcDbLine
 62
7
  6
CONTINUOUS
 10
5.6009346959
 20
4.4931920962
 11
5.6009346959
 21
4.4804240462
  0
LINE
  5
28C
100
AcDbEntity
  8
ALL_ASSEMBLY_MEMBERS
100
AcDbLine
 62
7
  6
CONTINUOUS
 10
5.6044417702
 20
4.1148089836
 11
5.6044417702
 21
4.12033699
  0
LINE
  5
28D
100
AcDbEntity
  8
ALL_ASSEMBLY_MEMBERS
100
AcDbLine
 62
7
  6
CONTINUOUS
 10
5.6366905578
 20
4.4931920962
 11
5.6366905578
 21
4.4804240462
  0
LINE
  5
28E
100
AcDbEntity
  8
ALL_ASSEMBLY_MEMBERS
100
AcDbLine
 62
7
  6
CONTINUOUS
 10
5.6435666829
 20
4.4950161034
 11
5.6435666829
 21
4.478600039
  0
LINE
  5
28F
100
AcDbEntity
  8
ALL_ASSEMBLY_MEMBERS
100
AcDbLine
 62
7
  6
CONTINUOUS
 10
5.6366905578
 20
4.4804240462
 11
5.6353153374
 21
4.4694800007
  0
LINE
  5
290
100
AcDbEntity
  8
ALL_ASSEMBLY_MEMBERS
100
AcDbLine
 62
7
  6
CONTINUOUS
 10
5.6435666829
 20
4.478600039
 11
5.6421914626
 21
4.4694800007
  0
LINE
  5
291
100
AcDbEntity
  8
ALL_ASSEMBLY_MEMBERS
100
AcDbLine
 62
7
  6
CONTINUOUS
 10
5.5473008991
 20
4.4585359565
 11
5.5417999982
 21
4.4694800007
  0
LINE
  5
292
100
AcDbEntity
  8
ALL_ASSEMBLY_MEMBERS
100
AcDbLine
 62
7
  6
CONTINUOUS
 10
5.5390495458
 20
4.4567119493
 11
5.5362990953
 21
4.4640079792
  0
LINE
  5
293
100
AcDbEntity
  8
ALL_ASSEMBLY_MEMBERS
100
AcDbLine
 62
7
  6
CONTINUOUS
 10
5.5995594677
 20
4.4567119493
 11
5.5968090192
 21
4.4640079792
  0
LINE
  5
294
100
AcDbEntity
  8
ALL_ASSEMBLY_MEMBERS
100
AcDbLine
 62
7
  6
CONTINUOUS
 10
5.5803063125
 20
4.5096081657
 11
5.577555864
 21
4.5169041943
  0
LINE
  5
295
100
AcDbEntity
  8
ALL_ASSEMBLY_MEMBERS
100
AcDbLine
 62
7
  6
CONTINUOUS
 10
5.5362990953
 20
4.4640079792
 11
5.5349238691
 21
4.4694800007
  0
LINE
  5
296
100
AcDbEntity
  8
ALL_ASSEMBLY_MEMBERS
100
AcDbLine
 62
7
  6
CONTINUOUS
 10
5.5816815407
 20
4.5041361392
 11
5.5803063125
 21
4.5096081657
  0
LINE
  5
297
100
AcDbEntity
  8
ALL_ASSEMBLY_MEMBERS
100
AcDbLine
 62
7
  6
CONTINUOUS
 10
5.5968090192
 20
4.4640079792
 11
5.595433791
 21
4.4694800007
  0
LINE
  5
298
100
AcDbEntity
  8
ALL_ASSEMBLY_MEMBERS
100
AcDbLine
 62
7
  6
CONTINUOUS
 10
5.583056761
 20
4.4950161034
 11
5.5816815407
 21
4.5041361392
  0
LINE
  5
299
100
AcDbEntity
  8
ALL_ASSEMBLY_MEMBERS
100
AcDbLine
 62
7
  6
CONTINUOUS
 10
5.595433791
 20
4.4694800007
 11
5.5940585707
 21
4.478600039
  0
LINE
  5
29A
100
AcDbEntity
  8
ALL_ASSEMBLY_MEMBERS
100
AcDbLine
 62
7
  6
CONTINUOUS
 10
5.6435666829
 20
4.4950161034
 11
5.6421914626
 21
4.5041361392
  0
LINE
  5
29B
100
AcDbEntity
  8
ALL_ASSEMBLY_MEMBERS
100
AcDbLine
 62
7
  6
CONTINUOUS
 10
5.5761806358
 20
4.4931920962
 11
5.5748054077
 21
4.5041361392
  0
LINE
  5
29C
100
AcDbEntity
  8
ALL_ASSEMBLY_MEMBERS
100
AcDbLine
 62
7
  6
CONTINUOUS
 10
5.6023099241
 20
4.4694800007
 11
5.6009346959
 21
4.4804240462
  0
LINE
  5
29D
100
AcDbEntity
  8
ALL_ASSEMBLY_MEMBERS
100
AcDbLine
 62
7
  6
CONTINUOUS
 10
5.6366905578
 20
4.4931920962
 11
5.6353153374
 21
4.5041361392
  0
LINE
  5
29E
100
AcDbEntity
  8
ALL_ASSEMBLY_MEMBERS
100
AcDbLine
 62
7
  6
CONTINUOUS
 10
5.7311717783
 20
3.5537516664
 11
5.731190267
 21
3.5431651011
  0
LINE
  5
29F
100
AcDbEntity
  8
ALL_ASSEMBLY_MEMBERS
100
AcDbLine
 62
7
  6
CONTINUOUS
 10
5.7311696522
 20
3.5573887799
 11
5.7311919685
 21
3.5408916891
  0
LINE
  5
2A0
100
AcDbEntity
  8
ALL_ASSEMBLY_MEMBERS
100
AcDbLine
 62
7
  6
CONTINUOUS
 10
5.7311917702
 20
3.4390153676
 11
5.7311917702
 21
3.5408917176
  0
LINE
  5
2A1
100
AcDbEntity
  8
ALL_ASSEMBLY_MEMBERS
100
AcDbLine
 62
7
  6
CONTINUOUS
 10
5.8249417702
 20
3.1348887799
 11
5.8249417702
 21
3.1848256663
  0
LINE
  5
2A2
100
AcDbEntity
  8
ALL_ASSEMBLY_MEMBERS
100
AcDbLine
 62
7
  6
CONTINUOUS
 10
5.8249417702
 20
3.3349672965
 11
5.8249417702
 21
3.3848887799
  0
LINE
  5
2A3
100
AcDbEntity
  8
ALL_ASSEMBLY_MEMBERS
100
AcDbLine
 62
7
  6
CONTINUOUS
 10
5.8409895528
 20
4.5325265751
 11
5.8409895528
 21
4.443943898
  0
LINE
  5
2A4
100
AcDbEntity
  8
ALL_ASSEMBLY_MEMBERS
100
AcDbLine
 62
7
  6
CONTINUOUS
 10
5.842404795
 20
4.5325265751
 11
5.842404795
 21
4.443943898
  0
LINE
  5
2A5
100
AcDbEntity
  8
ALL_ASSEMBLY_MEMBERS
100
AcDbLine
 62
7
  6
CONTINUOUS
 10
5.7311917702
 20
3.6348887799
 11
5.7311902671
 21
3.5716125209
  0
LINE
  5
2A6
100
AcDbEntity
  8
ALL_ASSEMBLY_MEMBERS
100
AcDbLine
 62
7
  6
CONTINUOUS
 10
5.7311919685
 20
3.5738858706
 11
5.7311696522
 21
3.5573887799
  0
LINE
  5
2A7
100
AcDbEntity
  8
ALL_ASSEMBLY_MEMBERS
100
AcDbLine
 62
7
  6
CONTINUOUS
 10
6.1349417702
 20
4.8768886736
 11
6.1049417702
 21
4.7973886736
  0
LINE
  5
2A8
100
AcDbEntity
  8
ALL_ASSEMBLY_MEMBERS
100
AcDbLine
 62
7
  6
CONTINUOUS
 10
5.6256887559
 20
4.4548879422
 11
5.6188126307
 21
4.453063935
  0
LINE
  5
2A9
100
AcDbEntity
  8
ALL_ASSEMBLY_MEMBERS
100
AcDbLine
 62
7
  6
CONTINUOUS
 10
5.6270639841
 20
4.4457679053
 11
5.6188126307
 21
4.443943898
  0
LINE
  5
2AA
100
AcDbEntity
  8
ALL_ASSEMBLY_MEMBERS
100
AcDbLine
 62
7
  6
CONTINUOUS
 10
5.0899417702
 20
4.3848887799
 11
6.0599417702
 21
4.3848887799
  0
LINE
  5
2AB
100
AcDbEntity
  8
ALL_ASSEMBLY_MEMBERS
100
AcDbLine
 62
7
  6
CONTINUOUS
 10
5.5583027049
 20
4.443943898
 11
5.5500513516
 21
4.4457679053
  0
LINE
  5
2AC
100
AcDbEntity
  8
ALL_ASSEMBLY_MEMBERS
100
AcDbLine
 62
7
  6
CONTINUOUS
 10
5.5583027049
 20
4.453063935
 11
5.5514265758
 21
4.4548879422
  0
LINE
  5
2AD
100
AcDbEntity
  8
ALL_ASSEMBLY_MEMBERS
100
AcDbLine
 62
7
  6
CONTINUOUS
 10
5.5500513516
 20
4.4457679053
 11
5.5431752225
 21
4.4512399272
  0
LINE
  5
2AE
100
AcDbEntity
  8
ALL_ASSEMBLY_MEMBERS
100
AcDbLine
 62
7
  6
CONTINUOUS
 10
5.6105612774
 20
4.4457679053
 11
5.6036851444
 21
4.4512399272
  0
LINE
  5
2AF
100
AcDbEntity
  8
ALL_ASSEMBLY_MEMBERS
100
AcDbLine
 62
7
  6
CONTINUOUS
 10
5.5514265758
 20
4.4548879422
 11
5.5473008991
 21
4.4585359565
  0
LINE
  5
2B0
100
AcDbEntity
  8
ALL_ASSEMBLY_MEMBERS
100
AcDbLine
 62
7
  6
CONTINUOUS
 10
5.6119364977
 20
4.4548879422
 11
5.607810821
 21
4.4585359565
  0
LINE
  5
2B1
100
AcDbEntity
  8
ALL_ASSEMBLY_MEMBERS
100
AcDbLine
 62
7
  6
CONTINUOUS
 10
5.5693045067
 20
4.5150801872
 11
5.5651788301
 21
4.5187282015
  0
LINE
  5
2B2
100
AcDbEntity
  8
ALL_ASSEMBLY_MEMBERS
100
AcDbLine
 62
7
  6
CONTINUOUS
 10
5.5431752225
 20
4.4512399272
 11
5.5390495458
 21
4.4567119493
  0
LINE
  5
2B3
100
AcDbEntity
  8
ALL_ASSEMBLY_MEMBERS
100
AcDbLine
 62
7
  6
CONTINUOUS
 10
5.6036851444
 20
4.4512399272
 11
5.5995594677
 21
4.4567119493
  0
LINE
  5
2B4
100
AcDbEntity
  8
ALL_ASSEMBLY_MEMBERS
100
AcDbLine
 62
7
  6
CONTINUOUS
 10
5.577555864
 20
4.5169041943
 11
5.5734301873
 21
4.5223762158
  0
LINE
  5
2B5
100
AcDbEntity
  8
ALL_ASSEMBLY_MEMBERS
100
AcDbLine
 62
7
  6
CONTINUOUS
 10
5.6380657859
 20
4.5169041943
 11
5.6339401093
 21
4.5223762158
  0
LINE
  5
2B6
100
AcDbEntity
  8
ALL_ASSEMBLY_MEMBERS
100
AcDbLine
 62
7
  6
CONTINUOUS
 10
5.5748054077
 20
4.5041361392
 11
5.5693045067
 21
4.5150801872
  0
LINE
  5
2B7
100
AcDbEntity
  8
ALL_ASSEMBLY_MEMBERS
100
AcDbLine
 62
7
  6
CONTINUOUS
 10
5.607810821
 20
4.4585359565
 11
5.6023099241
 21
4.4694800007
  0
LINE
  5
2B8
100
AcDbEntity
  8
ALL_ASSEMBLY_MEMBERS
100
AcDbLine
 62
7
  6
CONTINUOUS
 10
5.6353153374
 20
4.5041361392
 11
5.6298144326
 21
4.5150801872
  0
LINE
  5
2B9
100
AcDbEntity
  8
ALL_ASSEMBLY_MEMBERS
100
AcDbLine
 62
7
  6
CONTINUOUS
 10
5.6408162423
 20
4.5096081657
 11
5.6380657859
 21
4.5169041943
  0
LINE
  5
2BA
100
AcDbEntity
  8
ALL_ASSEMBLY_MEMBERS
100
AcDbLine
 62
7
  6
CONTINUOUS
 10
5.6421914626
 20
4.5041361392
 11
5.6408162423
 21
4.5096081657
  0
LINE
  5
2BB
100
AcDbEntity
  8
ALL_ASSEMBLY_MEMBERS
100
AcDbLine
 62
7
  6
CONTINUOUS
 10
5.8633673474
 20
4.5325265751
 11
5.8633673474
 21
4.443943898
  0
LINE
  5
2BC
100
AcDbEntity
  8
ALL_ASSEMBLY_MEMBERS
100
AcDbLine
 62
7
  6
CONTINUOUS
 10
5.5651788301
 20
4.4548879422
 11
5.5583027049
 21
4.453063935
  0
LINE
  5
2BD
100
AcDbEntity
  8
ALL_ASSEMBLY_MEMBERS
100
AcDbLine
 62
7
  6
CONTINUOUS
 10
5.6188126307
 20
4.5205522087
 11
5.6119364977
 21
4.5187282015
  0
LINE
  5
2BE
100
AcDbEntity
  8
ALL_ASSEMBLY_MEMBERS
100
AcDbLine
 62
7
  6
CONTINUOUS
 10
5.5583027049
 20
4.5205522087
 11
5.5514265758
 21
4.5187282015
  0
LINE
  5
2BF
100
AcDbEntity
  8
ALL_ASSEMBLY_MEMBERS
100
AcDbLine
 62
7
  6
CONTINUOUS
 10
5.5665540582
 20
4.4457679053
 11
5.5583027049
 21
4.443943898
  0
LINE
  5
2C0
100
AcDbEntity
  8
ALL_ASSEMBLY_MEMBERS
100
AcDbLine
 62
7
  6
CONTINUOUS
 10
5.6188126307
 20
4.5296722444
 11
5.6105612774
 21
4.5278482373
  0
LINE
  5
2C1
100
AcDbEntity
  8
ALL_ASSEMBLY_MEMBERS
100
AcDbLine
 62
7
  6
CONTINUOUS
 10
5.5583027049
 20
4.5296722444
 11
5.5500513516
 21
4.5278482373
  0
LINE
  5
2C2
100
AcDbEntity
  8
ALL_ASSEMBLY_MEMBERS
100
AcDbLine
 62
7
  6
CONTINUOUS
 10
6.0596917702
 20
4.443943898
 11
6.0570554716
 21
4.443943898
  0
LINE
  5
2C3
100
AcDbEntity
  8
ALL_ASSEMBLY_MEMBERS
100
AcDbLine
 62
7
  6
CONTINUOUS
 10
6.04259801
 20
4.443943898
 11
6.0373333794
 21
4.443943898
  0
LINE
  5
2C4
100
AcDbEntity
  8
ALL_ASSEMBLY_MEMBERS
100
AcDbLine
 62
7
  6
CONTINUOUS
 10
6.0263068702
 20
4.443943898
 11
6.0199659422
 21
4.443943898
  0
LINE
  5
2C5
100
AcDbEntity
  8
ALL_ASSEMBLY_MEMBERS
100
AcDbLine
 62
7
  6
CONTINUOUS
 10
6.0120346235
 20
4.443943898
 11
6.0049308161
 21
4.443943898
  0
LINE
  5
2C6
100
AcDbEntity
  8
ALL_ASSEMBLY_MEMBERS
100
AcDbLine
 62
7
  6
CONTINUOUS
 10
5.8633673474
 20
4.443943898
 11
5.8409895528
 21
4.443943898
  0
LINE
  5
2C7
100
AcDbEntity
  8
ALL_ASSEMBLY_MEMBERS
100
AcDbLine
 62
7
  6
CONTINUOUS
 10
5.5225468391
 20
4.443943898
 11
5.5142954857
 21
4.443943898
  0
LINE
  5
2C8
100
AcDbEntity
  8
ALL_ASSEMBLY_MEMBERS
100
AcDbLine
 62
7
  6
CONTINUOUS
 10
5.0903606692
 20
4.443943898
 11
5.0928280687
 21
4.443943898
  0
LINE
  5
2C9
100
AcDbEntity
  8
ALL_ASSEMBLY_MEMBERS
100
AcDbLine
 62
7
  6
CONTINUOUS
 10
5.1098324413
 20
4.443943898
 11
5.1142937963
 21
4.443943898
  0
LINE
  5
2CA
100
AcDbEntity
  8
ALL_ASSEMBLY_MEMBERS
100
AcDbLine
 62
7
  6
CONTINUOUS
 10
5.1279971853
 20
4.443943898
 11
5.1332390291
 21
4.443943898
  0
LINE
  5
2CB
100
AcDbEntity
  8
ALL_ASSEMBLY_MEMBERS
100
AcDbLine
 62
7
  6
CONTINUOUS
 10
5.286516193
 20
4.443943898
 11
5.3088939876
 21
4.443943898
  0
LINE
  5
2CC
100
AcDbEntity
  8
ALL_ASSEMBLY_MEMBERS
100
AcDbLine
 62
7
  6
CONTINUOUS
 10
6.0370322577
 20
4.4457679053
 11
6.0347124063
 21
4.4457679053
  0
LINE
  5
2CD
100
AcDbEntity
  8
ALL_ASSEMBLY_MEMBERS
100
AcDbLine
 62
7
  6
CONTINUOUS
 10
5.1138386185
 20
4.4457679053
 11
5.1161578667
 21
4.4457679053
  0
LINE
  5
2CE
100
AcDbEntity
  8
ALL_ASSEMBLY_MEMBERS
100
AcDbLine
 62
7
  6
CONTINUOUS
 10
5.1334307088
 20
4.4457679053
 11
5.1357553292
 21
4.4457679053
  0
LINE
  5
2CF
100
AcDbEntity
  8
ALL_ASSEMBLY_MEMBERS
100
AcDbLine
 62
7
  6
CONTINUOUS
 10
6.0342540645
 20
4.4512399272
 11
6.0319356266
 21
4.4512399272
  0
LINE
  5
2D0
100
AcDbEntity
  8
ALL_ASSEMBLY_MEMBERS
100
AcDbLine
 62
7
  6
CONTINUOUS
 10
5.1157776692
 20
4.4512399272
 11
5.1180960555
 21
4.4512399272
  0
LINE
  5
2D1
100
AcDbEntity
  8
ALL_ASSEMBLY_MEMBERS
100
AcDbLine
 62
7
  6
CONTINUOUS
 10
5.1360191672
 20
4.4512399272
 11
5.1383462649
 21
4.4512399272
  0
LINE
  5
2D2
100
AcDbEntity
  8
ALL_ASSEMBLY_MEMBERS
100
AcDbLine
 62
7
  6
CONTINUOUS
 10
6.04259801
 20
4.453063935
 11
6.0396554414
 21
4.453063935
  0
LINE
  5
2D3
100
AcDbEntity
  8
ALL_ASSEMBLY_MEMBERS
100
AcDbLine
 62
7
  6
CONTINUOUS
 10
5.1309164995
 20
4.453063935
 11
5.1279971853
 21
4.453063935
  0
LINE
  5
2D4
100
AcDbEntity
  8
ALL_ASSEMBLY_MEMBERS
100
AcDbLine
 62
7
  6
CONTINUOUS
 10
5.111609104
 20
4.453063935
 11
5.1101818559
 21
4.453063935
  0
LINE
  5
2D5
100
AcDbEntity
  8
ALL_ASSEMBLY_MEMBERS
100
AcDbLine
 62
7
  6
CONTINUOUS
 10
6.0444348379
 20
4.4548879422
 11
6.042105933
 21
4.4548879422
  0
LINE
  5
2D6
100
AcDbEntity
  8
ALL_ASSEMBLY_MEMBERS
100
AcDbLine
 62
7
  6
CONTINUOUS
 10
5.1088019749
 20
4.4548879422
 11
5.1111256567
 21
4.4548879422
  0
LINE
  5
2D7
100
AcDbEntity
  8
ALL_ASSEMBLY_MEMBERS
100
AcDbLine
 62
7
  6
CONTINUOUS
 10
5.1261100823
 20
4.4548879422
 11
5.1284295781
 21
4.4548879422
  0
LINE
  5
2D8
100
AcDbEntity
  8
ALL_ASSEMBLY_MEMBERS
100
AcDbLine
 62
7
  6
CONTINUOUS
 10
5.1169764602
 20
4.4567119493
 11
5.1192945104
 21
4.4567119493
  0
LINE
  5
2D9
100
AcDbEntity
  8
ALL_ASSEMBLY_MEMBERS
100
AcDbLine
 62
7
  6
CONTINUOUS
 10
6.04574662
 20
4.4585359565
 11
6.043415023
 21
4.4585359565
  0
LINE
  5
2DA
100
AcDbEntity
  8
ALL_ASSEMBLY_MEMBERS
100
AcDbLine
 62
7
  6
CONTINUOUS
 10
6.0325128658
 20
4.4585359565
 11
6.0301948953
 21
4.4585359565
  0
LINE
  5
2DB
100
AcDbEntity
  8
ALL_ASSEMBLY_MEMBERS
100
AcDbLine
 62
7
  6
CONTINUOUS
 10
5.1074695573
 20
4.4585359565
 11
5.1097950579
 21
4.4585359565
  0
LINE
  5
2DC
100
AcDbEntity
  8
ALL_ASSEMBLY_MEMBERS
100
AcDbLine
 62
7
  6
CONTINUOUS
 10
5.1247257372
 20
4.4585359565
 11
5.1270446191
 21
4.4585359565
  0
LINE
  5
2DD
100
AcDbEntity
  8
ALL_ASSEMBLY_MEMBERS
100
AcDbLine
 62
7
  6
CONTINUOUS
 10
5.1376079806
 20
4.4585359565
 11
5.1399367517
 21
4.4585359565
  0
LINE
  5
2DE
100
AcDbEntity
  8
ALL_ASSEMBLY_MEMBERS
100
AcDbLine
 62
7
  6
CONTINUOUS
 10
6.0465896843
 20
4.4640079792
 11
6.044256126
 21
4.4640079792
  0
LINE
  5
2DF
100
AcDbEntity
  8
ALL_ASSEMBLY_MEMBERS
100
AcDbLine
 62
7
  6
CONTINUOUS
 10
6.034822088
 20
4.4658319864
 11
6.0290033218
 21
4.4658319864
  0
LINE
  5
2E0
100
AcDbEntity
  8
ALL_ASSEMBLY_MEMBERS
100
AcDbLine
 62
7
  6
CONTINUOUS
 10
5.1065014579
 20
4.4658319864
 11
5.1088284853
 21
4.4658319864
  0
LINE
  5
2E1
100
AcDbEntity
  8
ALL_ASSEMBLY_MEMBERS
100
AcDbLine
 62
7
  6
CONTINUOUS
 10
5.1211638269
 20
4.4658319864
 11
5.1261361289
 21
4.4658319864
  0
LINE
  5
2E2
100
AcDbEntity
  8
ALL_ASSEMBLY_MEMBERS
100
AcDbLine
 62
7
  6
CONTINUOUS
 10
5.1177903801
 20
4.4658319864
 11
5.1201082818
 21
4.4658319864
  0
LINE
  5
2E3
100
AcDbEntity
  8
ALL_ASSEMBLY_MEMBERS
100
AcDbLine
 62
7
  6
CONTINUOUS
 10
5.138682114
 20
4.4676559935
 11
5.1410120792
 21
4.4676559935
  0
LINE
  5
2E4
100
AcDbEntity
  8
ALL_ASSEMBLY_MEMBERS
100
AcDbLine
 62
7
  6
CONTINUOUS
 10
6.0470017531
 20
4.4694800007
 11
6.0446671638
 21
4.4694800007
  0
LINE
  5
2E5
100
AcDbEntity
  8
ALL_ASSEMBLY_MEMBERS
100
AcDbLine
 62
7
  6
CONTINUOUS
 10
5.1065014579
 20
4.4713040078
 11
5.1088284853
 21
4.4713040078
  0
LINE
  5
2E6
100
AcDbEntity
  8
ALL_ASSEMBLY_MEMBERS
100
AcDbLine
 62
7
  6
CONTINUOUS
 10
5.1177903801
 20
4.4713040078
 11
5.1201082818
 21
4.4713040078
  0
LINE
  5
2E7
100
AcDbEntity
  8
ALL_ASSEMBLY_MEMBERS
100
AcDbLine
 62
7
  6
CONTINUOUS
 10
6.0470017531
 20
4.473128015
 11
6.0446671638
 21
4.473128015
  0
LINE
  5
2E8
100
AcDbEntity
  8
ALL_ASSEMBLY_MEMBERS
100
AcDbLine
 62
7
  6
CONTINUOUS
 10
5.138682114
 20
4.4749520221
 11
5.1410120792
 21
4.4749520221
  0
LINE
  5
2E9
100
AcDbEntity
  8
ALL_ASSEMBLY_MEMBERS
100
AcDbLine
 62
7
  6
CONTINUOUS
 10
6.0465896843
 20
4.478600039
 11
6.044256126
 21
4.478600039
  0
LINE
  5
2EA
100
AcDbEntity
  8
ALL_ASSEMBLY_MEMBERS
100
AcDbLine
 62
7
  6
CONTINUOUS
 10
5.1074695573
 20
4.478600039
 11
5.1097950579
 21
4.478600039
  0
LINE
  5
2EB
100
AcDbEntity
  8
ALL_ASSEMBLY_MEMBERS
100
AcDbLine
 62
7
  6
CONTINUOUS
 10
5.1169764602
 20
4.4804240462
 11
5.1192945104
 21
4.4804240462
  0
LINE
  5
2EC
100
AcDbEntity
  8
ALL_ASSEMBLY_MEMBERS
100
AcDbLine
 62
7
  6
CONTINUOUS
 10
6.0353839226
 20
4.4822480533
 11
6.0290033218
 21
4.4822480533
  0
LINE
  5
2ED
100
AcDbEntity
  8
ALL_ASSEMBLY_MEMBERS
100
AcDbLine
 62
7
  6
CONTINUOUS
 10
5.1088019749
 20
4.4822480533
 11
5.1111256567
 21
4.4822480533
  0
LINE
  5
2EE
100
AcDbEntity
  8
ALL_ASSEMBLY_MEMBERS
100
AcDbLine
 62
7
  6
CONTINUOUS
 10
5.1211638269
 20
4.4822480533
 11
5.1265888927
 21
4.4822480533
  0
LINE
  5
2EF
100
AcDbEntity
  8
ALL_ASSEMBLY_MEMBERS
100
AcDbLine
 62
7
  6
CONTINUOUS
 10
6.04574662
 20
4.4840720605
 11
6.043415023
 21
4.4840720605
  0
LINE
  5
2F0
100
AcDbEntity
  8
ALL_ASSEMBLY_MEMBERS
100
AcDbLine
 62
7
  6
CONTINUOUS
 10
5.111609104
 20
4.4840720605
 11
5.1101818559
 21
4.4840720605
  0
LINE
  5
2F1
100
AcDbEntity
  8
ALL_ASSEMBLY_MEMBERS
100
AcDbLine
 62
7
  6
CONTINUOUS
 10
5.1376079806
 20
4.4840720605
 11
5.1399367517
 21
4.4840720605
  0
LINE
  5
2F2
100
AcDbEntity
  8
ALL_ASSEMBLY_MEMBERS
100
AcDbLine
 62
7
  6
CONTINUOUS
 10
5.1153839645
 20
4.4858960676
 11
5.1177024929
 21
4.4858960676
  0
LINE
  5
2F3
100
AcDbEntity
  8
ALL_ASSEMBLY_MEMBERS
100
AcDbLine
 62
7
  6
CONTINUOUS
 10
6.0444348379
 20
4.4877200748
 11
6.042105933
 21
4.4877200748
  0
LINE
  5
2F4
100
AcDbEntity
  8
ALL_ASSEMBLY_MEMBERS
100
AcDbLine
 62
7
  6
CONTINUOUS
 10
5.1146053949
 20
4.4877200748
 11
5.1169242529
 21
4.4877200748
  0
LINE
  5
2F5
100
AcDbEntity
  8
ALL_ASSEMBLY_MEMBERS
100
AcDbLine
 62
7
  6
CONTINUOUS
 10
5.1261100823
 20
4.4877200748
 11
5.1284295781
 21
4.4877200748
  0
LINE
  5
2F6
100
AcDbEntity
  8
ALL_ASSEMBLY_MEMBERS
100
AcDbLine
 62
7
  6
CONTINUOUS
 10
6.04259801
 20
4.4895440819
 11
6.0396554414
 21
4.4895440819
  0
LINE
  5
2F7
100
AcDbEntity
  8
ALL_ASSEMBLY_MEMBERS
100
AcDbLine
 62
7
  6
CONTINUOUS
 10
5.1309164995
 20
4.4895440819
 11
5.1279971853
 21
4.4895440819
  0
LINE
  5
2F8
100
AcDbEntity
  8
ALL_ASSEMBLY_MEMBERS
100
AcDbLine
 62
7
  6
CONTINUOUS
 10
5.1153839645
 20
4.4895440819
 11
5.1177024929
 21
4.4895440819
  0
LINE
  5
2F9
100
AcDbEntity
  8
ALL_ASSEMBLY_MEMBERS
100
AcDbLine
 62
7
  6
CONTINUOUS
 10
5.111609104
 20
4.4913680891
 11
5.1101818559
 21
4.4913680891
  0
LINE
  5
2FA
100
AcDbEntity
  8
ALL_ASSEMBLY_MEMBERS
100
AcDbLine
 62
7
  6
CONTINUOUS
 10
5.1360191672
 20
4.4913680891
 11
5.1383462649
 21
4.4913680891
  0
LINE
  5
2FB
100
AcDbEntity
  8
ALL_ASSEMBLY_MEMBERS
100
AcDbLine
 62
7
  6
CONTINUOUS
 10
5.1088019749
 20
4.4931920962
 11
5.1111256567
 21
4.4931920962
  0
LINE
  5
2FC
100
AcDbEntity
  8
ALL_ASSEMBLY_MEMBERS
100
AcDbLine
 62
7
  6
CONTINUOUS
 10
5.1165739181
 20
4.4950161034
 11
5.1188920653
 21
4.4950161034
  0
LINE
  5
2FD
100
AcDbEntity
  8
ALL_ASSEMBLY_MEMBERS
100
AcDbLine
 62
7
  6
CONTINUOUS
 10
6.0370322577
 20
4.4968401105
 11
6.0347124063
 21
4.4968401105
  0
LINE
  5
2FE
100
AcDbEntity
  8
ALL_ASSEMBLY_MEMBERS
100
AcDbLine
 62
7
  6
CONTINUOUS
 10
5.1334307088
 20
4.4968401105
 11
5.1357553292
 21
4.4968401105
  0
LINE
  5
2FF
100
AcDbEntity
  8
ALL_ASSEMBLY_MEMBERS
100
AcDbLine
 62
7
  6
CONTINUOUS
 10
6.04259801
 20
4.4986641177
 11
6.0373333794
 21
4.4986641177
  0
LINE
  5
300
100
AcDbEntity
  8
ALL_ASSEMBLY_MEMBERS
100
AcDbLine
 62
7
  6
CONTINUOUS
 10
5.1074695573
 20
4.4986641177
 11
5.1097950579
 21
4.4986641177
  0
LINE
  5
301
100
AcDbEntity
  8
ALL_ASSEMBLY_MEMBERS
100
AcDbLine
 62
7
  6
CONTINUOUS
 10
5.1279971853
 20
4.4986641177
 11
5.1332390291
 21
4.4986641177
  0
LINE
  5
302
100
AcDbEntity
  8
ALL_ASSEMBLY_MEMBERS
100
AcDbLine
 62
7
  6
CONTINUOUS
 10
6.0180422408
 20
4.502312132
 11
6.0157189799
 21
4.502312132
  0
LINE
  5
303
100
AcDbEntity
  8
ALL_ASSEMBLY_MEMBERS
100
AcDbLine
 62
7
  6
CONTINUOUS
 10
6.0022689735
 20
4.502312132
 11
5.9999272933
 21
4.502312132
  0
LINE
  5
304
100
AcDbEntity
  8
ALL_ASSEMBLY_MEMBERS
100
AcDbLine
 62
7
  6
CONTINUOUS
 10
5.1173819484
 20
4.502312132
 11
5.1196999168
 21
4.502312132
  0
LINE
  5
305
100
AcDbEntity
  8
ALL_ASSEMBLY_MEMBERS
100
AcDbLine
 62
7
  6
CONTINUOUS
 10
5.1068211812
 20
4.5041361392
 11
5.1091476841
 21
4.5041361392
  0
LINE
  5
306
100
AcDbEntity
  8
ALL_ASSEMBLY_MEMBERS
100
AcDbLine
 62
7
  6
CONTINUOUS
 10
5.1068211812
 20
4.5077841535
 11
5.1091476841
 21
4.5077841535
  0
LINE
  5
307
100
AcDbEntity
  8
ALL_ASSEMBLY_MEMBERS
100
AcDbLine
 62
7
  6
CONTINUOUS
 10
5.1173819484
 20
4.5077841535
 11
5.1196999168
 21
4.5077841535
  0
LINE
  5
308
100
AcDbEntity
  8
ALL_ASSEMBLY_MEMBERS
100
AcDbLine
 62
7
  6
CONTINUOUS
 10
5.1074695573
 20
4.51325618
 11
5.1097950579
 21
4.51325618
  0
LINE
  5
309
100
AcDbEntity
  8
ALL_ASSEMBLY_MEMBERS
100
AcDbLine
 62
7
  6
CONTINUOUS
 10
6.0180422408
 20
4.5169041943
 11
6.0157189799
 21
4.5169041943
  0
LINE
  5
30A
100
AcDbEntity
  8
ALL_ASSEMBLY_MEMBERS
100
AcDbLine
 62
7
  6
CONTINUOUS
 10
6.0022689735
 20
4.5169041943
 11
5.9999272933
 21
4.5169041943
  0
LINE
  5
30B
100
AcDbEntity
  8
ALL_ASSEMBLY_MEMBERS
100
AcDbLine
 62
7
  6
CONTINUOUS
 10
5.1165739181
 20
4.5169041943
 11
5.1188920653
 21
4.5169041943
  0
LINE
  5
30C
100
AcDbEntity
  8
ALL_ASSEMBLY_MEMBERS
100
AcDbLine
 62
7
  6
CONTINUOUS
 10
5.1088019749
 20
4.5187282015
 11
5.1111256567
 21
4.5187282015
  0
LINE
  5
30D
100
AcDbEntity
  8
ALL_ASSEMBLY_MEMBERS
100
AcDbLine
 62
7
  6
CONTINUOUS
 10
6.0482000199
 20
4.5205522087
 11
6.0342540645
 21
4.5205522087
  0
LINE
  5
30E
100
AcDbEntity
  8
ALL_ASSEMBLY_MEMBERS
100
AcDbLine
 62
7
  6
CONTINUOUS
 10
5.111609104
 20
4.5205522087
 11
5.1101818559
 21
4.5205522087
  0
LINE
  5
30F
100
AcDbEntity
  8
ALL_ASSEMBLY_MEMBERS
100
AcDbLine
 62
7
  6
CONTINUOUS
 10
5.1233679255
 20
4.5205522087
 11
5.1399367517
 21
4.5205522087
  0
LINE
  5
310
100
AcDbEntity
  8
ALL_ASSEMBLY_MEMBERS
100
AcDbLine
 62
7
  6
CONTINUOUS
 10
5.1153839645
 20
4.5223762158
 11
5.1177024929
 21
4.5223762158
  0
LINE
  5
311
100
AcDbEntity
  8
ALL_ASSEMBLY_MEMBERS
100
AcDbLine
 62
7
  6
CONTINUOUS
 10
5.1134596532
 20
4.5278482373
 11
5.1157791191
 21
4.5278482373
  0
LINE
  5
312
100
AcDbEntity
  8
ALL_ASSEMBLY_MEMBERS
100
AcDbLine
 62
7
  6
CONTINUOUS
 10
6.0482000199
 20
4.5296722444
 11
6.0290033218
 21
4.5296722444
  0
LINE
  5
313
100
AcDbEntity
  8
ALL_ASSEMBLY_MEMBERS
100
AcDbLine
 62
7
  6
CONTINUOUS
 10
6.0263068702
 20
4.5296722444
 11
6.0199659422
 21
4.5296722444
  0
LINE
  5
314
100
AcDbEntity
  8
ALL_ASSEMBLY_MEMBERS
100
AcDbLine
 62
7
  6
CONTINUOUS
 10
6.0120346235
 20
4.5296722444
 11
6.0049308161
 21
4.5296722444
  0
LINE
  5
315
100
AcDbEntity
  8
ALL_ASSEMBLY_MEMBERS
100
AcDbLine
 62
7
  6
CONTINUOUS
 10
5.5225468391
 20
4.5296722444
 11
5.5142954857
 21
4.5296722444
  0
LINE
  5
316
100
AcDbEntity
  8
ALL_ASSEMBLY_MEMBERS
100
AcDbLine
 62
7
  6
CONTINUOUS
 10
5.1101818559
 20
4.5296722444
 11
5.1139298864
 21
4.5296722444
  0
LINE
  5
317
100
AcDbEntity
  8
ALL_ASSEMBLY_MEMBERS
100
AcDbLine
 62
7
  6
CONTINUOUS
 10
5.1211638269
 20
4.5296722444
 11
5.1399367517
 21
4.5296722444
  0
LINE
  5
318
100
AcDbEntity
  8
ALL_ASSEMBLY_MEMBERS
100
AcDbLine
 62
7
  6
CONTINUOUS
 10
6.0596917702
 20
4.5325265751
 11
6.0570554716
 21
4.5325265751
  0
LINE
  5
319
100
AcDbEntity
  8
ALL_ASSEMBLY_MEMBERS
100
AcDbLine
 62
7
  6
CONTINUOUS
 10
5.8633673474
 20
4.5325265751
 11
5.8409895528
 21
4.5325265751
  0
LINE
  5
31A
100
AcDbEntity
  8
ALL_ASSEMBLY_MEMBERS
100
AcDbLine
 62
7
  6
CONTINUOUS
 10
5.0903606692
 20
4.5325265751
 11
5.0928280687
 21
4.5325265751
  0
LINE
  5
31B
100
AcDbEntity
  8
ALL_ASSEMBLY_MEMBERS
100
AcDbLine
 62
7
  6
CONTINUOUS
 10
5.286516193
 20
4.5325265751
 11
5.3088939876
 21
4.5325265751
  0
LINE
  5
31C
100
AcDbEntity
  8
ALL_ASSEMBLY_MEMBERS
100
AcDbLine
 62
7
  6
CONTINUOUS
 10
5.6188126307
 20
4.443943898
 11
5.6105612774
 21
4.4457679053
  0
LINE
  5
31D
100
AcDbEntity
  8
ALL_ASSEMBLY_MEMBERS
100
AcDbLine
 62
7
  6
CONTINUOUS
 10
5.5665540582
 20
4.5278482373
 11
5.5583027049
 21
4.5296722444
  0
LINE
  5
31E
100
AcDbEntity
  8
ALL_ASSEMBLY_MEMBERS
100
AcDbLine
 62
7
  6
CONTINUOUS
 10
5.6270639841
 20
4.5278482373
 11
5.6188126307
 21
4.5296722444
  0
LINE
  5
31F
100
AcDbEntity
  8
ALL_ASSEMBLY_MEMBERS
100
AcDbLine
 62
7
  6
CONTINUOUS
 10
5.6188126307
 20
4.453063935
 11
5.6119364977
 21
4.4548879422
  0
LINE
  5
320
100
AcDbEntity
  8
ALL_ASSEMBLY_MEMBERS
100
AcDbLine
 62
7
  6
CONTINUOUS
 10
5.5651788301
 20
4.5187282015
 11
5.5583027049
 21
4.5205522087
  0
LINE
  5
321
100
AcDbEntity
  8
ALL_ASSEMBLY_MEMBERS
100
AcDbLine
 62
7
  6
CONTINUOUS
 10
5.6256887559
 20
4.5187282015
 11
5.6188126307
 21
4.5205522087
  0
LINE
  5
322
100
AcDbEntity
  8
ALL_ASSEMBLY_MEMBERS
100
AcDbLine
 62
7
  6
CONTINUOUS
 10
5.5734301873
 20
4.5223762158
 11
5.5665540582
 21
4.5278482373
  0
LINE
  5
323
100
AcDbEntity
  8
ALL_ASSEMBLY_MEMBERS
100
AcDbLine
 62
7
  6
CONTINUOUS
 10
5.6339401093
 20
4.5223762158
 11
5.6270639841
 21
4.5278482373
  0
LINE
  5
324
100
AcDbEntity
  8
ALL_ASSEMBLY_MEMBERS
100
AcDbLine
 62
7
  6
CONTINUOUS
 10
5.6298144326
 20
4.5150801872
 11
5.6256887559
 21
4.5187282015
  0
LINE
  5
325
100
AcDbEntity
  8
ALL_ASSEMBLY_MEMBERS
100
AcDbLine
 62
7
  6
CONTINUOUS
 10
5.9999272933
 20
4.5169041943
 11
5.9999272933
 21
4.502312132
  0
LINE
  5
326
100
AcDbEntity
  8
ALL_ASSEMBLY_MEMBERS
100
AcDbLine
 62
7
  6
CONTINUOUS
 10
6.0022689735
 20
4.5169041943
 11
6.0022689735
 21
4.502312132
  0
LINE
  5
327
100
AcDbEntity
  8
ALL_ASSEMBLY_MEMBERS
100
AcDbLine
 62
7
  6
CONTINUOUS
 10
6.0049308161
 20
4.5090424409
 11
6.0049308161
 21
4.443943898
  0
LINE
  5
328
100
AcDbEntity
  8
ALL_ASSEMBLY_MEMBERS
100
AcDbLine
 62
7
  6
CONTINUOUS
 10
6.0072655658
 20
4.5150801872
 11
6.0072655658
 21
4.443943898
  0
LINE
  5
329
100
AcDbEntity
  8
ALL_ASSEMBLY_MEMBERS
100
AcDbLine
 62
7
  6
CONTINUOUS
 10
6.0120346235
 20
4.5296722444
 11
6.0120346235
 21
4.443943898
  0
LINE
  5
32A
100
AcDbEntity
  8
ALL_ASSEMBLY_MEMBERS
100
AcDbLine
 62
7
  6
CONTINUOUS
 10
6.0157189799
 20
4.5169041943
 11
6.0157189799
 21
4.502312132
  0
LINE
  5
32B
100
AcDbEntity
  8
ALL_ASSEMBLY_MEMBERS
100
AcDbLine
 62
7
  6
CONTINUOUS
 10
6.0180422408
 20
4.5169041943
 11
6.0180422408
 21
4.502312132
  0
LINE
  5
32C
100
AcDbEntity
  8
ALL_ASSEMBLY_MEMBERS
100
AcDbLine
 62
7
  6
CONTINUOUS
 10
6.0199659422
 20
4.5080184249
 11
6.0199659422
 21
4.443943898
  0
LINE
  5
32D
100
AcDbEntity
  8
ALL_ASSEMBLY_MEMBERS
100
AcDbLine
 62
7
  6
CONTINUOUS
 10
6.0222862323
 20
4.5150801872
 11
6.0222862323
 21
4.443943898
  0
LINE
  5
32E
100
AcDbEntity
  8
ALL_ASSEMBLY_MEMBERS
100
AcDbLine
 62
7
  6
CONTINUOUS
 10
6.0263068702
 20
4.5296722444
 11
6.0263068702
 21
4.443943898
  0
LINE
  5
32F
100
AcDbEntity
  8
ALL_ASSEMBLY_MEMBERS
100
AcDbLine
 62
7
  6
CONTINUOUS
 10
6.0290033218
 20
4.5296722444
 11
6.0290033218
 21
4.4822480533
  0
LINE
  5
330
100
AcDbEntity
  8
ALL_ASSEMBLY_MEMBERS
100
AcDbLine
 62
7
  6
CONTINUOUS
 10
6.031321139
 20
4.5296722444
 11
6.031321139
 21
4.4822480533
  0
LINE
  5
331
100
AcDbEntity
  8
ALL_ASSEMBLY_MEMBERS
100
AcDbLine
 62
7
  6
CONTINUOUS
 10
6.0342540645
 20
4.5205522087
 11
6.0342540645
 21
4.4913680891
  0
LINE
  5
332
100
AcDbEntity
  8
ALL_ASSEMBLY_MEMBERS
100
AcDbLine
 62
7
  6
CONTINUOUS
 10
6.0446671638
 20
4.473128015
 11
6.0446671638
 21
4.4694800007
  0
LINE
  5
333
100
AcDbEntity
  8
ALL_ASSEMBLY_MEMBERS
100
AcDbLine
 62
7
  6
CONTINUOUS
 10
6.0470017531
 20
4.473128015
 11
6.0470017531
 21
4.4694800007
  0
LINE
  5
334
100
AcDbEntity
  8
ALL_ASSEMBLY_MEMBERS
100
AcDbLine
 62
7
  6
CONTINUOUS
 10
6.0482000199
 20
4.5296722444
 11
6.0482000199
 21
4.5205522087
  0
LINE
  5
335
100
AcDbEntity
  8
ALL_ASSEMBLY_MEMBERS
100
AcDbLine
 62
7
  6
CONTINUOUS
 10
6.0489671559
 20
4.4749520221
 11
6.0489671559
 21
4.4676559935
  0
LINE
  5
336
100
AcDbEntity
  8
ALL_ASSEMBLY_MEMBERS
100
AcDbLine
 62
7
  6
CONTINUOUS
 10
6.0570554716
 20
4.5325265751
 11
6.0570554716
 21
4.443943898
  0
LINE
  5
337
100
AcDbEntity
  8
ALL_ASSEMBLY_MEMBERS
100
AcDbLine
 62
7
  6
CONTINUOUS
 10
6.0572252348
 20
4.5817391736
 11
6.0572252348
 21
4.5325265751
  0
LINE
  5
338
100
AcDbEntity
  8
ALL_ASSEMBLY_MEMBERS
100
AcDbLine
 62
7
  6
CONTINUOUS
 10
6.0572252348
 20
4.443943898
 11
6.0572252348
 21
4.3848887799
  0
LINE
  5
339
100
AcDbEntity
  8
ALL_ASSEMBLY_MEMBERS
100
AcDbLine
 62
7
  6
CONTINUOUS
 10
6.0595228712
 20
4.5325265751
 11
6.0595228712
 21
4.443943898
  0
LINE
  5
33A
100
AcDbEntity
  8
ALL_ASSEMBLY_MEMBERS
100
AcDbLine
 62
7
  6
CONTINUOUS
 10
6.0596917702
 20
4.5325265751
 11
6.0596917702
 21
4.443943898
  0
LINE
  5
33B
100
AcDbEntity
  8
ALL_ASSEMBLY_MEMBERS
100
AcDbLine
 62
7
  6
CONTINUOUS
 10
6.0599417702
 20
3.9574248545
 11
6.0599417702
 21
4.3848887799
  0
LINE
  5
33C
100
AcDbEntity
  8
0
100
AcDbLine
 62
7
  6
CONTINUOUS
 10
6.0674417702
 20
4.6021686736
 11
6.0674417702
 21
4.7973886736
  0
LINE
  5
33D
100
AcDbEntity
  8
ALL_ASSEMBLY_MEMBERS
100
AcDbLine
 62
7
  6
CONTINUOUS
 10
5.0926583056
 20
4.5817391736
 11
6.0572252348
 21
4.5817391736
  0
LINE
  5
33E
100
AcDbEntity
  8
ALL_FEATURES
100
AcDbLine
 62
7
  6
CONTINUOUS
 10
5.0824417702
 20
4.6021686736
 11
6.0674417702
 21
4.6021686736
  0
LINE
  5
33F
100
AcDbEntity
  8
0
100
AcDbLine
 62
7
  6
CONTINUOUS
 10
5.5849412548
 20
4.6571686736
 11
5.5649422855
 21
4.6571686736
  0
LINE
  5
340
100
AcDbEntity
  8
ALL_ASSEMBLY_MEMBERS
100
AcDbLine
 62
7
  6
CONTINUOUS
 10
5.3249417702
 20
3.3848887799
 11
5.4186917702
 21
3.4390153676
  0
LINE
  5
341
100
AcDbEntity
  8
0
100
AcDbLine
 62
7
  6
CONTINUOUS
 10
5.5649422855
 20
4.7371686736
 11
5.5849412548
 21
4.7371686736
  0
LINE
  5
342
100
AcDbEntity
  8
ALL_ASSEMBLY_MEMBERS
100
AcDbLine
 62
7
  6
CONTINUOUS
 10
5.0449417702
 20
4.7973886736
 11
6.1049417702
 21
4.7973886736
  0
LINE
  5
343
100
AcDbEntity
  8
ALL_ASSEMBLY_MEMBERS
100
AcDbLine
 62
7
  6
CONTINUOUS
 10
7.1424417702
 20
4.8768886736
 11
4.0074417702
 21
4.8768886736
  0
LINE
  5
344
100
AcDbEntity
  8
ALL_ASSEMBLY_MEMBERS
100
AcDbLine
 62
7
  6
CONTINUOUS
 10
7.1999417702
 20
4.9393886736
 11
3.9499417702
 21
4.9393886736
  0
LINE
  5
345
100
AcDbEntity
  8
ALL_ASSEMBLY_MEMBERS
100
AcDbLine
 62
7
  6
CONTINUOUS
 10
5.4156603843
 20
3.1852978344
 11
5.4155385987
 21
3.1852435413
  0
LINE
  5
346
100
AcDbEntity
  8
ALL_ASSEMBLY_MEMBERS
100
AcDbLine
 62
7
  6
CONTINUOUS
 10
5.4156614246
 20
3.1852903322
 11
5.4155394148
 21
3.1852405946
  0
LINE
  5
347
100
AcDbEntity
  8
ALL_ASSEMBLY_MEMBERS
100
AcDbLine
 62
7
  6
CONTINUOUS
 10
7.1999417702
 20
5.0333886736
 11
3.9499417702
 21
5.0333886736
  0
LINE
  5
348
100
AcDbEntity
  8
ALL_ASSEMBLY_MEMBERS
100
AcDbLine
 62
7
  6
CONTINUOUS
 10
7.1999417702
 20
4.9393886736
 11
7.1999417702
 21
5.0333886736
  0
ARC
  5
349
100
AcDbEntity
  8
ALL_ASSEMBLY_MEMBERS
100
AcDbCircle
 62
7
  6
CONTINUOUS
 10
5.5749417702
 20
3.8702237876
 40
0.7753350077
100
AcDbArc
 50
255.2369687319
 51
284.7630312681
  0
ARC
  5
34A
100
AcDbEntity
  8
ALL_ASSEMBLY_MEMBERS
100
AcDbCircle
 62
7
  6
CONTINUOUS
 10
5.8584417702
 20
3.9574248545
 40
0.2015
100
AcDbArc
 50
281.3835410059
 51
360.0
  0
ARC
  5
34B
100
AcDbEntity
  8
ALL_ASSEMBLY_MEMBERS
100
AcDbCircle
 62
7
  6
CONTINUOUS
 10
5.2914417702
 20
3.9574248545
 40
0.2015
100
AcDbArc
 50
180.0
 51
258.6164589941
  0
ARC
  5
34C
100
AcDbEntity
  8
ALL_ASSEMBLY_MEMBERS
100
AcDbCircle
 62
7
  6
CONTINUOUS
 10
5.9290529397
 20
3.6067125433
 40
0.15625
100
AcDbArc
 50
101.3835410059
 51
161.1400389567
  0
ARC
  5
34D
100
AcDbEntity
  8
ALL_ASSEMBLY_MEMBERS
100
AcDbCircle
 62
7
  6
CONTINUOUS
 10
5.2208306006
 20
3.6067125433
 40
0.15625
100
AcDbArc
 50
18.8599610433
 51
78.6164589941
  0
ARC
  5
34E
100
AcDbEntity
  8
ALL_ASSEMBLY_MEMBERS
100
AcDbCircle
 62
7
  6
CONTINUOUS
 10
5.3810483291
 20
3.2571005924
 40
0.0802255261
100
AcDbArc
 50
316.3712626173
 51
316.6779038472
  0
CIRCLE
  5
34F
100
AcDbEntity
  8
ALL_ASSEMBLY_MEMBERS
100
AcDbCircle
 62
7
  6
CONTINUOUS
 10
5.5749417702
 20
4.0568887799
 40
0.07
  0
CIRCLE
  5
350
100
AcDbEntity
  8
ALL_FEATURES
100
AcDbCircle
 62
7
  6
CONTINUOUS
 10
5.5749417702
 20
4.0568887799
 40
0.065
  0
ARC
  5
351
100
AcDbEntity
  8
ALL_ASSEMBLY_MEMBERS
100
AcDbCircle
 62
7
  6
CONTINUOUS
 10
7.2051591615
 20
4.8768886736
 40
0.0627173913
100
AcDbArc
 50
94.7718880608
 51
180.0
  0
ARC
  5
352
100
AcDbEntity
  8
ALL_ASSEMBLY_MEMBERS
100
AcDbCircle
 62
7
  6
CONTINUOUS
 10
3.9447243789
 20
4.8768886736
 40
0.0627173913
100
AcDbArc
 50
0.0
 51
85.2281119392
  0
ARC
  5
353
100
AcDbEntity
  8
ALL_ASSEMBLY_MEMBERS
100
AcDbCircle
 62
7
  6
CONTINUOUS
 10
5.1152019028
 20
3.2034393775
 40
0.0620409321
100
AcDbArc
 50
254.7344024662
 51
256.3519988896
  0
ARC
  5
354
100
AcDbEntity
  8
ALL_ASSEMBLY_MEMBERS
100
AcDbCircle
 62
7
  6
CONTINUOUS
 10
5.1152012153
 20
3.3163407596
 40
0.0620382646
100
AcDbArc
 50
103.633765569
 51
105.2656117422
  0
ARC
  5
355
100
AcDbEntity
  8
ALL_ASSEMBLY_MEMBERS
100
AcDbCircle
 62
7
  6
CONTINUOUS
 10
5.755275452
 20
3.2830161964
 40
0.0556103385
100
AcDbArc
 50
112.0569188772
 51
112.2459399192
  0
ARC
  5
356
100
AcDbEntity
  8
ALL_ASSEMBLY_MEMBERS
100
AcDbCircle
 62
7
  6
CONTINUOUS
 10
5.7552745093
 20
3.2367590641
 40
0.0556078534
100
AcDbArc
 50
247.7540785629
 51
247.9479241284
  0
CIRCLE
  5
357
100
AcDbEntity
  8
ALL_FEATURES
100
AcDbCircle
 62
7
  6
CONTINUOUS
 10
5.5749417702
 20
4.0568887799
 40
0.0445454545
  0
ARC
  5
358
100
AcDbEntity
  8
ALL_ASSEMBLY_MEMBERS
100
AcDbCircle
 62
7
  6
CONTINUOUS
 10
5.4164031127
 20
3.2962111598
 40
0.0419878298
100
AcDbArc
 50
102.7559533016
 51
112.7607019363
  0
ARC
  5
359
100
AcDbEntity
  8
ALL_ASSEMBLY_MEMBERS
100
AcDbCircle
 62
7
  6
CONTINUOUS
 10
5.4164031064
 20
3.223566382
 40
0.0419878108
100
AcDbArc
 50
247.2392965172
 51
257.2441648755
  0
ARC
  5
35A
100
AcDbEntity
  8
ALL_ASSEMBLY_MEMBERS
100
AcDbCircle
 62
7
  6
CONTINUOUS
 10
5.7334805929
 20
3.2962116305
 40
0.0419873318
100
AcDbArc
 50
67.2392573946
 51
77.2471542333
  0
ARC
  5
35B
100
AcDbEntity
  8
ALL_ASSEMBLY_MEMBERS
100
AcDbCircle
 62
7
  6
CONTINUOUS
 10
5.7334806059
 20
3.223565892
 40
0.0419872925
100
AcDbArc
 50
282.7526001807
 51
292.7607458196
  0
ARC
  5
35C
100
AcDbEntity
  8
ALL_ASSEMBLY_MEMBERS
100
AcDbCircle
 62
7
  6
CONTINUOUS
 10
5.7499634912
 20
3.6678887799
 40
0.033
100
AcDbArc
 50
270.0
 51
341.1400389567
  0
ARC
  5
35D
100
AcDbEntity
  8
ALL_ASSEMBLY_MEMBERS
100
AcDbCircle
 62
7
  6
CONTINUOUS
 10
5.3999200492
 20
3.6678887799
 40
0.033
100
AcDbArc
 50
198.8599610433
 51
270.0
  0
ARC
  5
35E
100
AcDbEntity
  8
ALL_ASSEMBLY_MEMBERS
100
AcDbCircle
 62
7
  6
CONTINUOUS
 10
5.7686917702
 20
3.1349889533
 40
0.015
100
AcDbArc
 50
284.7630312681
 51
359.6175963447
  0
ARC
  5
35F
100
AcDbEntity
  8
ALL_ASSEMBLY_MEMBERS
100
AcDbCircle
 62
7
  6
CONTINUOUS
 10
5.3811917702
 20
3.1349889533
 40
0.015
100
AcDbArc
 50
180.3824036553
 51
255.2369687319
  0
SPLINE
  5
360
100
AcDbEntity
  8
ALL_ASSEMBLY_MEMBERS
100
AcDbSpline
 62
7
  6
CONTINUOUS
 70
0
 71
3
 72
24
 73
20
 74
0
 42
0.0000001
 43
0.0000001
 44
0.0000000001
 40
0.0
 40
0.0
 40
0.0
 40
0.0
 40
0.0625159525
 40
0.1251229103
 40
0.1876673421
 40
0.2501199406
 40
0.312511235
 40
0.3748493473
 40
0.4371181172
 40
0.4993139823
 40
0.5614468846
 40
0.6235468377
 40
0.6856638472
 40
0.7478834581
 40
0.8103325243
 40
0.8731430698
 40
0.9363996422
 40
0.9681862885
 40
1.0
 40
1.0
 40
1.0
 40
1.0
 10
6.0510166376
 20
3.1435874858
 30
0.0
 10
6.0542981657
 20
3.1444828956
 30
0.0
 10
6.0608055323
 20
3.1465055236
 30
0.0
 10
6.0703292
 20
3.150210462
 30
0.0
 10
6.0795654357
 20
3.154576621
 30
0.0
 10
6.0884570352
 20
3.1595837328
 30
0.0
 10
6.0969564901
 20
3.1652110186
 30
0.0
 10
6.1050162682
 20
3.1714357974
 30
0.0
 10
6.1125861193
 20
3.1782325571
 30
0.0
 10
6.1196134824
 20
3.1855739531
 30
0.0
 10
6.1260472296
 20
3.1934295319
 30
0.0
 10
6.1318345544
 20
3.2017683764
 30
0.0
 10
6.1369198006
 20
3.2105594529
 30
0.0
 10
6.1412430297
 20
3.2197714002
 30
0.0
 10
6.1447372461
 20
3.2293704609
 30
0.0
 10
6.1473257939
 20
3.2393116995
 30
0.0
 10
6.1486589419
 20
3.2478128968
 30
0.0
 10
6.1491978632
 20
3.2546965514
 30
0.0
 10
6.1492890577
 20
3.2581577935
 30
0.0
 10
6.1492890577
 20
3.2598887799
 30
0.0
  0
SPLINE
  5
361
100
AcDbEntity
  8
ALL_ASSEMBLY_MEMBERS
100
AcDbSpline
 62
7
  6
CONTINUOUS
 70
0
 71
3
 72
13
 73
9
 74
0
 42
0.0000001
 43
0.0000001
 44
0.0000000001
 40
0.0
 40
0.0
 40
0.0
 40
0.0
 40
0.1244516229
 40
0.2494991529
 40
0.4999963381
 40
0.750498814
 40
0.8755509688
 40
1.0
 40
1.0
 40
1.0
 40
1.0
 10
5.9205672883
 20
3.1435874858
 30
0.0
 10
5.9258473339
 20
3.1421467532
 30
0.0
 10
5.9365343853
 20
3.1396164742
 30
0.0
 10
5.9582337132
 20
3.1359825822
 30
0.0
 10
5.9857917049
 20
3.1341592107
 30
0.0
 10
6.0133499188
 20
3.1359825182
 30
0.0
 10
6.0350495444
 20
3.1396165683
 30
0.0
 10
6.045736702
 20
3.1421467832
 30
0.0
 10
6.0510166376
 20
3.1435874858
 30
0.0
  0
SPLINE
  5
362
100
AcDbEntity
  8
ALL_ASSEMBLY_MEMBERS
100
AcDbSpline
 62
7
  6
CONTINUOUS
 70
0
 71
3
 72
14
 73
10
 74
0
 42
0.0000001
 43
0.0000001
 44
0.0000000001
 40
0.0
 40
0.0
 40
0.0
 40
0.0
 40
0.1245756403
 40
0.2494590639
 40
0.3744385931
 40
0.4994205319
 40
0.6244781569
 40
0.7496760468
 40
1.0
 40
1.0
 40
1.0
 40
1.0
 10
5.8662215682
 20
3.1718885258
 30
0.0
 10
5.8681845339
 20
3.1702394698
 30
0.0
 10
5.8722093323
 20
3.167047468
 30
0.0
 10
5.8785050084
 20
3.1625977464
 30
0.0
 10
5.8850417465
 20
3.1584941699
 30
0.0
 10
5.8917949819
 20
3.1547506488
 30
0.0
 10
5.898744646
 20
3.1513746446
 30
0.0
 10
5.9082416351
 20
3.147374669
 30
0.0
 10
5.9155974242
 20
3.1449435811
 30
0.0
 10
5.9205672883
 20
3.1435874858
 30
0.0
  0
SPLINE
  5
363
100
AcDbEntity
  8
ALL_ASSEMBLY_MEMBERS
100
AcDbSpline
 62
7
  6
CONTINUOUS
 70
0
 71
3
 72
21
 73
17
 74
0
 42
0.0000001
 43
0.0000001
 44
0.0000000001
 40
0.0
 40
0.0
 40
0.0
 40
0.0
 40
0.0237650407
 40
0.0560435916
 40
0.0958888661
 40
0.1424637715
 40
0.1950325004
 40
0.2528991281
 40
0.3154290693
 40
0.3820275672
 40
0.4521240595
 40
0.5251861666
 40
0.600705571
 40
0.6781841271
 40
0.8372899873
 40
1.0
 40
1.0
 40
1.0
 40
1.0
 10
5.8662215687
 20
3.1718885254
 30
0.0
 10
5.8659418189
 20
3.1721235387
 30
0.0
 10
5.8652667456
 20
3.1726594783
 30
0.0
 10
5.8640750501
 20
3.1735280004
 30
0.0
 10
5.8625533744
 20
3.1745364857
 30
0.0
 10
5.8607209043
 20
3.1756368943
 30
0.0
 10
5.8585995595
 20
3.1767903292
 30
0.0
 10
5.8562084054
 20
3.1779557878
 30
0.0
 10
5.8535706828
 20
3.1791013853
 30
0.0
 10
5.8507107678
 20
3.1802004988
 30
0.0
 10
5.8476516758
 20
3.1812243056
 30
0.0
 10
5.8444188513
 20
3.1821509116
 30
0.0
 10
5.8410391865
 20
3.1829658449
 30
0.0
 10
5.8363295163
 20
3.1838906696
 30
0.0
 10
5.8302331037
 20
3.1846750965
 30
0.0
 10
5.8252831562
 20
3.1848887799
 30
0.0
 10
5.8227816476
 20
3.1848887799
 30
0.0
  0
SPLINE
  5
364
100
AcDbEntity
  8
ALL_ASSEMBLY_MEMBERS
100
AcDbSpline
 62
7
  6
CONTINUOUS
 70
0
 71
3
 72
23
 73
19
 74
0
 42
0.0000001
 43
0.0000001
 44
0.0000000001
 40
0.0
 40
0.0
 40
0.0
 40
0.0
 40
0.1629044433
 40
0.2430691375
 40
0.3219754444
 40
0.3993277531
 40
0.4747772559
 40
0.5478242483
 40
0.6179259473
 40
0.6845246912
 40
0.7470534242
 40
0.8049211966
 40
0.8575002382
 40
0.9041331
 40
0.9440699126
 40
0.9763644795
 40
0.9893301785
 40
1.0
 40
1.0
 40
1.0
 40
1.0
 10
5.8227816476
 20
3.3348887799
 30
0.0
 10
5.8252862132
 20
3.3348887799
 30
0.0
 10
5.8290258694
 20
3.3350513528
 30
0.0
 10
5.8339485023
 20
3.3355820843
 30
0.0
 10
5.8375437667
 20
3.336125435
 30
0.0
 10
5.8410408953
 20
3.336810058
 30
0.0
 10
5.8444167731
 20
3.337627372
 30
0.0
 10
5.8476475318
 20
3.3385569278
 30
0.0
 10
5.8507070064
 20
3.3395790914
 30
0.0
 10
5.8535689416
 20
3.3406734669
 30
0.0
 10
5.8562060888
 20
3.341820788
 30
0.0
 10
5.8585966645
 20
3.342987819
 30
0.0
 10
5.8607202021
 20
3.3441395298
 30
0.0
 10
5.8625548964
 20
3.3452412993
 30
0.0
 10
5.8640770381
 20
3.3462536566
 30
0.0
 10
5.8651365602
 20
3.3470245502
 30
0.0
 10
5.865814477
 20
3.3475536451
 30
0.0
 10
5.8660959657
 20
3.3477835173
 30
0.0
 10
5.8662215687
 20
3.3478890344
 30
0.0
  0
SPLINE
  5
365
100
AcDbEntity
  8
ALL_ASSEMBLY_MEMBERS
100
AcDbSpline
 62
7
  6
CONTINUOUS
 70
0
 71
3
 72
14
 73
10
 74
0
 42
0.0000001
 43
0.0000001
 44
0.0000000001
 40
0.0
 40
0.0
 40
0.0
 40
0.0
 40
0.2503193861
 40
0.3755183033
 40
0.5005761679
 40
0.6255591599
 40
0.7505406662
 40
0.8754248933
 40
1.0
 40
1.0
 40
1.0
 40
1.0
 10
5.9205672883
 20
3.3761900739
 30
0.0
 10
5.9155975148
 20
3.3748340034
 30
0.0
 10
5.9082417945
 20
3.3724029444
 30
0.0
 10
5.89874485
 20
3.3684030367
 30
0.0
 10
5.8917951417
 20
3.3650270127
 30
0.0
 10
5.8850418519
 20
3.3612834502
 30
0.0
 10
5.8785050542
 20
3.3571798203
 30
0.0
 10
5.8722093328
 20
3.352730083
 30
0.0
 10
5.8681845255
 20
3.3495380829
 30
0.0
 10
5.8662215682
 20
3.3478890339
 30
0.0
  0
SPLINE
  5
366
100
AcDbEntity
  8
ALL_ASSEMBLY_MEMBERS
100
AcDbSpline
 62
7
  6
CONTINUOUS
 70
0
 71
3
 72
23
 73
19
 74
0
 42
0.0000001
 43
0.0000001
 44
0.0000000001
 40
0.0
 40
0.0
 40
0.0
 40
0.0
 40
0.0635881336
 40
0.1268473166
 40
0.1896607286
 40
0.2521109684
 40
0.3143349871
 40
0.376457438
 40
0.4385626356
 40
0.5007010905
 40
0.5628971369
 40
0.6251617499
 40
0.6874924498
 40
0.7498835885
 40
0.8123305409
 40
0.8748529937
 40
0.9374423479
 40
1.0
 40
1.0
 40
1.0
 40
1.0
 10
6.1492890577
 20
3.2598887799
 30
0.0
 10
6.1492890577
 20
3.2633485413
 30
0.0
 10
6.1489270435
 20
3.2702555317
 30
0.0
 10
6.147325712
 20
3.2804667996
 30
0.0
 10
6.1447365919
 20
3.2904087742
 30
0.0
 10
6.1412424137
 20
3.3000079046
 30
0.0
 10
6.1369186607
 20
3.309220092
 30
0.0
 10
6.1318330281
 20
3.318011623
 30
0.0
 10
6.1260451383
 20
3.3263508997
 30
0.0
 10
6.1196108261
 20
3.3342065208
 30
0.0
 10
6.1125832103
 20
3.3415474653
 30
0.0
 10
6.1050143466
 20
3.3483440762
 30
0.0
 10
6.096954827
 20
3.3545678257
 30
0.0
 10
6.0884558573
 20
3.3601941307
 30
0.0
 10
6.0795657091
 20
3.3652002579
 30
0.0
 10
6.0703322663
 20
3.3695660163
 30
0.0
 10
6.0608088903
 20
3.3732714886
 30
0.0
 10
6.0543002847
 20
3.375294086
 30
0.0
 10
6.0510166376
 20
3.3761900739
 30
0.0
  0
SPLINE
  5
367
100
AcDbEntity
  8
ALL_ASSEMBLY_MEMBERS
100
AcDbSpline
 62
7
  6
CONTINUOUS
 70
0
 71
3
 72
13
 73
9
 74
0
 42
0.0000001
 43
0.0000001
 44
0.0000000001
 40
0.0
 40
0.0
 40
0.0
 40
0.0
 40
0.1244516229
 40
0.2494991529
 40
0.4999963381
 40
0.750498814
 40
0.8755509688
 40
1.0
 40
1.0
 40
1.0
 40
1.0
 10
6.0510166376
 20
3.3761900739
 30
0.0
 10
6.045736592
 20
3.3776308065
 30
0.0
 10
6.0350495406
 20
3.3801610855
 30
0.0
 10
6.0133502127
 20
3.3837949775
 30
0.0
 10
5.985792221
 20
3.385618349
 30
0.0
 10
5.958234007
 20
3.3837950415
 30
0.0
 10
5.9365343814
 20
3.3801609914
 30
0.0
 10
5.9258472239
 20
3.3776307765
 30
0.0
 10
5.9205672883
 20
3.3761900739
 30
0.0
  0
SPLINE
  5
368
100
AcDbEntity
  8
ALL_ASSEMBLY_MEMBERS
100
AcDbSpline
 62
7
  6
CONTINUOUS
 70
0
 71
3
 72
23
 73
19
 74
0
 42
0.0000001
 43
0.0000001
 44
0.0000000001
 40
0.0
 40
0.0
 40
0.0
 40
0.0
 40
0.0709296768
 40
0.141653656
 40
0.2118360318
 40
0.2812336832
 40
0.3496327172
 40
0.4168206306
 40
0.482602256
 40
0.5468227511
 40
0.609360679
 40
0.6701398486
 40
0.7291265805
 40
0.7863451436
 40
0.8418722474
 40
0.8958488858
 40
0.9484721402
 40
1.0
 40
1.0
 40
1.0
 40
1.0
 10
5.8526803018
 20
3.2598887799
 30
0.0
 10
5.8526803018
 20
3.263290558
 30
0.0
 10
5.8528880363
 20
3.2700860432
 30
0.0
 10
5.85381654
 20
3.2802092538
 30
0.0
 10
5.8553589497
 20
3.2901834822
 30
0.0
 10
5.8575014014
 20
3.2999322231
 30
0.0
 10
5.860229841
 20
3.3093843898
 30
0.0
 10
5.8635220791
 20
3.3184714379
 30
0.0
 10
5.8673567214
 20
3.3271250134
 30
0.0
 10
5.8717033124
 20
3.335281918
 30
0.0
 10
5.8765324167
 20
3.3428807885
 30
0.0
 10
5.8818067338
 20
3.3498666675
 30
0.0
 10
5.8874902064
 20
3.3561859908
 30
0.0
 10
5.8935396085
 20
3.361793161
 30
0.0
 10
5.8999128222
 20
3.3666438049
 30
0.0
 10
5.9065620424
 20
3.3707028742
 30
0.0
 10
5.9134384808
 20
3.373935979
 30
0.0
 10
5.9181832107
 20
3.3755394069
 30
0.0
 10
5.9205672926
 20
3.3761900424
 30
0.0
  0
SPLINE
  5
369
100
AcDbEntity
  8
ALL_ASSEMBLY_MEMBERS
100
AcDbSpline
 62
7
  6
CONTINUOUS
 70
0
 71
3
 72
41
 73
37
 74
0
 42
0.0000001
 43
0.0000001
 44
0.0000000001
 40
0.0
 40
0.0
 40
0.0
 40
0.0
 40
0.0362980159
 40
0.0724653974
 40
0.1082764918
 40
0.1435688418
 40
0.1782076908
 40
0.2120656245
 40
0.2450277418
 40
0.2770117958
 40
0.3079668944
 40
0.3230574277
 40
0.3378892135
 40
0.366784898
 40
0.3947334711
 40
0.4218511531
 40
0.4482970769
 40
0.4742707537
 40
0.5
 40
0.5257292463
 40
0.5517029231
 40
0.5781488469
 40
0.6052665289
 40
0.633215102
 40
0.6621107865
 40
0.6769425723
 40
0.6920331056
 40
0.7229882042
 40
0.7549722582
 40
0.7879343755
 40
0.8217923092
 40
0.8564311582
 40
0.8917235082
 40
0.9275346026
 40
0.9637019841
 40
1.0
 40
1.0
 40
1.0
 40
1.0
 10
6.0722125218
 20
3.2598887799
 30
0.0
 10
6.0722125218
 20
3.258141023
 30
0.0
 10
6.0723341373
 20
3.2546506156
 30
0.0
 10
6.0728761511
 20
3.2494612608
 30
0.0
 10
6.0737757425
 20
3.2443705628
 30
0.0
 10
6.0750225552
 20
3.2394293583
 30
0.0
 10
6.0766058733
 20
3.2346842281
 30
0.0
 10
6.0785093918
 20
3.230179463
 30
0.0
 10
6.0807165415
 20
3.2259585757
 30
0.0
 10
6.0832058365
 20
3.2220622653
 30
0.0
 10
6.0855159391
 20
3.219091228
 30
0.0
 10
6.0874841636
 20
3.2169174998
 30
0.0
 10
6.0894904566
 20
3.2149171724
 30
0.0
 10
6.0921244382
 20
3.2126756107
 30
0.0
 10
6.0954883582
 20
3.210416873
 30
0.0
 10
6.0989961277
 20
3.208633488
 30
0.0
 10
6.1026147882
 20
3.2073464036
 30
0.0
 10
6.1063080475
 20
3.2065671743
 30
0.0
 10
6.1100394143
 20
3.2063074415
 30
0.0
 10
6.1137707811
 20
3.2065671743
 30
0.0
 10
6.1174640404
 20
3.2073464036
 30
0.0
 10
6.1210827008
 20
3.208633488
 30
0.0
 10
6.1245904703
 20
3.210416873
 30
0.0
 10
6.1279543904
 20
3.2126756107
 30
0.0
 10
6.1305883719
 20
3.2149171724
 30
0.0
 10
6.1325946649
 20
3.2169174998
 30
0.0
 10
6.1345628894
 20
3.219091228
 30
0.0
 10
6.1368729921
 20
3.2220622653
 30
0.0
 10
6.139362287
 20
3.2259585757
 30
0.0
 10
6.1415694368
 20
3.230179463
 30
0.0
 10
6.1434729553
 20
3.2346842281
 30
0.0
 10
6.1450562734
 20
3.2394293583
 30
0.0
 10
6.146303086
 20
3.2443705628
 30
0.0
 10
6.1472026775
 20
3.2494612608
 30
0.0
 10
6.1477446912
 20
3.2546506156
 30
0.0
 10
6.1478663068
 20
3.258141023
 30
0.0
 10
6.1478663068
 20
3.2598887799
 30
0.0
  0
SPLINE
  5
36A
100
AcDbEntity
  8
ALL_ASSEMBLY_MEMBERS
100
AcDbSpline
 62
7
  6
CONTINUOUS
 70
0
 71
3
 72
31
 73
27
 74
0
 42
0.0000001
 43
0.0000001
 44
0.0000000001
 40
0.0
 40
0.0
 40
0.0
 40
0.0
 40
0.0739818255
 40
0.1475607832
 40
0.1840415804
 40
0.2202473686
 40
0.2916375064
 40
0.3613866817
 40
0.3955532846
 40
0.4291991332
 40
0.4948043646
 40
0.5580741483
 40
0.6189605299
 40
0.6485415752
 40
0.6775632935
 40
0.7340234568
 40
0.7615745989
 40
0.7887309541
 40
0.8155526252
 40
0.8421054822
 40
0.8684617754
 40
0.8946972981
 40
0.9208900838
 40
0.9471197019
 40
0.9734643525
 40
1.0
 40
1.0
 40
1.0
 40
1.0
 10
5.9513952542
 20
3.2598887799
 30
0.0
 10
5.9513952542
 20
3.2555488759
 30
0.0
 10
5.9517323121
 20
3.2468892096
 30
0.0
 10
5.952992253
 20
3.2361550574
 30
0.0
 10
5.9545021324
 20
3.2277066212
 30
0.0
 10
5.9563237558
 20
3.2194514483
 30
0.0
 10
5.9591872249
 20
3.2094367131
 30
0.0
 10
5.962851029
 20
3.199812569
 30
0.0
 10
5.9662297147
 20
3.1924814532
 30
0.0
 10
5.9698321834
 20
3.1855307393
 30
0.0
 10
5.9748197809
 20
3.1773858882
 30
0.0
 10
5.9815852546
 20
3.1685208356
 30
0.0
 10
5.9878305831
 20
3.1619843165
 30
0.0
 10
5.9931139385
 20
3.1573716502
 30
0.0
 10
5.9984676525
 20
3.1532557815
 30
0.0
 10
6.0041075024
 20
3.1497239665
 30
0.0
 10
6.0099706584
 20
3.1468590026
 30
0.0
 10
6.0144106527
 20
3.1450696157
 30
0.0
 10
6.0189139307
 20
3.14362807
 30
0.0
 10
6.023467367
 20
3.1425398673
 30
0.0
 10
6.0280567446
 20
3.1418082013
 30
0.0
 10
6.0326679193
 20
3.1414345408
 30
0.0
 10
6.037286788
 20
3.1414210809
 30
0.0
 10
6.041899078
 20
3.1417679906
 30
0.0
 10
6.0464903568
 20
3.1424729955
 30
0.0
 10
6.0495149242
 20
3.1431776886
 30
0.0
 10
6.0510166333
 20
3.1435875173
 30
0.0
  0
SPLINE
  5
36B
100
AcDbEntity
  8
ALL_ASSEMBLY_MEMBERS
100
AcDbSpline
 62
7
  6
CONTINUOUS
 70
0
 71
3
 72
27
 73
23
 74
0
 42
0.0000001
 43
0.0000001
 44
0.0000000001
 40
0.0
 40
0.0
 40
0.0
 40
0.0
 40
0.0726227486
 40
0.1449387688
 40
0.2165413862
 40
0.2871308063
 40
0.4240269662
 40
0.4899500977
 40
0.5539184004
 40
0.5851436461
 40
0.6158472995
 40
0.646029034
 40
0.6756925126
 40
0.7334833577
 40
0.7893811487
 40
0.8167012202
 40
0.843642589
 40
0.8702474857
 40
0.8965632244
 40
0.9485105284
 40
0.9742860575
 40
1.0
 40
1.0
 40
1.0
 40
1.0
 10
5.769748639
 20
3.2598887799
 30
0.0
 10
5.769748639
 20
3.2574375352
 30
0.0
 10
5.7699185935
 20
3.2525436706
 30
0.0
 10
5.7706791611
 20
3.2452688591
 30
0.0
 10
5.7719402462
 20
3.2381322349
 30
0.0
 10
5.7742467586
 20
3.2289932928
 30
0.0
 10
5.777494432
 20
3.2203068121
 30
0.0
 10
5.7816707283
 20
3.2123193292
 30
0.0
 10
5.7846032315
 20
3.2077296423
 30
0.0
 10
5.787136205
 20
3.2043160166
 30
0.0
 10
5.7891071195
 20
3.201909913
 30
0.0
 10
5.7911592009
 20
3.199643147
 30
0.0
 10
5.79397201
 20
3.1968386867
 30
0.0
 10
5.7976649262
 20
3.193696687
 30
0.0
 10
5.801625779
 20
3.1910362931
 30
0.0
 10
5.8048910521
 20
3.1892534724
 30
0.0
 10
5.8073651009
 20
3.1880962362
 30
0.0
 10
5.8098767676
 20
3.1871120156
 30
0.0
 10
5.8132517976
 20
3.1860390469
 30
0.0
 10
5.8167006162
 20
3.1853119219
 30
0.0
 10
5.8201750892
 20
3.1849492895
 30
0.0
 10
5.8219137217
 20
3.1848889282
 30
0.0
 10
5.8227816476
 20
3.1848889282
 30
0.0
  0
SPLINE
  5
36C
100
AcDbEntity
  8
ALL_ASSEMBLY_MEMBERS
100
AcDbSpline
 62
7
  6
CONTINUOUS
 70
0
 71
3
 72
17
 73
13
 74
0
 42
0.0000001
 43
0.0000001
 44
0.0000000001
 40
0.0
 40
0.0
 40
0.0
 40
0.0
 40
0.0676778992
 40
0.1352665324
 40
0.2694098207
 40
0.401326516
 40
0.5300800082
 40
0.5930183697
 40
0.6548658047
 40
0.7749618755
 40
0.8900321294
 40
1.0
 40
1.0
 40
1.0
 40
1.0
 10
5.8308089581
 20
3.2598887799
 30
0.0
 10
5.8308089581
 20
3.2576842719
 30
0.0
 10
5.8309100206
 20
3.2532774018
 30
0.0
 10
5.8315115602
 20
3.2445201169
 30
0.0
 10
5.8330030672
 20
3.2337373796
 30
0.0
 10
5.8359609287
 20
3.2212024958
 30
0.0
 10
5.8393810866
 20
3.21121078
 30
0.0
 10
5.8426627231
 20
3.203628219
 30
0.0
 10
5.8462209352
 20
3.196485698
 30
0.0
 10
5.8512493326
 20
3.1881925452
 30
0.0
 10
5.8582104974
 20
3.1793298976
 30
0.0
 10
5.8634788466
 20
3.1741925964
 30
0.0
 10
5.8662216104
 20
3.1718886284
 30
0.0
  0
SPLINE
  5
36D
100
AcDbEntity
  8
ALL_ASSEMBLY_MEMBERS
100
AcDbSpline
 62
7
  6
CONTINUOUS
 70
0
 71
3
 72
23
 73
19
 74
0
 42
0.0000001
 43
0.0000001
 44
0.0000000001
 40
0.0
 40
0.0
 40
0.0
 40
0.0
 40
0.0709296768
 40
0.141653656
 40
0.2118360318
 40
0.2812336832
 40
0.3496327172
 40
0.4168206306
 40
0.482602256
 40
0.5468227511
 40
0.609360679
 40
0.6701398486
 40
0.7291265805
 40
0.7863451436
 40
0.8418722474
 40
0.8958488858
 40
0.9484721402
 40
1.0
 40
1.0
 40
1.0
 40
1.0
 10
5.8526803018
 20
3.2598887799
 30
0.0
 10
5.8526803018
 20
3.2564870017
 30
0.0
 10
5.8528880363
 20
3.2496915165
 30
0.0
 10
5.85381654
 20
3.2395683059
 30
0.0
 10
5.8553589497
 20
3.2295940775
 30
0.0
 10
5.8575014014
 20
3.2198453367
 30
0.0
 10
5.860229841
 20
3.2103931699
 30
0.0
 10
5.8635220791
 20
3.2013061218
 30
0.0
 10
5.8673567214
 20
3.1926525463
 30
0.0
 10
5.8717033124
 20
3.1844956418
 30
0.0
 10
5.8765324167
 20
3.1768967712
 30
0.0
 10
5.8818067338
 20
3.1699108922
 30
0.0
 10
5.8874902064
 20
3.163591569
 30
0.0
 10
5.8935396085
 20
3.1579843987
 30
0.0
 10
5.8999128222
 20
3.1531337549
 30
0.0
 10
5.9065620424
 20
3.1490746856
 30
0.0
 10
5.9134384808
 20
3.1458415807
 30
0.0
 10
5.9181832107
 20
3.1442381528
 30
0.0
 10
5.9205672926
 20
3.1435875173
 30
0.0
  0
SPLINE
  5
36E
100
AcDbEntity
  8
ALL_ASSEMBLY_MEMBERS
100
AcDbSpline
 62
7
  6
CONTINUOUS
 70
0
 71
3
 72
27
 73
23
 74
0
 42
0.0000001
 43
0.0000001
 44
0.0000000001
 40
0.0
 40
0.0
 40
0.0
 40
0.0
 40
0.0257139422
 40
0.05148947
 40
0.103436769
 40
0.1297525051
 40
0.1563573995
 40
0.1832987654
 40
0.2106188327
 40
0.266516608
 40
0.3243074348
 40
0.3539709058
 40
0.3841526317
 40
0.4148562748
 40
0.4460815067
 40
0.5100497725
 40
0.5759728735
 40
0.7128689472
 40
0.7834583337
 40
0.8550610163
 40
0.9273771858
 40
1.0
 40
1.0
 40
1.0
 40
1.0
 10
5.8227816476
 20
3.3348886315
 30
0.0
 10
5.8219137217
 20
3.3348886315
 30
0.0
 10
5.8201750893
 20
3.3348282702
 30
0.0
 10
5.8167006165
 20
3.3344656379
 30
0.0
 10
5.8132517982
 20
3.3337385131
 30
0.0
 10
5.8098767685
 20
3.3326655444
 30
0.0
 10
5.807365102
 20
3.3316813239
 30
0.0
 10
5.8048910535
 20
3.330524088
 30
0.0
 10
5.8016257809
 20
3.3287412678
 30
0.0
 10
5.7976649289
 20
3.326080875
 30
0.0
 10
5.7939720137
 20
3.3229388763
 30
0.0
 10
5.7911592052
 20
3.320134417
 30
0.0
 10
5.789107124
 20
3.3178676521
 30
0.0
 10
5.78713621
 20
3.3154615495
 30
0.0
 10
5.7846032374
 20
3.3120479258
 30
0.0
 10
5.7816707344
 20
3.3074582419
 30
0.0
 10
5.7774944401
 20
3.2994707639
 30
0.0
 10
5.7742467648
 20
3.2907842893
 30
0.0
 10
5.7719402519
 20
3.2816453493
 30
0.0
 10
5.7706791627
 20
3.2745087195
 30
0.0
 10
5.7699185955
 20
3.2672338985
 30
0.0
 10
5.769748639
 20
3.2623400267
 30
0.0
 10
5.769748639
 20
3.2598887799
 30
0.0
  0
SPLINE
  5
36F
100
AcDbEntity
  8
ALL_ASSEMBLY_MEMBERS
100
AcDbSpline
 62
7
  6
CONTINUOUS
 70
0
 71
3
 72
41
 73
37
 74
0
 42
0.0000001
 43
0.0000001
 44
0.0000000001
 40
0.0
 40
0.0
 40
0.0
 40
0.0
 40
0.0362980159
 40
0.0724653974
 40
0.1082764918
 40
0.1435688418
 40
0.1782076908
 40
0.2120656245
 40
0.2450277418
 40
0.2770117958
 40
0.3079668944
 40
0.3230574277
 40
0.3378892135
 40
0.366784898
 40
0.3947334711
 40
0.4218511531
 40
0.4482970769
 40
0.4742707537
 40
0.5
 40
0.5257292463
 40
0.5517029231
 40
0.5781488469
 40
0.6052665289
 40
0.633215102
 40
0.6621107865
 40
0.6769425723
 40
0.6920331056
 40
0.7229882042
 40
0.7549722582
 40
0.7879343755
 40
0.8217923092
 40
0.8564311582
 40
0.8917235082
 40
0.9275346026
 40
0.9637019841
 40
1.0
 40
1.0
 40
1.0
 40
1.0
 10
6.0722125218
 20
3.2598887799
 30
0.0
 10
6.0722125218
 20
3.2616365367
 30
0.0
 10
6.0723341373
 20
3.2651269442
 30
0.0
 10
6.0728761511
 20
3.2703162989
 30
0.0
 10
6.0737757425
 20
3.2754069969
 30
0.0
 10
6.0750225552
 20
3.2803482014
 30
0.0
 10
6.0766058733
 20
3.2850933317
 30
0.0
 10
6.0785093918
 20
3.2895980968
 30
0.0
 10
6.0807165415
 20
3.293818984
 30
0.0
 10
6.0832058365
 20
3.2977152945
 30
0.0
 10
6.0855159391
 20
3.3006863317
 30
0.0
 10
6.0874841636
 20
3.3028600599
 30
0.0
 10
6.0894904566
 20
3.3048603874
 30
0.0
 10
6.0921244382
 20
3.307101949
 30
0.0
 10
6.0954883582
 20
3.3093606867
 30
0.0
 10
6.0989961277
 20
3.3111440717
 30
0.0
 10
6.1026147882
 20
3.3124311561
 30
0.0
 10
6.1063080475
 20
3.3132103854
 30
0.0
 10
6.1100394143
 20
3.3134701182
 30
0.0
 10
6.1137707811
 20
3.3132103854
 30
0.0
 10
6.1174640404
 20
3.3124311561
 30
0.0
 10
6.1210827008
 20
3.3111440717
 30
0.0
 10
6.1245904703
 20
3.3093606867
 30
0.0
 10
6.1279543904
 20
3.307101949
 30
0.0
 10
6.1305883719
 20
3.3048603874
 30
0.0
 10
6.1325946649
 20
3.3028600599
 30
0.0
 10
6.1345628894
 20
3.3006863317
 30
0.0
 10
6.1368729921
 20
3.2977152945
 30
0.0
 10
6.139362287
 20
3.293818984
 30
0.0
 10
6.1415694368
 20
3.2895980968
 30
0.0
 10
6.1434729553
 20
3.2850933317
 30
0.0
 10
6.1450562734
 20
3.2803482014
 30
0.0
 10
6.146303086
 20
3.2754069969
 30
0.0
 10
6.1472026775
 20
3.2703162989
 30
0.0
 10
6.1477446912
 20
3.2651269442
 30
0.0
 10
6.1478663068
 20
3.2616365367
 30
0.0
 10
6.1478663068
 20
3.2598887799
 30
0.0
  0
SPLINE
  5
370
100
AcDbEntity
  8
ALL_ASSEMBLY_MEMBERS
100
AcDbSpline
 62
7
  6
CONTINUOUS
 70
0
 71
3
 72
17
 73
13
 74
0
 42
0.0000001
 43
0.0000001
 44
0.0000000001
 40
0.0
 40
0.0
 40
0.0
 40
0.0
 40
0.1099678376
 40
0.2250380518
 40
0.3451340548
 40
0.4069814476
 40
0.4699197686
 40
0.5986731946
 40
0.7305898415
 40
0.8647333184
 40
0.9323220609
 40
1.0
 40
1.0
 40
1.0
 40
1.0
 10
5.866221608
 20
3.3478889295
 30
0.0
 10
5.863478845
 20
3.3455849622
 30
0.0
 10
5.8582104979
 20
3.3404476627
 30
0.0
 10
5.8512493349
 20
3.3315850198
 30
0.0
 10
5.846220939
 20
3.323291872
 30
0.0
 10
5.8426627289
 20
3.3161493557
 30
0.0
 10
5.8393810936
 20
3.3085667998
 30
0.0
 10
5.8359609293
 20
3.2985750918
 30
0.0
 10
5.8330030679
 20
3.2860402052
 30
0.0
 10
5.8315115666
 20
3.2752574593
 30
0.0
 10
5.8309100225
 20
3.2665001639
 30
0.0
 10
5.8308089581
 20
3.2620932891
 30
0.0
 10
5.8308089581
 20
3.2598887799
 30
0.0
  0
SPLINE
  5
371
100
AcDbEntity
  8
ALL_ASSEMBLY_MEMBERS
100
AcDbSpline
 62
7
  6
CONTINUOUS
 70
0
 71
3
 72
31
 73
27
 74
0
 42
0.0000001
 43
0.0000001
 44
0.0000000001
 40
0.0
 40
0.0
 40
0.0
 40
0.0
 40
0.0739818255
 40
0.1475607832
 40
0.1840415804
 40
0.2202473686
 40
0.2916375064
 40
0.3613866817
 40
0.3955532846
 40
0.4291991332
 40
0.4948043646
 40
0.5580741483
 40
0.6189605299
 40
0.6485415752
 40
0.6775632935
 40
0.7340234568
 40
0.7615745989
 40
0.7887309541
 40
0.8155526252
 40
0.8421054822
 40
0.8684617754
 40
0.8946972981
 40
0.9208900838
 40
0.9471197019
 40
0.9734643525
 40
1.0
 40
1.0
 40
1.0
 40
1.0
 10
5.9513952542
 20
3.2598887799
 30
0.0
 10
5.9513952542
 20
3.2642286838
 30
0.0
 10
5.9517323121
 20
3.2728883501
 30
0.0
 10
5.952992253
 20
3.2836225023
 30
0.0
 10
5.9545021324
 20
3.2920709386
 30
0.0
 10
5.9563237558
 20
3.3003261114
 30
0.0
 10
5.9591872249
 20
3.3103408466
 30
0.0
 10
5.962851029
 20
3.3199649907
 30
0.0
 10
5.9662297147
 20
3.3272961065
 30
0.0
 10
5.9698321834
 20
3.3342468204
 30
0.0
 10
5.9748197809
 20
3.3423916716
 30
0.0
 10
5.9815852546
 20
3.3512567242
 30
0.0
 10
5.9878305831
 20
3.3577932432
 30
0.0
 10
5.9931139385
 20
3.3624059095
 30
0.0
 10
5.9984676525
 20
3.3665217783
 30
0.0
 10
6.0041075024
 20
3.3700535932
 30
0.0
 10
6.0099706584
 20
3.3729185572
 30
0.0
 10
6.0144106527
 20
3.374707944
 30
0.0
 10
6.0189139307
 20
3.3761494897
 30
0.0
 10
6.023467367
 20
3.3772376924
 30
0.0
 10
6.0280567446
 20
3.3779693584
 30
0.0
 10
6.0326679193
 20
3.3783430189
 30
0.0
 10
6.037286788
 20
3.3783564788
 30
0.0
 10
6.041899078
 20
3.3780095691
 30
0.0
 10
6.0464903568
 20
3.3773045642
 30
0.0
 10
6.0495149242
 20
3.3765998711
 30
0.0
 10
6.0510166333
 20
3.3761900424
 30
0.0
  0
SPLINE
  5
372
100
AcDbEntity
  8
ALL_ASSEMBLY_MEMBERS
100
AcDbSpline
 62
7
  6
CONTINUOUS
 70
0
 71
3
 72
23
 73
19
 74
0
 42
0.0000001
 43
0.0000001
 44
0.0000000001
 40
0.0
 40
0.0
 40
0.0
 40
0.0
 40
0.1629044433
 40
0.2430691375
 40
0.3219754444
 40
0.3993277531
 40
0.4747772559
 40
0.5478242483
 40
0.6179259473
 40
0.6845246912
 40
0.7470534242
 40
0.8049211966
 40
0.8575002382
 40
0.9041331
 40
0.9440699126
 40
0.9763644795
 40
0.9893301785
 40
1.0
 40
1.0
 40
1.0
 40
1.0
 10
5.3271018928
 20
3.1848887799
 30
0.0
 10
5.3245973272
 20
3.1848887799
 30
0.0
 10
5.3208576709
 20
3.184726207
 30
0.0
 10
5.315935038
 20
3.1841954754
 30
0.0
 10
5.3123397737
 20
3.1836521248
 30
0.0
 10
5.3088426451
 20
3.1829675017
 30
0.0
 10
5.3054667673
 20
3.1821501877
 30
0.0
 10
5.3022360086
 20
3.1812206319
 30
0.0
 10
5.2991765339
 20
3.1801984683
 30
0.0
 10
5.2963145988
 20
3.1791040928
 30
0.0
 10
5.2936774515
 20
3.1779567717
 30
0.0
 10
5.2912868759
 20
3.1767897407
 30
0.0
 10
5.2891633383
 20
3.1756380299
 30
0.0
 10
5.287328644
 20
3.1745362604
 30
0.0
 10
5.2858065023
 20
3.1735239031
 30
0.0
 10
5.2847469802
 20
3.1727530095
 30
0.0
 10
5.2840690633
 20
3.1722239147
 30
0.0
 10
5.2837875747
 20
3.1719940424
 30
0.0
 10
5.2836619716
 20
3.1718885254
 30
0.0
  0
SPLINE
  5
373
100
AcDbEntity
  8
ALL_ASSEMBLY_MEMBERS
100
AcDbSpline
 62
7
  6
CONTINUOUS
 70
0
 71
3
 72
21
 73
17
 74
0
 42
0.0000001
 43
0.0000001
 44
0.0000000001
 40
0.0
 40
0.0
 40
0.0
 40
0.0
 40
0.0237650407
 40
0.0560435916
 40
0.0958888661
 40
0.1424637715
 40
0.1950325004
 40
0.2528991281
 40
0.3154290693
 40
0.3820275672
 40
0.4521240595
 40
0.5251861666
 40
0.600705571
 40
0.6781841271
 40
0.8372899873
 40
1.0
 40
1.0
 40
1.0
 40
1.0
 10
5.2836619717
 20
3.3478890343
 30
0.0
 10
5.2839417215
 20
3.347654021
 30
0.0
 10
5.2846167947
 20
3.3471180814
 30
0.0
 10
5.2858084903
 20
3.3462495594
 30
0.0
 10
5.2873301659
 20
3.3452410741
 30
0.0
 10
5.2891626361
 20
3.3441406654
 30
0.0
 10
5.2912839809
 20
3.3429872306
 30
0.0
 10
5.293675135
 20
3.341821772
 30
0.0
 10
5.2963128576
 20
3.3406761744
 30
0.0
 10
5.2991727725
 20
3.3395770609
 30
0.0
 10
5.3022318646
 20
3.3385532541
 30
0.0
 10
5.3054646891
 20
3.3376266481
 30
0.0
 10
5.3088443538
 20
3.3368117148
 30
0.0
 10
5.313554024
 20
3.3358868901
 30
0.0
 10
5.3196504367
 20
3.3351024632
 30
0.0
 10
5.3246003842
 20
3.3348887799
 30
0.0
 10
5.3271018928
 20
3.3348887799
 30
0.0
  0
SPLINE
  5
374
100
AcDbEntity
  8
ALL_ASSEMBLY_MEMBERS
100
AcDbSpline
 62
7
  6
CONTINUOUS
 70
0
 71
3
 72
23
 73
19
 74
0
 42
0.0000001
 43
0.0000001
 44
0.0000000001
 40
0.0
 40
0.0
 40
0.0
 40
0.0
 40
0.0635881336
 40
0.1268473166
 40
0.1896607286
 40
0.2521109684
 40
0.3143349871
 40
0.376457438
 40
0.4385626356
 40
0.5007010905
 40
0.5628971369
 40
0.6251617499
 40
0.6874924498
 40
0.7498835885
 40
0.8123305409
 40
0.8748529937
 40
0.9374423479
 40
1.0
 40
1.0
 40
1.0
 40
1.0
 10
5.0005944827
 20
3.2598887799
 30
0.0
 10
5.0005944827
 20
3.2564290185
 30
0.0
 10
5.0009564969
 20
3.249522028
 30
0.0
 10
5.0025578284
 20
3.2393107602
 30
0.0
 10
5.0051469485
 20
3.2293687856
 30
0.0
 10
5.0086411266
 20
3.2197696551
 30
0.0
 10
5.0129648797
 20
3.2105574677
 30
0.0
 10
5.0180505123
 20
3.2017659367
 30
0.0
 10
5.0238384021
 20
3.19342666
 30
0.0
 10
5.0302727143
 20
3.1855710389
 30
0.0
 10
5.0373003301
 20
3.1782300944
 30
0.0
 10
5.0448691937
 20
3.1714334835
 30
0.0
 10
5.0529287134
 20
3.165209734
 30
0.0
 10
5.0614276831
 20
3.1595834291
 30
0.0
 10
5.0703178313
 20
3.1545773018
 30
0.0
 10
5.079551274
 20
3.1502115435
 30
0.0
 10
5.08907465
 20
3.1465060711
 30
0.0
 10
5.0955832556
 20
3.1444834738
 30
0.0
 10
5.0988669028
 20
3.1435874858
 30
0.0
  0
SPLINE
  5
375
100
AcDbEntity
  8
ALL_ASSEMBLY_MEMBERS
100
AcDbSpline
 62
7
  6
CONTINUOUS
 70
0
 71
3
 72
13
 73
9
 74
0
 42
0.0000001
 43
0.0000001
 44
0.0000000001
 40
0.0
 40
0.0
 40
0.0
 40
0.0
 40
0.1244516229
 40
0.2494991529
 40
0.4999963381
 40
0.750498814
 40
0.8755509688
 40
1.0
 40
1.0
 40
1.0
 40
1.0
 10
5.0988669028
 20
3.1435874858
 30
0.0
 10
5.1041469484
 20
3.1421467532
 30
0.0
 10
5.1148339998
 20
3.1396164742
 30
0.0
 10
5.1365333277
 20
3.1359825822
 30
0.0
 10
5.1640913194
 20
3.1341592107
 30
0.0
 10
5.1916495333
 20
3.1359825182
 30
0.0
 10
5.2133491589
 20
3.1396165683
 30
0.0
 10
5.2240363165
 20
3.1421467832
 30
0.0
 10
5.2293162521
 20
3.1435874858
 30
0.0
  0
SPLINE
  5
376
100
AcDbEntity
  8
ALL_ASSEMBLY_MEMBERS
100
AcDbSpline
 62
7
  6
CONTINUOUS
 70
0
 71
3
 72
14
 73
10
 74
0
 42
0.0000001
 43
0.0000001
 44
0.0000000001
 40
0.0
 40
0.0
 40
0.0
 40
0.0
 40
0.2503193861
 40
0.3755183033
 40
0.5005761679
 40
0.6255591599
 40
0.7505406662
 40
0.8754248933
 40
1.0
 40
1.0
 40
1.0
 40
1.0
 10
5.2293162521
 20
3.1435874858
 30
0.0
 10
5.2342860256
 20
3.1449435564
 30
0.0
 10
5.2416417459
 20
3.1473746153
 30
0.0
 10
5.2511386904
 20
3.151374523
 30
0.0
 10
5.2580883986
 20
3.154750547
 30
0.0
 10
5.2648416884
 20
3.1584941095
 30
0.0
 10
5.2713784862
 20
3.1625977394
 30
0.0
 10
5.2776742076
 20
3.1670474768
 30
0.0
 10
5.2816990148
 20
3.1702394768
 30
0.0
 10
5.2836619721
 20
3.1718885258
 30
0.0
  0
SPLINE
  5
377
100
AcDbEntity
  8
ALL_ASSEMBLY_MEMBERS
100
AcDbSpline
 62
7
  6
CONTINUOUS
 70
0
 71
3
 72
24
 73
20
 74
0
 42
0.0000001
 43
0.0000001
 44
0.0000000001
 40
0.0
 40
0.0
 40
0.0
 40
0.0
 40
0.0625159525
 40
0.1251229103
 40
0.1876673421
 40
0.2501199406
 40
0.312511235
 40
0.3748493473
 40
0.4371181172
 40
0.4993139823
 40
0.5614468846
 40
0.6235468377
 40
0.6856638472
 40
0.7478834581
 40
0.8103325243
 40
0.8731430698
 40
0.9363996422
 40
0.9681862885
 40
1.0
 40
1.0
 40
1.0
 40
1.0
 10
5.0988669028
 20
3.3761900739
 30
0.0
 10
5.0955853746
 20
3.3752946642
 30
0.0
 10
5.0890780081
 20
3.3732720361
 30
0.0
 10
5.0795543404
 20
3.3695670977
 30
0.0
 10
5.0703181047
 20
3.3652009387
 30
0.0
 10
5.0614265051
 20
3.3601938269
 30
0.0
 10
5.0529270503
 20
3.3545665411
 30
0.0
 10
5.0448672722
 20
3.3483417623
 30
0.0
 10
5.0372974211
 20
3.3415450026
 30
0.0
 10
5.030270058
 20
3.3342036066
 30
0.0
 10
5.0238363108
 20
3.3263480278
 30
0.0
 10
5.018048986
 20
3.3180091834
 30
0.0
 10
5.0129637398
 20
3.3092181068
 30
0.0
 10
5.0086405106
 20
3.3000061595
 30
0.0
 10
5.0051462943
 20
3.2904070989
 30
0.0
 10
5.0025577465
 20
3.2804658602
 30
0.0
 10
5.0012245985
 20
3.2719646629
 30
0.0
 10
5.0006856772
 20
3.2650810083
 30
0.0
 10
5.0005944827
 20
3.2616197662
 30
0.0
 10
5.0005944827
 20
3.2598887799
 30
0.0
  0
SPLINE
  5
378
100
AcDbEntity
  8
ALL_ASSEMBLY_MEMBERS
100
AcDbSpline
 62
7
  6
CONTINUOUS
 70
0
 71
3
 72
14
 73
10
 74
0
 42
0.0000001
 43
0.0000001
 44
0.0000000001
 40
0.0
 40
0.0
 40
0.0
 40
0.0
 40
0.1245756403
 40
0.2494590639
 40
0.3744385931
 40
0.4994205319
 40
0.6244781569
 40
0.7496760468
 40
1.0
 40
1.0
 40
1.0
 40
1.0
 10
5.2836619721
 20
3.3478890339
 30
0.0
 10
5.2816990065
 20
3.3495380899
 30
0.0
 10
5.2776742081
 20
3.3527300917
 30
0.0
 10
5.271378532
 20
3.3571798134
 30
0.0
 10
5.2648417938
 20
3.3612833898
 30
0.0
 10
5.2580885584
 20
3.3650269109
 30
0.0
 10
5.2511388944
 20
3.3684029152
 30
0.0
 10
5.2416419053
 20
3.3724028907
 30
0.0
 10
5.2342861162
 20
3.3748339786
 30
0.0
 10
5.2293162521
 20
3.3761900739
 30
0.0
  0
SPLINE
  5
379
100
AcDbEntity
  8
ALL_ASSEMBLY_MEMBERS
100
AcDbSpline
 62
7
  6
CONTINUOUS
 70
0
 71
3
 72
13
 73
9
 74
0
 42
0.0000001
 43
0.0000001
 44
0.0000000001
 40
0.0
 40
0.0
 40
0.0
 40
0.0
 40
0.1244516229
 40
0.2494991529
 40
0.4999963381
 40
0.750498814
 40
0.8755509688
 40
1.0
 40
1.0
 40
1.0
 40
1.0
 10
5.2293162521
 20
3.3761900739
 30
0.0
 10
5.2240362065
 20
3.3776308065
 30
0.0
 10
5.2133491551
 20
3.3801610855
 30
0.0
 10
5.1916498272
 20
3.3837949775
 30
0.0
 10
5.1640918355
 20
3.385618349
 30
0.0
 10
5.1365336216
 20
3.3837950415
 30
0.0
 10
5.1148339959
 20
3.3801609914
 30
0.0
 10
5.1041468384
 20
3.3776307765
 30
0.0
 10
5.0988669028
 20
3.3761900739
 30
0.0
  0
SPLINE
  5
37A
100
AcDbEntity
  8
ALL_ASSEMBLY_MEMBERS
100
AcDbSpline
 62
7
  6
CONTINUOUS
 70
0
 71
3
 72
27
 73
23
 74
0
 42
0.0000001
 43
0.0000001
 44
0.0000000001
 40
0.0
 40
0.0
 40
0.0
 40
0.0
 40
0.0726227486
 40
0.1449387688
 40
0.2165413862
 40
0.2871308063
 40
0.4240269662
 40
0.4899500977
 40
0.5539184004
 40
0.5851436461
 40
0.6158472995
 40
0.646029034
 40
0.6756925126
 40
0.7334833577
 40
0.7893811487
 40
0.8167012202
 40
0.843642589
 40
0.8702474857
 40
0.8965632244
 40
0.9485105284
 40
0.9742860575
 40
1.0
 40
1.0
 40
1.0
 40
1.0
 10
5.3801349014
 20
3.2598887799
 30
0.0
 10
5.3801349014
 20
3.2623400245
 30
0.0
 10
5.3799649468
 20
3.2672338891
 30
0.0
 10
5.3792043793
 20
3.2745087006
 30
0.0
 10
5.3779432942
 20
3.2816453248
 30
0.0
 10
5.3756367818
 20
3.2907842669
 30
0.0
 10
5.3723891084
 20
3.2994707476
 30
0.0
 10
5.368212812
 20
3.3074582305
 30
0.0
 10
5.3652803088
 20
3.3120479175
 30
0.0
 10
5.3627473354
 20
3.3154615431
 30
0.0
 10
5.3607764209
 20
3.3178676467
 30
0.0
 10
5.3587243395
 20
3.3201344127
 30
0.0
 10
5.3559115304
 20
3.322938873
 30
0.0
 10
5.3522186142
 20
3.3260808727
 30
0.0
 10
5.3482577614
 20
3.3287412666
 30
0.0
 10
5.3449924882
 20
3.3305240873
 30
0.0
 10
5.3425184395
 20
3.3316813235
 30
0.0
 10
5.3400067727
 20
3.3326655441
 30
0.0
 10
5.3366317428
 20
3.3337385129
 30
0.0
 10
5.3331829242
 20
3.3344656378
 30
0.0
 10
5.3297084512
 20
3.3348282702
 30
0.0
 10
5.3279698186
 20
3.3348886315
 30
0.0
 10
5.3271018928
 20
3.3348886315
 30
0.0
  0
SPLINE
  5
37B
100
AcDbEntity
  8
ALL_ASSEMBLY_MEMBERS
100
AcDbSpline
 62
7
  6
CONTINUOUS
 70
0
 71
3
 72
17
 73
13
 74
0
 42
0.0000001
 43
0.0000001
 44
0.0000000001
 40
0.0
 40
0.0
 40
0.0
 40
0.0
 40
0.0676778992
 40
0.1352665324
 40
0.2694098207
 40
0.401326516
 40
0.5300800082
 40
0.5930183697
 40
0.6548658047
 40
0.7749618755
 40
0.8900321294
 40
1.0
 40
1.0
 40
1.0
 40
1.0
 10
5.3190745823
 20
3.2598887799
 30
0.0
 10
5.3190745823
 20
3.2620932879
 30
0.0
 10
5.3189735197
 20
3.2665001579
 30
0.0
 10
5.3183719802
 20
3.2752574428
 30
0.0
 10
5.3168804732
 20
3.2860401801
 30
0.0
 10
5.3139226117
 20
3.2985750639
 30
0.0
 10
5.3105024538
 20
3.3085667798
 30
0.0
 10
5.3072208172
 20
3.3161493408
 30
0.0
 10
5.3036626052
 20
3.3232918618
 30
0.0
 10
5.2986342078
 20
3.3315850145
 30
0.0
 10
5.2916730429
 20
3.3404476622
 30
0.0
 10
5.2864046938
 20
3.3455849633
 30
0.0
 10
5.28366193
 20
3.3478889313
 30
0.0
  0
SPLINE
  5
37C
100
AcDbEntity
  8
ALL_ASSEMBLY_MEMBERS
100
AcDbSpline
 62
7
  6
CONTINUOUS
 70
0
 71
3
 72
41
 73
37
 74
0
 42
0.0000001
 43
0.0000001
 44
0.0000000001
 40
0.0
 40
0.0
 40
0.0
 40
0.0
 40
0.0362980159
 40
0.0724653974
 40
0.1082764918
 40
0.1435688418
 40
0.1782076908
 40
0.2120656245
 40
0.2450277418
 40
0.2770117958
 40
0.3079668944
 40
0.3230574277
 40
0.3378892135
 40
0.366784898
 40
0.3947334711
 40
0.4218511531
 40
0.4482970769
 40
0.4742707537
 40
0.5
 40
0.5257292463
 40
0.5517029231
 40
0.5781488469
 40
0.6052665289
 40
0.633215102
 40
0.6621107865
 40
0.6769425723
 40
0.6920331056
 40
0.7229882042
 40
0.7549722582
 40
0.7879343755
 40
0.8217923092
 40
0.8564311582
 40
0.8917235082
 40
0.9275346026
 40
0.9637019841
 40
1.0
 40
1.0
 40
1.0
 40
1.0
 10
5.0020172336
 20
3.2598887799
 30
0.0
 10
5.0020172336
 20
3.258141023
 30
0.0
 10
5.0021388491
 20
3.2546506156
 30
0.0
 10
5.0026808629
 20
3.2494612608
 30
0.0
 10
5.0035804543
 20
3.2443705628
 30
0.0
 10
5.004827267
 20
3.2394293583
 30
0.0
 10
5.0064105851
 20
3.2346842281
 30
0.0
 10
5.0083141036
 20
3.230179463
 30
0.0
 10
5.0105212534
 20
3.2259585757
 30
0.0
 10
5.0130105483
 20
3.2220622653
 30
0.0
 10
5.0153206509
 20
3.219091228
 30
0.0
 10
5.0172888754
 20
3.2169174998
 30
0.0
 10
5.0192951685
 20
3.2149171724
 30
0.0
 10
5.02192915
 20
3.2126756107
 30
0.0
 10
5.02529307
 20
3.210416873
 30
0.0
 10
5.0288008395
 20
3.208633488
 30
0.0
 10
5.0324195
 20
3.2073464036
 30
0.0
 10
5.0361127593
 20
3.2065671743
 30
0.0
 10
5.0398441261
 20
3.2063074415
 30
0.0
 10
5.0435754929
 20
3.2065671743
 30
0.0
 10
5.0472687522
 20
3.2073464036
 30
0.0
 10
5.0508874127
 20
3.208633488
 30
0.0
 10
5.0543951822
 20
3.210416873
 30
0.0
 10
5.0577591022
 20
3.2126756107
 30
0.0
 10
5.0603930837
 20
3.2149171724
 30
0.0
 10
5.0623993768
 20
3.2169174998
 30
0.0
 10
5.0643676013
 20
3.219091228
 30
0.0
 10
5.0666777039
 20
3.2220622653
 30
0.0
 10
5.0691669988
 20
3.2259585757
 30
0.0
 10
5.0713741486
 20
3.230179463
 30
0.0
 10
5.0732776671
 20
3.2346842281
 30
0.0
 10
5.0748609852
 20
3.2394293583
 30
0.0
 10
5.0761077979
 20
3.2443705628
 30
0.0
 10
5.0770073893
 20
3.2494612608
 30
0.0
 10
5.0775494031
 20
3.2546506156
 30
0.0
 10
5.0776710186
 20
3.258141023
 30
0.0
 10
5.0776710186
 20
3.2598887799
 30
0.0
  0
SPLINE
  5
37D
100
AcDbEntity
  8
ALL_ASSEMBLY_MEMBERS
100
AcDbSpline
 62
7
  6
CONTINUOUS
 70
0
 71
3
 72
32
 73
28
 74
0
 42
0.0000001
 43
0.0000001
 44
0.0000000001
 40
0.0
 40
0.0
 40
0.0
 40
0.0
 40
0.026409496
 40
0.0526574592
 40
0.0788187286
 40
0.1049702549
 40
0.1311893831
 40
0.1575514909
 40
0.184129721
 40
0.210992801
 40
0.2382032401
 40
0.2658181627
 40
0.3224221117
 40
0.3515170543
 40
0.3811690061
 40
0.4421824023
 40
0.4735834332
 40
0.505569577
 40
0.5712308234
 40
0.6048882564
 40
0.6390556957
 40
0.7087758867
 40
0.7800988508
 40
0.8162591274
 40
0.8526880748
 40
0.9261486275
 40
1.0
 40
1.0
 40
1.0
 40
1.0
 10
5.1005629529
 20
3.1431502541
 30
0.0
 10
5.1020535175
 20
3.1427883914
 30
0.0
 10
5.1050537501
 20
3.1421776335
 30
0.0
 10
5.1096000779
 20
3.1416068819
 30
0.0
 10
5.1141621248
 20
3.1413865603
 30
0.0
 10
5.1187258452
 20
3.1415186723
 30
0.0
 10
5.1232775216
 20
3.142001835
 30
0.0
 10
5.1278035986
 20
3.142834141
 30
0.0
 10
5.1322903121
 20
3.1440141568
 30
0.0
 10
5.1367242006
 20
3.1455376897
 30
0.0
 10
5.1410926162
 20
3.1473995223
 30
0.0
 10
5.1468576068
 20
3.1503496744
 30
0.0
 10
5.1523967844
 20
3.1539452495
 30
0.0
 10
5.1576512307
 20
3.1581065289
 30
0.0
 10
5.1628332542
 20
3.1627519659
 30
0.0
 10
5.1676848298
 20
3.1679460584
 30
0.0
 10
5.1721758078
 20
3.1736090694
 30
0.0
 10
5.176521702
 20
3.1797192407
 30
0.0
 10
5.1804629474
 20
3.1862648197
 30
0.0
 10
5.1839879107
 20
3.1931722114
 30
0.0
 10
5.1872920471
 20
3.2004482989
 30
0.0
 10
5.1908737999
 20
3.2099878703
 30
0.0
 10
5.1936729148
 20
3.2199045838
 30
0.0
 10
5.1954530736
 20
3.2280731669
 30
0.0
 10
5.1969281911
 20
3.2364285326
 30
0.0
 10
5.1981589853
 20
3.2470402734
 30
0.0
 10
5.1984882862
 20
3.255599501
 30
0.0
 10
5.1984882862
 20
3.2598887799
 30
0.0
  0
SPLINE
  5
37E
100
AcDbEntity
  8
ALL_ASSEMBLY_MEMBERS
100
AcDbSpline
 62
7
  6
CONTINUOUS
 70
0
 71
3
 72
23
 73
19
 74
0
 42
0.0000001
 43
0.0000001
 44
0.0000000001
 40
0.0
 40
0.0
 40
0.0
 40
0.0
 40
0.0515278598
 40
0.1041511142
 40
0.1581277526
 40
0.2136548564
 40
0.2708734195
 40
0.3298601514
 40
0.390639321
 40
0.4531772489
 40
0.517397744
 40
0.5831793694
 40
0.6503672828
 40
0.7187663168
 40
0.7881639682
 40
0.858346344
 40
0.9290703232
 40
1.0
 40
1.0
 40
1.0
 40
1.0
 10
5.2293162478
 20
3.1435875173
 30
0.0
 10
5.2317003297
 20
3.1442381528
 30
0.0
 10
5.2364450596
 20
3.1458415807
 30
0.0
 10
5.2433214979
 20
3.1490746856
 30
0.0
 10
5.2499707182
 20
3.1531337549
 30
0.0
 10
5.2563439318
 20
3.1579843987
 30
0.0
 10
5.2623933339
 20
3.163591569
 30
0.0
 10
5.2680768065
 20
3.1699108922
 30
0.0
 10
5.2733511237
 20
3.1768967712
 30
0.0
 10
5.2781802279
 20
3.1844956418
 30
0.0
 10
5.2825268189
 20
3.1926525463
 30
0.0
 10
5.2863614613
 20
3.2013061218
 30
0.0
 10
5.2896536994
 20
3.2103931699
 30
0.0
 10
5.292382139
 20
3.2198453367
 30
0.0
 10
5.2945245907
 20
3.2295940775
 30
0.0
 10
5.2960670004
 20
3.2395683059
 30
0.0
 10
5.2969955041
 20
3.2496915165
 30
0.0
 10
5.2972032386
 20
3.2564870017
 30
0.0
 10
5.2972032386
 20
3.2598887799
 30
0.0
  0
SPLINE
  5
37F
100
AcDbEntity
  8
ALL_ASSEMBLY_MEMBERS
100
AcDbSpline
 62
7
  6
CONTINUOUS
 70
0
 71
3
 72
17
 73
13
 74
0
 42
0.0000001
 43
0.0000001
 44
0.0000000001
 40
0.0
 40
0.0
 40
0.0
 40
0.0
 40
0.1099678376
 40
0.2250380518
 40
0.3451340548
 40
0.4069814476
 40
0.4699197686
 40
0.5986731946
 40
0.7305898415
 40
0.8647333184
 40
0.9323220609
 40
1.0
 40
1.0
 40
1.0
 40
1.0
 10
5.2836619324
 20
3.1718886302
 30
0.0
 10
5.2864046953
 20
3.1741925975
 30
0.0
 10
5.2916730425
 20
3.179329897
 30
0.0
 10
5.2986342054
 20
3.18819254
 30
0.0
 10
5.3036626013
 20
3.1964856877
 30
0.0
 10
5.3072208114
 20
3.203628204
 30
0.0
 10
5.3105024468
 20
3.21121076
 30
0.0
 10
5.3139226111
 20
3.221202468
 30
0.0
 10
5.3168804725
 20
3.2337373545
 30
0.0
 10
5.3183719738
 20
3.2445201005
 30
0.0
 10
5.3189735178
 20
3.2532773958
 30
0.0
 10
5.3190745823
 20
3.2576842706
 30
0.0
 10
5.3190745823
 20
3.2598887799
 30
0.0
  0
SPLINE
  5
380
100
AcDbEntity
  8
ALL_ASSEMBLY_MEMBERS
100
AcDbSpline
 62
7
  6
CONTINUOUS
 70
0
 71
3
 72
27
 73
23
 74
0
 42
0.0000001
 43
0.0000001
 44
0.0000000001
 40
0.0
 40
0.0
 40
0.0
 40
0.0
 40
0.0257139422
 40
0.05148947
 40
0.103436769
 40
0.1297525051
 40
0.1563573995
 40
0.1832987654
 40
0.2106188327
 40
0.266516608
 40
0.3243074348
 40
0.3539709058
 40
0.3841526317
 40
0.4148562748
 40
0.4460815067
 40
0.5100497725
 40
0.5759728735
 40
0.7128689472
 40
0.7834583337
 40
0.8550610163
 40
0.9273771858
 40
1.0
 40
1.0
 40
1.0
 40
1.0
 10
5.3271018928
 20
3.1848889282
 30
0.0
 10
5.3279698186
 20
3.1848889282
 30
0.0
 10
5.3297084511
 20
3.1849492895
 30
0.0
 10
5.3331829239
 20
3.1853119218
 30
0.0
 10
5.3366317422
 20
3.1860390466
 30
0.0
 10
5.3400067719
 20
3.1871120153
 30
0.0
 10
5.3425184384
 20
3.1880962358
 30
0.0
 10
5.3449924869
 20
3.1892534717
 30
0.0
 10
5.3482577594
 20
3.1910362919
 30
0.0
 10
5.3522186115
 20
3.1936966847
 30
0.0
 10
5.3559115266
 20
3.1968386834
 30
0.0
 10
5.3587243351
 20
3.1996431427
 30
0.0
 10
5.3607764164
 20
3.2019099077
 30
0.0
 10
5.3627473304
 20
3.2043160102
 30
0.0
 10
5.3652803029
 20
3.2077296339
 30
0.0
 10
5.3682128059
 20
3.2123193178
 30
0.0
 10
5.3723891003
 20
3.2203067958
 30
0.0
 10
5.3756367755
 20
3.2289932704
 30
0.0
 10
5.3779432885
 20
3.2381322104
 30
0.0
 10
5.3792043776
 20
3.2452688402
 30
0.0
 10
5.3799649449
 20
3.2525436613
 30
0.0
 10
5.3801349014
 20
3.257437533
 30
0.0
 10
5.3801349014
 20
3.2598887799
 30
0.0
  0
SPLINE
  5
381
100
AcDbEntity
  8
ALL_ASSEMBLY_MEMBERS
100
AcDbSpline
 62
7
  6
CONTINUOUS
 70
0
 71
3
 72
41
 73
37
 74
0
 42
0.0000001
 43
0.0000001
 44
0.0000000001
 40
0.0
 40
0.0
 40
0.0
 40
0.0
 40
0.0362980159
 40
0.0724653974
 40
0.1082764918
 40
0.1435688418
 40
0.1782076908
 40
0.2120656245
 40
0.2450277418
 40
0.2770117958
 40
0.3079668944
 40
0.3230574277
 40
0.3378892135
 40
0.366784898
 40
0.3947334711
 40
0.4218511531
 40
0.4482970769
 40
0.4742707537
 40
0.5
 40
0.5257292463
 40
0.5517029231
 40
0.5781488469
 40
0.6052665289
 40
0.633215102
 40
0.6621107865
 40
0.6769425723
 40
0.6920331056
 40
0.7229882042
 40
0.7549722582
 40
0.7879343755
 40
0.8217923092
 40
0.8564311582
 40
0.8917235082
 40
0.9275346026
 40
0.9637019841
 40
1.0
 40
1.0
 40
1.0
 40
1.0
 10
5.0020172336
 20
3.2598887799
 30
0.0
 10
5.0020172336
 20
3.2616365367
 30
0.0
 10
5.0021388491
 20
3.2651269442
 30
0.0
 10
5.0026808629
 20
3.2703162989
 30
0.0
 10
5.0035804543
 20
3.2754069969
 30
0.0
 10
5.004827267
 20
3.2803482014
 30
0.0
 10
5.0064105851
 20
3.2850933317
 30
0.0
 10
5.0083141036
 20
3.2895980968
 30
0.0
 10
5.0105212534
 20
3.293818984
 30
0.0
 10
5.0130105483
 20
3.2977152945
 30
0.0
 10
5.0153206509
 20
3.3006863317
 30
0.0
 10
5.0172888754
 20
3.3028600599
 30
0.0
 10
5.0192951685
 20
3.3048603874
 30
0.0
 10
5.02192915
 20
3.307101949
 30
0.0
 10
5.02529307
 20
3.3093606867
 30
0.0
 10
5.0288008395
 20
3.3111440717
 30
0.0
 10
5.0324195
 20
3.3124311561
 30
0.0
 10
5.0361127593
 20
3.3132103854
 30
0.0
 10
5.0398441261
 20
3.3134701182
 30
0.0
 10
5.0435754929
 20
3.3132103854
 30
0.0
 10
5.0472687522
 20
3.3124311561
 30
0.0
 10
5.0508874127
 20
3.3111440717
 30
0.0
 10
5.0543951822
 20
3.3093606867
 30
0.0
 10
5.0577591022
 20
3.307101949
 30
0.0
 10
5.0603930837
 20
3.3048603874
 30
0.0
 10
5.0623993768
 20
3.3028600599
 30
0.0
 10
5.0643676013
 20
3.3006863317
 30
0.0
 10
5.0666777039
 20
3.2977152945
 30
0.0
 10
5.0691669988
 20
3.293818984
 30
0.0
 10
5.0713741486
 20
3.2895980968
 30
0.0
 10
5.0732776671
 20
3.2850933317
 30
0.0
 10
5.0748609852
 20
3.2803482014
 30
0.0
 10
5.0761077979
 20
3.2754069969
 30
0.0
 10
5.0770073893
 20
3.2703162989
 30
0.0
 10
5.0775494031
 20
3.2651269442
 30
0.0
 10
5.0776710186
 20
3.2616365367
 30
0.0
 10
5.0776710186
 20
3.2598887799
 30
0.0
  0
SPLINE
  5
382
100
AcDbEntity
  8
ALL_ASSEMBLY_MEMBERS
100
AcDbSpline
 62
7
  6
CONTINUOUS
 70
0
 71
3
 72
32
 73
28
 74
0
 42
0.0000001
 43
0.0000001
 44
0.0000000001
 40
0.0
 40
0.0
 40
0.0
 40
0.0
 40
0.026408431
 40
0.052655586
 40
0.078816294
 40
0.104967494
 40
0.1311865103
 40
0.1575486973
 40
0.1841271741
 40
0.2109906368
 40
0.2382015658
 40
0.2658170596
 40
0.3224222818
 40
0.3515178689
 40
0.3811704417
 40
0.4421849456
 40
0.4735864283
 40
0.5055729411
 40
0.5712346656
 40
0.6048921931
 40
0.6390596328
 40
0.7087795561
 40
0.7801019186
 40
0.8162617905
 40
0.8526902776
 40
0.9261497815
 40
1.0
 40
1.0
 40
1.0
 40
1.0
 10
5.1005778739
 20
3.376630926
 30
0.0
 10
5.1020683373
 20
3.3769923711
 30
0.0
 10
5.1050683493
 20
3.3776023123
 30
0.0
 10
5.1096142738
 20
3.3781718973
 30
0.0
 10
5.1141758717
 20
3.3783911189
 30
0.0
 10
5.118739101
 20
3.3782579783
 30
0.0
 10
5.1232902492
 20
3.3777738669
 30
0.0
 10
5.1278157654
 20
3.3769406891
 30
0.0
 10
5.1323018891
 20
3.3757598798
 30
0.0
 10
5.1367351652
 20
3.3742356393
 30
0.0
 10
5.1411029499
 20
3.372373182
 30
0.0
 10
5.1468670758
 20
3.3694222971
 30
0.0
 10
5.1524053693
 20
3.3658261763
 30
0.0
 10
5.1576589437
 20
3.3616645106
 30
0.0
 10
5.1628400799
 20
3.3570187971
 30
0.0
 10
5.1676907968
 20
3.3518245931
 30
0.0
 10
5.1721809627
 20
3.3461616082
 30
0.0
 10
5.1765260467
 20
3.3400515791
 30
0.0
 10
5.1804665428
 20
3.333506275
 30
0.0
 10
5.1839908293
 20
3.3265992676
 30
0.0
 10
5.1872943139
 20
3.3193236684
 30
0.0
 10
5.19087535
 20
3.3097848437
 30
0.0
 10
5.1936739026
 20
3.2998689938
 30
0.0
 10
5.1954536993
 20
3.2917011726
 30
0.0
 10
5.1969285133
 20
3.283346625
 30
0.0
 10
5.1981590531
 20
3.2727359596
 30
0.0
 10
5.1984882862
 20
3.2641776142
 30
0.0
 10
5.1984882862
 20
3.2598887799
 30
0.0
  0
SPLINE
  5
383
100
AcDbEntity
  8
ALL_ASSEMBLY_MEMBERS
100
AcDbSpline
 62
7
  6
CONTINUOUS
 70
0
 71
3
 72
23
 73
19
 74
0
 42
0.0000001
 43
0.0000001
 44
0.0000000001
 40
0.0
 40
0.0
 40
0.0
 40
0.0
 40
0.0515278598
 40
0.1041511142
 40
0.1581277526
 40
0.2136548564
 40
0.2708734195
 40
0.3298601514
 40
0.390639321
 40
0.4531772489
 40
0.517397744
 40
0.5831793694
 40
0.6503672828
 40
0.7187663168
 40
0.7881639682
 40
0.858346344
 40
0.9290703232
 40
1.0
 40
1.0
 40
1.0
 40
1.0
 10
5.2293162478
 20
3.3761900424
 30
0.0
 10
5.2317003297
 20
3.3755394069
 30
0.0
 10
5.2364450596
 20
3.373935979
 30
0.0
 10
5.2433214979
 20
3.3707028742
 30
0.0
 10
5.2499707182
 20
3.3666438049
 30
0.0
 10
5.2563439318
 20
3.361793161
 30
0.0
 10
5.2623933339
 20
3.3561859908
 30
0.0
 10
5.2680768065
 20
3.3498666675
 30
0.0
 10
5.2733511237
 20
3.3428807885
 30
0.0
 10
5.2781802279
 20
3.335281918
 30
0.0
 10
5.2825268189
 20
3.3271250134
 30
0.0
 10
5.2863614613
 20
3.3184714379
 30
0.0
 10
5.2896536994
 20
3.3093843898
 30
0.0
 10
5.292382139
 20
3.2999322231
 30
0.0
 10
5.2945245907
 20
3.2901834822
 30
0.0
 10
5.2960670004
 20
3.2802092538
 30
0.0
 10
5.2969955041
 20
3.2700860432
 30
0.0
 10
5.2972032386
 20
3.263290558
 30
0.0
 10
5.2972032386
 20
3.2598887799
 30
0.0
  0
SPLINE
  5
384
100
AcDbEntity
  8
ALL_ASSEMBLY_MEMBERS
100
AcDbSpline
 62
7
  6
CONTINUOUS
 70
0
 71
3
 72
9
 73
5
 74
0
 42
0.0000001
 43
0.0000001
 44
0.0000000001
 40
0.0
 40
0.0
 40
0.0
 40
0.0
 40
0.4852364211
 40
1.0
 40
1.0
 40
1.0
 40
1.0
 10
5.7517184655
 20
3.1816387799
 30
0.0
 10
5.7488442324
 20
3.1816387799
 30
0.0
 10
5.7429094824
 20
3.1822967104
 30
0.0
 10
5.7372226568
 20
3.1840745232
 30
0.0
 10
5.7343965879
 20
3.1852193148
 30
0.0
  0
SPLINE
  5
385
100
AcDbEntity
  8
ALL_ASSEMBLY_MEMBERS
100
AcDbSpline
 62
7
  6
CONTINUOUS
 70
0
 71
3
 72
33
 73
29
 74
0
 42
0.0000001
 43
0.0000001
 44
0.0000000001
 40
0.0
 40
0.0
 40
0.0
 40
0.0
 40
0.054799824
 40
0.0834165341
 40
0.112766559
 40
0.17339088
 40
0.2362086206
 40
0.268301544
 40
0.3007550323
 40
0.3335134577
 40
0.3665199731
 40
0.3997214299
 40
0.4330686334
 40
0.4665101931
 40
0.499999882
 40
0.5334895751
 40
0.56693116
 40
0.6002783957
 40
0.633479875
 40
0.6664864196
 40
0.6992448783
 40
0.7316984194
 40
0.7637914
 40
0.8266092015
 40
0.8872334874
 40
0.9165834839
 40
0.9452001802
 40
1.0
 40
1.0
 40
1.0
 40
1.0
 10
5.7342223362
 20
3.1852902448
 30
0.0
 10
5.7310789311
 20
3.1865759809
 30
0.0
 10
5.7264637888
 20
3.1889747787
 30
0.0
 10
5.7206772387
 20
3.1929005982
 30
0.0
 10
5.7149201651
 20
3.1974801685
 30
0.0
 10
5.7081814882
 20
3.2041813073
 30
0.0
 10
5.7023408948
 20
3.211890935
 30
0.0
 10
5.6982480455
 20
3.2186464209
 30
0.0
 10
5.6954886402
 20
3.2240143388
 30
0.0
 10
5.6930945581
 20
3.2296163351
 30
0.0
 10
5.6910913333
 20
3.2354189881
 30
0.0
 10
5.6895050509
 20
3.2413871745
 30
0.0
 10
5.6883567492
 20
3.2474824053
 30
0.0
 10
5.6876598797
 20
3.2536637262
 30
0.0
 10
5.6874280336
 20
3.2598887501
 30
0.0
 10
5.6876598728
 20
3.2661137761
 30
0.0
 10
5.6883567452
 20
3.2722951003
 30
0.0
 10
5.6895050366
 20
3.2783903382
 30
0.0
 10
5.6910913232
 20
3.2843585289
 30
0.0
 10
5.6930945425
 20
3.2901611893
 30
0.0
 10
5.6954886272
 20
3.2957631924
 30
0.0
 10
5.6982480355
 20
3.3011311187
 30
0.0
 10
5.7023408871
 20
3.3078866156
 30
0.0
 10
5.7081814843
 20
3.3155962469
 30
0.0
 10
5.7149201595
 20
3.3222973872
 30
0.0
 10
5.7206772296
 20
3.3268769543
 30
0.0
 10
5.7264637763
 20
3.3308027735
 30
0.0
 10
5.731078917
 20
3.3332015718
 30
0.0
 10
5.7342223215
 20
3.3344873091
 30
0.0
  0
SPLINE
  5
386
100
AcDbEntity
  8
ALL_ASSEMBLY_MEMBERS
100
AcDbSpline
 62
7
  6
CONTINUOUS
 70
0
 71
3
 72
9
 73
5
 74
0
 42
0.0000001
 43
0.0000001
 44
0.0000000001
 40
0.0
 40
0.0
 40
0.0
 40
0.0
 40
0.5147674131
 40
1.0
 40
1.0
 40
1.0
 40
1.0
 10
5.7343922409
 20
3.334556484
 30
0.0
 10
5.7372189769
 20
3.3357018242
 30
0.0
 10
5.7429071859
 20
3.3374805057
 30
0.0
 10
5.7488434997
 20
3.3381387799
 30
0.0
 10
5.7517184655
 20
3.3381387799
 30
0.0
  0
SPLINE
  5
387
100
AcDbEntity
  8
ALL_ASSEMBLY_MEMBERS
100
AcDbSpline
 62
7
  6
CONTINUOUS
 70
0
 71
3
 72
9
 73
5
 74
0
 42
0.0000001
 43
0.0000001
 44
0.0000000001
 40
0.0
 40
0.0
 40
0.0
 40
0.0
 40
0.4851930789
 40
1.0
 40
1.0
 40
1.0
 40
1.0
 10
5.3981650749
 20
3.3381387799
 30
0.0
 10
5.4010477019
 20
3.3381387799
 30
0.0
 10
5.4070003583
 20
3.3374769038
 30
0.0
 10
5.4127030244
 20
3.3356891375
 30
0.0
 10
5.415536725
 20
3.3345380586
 30
0.0
  0
SPLINE
  5
388
100
AcDbEntity
  8
ALL_ASSEMBLY_MEMBERS
100
AcDbSpline
 62
7
  6
CONTINUOUS
 70
0
 71
3
 72
32
 73
28
 74
0
 42
0.0000001
 43
0.0000001
 44
0.0000000001
 40
0.0
 40
0.0
 40
0.0
 40
0.0
 40
0.0536401712
 40
0.0814628852
 40
0.1099051038
 40
0.1684731716
 40
0.1985430581
 40
0.2290702663
 40
0.2912967008
 40
0.3548401964
 40
0.3870196017
 40
0.4194117416
 40
0.4519794895
 40
0.4846906635
 40
0.5503728193
 40
0.5833088581
 40
0.6162551715
 40
0.6491784178
 40
0.6820472773
 40
0.7148294273
 40
0.747489026
 40
0.7799930292
 40
0.8123077132
 40
0.8443946749
 40
0.8762173127
 40
0.9388837959
 40
1.0
 40
1.0
 40
1.0
 40
1.0
 10
5.4156614245
 20
3.3344872284
 30
0.0
 10
5.4182541039
 20
3.3334267368
 30
0.0
 10
5.4220756647
 20
3.331516582
 30
0.0
 10
5.4269332928
 20
3.3284550753
 30
0.0
 10
5.4317939952
 20
3.3249367088
 30
0.0
 10
5.4364018598
 20
3.3208911096
 30
0.0
 10
5.4407020371
 20
3.3163892011
 30
0.0
 10
5.4448563351
 20
3.3114979135
 30
0.0
 10
5.449589291
 20
3.3048246288
 30
0.0
 10
5.4535641573
 20
3.2975745455
 30
0.0
 10
5.4562567205
 20
3.2914463246
 30
0.0
 10
5.4580200457
 20
3.2866866218
 30
0.0
 10
5.4595045073
 20
3.2818034424
 30
0.0
 10
5.4610935828
 20
3.2751483943
 30
0.0
 10
5.4620737248
 20
3.2683395595
 30
0.0
 10
5.4624162525
 20
3.2614742253
 30
0.0
 10
5.4623548449
 20
3.2563112955
 30
0.0
 10
5.4619740349
 20
3.2511658085
 30
0.0
 10
5.461276253
 20
3.2460623041
 30
0.0
 10
5.4602709599
 20
3.2410245001
 30
0.0
 10
5.4589655262
 20
3.2360757351
 30
0.0
 10
5.457371639
 20
3.2312380108
 30
0.0
 10
5.4555045262
 20
3.2265313112
 30
0.0
 10
5.4533777157
 20
3.2219752623
 30
0.0
 10
5.4502354411
 20
3.2161563068
 30
0.0
 10
5.4457619276
 20
3.2093501764
 30
0.0
 10
5.4416028112
 20
3.2043798509
 30
0.0
 10
5.4394130586
 20
3.2020579417
 30
0.0
  0
SPLINE
  5
389
100
AcDbEntity
  8
ALL_ASSEMBLY_MEMBERS
100
AcDbSpline
 62
7
  6
CONTINUOUS
 70
0
 71
3
 72
11
 73
7
 74
0
 42
0.0000001
 43
0.0000001
 44
0.0000000001
 40
0.0
 40
0.0
 40
0.0
 40
0.0
 40
0.2627163374
 40
0.5175236725
 40
0.7635175246
 40
1.0
 40
1.0
 40
1.0
 40
1.0
 10
5.4391176414
 20
3.2017463693
 30
0.0
 10
5.4373744729
 20
3.1999177035
 30
0.0
 10
5.4337680109
 20
3.1964749785
 30
0.0
 10
5.4279740693
 20
3.1919452863
 30
0.0
 10
5.4219562181
 20
3.1881723511
 30
0.0
 10
5.4177662683
 20
3.1861512826
 30
0.0
 10
5.4156614246
 20
3.1852903322
 30
0.0
  0
SPLINE
  5
38A
100
AcDbEntity
  8
ALL_ASSEMBLY_MEMBERS
100
AcDbSpline
 62
7
  6
CONTINUOUS
 70
0
 71
3
 72
9
 73
5
 74
0
 42
0.0000001
 43
0.0000001
 44
0.0000000001
 40
0.0
 40
0.0
 40
0.0
 40
0.0
 40
0.5148095728
 40
1.0
 40
1.0
 40
1.0
 40
1.0
 10
5.4155394148
 20
3.1852405946
 30
0.0
 10
5.4127052999
 20
3.1840891752
 30
0.0
 10
5.4070017787
 20
3.1823008669
 30
0.0
 10
5.4010481538
 20
3.1816387799
 30
0.0
 10
5.3981650749
 20
3.1816387799
 30
0.0
  0
SPLINE
  5
38B
100
AcDbEntity
  8
ALL_ASSEMBLY_MEMBERS
100
AcDbSpline
 62
7
  6
CONTINUOUS
 70
0
 71
3
 72
11
 73
7
 74
0
 42
0.0000001
 43
0.0000001
 44
0.0000000001
 40
0.0
 40
0.0
 40
0.0
 40
0.0
 40
0.2548290235
 40
0.5054956217
 40
0.7533191459
 40
1.0
 40
1.0
 40
1.0
 40
1.0
 10
5.3981650749
 20
3.1816387799
 30
0.0
 10
5.3968517757
 20
3.1816387799
 30
0.0
 10
5.39424447
 20
3.1817711342
 30
0.0
 10
5.3904024272
 20
3.1823774904
 30
0.0
 10
5.3866895094
 20
3.1833875785
 30
0.0
 10
5.3843137212
 20
3.1843264155
 30
0.0
 10
5.3831585929
 20
3.1848573566
 30
0.0
  0
SPLINE
  5
38C
100
AcDbEntity
  8
ALL_ASSEMBLY_MEMBERS
100
AcDbSpline
 62
7
  6
CONTINUOUS
 70
0
 71
3
 72
11
 73
7
 74
0
 42
0.0000001
 43
0.0000001
 44
0.0000000001
 40
0.0
 40
0.0
 40
0.0
 40
0.0
 40
0.2466809444
 40
0.4945046178
 40
0.7451711829
 40
1.0
 40
1.0
 40
1.0
 40
1.0
 10
5.3831591157
 20
3.3349204419
 30
0.0
 10
5.3843142102
 20
3.3354513445
 30
0.0
 10
5.3866899242
 20
3.3363901133
 30
0.0
 10
5.3904027151
 20
3.3374001257
 30
0.0
 10
5.394244618
 20
3.3380064358
 30
0.0
 10
5.3968518255
 20
3.3381387799
 30
0.0
 10
5.3981650749
 20
3.3381387799
 30
0.0
  0
SPLINE
  5
38D
100
AcDbEntity
  8
ALL_ASSEMBLY_MEMBERS
100
AcDbSpline
 62
7
  6
CONTINUOUS
 70
0
 71
3
 72
11
 73
7
 74
0
 42
0.0000001
 43
0.0000001
 44
0.0000000001
 40
0.0
 40
0.0
 40
0.0
 40
0.0
 40
0.2548300601
 40
0.5054956978
 40
0.7533177066
 40
1.0
 40
1.0
 40
1.0
 40
1.0
 10
5.7517184655
 20
3.3381387799
 30
0.0
 10
5.7530318068
 20
3.3381387799
 30
0.0
 10
5.7556391861
 20
3.3380064266
 30
0.0
 10
5.7594813303
 20
3.3374000483
 30
0.0
 10
5.7631943311
 20
3.3363898725
 30
0.0
 10
5.7655701764
 20
3.3354509879
 30
0.0
 10
5.7667253384
 20
3.334920017
 30
0.0
  0
SPLINE
  5
38E
100
AcDbEntity
  8
ALL_ASSEMBLY_MEMBERS
100
AcDbSpline
 62
7
  6
CONTINUOUS
 70
0
 71
3
 72
11
 73
7
 74
0
 42
0.0000001
 43
0.0000001
 44
0.0000000001
 40
0.0
 40
0.0
 40
0.0
 40
0.0
 40
0.2466821702
 40
0.4945043457
 40
0.745170071
 40
1.0
 40
1.0
 40
1.0
 40
1.0
 10
5.7667251128
 20
3.1848574387
 30
0.0
 10
5.7655699662
 20
3.1843264846
 30
0.0
 10
5.7631941533
 20
3.1833876295
 30
0.0
 10
5.7594812064
 20
3.182377489
 30
0.0
 10
5.7556391222
 20
3.1817711295
 30
0.0
 10
5.7530317851
 20
3.1816387799
 30
0.0
 10
5.7517184655
 20
3.1816387799
 30
0.0
  0
SPLINE
  5
38F
100
AcDbEntity
  8
0
100
AcDbSpline
 62
7
  6
CONTINUOUS
 70
0
 71
3
 72
19
 73
15
 74
0
 42
0.0000001
 43
0.0000001
 44
0.0000000001
 40
0.0
 40
0.0
 40
0.0
 40
0.0
 40
0.1249158798
 40
0.1874766357
 40
0.2500078059
 40
0.3749226349
 40
0.4998388355
 40
0.5623760549
 40
0.624922107
 40
0.6874570601
 40
0.7499641082
 40
0.8124888753
 40
0.8750775682
 40
1.0
 40
1.0
 40
1.0
 40
1.0
 10
5.5849412548
 20
4.7371686736
 30
0.0
 10
5.5849412548
 20
4.7378223625
 30
0.0
 10
5.5848441405
 20
4.7388069549
 30
0.0
 10
5.5845257202
 20
4.7400774641
 30
0.0
 10
5.5840842628
 20
4.7413110717
 30
0.0
 10
5.5833084006
 20
4.7427624778
 30
0.0
 10
5.5822636248
 20
4.7440342303
 30
0.0
 10
5.5812927113
 20
4.7449136923
 30
0.0
 10
5.5805026545
 20
4.7454993408
 30
0.0
 10
5.5796591984
 20
4.7460046688
 30
0.0
 10
5.5787698408
 20
4.7464236904
 30
0.0
 10
5.5778433004
 20
4.7467535454
 30
0.0
 10
5.5765735931
 20
4.7470741701
 30
0.0
 10
5.5755892601
 20
4.7471783944
 30
0.0
 10
5.5749355369
 20
4.7471783944
 30
0.0
  0
SPLINE
  5
390
100
AcDbEntity
  8
0
100
AcDbSpline
 62
7
  6
CONTINUOUS
 70
0
 71
3
 72
19
 73
15
 74
0
 42
0.0000001
 43
0.0000001
 44
0.0000000001
 40
0.0
 40
0.0
 40
0.0
 40
0.0
 40
0.1249852322
 40
0.1876498082
 40
0.2502234468
 40
0.3127340834
 40
0.3752485557
 40
0.4377807889
 40
0.5003042382
 40
0.6251763742
 40
0.750059398
 40
0.8125725634
 40
0.8751106733
 40
1.0
 40
1.0
 40
1.0
 40
1.0
 10
5.5749355369
 20
4.7471783944
 30
0.0
 10
5.5742819927
 20
4.7471783944
 30
0.0
 10
5.5732975462
 20
4.7470742224
 30
0.0
 10
5.5720285691
 20
4.7467506447
 30
0.0
 10
5.5711029453
 20
4.7464185972
 30
0.0
 10
5.5702145452
 20
4.7459990267
 30
0.0
 10
5.5693722099
 20
4.7454936059
 30
0.0
 10
5.5685835699
 20
4.7449077453
 30
0.0
 10
5.5676144607
 20
4.7440283758
 30
0.0
 10
5.5665717535
 20
4.742757217
 30
0.0
 10
5.5657975006
 20
4.7413069851
 30
0.0
 10
5.5653569855
 20
4.7400745302
 30
0.0
 10
5.5650391494
 20
4.7388052883
 30
0.0
 10
5.5649422855
 20
4.7378217163
 30
0.0
 10
5.5649422855
 20
4.7371686736
 30
0.0
  0
SPLINE
  5
391
100
AcDbEntity
  8
0
100
AcDbSpline
 62
7
  6
CONTINUOUS
 70
0
 71
3
 72
19
 73
15
 74
0
 42
0.0000001
 43
0.0000001
 44
0.0000000001
 40
0.0
 40
0.0
 40
0.0
 40
0.0
 40
0.1248897374
 40
0.1874284864
 40
0.2499423405
 40
0.3748263175
 40
0.4996987803
 40
0.5622219563
 40
0.6247539668
 40
0.6872683074
 40
0.7497784126
 40
0.8123512284
 40
0.8750150897
 40
1.0
 40
1.0
 40
1.0
 40
1.0
 10
5.5649422855
 20
4.6571686736
 30
0.0
 10
5.5649422855
 20
4.6565156264
 30
0.0
 10
5.565039151
 20
4.6555320454
 30
0.0
 10
5.5653569934
 20
4.654262791
 30
0.0
 10
5.5657975177
 20
4.6530303217
 30
0.0
 10
5.5665717873
 20
4.6515800801
 30
0.0
 10
5.56761451
 20
4.6503089198
 30
0.0
 10
5.568583628
 20
4.6494295544
 30
0.0
 10
5.5693722734
 20
4.6488437012
 30
0.0
 10
5.5702146066
 20
4.6483382795
 30
0.0
 10
5.5711030068
 20
4.6479187181
 30
0.0
 10
5.5720286299
 20
4.6475866905
 30
0.0
 10
5.5732976057
 20
4.6472631306
 30
0.0
 10
5.5742820491
 20
4.6471589557
 30
0.0
 10
5.5749355939
 20
4.6471589557
 30
0.0
  0
SPLINE
  5
392
100
AcDbEntity
  8
0
100
AcDbSpline
 62
7
  6
CONTINUOUS
 70
0
 71
3
 72
19
 73
15
 74
0
 42
0.0000001
 43
0.0000001
 44
0.0000000001
 40
0.0
 40
0.0
 40
0.0
 40
0.0
 40
0.1249225465
 40
0.1875115499
 40
0.2500366903
 40
0.3125439719
 40
0.3750791332
 40
0.4376254688
 40
0.5001629066
 40
0.625079081
 40
0.7499938268
 40
0.8125248195
 40
0.8750850005
 40
1.0
 40
1.0
 40
1.0
 40
1.0
 10
5.5749355939
 20
4.6471589557
 30
0.0
 10
5.5755893153
 20
4.6471589557
 30
0.0
 10
5.5765736477
 20
4.6472631795
 30
0.0
 10
5.5778433514
 20
4.6475838176
 30
0.0
 10
5.5787698893
 20
4.6479136825
 30
0.0
 10
5.5796592474
 20
4.6483327045
 30
0.0
 10
5.5805027013
 20
4.648838037
 30
0.0
 10
5.5812927556
 20
4.6494236891
 30
0.0
 10
5.5822636604
 20
4.6503031574
 30
0.0
 10
5.5833084287
 20
4.6515749087
 30
0.0
 10
5.5840842797
 20
4.6530263128
 30
0.0
 10
5.5845257275
 20
4.6542599139
 30
0.0
 10
5.584844146
 20
4.6555304098
 30
0.0
 10
5.5849412548
 20
4.6565149916
 30
0.0
 10
5.5849412548
 20
4.6571686736
 30
0.0
  0
SPLINE
  5
393
100
AcDbEntity
  8
ALL_ASSEMBLY_MEMBERS
100
AcDbSpline
 62
7
  6
CONTINUOUS
 70
0
 71
3
 72
23
 73
19
 74
0
 42
0.0000001
 43
0.0000001
 44
0.0000000001
 40
0.0
 40
0.0
 40
0.0
 40
0.0
 40
0.0625896051
 40
0.1251105549
 40
0.1875529431
 40
0.2499536192
 40
0.312371529
 40
0.3748505889
 40
0.4374004402
 40
0.4999979437
 40
0.5625956039
 40
0.6251456092
 40
0.6876247296
 40
0.7500420843
 40
0.8124423434
 40
0.8748846849
 40
0.9374075992
 40
1.0
 40
1.0
 40
1.0
 40
1.0
 10
5.5749417702
 20
4.1443887799
 30
0.0
 10
5.5804467025
 20
4.1443887799
 30
0.0
 10
5.591489362
 20
4.1431501172
 30
0.0
 10
5.6071975727
 20
4.1377204363
 30
0.0
 10
5.6213871067
 20
4.1291051774
 30
0.0
 10
5.6335295606
 20
4.1178187716
 30
0.0
 10
5.6432737509
 20
4.1044145484
 30
0.0
 10
5.6503837025
 20
4.08943888
 30
0.0
 10
5.6547078471
 20
4.0734232254
 30
0.0
 10
5.656158879
 20
4.0568893148
 30
0.0
 10
5.6547080352
 20
4.0403553738
 30
0.0
 10
5.6503840612
 20
4.0243396383
 30
0.0
 10
5.643274285
 20
4.0093639215
 30
0.0
 10
5.6335303172
 20
3.9959596363
 30
0.0
 10
5.6213880779
 20
3.9846731415
 30
0.0
 10
5.6071985928
 20
3.9760575375
 30
0.0
 10
5.5914900197
 20
3.9706276099
 30
0.0
 10
5.5804469484
 20
3.9693887799
 30
0.0
 10
5.5749417702
 20
3.9693887799
 30
0.0
  0
SPLINE
  5
394
100
AcDbEntity
  8
ALL_ASSEMBLY_MEMBERS
100
AcDbSpline
 62
7
  6
CONTINUOUS
 70
0
 71
3
 72
23
 73
19
 74
0
 42
0.0000001
 43
0.0000001
 44
0.0000000001
 40
0.0
 40
0.0
 40
0.0
 40
0.0
 40
0.0625893598
 40
0.125110194
 40
0.187552642
 40
0.249953392
 40
0.3123713752
 40
0.3748504743
 40
0.437400375
 40
0.4999979289
 40
0.5625956395
 40
0.6251456932
 40
0.687624854
 40
0.7500422825
 40
0.8124426153
 40
0.874885017
 40
0.937407823
 40
1.0
 40
1.0
 40
1.0
 40
1.0
 10
5.5749417702
 20
3.9693887799
 30
0.0
 10
5.5694368594
 20
3.9693887799
 30
0.0
 10
5.5583942311
 20
3.9706274288
 30
0.0
 10
5.5426860429
 20
3.9760570924
 30
0.0
 10
5.5284964957
 20
3.9846723325
 30
0.0
 10
5.5163540197
 20
3.9959587424
 30
0.0
 10
5.506609811
 20
4.0093629729
 30
0.0
 10
5.4994998477
 20
4.0243386518
 30
0.0
 10
5.4951756955
 20
4.0403543172
 30
0.0
 10
5.4937246606
 20
4.0568882411
 30
0.0
 10
5.495175506
 20
4.0734221954
 30
0.0
 10
5.4994994861
 20
4.0894379421
 30
0.0
 10
5.506609273
 20
4.1044136701
 30
0.0
 10
5.5163532579
 20
4.1178179636
 30
0.0
 10
5.5284955184
 20
4.1291044635
 30
0.0
 10
5.5426850163
 20
4.1377200505
 30
0.0
 10
5.5583935689
 20
4.1431499633
 30
0.0
 10
5.5694366116
 20
4.1443887799
 30
0.0
 10
5.5749417702
 20
4.1443887799
 30
0.0
  0
ELLIPSE
  5
395
100
AcDbEntity
  8
ALL_ASSEMBLY_MEMBERS
100
AcDbEllipse
 62
7
  6
CONTINUOUS
 10
5.5749417702
 20
4.4814463329
 30
0.0
 11
0.4356620756
 21
0.3097087495
 31
0.0
 40
0.6863174071
 41
-3.9803437747
 42
-3.9676270558
  0
ELLIPSE
  5
396
100
AcDbEntity
  8
ALL_ASSEMBLY_MEMBERS
100
AcDbEllipse
 62
7
  6
CONTINUOUS
 10
5.5749417702
 20
4.4917088513
 30
0.0
 11
0.4845296417
 21
0.0531218498
 31
0.0
 40
0.2751161207
 41
2.7138845034
 42
2.7266070117
  0
ELLIPSE
  5
397
100
AcDbEntity
  8
ALL_ASSEMBLY_MEMBERS
100
AcDbEllipse
 62
7
  6
CONTINUOUS
 10
5.5749417702
 20
4.450899165
 30
0.0
 11
0.4845296416
 21
-0.0531218552
 31
0.0
 40
0.2751161442
 41
-2.726607006
 42
-2.7138844977
  0
ELLIPSE
  5
398
100
AcDbEntity
  8
ALL_ASSEMBLY_MEMBERS
100
AcDbEllipse
 62
7
  6
CONTINUOUS
 10
5.5749417702
 20
4.4611616843
 30
0.0
 11
-0.4356620527
 21
0.3097088087
 31
0.0
 40
0.6863174268
 41
0.8260345095
 42
0.8387512283
  0
ELLIPSE
  5
399
100
AcDbEntity
  8
ALL_ASSEMBLY_MEMBERS
100
AcDbEllipse
 62
7
  6
CONTINUOUS
 10
5.5749417702
 20
4.4732882468
 30
0.0
 11
-0.2110172983
 21
0.9517381511
 31
0.0
 40
0.4585406789
 41
1.4848993014
 42
1.4925274221
  0
ELLIPSE
  5
39A
100
AcDbEntity
  8
ALL_ASSEMBLY_MEMBERS
100
AcDbEllipse
 62
7
  6
CONTINUOUS
 10
5.5749417702
 20
4.4806644362
 30
0.0
 11
-0.1839239125
 21
1.4338152941
 31
0.0
 40
0.3128035903
 41
1.5410292945
 42
1.5461141727
  0
ELLIPSE
  5
39B
100
AcDbEntity
  8
ALL_ASSEMBLY_MEMBERS
100
AcDbEllipse
 62
7
  6
CONTINUOUS
 10
5.5749417702
 20
4.4416338501
 30
0.0
 11
0.4841680723
 21
0.069531332
 31
0.0
 40
0.3415053426
 41
2.6695629887
 42
2.6797561081
  0
ELLIPSE
  5
39C
100
AcDbEntity
  8
ALL_ASSEMBLY_MEMBERS
100
AcDbEllipse
 62
7
  6
CONTINUOUS
 10
5.5749417702
 20
4.4195436797
 30
0.0
 11
0.4021127937
 21
0.3867250719
 31
0.0
 40
0.7000252448
 41
-4.164805553
 42
-4.15715572
  0
ELLIPSE
  5
39D
100
AcDbEntity
  8
ALL_ASSEMBLY_MEMBERS
100
AcDbEllipse
 62
7
  6
CONTINUOUS
 10
5.5749417702
 20
4.3708032297
 30
0.0
 11
0.2001645895
 21
1.0730713555
 31
0.0
 40
0.4114299686
 41
1.5606800957
 42
1.5657826121
  0
ELLIPSE
  5
39E
100
AcDbEntity
  8
ALL_ASSEMBLY_MEMBERS
100
AcDbEllipse
 62
7
  6
CONTINUOUS
 10
5.5749417702
 20
4.277599057
 30
0.0
 11
0.173492527
 21
2.1521377604
 31
0.0
 40
0.2103210759
 41
1.498485551
 42
1.5010376571
  0
ELLIPSE
  5
39F
100
AcDbEntity
  8
ALL_ASSEMBLY_MEMBERS
100
AcDbEllipse
 62
7
  6
CONTINUOUS
 10
5.5749417702
 20
4.6650090483
 30
0.0
 11
-0.1734925196
 21
2.1521387659
 31
0.0
 40
0.210320979
 41
-4.6426302942
 42
-4.6400781881
  0
ELLIPSE
  5
3A0
100
AcDbEntity
  8
ALL_ASSEMBLY_MEMBERS
100
AcDbEllipse
 62
7
  6
CONTINUOUS
 10
5.5749417702
 20
4.5718047668
 30
0.0
 11
-0.2001646079
 21
1.0730711015
 31
0.0
 40
0.4114300582
 41
-4.7073753074
 42
-4.7022727909
  0
ELLIPSE
  5
3A1
100
AcDbEntity
  8
ALL_ASSEMBLY_MEMBERS
100
AcDbEllipse
 62
7
  6
CONTINUOUS
 10
5.5749417702
 20
4.5230643372
 30
0.0
 11
-0.4021127937
 21
0.3867250719
 31
0.0
 40
0.7000252448
 41
1.0155630664
 42
1.0232128994
  0
ELLIPSE
  5
3A2
100
AcDbEntity
  8
ALL_ASSEMBLY_MEMBERS
100
AcDbEllipse
 62
7
  6
CONTINUOUS
 10
5.5749417702
 20
4.5009741669
 30
0.0
 11
0.4841680723
 21
-0.069531332
 31
0.0
 40
0.3415053426
 41
-2.6797561081
 42
-2.6695629887
  0
ELLIPSE
  5
3A3
100
AcDbEntity
  8
ALL_ASSEMBLY_MEMBERS
100
AcDbEllipse
 62
7
  6
CONTINUOUS
 10
5.5749417702
 20
4.5004580774
 30
0.0
 11
0.4841680714
 21
0.0695313633
 31
0.0
 40
0.3415054598
 41
2.7840417005
 42
2.7942212431
  0
ELLIPSE
  5
3A4
100
AcDbEntity
  8
ALL_ASSEMBLY_MEMBERS
100
AcDbEllipse
 62
7
  6
CONTINUOUS
 10
5.5749417702
 20
4.5149900477
 30
0.0
 11
0.3546536662
 21
0.4793660332
 31
0.0
 40
0.6893673371
 41
-4.2104130135
 42
-4.2002376741
  0
ELLIPSE
  5
3A5
100
AcDbEntity
  8
ALL_ASSEMBLY_MEMBERS
100
AcDbEllipse
 62
7
  6
CONTINUOUS
 10
5.5749417702
 20
4.5313159543
 30
0.0
 11
0.2001647206
 21
1.0730695455
 31
0.0
 40
0.4114306072
 41
-4.6105355829
 42
-4.6054491537
  0
ELLIPSE
  5
3A6
100
AcDbEntity
  8
ALL_ASSEMBLY_MEMBERS
100
AcDbEllipse
 62
7
  6
CONTINUOUS
 10
5.5749417702
 20
4.480604313
 30
0.0
 11
-0.200164647
 21
1.0730705612
 31
0.0
 40
0.4114302488
 41
1.4638566668
 42
1.468943096
  0
ELLIPSE
  5
3A7
100
AcDbEntity
  8
ALL_ASSEMBLY_MEMBERS
100
AcDbEllipse
 62
7
  6
CONTINUOUS
 10
5.5749417702
 20
4.4969302501
 30
0.0
 11
-0.3546536662
 21
0.4793660332
 31
0.0
 40
0.6893673371
 41
1.0586450205
 42
1.06882036
  0
ELLIPSE
  5
3A8
100
AcDbEntity
  8
ALL_ASSEMBLY_MEMBERS
100
AcDbEllipse
 62
7
  6
CONTINUOUS
 10
5.5749417702
 20
4.5114622203
 30
0.0
 11
0.4841680714
 21
-0.0695313633
 31
0.0
 40
0.3415054598
 41
-2.7942212431
 42
-2.7840417005
  0
ELLIPSE
  5
3A9
100
AcDbEntity
  8
ALL_ASSEMBLY_MEMBERS
100
AcDbEllipse
 62
7
  6
CONTINUOUS
 10
5.5749417702
 20
4.4621539234
 30
0.0
 11
0.4841680714
 21
0.0695313633
 31
0.0
 40
0.3415054598
 41
2.7840417005
 42
2.7942212431
  0
ELLIPSE
  5
3AA
100
AcDbEntity
  8
ALL_ASSEMBLY_MEMBERS
100
AcDbEllipse
 62
7
  6
CONTINUOUS
 10
5.5749417702
 20
4.4694199098
 30
0.0
 11
0.4668511673
 21
0.2089255909
 31
0.0
 40
0.6246664746
 41
2.5502781873
 42
2.5604535267
  0
ELLIPSE
  5
3AB
100
AcDbEntity
  8
ALL_ASSEMBLY_MEMBERS
100
AcDbEllipse
 62
7
  6
CONTINUOUS
 10
5.5749417702
 20
4.4875598301
 30
0.0
 11
0.2110171867
 21
0.9517391668
 31
0.0
 40
0.4585402462
 41
-4.5883562274
 42
-4.5807268405
  0
ELLIPSE
  5
3AC
100
AcDbEntity
  8
ALL_ASSEMBLY_MEMBERS
100
AcDbEllipse
 62
7
  6
CONTINUOUS
 10
5.5749417702
 20
4.4495761603
 30
0.0
 11
-0.211017168
 21
0.9517393376
 31
0.0
 40
0.4585401734
 41
1.4391342299
 42
1.4467636167
  0
ELLIPSE
  5
3AD
100
AcDbEntity
  8
ALL_ASSEMBLY_MEMBERS
100
AcDbEllipse
 62
7
  6
CONTINUOUS
 10
5.5749417702
 20
4.4677160857
 30
0.0
 11
0.4668511673
 21
-0.2089255909
 31
0.0
 40
0.6246664746
 41
-2.5604535267
 42
-2.5502781873
  0
ELLIPSE
  5
3AE
100
AcDbEntity
  8
ALL_ASSEMBLY_MEMBERS
100
AcDbEllipse
 62
7
  6
CONTINUOUS
 10
5.5749417702
 20
4.4749820721
 30
0.0
 11
0.4841680714
 21
-0.0695313633
 31
0.0
 40
0.3415054598
 41
-2.7942212431
 42
-2.7840417005
  0
ELLIPSE
  5
3AF
100
AcDbEntity
  8
ALL_ASSEMBLY_MEMBERS
100
AcDbEllipse
 62
7
  6
CONTINUOUS
 10
5.5749417702
 20
4.4585960571
 30
0.0
 11
0.4668512029
 21
-0.2089254365
 31
0.0
 40
0.6246663258
 41
-2.6063101801
 42
-2.6012078026
  0
ELLIPSE
  5
3B0
100
AcDbEntity
  8
ALL_ASSEMBLY_MEMBERS
100
AcDbEllipse
 62
7
  6
CONTINUOUS
 10
5.5749417702
 20
4.4276480249
 30
0.0
 11
-0.2578960711
 21
0.7014332479
 31
0.0
 40
0.5851642007
 41
1.2648458323
 42
1.272503669
  0
ELLIPSE
  5
3B1
100
AcDbEntity
  8
ALL_ASSEMBLY_MEMBERS
100
AcDbEllipse
 62
7
  6
CONTINUOUS
 10
5.5749417702
 20
4.3602799443
 30
0.0
 11
-0.1839239562
 21
1.4338136914
 31
0.0
 40
0.3128039274
 41
1.4315508783
 42
1.436659149
  0
ELLIPSE
  5
3B2
100
AcDbEntity
  8
ALL_ASSEMBLY_MEMBERS
100
AcDbEllipse
 62
7
  6
CONTINUOUS
 10
5.5749417702
 20
4.5844029576
 30
0.0
 11
0.3259986888
 21
0.53452672
 31
0.0
 40
0.6711697407
 41
-1.3248817727
 42
-1.3025825674
  0
ELLIPSE
  5
3B3
100
AcDbEntity
  8
ALL_ASSEMBLY_MEMBERS
100
AcDbEllipse
 62
7
  6
CONTINUOUS
 10
5.5749417702
 20
4.6853244876
 30
0.0
 11
0.1770586083
 21
1.7931568303
 31
0.0
 40
0.2516550235
 41
-4.5935119134
 42
-4.5884036427
  0
ELLIPSE
  5
3B4
100
AcDbEntity
  8
ALL_ASSEMBLY_MEMBERS
100
AcDbEllipse
 62
7
  6
CONTINUOUS
 10
5.5749417702
 20
4.5842722729
 30
0.0
 11
0.2578960711
 21
0.7014332479
 31
0.0
 40
0.5851642007
 41
-4.4140963225
 42
-4.4064384859
  0
ELLIPSE
  5
3B5
100
AcDbEntity
  8
ALL_ASSEMBLY_MEMBERS
100
AcDbEllipse
 62
7
  6
CONTINUOUS
 10
5.5749417702
 20
4.5595138483
 30
0.0
 11
0.4356621873
 21
0.3097084593
 31
0.0
 40
0.6863173103
 41
-3.8709533301
 42
-3.8582013196
  0
ELLIPSE
  5
3B6
100
AcDbEntity
  8
ALL_ASSEMBLY_MEMBERS
100
AcDbEllipse
 62
7
  6
CONTINUOUS
 10
5.5749417702
 20
4.5384034409
 30
0.0
 11
0.4845296421
 21
0.0531218233
 31
0.0
 40
0.2751160055
 41
2.8232569308
 42
2.835996958
  0
ELLIPSE
  5
3B7
100
AcDbEntity
  8
ALL_ASSEMBLY_MEMBERS
100
AcDbEllipse
 62
7
  6
CONTINUOUS
 10
5.5749417702
 20
4.5418427652
 30
0.0
 11
0.3259987817
 21
0.5345265359
 31
0.0
 40
0.671169814
 41
-1.2507643659
 42
-1.2286210799
  0
ELLIPSE
  5
3B8
100
AcDbEntity
  8
ALL_ASSEMBLY_MEMBERS
100
AcDbEllipse
 62
7
  6
CONTINUOUS
 10
5.5749417702
 20
4.4707244495
 30
0.0
 11
0.4630591816
 21
0.2245111552
 31
0.0
 40
0.6386464466
 41
-0.6183052266
 42
-0.6035566623
  0
ELLIPSE
  5
3B9
100
AcDbEntity
  8
ALL_ASSEMBLY_MEMBERS
100
AcDbEllipse
 62
7
  6
CONTINUOUS
 10
5.5749417702
 20
4.4820548704
 30
0.0
 11
0.4846322909
 21
0.0448829864
 31
0.0
 40
0.2379966242
 41
-0.3253141803
 42
-0.3105556307
  0
ELLIPSE
  5
3BA
100
AcDbEntity
  8
ALL_ASSEMBLY_MEMBERS
100
AcDbEllipse
 62
7
  6
CONTINUOUS
 10
5.5749417702
 20
4.4605531465
 30
0.0
 11
0.4846322909
 21
-0.0448829864
 31
0.0
 40
0.2379966242
 41
0.3105556307
 42
0.3253141803
  0
ELLIPSE
  5
3BB
100
AcDbEntity
  8
ALL_ASSEMBLY_MEMBERS
100
AcDbEllipse
 62
7
  6
CONTINUOUS
 10
5.5749417702
 20
4.469995161
 30
0.0
 11
0.4734427814
 21
-0.1768432279
 31
0.0
 40
0.588594106
 41
0.5196885314
 42
0.5307507159
  0
ELLIPSE
  5
3BC
100
AcDbEntity
  8
ALL_ASSEMBLY_MEMBERS
100
AcDbEllipse
 62
7
  6
CONTINUOUS
 10
5.5749417702
 20
4.4929135597
 30
0.0
 11
-0.207495773
 21
0.9858241387
 31
0.0
 40
0.4443956471
 41
-1.6987885097
 42
-1.6914161614
  0
ELLIPSE
  5
3BD
100
AcDbEntity
  8
ALL_ASSEMBLY_MEMBERS
100
AcDbEllipse
 62
7
  6
CONTINUOUS
 10
5.5749417702
 20
4.4357637135
 30
0.0
 11
0.4847035227
 21
0.0351495033
 31
0.0
 40
0.1909698234
 41
-0.2802019056
 42
-0.2617015349
  0
ELLIPSE
  5
3BE
100
AcDbEntity
  8
ALL_ASSEMBLY_MEMBERS
100
AcDbEllipse
 62
7
  6
CONTINUOUS
 10
5.5749417702
 20
4.4157553299
 30
0.0
 11
0.4782981758
 21
0.1456294577
 31
0.0
 40
0.5412725914
 41
-0.4111891223
 42
-0.3926539211
  0
ELLIPSE
  5
3BF
100
AcDbEntity
  8
ALL_ASSEMBLY_MEMBERS
100
AcDbEllipse
 62
7
  6
CONTINUOUS
 10
5.5749417702
 20
4.3723852965
 30
0.0
 11
0.2800134072
 21
0.636735321
 31
0.0
 40
0.6214444929
 41
-1.1842741772
 42
-1.1731335909
  0
ELLIPSE
  5
3C0
100
AcDbEntity
  8
ALL_ASSEMBLY_MEMBERS
100
AcDbEllipse
 62
7
  6
CONTINUOUS
 10
5.5749417702
 20
4.2970037686
 30
0.0
 11
0.190868369
 21
1.2357421379
 31
0.0
 40
0.3605861895
 41
-1.3842710587
 42
-1.3768349866
  0
ELLIPSE
  5
3C1
100
AcDbEntity
  8
ALL_ASSEMBLY_MEMBERS
100
AcDbEllipse
 62
7
  6
CONTINUOUS
 10
5.5749417702
 20
4.6456042709
 30
0.0
 11
-0.1908683611
 21
1.2357423122
 31
0.0
 40
0.3605861413
 41
-1.7647576494
 42
-1.7573215773
  0
ELLIPSE
  5
3C2
100
AcDbEntity
  8
ALL_ASSEMBLY_MEMBERS
100
AcDbEllipse
 62
7
  6
CONTINUOUS
 10
5.5749417702
 20
4.5702227129
 30
0.0
 11
-0.2800134331
 21
0.6367352539
 31
0.0
 40
0.6214445296
 41
-1.968459128
 42
-1.9573185418
  0
ELLIPSE
  5
3C3
100
AcDbEntity
  8
ALL_ASSEMBLY_MEMBERS
100
AcDbEllipse
 62
7
  6
CONTINUOUS
 10
5.5749417702
 20
4.5268526833
 30
0.0
 11
0.4782981788
 21
-0.1456294353
 31
0.0
 40
0.541272552
 41
0.3926538838
 42
0.411189085
  0
ELLIPSE
  5
3C4
100
AcDbEntity
  8
ALL_ASSEMBLY_MEMBERS
100
AcDbEllipse
 62
7
  6
CONTINUOUS
 10
5.5749417702
 20
4.5068443015
 30
0.0
 11
0.4847035227
 21
-0.0351495
 31
0.0
 40
0.1909698069
 41
0.2617015324
 42
0.2802019031
  0
ELLIPSE
  5
3C5
100
AcDbEntity
  8
ALL_ASSEMBLY_MEMBERS
100
AcDbEllipse
 62
7
  6
CONTINUOUS
 10
5.5749417702
 20
4.4348478991
 30
0.0
 11
0.484529642
 21
-0.0531218287
 31
0.0
 40
0.275116029
 41
-2.8385463295
 42
-2.8258040739
  0
ELLIPSE
  5
3C6
100
AcDbEntity
  8
ALL_ASSEMBLY_MEMBERS
100
AcDbEllipse
 62
7
  6
CONTINUOUS
 10
5.5749417702
 20
4.4130078843
 30
0.0
 11
-0.4356621459
 21
0.3097085669
 31
0.0
 40
0.6863173461
 41
0.7140568349
 42
0.7268114943
  0
ELLIPSE
  5
3C7
100
AcDbEntity
  8
ALL_ASSEMBLY_MEMBERS
100
AcDbEllipse
 62
7
  6
CONTINUOUS
 10
5.5749417702
 20
4.3875198515
 30
0.0
 11
-0.2578960294
 21
0.701433387
 31
0.0
 40
0.5851641221
 41
1.2622921148
 42
1.2699517446
  0
ELLIPSE
  5
3C8
100
AcDbEntity
  8
ALL_ASSEMBLY_MEMBERS
100
AcDbEllipse
 62
7
  6
CONTINUOUS
 10
5.5749417702
 20
4.2837317163
 30
0.0
 11
-0.1770586193
 21
1.7931559956
 31
0.0
 40
0.2516551382
 41
1.4442558639
 42
1.4493654161
  0
ELLIPSE
  5
3C9
100
AcDbEntity
  8
ALL_ASSEMBLY_MEMBERS
100
AcDbEllipse
 62
7
  6
CONTINUOUS
 10
5.5749417702
 20
4.6534043034
 30
0.0
 11
0.177058616
 21
1.7931562471
 31
0.0
 40
0.2516551037
 41
-4.5909580771
 42
-4.5858485249
  0
ELLIPSE
  5
3CA
100
AcDbEntity
  8
ALL_ASSEMBLY_MEMBERS
100
AcDbEllipse
 62
7
  6
CONTINUOUS
 10
5.5749417702
 20
4.5323181111
 30
0.0
 11
0.3546537589
 21
0.4793658574
 31
0.0
 40
0.6893673822
 41
-4.1543810131
 42
-4.1441693573
  0
ELLIPSE
  5
3CB
100
AcDbEntity
  8
ALL_ASSEMBLY_MEMBERS
100
AcDbEllipse
 62
7
  6
CONTINUOUS
 10
5.5749417702
 20
4.5168440925
 30
0.0
 11
0.4668512029
 21
0.2089254365
 31
0.0
 40
0.6246663258
 41
2.6012078026
 42
2.6063101801
  0
ELLIPSE
  5
3CC
100
AcDbEntity
  8
ALL_ASSEMBLY_MEMBERS
100
AcDbEllipse
 62
7
  6
CONTINUOUS
 10
5.5749417702
 20
4.461758023
 30
0.0
 11
0.4817044942
 21
-0.0691776629
 31
0.0
 40
0.3415058114
 41
-2.7050160301
 42
-2.6947853447
  0
ELLIPSE
  5
3CD
100
AcDbEntity
  8
ALL_ASSEMBLY_MEMBERS
100
AcDbEllipse
 62
7
  6
CONTINUOUS
 10
5.5749417702
 20
4.4294119336
 30
0.0
 11
0.4644757236
 21
-0.2078624458
 31
0.0
 40
0.6246664002
 41
-2.6016242452
 42
-2.5913732513
  0
ELLIPSE
  5
3CE
100
AcDbEntity
  8
ALL_ASSEMBLY_MEMBERS
100
AcDbEllipse
 62
7
  6
CONTINUOUS
 10
5.5749417702
 20
4.4294119336
 30
0.0
 11
0.4668511851
 21
-0.2089255137
 31
0.0
 40
0.6246664002
 41
-2.601207666
 42
-2.5910091369
  0
ELLIPSE
  5
3CF
100
AcDbEntity
  8
ALL_ASSEMBLY_MEMBERS
100
AcDbEllipse
 62
7
  6
CONTINUOUS
 10
5.5749417702
 20
4.4421499402
 30
0.0
 11
0.4817044969
 21
-0.0691775694
 31
0.0
 40
0.3415054598
 41
-2.8149612884
 42
-2.8098396765
  0
ELLIPSE
  5
3D0
100
AcDbEntity
  8
ALL_ASSEMBLY_MEMBERS
100
AcDbEllipse
 62
7
  6
CONTINUOUS
 10
5.5749417702
 20
4.4421499402
 30
0.0
 11
0.4841680714
 21
-0.0695313633
 31
0.0
 40
0.3415054598
 41
-2.8145971741
 42
-2.804406043
  0
ELLIPSE
  5
3D1
100
AcDbEntity
  8
ALL_ASSEMBLY_MEMBERS
100
AcDbEllipse
 62
7
  6
CONTINUOUS
 10
5.5749417702
 20
4.461758023
 30
0.0
 11
0.4841680686
 21
-0.0695314572
 31
0.0
 40
0.3415058114
 41
-2.7052120566
 42
-2.6950335265
  0
ELLIPSE
  5
3D2
100
AcDbEntity
  8
ALL_ASSEMBLY_MEMBERS
100
AcDbEllipse
 62
7
  6
CONTINUOUS
 10
5.5749417702
 20
4.598994987
 30
0.0
 11
0.3259988447
 21
0.534526411
 31
0.0
 40
0.6711698637
 41
-1.3248813381
 42
-1.3025821329
  0
ELLIPSE
  5
3D3
100
AcDbEntity
  8
ALL_ASSEMBLY_MEMBERS
100
AcDbEllipse
 62
7
  6
CONTINUOUS
 10
5.5749417702
 20
4.598994987
 30
0.0
 11
0.3243400769
 21
0.5318066001
 31
0.0
 40
0.6711698637
 41
-1.3256157268
 42
-1.3032004624
  0
ELLIPSE
  5
3D4
100
AcDbEntity
  8
ALL_ASSEMBLY_MEMBERS
100
AcDbEllipse
 62
7
  6
CONTINUOUS
 10
5.5749417702
 20
4.507808183
 30
0.0
 11
0.4820642286
 21
-0.0528514816
 31
0.0
 40
0.2751158134
 41
-2.6982804374
 42
-2.6854723786
  0
ELLIPSE
  5
3D5
100
AcDbEntity
  8
ALL_ASSEMBLY_MEMBERS
100
AcDbEllipse
 62
7
  6
CONTINUOUS
 10
5.5749417702
 20
4.507808183
 30
0.0
 11
0.4845296428
 21
-0.0531217792
 31
0.0
 40
0.2751158134
 41
-2.6986070031
 42
-2.6858644385
  0
ELLIPSE
  5
3D6
100
AcDbEntity
  8
ALL_ASSEMBLY_MEMBERS
100
AcDbEllipse
 62
7
  6
CONTINUOUS
 10
5.5749417702
 20
4.5297443657
 30
0.0
 11
-0.4334453124
 21
0.30813287
 31
0.0
 40
0.6863174071
 41
0.879885828
 42
0.8927065257
  0
ELLIPSE
  5
3D7
100
AcDbEntity
  8
ALL_ASSEMBLY_MEMBERS
100
AcDbEllipse
 62
7
  6
CONTINUOUS
 10
5.5749417702
 20
4.5297443657
 30
0.0
 11
-0.4356620756
 21
0.3097087495
 31
0.0
 40
0.6863174071
 41
0.879493768
 42
0.8922487784
  0
ELLIPSE
  5
3D8
100
AcDbEntity
  8
ALL_ASSEMBLY_MEMBERS
100
AcDbEllipse
 62
7
  6
CONTINUOUS
 10
5.5749417702
 20
4.5766486712
 30
0.0
 11
-0.2099434945
 21
0.9468962978
 31
0.0
 40
0.4585403189
 41
1.5591997581
 42
1.5668991476
  0
ELLIPSE
  5
3D9
100
AcDbEntity
  8
ALL_ASSEMBLY_MEMBERS
100
AcDbEllipse
 62
7
  6
CONTINUOUS
 10
5.5749417702
 20
4.5766486712
 30
0.0
 11
-0.2110172055
 21
0.951738996
 31
0.0
 40
0.4585403189
 41
1.5587420108
 42
1.5664018812
  0
ELLIPSE
  5
3DA
100
AcDbEntity
  8
ALL_ASSEMBLY_MEMBERS
100
AcDbEllipse
 62
7
  6
CONTINUOUS
 10
5.5749417702
 20
4.5564348117
 30
0.0
 11
0.3259989376
 21
0.5345262269
 31
0.0
 40
0.6711699369
 41
-1.2507639313
 42
-1.2286206453
  0
ELLIPSE
  5
3DB
100
AcDbEntity
  8
ALL_ASSEMBLY_MEMBERS
100
AcDbEllipse
 62
7
  6
CONTINUOUS
 10
5.5749417702
 20
4.5564348117
 30
0.0
 11
0.3243401693
 21
0.5318064169
 31
0.0
 40
0.6711699369
 41
-1.2511147927
 42
-1.2288578778
  0
ELLIPSE
  5
3DC
100
AcDbEntity
  8
ALL_ASSEMBLY_MEMBERS
100
AcDbEllipse
 62
7
  6
CONTINUOUS
 10
5.5749417702
 20
4.480849994
 30
0.0
 11
0.4817044942
 21
0.0691776629
 31
0.0
 40
0.3415058114
 41
8.9779706519
 42
8.9882013373
  0
ELLIPSE
  5
3DD
100
AcDbEntity
  8
ALL_ASSEMBLY_MEMBERS
100
AcDbEllipse
 62
7
  6
CONTINUOUS
 10
5.5749417702
 20
4.5224002522
 30
0.0
 11
0.4820642278
 21
-0.0528515343
 31
0.0
 40
0.2751160439
 41
-2.8133316337
 42
-2.8005427031
  0
ELLIPSE
  5
3DE
100
AcDbEntity
  8
ALL_ASSEMBLY_MEMBERS
100
AcDbEllipse
 62
7
  6
CONTINUOUS
 10
5.5749417702
 20
4.480849994
 30
0.0
 11
0.4841680686
 21
0.0695314572
 31
0.0
 40
0.3415058114
 41
2.6950335265
 42
2.7052120566
  0
ELLIPSE
  5
3DF
100
AcDbEntity
  8
ALL_ASSEMBLY_MEMBERS
100
AcDbEllipse
 62
7
  6
CONTINUOUS
 10
5.5749417702
 20
4.5224002522
 30
0.0
 11
0.484529642
 21
-0.0531218322
 31
0.0
 40
0.2751160439
 41
-2.8130721217
 42
-2.8003483937
  0
ELLIPSE
  5
3E0
100
AcDbEntity
  8
ALL_ASSEMBLY_MEMBERS
100
AcDbEllipse
 62
7
  6
CONTINUOUS
 10
5.5749417702
 20
4.4671098619
 30
0.0
 11
0.3528493905
 21
0.4769263331
 31
0.0
 40
0.6893674814
 41
-4.2792623293
 42
-4.2690356602
  0
ELLIPSE
  5
3E1
100
AcDbEntity
  8
ALL_ASSEMBLY_MEMBERS
100
AcDbEllipse
 62
7
  6
CONTINUOUS
 10
5.5749417702
 20
4.5115042867
 30
0.0
 11
-0.4334454607
 21
0.308132485
 31
0.0
 40
0.686317278
 41
0.7648147469
 42
0.777597438
  0
ELLIPSE
  5
3E2
100
AcDbEntity
  8
ALL_ASSEMBLY_MEMBERS
100
AcDbEllipse
 62
7
  6
CONTINUOUS
 10
5.5749417702
 20
4.5115042867
 30
0.0
 11
-0.4356622246
 21
0.3097083626
 31
0.0
 40
0.686317278
 41
0.7650090563
 42
0.7777266395
  0
ELLIPSE
  5
3E3
100
AcDbEntity
  8
ALL_ASSEMBLY_MEMBERS
100
AcDbEllipse
 62
7
  6
CONTINUOUS
 10
5.5749417702
 20
4.4671098619
 30
0.0
 11
0.3546539631
 21
0.4793654706
 31
0.0
 40
0.6893674814
 41
-4.2790663028
 42
-4.2688917277
  0
ELLIPSE
  5
3E4
100
AcDbEntity
  8
ALL_ASSEMBLY_MEMBERS
100
AcDbEllipse
 62
7
  6
CONTINUOUS
 10
5.5749417702
 20
4.5042563304
 30
0.0
 11
-0.2565838281
 21
0.6978641712
 31
0.0
 40
0.5851642007
 41
1.3334926163
 42
1.3411601046
  0
ELLIPSE
  5
3E5
100
AcDbEntity
  8
ALL_ASSEMBLY_MEMBERS
100
AcDbEllipse
 62
7
  6
CONTINUOUS
 10
5.5749417702
 20
4.6576534197
 30
0.0
 11
-0.176157672
 21
1.7840339535
 31
0.0
 40
0.251654861
 41
-4.6398114528
 42
-4.6346753393
  0
ELLIPSE
  5
3E6
100
AcDbEntity
  8
ALL_ASSEMBLY_MEMBERS
100
AcDbEllipse
 62
7
  6
CONTINUOUS
 10
5.5749417702
 20
4.5042563304
 30
0.0
 11
-0.2578960711
 21
0.7014332479
 31
0.0
 40
0.5851642007
 41
1.3336218178
 42
1.3412502738
  0
ELLIPSE
  5
3E7
100
AcDbEntity
  8
ALL_ASSEMBLY_MEMBERS
100
AcDbEllipse
 62
7
  6
CONTINUOUS
 10
5.5749417702
 20
4.4997693175
 30
0.0
 11
0.4846322902
 21
-0.0448830582
 31
0.0
 40
0.2379969588
 41
0.2735943692
 42
0.2883920801
  0
ELLIPSE
  5
3E8
100
AcDbEntity
  8
ALL_ASSEMBLY_MEMBERS
100
AcDbEllipse
 62
7
  6
CONTINUOUS
 10
5.5749417702
 20
4.4997693175
 30
0.0
 11
0.4821663537
 21
-0.0446546814
 31
0.0
 40
0.2379969588
 41
6.5562793864
 42
6.5711534012
  0
ELLIPSE
  5
3E9
100
AcDbEntity
  8
ALL_ASSEMBLY_MEMBERS
100
AcDbEllipse
 62
7
  6
CONTINUOUS
 10
5.5749417702
 20
4.4852845319
 30
0.0
 11
-0.1761576992
 21
1.7840318986
 31
0.0
 40
0.2516551449
 41
1.5282335062
 42
1.533344561
  0
ELLIPSE
  5
3EA
100
AcDbEntity
  8
ALL_ASSEMBLY_MEMBERS
100
AcDbEllipse
 62
7
  6
CONTINUOUS
 10
5.5749417702
 20
4.5198513581
 30
0.0
 11
0.4734427814
 21
-0.1768432279
 31
0.0
 40
0.588594106
 41
0.4568564648
 42
0.4679686539
  0
ELLIPSE
  5
3EB
100
AcDbEntity
  8
ALL_ASSEMBLY_MEMBERS
100
AcDbEllipse
 62
7
  6
CONTINUOUS
 10
5.5749417702
 20
4.5198513581
 30
0.0
 11
0.47103378
 21
-0.175943403
 31
0.0
 40
0.588594106
 41
0.4562987307
 42
0.467468364
  0
ELLIPSE
  5
3EC
100
AcDbEntity
  8
ALL_ASSEMBLY_MEMBERS
100
AcDbEllipse
 62
7
  6
CONTINUOUS
 10
5.5749417702
 20
4.5645753265
 30
0.0
 11
-0.2501318493
 21
0.728790877
 31
0.0
 40
0.569753021
 41
-1.8799443451
 42
-1.8725288025
  0
ELLIPSE
  5
3ED
100
AcDbEntity
  8
ALL_ASSEMBLY_MEMBERS
100
AcDbEllipse
 62
7
  6
CONTINUOUS
 10
5.5749417702
 20
4.5645753265
 30
0.0
 11
-0.2488591127
 21
0.7250825974
 31
0.0
 40
0.569753021
 41
-1.880540491
 42
-1.8730865367
  0
ELLIPSE
  5
3EE
100
AcDbEntity
  8
ALL_ASSEMBLY_MEMBERS
100
AcDbEllipse
 62
7
  6
CONTINUOUS
 10
5.5749417702
 20
4.6505516782
 30
0.0
 11
-0.1826258381
 21
1.484169538
 31
0.0
 40
0.3025481177
 41
-1.7277547305
 42
-1.7240446013
  0
ELLIPSE
  5
3EF
100
AcDbEntity
  8
ALL_ASSEMBLY_MEMBERS
100
AcDbEllipse
 62
7
  6
CONTINUOUS
 10
5.5749417702
 20
4.6505516782
 30
0.0
 11
-0.1816965899
 21
1.4766176932
 31
0.0
 40
0.3025481177
 41
-1.7283701194
 42
-1.7246407472
  0
ELLIPSE
  5
3F0
100
AcDbEntity
  8
ALL_ASSEMBLY_MEMBERS
100
AcDbEllipse
 62
7
  6
CONTINUOUS
 10
5.5749417702
 20
4.2920564203
 30
0.0
 11
0.1826258551
 21
1.4841688429
 31
0.0
 40
0.3025482548
 41
-1.4175480146
 42
-1.4138378854
  0
ELLIPSE
  5
3F1
100
AcDbEntity
  8
ALL_ASSEMBLY_MEMBERS
100
AcDbEllipse
 62
7
  6
CONTINUOUS
 10
5.5749417702
 20
4.2920564203
 30
0.0
 11
0.1816966067
 21
1.4766170017
 31
0.0
 40
0.3025482548
 41
-1.4169518687
 42
-1.4132224965
  0
ELLIPSE
  5
3F2
100
AcDbEntity
  8
ALL_ASSEMBLY_MEMBERS
100
AcDbEllipse
 62
7
  6
CONTINUOUS
 10
5.5749417702
 20
4.3780326716
 30
0.0
 11
0.250131799
 21
0.7287910644
 31
0.0
 40
0.5697529161
 41
-1.269063972
 42
-1.2616484294
  0
ELLIPSE
  5
3F3
100
AcDbEntity
  8
ALL_ASSEMBLY_MEMBERS
100
AcDbEllipse
 62
7
  6
CONTINUOUS
 10
5.5749417702
 20
4.3780326716
 30
0.0
 11
0.2488590627
 21
0.7250827838
 31
0.0
 40
0.5697529161
 41
-1.2685062378
 42
-1.2610522835
  0
ELLIPSE
  5
3F4
100
AcDbEntity
  8
ALL_ASSEMBLY_MEMBERS
100
AcDbEllipse
 62
7
  6
CONTINUOUS
 10
5.5749417702
 20
4.4227566589
 30
0.0
 11
0.4734427814
 21
0.1768432279
 31
0.0
 40
0.588594106
 41
-0.4679686539
 42
-0.4568564648
  0
ELLIPSE
  5
3F5
100
AcDbEntity
  8
ALL_ASSEMBLY_MEMBERS
100
AcDbEllipse
 62
7
  6
CONTINUOUS
 10
5.5749417702
 20
4.4227566589
 30
0.0
 11
0.47103378
 21
0.175943403
 31
0.0
 40
0.588594106
 41
-0.467468364
 42
-0.4562987307
  0
ELLIPSE
  5
3F6
100
AcDbEntity
  8
ALL_ASSEMBLY_MEMBERS
100
AcDbEllipse
 62
7
  6
CONTINUOUS
 10
5.5749417702
 20
4.4428386994
 30
0.0
 11
0.4846322902
 21
0.0448830582
 31
0.0
 40
0.2379969588
 41
-0.2883920801
 42
-0.2735943692
  0
ELLIPSE
  5
3F7
100
AcDbEntity
  8
ALL_ASSEMBLY_MEMBERS
100
AcDbEllipse
 62
7
  6
CONTINUOUS
 10
5.5749417702
 20
4.4428386994
 30
0.0
 11
0.4821663537
 21
0.0446546814
 31
0.0
 40
0.2379969588
 41
-0.287968094
 42
-0.2730940792
  0
ELLIPSE
  5
3F8
100
AcDbEntity
  8
ALL_ASSEMBLY_MEMBERS
100
AcDbEllipse
 62
7
  6
CONTINUOUS
 10
5.5749417702
 20
4.6576534197
 30
0.0
 11
-0.1770585927
 21
1.7931580129
 31
0.0
 40
0.251654861
 41
-4.6403087193
 42
-4.6351990007
  0
ELLIPSE
  5
3F9
100
AcDbEntity
  8
ALL_ASSEMBLY_MEMBERS
100
AcDbEllipse
 62
7
  6
CONTINUOUS
 10
5.5749417702
 20
4.4852845319
 30
0.0
 11
-0.17705862
 21
1.7931559474
 31
0.0
 40
0.2516551449
 41
1.5283236754
 42
1.5334087178
  0
ELLIPSE
  5
3FA
100
AcDbEntity
  8
ALL_ASSEMBLY_MEMBERS
100
AcDbEllipse
 62
7
  6
CONTINUOUS
 10
5.5749417702
 20
4.5203118192
 30
0.0
 11
0.182988122
 21
1.4265173665
 31
0.0
 40
0.3128040763
 41
-4.6596770866
 42
-4.6545660318
  0
ELLIPSE
  5
3FB
100
AcDbEntity
  8
ALL_ASSEMBLY_MEMBERS
100
AcDbEllipse
 62
7
  6
CONTINUOUS
 10
5.5749417702
 20
4.5314662035
 30
0.0
 11
0.4817044969
 21
0.0691775694
 31
0.0
 40
0.3415054598
 41
9.0930249837
 42
9.0981465956
  0
ELLIPSE
  5
3FC
100
AcDbEntity
  8
ALL_ASSEMBLY_MEMBERS
100
AcDbEllipse
 62
7
  6
CONTINUOUS
 10
5.5749417702
 20
4.5203118192
 30
0.0
 11
0.1839239755
 21
1.4338129838
 31
0.0
 40
0.3128040763
 41
-4.6597412434
 42
-4.654656201
  0
ELLIPSE
  5
3FD
100
AcDbEntity
  8
ALL_ASSEMBLY_MEMBERS
100
AcDbEllipse
 62
7
  6
CONTINUOUS
 10
5.5749417702
 20
4.5314662035
 30
0.0
 11
0.4841680714
 21
0.0695313633
 31
0.0
 40
0.3415054598
 41
2.804406043
 42
2.8145971741
  0
ELLIPSE
  5
3FE
100
AcDbEntity
  8
ALL_ASSEMBLY_MEMBERS
100
AcDbEllipse
 62
7
  6
CONTINUOUS
 10
5.5749417702
 20
4.5076639673
 30
0.0
 11
0.2565838281
 21
0.6978641712
 31
0.0
 40
0.5851642007
 41
-4.4827527582
 42
-4.4750852699
  0
ELLIPSE
  5
3FF
100
AcDbEntity
  8
ALL_ASSEMBLY_MEMBERS
100
AcDbEllipse
 62
7
  6
CONTINUOUS
 10
5.5749417702
 20
4.5076639673
 30
0.0
 11
0.2578960711
 21
0.7014332479
 31
0.0
 40
0.5851642007
 41
-4.4828429274
 42
-4.4752144714
  0
ELLIPSE
  5
400
100
AcDbEntity
  8
ALL_ASSEMBLY_MEMBERS
100
AcDbEllipse
 62
7
  6
CONTINUOUS
 10
5.5749417702
 20
4.4710254805
 30
0.0
 11
-0.207495773
 21
0.9858241387
 31
0.0
 40
0.4443956471
 41
-1.6766755349
 42
-1.6693064443
  0
ELLIPSE
  5
401
100
AcDbEntity
  8
ALL_ASSEMBLY_MEMBERS
100
AcDbEllipse
 62
7
  6
CONTINUOUS
 10
5.5749417702
 20
4.4710254805
 30
0.0
 11
-0.2064399799
 21
0.9808080064
 31
0.0
 40
0.4443956471
 41
-1.676740052
 42
-1.6693332706
  0
ELLIPSE
  5
402
100
AcDbEntity
  8
ALL_ASSEMBLY_MEMBERS
100
AcDbEllipse
 62
7
  6
CONTINUOUS
 10
5.5749417702
 20
4.466862309
 30
0.0
 11
-0.2800134072
 21
0.636735321
 31
0.0
 40
0.6214444929
 41
-1.8612406191
 42
-1.8501855787
  0
ELLIPSE
  5
403
100
AcDbEntity
  8
ALL_ASSEMBLY_MEMBERS
100
AcDbEllipse
 62
7
  6
CONTINUOUS
 10
5.5749417702
 20
4.466862309
 30
0.0
 11
-0.2785886254
 21
0.6334954443
 31
0.0
 40
0.6214444929
 41
-1.8613616941
 42
-1.8502500958
  0
ELLIPSE
  5
404
100
AcDbEntity
  8
ALL_ASSEMBLY_MEMBERS
100
AcDbEllipse
 62
7
  6
CONTINUOUS
 10
5.5749417702
 20
4.4582700017
 30
0.0
 11
0.4782981758
 21
-0.1456294577
 31
0.0
 40
0.5412725914
 41
0.4702996175
 42
0.4887317785
  0
ELLIPSE
  5
405
100
AcDbEntity
  8
ALL_ASSEMBLY_MEMBERS
100
AcDbEllipse
 62
7
  6
CONTINUOUS
 10
5.5749417702
 20
4.4582700017
 30
0.0
 11
0.475864469
 21
-0.1448884567
 31
0.0
 40
0.5412725914
 41
0.4700841696
 42
0.4886107035
  0
ELLIPSE
  5
406
100
AcDbEntity
  8
ALL_ASSEMBLY_MEMBERS
100
AcDbEllipse
 62
7
  6
CONTINUOUS
 10
5.5749417702
 20
4.449935266
 30
0.0
 11
0.4847035229
 21
-0.0351494601
 31
0.0
 40
0.1909696071
 41
0.3023654898
 42
0.3208119973
  0
ELLIPSE
  5
407
100
AcDbEntity
  8
ALL_ASSEMBLY_MEMBERS
100
AcDbEllipse
 62
7
  6
CONTINUOUS
 10
5.5749417702
 20
4.449935266
 30
0.0
 11
0.482237224
 21
-0.0349706104
 31
0.0
 40
0.1909696071
 41
0.3020554476
 42
0.3205965494
  0
ELLIPSE
  5
408
100
AcDbEntity
  8
ALL_ASSEMBLY_MEMBERS
100
AcDbEllipse
 62
7
  6
CONTINUOUS
 10
5.5749417702
 20
4.5569422144
 30
0.0
 11
0.3528491689
 21
0.4769267529
 31
0.0
 40
0.6893673732
 41
-4.1693178615
 42
-4.1590668675
  0
ELLIPSE
  5
409
100
AcDbEntity
  8
ALL_ASSEMBLY_MEMBERS
100
AcDbEllipse
 62
7
  6
CONTINUOUS
 10
5.5749417702
 20
4.4986040203
 30
0.0
 11
0.4644757768
 21
0.2078622154
 31
0.0
 40
0.6246661769
 41
2.545321506
 42
2.5504339689
  0
ELLIPSE
  5
40A
100
AcDbEntity
  8
ALL_ASSEMBLY_MEMBERS
100
AcDbEllipse
 62
7
  6
CONTINUOUS
 10
5.5749417702
 20
4.4986040203
 30
0.0
 11
0.4668512386
 21
0.2089252821
 31
0.0
 40
0.6246661769
 41
2.5451923044
 42
2.5502787336
  0
ELLIPSE
  5
40B
100
AcDbEntity
  8
ALL_ASSEMBLY_MEMBERS
100
AcDbEllipse
 62
7
  6
CONTINUOUS
 10
5.5749417702
 20
4.5569422144
 30
0.0
 11
0.3546537404
 21
0.4793658925
 31
0.0
 40
0.6893673732
 41
-4.1696819759
 42
-4.1594834467
  0
ELLIPSE
  5
40C
100
AcDbEntity
  8
ALL_ASSEMBLY_MEMBERS
100
AcDbEllipse
 62
7
  6
CONTINUOUS
 10
5.5749417702
 20
4.4768361293
 30
0.0
 11
0.4644757768
 21
-0.2078622154
 31
0.0
 40
0.6246661769
 41
-2.5504339689
 42
-2.545321506
  0
ELLIPSE
  5
40D
100
AcDbEntity
  8
ALL_ASSEMBLY_MEMBERS
100
AcDbEllipse
 62
7
  6
CONTINUOUS
 10
5.5749417702
 20
4.4768361293
 30
0.0
 11
0.4668512386
 21
-0.2089252821
 31
0.0
 40
0.6246661769
 41
-2.5502787336
 42
-2.5451923044
  0
ELLIPSE
  5
40E
100
AcDbEntity
  8
ALL_ASSEMBLY_MEMBERS
100
AcDbEllipse
 62
7
  6
CONTINUOUS
 10
5.5749417702
 20
4.4723061503
 30
0.0
 11
-0.3528490951
 21
0.4769268928
 31
0.0
 40
0.6893673371
 41
1.0737775876
 42
1.0840006492
  0
ELLIPSE
  5
40F
100
AcDbEntity
  8
ALL_ASSEMBLY_MEMBERS
100
AcDbEllipse
 62
7
  6
CONTINUOUS
 10
5.5749417702
 20
4.4723061503
 30
0.0
 11
-0.3546536662
 21
0.4793660332
 31
0.0
 40
0.6893673371
 41
1.0739067891
 42
1.0840778115
  0
ELLIPSE
  5
410
100
AcDbEntity
  8
ALL_ASSEMBLY_MEMBERS
100
AcDbEllipse
 62
7
  6
CONTINUOUS
 10
5.5749417702
 20
4.6006283147
 30
0.0
 11
0.1991461286
 21
1.0676108832
 31
0.0
 40
0.4114301116
 41
-4.5541034629
 42
-4.5489748047
  0
ELLIPSE
  5
411
100
AcDbEntity
  8
ALL_ASSEMBLY_MEMBERS
100
AcDbEllipse
 62
7
  6
CONTINUOUS
 10
5.5749417702
 20
4.4533644052
 30
0.0
 11
-0.1761577058
 21
1.7840313981
 31
0.0
 40
0.251655214
 41
1.5307890648
 42
1.5358999382
  0
ELLIPSE
  5
412
100
AcDbEntity
  8
ALL_ASSEMBLY_MEMBERS
100
AcDbEllipse
 62
7
  6
CONTINUOUS
 10
5.5749417702
 20
4.6006283147
 30
0.0
 11
0.2001646188
 21
1.0730709503
 31
0.0
 40
0.4114301116
 41
-4.5545200421
 42
-4.5494176646
  0
ELLIPSE
  5
413
100
AcDbEntity
  8
ALL_ASSEMBLY_MEMBERS
100
AcDbEllipse
 62
7
  6
CONTINUOUS
 10
5.5749417702
 20
4.4533644052
 30
0.0
 11
-0.1770586266
 21
1.7931554444
 31
0.0
 40
0.251655214
 41
1.530866227
 42
1.5359510908
  0
ELLIPSE
  5
414
100
AcDbEntity
  8
ALL_ASSEMBLY_MEMBERS
100
AcDbEllipse
 62
7
  6
CONTINUOUS
 10
5.5749417702
 20
4.4837715865
 30
0.0
 11
0.1761577091
 21
1.7840311479
 31
0.0
 40
0.2516552486
 41
1.6056927228
 42
1.6108035962
  0
ELLIPSE
  5
415
100
AcDbEntity
  8
ALL_ASSEMBLY_MEMBERS
100
AcDbEllipse
 62
7
  6
CONTINUOUS
 10
5.5749417702
 20
4.4837715865
 30
0.0
 11
0.1770586299
 21
1.7931551929
 31
0.0
 40
0.2516552486
 41
-4.677543737
 42
-4.6724588732
  0
ELLIPSE
  5
416
100
AcDbEntity
  8
ALL_ASSEMBLY_MEMBERS
100
AcDbEllipse
 62
7
  6
CONTINUOUS
 10
5.5749417702
 20
4.4675358091
 30
0.0
 11
0.2565838006
 21
0.6978642627
 31
0.0
 40
0.5851641487
 41
-4.4853083988
 42
-4.4776413078
  0
ELLIPSE
  5
417
100
AcDbEntity
  8
ALL_ASSEMBLY_MEMBERS
100
AcDbEllipse
 62
7
  6
CONTINUOUS
 10
5.5749417702
 20
4.4675358091
 30
0.0
 11
0.2578960435
 21
0.70143334
 31
0.0
 40
0.5851641487
 41
-4.485385561
 42
-4.4777574963
  0
ELLIPSE
  5
418
100
AcDbEntity
  8
ALL_ASSEMBLY_MEMBERS
100
AcDbEllipse
 62
7
  6
CONTINUOUS
 10
5.5749417702
 20
4.4926727502
 30
0.0
 11
0.4847035229
 21
0.0351494568
 31
0.0
 40
0.1909695906
 41
-0.3208119948
 42
-0.3023654873
  0
ELLIPSE
  5
419
100
AcDbEntity
  8
ALL_ASSEMBLY_MEMBERS
100
AcDbEllipse
 62
7
  6
CONTINUOUS
 10
5.5749417702
 20
4.4926727502
 30
0.0
 11
0.482237224
 21
0.0349706071
 31
0.0
 40
0.1909695906
 41
-0.3205965469
 42
-0.3020554451
  0
ELLIPSE
  5
41A
100
AcDbEntity
  8
ALL_ASSEMBLY_MEMBERS
100
AcDbEllipse
 62
7
  6
CONTINUOUS
 10
5.5749417702
 20
4.4843380152
 30
0.0
 11
0.4782981788
 21
0.1456294353
 31
0.0
 40
0.541272552
 41
-0.4887317412
 42
-0.4702995801
  0
ELLIPSE
  5
41B
100
AcDbEntity
  8
ALL_ASSEMBLY_MEMBERS
100
AcDbEllipse
 62
7
  6
CONTINUOUS
 10
5.5749417702
 20
4.4843380152
 30
0.0
 11
0.4758644719
 21
0.1448884344
 31
0.0
 40
0.541272552
 41
-0.4732157386
 42
-0.4700841322
  0
ELLIPSE
  5
41C
100
AcDbEntity
  8
ALL_ASSEMBLY_MEMBERS
100
AcDbEllipse
 62
7
  6
CONTINUOUS
 10
5.5749417702
 20
4.4610174598
 30
0.0
 11
0.4334452897
 21
0.3081329288
 31
0.0
 40
0.6863174268
 41
-3.9217468707
 42
-3.9089651839
  0
ELLIPSE
  5
41D
100
AcDbEntity
  8
ALL_ASSEMBLY_MEMBERS
100
AcDbEllipse
 62
7
  6
CONTINUOUS
 10
5.5749417702
 20
4.4610174598
 30
0.0
 11
0.4356620527
 21
0.3097088087
 31
0.0
 40
0.6863174268
 41
-3.9218630593
 42
-3.9091464651
  0
ELLIPSE
  5
41E
100
AcDbEntity
  8
ALL_ASSEMBLY_MEMBERS
100
AcDbEllipse
 62
7
  6
CONTINUOUS
 10
5.5749417702
 20
4.4112920646
 30
0.0
 11
-0.1991462019
 21
1.0676098726
 31
0.0
 40
0.41143047
 41
1.4073819844
 42
1.4125106426
  0
ELLIPSE
  5
41F
100
AcDbEntity
  8
ALL_ASSEMBLY_MEMBERS
100
AcDbEllipse
 62
7
  6
CONTINUOUS
 10
5.5749417702
 20
4.4112920646
 30
0.0
 11
-0.2001646924
 21
1.0730699345
 31
0.0
 40
0.41143047
 41
1.4078248443
 42
1.4129272218
  0
ELLIPSE
  5
420
100
AcDbEntity
  8
ALL_ASSEMBLY_MEMBERS
100
AcDbEllipse
 62
7
  6
CONTINUOUS
 10
5.5749417702
 20
4.4508510872
 30
0.0
 11
0.482064228
 21
0.0528515221
 31
0.0
 40
0.2751159905
 41
2.797985741
 42
2.8107732586
  0
ELLIPSE
  5
421
100
AcDbEntity
  8
ALL_ASSEMBLY_MEMBERS
100
AcDbEllipse
 62
7
  6
CONTINUOUS
 10
5.5749417702
 20
4.4508510872
 30
0.0
 11
0.4845296422
 21
0.0531218199
 31
0.0
 40
0.2751159905
 41
2.7978044598
 42
2.8105267963
  0
ELLIPSE
  5
422
100
AcDbEntity
  8
ALL_ASSEMBLY_MEMBERS
100
AcDbEllipse
 62
7
  6
CONTINUOUS
 10
5.5749417702
 20
4.2849546216
 30
0.0
 11
0.1761576753
 21
1.7840337033
 31
0.0
 40
0.2516548955
 41
1.4930826931
 42
1.4982188066
  0
ELLIPSE
  5
423
100
AcDbEntity
  8
ALL_ASSEMBLY_MEMBERS
100
AcDbEllipse
 62
7
  6
CONTINUOUS
 10
5.5749417702
 20
4.4549780833
 30
0.0
 11
-0.3528491689
 21
0.4769267529
 31
0.0
 40
0.6893673732
 41
1.017474214
 42
1.0277252079
  0
ELLIPSE
  5
424
100
AcDbEntity
  8
ALL_ASSEMBLY_MEMBERS
100
AcDbEllipse
 62
7
  6
CONTINUOUS
 10
5.5749417702
 20
4.4549780833
 30
0.0
 11
-0.3546537404
 21
0.4793658925
 31
0.0
 40
0.6893673732
 41
1.0178907931
 42
1.0280893223
  0
ELLIPSE
  5
425
100
AcDbEntity
  8
ALL_ASSEMBLY_MEMBERS
100
AcDbEllipse
 62
7
  6
CONTINUOUS
 10
5.5749417702
 20
4.4804540942
 30
0.0
 11
0.4817044969
 21
-0.0691775694
 31
0.0
 40
0.3415054598
 41
-2.8149612884
 42
-2.8098396765
  0
ELLIPSE
  5
426
100
AcDbEntity
  8
ALL_ASSEMBLY_MEMBERS
100
AcDbEllipse
 62
7
  6
CONTINUOUS
 10
5.5749417702
 20
4.2849546216
 30
0.0
 11
0.177058596
 21
1.7931577614
 31
0.0
 40
0.2516548955
 41
1.4936063544
 42
1.498716073
  0
ELLIPSE
  5
427
100
AcDbEntity
  8
ALL_ASSEMBLY_MEMBERS
100
AcDbEllipse
 62
7
  6
CONTINUOUS
 10
5.5749417702
 20
4.4804540942
 30
0.0
 11
0.4841680714
 21
-0.0695313633
 31
0.0
 40
0.3415054598
 41
-2.8145971741
 42
-2.804406043
  0
ELLIPSE
  5
428
100
AcDbEntity
  8
ALL_ASSEMBLY_MEMBERS
100
AcDbEllipse
 62
7
  6
CONTINUOUS
 10
5.5749417702
 20
4.3659593377
 30
0.0
 11
0.2099434851
 21
0.9468963828
 31
0.0
 40
0.4585402825
 41
-4.7084918227
 42
-4.7007924332
  0
ELLIPSE
  5
429
100
AcDbEntity
  8
ALL_ASSEMBLY_MEMBERS
100
AcDbEllipse
 62
7
  6
CONTINUOUS
 10
5.5749417702
 20
4.3659593377
 30
0.0
 11
0.2110171961
 21
0.9517390814
 31
0.0
 40
0.4585402825
 41
-4.7079945563
 42
-4.7003346858
  0
ELLIPSE
  5
42A
100
AcDbEntity
  8
ALL_ASSEMBLY_MEMBERS
100
AcDbEllipse
 62
7
  6
CONTINUOUS
 10
5.5749417702
 20
4.4128636473
 30
0.0
 11
0.4334452897
 21
0.3081329288
 31
0.0
 40
0.6863174268
 41
-4.0342992866
 42
-4.0214785888
  0
ELLIPSE
  5
42B
100
AcDbEntity
  8
ALL_ASSEMBLY_MEMBERS
100
AcDbEllipse
 62
7
  6
CONTINUOUS
 10
5.5749417702
 20
4.4128636473
 30
0.0
 11
0.4356620527
 21
0.3097088087
 31
0.0
 40
0.6863174268
 41
-4.0338415392
 42
-4.0210865289
  0
ELLIPSE
  5
42C
100
AcDbEntity
  8
ALL_ASSEMBLY_MEMBERS
100
AcDbEllipse
 62
7
  6
CONTINUOUS
 10
5.5749417702
 20
4.4347998318
 30
0.0
 11
0.4820642285
 21
0.052851487
 31
0.0
 40
0.2751158369
 41
2.6854723729
 42
2.6982804317
  0
ELLIPSE
  5
42D
100
AcDbEntity
  8
ALL_ASSEMBLY_MEMBERS
100
AcDbEllipse
 62
7
  6
CONTINUOUS
 10
5.5749417702
 20
4.4347998318
 30
0.0
 11
0.4845296427
 21
0.0531217846
 31
0.0
 40
0.2751158369
 41
2.6858644329
 42
2.6986069975
  0
ELLIPSE
  5
42E
100
AcDbEntity
  8
ALL_ASSEMBLY_MEMBERS
100
AcDbEllipse
 62
7
  6
CONTINUOUS
 10
5.5749417702
 20
4.4949860553
 30
0.0
 11
0.4817044969
 21
0.0691775694
 31
0.0
 40
0.3415054598
 41
9.0930249837
 42
9.0981465956
  0
ELLIPSE
  5
42F
100
AcDbEntity
  8
ALL_ASSEMBLY_MEMBERS
100
AcDbEllipse
 62
7
  6
CONTINUOUS
 10
5.5749417702
 20
4.5025524312
 30
0.0
 11
-0.182988171
 21
1.4265155693
 31
0.0
 40
0.3128044563
 41
1.5564159305
 42
1.5615284492
  0
ELLIPSE
  5
430
100
AcDbEntity
  8
ALL_ASSEMBLY_MEMBERS
100
AcDbEllipse
 62
7
  6
CONTINUOUS
 10
5.5749417702
 20
4.4949860553
 30
0.0
 11
0.4841680714
 21
0.0695313633
 31
0.0
 40
0.3415054598
 41
2.804406043
 42
2.8145971741
  0
ELLIPSE
  5
431
100
AcDbEntity
  8
ALL_ASSEMBLY_MEMBERS
100
AcDbEllipse
 62
7
  6
CONTINUOUS
 10
5.5749417702
 20
4.5025524312
 30
0.0
 11
-0.1839240248
 21
1.4338111775
 31
0.0
 40
0.3128044563
 41
1.556285014
 42
1.5613714981
  0
ELLIPSE
  5
432
100
AcDbEntity
  8
ALL_ASSEMBLY_MEMBERS
100
AcDbEllipse
 62
7
  6
CONTINUOUS
 10
5.5749417702
 20
4.5077240619
 30
0.0
 11
0.4644757236
 21
0.2078624458
 31
0.0
 40
0.6246664002
 41
2.5913732513
 42
2.6016242452
  0
ELLIPSE
  5
433
100
AcDbEntity
  8
ALL_ASSEMBLY_MEMBERS
100
AcDbEllipse
 62
7
  6
CONTINUOUS
 10
5.5749417702
 20
4.5077240619
 30
0.0
 11
0.4668511851
 21
0.2089255137
 31
0.0
 40
0.6246664002
 41
2.5910091369
 42
2.601207666
  0
ELLIPSE
  5
434
100
AcDbEntity
  8
ALL_ASSEMBLY_MEMBERS
100
AcDbEllipse
 62
7
  6
CONTINUOUS
 10
5.5749417702
 20
4.5562641134
 30
0.0
 11
0.2099434699
 21
0.946896522
 31
0.0
 40
0.4585402229
 41
-4.5293809328
 42
-4.5216870953
  0
ELLIPSE
  5
435
100
AcDbEntity
  8
ALL_ASSEMBLY_MEMBERS
100
AcDbEllipse
 62
7
  6
CONTINUOUS
 10
5.5749417702
 20
4.5562641134
 30
0.0
 11
0.2110171808
 21
0.9517392213
 31
0.0
 40
0.4585402229
 41
-4.529797512
 42
-4.5221431086
  0
ELLIPSE
  5
436
100
AcDbEntity
  8
ALL_ASSEMBLY_MEMBERS
100
AcDbEllipse
 62
7
  6
CONTINUOUS
 10
5.5749417702
 20
4.4732081401
 30
0.0
 11
-0.4000667381
 21
0.3847573131
 31
0.0
 40
0.7000252448
 41
0.972439552
 42
0.9801098693
  0
ELLIPSE
  5
437
100
AcDbEntity
  8
ALL_ASSEMBLY_MEMBERS
100
AcDbEllipse
 62
7
  6
CONTINUOUS
 10
5.5749417702
 20
4.3808718957
 30
0.0
 11
-0.2099434885
 21
0.9468963521
 31
0.0
 40
0.4585402957
 41
1.3800943987
 42
1.3877882363
  0
ELLIPSE
  5
438
100
AcDbEntity
  8
ALL_ASSEMBLY_MEMBERS
100
AcDbEllipse
 62
7
  6
CONTINUOUS
 10
5.5749417702
 20
4.4732081401
 30
0.0
 11
-0.4021127937
 21
0.3867250719
 31
0.0
 40
0.7000252448
 41
0.9722826009
 42
0.9799138428
  0
ELLIPSE
  5
439
100
AcDbEntity
  8
ALL_ASSEMBLY_MEMBERS
100
AcDbEllipse
 62
7
  6
CONTINUOUS
 10
5.5749417702
 20
4.3808718957
 30
0.0
 11
-0.2110171995
 21
0.9517390505
 31
0.0
 40
0.4585402957
 41
1.380550412
 42
1.3882048155
  0
ENDSEC
  0
SECTION
  2
OBJECTS
  0
DICTIONARY
  5
C
100
AcDbDictionary
280
0
281
1
  3
ACAD_GROUP
350
D
  3
ACAD_MLINESTYLE
350
17
  3
ACAD_LAYOUT
350
1A
  3
ACAD_PLOTSETTINGS
350
19
  3
ACAD_PLOTSTYLENAME
350
E
  0
DICTIONARY
  5
D
102
{ACAD_REACTORS
330
C
102
}
100
AcDbDictionary
280
0
281
1
  0
ACDBDICTIONARYWDFLT
  5
E
102
{ACAD_REACTORS
330
C
102
}
100
AcDbDictionary
281
1
  3
Normal
350
F
100
AcDbDictionaryWithDefault
340
F
  0
DICTIONARY
  5
17
102
{ACAD_REACTORS
330
C
102
}
100
AcDbDictionary
280
0
281
1
  3
Standard
350
18
  0
DICTIONARY
  5
19
102
{ACAD_REACTORS
330
C
102
}
100
AcDbDictionary
281
1
  0
DICTIONARY
  5
1A
102
{ACAD_REACTORS
330
C
102
}
100
AcDbDictionary
281
1
  3
Model
350
43A
  3
Layout1
350
43B
  0
ACDBPLACEHOLDER
  5
F
102
{ACAD_REACTORS
330
E
102
}
  0
MLINESTYLE
  5
18
102
{ACAD_REACTORS
330
17
102
}
100
AcDbMlineStyle
  2
STANDARD
 70
0
  3

 62
256
 51
90.0
 52
90.0
 71
2
 49
0.5
 62
256
  6
BYLAYER
 49
-0.5
 62
256
  6
BYLAYER
  0
LAYOUT
  5
43A
102
{ACAD_REACTORS
330
1A
102
}
100
AcDbPlotSettings
  1

  2
none_device
  4
ANSI_A_(11.00_x_8.50_Inches)
  6

 40
0.0
 41
0.0
 42
0.0
 43
0.0
 44
279.4
 45
215.9
 46
0.0
 47
0.0
 48
0.0
 49
0.0
140
0.0
141
0.0
142
1.0
143
1.0
 70
1024
 72
0
 73
0
 74
0
  7

 75
0
147
1.0
148
0.0
149
0.0
100
AcDbLayout
  1
Model
 70
0
 71
0
 10
0.0
 20
0.0
 11
11.0
 21
8.5
 12
0.0
 22
0.0
 32
0.0
 14
0.0
 24
0.0
 34
0.0
 15
0.0
 25
0.0
 35
0.0
146
0.0
 13
0.0
 23
0.0
 33
0.0
 16
1.0
 26
0.0
 36
0.0
 17
0.0
 27
1.0
 37
0.0
 76
0
330
21E
345
0
346
0
  0
LAYOUT
  5
43B
102
{ACAD_REACTORS
330
1A
102
}
100
AcDbPlotSettings
  1

  2
none_device
  4
ANSI_A_(11.00_x_8.50_Inches)
  6

 40
0.0
 41
0.0
 42
0.0
 43
0.0
 44
279.4
 45
215.9
 46
0.0
 47
0.0
 48
0.0
 49
0.0
140
0.0
141
0.0
142
1.0
143
1.0
 70
0
 72
0
 73
0
 74
0
  7

 75
0
147
1.0
148
0.0
149
0.0
100
AcDbLayout
  1
Layout1
 70
0
 71
1
 10
0.0
 20
0.0
 11
11.0
 21
8.5
 12
0.0
 22
0.0
 32
0.0
 14
0.0
 24
0.0
 34
0.0
 15
0.0
 25
0.0
 35
0.0
146
0.0
 13
0.0
 23
0.0
 33
0.0
 16
1.0
 26
0.0
 36
0.0
 17
0.0
 27
1.0
 37
0.0
 76
0
330
21F
345
0
346
0
  0
ENDSEC
  0
EOF
