999
DXF file: E:\BT Custom\CADOUTPUT\_RIGHT.dxf
999
Pro/ENGINEER 2018400 by Parametric Technology Corporation
  0
SECTION
  2
HEADER
  9
$ACADVER
  1
AC1018
  9
$DWGCODEPAGE
  3
ANSI_1252
  9
$EXTMAX
 10
22.0
 20
17.0
 30
0.0
  9
$EXTMIN
 10
0.0
 20
0.0
 30
0.0
  9
$LIMMIN
 10
0.0
 20
0.0
  9
$LIMMAX
 10
22.0
 20
17.0
  9
$VIEWCTR
 10
11.0
 20
8.5
  9
$VIEWSIZE
 40
17.0
  9
$CLAYER
  8
0
  9
$LTSCALE
 40
1.21
  9
$CELTYPE
  6
BYLAYER
  9
$DIMSCALE
 40
1.0
  9
$DIMASZ
 40
0.1
  9
$DIMEXO
 40
0.0625
  9
$DIMDLI
 40
0.836
  9
$DIMEXE
 40
0.125
  9
$DIMCEN
 40
0.198
  9
$DIMLFAC
 40
1.0
  9
$DIMBLK
  1
_FILLED
  9
$DIMALT
 70
1
  9
$DIMALTD
 70
2
  9
$DIMALTTD
 70
2
  9
$DIMALTF
 40
25.4
  9
$DIMTXT
 40
0.08
  9
$DIMTOL
 70
1
  9
$DIMLIM
 70
0
  9
$DIMTFAC
 40
1.0
  9
$DIMTP
 40
0.001
  9
$DIMTM
 40
0.001
  9
$DIMGAP
 40
0.09
  9
$DIMDSEP
 70
46
  9
$AUNITS
 70
0
  9
$PDMODE
 70
3
  9
$PDSIZE
 40
0.06
  9
$HANDSEED
  5
420
  9
$TILEMODE
 70
1
  9
$MEASUREMENT
 70
0
  9
$INSUNITS
 70
1
  0
ENDSEC
  0
SECTION
  2
CLASSES
  0
CLASS
  1
ACDBDICTIONARYWDFLT
  2
AcDbDictionaryWithDefault
  3
AutoCAD 2000
 90
0
 91
1
280
0
281
0
  0
CLASS
  1
ACDBPLACEHOLDER
  2
AcDbPlaceHolder
  3
AutoCAD 2000
 90
0
 91
1
280
0
281
0
  0
CLASS
  1
LAYOUT
  2
AcDbLayout
  3
AutoCAD 2000
 90
0
 91
0
280
0
281
0
  0
ENDSEC
  0
SECTION
  2
TABLES
  0
TABLE
  2
VPORT
  5
8
100
AcDbSymbolTable
 70
2
  0
VPORT
  5
1F4
100
AcDbSymbolTableRecord
100
AcDbViewportTableRecord
  2
*ACTIVE
 70
0
 10
0.0
 20
0.0
 11
1.0
 21
1.0
 12
11.0
 22
8.5
 13
0.0
 23
0.0
 14
1.0
 24
1.0
 15
0.0
 25
0.0
 16
0.0
 26
0.0
 36
1.0
 17
0.0
 27
0.0
 37
0.0
 40
17.0
 41
1.2941176471
 42
50.0
 43
0.0
 44
0.0
 50
0.0
 51
0.0
 71
0
 72
100
 73
1
 74
1
 75
0
 76
0
 77
0
 78
0
  0
ENDTAB
  0
TABLE
  2
LTYPE
  5
5
100
AcDbSymbolTable
 70
6
  0
LTYPE
  5
14
100
AcDbSymbolTableRecord
100
AcDbLinetypeTableRecord
  2
BYBLOCK
 70
0
  3

 72
65
 73
0
 40
0.0
  0
LTYPE
  5
15
100
AcDbSymbolTableRecord
100
AcDbLinetypeTableRecord
  2
BYLAYER
 70
0
  3

 72
65
 73
0
 40
0.0
  0
LTYPE
  5
16
100
AcDbSymbolTableRecord
100
AcDbLinetypeTableRecord
  2
CONTINUOUS
 70
64
  3
Solid line
 72
65
 73
0
 40
0.0
  0
LTYPE
  5
1F5
100
AcDbSymbolTableRecord
100
AcDbLinetypeTableRecord
  2
CENTER
 70
64
  3
____ _ ____ _ ____ _ ____ _ ____ _ ____ _ ____
 72
65
 73
4
 40
0.6
 49
0.375
 74
0
 49
-0.075
 74
0
 49
0.075
 74
0
 49
-0.075
 74
0
  0
LTYPE
  5
1F6
100
AcDbSymbolTableRecord
100
AcDbLinetypeTableRecord
  2
HIDDEN
 70
64
  3
- - - - - - - - - - - - - - - - - - - -
 72
65
 73
2
 40
0.2
 49
0.1
 74
0
 49
-0.1
 74
0
  0
LTYPE
  5
1F7
100
AcDbSymbolTableRecord
100
AcDbLinetypeTableRecord
  2
PHANTOM
 70
64
  3
_____ _ _ _____ _ _ _____ _ _ _____
 72
65
 73
6
 40
0.8
 49
0.45
 74
0
 49
-0.05
 74
0
 49
0.1
 74
0
 49
-0.05
 74
0
 49
0.1
 74
0
 49
-0.05
 74
0
  0
LTYPE
  5
1F8
100
AcDbSymbolTableRecord
100
AcDbLinetypeTableRecord
  2
DOT
 70
64
  3
. . . . . . . . . . . . . . . . . . . .
 72
65
 73
2
 40
0.2
 49
0.1
 74
0
 49
-0.1
 74
0
  0
LTYPE
  5
1F9
100
AcDbSymbolTableRecord
100
AcDbLinetypeTableRecord
  2
DASHED
 70
64
  3
- - - - - - - - - - - - - - - - - - - -
 72
65
 73
2
 40
0.2
 49
0.1
 74
0
 49
-0.1
 74
0
  0
ENDTAB
  0
TABLE
  2
LAYER
  5
2
100
AcDbSymbolTable
 70
36
  0
LAYER
  5
10
100
AcDbSymbolTableRecord
100
AcDbLayerTableRecord
  2
0
 70
0
 62
7
  6
CONTINUOUS
370
-3
390
F
  0
LAYER
  5
1FA
100
AcDbSymbolTableRecord
100
AcDbLayerTableRecord
  2
DEFAULT_1
 70
0
 62
7
  6
CENTER
370
-3
390
F
  0
LAYER
  5
1FB
100
AcDbSymbolTableRecord
100
AcDbLayerTableRecord
  2
DEFAULT_2
 70
0
 62
8
  6
HIDDEN
370
-3
390
F
  0
LAYER
  5
1FC
100
AcDbSymbolTableRecord
100
AcDbLayerTableRecord
  2
DEFAULT_3
 70
0
 62
7
  6
PHANTOM
370
-3
390
F
  0
LAYER
  5
1FD
100
AcDbSymbolTableRecord
100
AcDbLayerTableRecord
  2
ALL_FEATURES
 70
0
 62
7
  6
CONTINUOUS
370
-3
390
F
  0
LAYER
  5
1FE
100
AcDbSymbolTableRecord
100
AcDbLayerTableRecord
  2
AXES_FEATURES
 70
0
 62
7
  6
CONTINUOUS
370
-3
390
F
  0
LAYER
  5
1FF
100
AcDbSymbolTableRecord
100
AcDbLayerTableRecord
  2
DEFAULT_COORDINATE_SYSTEM
 70
0
 62
7
  6
CONTINUOUS
370
-3
390
F
  0
LAYER
  5
200
100
AcDbSymbolTableRecord
100
AcDbLayerTableRecord
  2
DEFAULT_DATUM_AXES
 70
0
 62
7
  6
CONTINUOUS
370
-3
390
F
  0
LAYER
  5
201
100
AcDbSymbolTableRecord
100
AcDbLayerTableRecord
  2
DEFAULT_DATUM_PLANES
 70
0
 62
7
  6
CONTINUOUS
370
-3
390
F
  0
LAYER
  5
202
100
AcDbSymbolTableRecord
100
AcDbLayerTableRecord
  2
DIMENSIONS
 70
0
 62
7
  6
CONTINUOUS
370
-3
390
F
  0
ENDTAB
  0
TABLE
  2
STYLE
  5
3
100
AcDbSymbolTable
 70
1
  0
STYLE
  5
11
100
AcDbSymbolTableRecord
100
AcDbTextStyleTableRecord
  2
STANDARD
 70
0
 40
0.0
 41
0.8
 50
0.0
 71
0
 42
0.2
  3
txt
  4

  0
STYLE
  5
203
100
AcDbSymbolTableRecord
100
AcDbTextStyleTableRecord
  2
TEXTSTYLE_1
 70
0
 40
0.0
 41
0.8
 50
0.0
 71
0
 42
0.2
  3
gdt
  4

  0
ENDTAB
  0
TABLE
  2
VIEW
  5
6
100
AcDbSymbolTable
 70
0
  0
ENDTAB
  0
TABLE
  2
UCS
  5
7
100
AcDbSymbolTable
 70
0
  0
ENDTAB
  0
TABLE
  2
APPID
  5
9
100
AcDbSymbolTable
 70
1
  0
APPID
  5
204
100
AcDbSymbolTableRecord
100
AcDbRegAppTableRecord
  2
ACAD
 70
0
  0
ENDTAB
  0
TABLE
  2
BLOCK_RECORD
  5
1
100
AcDbSymbolTable
 70
0
  0
BLOCK_RECORD
  5
205
100
AcDbSymbolTableRecord
100
AcDbBlockTableRecord
  2
*Model_Space
  0
BLOCK_RECORD
  5
206
100
AcDbSymbolTableRecord
100
AcDbBlockTableRecord
  2
*Paper_Space
  0
BLOCK_RECORD
  5
207
100
AcDbSymbolTableRecord
100
AcDbBlockTableRecord
  2
_FILLED
  0
ENDTAB
  0
TABLE
  2
DIMSTYLE
  5
A
100
AcDbSymbolTable
 70
1
100
AcDbDimStyleTable
 71
0
  0
DIMSTYLE
105
208
100
AcDbSymbolTableRecord
100
AcDbDimStyleTableRecord
  2
STANDARD
 70
0
  3

  4

 40
1.0
 41
0.1
 42
0.0625
 43
0.38
 44
0.125
 45
0.0
 46
0.0
 47
0.001
 48
0.001
140
0.08
141
0.09
142
0.0
143
25.4
144
1.0
145
0.0
146
1.0
147
0.09
 71
1.0
 72
0.0
 73
1
 74
1
 75
0
 76
0
 77
0
 78
4
 79
1
170
1
171
2
172
0
173
0
174
0
175
0
176
0
177
0
178
0
270
2
179
3
271
3
272
3
273
2
274
2
275
0
280
0
281
0
282
0
283
1
284
4
285
0
286
0
287
3
288
0
340
11
278
46
341
207
342
207
343
207
344
207
  0
ENDTAB
  0
ENDSEC
  0
SECTION
  2
BLOCKS
  0
BLOCK
  5
20
100
AcDbEntity
  8
0
100
AcDbBlockBegin
  2
*Model_Space
 70
0
 10
0.0
 20
0.0
 30
0.0
  3
*Model_Space
  1

  0
ENDBLK
  5
21
100
AcDbEntity
  8
0
100
AcDbBlockEnd
  0
BLOCK
  5
1C
100
AcDbEntity
  8
0
100
AcDbBlockBegin
  2
*Paper_Space
 70
0
 10
0.0
 20
0.0
 30
0.0
  3
*Paper_Space
  1

  0
ENDBLK
  5
1D
100
AcDbEntity
  8
0
100
AcDbBlockEnd
  0
BLOCK
  5
209
100
AcDbEntity
  8
0
100
AcDbBlockBegin
  2
_FILLED
 70
64
 10
0.0
 20
0.0
  3
_FILLED
  1

  0
SOLID
  5
20A
100
AcDbEntity
  8
0
  6
BYBLOCK
 62
0
100
AcDbTrace
 10
0.0
 20
0.0
 11
-1.0
 21
0.2
 12
-1.0
 22
-0.2
 13
-1.0
 23
-0.2
  0
ENDBLK
  5
20B
100
AcDbEntity
  8
0
  6
BYBLOCK
 62
0
100
AcDbBlockEnd
  0
ENDSEC
  0
SECTION
  2
ENTITIES
  0
LINE
  5
20C
100
AcDbEntity
  8
0
100
AcDbLine
 62
7
  6
CONTINUOUS
 10
5.1043497782
 20
8.9115959123
 11
5.1129276641
 21
8.9760274254
  0
LINE
  5
20D
100
AcDbEntity
  8
0
100
AcDbLine
 62
7
  6
CONTINUOUS
 10
5.2350670537
 20
8.7075610038
 11
5.2568416871
 21
8.8711179215
  0
LWPOLYLINE
  5
20E
100
AcDbEntity
  8
0
100
AcDbPolyline
 62
7
  6
CONTINUOUS
 90
6
 70
0
 10
5.3111774616
 20
9.5297530678
 10
5.2803364912
 20
9.4197204144
 10
5.2524809383
 20
9.3068947258
 10
5.2281879791
 20
9.1932486138
 10
5.2074816637
 20
9.0788945722
 10
5.1906172
 20
8.9656844745
  0
LINE
  5
20F
100
AcDbEntity
  8
0
100
AcDbLine
 62
9
  6
CONTINUOUS
 10
6.0626172
 20
9.9708064301
 11
5.9781521843
 21
9.4409656343
  0
LINE
  5
210
100
AcDbEntity
  8
0
100
AcDbLine
 62
7
  6
CONTINUOUS
 10
6.4741346123
 20
8.5426016599
 11
6.4959092457
 21
8.7061585777
  0
LINE
  5
211
100
AcDbEntity
  8
0
100
AcDbLine
 62
7
  6
CONTINUOUS
 10
6.6536798536
 20
8.7053307488
 11
6.6622577394
 21
8.7697622618
  0
LWPOLYLINE
  5
212
100
AcDbEntity
  8
0
100
AcDbPolyline
 62
7
  6
CONTINUOUS
 90
4
 70
0
 10
6.5845682035
 20
8.7801052127
 10
6.5938415161
 20
8.8190506536
 10
6.6030744376
 20
8.8598300963
 10
6.6114567439
 20
8.8988546989
  0
LWPOLYLINE
  5
213
100
AcDbEntity
  8
0
100
AcDbPolyline
 62
7
  6
CONTINUOUS
 90
20
 70
0
 10
6.6322189843
 20
8.9563949742
 10
6.6372130241
 20
8.9653278011
 10
6.6457736382
 20
8.9787010096
 10
6.655280882
 20
8.9914189361
 10
6.6656847099
 20
9.003414599
 10
6.6769303381
 20
9.0146248428
 10
6.6889585351
 20
9.0249906696
 10
6.7017059362
 20
9.0344575516
 10
6.7151054086
 20
9.042975736
 10
6.7290865376
 20
9.0505005594
 10
6.743575922
 20
9.0569925861
 10
6.7584975098
 20
9.062417776
 10
6.7737727047
 20
9.0667475911
 10
6.789319493
 20
9.0699590351
 10
6.8050538417
 20
9.0720354385
 10
6.8208907215
 20
9.0729667551
 10
6.8367447086
 20
9.072749615
 10
6.8525300482
 20
9.071387373
 10
6.8681613456
 20
9.0688902011
 10
6.8825002079
 20
9.065560331
  0
LINE
  5
214
100
AcDbEntity
  8
0
100
AcDbLine
 62
7
  6
CONTINUOUS
 10
8.6857532087
 20
12.0665109788
 11
8.747821506
 21
12.1185924641
  0
LINE
  5
215
100
AcDbEntity
  8
0
100
AcDbLine
 62
7
  6
CONTINUOUS
 10
8.7668193277
 20
11.9667886926
 11
8.7683514165
 21
11.9680742678
  0
LINE
  5
216
100
AcDbEntity
  8
0
100
AcDbLine
 62
7
  6
CONTINUOUS
 10
9.2290320376
 20
12.2616776002
 11
9.5864154941
 21
12.4989265304
  0
LINE
  5
217
100
AcDbEntity
  8
0
100
AcDbLine
 62
7
  6
CONTINUOUS
 10
13.5156172
 20
5.3927023482
 11
16.2656172
 21
5.3927023482
  0
LINE
  5
218
100
AcDbEntity
  8
0
100
AcDbLine
 62
9
  6
CONTINUOUS
 10
13.9137993456
 20
5.4160140005
 11
15.8674350545
 21
5.4160140005
  0
LINE
  5
219
100
AcDbEntity
  8
0
100
AcDbLine
 62
7
  6
CONTINUOUS
 10
13.9115138542
 20
5.4927023482
 11
13.5156172
 21
5.4927023482
  0
LINE
  5
21A
100
AcDbEntity
  8
0
100
AcDbLine
 62
7
  6
CONTINUOUS
 10
15.8697205459
 20
5.4927023482
 11
16.2656172
 21
5.4927023482
  0
LINE
  5
21B
100
AcDbEntity
  8
0
100
AcDbLine
 62
7
  6
CONTINUOUS
 10
8.8106496263
 20
11.8906489495
 11
8.8147600115
 21
11.8940979722
  0
LINE
  5
21C
100
AcDbEntity
  8
0
100
AcDbLine
 62
7
  6
CONTINUOUS
 10
8.8909850351
 20
11.7035039399
 11
8.8967979688
 21
11.7083815705
  0
LINE
  5
21D
100
AcDbEntity
  8
0
100
AcDbLine
 62
7
  6
CONTINUOUS
 10
8.9611661777
 20
11.5339466352
 11
8.9669791114
 21
11.5388242657
  0
LINE
  5
21E
100
AcDbEntity
  8
0
100
AcDbLine
 62
9
  6
CONTINUOUS
 10
13.9349704049
 20
5.7232440655
 11
13.7551280916
 21
5.7232440655
  0
LINE
  5
21F
100
AcDbEntity
  8
0
100
AcDbLine
 62
9
  6
CONTINUOUS
 10
15.8462639952
 20
5.7232440655
 11
16.0261063085
 21
5.7232440655
  0
LINE
  5
220
100
AcDbEntity
  8
0
100
AcDbLine
 62
9
  6
CONTINUOUS
 10
13.759765218
 20
5.7614425087
 11
13.6724555964
 21
5.7614425087
  0
LINE
  5
221
100
AcDbEntity
  8
0
100
AcDbLine
 62
9
  6
CONTINUOUS
 10
16.0214691821
 20
5.7614425087
 11
16.1087788037
 21
5.7614425087
  0
LINE
  5
222
100
AcDbEntity
  8
0
100
AcDbLine
 62
7
  6
CONTINUOUS
 10
13.9744984727
 20
5.8677023482
 11
13.6781183157
 21
5.8677023482
  0
LINE
  5
223
100
AcDbEntity
  8
0
100
AcDbLine
 62
7
  6
CONTINUOUS
 10
15.8067359274
 20
5.8677023482
 11
16.1031160843
 21
5.8677023482
  0
LINE
  5
224
100
AcDbEntity
  8
0
100
AcDbLine
 62
9
  6
CONTINUOUS
 10
7.7503175781
 20
8.8330293675
 11
8.0390552246
 21
9.8741836855
  0
LINE
  5
225
100
AcDbEntity
  8
0
100
AcDbLine
 62
7
  6
CONTINUOUS
 10
9.0389630199
 20
11.3511985518
 11
9.0447759536
 21
11.3560761824
  0
LINE
  5
226
100
AcDbEntity
  8
0
100
AcDbLine
 62
7
  6
CONTINUOUS
 10
9.1757247901
 20
11.1526575533
 11
9.1790055604
 21
11.1554104465
  0
LINE
  5
227
100
AcDbEntity
  8
0
100
AcDbLine
 62
7
  6
CONTINUOUS
 10
13.7281172
 20
5.9677023482
 11
14.0144659682
 21
5.9677023482
  0
LINE
  5
228
100
AcDbEntity
  8
0
100
AcDbLine
 62
7
  6
CONTINUOUS
 10
15.7667684319
 20
5.9677023482
 11
16.0531172
 21
5.9677023482
  0
LINE
  5
229
100
AcDbEntity
  8
0
100
AcDbLine
 62
9
  6
CONTINUOUS
 10
14.1284114879
 20
6.1631711186
 11
15.6528229121
 21
6.1631711186
  0
LINE
  5
22A
100
AcDbEntity
  8
0
100
AcDbLine
 62
7
  6
CONTINUOUS
 10
15.6204312957
 20
6.1797023482
 11
14.1608031043
 21
6.1797023482
  0
LINE
  5
22B
100
AcDbEntity
  8
0
100
AcDbLine
 62
9
  6
CONTINUOUS
 10
14.6571491519
 20
6.1919916701
 11
15.1240852482
 21
6.1919916701
  0
LINE
  5
22C
100
AcDbEntity
  8
0
100
AcDbLine
 62
9
  6
CONTINUOUS
 10
14.7572455541
 20
6.2273470091
 11
15.0239888459
 21
6.2273470091
  0
LINE
  5
22D
100
AcDbEntity
  8
0
100
AcDbLine
 62
9
  6
CONTINUOUS
 10
14.3431172
 20
6.3148737796
 11
15.4381172
 21
6.3148737796
  0
LINE
  5
22E
100
AcDbEntity
  8
0
100
AcDbLine
 62
9
  6
CONTINUOUS
 10
14.3731172
 20
6.3862880639
 11
15.4081172
 21
6.3862880639
  0
LINE
  5
22F
100
AcDbEntity
  8
0
100
AcDbLine
 62
7
  6
CONTINUOUS
 10
9.2111449409
 20
11.1171082244
 11
9.2078641706
 21
11.1143553312
  0
LINE
  5
230
100
AcDbEntity
  8
0
100
AcDbLine
 62
7
  6
CONTINUOUS
 10
9.379640453
 20
10.945194997
 11
9.3854533867
 21
10.9500726275
  0
LINE
  5
231
100
AcDbEntity
  8
0
100
AcDbLine
 62
7
  6
CONTINUOUS
 10
13.9635089704
 20
7.2044902137
 11
13.9799041771
 21
7.2073710665
  0
LINE
  5
232
100
AcDbEntity
  8
0
100
AcDbLine
 62
7
  6
CONTINUOUS
 10
15.3781172
 20
6.4577023482
 11
14.4031172
 21
6.4577023482
  0
LINE
  5
233
100
AcDbEntity
  8
0
100
AcDbLine
 62
9
  6
CONTINUOUS
 10
16.0031172
 20
6.4787023482
 11
15.541944216
 21
6.4787023482
  0
LINE
  5
234
100
AcDbEntity
  8
0
100
AcDbLine
 62
9
  6
CONTINUOUS
 10
14.2392901841
 20
6.4787023482
 11
13.7781172
 21
6.4787023482
  0
LINE
  5
235
100
AcDbEntity
  8
0
100
AcDbLine
 62
7
  6
CONTINUOUS
 10
13.7281172
 20
6.5037023482
 11
14.2439728596
 21
6.5037023482
  0
LINE
  5
236
100
AcDbEntity
  8
0
100
AcDbLine
 62
7
  6
CONTINUOUS
 10
15.5372615405
 20
6.5037023482
 11
16.0531172
 21
6.5037023482
  0
LINE
  5
237
100
AcDbEntity
  8
0
100
AcDbLine
 62
7
  6
CONTINUOUS
 10
15.5281172
 20
6.6177023482
 11
15.3666072278
 21
6.6177023482
  0
LINE
  5
238
100
AcDbEntity
  8
0
100
AcDbLine
 62
7
  6
CONTINUOUS
 10
14.2531172
 20
6.6177023482
 11
14.3184899436
 21
6.6177023482
  0
LINE
  5
239
100
AcDbEntity
  8
0
100
AcDbLine
 62
7
  6
CONTINUOUS
 10
15.4281172
 20
6.6677023482
 11
15.3582772955
 21
6.6677023482
  0
LINE
  5
23A
100
AcDbEntity
  8
0
100
AcDbLine
 62
9
  6
CONTINUOUS
 10
13.6176968916
 20
6.8102604591
 11
14.1536509855
 21
6.8102604591
  0
LINE
  5
23B
100
AcDbEntity
  8
0
100
AcDbLine
 62
9
  6
CONTINUOUS
 10
15.3217774777
 20
6.8102604591
 11
16.1635375085
 21
6.8102604591
  0
LINE
  5
23C
100
AcDbEntity
  8
0
100
AcDbLine
 62
9
  6
CONTINUOUS
 10
13.611089641
 20
6.8271928768
 11
14.1394430001
 21
6.8271928768
  0
LINE
  5
23D
100
AcDbEntity
  8
0
100
AcDbLine
 62
9
  6
CONTINUOUS
 10
15.3160884879
 20
6.8271928768
 11
16.1701447591
 21
6.8271928768
  0
LINE
  5
23E
100
AcDbEntity
  8
0
100
AcDbLine
 62
7
  6
CONTINUOUS
 10
9.5461029025
 20
10.836846192
 11
9.5519158362
 21
10.8417238225
  0
LINE
  5
23F
100
AcDbEntity
  8
0
100
AcDbLine
 62
7
  6
CONTINUOUS
 10
9.7008974233
 20
10.7382879416
 11
9.706710357
 21
10.7431655722
  0
LINE
  5
240
100
AcDbEntity
  8
0
100
AcDbLine
 62
7
  6
CONTINUOUS
 10
9.8712491823
 20
10.6266756184
 11
9.8753595675
 21
10.630124641
  0
LINE
  5
241
100
AcDbEntity
  8
0
100
AcDbLine
 62
7
  6
CONTINUOUS
 10
14.5750395647
 20
7.7020348819
 11
14.551536073
 21
7.6979035386
  0
LINE
  5
242
100
AcDbEntity
  8
0
100
AcDbLine
 62
7
  6
CONTINUOUS
 10
15.2031172
 20
7.1794491727
 11
15.1195082083
 21
7.1794491727
  0
LINE
  5
243
100
AcDbEntity
  8
0
100
AcDbLine
 62
7
  6
CONTINUOUS
 10
15.3906172
 20
7.2877023482
 11
15.0290652978
 21
7.2877023482
  0
LINE
  5
244
100
AcDbEntity
  8
0
100
AcDbLine
 62
7
  6
CONTINUOUS
 10
10.3092924174
 20
10.9742734117
 11
10.5223882402
 21
11.1982167277
  0
LINE
  5
245
100
AcDbEntity
  8
0
100
AcDbLine
 62
7
  6
CONTINUOUS
 10
9.9386211401
 20
10.5702896728
 11
9.940153229
 21
10.571575248
  0
LINE
  5
246
100
AcDbEntity
  8
0
100
AcDbLine
 62
7
  6
CONTINUOUS
 10
10.0227514369
 20
10.4731385371
 11
10.0848197341
 21
10.5252200225
  0
LINE
  5
247
100
AcDbEntity
  8
0
100
AcDbLine
 62
7
  6
CONTINUOUS
 10
15.2115378298
 20
7.3877023482
 11
15.3862969549
 21
7.3877023482
  0
LINE
  5
248
100
AcDbEntity
  8
0
100
AcDbLine
 62
7
  6
CONTINUOUS
 10
14.5393787677
 20
7.6877023482
 11
14.4878237972
 21
7.6877023482
  0
LINE
  5
249
100
AcDbEntity
  8
0
100
AcDbLine
 62
7
  6
CONTINUOUS
 10
15.2115378298
 20
7.6877023482
 11
15.3862969549
 21
7.6877023482
  0
LINE
  5
24A
100
AcDbEntity
  8
0
100
AcDbLine
 62
9
  6
CONTINUOUS
 10
11.6097788404
 20
11.1331800034
 11
11.0888686191
 21
10.6960844288
  0
LINE
  5
24B
100
AcDbEntity
  8
0
100
AcDbLine
 62
7
  6
CONTINUOUS
 10
15.3906172089
 20
7.7877023482
 11
14.5605627088
 21
7.7877023482
  0
LINE
  5
24C
100
AcDbEntity
  8
0
100
AcDbLine
 62
9
  6
CONTINUOUS
 10
14.5279978452
 20
7.8265116414
 11
15.2857618566
 21
7.8265116414
  0
LINE
  5
24D
100
AcDbEntity
  8
0
100
AcDbLine
 62
7
  6
CONTINUOUS
 10
6.4315105146
 20
8.3969528166
 11
5.2381009089
 21
8.5558336331
  0
LINE
  5
24E
100
AcDbEntity
  8
0
100
AcDbLine
 62
9
  6
CONTINUOUS
 10
6.4741346123
 20
8.5426016599
 11
5.2350670537
 21
8.7075610038
  0
LINE
  5
24F
100
AcDbEntity
  8
0
100
AcDbLine
 62
9
  6
CONTINUOUS
 10
6.4959092457
 20
8.7061585777
 11
5.2568416871
 21
8.8711179215
  0
LINE
  5
250
100
AcDbEntity
  8
0
100
AcDbLine
 62
7
  6
CONTINUOUS
 10
6.6536798536
 20
8.7053307488
 11
5.1043497782
 21
8.9115959123
  0
LINE
  5
251
100
AcDbEntity
  8
0
100
AcDbLine
 62
7
  6
CONTINUOUS
 10
13.4257944023
 20
7.3122899358
 11
6.8825001498
 21
9.0655603466
  0
LINE
  5
252
100
AcDbEntity
  8
0
100
AcDbLine
 62
9
  6
CONTINUOUS
 10
11.838462351
 20
11.0103840264
 11
11.1700885744
 21
10.449551837
  0
LINE
  5
253
100
AcDbEntity
  8
0
100
AcDbLine
 62
9
  6
CONTINUOUS
 10
11.1816914252
 20
10.4143328953
 11
11.871131424
 21
10.992841744
  0
LINE
  5
254
100
AcDbEntity
  8
0
100
AcDbLine
 62
7
  6
CONTINUOUS
 10
11.9032708044
 20
10.9545395218
 11
11.2138308056
 21
10.3760306731
  0
LINE
  5
255
100
AcDbEntity
  8
0
100
AcDbLine
 62
9
  6
CONTINUOUS
 10
14.2962165772
 20
8.3625383297
 11
16.1701447591
 21
8.3625383502
  0
LINE
  5
256
100
AcDbEntity
  8
0
100
AcDbLine
 62
7
  6
CONTINUOUS
 10
6.6622577394
 20
8.7697622618
 11
5.1129276641
 21
8.9760274254
  0
LINE
  5
257
100
AcDbEntity
  8
0
100
AcDbLine
 62
7
  6
CONTINUOUS
 10
14.5757579528
 20
7.7019193752
 11
14.5750395647
 21
7.7020348819
  0
LINE
  5
258
100
AcDbEntity
  8
0
100
AcDbLine
 62
7
  6
CONTINUOUS
 10
12.9664922
 20
7.5684455707
 11
6.8464340065
 21
9.2083023103
  0
LINE
  5
259
100
AcDbEntity
  8
0
100
AcDbLine
 62
9
  6
CONTINUOUS
 10
11.5501390198
 20
9.8352190063
 11
12.3774670183
 21
10.5294296247
  0
LINE
  5
25A
100
AcDbEntity
  8
0
100
AcDbLine
 62
7
  6
CONTINUOUS
 10
15.8506172094
 20
8.7147023482
 11
13.9306171907
 21
8.7147023482
  0
LINE
  5
25B
100
AcDbEntity
  8
0
100
AcDbLine
 62
9
  6
CONTINUOUS
 10
15.7756172
 20
8.7397023482
 11
14.0056172
 21
8.7397023482
  0
LINE
  5
25C
100
AcDbEntity
  8
0
100
AcDbLine
 62
7
  6
CONTINUOUS
 10
14.0056172
 20
8.8127023482
 11
15.7756172
 21
8.8127023482
  0
LINE
  5
25D
100
AcDbEntity
  8
0
100
AcDbLine
 62
9
  6
CONTINUOUS
 10
14.3906172
 20
8.8377023482
 11
15.3906172
 21
8.8377023482
  0
LINE
  5
25E
100
AcDbEntity
  8
0
100
AcDbLine
 62
7
  6
CONTINUOUS
 10
14.3906172
 20
8.9727023482
 11
15.3906172
 21
8.9727023482
  0
LINE
  5
25F
100
AcDbEntity
  8
0
100
AcDbLine
 62
7
  6
CONTINUOUS
 10
8.0040958512
 20
9.7481242575
 11
12.7208143778
 21
8.4400624426
  0
LINE
  5
260
100
AcDbEntity
  8
0
100
AcDbLine
 62
7
  6
CONTINUOUS
 10
9.6188550173
 20
10.7969169112
 11
9.6187939421
 21
10.7970209592
  0
LINE
  5
261
100
AcDbEntity
  8
0
100
AcDbLine
 62
7
  6
CONTINUOUS
 10
9.0614108843
 20
11.2957906737
 11
9.0367306419
 21
11.3385381074
  0
LINE
  5
262
100
AcDbEntity
  8
0
100
AcDbLine
 62
7
  6
CONTINUOUS
 10
9.0470083316
 20
11.3687366268
 11
8.9589337997
 21
11.5212861908
  0
LINE
  5
263
100
AcDbEntity
  8
0
100
AcDbLine
 62
7
  6
CONTINUOUS
 10
8.9692114893
 20
11.5514847102
 11
8.9565299283
 21
11.5734498181
  0
LINE
  5
264
100
AcDbEntity
  8
0
100
AcDbLine
 62
7
  6
CONTINUOUS
 10
8.9331930183
 20
11.613870532
 11
8.8887526571
 21
11.6908434955
  0
LINE
  5
265
100
AcDbEntity
  8
0
100
AcDbLine
 62
7
  6
CONTINUOUS
 10
8.8990303467
 20
11.7210420149
 11
8.8750477564
 21
11.7625810799
  0
LINE
  5
266
100
AcDbEntity
  8
0
100
AcDbLine
 62
7
  6
CONTINUOUS
 10
8.8516929443
 20
11.803032801
 11
8.8084172484
 21
11.8779885051
  0
LINE
  5
267
100
AcDbEntity
  8
0
100
AcDbLine
 62
7
  6
CONTINUOUS
 10
9.583105629
 20
10.8269683479
 11
9.5831652311
 21
10.8268630637
  0
LINE
  5
268
100
AcDbEntity
  8
0
100
AcDbLine
 62
7
  6
CONTINUOUS
 10
14.4906173412
 20
9.2227023482
 11
15.2906170589
 21
9.2227023482
  0
LINE
  5
269
100
AcDbEntity
  8
0
100
AcDbLine
 62
7
  6
CONTINUOUS
 10
12.5723561453
 20
8.6169880746
 11
8.0390552246
 21
9.8741836855
  0
LINE
  5
26A
100
AcDbEntity
  8
0
100
AcDbLine
 62
7
  6
CONTINUOUS
 10
9.0627816509
 20
11.2939207082
 11
9.3273688504
 21
10.9785979626
  0
LINE
  5
26B
100
AcDbEntity
  8
0
100
AcDbLine
 62
9
  6
CONTINUOUS
 10
9.3289723758
 20
10.976923305
 11
9.0614108843
 21
11.2957906737
  0
LINE
  5
26C
100
AcDbEntity
  8
0
100
AcDbLine
 62
9
  6
CONTINUOUS
 10
9.3667847008
 20
10.945194997
 11
9.0367306419
 21
11.3385381074
  0
LINE
  5
26D
100
AcDbEntity
  8
0
100
AcDbLine
 62
9
  6
CONTINUOUS
 10
9.379640453
 20
10.945194997
 11
9.0389630199
 21
11.3511985518
  0
LINE
  5
26E
100
AcDbEntity
  8
0
100
AcDbLine
 62
9
  6
CONTINUOUS
 10
9.0447759536
 20
11.3560761824
 11
9.3854533867
 21
10.9500726275
  0
LINE
  5
26F
100
AcDbEntity
  8
0
100
AcDbLine
 62
9
  6
CONTINUOUS
 10
9.0470083316
 20
11.3687366268
 11
9.3983091389
 21
10.9500726275
  0
LINE
  5
270
100
AcDbEntity
  8
0
100
AcDbLine
 62
9
  6
CONTINUOUS
 10
9.5332471503
 20
10.836846192
 11
8.9589337997
 21
11.5212861908
  0
LINE
  5
271
100
AcDbEntity
  8
0
100
AcDbLine
 62
9
  6
CONTINUOUS
 10
9.5461029025
 20
10.836846192
 11
8.9611661777
 21
11.5339466352
  0
LINE
  5
272
100
AcDbEntity
  8
0
100
AcDbLine
 62
9
  6
CONTINUOUS
 10
8.9669791114
 20
11.5388242657
 11
9.5519158362
 21
10.8417238225
  0
LINE
  5
273
100
AcDbEntity
  8
0
100
AcDbLine
 62
9
  6
CONTINUOUS
 10
8.9692114893
 20
11.5514847102
 11
9.5647715884
 21
10.8417238225
  0
LINE
  5
274
100
AcDbEntity
  8
0
100
AcDbLine
 62
9
  6
CONTINUOUS
 10
9.6880416711
 20
10.7382879416
 11
8.8887526571
 21
11.6908434955
  0
LINE
  5
275
100
AcDbEntity
  8
0
100
AcDbLine
 62
9
  6
CONTINUOUS
 10
9.7008974233
 20
10.7382879416
 11
8.8909850351
 21
11.7035039399
  0
LINE
  5
276
100
AcDbEntity
  8
0
100
AcDbLine
 62
9
  6
CONTINUOUS
 10
8.8967979688
 20
11.7083815705
 11
9.706710357
 21
10.7431655722
  0
LINE
  5
277
100
AcDbEntity
  8
0
100
AcDbLine
 62
9
  6
CONTINUOUS
 10
8.8990303467
 20
11.7210420149
 11
9.7195661092
 21
10.7431655722
  0
LINE
  5
278
100
AcDbEntity
  8
0
100
AcDbLine
 62
9
  6
CONTINUOUS
 10
9.8583934301
 20
10.6266756184
 11
8.8084172484
 21
11.8779885051
  0
LINE
  5
279
100
AcDbEntity
  8
0
100
AcDbLine
 62
9
  6
CONTINUOUS
 10
9.8712491823
 20
10.6266756184
 11
8.8106496263
 21
11.8906489495
  0
LINE
  5
27A
100
AcDbEntity
  8
0
100
AcDbLine
 62
9
  6
CONTINUOUS
 10
8.8147600115
 20
11.8940979722
 11
9.8753595675
 21
10.630124641
  0
LINE
  5
27B
100
AcDbEntity
  8
0
100
AcDbLine
 62
7
  6
CONTINUOUS
 10
9.9386211401
 20
10.5702896728
 11
8.7668193277
 21
11.9667886926
  0
LINE
  5
27C
100
AcDbEntity
  8
0
100
AcDbLine
 62
7
  6
CONTINUOUS
 10
8.6857532087
 20
12.0665109788
 11
10.0227514369
 21
10.4731385371
  0
LINE
  5
27D
100
AcDbEntity
  8
0
100
AcDbLine
 62
9
  6
CONTINUOUS
 10
8.747821506
 20
12.1185924641
 11
10.0848197341
 21
10.5252200225
  0
LINE
  5
27E
100
AcDbEntity
  8
0
100
AcDbLine
 62
7
  6
CONTINUOUS
 10
14.4906173412
 20
9.5977023482
 11
15.2906170589
 21
9.5977023482
  0
LINE
  5
27F
100
AcDbEntity
  8
0
100
AcDbLine
 62
7
  6
CONTINUOUS
 10
14.5781173049
 20
9.6727023482
 11
15.2031170952
 21
9.6727023482
  0
LINE
  5
280
100
AcDbEntity
  8
0
100
AcDbLine
 62
7
  6
CONTINUOUS
 10
14.6281177275
 20
9.7227023482
 11
15.1531166726
 21
9.7227023482
  0
LINE
  5
281
100
AcDbEntity
  8
0
100
AcDbLine
 62
7
  6
CONTINUOUS
 10
16.1390729546
 20
8.3903659137
 11
16.151795963
 21
8.3866373436
  0
LINE
  5
282
100
AcDbEntity
  8
0
100
AcDbLine
 62
7
  6
CONTINUOUS
 10
8.956625695
 20
11.5735438068
 11
8.9566533698
 21
11.5735210871
  0
LINE
  5
283
100
AcDbEntity
  8
0
100
AcDbLine
 62
7
  6
CONTINUOUS
 10
9.3289723758
 20
10.976923305
 11
9.3667847008
 21
10.945194997
  0
LINE
  5
284
100
AcDbEntity
  8
0
100
AcDbLine
 62
7
  6
CONTINUOUS
 10
9.3983091389
 20
10.9500726275
 11
9.5332471503
 21
10.836846192
  0
LINE
  5
285
100
AcDbEntity
  8
0
100
AcDbLine
 62
7
  6
CONTINUOUS
 10
9.5647715884
 20
10.8417238225
 11
9.6880416711
 21
10.7382879416
  0
LINE
  5
286
100
AcDbEntity
  8
0
100
AcDbLine
 62
7
  6
CONTINUOUS
 10
9.7195661092
 20
10.7431655722
 11
9.7563095693
 21
10.7123341483
  0
LINE
  5
287
100
AcDbEntity
  8
0
100
AcDbLine
 62
7
  6
CONTINUOUS
 10
9.7920912173
 20
10.6823097807
 11
9.8583934301
 21
10.6266756184
  0
LINE
  5
288
100
AcDbEntity
  8
0
100
AcDbLine
 62
7
  6
CONTINUOUS
 10
8.9333161266
 20
11.6139416086
 11
8.9332889353
 21
11.613964734
  0
LINE
  5
289
100
AcDbEntity
  8
0
100
AcDbLine
 62
9
  6
CONTINUOUS
 10
8.7807513709
 20
12.1302839929
 11
10.1020518534
 21
10.555619396
  0
LINE
  5
28A
100
AcDbEntity
  8
0
100
AcDbLine
 62
7
  6
CONTINUOUS
 10
16.1390729551
 20
8.3903659181
 11
16.1283599179
 21
8.393848108
  0
LINE
  5
28B
100
AcDbEntity
  8
0
100
AcDbLine
 62
7
  6
CONTINUOUS
 10
16.1283599179
 20
8.393848108
 11
16.1037583259
 21
8.4030792428
  0
LINE
  5
28C
100
AcDbEntity
  8
0
100
AcDbLine
 62
9
  6
CONTINUOUS
 10
9.2290320376
 20
12.2616776002
 11
10.3092924723
 21
10.9742734695
  0
LINE
  5
28D
100
AcDbEntity
  8
0
100
AcDbLine
 62
7
  6
CONTINUOUS
 10
12.9546806947
 20
8.1613514192
 11
11.5501390198
 21
9.8352190063
  0
LINE
  5
28E
100
AcDbEntity
  8
0
100
AcDbLine
 62
7
  6
CONTINUOUS
 10
14.2184321209
 20
6.7330573083
 11
13.9291776965
 21
7.0777773077
  0
LINE
  5
28F
100
AcDbEntity
  8
0
100
AcDbLine
 62
7
  6
CONTINUOUS
 10
14.365099422
 20
6.5621553348
 11
14.2332029842
 21
6.7193433885
  0
LINE
  5
290
100
AcDbEntity
  8
0
100
AcDbLine
 62
7
  6
CONTINUOUS
 10
11.1816914252
 20
10.4143328953
 11
11.2138308056
 21
10.3760306731
  0
LINE
  5
291
100
AcDbEntity
  8
0
100
AcDbLine
 62
7
  6
CONTINUOUS
 10
13.8087643859
 20
7.2835092562
 11
13.8730431469
 21
7.2069048119
  0
LINE
  5
292
100
AcDbEntity
  8
0
100
AcDbLine
 62
7
  6
CONTINUOUS
 10
13.4736600138
 20
7.7451000487
 11
13.5379387747
 21
7.6684956044
  0
LINE
  5
293
100
AcDbEntity
  8
0
100
AcDbLine
 62
7
  6
CONTINUOUS
 10
13.9759209743
 20
7.151973778
 11
13.9802866553
 21
7.146770962
  0
LINE
  5
294
100
AcDbEntity
  8
0
100
AcDbLine
 62
7
  6
CONTINUOUS
 10
13.9797088143
 20
7.2076038908
 11
13.9909936382
 21
7.1941551614
  0
LINE
  5
295
100
AcDbEntity
  8
0
100
AcDbLine
 62
7
  6
CONTINUOUS
 10
10.67143612
 20
11.1935611093
 11
11.0888686191
 21
10.6960844288
  0
LINE
  5
296
100
AcDbEntity
  8
0
100
AcDbLine
 62
9
  6
CONTINUOUS
 10
10.5750976887
 20
11.3206585696
 11
9.5864154941
 21
12.4989265304
  0
LINE
  5
297
100
AcDbEntity
  8
0
100
AcDbLine
 62
7
  6
CONTINUOUS
 10
14.0035357367
 20
7.2380766585
 11
13.9649684801
 21
7.2840393251
  0
LINE
  5
298
100
AcDbEntity
  8
0
100
AcDbLine
 62
7
  6
CONTINUOUS
 10
16.1095438966
 20
8.4007493956
 11
16.1037583259
 21
8.4030792428
  0
LWPOLYLINE
  5
299
100
AcDbEntity
  8
0
100
AcDbPolyline
 62
7
  6
CONTINUOUS
 90
15
 70
0
 10
16.1037583259
 20
8.4030792428
 10
16.0797820603
 20
8.4138307101
 10
16.0565242957
 20
8.4260608685
 10
16.0340766729
 20
8.4397216253
 10
16.0125272015
 20
8.4547594537
 10
15.9919603344
 20
8.4711154241
 10
15.9724565742
 20
8.4887255059
 10
15.9540922411
 20
8.507520783
 10
15.9369392047
 20
8.5274277001
 10
15.9210646137
 20
8.5483683322
 10
15.9065306154
 20
8.5702607014
 10
15.893394107
 20
8.5930191048
 10
15.8817065105
 20
8.6165544548
 10
15.8715135755
 20
8.6407746242
 10
15.8628552012
 20
8.6655848055
  0
LINE
  5
29A
100
AcDbEntity
  8
0
100
AcDbLine
 62
7
  6
CONTINUOUS
 10
14.404085277
 20
7.0585417508
 11
14.1983932419
 21
7.3036759726
  0
LINE
  5
29B
100
AcDbEntity
  8
0
100
AcDbLine
 62
9
  6
CONTINUOUS
 10
12.9546806947
 20
8.1613514192
 11
13.7820086933
 21
8.8555620377
  0
LINE
  5
29C
100
AcDbEntity
  8
0
100
AcDbLine
 62
7
  6
CONTINUOUS
 10
14.6163777404
 20
7.2366762785
 11
14.4106857053
 21
7.4818105003
  0
LINE
  5
29D
100
AcDbEntity
  8
0
100
AcDbLine
 62
7
  6
CONTINUOUS
 10
14.5091250691
 20
7.6623164809
 11
14.4705578125
 21
7.7082791475
  0
LINE
  5
29E
100
AcDbEntity
  8
0
100
AcDbLine
 62
7
  6
CONTINUOUS
 10
10.7137417865
 20
12.2010353815
 11
11.6097788404
 21
11.1331800034
  0
LINE
  5
29F
100
AcDbEntity
  8
0
100
AcDbLine
 62
7
  6
CONTINUOUS
 10
10.636952537
 20
12.3081064837
 11
10.5994987708
 21
12.3527421441
  0
LINE
  5
2A0
100
AcDbEntity
  8
0
100
AcDbLine
 62
7
  6
CONTINUOUS
 10
14.5734655086
 20
7.644507119
 11
14.5664249178
 21
7.6528977683
  0
LINE
  5
2A1
100
AcDbEntity
  8
0
100
AcDbLine
 62
7
  6
CONTINUOUS
 10
14.5757579528
 20
7.7019193752
 11
14.5814975817
 21
7.6950791518
  0
LINE
  5
2A2
100
AcDbEntity
  8
0
100
AcDbLine
 62
7
  6
CONTINUOUS
 10
14.1018164571
 20
8.2721858887
 11
14.1660952181
 21
8.1955814444
  0
LINE
  5
2A3
100
AcDbEntity
  8
0
100
AcDbLine
 62
7
  6
CONTINUOUS
 10
11.871131424
 20
10.992841744
 11
11.9032708044
 21
10.9545395218
  0
LINE
  5
2A4
100
AcDbEntity
  8
0
100
AcDbLine
 62
7
  6
CONTINUOUS
 10
14.4982043847
 20
7.8620181049
 11
14.5624831457
 21
7.7854136606
  0
LINE
  5
2A5
100
AcDbEntity
  8
0
100
AcDbLine
 62
7
  6
CONTINUOUS
 10
15.1119927541
 20
7.1888732542
 11
14.9800963162
 21
7.3460613079
  0
LINE
  5
2A6
100
AcDbEntity
  8
0
100
AcDbLine
 62
7
  6
CONTINUOUS
 10
14.9691556751
 20
7.3629891658
 11
14.6799012508
 21
7.7077091652
  0
LINE
  5
2A7
100
AcDbEntity
  8
0
100
AcDbLine
 62
7
  6
CONTINUOUS
 10
13.7820086933
 20
8.8555620377
 11
12.3774670183
 21
10.5294296247
  0
LWPOLYLINE
  5
2A8
100
AcDbEntity
  8
0
100
AcDbPolyline
 62
7
  6
CONTINUOUS
 90
4
 70
0
 10
10.7137415149
 20
12.2010351548
 10
10.7104520956
 20
12.2051727158
 10
10.7064337956
 20
12.2109198621
 10
10.7048967399
 20
12.2133680152
  0
LINE
  5
2A9
100
AcDbEntity
  8
0
100
AcDbLine
 62
7
  6
CONTINUOUS
 10
13.611089641
 20
6.8271928768
 11
13.611089641
 21
7.0708084793
  0
LINE
  5
2AA
100
AcDbEntity
  8
0
100
AcDbLine
 62
7
  6
CONTINUOUS
 10
13.7281172
 20
5.8677023482
 11
13.7281172
 21
5.9677023482
  0
LINE
  5
2AB
100
AcDbEntity
  8
0
100
AcDbLine
 62
7
  6
CONTINUOUS
 10
13.7781172
 20
5.9677023482
 11
13.7781172
 21
6.4787023482
  0
LINE
  5
2AC
100
AcDbEntity
  8
0
100
AcDbLine
 62
7
  6
CONTINUOUS
 10
13.8406172
 20
5.8677023482
 11
13.8406172
 21
5.9677023482
  0
LINE
  5
2AD
100
AcDbEntity
  8
0
100
AcDbLine
 62
7
  6
CONTINUOUS
 10
13.9183791989
 20
8.6655848085
 11
13.9180528305
 21
8.6646496139
  0
LINE
  5
2AE
100
AcDbEntity
  8
0
100
AcDbLine
 62
7
  6
CONTINUOUS
 10
13.4736603588
 20
7.7451003383
 11
14.1018161121
 21
8.2721855992
  0
LINE
  5
2AF
100
AcDbEntity
  8
0
100
AcDbLine
 62
7
  6
CONTINUOUS
 10
13.5379387747
 20
7.6684956044
 11
14.1660952181
 21
8.1955814444
  0
LINE
  5
2B0
100
AcDbEntity
  8
0
100
AcDbLine
 62
7
  6
CONTINUOUS
 10
14.0056172
 20
8.7397023482
 11
14.0056172
 21
8.8127023482
  0
LINE
  5
2B1
100
AcDbEntity
  8
0
100
AcDbLine
 62
7
  6
CONTINUOUS
 10
13.9759209743
 20
7.151973778
 11
13.9759319691
 21
7.1527013108
  0
LWPOLYLINE
  5
2B2
100
AcDbEntity
  8
0
100
AcDbPolyline
 62
7
  6
CONTINUOUS
 90
3
 70
0
 10
13.9306171543
 20
8.7147023482
 10
13.9254691192
 20
8.6908878816
 10
13.9183791989
 20
8.6655848085
  0
LINE
  5
2B3
100
AcDbEntity
  8
0
100
AcDbLine
 62
7
  6
CONTINUOUS
 10
13.8087643859
 20
7.2835092562
 11
14.4982043847
 21
7.8620181049
  0
LINE
  5
2B4
100
AcDbEntity
  8
0
100
AcDbLine
 62
7
  6
CONTINUOUS
 10
13.8730431469
 20
7.2069048119
 11
14.5624831457
 21
7.7854136606
  0
LINE
  5
2B5
100
AcDbEntity
  8
0
100
AcDbLine
 62
7
  6
CONTINUOUS
 10
14.551535999
 20
7.6979034765
 11
13.9635089173
 21
7.2044901691
  0
LINE
  5
2B6
100
AcDbEntity
  8
0
100
AcDbLine
 62
7
  6
CONTINUOUS
 10
14.6517244878
 20
7.7101741996
 11
13.9316429551
 21
7.1059540511
  0
LINE
  5
2B7
100
AcDbEntity
  8
0
100
AcDbLine
 62
9
  6
CONTINUOUS
 10
14.6799012508
 20
7.7077091652
 11
14.4106857053
 21
7.4818105003
  0
LINE
  5
2B8
100
AcDbEntity
  8
0
100
AcDbLine
 62
9
  6
CONTINUOUS
 10
14.1983932419
 20
7.3036759726
 11
13.9291776965
 21
7.0777773077
  0
LINE
  5
2B9
100
AcDbEntity
  8
0
100
AcDbLine
 62
7
  6
CONTINUOUS
 10
14.3431172
 20
6.3148737796
 11
14.3431172
 21
6.1797023482
  0
LINE
  5
2BA
100
AcDbEntity
  8
0
100
AcDbLine
 62
7
  6
CONTINUOUS
 10
14.3906172
 20
8.8377023482
 11
14.3906172
 21
8.9727023482
  0
LINE
  5
2BB
100
AcDbEntity
  8
0
100
AcDbLine
 62
7
  6
CONTINUOUS
 10
14.4906172
 20
9.5977023482
 11
14.4906172
 21
9.2227023482
  0
LINE
  5
2BC
100
AcDbEntity
  8
0
100
AcDbLine
 62
7
  6
CONTINUOUS
 10
14.6281172
 20
9.7227023482
 11
14.6281172
 21
9.6727023482
  0
LINE
  5
2BD
100
AcDbEntity
  8
0
100
AcDbLine
 62
7
  6
CONTINUOUS
 10
14.6531172
 20
9.2227023482
 11
14.6531172
 21
8.9727023482
  0
LINE
  5
2BE
100
AcDbEntity
  8
0
100
AcDbLine
 62
9
  6
CONTINUOUS
 10
14.6571491519
 20
6.1919916701
 11
14.6571491519
 21
6.1797023482
  0
LINE
  5
2BF
100
AcDbEntity
  8
0
100
AcDbLine
 62
9
  6
CONTINUOUS
 10
14.6784704348
 20
6.1919916701
 11
14.6784704348
 21
6.1797023482
  0
LINE
  5
2C0
100
AcDbEntity
  8
0
100
AcDbLine
 62
7
  6
CONTINUOUS
 10
14.5814975817
 20
7.6950791518
 11
14.581486587
 21
7.6943516187
  0
LINE
  5
2C1
100
AcDbEntity
  8
0
100
AcDbLine
 62
7
  6
CONTINUOUS
 10
13.9912010588
 20
7.1947261117
 11
13.9759319691
 21
7.1527013108
  0
LINE
  5
2C2
100
AcDbEntity
  8
0
100
AcDbLine
 62
7
  6
CONTINUOUS
 10
14.404085277
 20
7.0585417508
 11
14.6163777404
 21
7.2366762785
  0
LINE
  5
2C3
100
AcDbEntity
  8
0
100
AcDbLine
 62
9
  6
CONTINUOUS
 10
14.9691556751
 20
7.3629891658
 11
14.2184321209
 21
6.7330573083
  0
LINE
  5
2C4
100
AcDbEntity
  8
0
100
AcDbLine
 62
7
  6
CONTINUOUS
 10
14.2332028798
 20
6.7193433009
 11
14.9800964206
 21
7.3460613955
  0
LINE
  5
2C5
100
AcDbEntity
  8
0
100
AcDbLine
 62
7
  6
CONTINUOUS
 10
15.3906172
 20
7.2877023482
 11
15.2031172
 21
7.1794491727
  0
LINE
  5
2C6
100
AcDbEntity
  8
0
100
AcDbLine
 62
7
  6
CONTINUOUS
 10
14.8906172
 20
7.8508175036
 11
14.8906172
 21
7.8497998484
  0
LINE
  5
2C7
100
AcDbEntity
  8
0
100
AcDbLine
 62
9
  6
CONTINUOUS
 10
15.1027639653
 20
6.1797023482
 11
15.1027639653
 21
6.1919916701
  0
LINE
  5
2C8
100
AcDbEntity
  8
0
100
AcDbLine
 62
9
  6
CONTINUOUS
 10
15.1240852482
 20
6.1797023482
 11
15.1240852482
 21
6.1919916701
  0
LINE
  5
2C9
100
AcDbEntity
  8
0
100
AcDbLine
 62
7
  6
CONTINUOUS
 10
15.1281172
 20
9.2227023482
 11
15.1281172
 21
8.9727023482
  0
LINE
  5
2CA
100
AcDbEntity
  8
0
100
AcDbLine
 62
7
  6
CONTINUOUS
 10
15.1531172
 20
9.7227023482
 11
15.1531172
 21
9.6727023482
  0
LINE
  5
2CB
100
AcDbEntity
  8
0
100
AcDbLine
 62
7
  6
CONTINUOUS
 10
15.2031172
 20
7.1794491727
 11
15.2031172
 21
7.0634045996
  0
LINE
  5
2CC
100
AcDbEntity
  8
0
100
AcDbLine
 62
7
  6
CONTINUOUS
 10
14.5662174973
 20
7.6523268179
 11
14.581486587
 21
7.6943516187
  0
LINE
  5
2CD
100
AcDbEntity
  8
0
100
AcDbLine
 62
9
  6
CONTINUOUS
 10
14.365099422
 20
6.5621553348
 11
15.1119927541
 21
7.1888732542
  0
LINE
  5
2CE
100
AcDbEntity
  8
0
100
AcDbLine
 62
7
  6
CONTINUOUS
 10
15.2906172
 20
9.5977023482
 11
15.2906172
 21
9.2227023482
  0
LINE
  5
2CF
100
AcDbEntity
  8
0
100
AcDbLine
 62
7
  6
CONTINUOUS
 10
15.3906172
 20
7.7877023482
 11
15.3906172
 21
7.6879488576
  0
LINE
  5
2D0
100
AcDbEntity
  8
0
100
AcDbLine
 62
7
  6
CONTINUOUS
 10
15.3906172
 20
7.3874772238
 11
15.3906172
 21
7.2877023482
  0
LINE
  5
2D1
100
AcDbEntity
  8
0
100
AcDbLine
 62
7
  6
CONTINUOUS
 10
15.3906172
 20
8.8377023482
 11
15.3906172
 21
8.9727023482
  0
LINE
  5
2D2
100
AcDbEntity
  8
0
100
AcDbLine
 62
7
  6
CONTINUOUS
 10
15.4281172
 20
6.6177023482
 11
15.4281172
 21
6.6677023482
  0
LINE
  5
2D3
100
AcDbEntity
  8
0
100
AcDbLine
 62
7
  6
CONTINUOUS
 10
15.4381172
 20
6.3148737796
 11
15.4381172
 21
6.1797023482
  0
LWPOLYLINE
  5
2D4
100
AcDbEntity
  8
0
100
AcDbPolyline
 62
7
  6
CONTINUOUS
 90
3
 70
0
 10
15.8628552001
 20
8.6655848095
 10
15.8557652801
 20
8.6908878816
 10
15.850617245
 20
8.7147023482
  0
LINE
  5
2D5
100
AcDbEntity
  8
0
100
AcDbLine
 62
7
  6
CONTINUOUS
 10
15.7756172
 20
8.7397023482
 11
15.7756172
 21
8.8127023482
  0
LINE
  5
2D6
100
AcDbEntity
  8
0
100
AcDbLine
 62
7
  6
CONTINUOUS
 10
15.9406172
 20
5.8677023482
 11
15.9406172
 21
5.9677023482
  0
LINE
  5
2D7
100
AcDbEntity
  8
0
100
AcDbLine
 62
7
  6
CONTINUOUS
 10
16.0031172
 20
5.9677023482
 11
16.0031172
 21
6.4787023482
  0
LINE
  5
2D8
100
AcDbEntity
  8
0
100
AcDbLine
 62
7
  6
CONTINUOUS
 10
16.0531172
 20
5.8677023482
 11
16.0531172
 21
5.9677023482
  0
LINE
  5
2D9
100
AcDbEntity
  8
0
100
AcDbLine
 62
7
  6
CONTINUOUS
 10
16.1701447591
 20
6.8271928768
 11
16.1701447591
 21
8.3625383502
  0
ARC
  5
2DA
100
AcDbEntity
  8
0
100
AcDbCircle
 62
7
  6
CONTINUOUS
 10
5.2191869193
 20
9.6787656864
 40
4.2080408735
100
AcDbArc
 50
29.6828410964
 51
30.3188325593
  0
ARC
  5
2DB
100
AcDbEntity
  8
0
100
AcDbCircle
 62
7
  6
CONTINUOUS
 10
7.0693184627
 20
7.4738648227
 40
4.2080408409
100
AcDbArc
 50
49.6811674379
 51
50.3171589057
  0
ARC
  5
2DC
100
AcDbEntity
  8
0
100
AcDbCircle
 62
7
  6
CONTINUOUS
 10
8.8500320797
 20
8.4784069448
 40
3.6917232668
100
AcDbArc
 50
158.9581738858
 51
163.4540201487
  0
ARC
  5
2DD
100
AcDbEntity
  8
0
100
AcDbCircle
 62
7
  6
CONTINUOUS
 10
10.8801466889
 20
10.4310705025
 40
0.788
100
AcDbArc
 50
136.421813569
 51
170.9058661425
  0
ARC
  5
2DE
100
AcDbEntity
  8
0
100
AcDbCircle
 62
7
  6
CONTINUOUS
 10
8.7932094051
 20
12.918185508
 40
0.788
100
AcDbArc
 50
269.0941338575
 51
303.5781868591
  0
ARC
  5
2DF
100
AcDbEntity
  8
0
100
AcDbCircle
 62
7
  6
CONTINUOUS
 10
10.0486304047
 20
11.8144455994
 40
0.768
100
AcDbArc
 50
31.2940235084
 51
40.0
  0
ARC
  5
2E0
100
AcDbEntity
  8
0
100
AcDbCircle
 62
7
  6
CONTINUOUS
 10
10.0111766385
 20
11.8590812599
 40
0.768
100
AcDbArc
 50
40.0
 51
123.5781868592
  0
ARC
  5
2E1
100
AcDbEntity
  8
0
100
AcDbCircle
 62
7
  6
CONTINUOUS
 10
5.9785075889
 20
8.6085853975
 40
0.5
100
AcDbArc
 50
334.9590968763
 51
352.4167
  0
ARC
  5
2E2
100
AcDbEntity
  8
0
100
AcDbCircle
 62
7
  6
CONTINUOUS
 10
5.7306940771
 20
8.6415772662
 40
0.5
100
AcDbArc
 50
172.4167
 51
189.8743031237
  0
ARC
  5
2E3
100
AcDbEntity
  8
0
100
AcDbCircle
 62
7
  6
CONTINUOUS
 10
10.820753064
 20
10.4711087654
 40
0.35
100
AcDbArc
 50
356.4688478326
 51
40.0
  0
ARC
  5
2E4
100
AcDbEntity
  8
0
100
AcDbCircle
 62
7
  6
CONTINUOUS
 10
6.8258038742
 20
8.854036846
 40
0.2189882339
100
AcDbArc
 50
74.9967615836
 51
168.1900186234
  0
ARC
  5
2E5
100
AcDbEntity
  8
0
100
AcDbCircle
 62
7
  6
CONTINUOUS
 10
10.5948316757
 20
11.1292823483
 40
0.1
100
AcDbArc
 50
40.0
 51
136.4218131413
  0
ARC
  5
2E6
100
AcDbEntity
  8
0
100
AcDbCircle
 62
7
  6
CONTINUOUS
 10
8.7799608865
 20
12.080290242
 40
0.05
100
AcDbArc
 50
89.0941338574
 51
130.0
  0
ARC
  5
2E7
100
AcDbEntity
  8
0
100
AcDbCircle
 62
7
  6
CONTINUOUS
 10
10.0526803537
 20
10.5635222446
 40
0.05
100
AcDbArc
 50
310.0
 51
350.9058661425
  0
ARC
  5
2E8
100
AcDbEntity
  8
0
100
AcDbCircle
 62
7
  6
CONTINUOUS
 10
5.2370166061
 20
8.873757271
 40
0.02
100
AcDbArc
 50
352.4167
 51
82.4167
  0
ARC
  5
2E9
100
AcDbEntity
  8
0
100
AcDbCircle
 62
7
  6
CONTINUOUS
 10
6.5157343267
 20
8.7035192282
 40
0.02
100
AcDbArc
 50
82.4167
 51
172.4167
  0
ARC
  5
2EA
100
AcDbEntity
  8
0
100
AcDbCircle
 62
7
  6
CONTINUOUS
 10
9.3354002519
 20
10.9845837494
 40
0.01
100
AcDbArc
 50
220.0
 51
230.0
  0
ARC
  5
2EB
100
AcDbEntity
  8
0
100
AcDbCircle
 62
7
  6
CONTINUOUS
 10
9.0700711383
 20
11.3007906737
 40
0.01
100
AcDbArc
 50
210.0
 51
220.0
  0
ARC
  5
2EC
100
AcDbEntity
  8
0
100
AcDbCircle
 62
7
  6
CONTINUOUS
 10
9.3732125769
 20
10.9528554414
 40
0.01
100
AcDbArc
 50
230.0
 51
310.0
  0
ARC
  5
2ED
100
AcDbEntity
  8
0
100
AcDbCircle
 62
7
  6
CONTINUOUS
 10
9.045390896
 20
11.3435381074
 40
0.01
100
AcDbArc
 50
130.0
 51
210.0
  0
ARC
  5
2EE
100
AcDbEntity
  8
0
100
AcDbCircle
 62
7
  6
CONTINUOUS
 10
9.3918812628
 20
10.9424121831
 40
0.01
100
AcDbArc
 50
50.0
 51
130.0
  0
ARC
  5
2EF
100
AcDbEntity
  8
0
100
AcDbCircle
 62
7
  6
CONTINUOUS
 10
9.0383480775
 20
11.3637366268
 40
0.01
100
AcDbArc
 50
310.0
 51
30.0
  0
ARC
  5
2F0
100
AcDbEntity
  8
0
100
AcDbCircle
 62
7
  6
CONTINUOUS
 10
9.5396750264
 20
10.8445066364
 40
0.01
100
AcDbArc
 50
230.0
 51
310.0
  0
ARC
  5
2F1
100
AcDbEntity
  8
0
100
AcDbCircle
 62
7
  6
CONTINUOUS
 10
8.9675940538
 20
11.5262861908
 40
0.01
100
AcDbArc
 50
130.0
 51
210.0
  0
ARC
  5
2F2
100
AcDbEntity
  8
0
100
AcDbCircle
 62
7
  6
CONTINUOUS
 10
9.5583437123
 20
10.8340633781
 40
0.01
100
AcDbArc
 50
50.0
 51
130.0
  0
ARC
  5
2F3
100
AcDbEntity
  8
0
100
AcDbCircle
 62
7
  6
CONTINUOUS
 10
8.9605512353
 20
11.5464847102
 40
0.01
100
AcDbArc
 50
310.0
 51
30.0
  0
ARC
  5
2F4
100
AcDbEntity
  8
0
100
AcDbCircle
 62
7
  6
CONTINUOUS
 10
9.6944695472
 20
10.745948386
 40
0.01
100
AcDbArc
 50
230.0
 51
310.0
  0
ARC
  5
2F5
100
AcDbEntity
  8
0
100
AcDbCircle
 62
7
  6
CONTINUOUS
 10
8.8974129112
 20
11.6958434955
 40
0.01
100
AcDbArc
 50
130.0
 51
210.0
  0
ARC
  5
2F6
100
AcDbEntity
  8
0
100
AcDbCircle
 62
7
  6
CONTINUOUS
 10
9.7131382331
 20
10.7355051277
 40
0.01
100
AcDbArc
 50
50.0
 51
130.0
  0
ARC
  5
2F7
100
AcDbEntity
  8
0
100
AcDbCircle
 62
7
  6
CONTINUOUS
 10
8.8903700927
 20
11.7160420149
 40
0.01
100
AcDbArc
 50
310.0
 51
30.0
  0
ARC
  5
2F8
100
AcDbEntity
  8
0
100
AcDbCircle
 62
7
  6
CONTINUOUS
 10
9.8648213062
 20
10.6343360628
 40
0.01
100
AcDbArc
 50
230.0
 51
310.0
  0
ARC
  5
2F9
100
AcDbEntity
  8
0
100
AcDbCircle
 62
7
  6
CONTINUOUS
 10
8.8170775024
 20
11.8829885051
 40
0.01
100
AcDbArc
 50
130.0
 51
210.0
  0
ARC
  5
2FA
100
AcDbEntity
  8
0
100
AcDbCircle
 62
7
  6
CONTINUOUS
 10
9.8817874435
 20
10.6224641966
 40
0.01
100
AcDbArc
 50
40.0
 51
130.0
  0
ARC
  5
2FB
100
AcDbEntity
  8
0
100
AcDbCircle
 62
7
  6
CONTINUOUS
 10
8.8083321354
 20
11.9017584166
 40
0.01
100
AcDbArc
 50
310.0
 51
40.0
  0
ARC
  5
2FC
100
AcDbEntity
  8
0
100
AcDbCircle
 62
7
  6
CONTINUOUS
 10
15.5977320838
 20
-9.586418838
 40
17.8535849159
100
AcDbArc
 50
94.4487339911
 51
94.6152186897
  0
ARC
  5
2FD
100
AcDbEntity
  8
0
100
AcDbCircle
 62
7
  6
CONTINUOUS
 10
14.1037473594
 20
9.1255328337
 40
1.5
100
AcDbArc
 50
220.0
 51
245.7836193294
  0
ARC
  5
2FE
100
AcDbEntity
  8
0
100
AcDbCircle
 62
7
  6
CONTINUOUS
 10
12.6329420286
 20
7.8913806231
 40
1.5
100
AcDbArc
 50
14.2163806706
 51
40.0
  0
ARC
  5
2FF
100
AcDbEntity
  8
0
100
AcDbCircle
 62
7
  6
CONTINUOUS
 10
12.7656172
 20
5.8677023482
 40
1.0
100
AcDbArc
 50
351.6940891949
 51
360.0
  0
ARC
  5
300
100
AcDbEntity
  8
0
100
AcDbCircle
 62
7
  6
CONTINUOUS
 10
12.6781172
 20
5.8677023482
 40
1.0
100
AcDbArc
 50
353.9002438478
 51
360.0
  0
ARC
  5
301
100
AcDbEntity
  8
0
100
AcDbCircle
 62
7
  6
CONTINUOUS
 10
13.5347459879
 20
6.6177023482
 40
0.7183712121
100
AcDbArc
 50
295.2003196522
 51
360.0
  0
ARC
  5
302
100
AcDbEntity
  8
0
100
AcDbCircle
 62
7
  6
CONTINUOUS
 10
13.3760836734
 20
7.2668839435
 40
0.433
100
AcDbArc
 50
2.2004490872
 51
68.0498776995
  0
ARC
  5
303
100
AcDbEntity
  8
0
100
AcDbCircle
 62
7
  6
CONTINUOUS
 10
13.5176982155
 20
8.7915004536
 40
0.4200000132
100
AcDbArc
 50
342.4474729234
 51
349.4640392696
  0
ARC
  5
304
100
AcDbEntity
  8
0
100
AcDbCircle
 62
7
  6
CONTINUOUS
 10
13.3086987008
 20
6.5257958425
 40
0.42
100
AcDbArc
 50
356.9846464087
 51
42.6327575958
  0
ARC
  5
305
100
AcDbEntity
  8
0
100
AcDbCircle
 62
7
  6
CONTINUOUS
 10
13.2946070058
 20
5.8018212477
 40
0.38
100
AcDbArc
 50
305.5635636845
 51
353.9002438478
  0
ARC
  5
306
100
AcDbEntity
  8
0
100
AcDbCircle
 62
7
  6
CONTINUOUS
 10
13.3840615073
 20
5.7774159215
 40
0.375
100
AcDbArc
 50
310.6030912348
 51
351.6940891949
  0
ARC
  5
307
100
AcDbEntity
  8
0
100
AcDbCircle
 62
7
  6
CONTINUOUS
 10
13.3610898549
 20
7.0708084786
 40
0.249999965
100
AcDbArc
 50
0.0000001423
 51
75.0000473926
  0
ARC
  5
308
100
AcDbEntity
  8
0
100
AcDbCircle
 62
7
  6
CONTINUOUS
 10
13.6281172
 20
5.4427023482
 40
0.05
100
AcDbArc
 50
90.0
 51
270.0
  0
ARC
  5
309
100
AcDbEntity
  8
0
100
AcDbCircle
 62
7
  6
CONTINUOUS
 10
13.5156172
 20
5.4427023482
 40
0.05
100
AcDbArc
 50
90.0
 51
270.0
  0
ARC
  5
30A
100
AcDbEntity
  8
0
100
AcDbCircle
 62
7
  6
CONTINUOUS
 10
14.1608031043
 20
6.1397023482
 40
0.04
100
AcDbArc
 50
90.0
 51
144.0754589747
  0
ARC
  5
30B
100
AcDbEntity
  8
0
100
AcDbCircle
 62
7
  6
CONTINUOUS
 10
13.9806172
 20
8.7397023482
 40
0.025
100
AcDbArc
 50
270.0000000217
 51
360.0
  0
ARC
  5
30C
100
AcDbEntity
  8
0
100
AcDbCircle
 62
7
  6
CONTINUOUS
 10
13.636089641
 20
6.8271928768
 40
0.025
100
AcDbArc
 50
180.0000000016
 51
222.6327577213
  0
ARC
  5
30D
100
AcDbEntity
  8
0
100
AcDbCircle
 62
7
  6
CONTINUOUS
 10
13.7531172
 20
6.4787023482
 40
0.025
100
AcDbArc
 50
0.0
 51
89.9999999878
  0
ARC
  5
30E
100
AcDbEntity
  8
0
100
AcDbCircle
 62
7
  6
CONTINUOUS
 10
13.9387422701
 20
5.4177023482
 40
0.025
100
AcDbArc
 50
183.8723551763
 51
270.0
  0
ARC
  5
30F
100
AcDbEntity
  8
0
100
AcDbCircle
 62
7
  6
CONTINUOUS
 10
13.9444985854
 20
7.0906330599
 40
0.02
100
AcDbArc
 50
130.0
 51
220.0
  0
ARC
  5
310
100
AcDbEntity
  8
0
100
AcDbCircle
 62
7
  6
CONTINUOUS
 10
11.2284003537
 20
9.5652482102
 40
1.5
100
AcDbArc
 50
40.0
 51
64.8539722589
  0
ARC
  5
311
100
AcDbEntity
  8
0
100
AcDbCircle
 62
7
  6
CONTINUOUS
 10
12.6992056844
 20
10.7994004208
 40
1.5
100
AcDbArc
 50
195.1460277411
 51
220.0
  0
ARC
  5
312
100
AcDbEntity
  8
0
100
AcDbCircle
 62
7
  6
CONTINUOUS
 10
14.1213325132
 20
9.3856586086
 40
1.1758511596
100
AcDbArc
 50
274.4631141837
 51
275.2663559603
  0
ARC
  5
313
100
AcDbEntity
  8
0
100
AcDbCircle
 62
7
  6
CONTINUOUS
 10
11.8778943955
 20
11.3581556668
 40
0.35
100
AcDbArc
 50
220.0
 51
263.5311521674
  0
ARC
  5
314
100
AcDbEntity
  8
0
100
AcDbCircle
 62
7
  6
CONTINUOUS
 10
11.2199936473
 20
10.4464722757
 40
0.05
100
AcDbArc
 50
176.4688478326
 51
220.0
  0
ARC
  5
315
100
AcDbEntity
  8
0
100
AcDbCircle
 62
7
  6
CONTINUOUS
 10
11.8328292018
 20
10.9607023635
 40
0.05
100
AcDbArc
 50
40.0
 51
83.5311521674
  0
ARC
  5
316
100
AcDbEntity
  8
0
100
AcDbCircle
 62
7
  6
CONTINUOUS
 10
14.8906172
 20
6.3270323327
 40
1.5506700155
100
AcDbArc
 50
86.7134641906
 51
87.1550438243
  0
ARC
  5
317
100
AcDbEntity
  8
0
100
AcDbCircle
 62
7
  6
CONTINUOUS
 10
14.8906172
 20
6.3270323327
 40
1.5506700155
100
AcDbArc
 50
92.8443943598
 51
93.2870892236
  0
ARC
  5
318
100
AcDbEntity
  8
0
100
AcDbCircle
 62
7
  6
CONTINUOUS
 10
14.8906172
 20
6.3270323327
 40
1.5506700155
100
AcDbArc
 50
87.3749745646
 51
92.6250254354
  0
ARC
  5
319
100
AcDbEntity
  8
0
100
AcDbCircle
 62
7
  6
CONTINUOUS
 10
14.8906172
 20
6.3270323327
 40
1.5506700155
100
AcDbArc
 50
75.2369687319
 51
86.5742389704
  0
ARC
  5
31A
100
AcDbEntity
  8
0
100
AcDbCircle
 62
7
  6
CONTINUOUS
 10
14.8906172
 20
6.3270323327
 40
1.5506700155
100
AcDbArc
 50
93.4257610296
 51
103.735421045
  0
ARC
  5
31B
100
AcDbEntity
  8
0
100
AcDbCircle
 62
7
  6
CONTINUOUS
 10
14.8906172
 20
6.3270323327
 40
1.5496700155
100
AcDbArc
 50
92.6267205481
 51
92.6375794906
  0
ARC
  5
31C
100
AcDbEntity
  8
0
100
AcDbCircle
 62
7
  6
CONTINUOUS
 10
14.8906172
 20
6.3270323327
 40
1.5496700155
100
AcDbArc
 50
87.3603972406
 51
87.3732794519
  0
ARC
  5
31D
100
AcDbEntity
  8
0
100
AcDbCircle
 62
7
  6
CONTINUOUS
 10
14.7280422638
 20
5.4931377222
 40
1.142
100
AcDbArc
 50
356.1276448237
 51
35.9245410253
  0
ARC
  5
31E
100
AcDbEntity
  8
0
100
AcDbCircle
 62
7
  6
CONTINUOUS
 10
15.0531921363
 20
5.4931377222
 40
1.142
100
AcDbArc
 50
144.0754589747
 51
183.8723551763
  0
ARC
  5
31F
100
AcDbEntity
  8
0
100
AcDbCircle
 62
7
  6
CONTINUOUS
 10
14.2406172
 20
6.4577023482
 40
1.1375
100
AcDbArc
 50
0.0
 51
40.0
  0
ARC
  5
320
100
AcDbEntity
  8
0
100
AcDbCircle
 62
9
  6
CONTINUOUS
 10
14.8907686187
 20
5.6812964559
 40
0.5996147766
100
AcDbArc
 50
75.8457522428
 51
90.0144686651
  0
ARC
  5
321
100
AcDbEntity
  8
0
100
AcDbCircle
 62
9
  6
CONTINUOUS
 10
14.8904190993
 20
5.68168093
 40
0.5992286534
100
AcDbArc
 50
89.9810585348
 51
104.1589092384
  0
ARC
  5
322
100
AcDbEntity
  8
0
100
AcDbCircle
 62
9
  6
CONTINUOUS
 10
14.8906182517
 20
5.7480571856
 40
0.4975001246
100
AcDbArc
 50
74.4498639587
 51
105.5497021285
  0
ARC
  5
323
100
AcDbEntity
  8
0
100
AcDbCircle
 62
7
  6
CONTINUOUS
 10
14.2406172
 20
6.4577023482
 40
0.1625
100
AcDbArc
 50
0.0
 51
40.0
  0
ARC
  5
324
100
AcDbEntity
  8
0
100
AcDbCircle
 62
7
  6
CONTINUOUS
 10
15.4781172
 20
6.4577023482
 40
0.1
100
AcDbArc
 50
180.0
 51
225.5729959992
  0
ARC
  5
325
100
AcDbEntity
  8
0
100
AcDbCircle
 62
7
  6
CONTINUOUS
 10
15.3381172
 20
6.3148737796
 40
0.1
100
AcDbArc
 50
0.0
 51
45.5729959992
  0
ARC
  5
326
100
AcDbEntity
  8
0
100
AcDbCircle
 62
7
  6
CONTINUOUS
 10
14.3031172
 20
6.4577023482
 40
0.1
100
AcDbArc
 50
314.4270040008
 51
360.0
  0
ARC
  5
327
100
AcDbEntity
  8
0
100
AcDbCircle
 62
7
  6
CONTINUOUS
 10
14.4431172
 20
6.3148737796
 40
0.1
100
AcDbArc
 50
134.4270040008
 51
180.0
  0
ARC
  5
328
100
AcDbEntity
  8
0
100
AcDbCircle
 62
7
  6
CONTINUOUS
 10
15.6204312957
 20
6.1397023482
 40
0.04
100
AcDbArc
 50
35.9245410253
 51
90.0
  0
ARC
  5
329
100
AcDbEntity
  8
0
100
AcDbCircle
 62
7
  6
CONTINUOUS
 10
14.2337530097
 20
6.7459130605
 40
0.02
100
AcDbArc
 50
220.0
 51
310.0
  0
ARC
  5
32A
100
AcDbEntity
  8
0
100
AcDbCircle
 62
7
  6
CONTINUOUS
 10
14.5897113388
 20
8.2852384699
 40
0.433
100
AcDbArc
 50
191.9501223005
 51
257.7995509128
  0
ARC
  5
32B
100
AcDbEntity
  8
0
100
AcDbCircle
 62
7
  6
CONTINUOUS
 10
14.8313841976
 20
7.6255155049
 40
0.2508367996
100
AcDbArc
 50
92.7049102342
 51
95.245977427
  0
ARC
  5
32C
100
AcDbEntity
  8
0
100
AcDbCircle
 62
7
  6
CONTINUOUS
 10
14.9504325918
 20
7.6338985239
 40
0.242435708
100
AcDbArc
 50
84.7117992211
 51
87.339005041
  0
ARC
  5
32D
100
AcDbEntity
  8
0
100
AcDbCircle
 62
7
  6
CONTINUOUS
 10
14.9702602424
 20
7.7283737982
 40
0.1469238493
100
AcDbArc
 50
92.5657203103
 51
93.7045021975
  0
ARC
  5
32E
100
AcDbEntity
  8
0
100
AcDbCircle
 62
7
  6
CONTINUOUS
 10
15.2076539024
 20
7.4651675413
 40
0.0840925973
100
AcDbArc
 50
282.7652503127
 51
292.6767103213
  0
ARC
  5
32F
100
AcDbEntity
  8
0
100
AcDbCircle
 62
7
  6
CONTINUOUS
 10
15.2076539028
 20
7.6102371561
 40
0.0840925961
100
AcDbArc
 50
67.3232896338
 51
77.2347532584
  0
ARC
  5
330
100
AcDbEntity
  8
0
100
AcDbCircle
 62
7
  6
CONTINUOUS
 10
14.5370292884
 20
7.6131619949
 40
0.0810403606
100
AcDbArc
 50
83.3148841946
 51
89.9755935408
  0
ARC
  5
331
100
AcDbEntity
  8
0
100
AcDbCircle
 62
7
  6
CONTINUOUS
 10
15.2781172
 20
7.7975020012
 40
0.03
100
AcDbArc
 50
340.9043343386
 51
75.2369687319
  0
ARC
  5
332
100
AcDbEntity
  8
0
100
AcDbCircle
 62
7
  6
CONTINUOUS
 10
15.4156172
 20
8.8377023482
 40
0.025
100
AcDbArc
 50
180.0
 51
269.9999997099
  0
ARC
  5
333
100
AcDbEntity
  8
0
100
AcDbCircle
 62
7
  6
CONTINUOUS
 10
14.3656172
 20
8.8377023482
 40
0.025
100
AcDbArc
 50
270.0000002901
 51
360.0
  0
ARC
  5
334
100
AcDbEntity
  8
0
100
AcDbCircle
 62
7
  6
CONTINUOUS
 10
14.9538347862
 20
7.3501334136
 40
0.02
100
AcDbArc
 50
310.0
 51
40.0
  0
ARC
  5
335
100
AcDbEntity
  8
0
100
AcDbCircle
 62
7
  6
CONTINUOUS
 10
14.6645803619
 20
7.694853413
 40
0.02
100
AcDbArc
 50
40.0
 51
130.0
  0
ARC
  5
336
100
AcDbEntity
  8
0
100
AcDbCircle
 62
7
  6
CONTINUOUS
 10
17.0156172
 20
5.8677023482
 40
1.0
100
AcDbArc
 50
180.0
 51
188.3059108051
  0
ARC
  5
337
100
AcDbEntity
  8
0
100
AcDbCircle
 62
7
  6
CONTINUOUS
 10
17.1031172
 20
5.8677023482
 40
1.0
100
AcDbArc
 50
180.0
 51
186.0997561522
  0
ARC
  5
338
100
AcDbEntity
  8
0
100
AcDbCircle
 62
7
  6
CONTINUOUS
 10
16.2464884122
 20
6.6177023482
 40
0.7183712121
100
AcDbArc
 50
180.0
 51
244.7996803478
  0
ARC
  5
339
100
AcDbEntity
  8
0
100
AcDbCircle
 62
7
  6
CONTINUOUS
 10
16.4725356993
 20
6.5257958425
 40
0.42
100
AcDbArc
 50
137.3672424042
 51
183.0153535913
  0
ARC
  5
33A
100
AcDbEntity
  8
0
100
AcDbCircle
 62
7
  6
CONTINUOUS
 10
16.4866273943
 20
5.8018212477
 40
0.38
100
AcDbArc
 50
186.0997561522
 51
234.4364363155
  0
ARC
  5
33B
100
AcDbEntity
  8
0
100
AcDbCircle
 62
7
  6
CONTINUOUS
 10
16.3971728928
 20
5.7774159215
 40
0.375
100
AcDbArc
 50
188.3059108051
 51
229.3969087652
  0
ARC
  5
33C
100
AcDbEntity
  8
0
100
AcDbCircle
 62
7
  6
CONTINUOUS
 10
16.1531172
 20
5.4427023482
 40
0.05
100
AcDbArc
 50
270.0
 51
90.0
  0
ARC
  5
33D
100
AcDbEntity
  8
0
100
AcDbCircle
 62
7
  6
CONTINUOUS
 10
16.2656172
 20
5.4427023482
 40
0.05
100
AcDbArc
 50
270.0
 51
90.0
  0
ARC
  5
33E
100
AcDbEntity
  8
0
100
AcDbCircle
 62
7
  6
CONTINUOUS
 10
16.1451447591
 20
6.8271928768
 40
0.025
100
AcDbArc
 50
317.3672422787
 51
359.9999999984
  0
ARC
  5
33F
100
AcDbEntity
  8
0
100
AcDbCircle
 62
7
  6
CONTINUOUS
 10
16.0281172
 20
6.4787023482
 40
0.025
100
AcDbArc
 50
90.0000000122
 51
180.0
  0
ARC
  5
340
100
AcDbEntity
  8
0
100
AcDbCircle
 62
7
  6
CONTINUOUS
 10
15.84249213
 20
5.4177023482
 40
0.025
100
AcDbArc
 50
270.0
 51
356.1276448237
  0
ARC
  5
341
100
AcDbEntity
  8
0
100
AcDbCircle
 62
7
  6
CONTINUOUS
 10
15.7123175855
 20
7.7854609276
 40
0.4977673385
100
AcDbArc
 50
254.8068749303
 51
285.1931250697
  0
ARC
  5
342
100
AcDbEntity
  8
0
100
AcDbCircle
 62
7
  6
CONTINUOUS
 10
15.7123175855
 20
7.2899437719
 40
0.4977673385
100
AcDbArc
 50
74.8068748358
 51
105.1931251642
  0
ARC
  5
343
100
AcDbEntity
  8
0
100
AcDbCircle
 62
7
  6
CONTINUOUS
 10
16.2635363287
 20
8.7915005585
 40
0.420000168
100
AcDbArc
 50
190.5359712067
 51
248.4908824651
  0
ARC
  5
344
100
AcDbEntity
  8
0
100
AcDbCircle
 62
7
  6
CONTINUOUS
 10
16.2635187251
 20
8.7914537254
 40
0.4199501436
100
AcDbArc
 50
248.4908221247
 51
252.7624180798
  0
ARC
  5
345
100
AcDbEntity
  8
0
100
AcDbCircle
 62
7
  6
CONTINUOUS
 10
15.8006172
 20
8.7397023482
 40
0.025
100
AcDbArc
 50
180.0
 51
269.9999999783
  0
ARC
  5
346
100
AcDbEntity
  8
0
100
AcDbCircle
 62
7
  6
CONTINUOUS
 10
16.1451432006
 20
8.3625382853
 40
0.0249999971
100
AcDbArc
 50
0.0001596495
 51
74.5673569146
  0
ARC
  5
347
100
AcDbEntity
  8
0
100
AcDbCircle
 62
7
  6
CONTINUOUS
 10
14.5025370575
 20
13.3066029102
 40
5.9402353868
100
AcDbArc
 50
257.3570827603
 51
263.0585282011
  0
ARC
  5
348
100
AcDbEntity
  8
0
100
AcDbCircle
 62
7
  6
CONTINUOUS
 10
14.4982334286
 20
13.2847835274
 40
5.9180020362
100
AcDbArc
 50
254.9995030646
 51
257.3515043351
  0
ARC
  5
349
100
AcDbEntity
  8
0
100
AcDbCircle
 62
9
  6
CONTINUOUS
 10
14.4360006197
 20
10.1942934949
 40
1.9934515543
100
AcDbArc
 50
261.5593292489
 51
263.5722730704
  0
ARC
  5
34A
100
AcDbEntity
  8
0
100
AcDbCircle
 62
7
  6
CONTINUOUS
 10
15.2781172
 20
9.6727023482
 40
0.075
100
AcDbArc
 50
180.0
 51
270.0
  0
ARC
  5
34B
100
AcDbEntity
  8
0
100
AcDbCircle
 62
7
  6
CONTINUOUS
 10
14.5031172
 20
9.6727023482
 40
0.075
100
AcDbArc
 50
270.0
 51
360.0
  0
LINE
  5
34C
100
AcDbEntity
  8
0
100
AcDbLine
 62
7
  6
CONTINUOUS
 10
14.5732138235
 20
7.8448704642
 11
14.5756788797
 21
7.8453835919
  0
SPLINE
  5
34D
100
AcDbEntity
  8
0
100
AcDbSpline
 62
7
  6
CONTINUOUS
 70
0
 71
3
 72
23
 73
19
 74
0
 42
0.0000001
 43
0.0000001
 44
0.0000000001
 40
0.0
 40
0.0
 40
0.0
 40
0.0
 40
0.060113548
 40
0.1214820224
 40
0.1838977061
 40
0.2471537426
 40
0.3110451611
 40
0.3753698945
 40
0.4399298384
 40
0.5045319972
 40
0.5689901024
 40
0.633120497
 40
0.6967331821
 40
0.7596318322
 40
0.8216149444
 40
0.8824768869
 40
0.9420088864
 40
1.0
 40
1.0
 40
1.0
 40
1.0
 10
8.0390552246
 20
9.8741836855
 30
0.0
 10
8.0005351543
 20
9.8848662464
 30
0.0
 10
7.9223768372
 20
9.9053376395
 30
0.0
 10
7.8032566511
 20
9.9330509342
 30
0.0
 10
7.6813798249
 20
9.957939426
 30
0.0
 10
7.5572231371
 20
9.9798185261
 30
0.0
 10
7.4312617923
 20
9.9985041781
 30
0.0
 10
7.3039713776
 20
10.013812319
 30
0.0
 10
7.1758274868
 20
10.0255589484
 30
0.0
 10
7.0473045732
 20
10.0335602884
 30
0.0
 10
6.9188830922
 20
10.0376318075
 30
0.0
 10
6.7910575495
 20
10.0379563555
 30
0.0
 10
6.6643110905
 20
10.0347178588
 30
0.0
 10
6.5391269278
 20
10.0281001507
 30
0.0
 10
6.4159882802
 20
10.0182871682
 30
0.0
 10
6.2953780398
 20
10.0054628706
 30
0.0
 10
6.1777805789
 20
9.9898115727
 30
0.0
 10
6.1006052429
 20
9.9774380331
 30
0.0
 10
6.0626172
 20
9.9708064301
 30
0.0
  0
SPLINE
  5
34E
100
AcDbEntity
  8
0
100
AcDbSpline
 62
7
  6
CONTINUOUS
 70
0
 71
3
 72
15
 73
11
 74
0
 42
0.0000001
 43
0.0000001
 44
0.0000000001
 40
0.0
 40
0.0
 40
0.0
 40
0.0
 40
0.1325431052
 40
0.2610813795
 40
0.3865450313
 40
0.509857433
 40
0.6319355636
 40
0.7537010229
 40
0.8760799922
 40
1.0
 40
1.0
 40
1.0
 40
1.0
 10
6.0626172
 20
9.9708064301
 30
0.0
 10
6.033038775
 20
9.9656429009
 30
0.0
 10
5.9748719851
 20
9.9549095082
 30
0.0
 10
5.8890865677
 20
9.9373122877
 30
0.0
 10
5.8057028739
 20
9.9184949563
 30
0.0
 10
5.7241127849
 20
9.898449977
 30
0.0
 10
5.6437026566
 20
9.8771695075
 30
0.0
 10
5.5639035695
 20
9.8544604966
 30
0.0
 10
5.4841478033
 20
9.8301298183
 30
0.0
 10
5.4310911955
 20
9.8128511191
 30
0.0
 10
5.4044782071
 20
9.8039178612
 30
0.0
  0
SPLINE
  5
34F
100
AcDbEntity
  8
0
100
AcDbSpline
 62
7
  6
CONTINUOUS
 70
0
 71
3
 72
9
 73
5
 74
0
 42
0.0000001
 43
0.0000001
 44
0.0000000001
 40
0.0
 40
0.0
 40
0.0
 40
0.0
 40
0.2428966619
 40
1.0
 40
1.0
 40
1.0
 40
1.0
 10
14.5778264963
 20
7.6843497897
 30
0.0
 10
14.5799582613
 20
7.6833375627
 30
0.0
 10
14.5886088336
 20
7.678907678
 30
0.0
 10
14.5967361538
 20
7.6734762103
 30
0.0
 10
14.6025271696
 20
7.6689407651
 30
0.0
  0
SPLINE
  5
350
100
AcDbEntity
  8
0
100
AcDbSpline
 62
7
  6
CONTINUOUS
 70
0
 71
3
 72
11
 73
7
 74
0
 42
0.0000001
 43
0.0000001
 44
0.0000000001
 40
0.0
 40
0.0
 40
0.0
 40
0.0
 40
0.2392285218
 40
0.4852065432
 40
0.7386598316
 40
1.0
 40
1.0
 40
1.0
 40
1.0
 10
15.2441705906
 20
7.3812023482
 30
0.0
 10
15.2413025994
 20
7.3812023482
 30
0.0
 10
15.2354815899
 20
7.3815229349
 30
0.0
 10
15.2267227683
 20
7.3829196721
 30
0.0
 10
15.217884755
 20
7.3852245985
 30
0.0
 10
15.2120705331
 20
7.3873219925
 30
0.0
 10
15.2091707536
 20
7.3885083519
 30
0.0
  0
SPLINE
  5
351
100
AcDbEntity
  8
0
100
AcDbSpline
 62
7
  6
CONTINUOUS
 70
0
 71
3
 72
35
 73
31
 74
0
 42
0.0000001
 43
0.0000001
 44
0.0000000001
 40
0.0
 40
0.0
 40
0.0
 40
0.0
 40
0.054798912
 40
0.0834134917
 40
0.1127619051
 40
0.1427862117
 40
0.1734234315
 40
0.2046087814
 40
0.2362777546
 40
0.3007785118
 40
0.3335321549
 40
0.366534076
 40
0.3997317365
 40
0.4330745732
 40
0.4665133996
 40
0.4999999998
 40
0.5334866
 40
0.5669254264
 40
0.600268263
 40
0.6334659236
 40
0.6664678446
 40
0.6992214878
 40
0.763722245
 40
0.7953912182
 40
0.8265765682
 40
0.857213788
 40
0.8872380946
 40
0.9165865081
 40
0.9452010879
 40
1.0
 40
1.0
 40
1.0
 40
1.0
 10
15.2091707536
 20
7.3885083519
 30
0.0
 10
15.2028840513
 20
7.391080371
 30
0.0
 10
15.1936535777
 20
7.395877912
 30
0.0
 10
15.1820819787
 20
7.4037307672
 30
0.0
 10
15.1735379029
 20
7.4105274676
 30
0.0
 10
15.1653311515
 20
7.4180995678
 30
0.0
 10
15.1575289774
 20
7.426403308
 30
0.0
 10
15.1501994494
 20
7.4353924722
 30
0.0
 10
15.1410936473
 20
7.4482992606
 30
0.0
 10
15.1332700892
 20
7.4623057272
 30
0.0
 10
15.1269203298
 20
7.4771614641
 30
0.0
 10
15.122914938
 20
7.4887665697
 30
0.0
 10
15.1197430989
 20
7.5007016656
 30
0.0
 10
15.117445655
 20
7.5128911096
 30
0.0
 10
15.1160541108
 20
7.5252530756
 30
0.0
 10
15.1155880373
 20
7.5377023478
 30
0.0
 10
15.1160541107
 20
7.5501516199
 30
0.0
 10
15.1174456548
 20
7.5625135859
 30
0.0
 10
15.1197430987
 20
7.57470303
 30
0.0
 10
15.1229149378
 20
7.5866381258
 30
0.0
 10
15.1269203295
 20
7.5982432315
 30
0.0
 10
15.1332700888
 20
7.6130989684
 30
0.0
 10
15.1410936469
 20
7.627105435
 30
0.0
 10
15.1501994489
 20
7.6400122235
 30
0.0
 10
15.1575289768
 20
7.6490013878
 30
0.0
 10
15.1653311509
 20
7.657305128
 30
0.0
 10
15.1735379023
 20
7.6648772282
 30
0.0
 10
15.1820819781
 20
7.6716739287
 30
0.0
 10
15.193653577
 20
7.679526784
 30
0.0
 10
15.2028840506
 20
7.6843243251
 30
0.0
 10
15.209170753
 20
7.6868963443
 30
0.0
  0
SPLINE
  5
352
100
AcDbEntity
  8
0
100
AcDbSpline
 62
7
  6
CONTINUOUS
 70
0
 71
3
 72
11
 73
7
 74
0
 42
0.0000001
 43
0.0000001
 44
0.0000000001
 40
0.0
 40
0.0
 40
0.0
 40
0.0
 40
0.2613401687
 40
0.5147934573
 40
0.7607714783
 40
1.0
 40
1.0
 40
1.0
 40
1.0
 10
15.209170753
 20
7.6868963443
 30
0.0
 10
15.2120705325
 20
7.6880827037
 30
0.0
 10
15.2178847545
 20
7.6901800977
 30
0.0
 10
15.2267227679
 20
7.6924850242
 30
0.0
 10
15.2354815897
 20
7.6938817614
 30
0.0
 10
15.2413025994
 20
7.6942023482
 30
0.0
 10
15.2441705906
 20
7.6942023482
 30
0.0
  0
SPLINE
  5
353
100
AcDbEntity
  8
0
100
AcDbSpline
 62
7
  6
CONTINUOUS
 70
0
 71
3
 72
25
 73
21
 74
0
 42
0.0000001
 43
0.0000001
 44
0.0000000001
 40
0.0
 40
0.0
 40
0.0
 40
0.0
 40
0.0079930283
 40
0.0166714584
 40
0.0265494519
 40
0.0379717751
 40
0.0511486467
 40
0.0662030072
 40
0.0832019056
 40
0.1021730196
 40
0.1460218411
 40
0.1975864782
 40
0.2564929637
 40
0.3222249354
 40
0.3941495301
 40
0.4715329693
 40
0.5535543335
 40
0.6393176769
 40
0.8181823841
 40
1.0
 40
1.0
 40
1.0
 40
1.0
 10
9.2154636233
 20
11.1841140097
 30
0.0
 10
9.2155191284
 20
11.1841605783
 30
0.0
 10
9.2156200835
 20
11.1842765492
 30
0.0
 10
9.2157222786
 20
11.184497071
 30
0.0
 10
9.215780499
 20
11.1847641797
 30
0.0
 10
9.2157963009
 20
11.1850773108
 30
0.0
 10
9.2157705472
 20
11.1854364923
 30
0.0
 10
9.2157034138
 20
11.1858414004
 30
0.0
 10
9.2155950479
 20
11.1862913622
 30
0.0
 10
9.2153854018
 20
11.1869841675
 30
0.0
 10
9.2150140022
 20
11.1879535192
 30
0.0
 10
9.2144315809
 20
11.1892259717
 30
0.0
 10
9.2136976025
 20
11.1906451102
 30
0.0
 10
9.2128196878
 20
11.192195943
 30
0.0
 10
9.2118070537
 20
11.1938618186
 30
0.0
 10
9.2106708369
 20
11.1956244441
 30
0.0
 10
9.2094238293
 20
11.197464159
 30
0.0
 10
9.2076068637
 20
11.2000280113
 30
0.0
 10
9.2051716869
 20
11.2032613278
 30
0.0
 10
9.2031147913
 20
11.2058036145
 30
0.0
 10
9.2020554181
 20
11.2070661263
 30
0.0
  0
SPLINE
  5
354
100
AcDbEntity
  8
0
100
AcDbSpline
 62
7
  6
CONTINUOUS
 70
0
 71
3
 72
29
 73
25
 74
0
 42
0.0000001
 43
0.0000001
 44
0.0000000001
 40
0.0
 40
0.0
 40
0.0
 40
0.0
 40
0.0030184265
 40
0.0062846958
 40
0.0099312175
 40
0.0140521145
 40
0.0239354921
 40
0.0362300782
 40
0.0510380955
 40
0.0683790554
 40
0.0882232988
 40
0.110512306
 40
0.1620758399
 40
0.2222326504
 40
0.2899284986
 40
0.3639376551
 40
0.4428887649
 40
0.5252856684
 40
0.6095342506
 40
0.6939698715
 40
0.7768946589
 40
0.8566179101
 40
0.9314980105
 40
1.0
 40
1.0
 40
1.0
 40
1.0
 10
9.1055755538
 20
11.3118146343
 30
0.0
 10
9.1056055296
 20
11.3118397907
 30
0.0
 10
9.1056612672
 20
11.311900517
 30
0.0
 10
9.105725082
 20
11.3120133193
 30
0.0
 10
9.1057718124
 20
11.3121492011
 30
0.0
 10
9.1058143065
 20
11.3123746688
 30
0.0
 10
9.1058186822
 20
11.3127177221
 30
0.0
 10
9.1057605449
 20
11.3131943656
 30
0.0
 10
9.1056387995
 20
11.3137582126
 30
0.0
 10
9.1054536885
 20
11.3144067041
 30
0.0
 10
9.1052057901
 20
11.3151370975
 30
0.0
 10
9.104771052
 20
11.3162716362
 30
0.0
 10
9.1040718048
 20
11.3178631064
 30
0.0
 10
9.1030460781
 20
11.3199513084
 30
0.0
 10
9.1018148214
 20
11.3222611264
 30
0.0
 10
9.1004014167
 20
11.3247486449
 30
0.0
 10
9.0988329494
 20
11.3273662858
 30
0.0
 10
9.0971402527
 20
11.3300634155
 30
0.0
 10
9.0953572278
 20
11.332787079
 30
0.0
 10
9.0935202464
 20
11.3354829265
 30
0.0
 10
9.0916673906
 20
11.3380962951
 30
0.0
 10
9.0898375754
 20
11.3405734575
 30
0.0
 10
9.0880695591
 20
11.3428629838
 30
0.0
 10
9.086897396
 20
11.3443061129
 30
0.0
 10
9.0863265311
 20
11.3449864431
 30
0.0
  0
SPLINE
  5
355
100
AcDbEntity
  8
0
100
AcDbSpline
 62
7
  6
CONTINUOUS
 70
0
 71
3
 72
16
 73
12
 74
0
 42
0.0000001
 43
0.0000001
 44
0.0000000001
 40
0.0
 40
0.0
 40
0.0
 40
0.0
 40
0.0368933369
 40
0.0628809924
 40
0.0949436408
 40
0.1785274149
 40
0.2890110466
 40
0.4266401453
 40
0.591269239
 40
0.7825582649
 40
1.0
 40
1.0
 40
1.0
 40
1.0
 10
9.0382815738
 20
11.3899566174
 30
0.0
 10
9.0383028333
 20
11.3899744533
 30
0.0
 10
9.0383212847
 20
11.3900229031
 30
0.0
 10
9.0383278103
 20
11.390093249
 30
0.0
 10
9.0383245368
 20
11.3902003238
 30
0.0
 10
9.0382960003
 20
11.3903683205
 30
0.0
 10
9.0382337172
 20
11.3906101002
 30
0.0
 10
9.0381394299
 20
11.3909060055
 30
0.0
 10
9.0380134897
 20
11.3912552883
 30
0.0
 10
9.0378559531
 20
11.3916567982
 30
0.0
 10
9.0377376093
 20
11.3919405683
 30
0.0
 10
9.0376734523
 20
11.3920910144
 30
0.0
  0
SPLINE
  5
356
100
AcDbEntity
  8
0
100
AcDbSpline
 62
7
  6
CONTINUOUS
 70
0
 71
3
 72
21
 73
17
 74
0
 42
0.0000001
 43
0.0000001
 44
0.0000000001
 40
0.0
 40
0.0
 40
0.0
 40
0.0
 40
0.038045378
 40
0.0852574521
 40
0.1406672082
 40
0.2031610986
 40
0.2715085459
 40
0.3443810949
 40
0.4980136491
 40
0.652190694
 40
0.7256684773
 40
0.7947344145
 40
0.857957208
 40
0.9140069839
 40
0.9616923718
 40
1.0
 40
1.0
 40
1.0
 40
1.0
 10
9.0376734523
 20
11.3920910144
 30
0.0
 10
9.0374625502
 20
11.3925855731
 30
0.0
 10
9.0369626867
 20
11.3936821791
 30
0.0
 10
9.0360906631
 20
11.3954687022
 30
0.0
 10
9.0350267433
 20
11.3975455675
 30
0.0
 10
9.0337916855
 20
11.3998699584
 30
0.0
 10
9.03240927
 20
11.4023952467
 30
0.0
 10
9.0303688995
 20
11.4060283831
 30
0.0
 10
9.0276657699
 20
11.4106800544
 30
0.0
 10
9.0248796878
 20
11.4152924691
 30
0.0
 10
9.0226638944
 20
11.418852476
 30
0.0
 10
9.0211039524
 20
11.4213065543
 30
0.0
 10
9.0196523681
 20
11.423537499
 30
0.0
 10
9.0183407472
 20
11.4254988642
 30
0.0
 10
9.0171979553
 20
11.4271492142
 30
0.0
 10
9.0164838792
 20
11.4281328132
 30
0.0
 10
9.0161566116
 20
11.4285640473
 30
0.0
  0
LINE
  5
357
100
AcDbEntity
  8
0
100
AcDbLine
 62
7
  6
CONTINUOUS
 10
9.0161566116
 20
11.4285640473
 11
9.0154873936
 21
11.4294092398
  0
SPLINE
  5
358
100
AcDbEntity
  8
0
100
AcDbSpline
 62
7
  6
CONTINUOUS
 70
0
 71
3
 72
17
 73
13
 74
0
 42
0.0000001
 43
0.0000001
 44
0.0000000001
 40
0.0
 40
0.0
 40
0.0
 40
0.0
 40
0.0192576202
 40
0.0403118211
 40
0.0654646583
 40
0.0961020129
 40
0.1764284077
 40
0.2843049844
 40
0.4206132315
 40
0.5855317543
 40
0.7788546274
 40
1.0
 40
1.0
 40
1.0
 40
1.0
 10
9.4417778475
 20
10.9207767708
 30
0.0
 10
9.4417898249
 20
10.9207868223
 30
0.0
 10
9.4418108041
 20
10.9208132997
 30
0.0
 10
9.4418255695
 20
10.9208653821
 30
0.0
 10
9.4418254407
 20
10.9209282946
 30
0.0
 10
9.4418046897
 20
10.9210372623
 30
0.0
 10
9.4417378833
 20
10.9212032084
 30
0.0
 10
9.4416113076
 20
10.9214344249
 30
0.0
 10
9.4414301723
 20
10.9217132151
 30
0.0
 10
9.4411949364
 20
10.9220387438
 30
0.0
 10
9.4409059036
 20
10.9224100223
 30
0.0
 10
9.4406921274
 20
10.9226699706
 30
0.0
 10
9.4405767088
 20
10.9228075212
 30
0.0
  0
SPLINE
  5
359
100
AcDbEntity
  8
0
100
AcDbSpline
 62
7
  6
CONTINUOUS
 70
0
 71
3
 72
20
 73
16
 74
0
 42
0.0000001
 43
0.0000001
 44
0.0000000001
 40
0.0
 40
0.0
 40
0.0
 40
0.0
 40
0.0091816662
 40
0.0186043968
 40
0.0396357694
 40
0.0655343482
 40
0.0975407567
 40
0.1362599834
 40
0.1819508138
 40
0.2346956303
 40
0.2944504498
 40
0.434449566
 40
0.6003489953
 40
0.7898234766
 40
1.0
 40
1.0
 40
1.0
 40
1.0
 10
9.3613739272
 20
11.01438225
 30
0.0
 10
9.3614003956
 20
11.0144044627
 30
0.0
 10
9.3614492222
 20
11.0144555854
 30
0.0
 10
9.3615266087
 20
11.0145843753
 30
0.0
 10
9.3615760663
 20
11.0147953619
 30
0.0
 10
9.3615635838
 20
11.0150940528
 30
0.0
 10
9.3614870373
 20
11.0154507613
 30
0.0
 10
9.3613459966
 20
11.0158662323
 30
0.0
 10
9.3611408195
 20
11.0163403117
 30
0.0
 10
9.3608717231
 20
11.0168716562
 30
0.0
 10
9.3604033097
 20
11.0176987282
 30
0.0
 10
9.3596576019
 20
11.0188564234
 30
0.0
 10
9.3585731106
 20
11.0203733251
 30
0.0
 10
9.3572723428
 20
11.0220584521
 30
0.0
 10
9.3563189754
 20
11.0232219777
 30
0.0
 10
9.3558105489
 20
11.0238278968
 30
0.0
  0
SPLINE
  5
35A
100
AcDbEntity
  8
0
100
AcDbSpline
 62
7
  6
CONTINUOUS
 70
0
 71
3
 72
25
 73
21
 74
0
 42
0.0000001
 43
0.0000001
 44
0.0000000001
 40
0.0
 40
0.0
 40
0.0
 40
0.0
 40
0.0082016692
 40
0.0170146613
 40
0.0269311328
 40
0.0382943322
 40
0.0513216936
 40
0.0661455703
 40
0.0828438115
 40
0.1014535656
 40
0.1444349678
 40
0.1950025693
 40
0.2528616539
 40
0.3175803926
 40
0.3886146135
 40
0.4653250553
 40
0.546990759
 40
0.6328198274
 40
0.8134882811
 40
1.0
 40
1.0
 40
1.0
 40
1.0
 10
9.2720261115
 20
11.2038036003
 30
0.0
 10
9.2720786557
 20
11.2038476817
 30
0.0
 10
9.2721745621
 20
11.2039558017
 30
0.0
 10
9.2722744862
 20
11.20415999
 30
0.0
 10
9.2723343943
 20
11.2044059602
 30
0.0
 10
9.2723555723
 20
11.2046930279
 30
0.0
 10
9.2723388368
 20
11.205021168
 30
0.0
 10
9.2722843899
 20
11.205390149
 30
0.0
 10
9.2721923274
 20
11.2057994575
 30
0.0
 10
9.2720106283
 20
11.206428747
 30
0.0
 10
9.2716830796
 20
11.2073089031
 30
0.0
 10
9.2711636523
 20
11.2084642169
 30
0.0
 10
9.2705041561
 20
11.2097537911
 30
0.0
 10
9.269710556
 20
11.211165402
 30
0.0
 10
9.2687901447
 20
11.2126854329
 30
0.0
 10
9.2677518617
 20
11.2142988579
 30
0.0
 10
9.266606051
 20
11.2159894887
 30
0.0
 10
9.2649214132
 20
11.2183643344
 30
0.0
 10
9.2626387282
 20
11.2213887689
 30
0.0
 10
9.2607049894
 20
11.2237747551
 30
0.0
 10
9.2597024361
 20
11.2249695517
 30
0.0
  0
SPLINE
  5
35B
100
AcDbEntity
  8
0
100
AcDbSpline
 62
7
  6
CONTINUOUS
 70
0
 71
3
 72
25
 73
21
 74
0
 42
0.0000001
 43
0.0000001
 44
0.0000000001
 40
0.0
 40
0.0
 40
0.0
 40
0.0
 40
0.0071884319
 40
0.0154000518
 40
0.0252148656
 40
0.0369567172
 40
0.0507936898
 40
0.0668017793
 40
0.0850052611
 40
0.1053933414
 40
0.1525632743
 40
0.20785316
 40
0.2705960516
 40
0.3399699789
 40
0.415021757
 40
0.4946847811
 40
0.5777943996
 40
0.663106908
 40
0.8350933698
 40
1.0
 40
1.0
 40
1.0
 40
1.0
 10
9.1541956236
 20
11.3419700248
 30
0.0
 10
9.1542569191
 20
11.342021456
 30
0.0
 10
9.1543664123
 20
11.3421589462
 30
0.0
 10
9.1544633341
 20
11.3424257318
 30
0.0
 10
9.1545053176
 20
11.3427562623
 30
0.0
 10
9.1544945695
 20
11.3431511302
 30
0.0
 10
9.154431704
 20
11.3436104041
 30
0.0
 10
9.1543168785
 20
11.3441331954
 30
0.0
 10
9.154150328
 20
11.3447179855
 30
0.0
 10
9.1538445405
 20
11.3456225998
 30
0.0
 10
9.1533287737
 20
11.3468902482
 30
0.0
 10
9.152545754
 20
11.3485546745
 30
0.0
 10
9.1515809748
 20
11.3504047422
 30
0.0
 10
9.1504481138
 20
11.3524136594
 30
0.0
 10
9.1491633844
 20
11.3545520078
 30
0.0
 10
9.1477458284
 20
11.3567879675
 30
0.0
 10
9.1462169118
 20
11.3590877676
 30
0.0
 10
9.1440555587
 20
11.362200223
 30
0.0
 10
9.1412635528
 20
11.3659819577
 30
0.0
 10
9.1389207044
 20
11.3689116143
 30
0.0
 10
9.1377408193
 20
11.3703177466
 30
0.0
  0
SPLINE
  5
35C
100
AcDbEntity
  8
0
100
AcDbSpline
 62
7
  6
CONTINUOUS
 70
0
 71
3
 72
28
 73
24
 74
0
 42
0.0000001
 43
0.0000001
 44
0.0000000001
 40
0.0
 40
0.0
 40
0.0
 40
0.0
 40
0.0130960391
 40
0.0177295009
 40
0.0229916541
 40
0.0354774847
 40
0.0506357306
 40
0.0684621747
 40
0.0889062563
 40
0.1118906237
 40
0.1373148191
 40
0.1650623605
 40
0.2269861907
 40
0.2964662892
 40
0.3721290644
 40
0.4524551137
 40
0.5358009673
 40
0.620428718
 40
0.7045370844
 40
0.7863028781
 40
0.863928142
 40
0.9356886623
 40
1.0
 40
1.0
 40
1.0
 40
1.0
 10
9.0541822131
 20
11.4592152631
 30
0.0
 10
9.0543169259
 20
11.4593283254
 30
0.0
 10
9.0543805322
 20
11.459594959
 30
0.0
 10
9.0543879441
 20
11.4598990255
 30
0.0
 10
9.0543707445
 20
11.4602006334
 30
0.0
 10
9.0543003067
 20
11.4606371287
 30
0.0
 10
9.0541540059
 20
11.4612306602
 30
0.0
 10
9.0539410569
 20
11.4619161002
 30
0.0
 10
9.0536625851
 20
11.4626903796
 30
0.0
 10
9.0533197069
 20
11.4635492518
 30
0.0
 10
9.0529141634
 20
11.4644882562
 30
0.0
 10
9.0522684304
 20
11.465892686
 30
0.0
 10
9.0513169532
 20
11.4678070543
 30
0.0
 10
9.050005702
 20
11.4702595912
 30
0.0
 10
9.0485126364
 20
11.4728940845
 30
0.0
 10
9.0468685993
 20
11.475656146
 30
0.0
 10
9.0451079939
 20
11.4784881844
 30
0.0
 10
9.0432684468
 20
11.4813302788
 30
0.0
 10
9.0413900207
 20
11.4841212897
 30
0.0
 10
9.0395143815
 20
11.4868001632
 30
0.0
 10
9.0376837895
 20
11.4893074581
 30
0.0
 10
9.0359399411
 20
11.4915869736
 30
0.0
 10
9.0347910854
 20
11.4930084618
 30
0.0
 10
9.0342359367
 20
11.4936700623
 30
0.0
  0
SPLINE
  5
35D
100
AcDbEntity
  8
0
100
AcDbSpline
 62
7
  6
CONTINUOUS
 70
0
 71
3
 72
16
 73
12
 74
0
 42
0.0000001
 43
0.0000001
 44
0.0000000001
 40
0.0
 40
0.0
 40
0.0
 40
0.0
 40
0.0405708853
 40
0.0678269189
 40
0.1008415454
 40
0.1855591746
 40
0.2963107924
 40
0.433420764
 40
0.5967103776
 40
0.7857737029
 40
1.0
 40
1.0
 40
1.0
 40
1.0
 10
8.9852805894
 20
11.5399721107
 30
0.0
 10
8.9853107167
 20
11.5399974018
 30
0.0
 10
8.9853401123
 20
11.5400621259
 30
0.0
 10
8.9853540834
 20
11.5401582334
 30
0.0
 10
8.9853561025
 20
11.5402994651
 30
0.0
 10
8.9853264768
 20
11.54051965
 30
0.0
 10
8.9852536123
 20
11.5408340024
 30
0.0
 10
8.9851391951
 20
11.5412160707
 30
0.0
 10
8.9849837599
 20
11.5416645517
 30
0.0
 10
8.9847874831
 20
11.5421776956
 30
0.0
 10
8.9846389652
 20
11.5425394399
 30
0.0
 10
8.9845583208
 20
11.5427308492
 30
0.0
  0
SPLINE
  5
35E
100
AcDbEntity
  8
0
100
AcDbSpline
 62
7
  6
CONTINUOUS
 70
0
 71
3
 72
21
 73
17
 74
0
 42
0.0000001
 43
0.0000001
 44
0.0000000001
 40
0.0
 40
0.0
 40
0.0
 40
0.0
 40
0.04147691
 40
0.0915145599
 40
0.149151278
 40
0.2132943481
 40
0.28274114
 40
0.3561989103
 40
0.5096183889
 40
0.6620424274
 40
0.7341943263
 40
0.8017117145
 40
0.8632303705
 40
0.917493636
 40
0.9633905491
 40
1.0
 40
1.0
 40
1.0
 40
1.0
 10
8.9845583208
 20
11.5427308492
 30
0.0
 10
8.9843329311
 20
11.5432658113
 30
0.0
 10
8.983806766
 20
11.5444339579
 30
0.0
 10
8.9828956247
 20
11.5463122742
 30
0.0
 10
8.9818002848
 20
11.5484532351
 30
0.0
 10
8.9805413898
 20
11.5508151604
 30
0.0
 10
8.9791424205
 20
11.5533530065
 30
0.0
 10
8.9770953839
 20
11.5569600095
 30
0.0
 10
8.9743970245
 20
11.561532212
 30
0.0
 10
8.971616289
 20
11.5660333047
 30
0.0
 10
8.9694098665
 20
11.5694749377
 30
0.0
 10
8.9678613836
 20
11.5718268233
 30
0.0
 10
8.9664207471
 20
11.5739496596
 30
0.0
 10
8.9651182791
 20
11.5758002694
 30
0.0
 10
8.9639815811
 20
11.577340585
 30
0.0
 10
8.96326664
 20
11.5782479765
 30
0.0
 10
8.9629372886
 20
11.5786404823
 30
0.0
  0
SPLINE
  5
35F
100
AcDbEntity
  8
0
100
AcDbSpline
 62
7
  6
CONTINUOUS
 70
0
 71
3
 72
49
 73
45
 74
0
 42
0.0000001
 43
0.0000001
 44
0.0000000001
 40
0.0
 40
0.0
 40
0.0
 40
0.0
 40
0.0000769951
 40
0.0002129757
 40
0.000693719
 40
0.0014639357
 40
0.0025266212
 40
0.0038819336
 40
0.0055291928
 40
0.0074674778
 40
0.0096957534
 40
0.0150171782
 40
0.0214788367
 40
0.0290636292
 40
0.03775248
 40
0.0475214854
 40
0.0583458208
 40
0.0701976233
 40
0.0830459486
 40
0.111601996
 40
0.1437290494
 40
0.1791131672
 40
0.2174156871
 40
0.2582768506
 40
0.3013183137
 40
0.3461477868
 40
0.3923615629
 40
0.4872817729
 40
0.5827086146
 40
0.6752428642
 40
0.7615416679
 40
0.8013465647
 40
0.8384144306
 40
0.8723888217
 40
0.9029384758
 40
0.9297621556
 40
0.9525916403
 40
0.9711954658
 40
0.9788522095
 40
0.9853848845
 40
0.9907780985
 40
0.9950173526
 40
0.9980930724
 40
1.0
 40
1.0
 40
1.0
 40
1.0
 10
8.9566532749
 20
11.5735210579
 30
0.0
 10
8.9566541912
 20
11.5735218299
 30
0.0
 10
8.9566549824
 20
11.5735254512
 30
0.0
 10
8.9566536664
 20
11.5735359562
 30
0.0
 10
8.9566472248
 20
11.5735568908
 30
0.0
 10
8.9566342988
 20
11.5735903364
 30
0.0
 10
8.9566146229
 20
11.5736359654
 30
0.0
 10
8.9565882759
 20
11.5736934541
 30
0.0
 10
8.9565551849
 20
11.5737628698
 30
0.0
 10
8.9565153811
 20
11.573844114
 30
0.0
 10
8.9564493521
 20
11.5739761789
 30
0.0
 10
8.9563499653
 20
11.5741702545
 30
0.0
 10
8.9562104903
 20
11.5744374395
 30
0.0
 10
8.9560449734
 20
11.5747501361
 30
0.0
 10
8.9558538313
 20
11.5751074973
 30
0.0
 10
8.9556375342
 20
11.5755085714
 30
0.0
 10
8.9553966222
 20
11.5759522906
 30
0.0
 10
8.9551316921
 20
11.5764374944
 30
0.0
 10
8.9547330297
 20
11.5771640647
 30
0.0
 10
8.9541798025
 20
11.5781657152
 30
0.0
 10
8.9534532306
 20
11.5794722465
 30
0.0
 10
8.952649341
 20
11.5809093214
 30
0.0
 10
8.9517756239
 20
11.5824630678
 30
0.0
 10
8.9508401048
 20
11.5841187657
 30
0.0
 10
8.9498512781
 20
11.5858610015
 30
0.0
 10
8.9488180343
 20
11.5876738003
 30
0.0
 10
8.9473806159
 20
11.5901854749
 30
0.0
 10
8.9455439315
 20
11.5933758491
 30
0.0
 10
8.9433352972
 20
11.5971838072
 30
0.0
 10
8.9411822182
 20
11.6008688651
 30
0.0
 10
8.9394563182
 20
11.6038010072
 30
0.0
 10
8.9381623996
 20
11.6059858262
 30
0.0
 10
8.9372806202
 20
11.6074683853
 30
0.0
 10
8.9364696759
 20
11.6088254946
 30
0.0
 10
8.9357376524
 20
11.610044049
 30
0.0
 10
8.9350919714
 20
11.611112146
 30
0.0
 10
8.9345392518
 20
11.6120192065
 30
0.0
 10
8.9341386648
 20
11.6126696828
 30
0.0
 10
8.9338684788
 20
11.6131026073
 30
0.0
 10
8.9337058344
 20
11.6133603201
 30
0.0
 10
8.9335700452
 20
11.6135720701
 30
0.0
 10
8.933461651
 20
11.6137375175
 30
0.0
 10
8.9333806858
 20
11.6138559487
 30
0.0
 10
8.9333352013
 20
11.6139188762
 30
0.0
 10
8.9333161266
 20
11.6139416086
 30
0.0
  0
SPLINE
  5
360
100
AcDbEntity
  8
0
100
AcDbSpline
 62
7
  6
CONTINUOUS
 70
0
 71
3
 72
17
 73
13
 74
0
 42
0.0000001
 43
0.0000001
 44
0.0000000001
 40
0.0
 40
0.0
 40
0.0
 40
0.0
 40
0.0196003801
 40
0.0409357481
 40
0.0662939705
 40
0.0970723459
 40
0.1775392266
 40
0.2854271171
 40
0.4216410092
 40
0.5863580616
 40
0.7793520246
 40
1.0
 40
1.0
 40
1.0
 40
1.0
 10
9.5848233579
 20
10.8368540793
 30
0.0
 10
9.5848363436
 20
10.8368649769
 30
0.0
 10
9.5848591355
 20
10.8368934891
 30
0.0
 10
9.584875625
 20
10.8369494899
 30
0.0
 10
9.5848761851
 20
10.8370170582
 30
0.0
 10
9.5848550453
 20
10.8371337505
 30
0.0
 10
9.5847849385
 20
10.8373112555
 30
0.0
 10
9.5846511334
 20
10.8375581795
 30
0.0
 10
9.5844591468
 20
10.8378554947
 30
0.0
 10
9.5842094773
 20
10.8382022496
 30
0.0
 10
9.5839024925
 20
10.8385973204
 30
0.0
 10
9.5836752974
 20
10.8388737302
 30
0.0
 10
9.5835526276
 20
10.8390199224
 30
0.0
  0
SPLINE
  5
361
100
AcDbEntity
  8
0
100
AcDbSpline
 62
7
  6
CONTINUOUS
 70
0
 71
3
 72
19
 73
15
 74
0
 42
0.0000001
 43
0.0000001
 44
0.0000000001
 40
0.0
 40
0.0
 40
0.0
 40
0.0
 40
0.0190781358
 40
0.0403361179
 40
0.0660735067
 40
0.0976072063
 40
0.1356154762
 40
0.1804347395
 40
0.2322230658
 40
0.2910124421
 40
0.4293950036
 40
0.5947196363
 40
0.7855749394
 40
1.0
 40
1.0
 40
1.0
 40
1.0
 10
9.511421958
 20
10.9229837987
 30
0.0
 10
9.5114604978
 20
10.9230161296
 30
0.0
 10
9.5115277115
 20
10.9231032338
 30
0.0
 10
9.511572647
 20
10.9232748619
 30
0.0
 10
9.5115694426
 20
10.9234834713
 30
0.0
 10
9.5115209445
 20
10.9237308568
 30
0.0
 10
9.5114275936
 20
10.9240181092
 30
0.0
 10
9.5112893386
 20
10.9243453677
 30
0.0
 10
9.5111062281
 20
10.9247121559
 30
0.0
 10
9.5107846589
 20
10.9252846816
 30
0.0
 10
9.5102674989
 20
10.9260893977
 30
0.0
 10
9.5095085235
 20
10.9271502128
 30
0.0
 10
9.5085880182
 20
10.9283406907
 30
0.0
 10
9.5079102152
 20
10.9291670392
 30
0.0
 10
9.507546787
 20
10.9296001561
 30
0.0
  0
SPLINE
  5
362
100
AcDbEntity
  8
0
100
AcDbSpline
 62
7
  6
CONTINUOUS
 70
0
 71
3
 72
22
 73
18
 74
0
 42
0.0000001
 43
0.0000001
 44
0.0000000001
 40
0.0
 40
0.0
 40
0.0
 40
0.0
 40
0.0090188129
 40
0.0183629098
 40
0.0284512348
 40
0.0396180821
 40
0.0660535365
 40
0.0989032392
 40
0.1386842018
 40
0.1855756777
 40
0.2395686327
 40
0.3005334006
 40
0.368246484
 40
0.4424201648
 40
0.6086733244
 40
0.795886397
 40
1.0
 40
1.0
 40
1.0
 40
1.0
 10
9.4083929254
 20
11.0438575748
 30
0.0
 10
9.4084282527
 20
11.0438872142
 30
0.0
 10
9.4084933408
 20
11.0439562777
 30
0.0
 10
9.4085668161
 20
11.0440831052
 30
0.0
 10
9.4086166674
 20
11.0442323677
 30
0.0
 10
9.4086541561
 20
11.0444742339
 30
0.0
 10
9.4086342634
 20
11.0448372004
 30
0.0
 10
9.4085238341
 20
11.0453326601
 30
0.0
 10
9.4083255895
 20
11.0459117714
 30
0.0
 10
9.4080399143
 20
11.0465723677
 30
0.0
 10
9.4076676159
 20
11.0473118578
 30
0.0
 10
9.4072102403
 20
11.0481265031
 30
0.0
 10
9.4066700181
 20
11.0490121297
 30
0.0
 10
9.4058095013
 20
11.0503321519
 30
0.0
 10
9.4045448577
 20
11.0521168893
 30
0.0
 10
9.4028100729
 20
11.054379886
 30
0.0
 10
9.401543819
 20
11.0559295739
 30
0.0
 10
9.4008729712
 20
11.0567290593
 30
0.0
  0
SPLINE
  5
363
100
AcDbEntity
  8
0
100
AcDbSpline
 62
7
  6
CONTINUOUS
 70
0
 71
3
 72
25
 73
21
 74
0
 42
0.0000001
 43
0.0000001
 44
0.0000000001
 40
0.0
 40
0.0
 40
0.0
 40
0.0
 40
0.1889175502
 40
0.3704896827
 40
0.4563397347
 40
0.5378116613
 40
0.6141673392
 40
0.6847371593
 40
0.7489307129
 40
0.8062511284
 40
0.856309388
 40
0.8988506453
 40
0.9172788691
 40
0.9338274998
 40
0.9485404773
 40
0.9614983178
 40
0.9728403633
 40
0.982787423
 40
0.9916801227
 40
1.0
 40
1.0
 40
1.0
 40
1.0
 10
9.3218920808
 20
11.2426712908
 30
0.0
 10
9.3209235502
 20
11.2438255407
 30
0.0
 10
9.3189863382
 20
11.2460577239
 30
0.0
 10
9.3165068638
 20
11.2487233962
 30
0.0
 10
9.3145515536
 20
11.2507036003
 30
0.0
 10
9.3131562848
 20
11.2520568062
 30
0.0
 10
9.3118181632
 20
11.2532931584
 30
0.0
 10
9.310549856
 20
11.2544011237
 30
0.0
 10
9.309363203
 20
11.2553706193
 30
0.0
 10
9.3082690484
 20
11.2561932822
 30
0.0
 10
9.3072772012
 20
11.2568621272
 30
0.0
 10
9.3065100828
 20
11.2573068874
 30
0.0
 10
9.3059527003
 20
11.2575751273
 30
0.0
 10
9.305585464
 20
11.2577249398
 30
0.0
 10
9.3052493263
 20
11.2578330978
 30
0.0
 10
9.3049446629
 20
11.2578993412
 30
0.0
 10
9.3046716625
 20
11.2579234954
 30
0.0
 10
9.3044302167
 20
11.2579048185
 30
0.0
 10
9.3042208654
 20
11.2578419305
 30
0.0
 10
9.3041025075
 20
11.2577684245
 30
0.0
 10
9.3040516715
 20
11.2577257744
 30
0.0
  0
SPLINE
  5
364
100
AcDbEntity
  8
0
100
AcDbSpline
 62
7
  6
CONTINUOUS
 70
0
 71
3
 72
25
 73
21
 74
0
 42
0.0000001
 43
0.0000001
 44
0.0000000001
 40
0.0
 40
0.0
 40
0.0
 40
0.0
 40
0.0083198805
 40
0.0172125839
 40
0.0271596458
 40
0.0385016922
 40
0.051459533
 40
0.0661725098
 40
0.0827211398
 40
0.1011493652
 40
0.1436906286
 40
0.1937488794
 40
0.2510692937
 40
0.315262859
 40
0.3858326753
 40
0.4621883514
 40
0.5436602813
 40
0.6295103336
 40
0.8110824585
 40
1.0
 40
1.0
 40
1.0
 40
1.0
 10
9.3336198984
 20
11.2224877339
 30
0.0
 10
9.3336707281
 20
11.2225303915
 30
0.0
 10
9.33376367
 20
11.2226341871
 30
0.0
 10
9.3338619561
 20
11.2228294375
 30
0.0
 10
9.3339222759
 20
11.2230639721
 30
0.0
 10
9.3339458947
 20
11.2233370194
 30
0.0
 10
9.3339335619
 20
11.2236485573
 30
0.0
 10
9.3338854167
 20
11.2239983697
 30
0.0
 10
9.3338016501
 20
11.2243860415
 30
0.0
 10
9.3336342737
 20
11.2249815355
 30
0.0
 10
9.3333294792
 20
11.2258142315
 30
0.0
 10
9.3328430279
 20
11.226907154
 30
0.0
 10
9.3322228609
 20
11.2281275398
 30
0.0
 10
9.3314741543
 20
11.2294645161
 30
0.0
 10
9.3306032607
 20
11.230905951
 30
0.0
 10
9.3296180538
 20
11.2324384338
 30
0.0
 10
9.3285276921
 20
11.2340474871
 30
0.0
 10
9.3269171078
 20
11.2363169506
 30
0.0
 10
9.3247224893
 20
11.2392216452
 30
0.0
 10
9.3228606114
 20
11.2415170411
 30
0.0
 10
9.3218920808
 20
11.2426712908
 30
0.0
  0
SPLINE
  5
365
100
AcDbEntity
  8
0
100
AcDbSpline
 62
7
  6
CONTINUOUS
 70
0
 71
3
 72
25
 73
21
 74
0
 42
0.0000001
 43
0.0000001
 44
0.0000000001
 40
0.0
 40
0.0
 40
0.0
 40
0.0
 40
0.0076361118
 40
0.0161036362
 40
0.0259444027
 40
0.0374930528
 40
0.0509422355
 40
0.0663938108
 40
0.083895127
 40
0.1034587433
 40
0.1486930574
 40
0.2018086398
 40
0.2623102201
 40
0.3295556017
 40
0.402781182
 40
0.4811166299
 40
0.5635991449
 40
0.6491884122
 40
0.8252231958
 40
1.0
 40
1.0
 40
1.0
 40
1.0
 10
9.2149427636
 20
11.362282629
 30
0.0
 10
9.2150012793
 20
11.3623317379
 30
0.0
 10
9.2151070421
 20
11.3624575956
 30
0.0
 10
9.2152090585
 20
11.3626992315
 30
0.0
 10
9.2152623151
 20
11.3629949112
 30
0.0
 10
9.215268883
 20
11.363344409
 30
0.0
 10
9.2152294426
 20
11.3637478115
 30
0.0
 10
9.2151442009
 20
11.364204574
 30
0.0
 10
9.2150133346
 20
11.3647137131
 30
0.0
 10
9.2147659435
 20
11.3654993121
 30
0.0
 10
9.2143369374
 20
11.3665994349
 30
0.0
 10
9.2136731572
 20
11.3680439542
 30
0.0
 10
9.2128442299
 20
11.369652843
 30
0.0
 10
9.2118599182
 20
11.3714063467
 30
0.0
 10
9.2107319742
 20
11.3732826432
 30
0.0
 10
9.209474451
 20
11.3752579363
 30
0.0
 10
9.2081034007
 20
11.3773067913
 30
0.0
 10
9.2061292184
 20
11.380127186
 30
0.0
 10
9.2035202452
 20
11.3836290287
 30
0.0
 10
9.2013194904
 20
11.3863641086
 30
0.0
 10
9.2001955893
 20
11.3877035218
 30
0.0
  0
LINE
  5
366
100
AcDbEntity
  8
0
100
AcDbLine
 62
7
  6
CONTINUOUS
 10
8.8677145914
 20
11.7839389455
 11
8.8671082515
 21
11.7844532216
  0
SPLINE
  5
367
100
AcDbEntity
  8
0
100
AcDbSpline
 62
7
  6
CONTINUOUS
 70
0
 71
3
 72
18
 73
14
 74
0
 42
0.0000001
 43
0.0000001
 44
0.0000000001
 40
0.0
 40
0.0
 40
0.0
 40
0.0
 40
0.2197674717
 40
0.4123710951
 40
0.5770182736
 40
0.7133847635
 40
0.8215325295
 40
0.8652716762
 40
0.9023884663
 40
0.9333049783
 40
0.9588023707
 40
0.9802760823
 40
1.0
 40
1.0
 40
1.0
 40
1.0
 10
8.9146876838
 20
11.7279585939
 30
0.0
 10
8.9145355198
 20
11.7281399359
 30
0.0
 10
8.9142464493
 20
11.7284772673
 30
0.0
 10
8.9138289328
 20
11.7289378141
 30
0.0
 10
8.9134573798
 20
11.7293184335
 30
0.0
 10
8.9131334913
 20
11.7296175877
 30
0.0
 10
8.9128896847
 20
11.7298109177
 30
0.0
 10
8.9127178
 20
11.7299203868
 30
0.0
 10
8.9126106027
 20
11.7299756871
 30
0.0
 10
8.9125155778
 20
11.7300102746
 30
0.0
 10
8.912432107
 20
11.7300240242
 30
0.0
 10
8.9123594478
 20
11.7300157186
 30
0.0
 10
8.9123193045
 20
11.7299937898
 30
0.0
 10
8.912303029
 20
11.7299801335
 30
0.0
  0
SPLINE
  5
368
100
AcDbEntity
  8
0
100
AcDbSpline
 62
7
  6
CONTINUOUS
 70
0
 71
3
 72
19
 73
15
 74
0
 42
0.0000001
 43
0.0000001
 44
0.0000000001
 40
0.0
 40
0.0
 40
0.0
 40
0.0
 40
0.2153481085
 40
0.4064476586
 40
0.5715641171
 40
0.7095083171
 40
0.7680520911
 40
0.8196050046
 40
0.8642240829
 40
0.9020784416
 40
0.9335352384
 40
0.9592919178
 40
0.9806828624
 40
1.0
 40
1.0
 40
1.0
 40
1.0
 10
8.9894110829
 20
11.6389067146
 30
0.0
 10
8.9890855053
 20
11.6392947229
 30
0.0
 10
8.9884628267
 20
11.6400202566
 30
0.0
 10
8.9875580389
 20
11.6410148984
 30
0.0
 10
8.986744039
 20
11.6418449407
 30
0.0
 10
8.98611815
 20
11.6424218165
 30
0.0
 10
8.9856659443
 20
11.6427907082
 30
0.0
 10
8.9853727623
 20
11.6430065871
 30
0.0
 10
8.9851071985
 20
11.643176967
 30
0.0
 10
8.9848695249
 20
11.6433017193
 30
0.0
 10
8.9846596073
 20
11.6433809865
 30
0.0
 10
8.9844763259
 20
11.6434145225
 30
0.0
 10
8.9843178395
 20
11.6433999017
 30
0.0
 10
8.9842304326
 20
11.6433535639
 30
0.0
 10
8.9841956263
 20
11.6433243603
 30
0.0
  0
SPLINE
  5
369
100
AcDbEntity
  8
0
100
AcDbSpline
 62
7
  6
CONTINUOUS
 70
0
 71
3
 72
20
 73
16
 74
0
 42
0.0000001
 43
0.0000001
 44
0.0000000001
 40
0.0
 40
0.0
 40
0.0
 40
0.0
 40
0.2088831642
 40
0.397740181
 40
0.5635034767
 40
0.703681569
 40
0.7636026038
 40
0.816547478
 40
0.8624623456
 40
0.901423081
 40
0.9336838798
 40
0.9598473827
 40
0.9811471704
 40
0.9906987701
 40
1.0
 40
1.0
 40
1.0
 40
1.0
 10
9.0867925126
 20
11.5228520459
 30
0.0
 10
9.086254303
 20
11.523493459
 30
0.0
 10
9.0852144081
 20
11.5247022808
 30
0.0
 10
9.0836898378
 20
11.5263695765
 30
0.0
 10
9.0822964775
 20
11.5277817908
 30
0.0
 10
9.0812149725
 20
11.5287739407
 30
0.0
 10
9.0804287853
 20
11.5294153014
 30
0.0
 10
9.0799169079
 20
11.5297940592
 30
0.0
 10
9.079453198
 20
11.5300951765
 30
0.0
 10
9.0790391853
 20
11.530318148
 30
0.0
 10
9.0786751152
 20
11.5304625388
 30
0.0
 10
9.0783604337
 20
11.530528897
 30
0.0
 10
9.07812745
 20
11.5305142856
 30
0.0
 10
9.0779763163
 20
11.5304556894
 30
0.0
 10
9.0779128718
 20
11.5304133234
 30
0.0
 10
9.0778843095
 20
11.5303893592
 30
0.0
  0
SPLINE
  5
36A
100
AcDbEntity
  8
0
100
AcDbSpline
 62
7
  6
CONTINUOUS
 70
0
 71
3
 72
23
 73
19
 74
0
 42
0.0000001
 43
0.0000001
 44
0.0000000001
 40
0.0
 40
0.0
 40
0.0
 40
0.0
 40
0.2001641402
 40
0.3859147995
 40
0.4718599892
 40
0.5524391554
 40
0.627162705
 40
0.6955997809
 40
0.7573809404
 40
0.8122190077
 40
0.8599175713
 40
0.9004064932
 40
0.9338090475
 40
0.9605742288
 40
0.9718037481
 40
0.9818773724
 40
0.991131833
 40
1.0
 40
1.0
 40
1.0
 40
1.0
 10
9.2001955893
 20
11.3877035218
 30
0.0
 10
9.1994327842
 20
11.3886125976
 30
0.0
 10
9.1979373865
 20
11.3903447501
 30
0.0
 10
9.1960417721
 20
11.3924029909
 30
0.0
 10
9.1945817054
 20
11.3938965642
 30
0.0
 10
9.1935595155
 20
11.3948971793
 30
0.0
 10
9.1925884161
 20
11.3958010391
 30
0.0
 10
9.1916747882
 20
11.3966023624
 30
0.0
 10
9.1908245166
 20
11.3972961706
 30
0.0
 10
9.1900429624
 20
11.39787843
 30
0.0
 10
9.1893349256
 20
11.3983460023
 30
0.0
 10
9.1887040094
 20
11.3986969564
 30
0.0
 10
9.188153431
 20
11.3989301706
 30
0.0
 10
9.1877387727
 20
11.3990320523
 30
0.0
 10
9.1874529359
 20
11.399042293
 30
0.0
 10
9.1872722996
 20
11.3990182289
 30
0.0
 10
9.1871133423
 20
11.3989623736
 30
0.0
 10
9.1870221754
 20
11.3989031989
 30
0.0
 10
9.1869818973
 20
11.3988694056
 30
0.0
  0
SPLINE
  5
36B
100
AcDbEntity
  8
0
100
AcDbSpline
 62
7
  6
CONTINUOUS
 70
0
 71
3
 72
26
 73
22
 74
0
 42
0.0000001
 43
0.0000001
 44
0.0000000001
 40
0.0
 40
0.0
 40
0.0
 40
0.0
 40
0.0067904466
 40
0.0147788508
 40
0.0245701488
 40
0.0364716354
 40
0.0506270741
 40
0.0670896197
 40
0.08586364
 40
0.1069187738
 40
0.1556444498
 40
0.2126687329
 40
0.2771841843
 40
0.3482256791
 40
0.4246911873
 40
0.505362258
 40
0.5889209044
 40
0.6739713682
 40
0.8427278884
 40
0.92351263
 40
1.0
 40
1.0
 40
1.0
 40
1.0
 10
9.104347056
 20
11.492545509
 30
0.0
 10
9.1044088018
 20
11.4925973291
 30
0.0
 10
9.1045176733
 20
11.4927416114
 30
0.0
 10
9.1046054559
 20
11.4930233367
 30
0.0
 10
9.1046347098
 20
11.4933762729
 30
0.0
 10
9.1046072456
 20
11.4938019602
 30
0.0
 10
9.1045236401
 20
11.4943003531
 30
0.0
 10
9.1043839767
 20
11.494870217
 30
0.0
 10
9.1041885979
 20
11.4955095404
 30
0.0
 10
9.1038369979
 20
11.496500514
 30
0.0
 10
9.1032557442
 20
11.4978902006
 30
0.0
 10
9.1023856804
 20
11.4997151233
 30
0.0
 10
9.1013245788
 20
11.5017406023
 30
0.0
 10
9.100089223
 20
11.5039338526
 30
0.0
 10
9.098699296
 20
11.5062590653
 30
0.0
 10
9.0971776296
 20
11.5086777229
 30
0.0
 10
9.0955497575
 20
11.5111492059
 30
0.0
 10
9.0932807168
 20
11.5144494754
 30
0.0
 10
9.0909367557
 20
11.5176576376
 30
0.0
 10
9.088557189
 20
11.5207102517
 30
0.0
 10
9.0873761518
 20
11.5221564917
 30
0.0
 10
9.0867925126
 20
11.5228520459
 30
0.0
  0
SPLINE
  5
36C
100
AcDbEntity
  8
0
100
AcDbSpline
 62
7
  6
CONTINUOUS
 70
0
 71
3
 72
28
 73
24
 74
0
 42
0.0000001
 43
0.0000001
 44
0.0000000001
 40
0.0
 40
0.0
 40
0.0
 40
0.0
 40
0.0130003466
 40
0.0176212765
 40
0.0228747756
 40
0.0353533371
 40
0.0505157029
 40
0.0683554278
 40
0.0888203057
 40
0.1118317194
 40
0.1372875886
 40
0.1650705662
 40
0.227071292
 40
0.296629567
 40
0.372364649
 40
0.4527510777
 40
0.5361401423
 40
0.6207893676
 40
0.7048931782
 40
0.7866242144
 40
0.8641805602
 40
0.9358346195
 40
1.0
 40
1.0
 40
1.0
 40
1.0
 10
9.0093714632
 20
11.6044006625
 30
0.0
 10
9.0095053387
 20
11.604513017
 30
0.0
 10
9.0095666902
 20
11.6047793682
 30
0.0
 10
9.0095725363
 20
11.6050821157
 30
0.0
 10
9.0095539159
 20
11.6053836118
 30
0.0
 10
9.0094817348
 20
11.6058201066
 30
0.0
 10
9.0093334516
 20
11.6064139671
 30
0.0
 10
9.0091185495
 20
11.6071001369
 30
0.0
 10
9.0088381761
 20
11.6078755455
 30
0.0
 10
9.0084934778
 20
11.6087359132
 30
0.0
 10
9.0080862303
 20
11.6096767615
 30
0.0
 10
9.0074383289
 20
11.611084161
 30
0.0
 10
9.0064846679
 20
11.6130028696
 30
0.0
 10
9.0051715925
 20
11.6154612982
 30
0.0
 10
9.0036774719
 20
11.6181022071
 30
0.0
 10
9.0020331212
 20
11.6208708723
 30
0.0
 10
9.0002728696
 20
11.6237093511
 30
0.0
 10
8.9984342388
 20
11.6265573583
 30
0.0
 10
8.9965571797
 20
11.629353383
 30
0.0
 10
8.9946832617
 20
11.6320360021
 30
0.0
 10
8.9928546807
 20
11.6345454273
 30
0.0
 10
8.9911131075
 20
11.6368251573
 30
0.0
 10
8.9899655705
 20
11.638245902
 30
0.0
 10
8.9894110829
 20
11.6389067146
 30
0.0
  0
SPLINE
  5
36D
100
AcDbEntity
  8
0
100
AcDbSpline
 62
7
  6
CONTINUOUS
 70
0
 71
3
 72
17
 73
13
 74
0
 42
0.0000001
 43
0.0000001
 44
0.0000000001
 40
0.0
 40
0.0
 40
0.0
 40
0.0
 40
0.2211670387
 40
0.4143259612
 40
0.5790019173
 40
0.7150330498
 40
0.8227016341
 40
0.9029659468
 40
0.9336765826
 40
0.9590073804
 40
0.9803547893
 40
1.0
 40
1.0
 40
1.0
 40
1.0
 10
8.9629372886
 20
11.5786404823
 30
0.0
 10
8.9628371438
 20
11.5787598302
 30
0.0
 10
8.9626472769
 20
11.5789815353
 30
0.0
 10
8.9623735644
 20
11.5792840246
 30
0.0
 10
8.9621308462
 20
11.5795333611
 30
0.0
 10
8.9619197884
 20
11.5797292255
 30
0.0
 10
8.9617409998
 20
11.5798712166
 30
0.0
 10
8.9616087839
 20
11.5799523065
 30
0.0
 10
8.9615183202
 20
11.5799855571
 30
0.0
 10
8.9614640862
 20
11.5799945521
 30
0.0
 10
8.9614168253
 20
11.5799891576
 30
0.0
 10
8.9613907217
 20
11.5799748526
 30
0.0
 10
8.9613801229
 20
11.5799659545
 30
0.0
  0
SPLINE
  5
36E
100
AcDbEntity
  8
0
100
AcDbSpline
 62
7
  6
CONTINUOUS
 70
0
 71
3
 72
19
 73
15
 74
0
 42
0.0000001
 43
0.0000001
 44
0.0000000001
 40
0.0
 40
0.0
 40
0.0
 40
0.0
 40
0.2154239007
 40
0.40662413
 40
0.5718462079
 40
0.7098811162
 40
0.7684573768
 40
0.8200300297
 40
0.8646521199
 40
0.9024877767
 40
0.9338978367
 40
0.9595719517
 40
0.9808390608
 40
1.0
 40
1.0
 40
1.0
 40
1.0
 10
9.0342359367
 20
11.4936700623
 30
0.0
 10
9.0339081399
 20
11.4940607153
 30
0.0
 10
9.0332812571
 20
11.4947913293
 30
0.0
 10
9.0323706308
 20
11.4957933007
 30
0.0
 10
9.0315516162
 20
11.4966299222
 30
0.0
 10
9.030922127
 20
11.4972117853
 30
0.0
 10
9.0304675003
 20
11.4975842029
 30
0.0
 10
9.0301728699
 20
11.4978022952
 30
0.0
 10
9.0299061169
 20
11.4979746036
 30
0.0
 10
9.0296675202
 20
11.4981009912
 30
0.0
 10
9.0294569468
 20
11.4981816031
 30
0.0
 10
9.0292732659
 20
11.4982162119
 30
0.0
 10
9.0291145274
 20
11.4982024056
 30
0.0
 10
9.0290270039
 20
11.4981562651
 30
0.0
 10
9.028992256
 20
11.4981271105
 30
0.0
  0
SPLINE
  5
36F
100
AcDbEntity
  8
0
100
AcDbSpline
 62
7
  6
CONTINUOUS
 70
0
 71
3
 72
21
 73
17
 74
0
 42
0.0000001
 43
0.0000001
 44
0.0000000001
 40
0.0
 40
0.0
 40
0.0
 40
0.0
 40
0.2056759172
 40
0.3934545251
 40
0.5595880278
 40
0.6335369411
 40
0.7009603967
 40
0.7616007152
 40
0.8152612957
 40
0.8618412053
 40
0.9013514044
 40
0.9340008375
 40
0.9603261186
 40
0.9815154144
 40
0.9909083689
 40
1.0
 40
1.0
 40
1.0
 40
1.0
 10
9.1377408193
 20
11.3703177466
 30
0.0
 10
9.1371100184
 20
11.3710695058
 30
0.0
 10
9.1358848768
 20
11.372492347
 30
0.0
 10
9.1340810914
 20
11.3744614801
 30
0.0
 10
9.1326461807
 20
11.3759146641
 30
0.0
 10
9.1315752806
 20
11.3769178687
 30
0.0
 10
9.1308521505
 20
11.3775554207
 30
0.0
 10
9.1301810963
 20
11.3781048824
 30
0.0
 10
9.1295653128
 20
11.3785637511
 30
0.0
 10
9.1290076463
 20
11.3789302396
 30
0.0
 10
9.1285103525
 20
11.3792032774
 30
0.0
 10
9.128074283
 20
11.3793823381
 30
0.0
 10
9.1276992026
 20
11.3794678979
 30
0.0
 10
9.127422006
 20
11.3794562353
 30
0.0
 10
9.1272432489
 20
11.3793897112
 30
0.0
 10
9.1271688882
 20
11.3793406151
 30
0.0
 10
9.1271356547
 20
11.379312735
 30
0.0
  0
SPLINE
  5
370
100
AcDbEntity
  8
0
100
AcDbSpline
 62
7
  6
CONTINUOUS
 70
0
 71
3
 72
24
 73
20
 74
0
 42
0.0000001
 43
0.0000001
 44
0.0000000001
 40
0.0
 40
0.0
 40
0.0
 40
0.0
 40
0.1912888423
 40
0.3737825176
 40
0.4596782304
 40
0.5409876827
 40
0.6170225134
 40
0.6871600326
 40
0.7508563059
 40
0.807657095
 40
0.8572120608
 40
0.8993047886
 40
0.9339121743
 40
0.9484970094
 40
0.9613677001
 40
0.97266698
 40
0.9826229714
 40
0.9915764603
 40
1.0
 40
1.0
 40
1.0
 40
1.0
 10
9.2597024361
 20
11.2249695517
 30
0.0
 10
9.2587698791
 20
11.2260809298
 30
0.0
 10
9.2569130408
 20
11.2282238174
 30
0.0
 10
9.2545422102
 20
11.2307810768
 30
0.0
 10
9.2526822197
 20
11.2326720285
 30
0.0
 10
9.251360422
 20
11.2339591941
 30
0.0
 10
9.2500954197
 20
11.2351326935
 30
0.0
 10
9.2488984037
 20
11.23618221
 30
0.0
 10
9.2477798121
 20
11.2370988155
 30
0.0
 10
9.2467492332
 20
11.2378749604
 30
0.0
 10
9.2458151335
 20
11.238504851
 30
0.0
 10
9.2449850399
 20
11.2389838076
 30
0.0
 10
9.2443525558
 20
11.2392706327
 30
0.0
 10
9.2439030818
 20
11.2394123629
 30
0.0
 10
9.2436147834
 20
11.2394726881
 30
0.0
 10
9.2433558709
 20
11.239493082
 30
0.0
 10
9.2431262695
 20
11.2394729014
 30
0.0
 10
9.2429265209
 20
11.2394108884
 30
0.0
 10
9.2428133014
 20
11.2393398474
 30
0.0
 10
9.2427643616
 20
11.2392987809
 30
0.0
  0
SPLINE
  5
371
100
AcDbEntity
  8
0
100
AcDbSpline
 62
7
  6
CONTINUOUS
 70
0
 71
3
 72
25
 73
21
 74
0
 42
0.0000001
 43
0.0000001
 44
0.0000000001
 40
0.0
 40
0.0
 40
0.0
 40
0.0
 40
0.1747768139
 40
0.3508116063
 40
0.4364008716
 40
0.5188833895
 40
0.5972188407
 40
0.6704444085
 40
0.7376898028
 40
0.798191382
 40
0.8513069614
 40
0.8965412781
 40
0.916104893
 40
0.9336062039
 40
0.9490577719
 40
0.9625069488
 40
0.9740556004
 40
0.9838963687
 40
0.9923638914
 40
1.0
 40
1.0
 40
1.0
 40
1.0
 10
9.4435885723
 20
11.0976390599
 30
0.0
 10
9.4424646711
 20
11.0989784731
 30
0.0
 10
9.4401533002
 20
11.1016207353
 30
0.0
 10
9.4371577016
 20
11.104798161
 30
0.0
 10
9.4347229682
 20
11.1072321075
 30
0.0
 10
9.4329433202
 20
11.1089381084
 30
0.0
 10
9.4312164029
 20
11.110519533
 30
0.0
 10
9.4295644769
 20
11.1119561565
 30
0.0
 10
9.4280085368
 20
11.113230007
 30
0.0
 10
9.4265680323
 20
11.1143257217
 30
0.0
 10
9.4252607228
 20
11.1152302557
 30
0.0
 10
9.4242518094
 20
11.1158437785
 30
0.0
 10
9.4235211045
 20
11.116223829
 30
0.0
 10
9.4230424251
 20
11.1164411182
 30
0.0
 10
9.4226074041
 20
11.1166043808
 30
0.0
 10
9.422216979
 20
11.1167132719
 30
0.0
 10
9.4218716504
 20
11.1167674934
 30
0.0
 10
9.4215712148
 20
11.1167663902
 30
0.0
 10
9.4213155349
 20
11.1167078833
 30
0.0
 10
9.4211732238
 20
11.1166255822
 30
0.0
 10
9.4211146999
 20
11.1165764832
 30
0.0
  0
SPLINE
  5
372
100
AcDbEntity
  8
0
100
AcDbSpline
 62
7
  6
CONTINUOUS
 70
0
 71
3
 72
26
 73
22
 74
0
 42
0.0000001
 43
0.0000001
 44
0.0000000001
 40
0.0
 40
0.0
 40
0.0
 40
0.0
 40
0.0764873752
 40
0.1572721206
 40
0.3260286477
 40
0.4110791116
 40
0.494637765
 40
0.5753088234
 40
0.6517743468
 40
0.7228158375
 40
0.7873312917
 40
0.844355576
 40
0.8930812328
 40
0.9141363651
 40
0.9329103899
 40
0.9493729332
 40
0.9635283656
 40
0.9754298487
 40
0.9852211485
 40
0.993209553
 40
1.0
 40
1.0
 40
1.0
 40
1.0
 10
9.5569916491
 20
10.9624905358
 30
0.0
 10
9.5564080098
 20
10.96318609
 30
0.0
 10
9.5551888263
 20
10.9646003215
 30
0.0
 10
9.5525957955
 20
10.9674738183
 30
0.0
 10
9.549843397
 20
10.970339261
 30
0.0
 10
9.5469872807
 20
10.9731469157
 30
0.0
 10
9.5448360221
 20
10.9751792253
 30
0.0
 10
9.5427183438
 20
10.9770977697
 30
0.0
 10
9.5406698146
 20
10.9788703495
 30
0.0
 10
9.5387244018
 20
10.9804677915
 30
0.0
 10
9.5369139528
 20
10.9818644933
 30
0.0
 10
9.5352678399
 20
10.9830382333
 30
0.0
 10
9.5340001996
 20
10.9838519728
 30
0.0
 10
9.5330853359
 20
10.9843703118
 30
0.0
 10
9.5324896525
 20
10.9846737397
 30
0.0
 10
9.5319526984
 20
10.9849102371
 30
0.0
 10
9.5314763953
 20
10.9850791175
 30
0.0
 10
9.5310619443
 20
10.9851800841
 30
0.0
 10
9.5307092902
 20
10.9852125615
 30
0.0
 10
9.5304166016
 20
10.9851750335
 30
0.0
 10
9.5302556059
 20
10.9850928704
 30
0.0
 10
9.530193851
 20
10.9850410611
 30
0.0
  0
SPLINE
  5
373
100
AcDbEntity
  8
0
100
AcDbSpline
 62
7
  6
CONTINUOUS
 70
0
 71
3
 72
28
 73
24
 74
0
 42
0.0000001
 43
0.0000001
 44
0.0000000001
 40
0.0
 40
0.0
 40
0.0
 40
0.0
 40
0.0641653842
 40
0.1358194467
 40
0.2133757967
 40
0.2951068312
 40
0.3792106486
 40
0.4638598641
 40
0.5472489406
 40
0.6276353672
 40
0.7033704541
 40
0.7729287267
 40
0.8349294338
 40
0.8627124179
 40
0.8881682845
 40
0.9111796888
 40
0.9316445642
 40
0.9494842914
 40
0.9646466593
 40
0.9771252204
 40
0.9823787202
 40
0.9869996507
 40
1.0
 40
1.0
 40
1.0
 40
1.0
 10
9.6543730787
 20
10.8464358671
 30
0.0
 10
9.6538185911
 20
10.8470966798
 30
0.0
 10
9.6526186983
 20
10.8484734929
 30
0.0
 10
9.6506760235
 20
10.8505844787
 30
0.0
 10
9.6485222518
 20
10.8528210367
 30
0.0
 10
9.6462057901
 20
10.8551323176
 30
0.0
 10
9.6437781912
 20
10.8574663845
 30
0.0
 10
9.6412927264
 20
10.8597716338
 30
0.0
 10
9.6388030349
 20
10.8619980397
 30
0.0
 10
9.6363619704
 20
10.8640981829
 30
0.0
 10
9.6340206341
 20
10.8660281935
 30
0.0
 10
9.6318275679
 20
10.8677482218
 30
0.0
 10
9.6301036104
 20
10.8690205746
 30
0.0
 10
9.6288300996
 20
10.8699030252
 30
0.0
 10
9.6279742626
 20
10.8704674623
 30
0.0
 10
9.6271868222
 20
10.870956325
 30
0.0
 10
9.6264718804
 20
10.8713670871
 30
0.0
 10
9.6258334523
 20
10.8716978765
 30
0.0
 10
9.625274363
 20
10.8719470298
 30
0.0
 10
9.6248570336
 20
10.8720939109
 30
0.0
 10
9.6245633513
 20
10.8721646027
 30
0.0
 10
9.624264188
 20
10.872211417
 30
0.0
 10
9.6239912296
 20
10.8721972489
 30
0.0
 10
9.6238573348
 20
10.8720849174
 30
0.0
  0
SPLINE
  5
374
100
AcDbEntity
  8
0
100
AcDbSpline
 62
7
  6
CONTINUOUS
 70
0
 71
3
 72
19
 73
15
 74
0
 42
0.0000001
 43
0.0000001
 44
0.0000000001
 40
0.0
 40
0.0
 40
0.0
 40
0.0
 40
0.0419727465
 40
0.091916257
 40
0.1489433101
 40
0.2120262434
 40
0.3517343924
 40
0.5011991769
 40
0.6502001483
 40
0.7888352987
 40
0.8513890472
 40
0.9080387206
 40
0.957850357
 40
1.0
 40
1.0
 40
1.0
 40
1.0
 10
9.7290964778
 20
10.7573839877
 30
0.0
 10
9.7287317832
 20
10.7578186139
 30
0.0
 10
9.7279103198
 20
10.7587512378
 30
0.0
 10
9.7265361891
 20
10.7602229363
 30
0.0
 10
9.7249308717
 20
10.7618684362
 30
0.0
 10
9.7224344099
 20
10.7643389204
 30
0.0
 10
9.7189744921
 20
10.7676111994
 30
0.0
 10
9.7145758141
 20
10.7715784716
 30
0.0
 10
9.7100987182
 20
10.7754348601
 30
0.0
 10
9.7064371403
 20
10.7784360299
 30
0.0
 10
9.7036895298
 20
10.7805805833
 30
0.0
 10
9.7018626119
 20
10.7819527395
 30
0.0
 10
9.7002288885
 20
10.7831219627
 30
0.0
 10
9.6991963224
 20
10.7838147532
 30
0.0
 10
9.698715584
 20
10.7841205501
 30
0.0
  0
SPLINE
  5
375
100
AcDbEntity
  8
0
100
AcDbSpline
 62
7
  6
CONTINUOUS
 70
0
 71
3
 72
16
 73
12
 74
0
 42
0.0000001
 43
0.0000001
 44
0.0000000001
 40
0.0
 40
0.0
 40
0.0
 40
0.0
 40
0.2111675205
 40
0.3979931392
 40
0.5598400578
 40
0.6962978061
 40
0.8072229838
 40
0.8930574182
 40
0.9270564878
 40
0.9556437407
 40
1.0
 40
1.0
 40
1.0
 40
1.0
 10
9.698715584
 20
10.7841205501
 30
0.0
 10
9.6985177039
 20
10.7842464214
 30
0.0
 10
9.6981422656
 20
10.784479789
 30
0.0
 10
9.697605329
 20
10.7847934849
 30
0.0
 10
9.6971306179
 20
10.7850485814
 30
0.0
 10
9.6967201828
 20
10.7852444551
 30
0.0
 10
9.6963755919
 20
10.7853802062
 30
0.0
 10
9.6961277549
 20
10.7854491639
 30
0.0
 10
9.6959633003
 20
10.7854680919
 30
0.0
 10
9.6958450119
 20
10.7854656687
 30
0.0
 10
9.695762456
 20
10.7854396487
 30
0.0
 10
9.6957247166
 20
10.7854079872
 30
0.0
  0
LINE
  5
376
100
AcDbEntity
  8
0
100
AcDbLine
 62
7
  6
CONTINUOUS
 10
9.7760695702
 20
10.7014036361
 11
9.7744863373
 21
10.7030814088
  0
SPLINE
  5
377
100
AcDbEntity
  8
0
100
AcDbSpline
 62
7
  6
CONTINUOUS
 70
0
 71
3
 72
19
 73
15
 74
0
 42
0.0000001
 43
0.0000001
 44
0.0000000001
 40
0.0
 40
0.0
 40
0.0
 40
0.0
 40
0.0420795389
 40
0.0921094545
 40
0.1491720948
 40
0.2122315406
 40
0.3517595225
 40
0.5010143095
 40
0.6499534787
 40
0.7887258668
 40
0.8513844324
 40
0.9081198812
 40
0.9579516805
 40
1.0
 40
1.0
 40
1.0
 40
1.0
 10
9.7744863373
 20
10.7030814088
 30
0.0
 10
9.7740837124
 20
10.7034831638
 30
0.0
 10
9.7731915543
 20
10.7043517138
 30
0.0
 10
9.771725832
 20
10.7057364308
 30
0.0
 10
9.7700360194
 20
10.7072966761
 30
0.0
 10
9.7674354281
 20
10.7096535455
 30
0.0
 10
9.7638730239
 20
10.7128045185
 30
0.0
 10
9.7593909457
 20
10.7166670482
 30
0.0
 10
9.754868502
 20
10.7204663844
 30
0.0
 10
9.7512016157
 20
10.7234638232
 30
0.0
 10
9.748471416
 20
10.725637206
 30
0.0
 10
9.7466676231
 20
10.7270438912
 30
0.0
 10
9.7450684112
 20
10.7282596434
 30
0.0
 10
9.7440676886
 20
10.7289953058
 30
0.0
 10
9.7436053968
 20
10.7293259418
 30
0.0
  0
SPLINE
  5
378
100
AcDbEntity
  8
0
100
AcDbSpline
 62
7
  6
CONTINUOUS
 70
0
 71
3
 72
18
 73
14
 74
0
 42
0.0000001
 43
0.0000001
 44
0.0000000001
 40
0.0
 40
0.0
 40
0.0
 40
0.0
 40
0.2216079841
 40
0.4166355115
 40
0.5842379965
 40
0.7237509003
 40
0.8346563601
 40
0.87931696
 40
0.9167930273
 40
0.9471619103
 40
0.9706438193
 40
0.9877738105
 40
1.0
 40
1.0
 40
1.0
 40
1.0
 10
9.7436053968
 20
10.7293259418
 30
0.0
 10
9.74341479
 20
10.7294622658
 30
0.0
 10
9.7430550045
 20
10.7297165728
 30
0.0
 10
9.7425452527
 20
10.7300656642
 30
0.0
 10
9.7421013822
 20
10.7303571928
 30
0.0
 10
9.741725496
 20
10.7305898878
 30
0.0
 10
9.7414538977
 20
10.7307438586
 30
0.0
 10
9.741271186
 20
10.7308350077
 30
0.0
 10
9.7411622699
 20
10.7308830232
 30
0.0
 10
9.7410714119
 20
10.7309160449
 30
0.0
 10
9.7409982393
 20
10.7309338892
 30
0.0
 10
9.7409421991
 20
10.7309378476
 30
0.0
 10
9.7409109316
 20
10.7309277089
 30
0.0
 10
9.7409010251
 20
10.7309194017
 30
0.0
  0
SPLINE
  5
379
100
AcDbEntity
  8
0
100
AcDbSpline
 62
7
  6
CONTINUOUS
 70
0
 71
3
 72
16
 73
12
 74
0
 42
0.0000001
 43
0.0000001
 44
0.0000000001
 40
0.0
 40
0.0
 40
0.0
 40
0.0
 40
0.0443603398
 40
0.0729489874
 40
0.1069490365
 40
0.1927843226
 40
0.3037091896
 40
0.4401657576
 40
0.602010937
 40
0.7888345384
 40
1.0
 40
1.0
 40
1.0
 40
1.0
 10
8.9364909902
 20
11.6902275083
 30
0.0
 10
8.9365287178
 20
11.6902591712
 30
0.0
 10
8.9365686749
 20
11.6903359371
 30
0.0
 10
8.9365916049
 20
11.6904519835
 30
0.0
 10
8.9366015295
 20
11.6906171868
 30
0.0
 10
8.9365766762
 20
11.6908731703
 30
0.0
 10
8.9365028605
 20
11.6912360081
 30
0.0
 10
8.9363812831
 20
11.6916741093
 30
0.0
 10
8.936212557
 20
11.6921857741
 30
0.0
 10
8.9359969401
 20
11.6927688762
 30
0.0
 10
8.935832367
 20
11.6931790292
 30
0.0
 10
8.9357427991
 20
11.6933957047
 30
0.0
  0
SPLINE
  5
37A
100
AcDbEntity
  8
0
100
AcDbSpline
 62
7
  6
CONTINUOUS
 70
0
 71
3
 72
19
 73
15
 74
0
 42
0.0000001
 43
0.0000001
 44
0.0000000001
 40
0.0
 40
0.0
 40
0.0
 40
0.0
 40
0.0421458817
 40
0.0919545266
 40
0.1486019861
 40
0.211154223
 40
0.3497883694
 40
0.4987904706
 40
0.6482578156
 40
0.7879691149
 40
0.8510535709
 40
0.9080819648
 40
0.9580265425
 40
1.0
 40
1.0
 40
1.0
 40
1.0
 10
8.9357427991
 20
11.6933957047
 30
0.0
 10
8.9355251557
 20
11.6939222104
 30
0.0
 10
8.9350222411
 20
11.6950593416
 30
0.0
 10
8.9341545317
 20
11.6968712189
 30
0.0
 10
8.9331205011
 20
11.6989086263
 30
0.0
 10
8.9314856635
 20
11.7019869129
 30
0.0
 10
8.929165895
 20
11.7061140935
 30
0.0
 10
8.926145469
 20
11.7111929769
 30
0.0
 10
8.9230021894
 20
11.7162139322
 30
0.0
 10
8.9203803317
 20
11.7201896833
 30
0.0
 10
8.9183808029
 20
11.7230773453
 30
0.0
 10
8.9170390061
 20
11.7249440974
 30
0.0
 10
8.9158282326
 20
11.7265529792
 30
0.0
 10
8.9150523923
 20
11.7275239512
 30
0.0
 10
8.9146876838
 20
11.7279585939
 30
0.0
  0
LINE
  5
37B
100
AcDbEntity
  8
0
100
AcDbLine
 62
7
  6
CONTINUOUS
 10
8.8906749923
 20
11.7441793307
 11
8.8901324811
 21
11.7459133885
  0
SPLINE
  5
37C
100
AcDbEntity
  8
0
100
AcDbSpline
 62
7
  6
CONTINUOUS
 70
0
 71
3
 72
20
 73
16
 74
0
 42
0.0000001
 43
0.0000001
 44
0.0000000001
 40
0.0
 40
0.0
 40
0.0
 40
0.0
 40
0.0349260966
 40
0.0790941117
 40
0.1316096347
 40
0.1914333053
 40
0.2574077207
 40
0.3282809089
 40
0.4793501145
 40
0.6334139231
 40
0.778870049
 40
0.8448071905
 40
0.9044280364
 40
0.9565170529
 40
1.0
 40
1.0
 40
1.0
 40
1.0
 10
8.8901324811
 20
11.7459133885
 30
0.0
 10
8.8899357865
 20
11.7463595076
 30
0.0
 10
8.8894669506
 20
11.747359421
 30
0.0
 10
8.8886486599
 20
11.7490044173
 30
0.0
 10
8.8876435174
 20
11.750944358
 30
0.0
 10
8.8864711088
 20
11.7531402112
 30
0.0
 10
8.8851536786
 20
11.7555489808
 30
0.0
 10
8.883194667
 20
11.7590584953
 30
0.0
 10
8.8805831266
 20
11.7636118567
 30
0.0
 10
8.8773811081
 20
11.7690260999
 30
0.0
 10
8.8747252021
 20
11.7733821531
 30
0.0
 10
8.8727158157
 20
11.7765877344
 30
0.0
 10
8.8713787444
 20
11.7786763581
 30
0.0
 10
8.8701893143
 20
11.7804871338
 30
0.0
 10
8.8694395711
 20
11.7815908237
 30
0.0
 10
8.8690919442
 20
11.7820884306
 30
0.0
  0
LINE
  5
37D
100
AcDbEntity
  8
0
100
AcDbLine
 62
7
  6
CONTINUOUS
 10
8.8690919442
 20
11.7820884306
 11
8.8677145914
 21
11.7839389455
  0
SPLINE
  5
37E
100
AcDbEntity
  8
0
100
AcDbSpline
 62
7
  6
CONTINUOUS
 70
0
 71
3
 72
25
 73
21
 74
0
 42
0.0000001
 43
0.0000001
 44
0.0000000001
 40
0.0
 40
0.0
 40
0.0
 40
0.0
 40
0.1680109703
 40
0.3412873264
 40
0.4266956201
 40
0.5096151265
 40
0.5888651688
 40
0.6633440439
 40
0.7320467482
 40
0.7940799017
 40
0.8486783779
 40
0.8952302544
 40
0.9153535244
 40
0.9333315897
 40
0.9491598017
 40
0.9628707412
 40
0.9745490073
 40
0.9843705866
 40
0.992664999
 40
1.0
 40
1.0
 40
1.0
 40
1.0
 10
9.4008729712
 20
11.0567290593
 30
0.0
 10
9.3997067518
 20
11.0581189054
 30
0.0
 10
9.3972740756
 20
11.0608890466
 30
0.0
 10
9.3941032662
 20
11.0642339277
 30
0.0
 10
9.3914883677
 20
11.0668362264
 30
0.0
 10
9.3895550184
 20
11.0686831371
 30
0.0
 10
9.3876685872
 20
11.0704074319
 30
0.0
 10
9.3858562472
 20
11.0719842408
 30
0.0
 10
9.384143737
 20
11.0733912784
 30
0.0
 10
9.3825550237
 20
11.0746092873
 30
0.0
 10
9.3811120635
 20
11.0756217614
 30
0.0
 10
9.3799992598
 20
11.0763144314
 30
0.0
 10
9.3791942598
 20
11.0767482387
 30
0.0
 10
9.378668131
 20
11.0769986382
 30
0.0
 10
9.3781913989
 20
11.0771896144
 30
0.0
 10
9.3777653632
 20
11.0773207402
 30
0.0
 10
9.3773907441
 20
11.0773917381
 30
0.0
 10
9.3770673451
 20
11.0774019065
 30
0.0
 10
9.3767944784
 20
11.0773492503
 30
0.0
 10
9.3766434609
 20
11.077265322
 30
0.0
 10
9.3765827798
 20
11.0772144115
 30
0.0
  0
SPLINE
  5
37F
100
AcDbEntity
  8
0
100
AcDbSpline
 62
7
  6
CONTINUOUS
 70
0
 71
3
 72
31
 73
27
 74
0
 42
0.0000001
 43
0.0000001
 44
0.0000000001
 40
0.0
 40
0.0
 40
0.0
 40
0.0
 40
0.0666488881
 40
0.1401524878
 40
0.2189518003
 40
0.3013673605
 40
0.3856602289
 40
0.470077144
 40
0.5528937601
 40
0.6324531877
 40
0.7071948734
 40
0.7756819297
 40
0.8071706088
 40
0.8366245087
 40
0.8639080678
 40
0.8889006889
 40
0.9114938714
 40
0.9315984517
 40
0.9491450212
 40
0.964095023
 40
0.9764550016
 40
0.9863128793
 40
0.9903815614
 40
0.9939483611
 40
0.9971080762
 40
1.0
 40
1.0
 40
1.0
 40
1.0
 10
9.507546787
 20
10.9296001561
 30
0.0
 10
9.5069821722
 20
10.9302730377
 30
0.0
 10
9.505770484
 20
10.9316675999
 30
0.0
 10
9.503822108
 20
10.9337964611
 30
0.0
 10
9.5016836126
 20
10.936031976
 30
0.0
 10
9.4994009552
 20
10.9383254332
 30
0.0
 10
9.4970227105
 20
10.9406273871
 30
0.0
 10
9.4945987905
 20
10.9428889521
 30
0.0
 10
9.4921792435
 20
10.9450629349
 30
0.0
 10
9.4898132346
 20
10.9471048349
 30
0.0
 10
9.4875481426
 20
10.9489735379
 30
0.0
 10
9.4857346573
 20
10.9503930874
 30
0.0
 10
9.4843661613
 20
10.9514115152
 30
0.0
 10
9.4834209099
 20
10.9520887707
 30
0.0
 10
9.4825323777
 20
10.9526978208
 30
0.0
 10
9.4817050208
 20
10.9532357226
 30
0.0
 10
9.4809429695
 20
10.9536998467
 30
0.0
 10
9.4802500958
 20
10.9540880365
 30
0.0
 10
9.4796299254
 20
10.9543984829
 30
0.0
 10
9.4790853478
 20
10.954630102
 30
0.0
 10
9.4786190262
 20
10.9547819953
 30
0.0
 10
9.4782765233
 20
10.9548464242
 30
0.0
 10
9.4780454012
 20
10.9548497493
 30
0.0
 10
9.4779036945
 20
10.9548310891
 30
0.0
 10
9.4777824871
 20
10.9547910058
 30
0.0
 10
9.4777139887
 20
10.9547481498
 30
0.0
 10
9.4776847919
 20
10.9547236512
 30
0.0
  0
SPLINE
  5
380
100
AcDbEntity
  8
0
100
AcDbSpline
 62
7
  6
CONTINUOUS
 70
0
 71
3
 72
20
 73
16
 74
0
 42
0.0000001
 43
0.0000001
 44
0.0000000001
 40
0.0
 40
0.0
 40
0.0
 40
0.0
 40
0.03853527
 40
0.085405219
 40
0.1397741947
 40
0.200656465
 40
0.2669475192
 40
0.3374562133
 40
0.486090405
 40
0.6363191066
 40
0.7780824288
 40
0.842831379
 40
0.9020405711
 40
0.9547248116
 40
1.0
 40
1.0
 40
1.0
 40
1.0
 10
9.5835526276
 20
10.8390199224
 30
0.0
 10
9.5832178358
 20
10.8394189118
 30
0.0
 10
9.5824525609
 20
10.8402836035
 30
0.0
 10
9.5811587922
 20
10.8416604559
 30
0.0
 10
9.5796235373
 20
10.8432241606
 30
0.0
 10
9.5778747338
 20
10.8449454742
 30
0.0
 10
9.5759439401
 20
10.8467924702
 30
0.0
 10
9.5731229148
 20
10.8494242097
 30
0.0
 10
9.5694139212
 20
10.852766698
 30
0.0
 10
9.5649069858
 20
10.8566603348
 30
0.0
 10
9.561188763
 20
10.8597310441
 30
0.0
 10
9.5583720362
 20
10.8619594383
 30
0.0
 10
9.5564759354
 20
10.8634105119
 30
0.0
 10
9.554763971
 20
10.8646684391
 30
0.0
 10
9.5536775556
 20
10.8654256688
 30
0.0
 10
9.5531688926
 20
10.8657658647
 30
0.0
  0
SPLINE
  5
381
100
AcDbEntity
  8
0
100
AcDbSpline
 62
7
  6
CONTINUOUS
 70
0
 71
3
 72
17
 73
13
 74
0
 42
0.0000001
 43
0.0000001
 44
0.0000000001
 40
0.0
 40
0.0
 40
0.0
 40
0.0
 40
0.2140425931
 40
0.4034383254
 40
0.5673294476
 40
0.7050658917
 40
0.8162584426
 40
0.8619246887
 40
0.9010612449
 40
0.9338732241
 40
0.960754236
 40
1.0
 40
1.0
 40
1.0
 40
1.0
 10
9.5531688926
 20
10.8657658647
 30
0.0
 10
9.5529367032
 20
10.865921154
 30
0.0
 10
9.5524964056
 20
10.8662099272
 30
0.0
 10
9.5518677827
 20
10.8666012279
 30
0.0
 10
9.551313536
 20
10.8669231439
 30
0.0
 10
9.5508366251
 20
10.8671740913
 30
0.0
 10
9.5504860142
 20
10.8673328888
 30
0.0
 10
9.55024532
 20
10.867420022
 30
0.0
 10
9.5500978473
 20
10.8674625928
 30
0.0
 10
9.5499704178
 20
10.8674866553
 30
0.0
 10
9.5498426191
 20
10.8674943301
 30
0.0
 10
9.5497509822
 20
10.8674735642
 30
0.0
 10
9.5497117515
 20
10.8674406381
 30
0.0
  0
LINE
  5
382
100
AcDbEntity
  8
0
100
AcDbLine
 62
7
  6
CONTINUOUS
 10
9.6187939421
 20
10.7970209592
 11
9.6168562344
 21
10.7988651149
  0
SPLINE
  5
383
100
AcDbEntity
  8
0
100
AcDbSpline
 62
7
  6
CONTINUOUS
 70
0
 71
3
 72
17
 73
13
 74
0
 42
0.0000001
 43
0.0000001
 44
0.0000000001
 40
0.0
 40
0.0
 40
0.0
 40
0.0
 40
0.0417537568
 40
0.0922364266
 40
0.2150777364
 40
0.358718584
 40
0.5121139591
 40
0.663779553
 40
0.8024281737
 40
0.9175386653
 40
0.9633438136
 40
1.0
 40
1.0
 40
1.0
 40
1.0
 10
9.6168562344
 20
10.7988651149
 30
0.0
 10
9.6164242342
 20
10.7992570719
 30
0.0
 10
9.6154650044
 20
10.8001175065
 30
0.0
 10
9.6132147392
 20
10.8021086451
 30
0.0
 10
9.6098749096
 20
10.8050162587
 30
0.0
 10
9.6054227897
 20
10.8088355489
 30
0.0
 10
9.6006376072
 20
10.8128848483
 30
0.0
 10
9.5958788837
 20
10.8168572438
 30
0.0
 10
9.5915040817
 20
10.8204546744
 30
0.0
 10
9.5882488706
 20
10.8230850303
 30
0.0
 10
9.5860839796
 20
10.8247972588
 30
0.0
 10
9.5851738861
 20
10.8255036175
 30
0.0
 10
9.5847666923
 20
10.8258141625
 30
0.0
  0
LINE
  5
384
100
AcDbEntity
  8
0
100
AcDbLine
 62
7
  6
CONTINUOUS
 10
9.5847666923
 20
10.8258141625
 11
9.5831056048
 21
10.8269682953
  0
LINE
  5
385
100
AcDbEntity
  8
0
100
AcDbLine
 62
7
  6
CONTINUOUS
 10
9.0154873936
 20
11.4294092398
 11
9.0146213393
 21
11.430152
  0
SPLINE
  5
386
100
AcDbEntity
  8
0
100
AcDbSpline
 62
7
  6
CONTINUOUS
 70
0
 71
3
 72
19
 73
15
 74
0
 42
0.0000001
 43
0.0000001
 44
0.0000000001
 40
0.0
 40
0.0
 40
0.0
 40
0.0
 40
0.2138015061
 40
0.4045638329
 40
0.5701513478
 40
0.7089527594
 40
0.7679624066
 40
0.8199450046
 40
0.8649233979
 40
0.9030285292
 40
0.9345744496
 40
0.9602201893
 40
0.9812539534
 40
1.0
 40
1.0
 40
1.0
 40
1.0
 10
9.0863265311
 20
11.3449864431
 30
0.0
 10
9.0859332523
 20
11.3454551346
 30
0.0
 10
9.0851792179
 20
11.3463338285
 30
0.0
 10
9.0840818602
 20
11.3475416659
 30
0.0
 10
9.0830912307
 20
11.3485552583
 30
0.0
 10
9.0823283983
 20
11.3492631765
 30
0.0
 10
9.0817769507
 20
11.3497183494
 30
0.0
 10
9.0814193941
 20
11.3499858631
 30
0.0
 10
9.0810959191
 20
11.3501980155
 30
0.0
 10
9.0808070714
 20
11.3503545846
 30
0.0
 10
9.0805527766
 20
11.3504555753
 30
0.0
 10
9.0803318686
 20
11.3505009201
 30
0.0
 10
9.0801416116
 20
11.3504878249
 30
0.0
 10
9.0800367954
 20
11.3504337885
 30
0.0
 10
9.0799956962
 20
11.3503993113
 30
0.0
  0
SPLINE
  5
387
100
AcDbEntity
  8
0
100
AcDbSpline
 62
7
  6
CONTINUOUS
 70
0
 71
3
 72
24
 73
20
 74
0
 42
0.0000001
 43
0.0000001
 44
0.0000000001
 40
0.0
 40
0.0
 40
0.0
 40
0.0
 40
0.1953938939
 40
0.379481639
 40
0.4654595082
 40
0.5464944985
 40
0.621983864
 40
0.6913869227
 40
0.7542378161
 40
0.8101530735
 40
0.8588484037
 40
0.9001733504
 40
0.9341678548
 40
0.9485250108
 40
0.9612336199
 40
0.9724458904
 40
0.9823961814
 40
0.9914279217
 40
1.0
 40
1.0
 40
1.0
 40
1.0
 10
9.2020554181
 20
11.2070661263
 30
0.0
 10
9.2011925306
 20
11.2080944755
 30
0.0
 10
9.1994873999
 20
11.2100673215
 30
0.0
 10
9.1973193798
 20
11.2124190099
 30
0.0
 10
9.1956335991
 20
11.2141445282
 30
0.0
 10
9.1944441197
 20
11.2153113111
 30
0.0
 10
9.1933099404
 20
11.2163712504
 30
0.0
 10
9.1922398825
 20
11.2173160658
 30
0.0
 10
9.191242149
 20
11.2181386245
 30
0.0
 10
9.1903242432
 20
11.2188329062
 30
0.0
 10
9.1894927097
 20
11.2193943504
 30
0.0
 10
9.1887533588
 20
11.2198193143
 30
0.0
 10
9.1881891037
 20
11.2200717383
 30
0.0
 10
9.1877873694
 20
11.2201944428
 30
0.0
 10
9.1875287843
 20
11.2202453839
 30
0.0
 10
9.1872957327
 20
11.2202604025
 30
0.0
 10
9.187088161
 20
11.2202387987
 30
0.0
 10
9.1869066355
 20
11.2201796123
 30
0.0
 10
9.1868032578
 20
11.2201138281
 30
0.0
 10
9.1867581467
 20
11.2200759686
 30
0.0
  0
SPLINE
  5
388
100
AcDbEntity
  8
0
100
AcDbSpline
 62
7
  6
CONTINUOUS
 70
0
 71
3
 72
26
 73
22
 74
0
 42
0.0000001
 43
0.0000001
 44
0.0000000001
 40
0.0
 40
0.0
 40
0.0
 40
0.0
 40
0.0749613045
 40
0.1546208662
 40
0.322217806
 40
0.4071517241
 40
0.4908379927
 40
0.5718275451
 40
0.6487480062
 40
0.720327486
 40
0.7854139915
 40
0.8429963871
 40
0.892226782
 40
0.9135036335
 40
0.9324720002
 40
0.9491001625
 40
0.9633865339
 40
0.9753829539
 40
0.9852282737
 40
0.9932301544
 40
1.0
 40
1.0
 40
1.0
 40
1.0
 10
9.3558105489
 20
11.0238278968
 30
0.0
 10
9.3552274466
 20
11.024522811
 30
0.0
 10
9.3540054476
 20
11.0259401203
 30
0.0
 10
9.3513934888
 20
11.0288356479
 30
0.0
 10
9.3486099194
 20
11.0317377496
 30
0.0
 10
9.3457125434
 20
11.0345945274
 30
0.0
 10
9.3435206832
 20
11.036673332
 30
0.0
 10
9.3413585181
 20
11.0386416373
 30
0.0
 10
9.3392633169
 20
11.0404649015
 30
0.0
 10
9.3372707414
 20
11.0421117302
 30
0.0
 10
9.3354142837
 20
11.0435544835
 30
0.0
 10
9.3337248931
 20
11.0447691755
 30
0.0
 10
9.3324232594
 20
11.0456128391
 30
0.0
 10
9.33148359
 20
11.0461513944
 30
0.0
 10
9.3308717302
 20
11.0464671471
 30
0.0
 10
9.3303203598
 20
11.046713889
 30
0.0
 10
9.3298314731
 20
11.0468907667
 30
0.0
 10
9.3294064559
 20
11.0469976189
 30
0.0
 10
9.3290452792
 20
11.047033731
 30
0.0
 10
9.3287460049
 20
11.0469978726
 30
0.0
 10
9.3285814471
 20
11.0469148072
 30
0.0
 10
9.3285186843
 20
11.0468621516
 30
0.0
  0
SPLINE
  5
389
100
AcDbEntity
  8
0
100
AcDbSpline
 62
7
  6
CONTINUOUS
 70
0
 71
3
 72
20
 73
16
 74
0
 42
0.0000001
 43
0.0000001
 44
0.0000000001
 40
0.0
 40
0.0
 40
0.0
 40
0.0
 40
0.0380213995
 40
0.084710444
 40
0.1391967115
 40
0.2004453454
 40
0.2672943567
 40
0.3384871032
 40
0.4885855457
 40
0.6399284436
 40
0.781919572
 40
0.8463069302
 40
0.9047763641
 40
0.9563094857
 40
1.0
 40
1.0
 40
1.0
 40
1.0
 10
9.4405767088
 20
10.9228075212
 30
0.0
 10
9.4402417019
 20
10.9232067669
 30
0.0
 10
9.4394712019
 20
10.9240759733
 30
0.0
 10
9.4381634591
 20
10.9254655465
 30
0.0
 10
9.4366026318
 20
10.9270534628
 30
0.0
 10
9.4348182756
 20
10.9288085595
 30
0.0
 10
9.4328438788
 20
10.930696625
 30
0.0
 10
9.4299555571
 20
10.9333907271
 30
0.0
 10
9.4261605175
 20
10.9368102097
 30
0.0
 10
9.4215585996
 20
10.9407818416
 30
0.0
 10
9.4177729017
 20
10.9438993307
 30
0.0
 10
9.4149194344
 20
10.946143994
 30
0.0
 10
9.4130152338
 20
10.9475893407
 30
0.0
 10
9.4113103355
 20
10.948827226
 30
0.0
 10
9.4102331012
 20
10.949564878
 30
0.0
 10
9.4097316325
 20
10.9498922851
 30
0.0
  0
SPLINE
  5
38A
100
AcDbEntity
  8
0
100
AcDbSpline
 62
7
  6
CONTINUOUS
 70
0
 71
3
 72
17
 73
13
 74
0
 42
0.0000001
 43
0.0000001
 44
0.0000000001
 40
0.0
 40
0.0
 40
0.0
 40
0.0
 40
0.2134595903
 40
0.402200377
 40
0.5654870017
 40
0.7027844489
 40
0.8138156648
 40
0.8595437168
 40
0.8988589573
 40
0.9319843426
 40
0.9593338749
 40
1.0
 40
1.0
 40
1.0
 40
1.0
 10
9.4097316325
 20
10.9498922851
 30
0.0
 10
9.4095236788
 20
10.9500280573
 30
0.0
 10
9.4091294205
 20
10.9502802001
 30
0.0
 10
9.408566457
 20
10.9506208386
 30
0.0
 10
9.4080700549
 20
10.9508998854
 30
0.0
 10
9.4076426031
 20
10.9511161675
 30
0.0
 10
9.4073279989
 20
10.951251689
 30
0.0
 10
9.4071117266
 20
10.9513248268
 30
0.0
 10
9.4069787568
 20
10.9513598793
 30
0.0
 10
9.4068635807
 20
10.9513786448
 30
0.0
 10
9.4067467826
 20
10.9513824928
 30
0.0
 10
9.4066638386
 20
10.9513613296
 30
0.0
 10
9.4066275983
 20
10.9513309123
 30
0.0
  0
LINE
  5
38B
100
AcDbEntity
  8
0
100
AcDbLine
 62
7
  6
CONTINUOUS
 10
9.7764707435
 20
10.7007172048
 11
9.7760695702
 21
10.7014036361
  0
SPLINE
  5
38C
100
AcDbEntity
  8
0
100
AcDbSpline
 62
7
  6
CONTINUOUS
 70
0
 71
3
 72
18
 73
14
 74
0
 42
0.0000001
 43
0.0000001
 44
0.0000000001
 40
0.0
 40
0.0
 40
0.0
 40
0.0
 40
0.019723919
 40
0.0411976321
 40
0.066695026
 40
0.0976115384
 40
0.134728328
 40
0.1784674741
 40
0.2866152404
 40
0.4229817331
 40
0.5876289113
 40
0.7802325306
 40
1.0
 40
1.0
 40
1.0
 40
1.0
 10
9.7306732147
 20
10.7546845246
 30
0.0
 10
9.7306894898
 20
10.7546981814
 30
0.0
 10
9.7307180563
 20
10.754733907
 30
0.0
 10
9.7307388528
 20
10.75480402
 30
0.0
 10
9.7307398066
 20
10.7548886104
 30
0.0
 10
9.7307222455
 20
10.7549881977
 30
0.0
 10
9.7306863999
 20
10.7551033692
 30
0.0
 10
9.7306084414
 20
10.7552916516
 30
0.0
 10
9.7304603851
 20
10.7555653257
 30
0.0
 10
9.7302220184
 20
10.7559362412
 30
0.0
 10
9.7299117009
 20
10.7563682433
 30
0.0
 10
9.7295306518
 20
10.7568593899
 30
0.0
 10
9.7292486418
 20
10.7572026458
 30
0.0
 10
9.7290964778
 20
10.7573839877
 30
0.0
  0
SPLINE
  5
38D
100
AcDbEntity
  8
0
100
AcDbSpline
 62
7
  6
CONTINUOUS
 70
0
 71
3
 72
19
 73
15
 74
0
 42
0.0000001
 43
0.0000001
 44
0.0000000001
 40
0.0
 40
0.0
 40
0.0
 40
0.0
 40
0.0193171374
 40
0.0407080805
 40
0.0664647606
 40
0.0979215583
 40
0.1357759179
 40
0.1803949986
 40
0.2319479149
 40
0.2904916899
 40
0.4284358874
 40
0.5935523468
 40
0.7846518951
 40
1.0
 40
1.0
 40
1.0
 40
1.0
 10
9.657817956
 20
10.8405325289
 30
0.0
 10
9.6578527599
 20
10.8405617352
 30
0.0
 10
9.6579135718
 20
10.8406397677
 30
0.0
 10
9.6579554913
 20
10.8407933075
 30
0.0
 10
9.6579542914
 20
10.8409796279
 30
0.0
 10
9.6579126802
 20
10.841200121
 30
0.0
 10
9.6578310948
 20
10.8414558469
 30
0.0
 10
9.657709418
 20
10.8417469623
 30
0.0
 10
9.6575477293
 20
10.8420731772
 30
0.0
 10
9.6572629666
 20
10.8425825703
 30
0.0
 10
9.6568035393
 20
10.8432991241
 30
0.0
 10
9.6561274568
 20
10.8442448927
 30
0.0
 10
9.6553050406
 20
10.8453086525
 30
0.0
 10
9.6546986563
 20
10.8460478588
 30
0.0
 10
9.6543730787
 20
10.8464358671
 30
0.0
  0
SPLINE
  5
38E
100
AcDbEntity
  8
0
100
AcDbSpline
 62
7
  6
CONTINUOUS
 70
0
 71
3
 72
20
 73
16
 74
0
 42
0.0000001
 43
0.0000001
 44
0.0000000001
 40
0.0
 40
0.0
 40
0.0
 40
0.0
 40
0.0093012282
 40
0.0188528252
 40
0.0401526113
 40
0.0663161197
 40
0.0985769215
 40
0.1375376545
 40
0.1834525202
 40
0.2363973957
 40
0.2963184337
 40
0.4364965311
 40
0.6022598235
 40
0.7911168404
 40
1.0
 40
1.0
 40
1.0
 40
1.0
 10
9.5628675604
 20
10.9524088276
 30
0.0
 10
9.5628961203
 20
10.9524327946
 30
0.0
 10
9.5629488597
 20
10.9524879185
 30
0.0
 10
9.5630328098
 20
10.9526265809
 30
0.0
 10
9.5630876564
 20
10.9528534879
 30
0.0
 10
9.5630769501
 20
10.9531749117
 30
0.0
 10
9.5629979731
 20
10.9535585239
 30
0.0
 10
9.5628502816
 20
10.9540049654
 30
0.0
 10
9.5626342613
 20
10.954513919
 30
0.0
 10
9.5623501443
 20
10.9550837904
 30
0.0
 10
9.5618550473
 20
10.9559694049
 30
0.0
 10
9.5610657717
 20
10.9572067644
 30
0.0
 10
9.5599169666
 20
10.9588241849
 30
0.0
 10
9.5585397397
 20
10.9606151163
 30
0.0
 10
9.5575298586
 20
10.9618491226
 30
0.0
 10
9.5569916491
 20
10.9624905358
 30
0.0
  0
SPLINE
  5
38F
100
AcDbEntity
  8
0
100
AcDbSpline
 62
7
  6
CONTINUOUS
 70
0
 71
3
 72
23
 73
19
 74
0
 42
0.0000001
 43
0.0000001
 44
0.0000000001
 40
0.0
 40
0.0
 40
0.0
 40
0.0
 40
0.0088681661
 40
0.0181226259
 40
0.0281962505
 40
0.0394257717
 40
0.0661909546
 40
0.0995935002
 40
0.1400824205
 40
0.1877809935
 40
0.2426190625
 40
0.3044002178
 40
0.3728372956
 40
0.4475608497
 40
0.5281400185
 40
0.6140852065
 40
0.7998358643
 40
1.0
 40
1.0
 40
1.0
 40
1.0
 10
9.4522902877
 20
11.0826871781
 30
0.0
 10
9.4523305618
 20
11.0827209762
 30
0.0
 10
9.4524046685
 20
11.0828004825
 30
0.0
 10
9.4524872779
 20
11.0829473257
 30
0.0
 10
9.4525423436
 20
11.083121039
 30
0.0
 10
9.4525818934
 20
11.0834043116
 30
0.0
 10
9.4525535642
 20
11.0838303619
 30
0.0
 10
9.4524195001
 20
11.084413073
 30
0.0
 10
9.4521834352
 20
11.0850953466
 30
0.0
 10
9.4518459156
 20
11.0858738199
 30
0.0
 10
9.4514082175
 20
11.0867446089
 30
0.0
 10
9.4508725979
 20
11.0877024414
 30
0.0
 10
9.4502420983
 20
11.0887413376
 30
0.0
 10
9.4495205998
 20
11.0898546375
 30
0.0
 10
9.4487126877
 20
11.091035053
 30
0.0
 10
9.4474953431
 20
11.0927322943
 30
0.0
 10
9.4457975416
 20
11.0949565198
 30
0.0
 10
9.4443513774
 20
11.0967299841
 30
0.0
 10
9.4435885723
 20
11.0976390599
 30
0.0
  0
SPLINE
  5
390
100
AcDbEntity
  8
0
100
AcDbSpline
 62
7
  6
CONTINUOUS
 70
0
 71
3
 72
9
 73
5
 74
0
 42
0.0000001
 43
0.0000001
 44
0.0000000001
 40
0.0
 40
0.0
 40
0.0
 40
0.0
 40
0.5000056343
 40
1.0
 40
1.0
 40
1.0
 40
1.0
 10
9.1672675141
 20
11.169389483
 30
0.0
 10
9.1685788664
 20
11.1665526982
 30
0.0
 10
9.1712902509
 20
11.1609197268
 30
0.0
 10
9.1742048487
 20
11.1553881816
 30
0.0
 10
9.1757247901
 20
11.1526575533
 30
0.0
  0
SPLINE
  5
391
100
AcDbEntity
  8
0
100
AcDbSpline
 62
7
  6
CONTINUOUS
 70
0
 71
3
 72
9
 73
5
 74
0
 42
0.0000001
 43
0.0000001
 44
0.0000000001
 40
0.0
 40
0.0
 40
0.0
 40
0.0
 40
0.4999946559
 40
1.0
 40
1.0
 40
1.0
 40
1.0
 10
9.2078641706
 20
11.1143553312
 30
0.0
 10
9.2102902753
 20
11.1123835844
 30
0.0
 10
9.2152335264
 20
11.108551353
 30
0.0
 10
9.220312032
 20
11.1049017511
 30
0.0
 10
9.2228789935
 20
11.1031171235
 30
0.0
  0
SPLINE
  5
392
100
AcDbEntity
  8
0
100
AcDbSpline
 62
7
  6
CONTINUOUS
 70
0
 71
3
 72
19
 73
15
 74
0
 42
0.0000001
 43
0.0000001
 44
0.0000000001
 40
0.0
 40
0.0
 40
0.0
 40
0.0
 40
0.0238219264
 40
0.0560646704
 40
0.095854069
 40
0.1424191782
 40
0.1949960714
 40
0.2528814394
 40
0.3819835708
 40
0.5250644708
 40
0.6005847857
 40
0.6781364316
 40
0.8374847728
 40
1.0
 40
1.0
 40
1.0
 40
1.0
 10
15.473176797
 20
7.3617018393
 30
0.0
 10
15.4726159903
 20
7.362172964
 30
0.0
 10
15.4712667512
 20
7.3632468664
 30
0.0
 10
15.4688830791
 20
7.3649815292
 30
0.0
 10
15.465842364
 20
7.3669962982
 30
0.0
 10
15.462180539
 20
7.3691984414
 30
0.0
 10
15.4579362989
 20
7.3715031443
 30
0.0
 10
15.4513139436
 20
7.3747324942
 30
0.0
 10
15.4418999193
 20
7.3785598538
 30
0.0
 10
15.4316735657
 20
7.3817234527
 30
0.0
 10
15.4228193351
 20
7.3838584731
 30
0.0
 10
15.4133897208
 20
7.3857038219
 30
0.0
 10
15.4011948388
 20
7.3872792017
 30
0.0
 10
15.3912936962
 20
7.3877023482
 30
0.0
 10
15.3862969549
 20
7.3877023482
 30
0.0
  0
SPLINE
  5
393
100
AcDbEntity
  8
0
100
AcDbSpline
 62
7
  6
CONTINUOUS
 70
0
 71
3
 72
24
 73
20
 74
0
 42
0.0000001
 43
0.0000001
 44
0.0000000001
 40
0.0
 40
0.0
 40
0.0
 40
0.0
 40
0.081547331
 40
0.1625571309
 40
0.2427800905
 40
0.321889441
 40
0.3994361105
 40
0.474955854
 40
0.6180185718
 40
0.6846032709
 40
0.747137349
 40
0.8050172294
 40
0.8320124331
 40
0.8575972376
 40
0.904154272
 40
0.9439244471
 40
0.9762070926
 40
0.9892541433
 40
1.0
 40
1.0
 40
1.0
 40
1.0
 10
15.3862969549
 20
7.6877023482
 30
0.0
 10
15.3888045071
 20
7.6877023482
 30
0.0
 10
15.3938037434
 20
7.6878101287
 30
0.0
 10
15.4012558548
 20
7.6882903999
 30
0.0
 10
15.4086060538
 20
7.689082758
 30
0.0
 10
15.4158097918
 20
7.6901752579
 30
0.0
 10
15.4228187223
 20
7.6915460496
 30
0.0
 10
15.4316727887
 20
7.6936811576
 30
0.0
 10
15.4400627002
 20
7.6962759859
 30
0.0
 10
15.4478781922
 20
7.6992762432
 30
0.0
 10
15.4531535385
 20
7.7015689619
 30
0.0
 10
15.4572289605
 20
7.7035567303
 30
0.0
 10
15.4602304562
 20
7.705147227
 30
0.0
 10
15.4628917206
 20
7.7066344326
 30
0.0
 10
15.4658421337
 20
7.7084080239
 30
0.0
 10
15.4688833195
 20
7.7104233262
 30
0.0
 10
15.4710000336
 20
7.7119635314
 30
0.0
 10
15.4723576138
 20
7.7130268279
 30
0.0
 10
15.4729237945
 20
7.7134903137
 30
0.0
 10
15.473176797
 20
7.713702857
 30
0.0
  0
SPLINE
  5
394
100
AcDbEntity
  8
0
100
AcDbSpline
 62
7
  6
CONTINUOUS
 70
0
 71
3
 72
11
 73
7
 74
0
 42
0.0000001
 43
0.0000001
 44
0.0000000001
 40
0.0
 40
0.0
 40
0.0
 40
0.0
 40
0.2494912661
 40
0.4993634939
 40
0.7495565134
 40
1.0
 40
1.0
 40
1.0
 40
1.0
 10
15.473176797
 20
7.3617018393
 30
0.0
 10
15.4810371984
 20
7.3550984422
 30
0.0
 10
15.4975263441
 20
7.3427548733
 30
0.0
 10
15.5241411009
 20
7.327054234
 30
0.0
 10
15.5523228692
 20
7.3142874809
 30
0.0
 10
15.5719265135
 20
7.3078124949
 30
0.0
 10
15.5818682362
 20
7.30509976
 30
0.0
  0
SPLINE
  5
395
100
AcDbEntity
  8
0
100
AcDbSpline
 62
7
  6
CONTINUOUS
 70
0
 71
3
 72
25
 73
21
 74
0
 42
0.0000001
 43
0.0000001
 44
0.0000000001
 40
0.0
 40
0.0
 40
0.0
 40
0.0
 40
0.0625829914
 40
0.1251297482
 40
0.1876317208
 40
0.2500835766
 40
0.3124756399
 40
0.3748007312
 40
0.4370596919
 40
0.4992500327
 40
0.5613859711
 40
0.62349142
 40
0.6856172628
 40
0.7478456618
 40
0.8102997954
 40
0.8731177413
 40
0.9047029653
 40
0.9363956603
 40
0.9681740499
 40
1.0
 40
1.0
 40
1.0
 40
1.0
 10
15.8427669349
 20
7.30509976
 30
0.0
 10
15.8493371655
 20
7.3068925372
 30
0.0
 10
15.8623536673
 20
7.3109357181
 30
0.0
 10
15.881396623
 20
7.3183475672
 30
0.0
 10
15.8998585023
 20
7.3270766985
 30
0.0
 10
15.9176387036
 20
7.3370876058
 30
0.0
 10
15.9346380159
 20
7.3483397839
 30
0.0
 10
15.9507567127
 20
7.3607872892
 30
0.0
 10
15.9658942318
 20
7.3743792313
 30
0.0
 10
15.9799494259
 20
7.3890602581
 30
0.0
 10
15.9928185559
 20
7.4047710599
 30
0.0
 10
16.0043954486
 20
7.4214500383
 30
0.0
 10
16.0145682172
 20
7.4390341901
 30
0.0
 10
16.023216711
 20
7.4574606486
 30
0.0
 10
16.0302064991
 20
7.4766600318
 30
0.0
 10
16.0345153113
 20
7.4932071585
 30
0.0
 10
16.0369793537
 20
7.5067110592
 30
0.0
 10
16.0383192381
 20
7.5169729689
 30
0.0
 10
16.0391306209
 20
7.5273160213
 30
0.0
 10
16.0393117751
 20
7.5342389717
 30
0.0
 10
16.0393117751
 20
7.5377023482
 30
0.0
  0
SPLINE
  5
396
100
AcDbEntity
  8
0
100
AcDbSpline
 62
7
  6
CONTINUOUS
 70
0
 71
3
 72
11
 73
7
 74
0
 42
0.0000001
 43
0.0000001
 44
0.0000000001
 40
0.0
 40
0.0
 40
0.0
 40
0.0
 40
0.2504447787
 40
0.5006353506
 40
0.7505057084
 40
1.0
 40
1.0
 40
1.0
 40
1.0
 10
15.5818682362
 20
7.7703049364
 30
0.0
 10
15.5719264619
 20
7.7675921874
 30
0.0
 10
15.5523228509
 20
7.7611172431
 30
0.0
 10
15.5241412228
 20
7.7483504865
 30
0.0
 10
15.4975264619
 20
7.7326499595
 30
0.0
 10
15.481037294
 20
7.7203063345
 30
0.0
 10
15.473176797
 20
7.713702857
 30
0.0
  0
SPLINE
  5
397
100
AcDbEntity
  8
0
100
AcDbSpline
 62
7
  6
CONTINUOUS
 70
0
 71
3
 72
25
 73
21
 74
0
 42
0.0000001
 43
0.0000001
 44
0.0000000001
 40
0.0
 40
0.0
 40
0.0
 40
0.0
 40
0.0318273723
 40
0.0636067595
 40
0.0953003913
 40
0.1268862308
 40
0.1897050062
 40
0.2521592202
 40
0.3143872445
 40
0.3765117013
 40
0.4386158135
 40
0.5007496252
 40
0.5629388776
 40
0.6251958955
 40
0.6875205792
 40
0.7499119742
 40
0.8123631881
 40
0.874866341
 40
0.9374142531
 40
1.0
 40
1.0
 40
1.0
 40
1.0
 10
16.0393117751
 20
7.5377023482
 30
0.0
 10
16.0393117751
 20
7.5411658794
 30
0.0
 10
16.0391306072
 20
7.5480890935
 30
0.0
 10
16.0383191583
 20
7.5584325075
 30
0.0
 10
16.0369791945
 20
7.568694687
 30
0.0
 10
16.034515032
 20
7.5821988298
 30
0.0
 10
16.0302060516
 20
7.598746085
 30
0.0
 10
16.0232161207
 20
7.6179454777
 30
0.0
 10
16.0145675777
 20
7.6363717112
 30
0.0
 10
16.004394886
 20
7.6539555152
 30
0.0
 10
15.9928182564
 20
7.6706340334
 30
0.0
 10
15.9799494007
 20
7.6863444158
 30
0.0
 10
15.9658946434
 20
7.7010250825
 30
0.0
 10
15.9507574165
 20
7.7146167882
 30
0.0
 10
15.9346390492
 20
7.7270641815
 30
0.0
 10
15.9176399312
 20
7.7383163139
 30
0.0
 10
15.8998598091
 20
7.7483273319
 30
0.0
 10
15.8813977974
 20
7.7570566168
 30
0.0
 10
15.8623543625
 20
7.7644687641
 30
0.0
 10
15.8493374548
 20
7.7685120802
 30
0.0
 10
15.8427669349
 20
7.7703049364
 30
0.0
  0
SPLINE
  5
398
100
AcDbEntity
  8
0
100
AcDbSpline
 62
7
  6
CONTINUOUS
 70
0
 71
3
 72
12
 73
8
 74
0
 42
0.0000001
 43
0.0000001
 44
0.0000000001
 40
0.0
 40
0.0
 40
0.0
 40
0.0
 40
0.2513159362
 40
0.3764957579
 40
0.5014363497
 40
0.7508272188
 40
1.0
 40
1.0
 40
1.0
 40
1.0
 10
13.7481478391
 20
7.4880729191
 30
0.0
 10
13.7499033861
 20
7.4811092817
 30
0.0
 10
13.7530687933
 20
7.4708023318
 30
0.0
 10
13.7582629502
 20
7.4574441848
 30
0.0
 10
13.7640599975
 20
7.4443950526
 30
0.0
 10
13.7724115574
 20
7.4286281664
 30
0.0
 10
13.7801730575
 20
7.4166570587
 30
0.0
 10
13.7842961484
 20
7.4108520229
 30
0.0
  0
SPLINE
  5
399
100
AcDbEntity
  8
0
100
AcDbSpline
 62
7
  6
CONTINUOUS
 70
0
 71
3
 72
8
 73
4
 74
0
 42
0.0000001
 43
0.0000001
 44
0.0000000001
 40
0.0
 40
0.0
 40
0.0
 40
0.0
 40
1.0
 40
1.0
 40
1.0
 40
1.0
 10
14.9616368174
 20
7.8760751697
 30
0.0
 10
14.9616538836
 20
7.8760743853
 30
0.0
 10
14.9616709499
 20
7.8760736009
 30
0.0
 10
14.9616880161
 20
7.8760728165
 30
0.0
  0
SPLINE
  5
39A
100
AcDbEntity
  8
0
100
AcDbSpline
 62
7
  6
CONTINUOUS
 70
0
 71
3
 72
8
 73
4
 74
0
 42
0.0000001
 43
0.0000001
 44
0.0000000001
 40
0.0
 40
0.0
 40
0.0
 40
0.0
 40
1.0
 40
1.0
 40
1.0
 40
1.0
 10
14.8195466936
 20
7.8760728307
 30
0.0
 10
14.8195636566
 20
7.8760736104
 30
0.0
 10
14.8195806196
 20
7.87607439
 30
0.0
 10
14.8195975827
 20
7.8760751697
 30
0.0
  0
SPLINE
  5
39B
100
AcDbEntity
  8
0
100
AcDbSpline
 62
7
  6
CONTINUOUS
 70
0
 71
3
 72
33
 73
29
 74
0
 42
0.0000001
 43
0.0000001
 44
0.0000000001
 40
0.0
 40
0.0
 40
0.0
 40
0.0
 40
0.0104230985
 40
0.0166279646
 40
0.0235810499
 40
0.0398722786
 40
0.0594731695
 40
0.0823948025
 40
0.1085614573
 40
0.1378383859
 40
0.1700423291
 40
0.2423000643
 40
0.3231707009
 40
0.4100440119
 40
0.5
 40
0.5899559882
 40
0.6768292992
 40
0.7576999357
 40
0.8299576709
 40
0.8621616141
 40
0.8914385427
 40
0.9176051975
 40
0.9405268304
 40
0.9601277214
 40
0.9764189501
 40
0.9833720354
 40
0.9895769015
 40
1.0
 40
1.0
 40
1.0
 40
1.0
 10
14.9105241611
 20
7.8503226156
 30
0.0
 10
14.9104590387
 20
7.8501956359
 30
0.0
 10
14.9103124673
 20
7.8500151032
 30
0.0
 10
14.9100692379
 20
7.8498030404
 30
0.0
 10
14.90974026
 20
7.8495686261
 30
0.0
 10
14.909223385
 20
7.84928759
 30
0.0
 10
14.9084798351
 20
7.8489763398
 30
0.0
 10
14.9075872463
 20
7.8486780347
 30
0.0
 10
14.9065518425
 20
7.8483952237
 30
0.0
 10
14.9053810674
 20
7.8481305038
 30
0.0
 10
14.9035812676
 20
7.8477919455
 30
0.0
 10
14.9010668648
 20
7.8474406446
 30
0.0
 10
14.8977941238
 20
7.8471369763
 30
0.0
 10
14.8942700136
 20
7.8469497184
 30
0.0
 10
14.8906172
 20
7.8468863815
 30
0.0
 10
14.8869643865
 20
7.8469497184
 30
0.0
 10
14.8834402762
 20
7.8471369763
 30
0.0
 10
14.8801675353
 20
7.8474406446
 30
0.0
 10
14.8776531324
 20
7.8477919455
 30
0.0
 10
14.8758533327
 20
7.8481305038
 30
0.0
 10
14.8746825576
 20
7.8483952237
 30
0.0
 10
14.8736471538
 20
7.8486780347
 30
0.0
 10
14.8727545649
 20
7.8489763398
 30
0.0
 10
14.8720110151
 20
7.84928759
 30
0.0
 10
14.8714941401
 20
7.8495686261
 30
0.0
 10
14.8711651622
 20
7.8498030404
 30
0.0
 10
14.8709219328
 20
7.8500151032
 30
0.0
 10
14.8707753614
 20
7.8501956359
 30
0.0
 10
14.8707102389
 20
7.8503226156
 30
0.0
  0
SPLINE
  5
39C
100
AcDbEntity
  8
0
100
AcDbSpline
 62
7
  6
CONTINUOUS
 70
0
 71
3
 72
9
 73
5
 74
0
 42
0.0000001
 43
0.0000001
 44
0.0000000001
 40
0.0
 40
0.0
 40
0.0
 40
0.0
 40
0.5176907235
 40
1.0
 40
1.0
 40
1.0
 40
1.0
 10
14.9832777829
 20
7.874931397
 30
0.0
 10
14.9799011488
 20
7.8751335296
 30
0.0
 10
14.9733689958
 20
7.875381862
 30
0.0
 10
14.9668314745
 20
7.875291626
 30
0.0
 10
14.9636831519
 20
7.8751503609
 30
0.0
  0
SPLINE
  5
39D
100
AcDbEntity
  8
0
100
AcDbSpline
 62
7
  6
CONTINUOUS
 70
0
 71
3
 72
18
 73
14
 74
0
 42
0.0000001
 43
0.0000001
 44
0.0000000001
 40
0.0
 40
0.0
 40
0.0
 40
0.0
 40
0.1594873915
 40
0.3060848306
 40
0.4408085356
 40
0.5650378462
 40
0.6805806335
 40
0.7358277641
 40
0.7897923404
 40
0.8428223068
 40
0.8952835345
 40
0.947551475
 40
1.0
 40
1.0
 40
1.0
 40
1.0
 10
14.9607673864
 20
7.8749906566
 30
0.0
 10
14.9576598768
 20
7.874788891
 30
0.0
 10
14.9517055661
 20
7.8742050326
 30
0.0
 10
14.9432253828
 20
7.872671924
 30
0.0
 10
14.9355902425
 20
7.8705179117
 30
0.0
 10
14.9288068191
 20
7.8677411611
 30
0.0
 10
14.9237934195
 20
7.8648604222
 30
0.0
 10
14.9202617205
 20
7.8622488975
 30
0.0
 10
14.9178694758
 20
7.8601668483
 30
0.0
 10
14.9156952913
 20
7.8579332515
 30
0.0
 10
14.9137391309
 20
7.8555488874
 30
0.0
 10
14.9120011528
 20
7.8530151144
 30
0.0
 10
14.9109914913
 20
7.8512338442
 30
0.0
 10
14.9105241611
 20
7.8503226156
 30
0.0
  0
SPLINE
  5
39E
100
AcDbEntity
  8
0
100
AcDbSpline
 62
7
  6
CONTINUOUS
 70
0
 71
3
 72
18
 73
14
 74
0
 42
0.0000001
 43
0.0000001
 44
0.0000000001
 40
0.0
 40
0.0
 40
0.0
 40
0.0
 40
0.0522541458
 40
0.1043306412
 40
0.1566103246
 40
0.2094754327
 40
0.2632981636
 40
0.3184318905
 40
0.4338492692
 40
0.558108408
 40
0.6930277864
 40
0.8399878681
 40
1.0
 40
1.0
 40
1.0
 40
1.0
 10
14.8707102389
 20
7.8503226156
 30
0.0
 10
14.8702377172
 20
7.8512439671
 30
0.0
 10
14.8692159444
 20
7.8530446457
 30
0.0
 10
14.8674547651
 20
7.8556043563
 30
0.0
 10
14.8654704703
 20
7.8580112539
 30
0.0
 10
14.8632632411
 20
7.8602639335
 30
0.0
 10
14.8608330588
 20
7.8623615905
 30
0.0
 10
14.8572422575
 20
7.8649903798
 30
0.0
 10
14.8521412271
 20
7.8678832159
 30
0.0
 10
14.8452374913
 20
7.8706588874
 30
0.0
 10
14.8374635535
 20
7.8727978479
 30
0.0
 10
14.8288262984
 20
7.8743020394
 30
0.0
 10
14.8227623687
 20
7.87485839
 30
0.0
 10
14.8195970751
 20
7.8750444572
 30
0.0
  0
SPLINE
  5
39F
100
AcDbEntity
  8
0
100
AcDbSpline
 62
7
  6
CONTINUOUS
 70
0
 71
3
 72
8
 73
4
 74
0
 42
0.0000001
 43
0.0000001
 44
0.0000000001
 40
0.0
 40
0.0
 40
0.0
 40
0.0
 40
1.0
 40
1.0
 40
1.0
 40
1.0
 10
14.8195970751
 20
7.8750444572
 30
0.0
 10
14.8195744147
 20
7.8750457839
 30
0.0
 10
14.8195517542
 20
7.8750471106
 30
0.0
 10
14.8195290937
 20
7.8750484373
 30
0.0
  0
SPLINE
  5
3A0
100
AcDbEntity
  8
0
100
AcDbSpline
 62
7
  6
CONTINUOUS
 70
0
 71
3
 72
8
 73
4
 74
0
 42
0.0000001
 43
0.0000001
 44
0.0000000001
 40
0.0
 40
0.0
 40
0.0
 40
0.0
 40
1.0
 40
1.0
 40
1.0
 40
1.0
 10
14.8195290937
 20
7.8750484373
 30
0.0
 10
14.8195056237
 20
7.8750498001
 30
0.0
 10
14.8194821537
 20
7.8750511628
 30
0.0
 10
14.8194586837
 20
7.8750525256
 30
0.0
  0
SPLINE
  5
3A1
100
AcDbEntity
  8
0
100
AcDbSpline
 62
7
  6
CONTINUOUS
 70
0
 71
3
 72
9
 73
5
 74
0
 42
0.0000001
 43
0.0000001
 44
0.0000000001
 40
0.0
 40
0.0
 40
0.0
 40
0.0
 40
0.4803455181
 40
1.0
 40
1.0
 40
1.0
 40
1.0
 10
14.8194586837
 20
7.8750525256
 30
0.0
 10
14.8160200922
 20
7.8752513414
 30
0.0
 10
14.808845733
 20
7.8754109689
 30
0.0
 10
14.8016761593
 20
7.8751540568
 30
0.0
 10
14.7979566172
 20
7.874931397
 30
0.0
  0
SPLINE
  5
3A2
100
AcDbEntity
  8
0
100
AcDbSpline
 62
7
  6
CONTINUOUS
 70
0
 71
3
 72
29
 73
25
 74
0
 42
0.0000001
 43
0.0000001
 44
0.0000000001
 40
0.0
 40
0.0
 40
0.0
 40
0.0
 40
0.2081982892
 40
0.3051624767
 40
0.3969242564
 40
0.4831691417
 40
0.5636035373
 40
0.6379534433
 40
0.7059663856
 40
0.7674122815
 40
0.8220845813
 40
0.8698017525
 40
0.8910029044
 40
0.9104094136
 40
0.9280069153
 40
0.9437826577
 40
0.9577272657
 40
0.9698338389
 40
0.9801006792
 40
0.9885325949
 40
0.9920658954
 40
0.9951493161
 40
0.9977900373
 40
1.0
 40
1.0
 40
1.0
 40
1.0
 10
14.4462450623
 20
7.5377564894
 30
0.0
 10
14.4547941222
 20
7.5454857223
 30
0.0
 10
14.4673097419
 20
7.5568313178
 30
0.0
 10
14.4835445406
 20
7.5716371101
 30
0.0
 10
14.4947673383
 20
7.5819200624
 30
0.0
 10
14.5052886876
 20
7.591614028
 30
0.0
 10
14.5150710881
 20
7.6006874552
 30
0.0
 10
14.52407967
 20
7.6091109264
 30
0.0
 10
14.5322822175
 20
7.6168572179
 30
0.0
 10
14.5396494056
 20
7.6239013454
 30
0.0
 10
14.5461547185
 20
7.6302207805
 30
0.0
 10
14.5510125689
 20
7.6350384968
 30
0.0
 10
14.554445511
 20
7.6385200142
 30
0.0
 10
14.5566877478
 20
7.6408339084
 30
0.0
 10
14.5586988322
 20
7.6429533866
 30
0.0
 10
14.5604769636
 20
7.6448768434
 30
0.0
 10
14.5620205939
 20
7.6466027534
 30
0.0
 10
14.5633286316
 20
7.6481297756
 30
0.0
 10
14.5644000085
 20
7.6494567664
 30
0.0
 10
14.5651339228
 20
7.6504455172
 30
0.0
 10
14.5655959022
 20
7.651138928
 30
0.0
 10
14.5658617741
 20
7.6515772796
 30
0.0
 10
14.5660681831
 20
7.6519652276
 30
0.0
 10
14.5661757266
 20
7.652211831
 30
0.0
 10
14.5662174942
 20
7.6523268153
 30
0.0
  0
LINE
  5
3A3
100
AcDbEntity
  8
0
100
AcDbLine
 62
9
  6
CONTINUOUS
 10
14.0482945648
 20
8.3866373097
 11
16.1517959228
 21
8.3866371946
  0
SPLINE
  5
3A4
100
AcDbEntity
  8
0
100
AcDbSpline
 62
7
  6
CONTINUOUS
 70
0
 71
3
 72
11
 73
7
 74
0
 42
0.0000001
 43
0.0000001
 44
0.0000000001
 40
0.0
 40
0.0
 40
0.0
 40
0.0
 40
0.255004575
 40
0.5055909625
 40
0.7533276387
 40
1.0
 40
1.0
 40
1.0
 40
1.0
 10
15.2441705906
 20
7.6942023482
 30
0.0
 10
15.2467855295
 20
7.6942023482
 30
0.0
 10
15.2519744347
 20
7.6939417666
 30
0.0
 10
15.2596199958
 20
7.6927404042
 30
0.0
 10
15.2670082489
 20
7.6907401645
 30
0.0
 10
15.2717384784
 20
7.6888827791
 30
0.0
 10
15.2740392069
 20
7.6878315893
 30
0.0
  0
SPLINE
  5
3A5
100
AcDbEntity
  8
0
100
AcDbSpline
 62
7
  6
CONTINUOUS
 70
0
 71
3
 72
11
 73
7
 74
0
 42
0.0000001
 43
0.0000001
 44
0.0000000001
 40
0.0
 40
0.0
 40
0.0
 40
0.0
 40
0.2466723614
 40
0.4944090377
 40
0.7449954249
 40
1.0
 40
1.0
 40
1.0
 40
1.0
 10
15.2740392068
 20
7.3875731071
 30
0.0
 10
15.2717384784
 20
7.3865219172
 30
0.0
 10
15.2670082489
 20
7.3846645318
 30
0.0
 10
15.2596199958
 20
7.3826642922
 30
0.0
 10
15.2519744347
 20
7.3814629298
 30
0.0
 10
15.2467855295
 20
7.3812023482
 30
0.0
 10
15.2441705906
 20
7.3812023482
 30
0.0
  0
SPLINE
  5
3A6
100
AcDbEntity
  8
0
100
AcDbSpline
 62
9
  6
CONTINUOUS
 70
0
 71
3
 72
23
 73
19
 74
0
 42
0.0000001
 43
0.0000001
 44
0.0000000001
 40
0.0
 40
0.0
 40
0.0
 40
0.0
 40
0.0515302714
 40
0.1041567631
 40
0.1581357887
 40
0.2136664158
 40
0.2708874684
 40
0.3298779032
 40
0.3600523196
 40
0.3906727456
 40
0.4532147704
 40
0.5174386001
 40
0.5832236183
 40
0.6504127759
 40
0.7188182091
 40
0.7882265495
 40
0.8584047868
 40
1.0
 40
1.0
 40
1.0
 40
1.0
 10
15.5818682362
 20
7.3050997601
 30
0.0
 10
15.577100043
 20
7.3064008236
 30
0.0
 10
15.5676103177
 20
7.3096071212
 30
0.0
 10
15.5538580196
 20
7.3160744659
 30
0.0
 10
15.5405588348
 20
7.3241914665
 30
0.0
 10
15.5278131855
 20
7.3338939208
 30
0.0
 10
15.5157136922
 20
7.3451069866
 30
0.0
 10
15.5063123737
 20
7.3555618054
 30
0.0
 10
15.4991883517
 20
7.3645791569
 30
0.0
 10
15.4922453683
 20
7.3741609874
 30
0.0
 10
15.4841404477
 20
7.3869165547
 30
0.0
 10
15.475446488
 20
7.4032294459
 30
0.0
 10
15.4677783153
 20
7.4205369815
 30
0.0
 10
15.4611923528
 20
7.4387106286
 30
0.0
 10
15.4557367009
 20
7.4576158116
 30
0.0
 10
15.4514511501
 20
7.4771144969
 30
0.0
 10
15.4473284363
 20
7.5037790996
 30
0.0
 10
15.4460942633
 20
7.5241212797
 30
0.0
 10
15.4460942633
 20
7.5377023482
 30
0.0
  0
SPLINE
  5
3A7
100
AcDbEntity
  8
0
100
AcDbSpline
 62
9
  6
CONTINUOUS
 70
0
 71
3
 72
29
 73
25
 74
0
 42
0.0000001
 43
0.0000001
 44
0.0000000001
 40
0.0
 40
0.0
 40
0.0
 40
0.0
 40
0.0265365858
 40
0.0528820128
 40
0.0791123329
 40
0.1053059917
 40
0.1315422071
 40
0.1578992994
 40
0.1844530773
 40
0.211275342
 40
0.2384325458
 40
0.2659847506
 40
0.2939848328
 40
0.3224778787
 40
0.3810541083
 40
0.4419425494
 40
0.5052136297
 40
0.5708214748
 40
0.6386176901
 40
0.7083669317
 40
0.7797623604
 40
0.8524408099
 40
0.9259968617
 40
1.0
 40
1.0
 40
1.0
 40
1.0
 10
15.8427669349
 20
7.3050997601
 30
0.0
 10
15.8397634615
 20
7.3042802233
 30
0.0
 10
15.8337143979
 20
7.3028705192
 30
0.0
 10
15.8245318669
 20
7.3014600139
 30
0.0
 10
15.8153072082
 20
7.3007669522
 30
0.0
 10
15.8060695018
 20
7.3007937938
 30
0.0
 10
15.7968470668
 20
7.3015404201
 30
0.0
 10
15.7876683639
 20
7.3030043778
 30
0.0
 10
15.778561594
 20
7.3051809829
 30
0.0
 10
15.7695546948
 20
7.3080633563
 30
0.0
 10
15.760675133
 20
7.3116423335
 30
0.0
 10
15.7519499698
 20
7.3159065601
 30
0.0
 10
15.7434053519
 20
7.3208430276
 30
0.0
 10
15.7321870104
 20
7.3283680596
 30
0.0
 10
15.7187457402
 20
7.3394303437
 30
0.0
 10
15.70390582
 20
7.3549656998
 30
0.0
 10
15.6903718803
 20
7.3726967442
 30
0.0
 10
15.6783036596
 20
7.3924071175
 30
0.0
 10
15.6678411026
 20
7.4138598839
 30
0.0
 10
15.6591071016
 20
7.436797626
 30
0.0
 10
15.6522043963
 20
7.4609452886
 30
0.0
 10
15.6472145835
 20
7.4860139025
 30
0.0
 10
15.6441967797
 20
7.5117009793
 30
0.0
 10
15.6435241681
 20
7.5290202872
 30
0.0
 10
15.6435241681
 20
7.5377023482
 30
0.0
  0
SPLINE
  5
3A8
100
AcDbEntity
  8
0
100
AcDbSpline
 62
9
  6
CONTINUOUS
 70
0
 71
3
 72
17
 73
13
 74
0
 42
0.0000001
 43
0.0000001
 44
0.0000000001
 40
0.0
 40
0.0
 40
0.0
 40
0.0
 40
0.0543862786
 40
0.1100288202
 40
0.1669503679
 40
0.2251515225
 40
0.3452423491
 40
0.4699769201
 40
0.5987207584
 40
0.7306411299
 40
0.8647584703
 40
1.0
 40
1.0
 40
1.0
 40
1.0
 10
15.4731767992
 20
7.7137028518
 30
0.0
 10
15.4704638277
 20
7.7114237076
 30
0.0
 10
15.4651425757
 20
7.7066099165
 30
0.0
 10
15.457595819
 20
7.6987664022
 30
0.0
 10
15.4504239534
 20
7.6902506169
 30
0.0
 10
15.441308327
 20
7.6779219942
 30
0.0
 10
15.4310474462
 20
7.6609981725
 30
0.0
 10
15.4208018996
 20
7.6388720903
 30
0.0
 10
15.4126551505
 20
7.6150764545
 30
0.0
 10
15.4067401434
 20
7.5900049013
 30
0.0
 10
15.4031521379
 20
7.5640727586
 30
0.0
 10
15.4023515758
 20
7.5465133261
 30
0.0
 10
15.4023515758
 20
7.5377023482
 30
0.0
  0
SPLINE
  5
3A9
100
AcDbEntity
  8
0
100
AcDbSpline
 62
7
  6
CONTINUOUS
 70
0
 71
3
 72
11
 73
7
 74
0
 42
0.0000001
 43
0.0000001
 44
0.0000000001
 40
0.0
 40
0.0
 40
0.0
 40
0.0
 40
0.2466723596
 40
0.4944090342
 40
0.7449954255
 40
1.0
 40
1.0
 40
1.0
 40
1.0
 10
14.5071951926
 20
7.6878315889
 30
0.0
 10
14.5094959211
 20
7.6888827789
 30
0.0
 10
14.5142261506
 20
7.6907401644
 30
0.0
 10
14.5216144039
 20
7.6927404041
 30
0.0
 10
14.5292599652
 20
7.6939417666
 30
0.0
 10
14.5344488706
 20
7.6942023482
 30
0.0
 10
14.5370638094
 20
7.6942023482
 30
0.0
  0
SPLINE
  5
3AA
100
AcDbEntity
  8
0
100
AcDbSpline
 62
9
  6
CONTINUOUS
 70
0
 71
3
 72
23
 73
19
 74
0
 42
0.0000001
 43
0.0000001
 44
0.0000000001
 40
0.0
 40
0.0
 40
0.0
 40
0.0
 40
0.0515302714
 40
0.1041567631
 40
0.1581357887
 40
0.2136664158
 40
0.2708874684
 40
0.3298779032
 40
0.3600523196
 40
0.3906727456
 40
0.4532147704
 40
0.5174386001
 40
0.5832236183
 40
0.6504127759
 40
0.7188182091
 40
0.7882265495
 40
0.8584047868
 40
1.0
 40
1.0
 40
1.0
 40
1.0
 10
15.5818682362
 20
7.7703049363
 30
0.0
 10
15.577100043
 20
7.7690038728
 30
0.0
 10
15.5676103177
 20
7.7657975752
 30
0.0
 10
15.5538580196
 20
7.7593302305
 30
0.0
 10
15.5405588348
 20
7.7512132299
 30
0.0
 10
15.5278131855
 20
7.7415107756
 30
0.0
 10
15.5157136922
 20
7.7302977098
 30
0.0
 10
15.5063123737
 20
7.719842891
 30
0.0
 10
15.4991883517
 20
7.7108255395
 30
0.0
 10
15.4922453683
 20
7.701243709
 30
0.0
 10
15.4841404477
 20
7.6884881417
 30
0.0
 10
15.475446488
 20
7.6721752504
 30
0.0
 10
15.4677783153
 20
7.6548677149
 30
0.0
 10
15.4611923528
 20
7.6366940678
 30
0.0
 10
15.4557367009
 20
7.6177888848
 30
0.0
 10
15.4514511501
 20
7.5982901995
 30
0.0
 10
15.4473284363
 20
7.5716255968
 30
0.0
 10
15.4460942633
 20
7.5512834167
 30
0.0
 10
15.4460942633
 20
7.5377023482
 30
0.0
  0
SPLINE
  5
3AB
100
AcDbEntity
  8
0
100
AcDbSpline
 62
9
  6
CONTINUOUS
 70
0
 71
3
 72
29
 73
25
 74
0
 42
0.0000001
 43
0.0000001
 44
0.0000000001
 40
0.0
 40
0.0
 40
0.0
 40
0.0
 40
0.0265365858
 40
0.0528820128
 40
0.0791123329
 40
0.1053059917
 40
0.1315422071
 40
0.1578992994
 40
0.1844530773
 40
0.211275342
 40
0.2384325458
 40
0.2659847506
 40
0.2939848328
 40
0.3224778787
 40
0.3810541083
 40
0.4419425494
 40
0.5052136297
 40
0.5708214748
 40
0.6386176901
 40
0.7083669317
 40
0.7797623604
 40
0.8524408099
 40
0.9259968617
 40
1.0
 40
1.0
 40
1.0
 40
1.0
 10
15.8427669349
 20
7.7703049363
 30
0.0
 10
15.8397634615
 20
7.7711244731
 30
0.0
 10
15.8337143979
 20
7.7725341772
 30
0.0
 10
15.8245318669
 20
7.7739446825
 30
0.0
 10
15.8153072082
 20
7.7746377442
 30
0.0
 10
15.8060695018
 20
7.7746109025
 30
0.0
 10
15.7968470668
 20
7.7738642763
 30
0.0
 10
15.7876683639
 20
7.7724003186
 30
0.0
 10
15.778561594
 20
7.7702237135
 30
0.0
 10
15.7695546948
 20
7.7673413401
 30
0.0
 10
15.760675133
 20
7.7637623629
 30
0.0
 10
15.7519499698
 20
7.7594981362
 30
0.0
 10
15.7434053519
 20
7.7545616688
 30
0.0
 10
15.7321870104
 20
7.7470366368
 30
0.0
 10
15.7187457402
 20
7.7359743527
 30
0.0
 10
15.70390582
 20
7.7204389966
 30
0.0
 10
15.6903718803
 20
7.7027079521
 30
0.0
 10
15.6783036596
 20
7.6829975789
 30
0.0
 10
15.6678411026
 20
7.6615448125
 30
0.0
 10
15.6591071016
 20
7.6386070703
 30
0.0
 10
15.6522043963
 20
7.6144594078
 30
0.0
 10
15.6472145835
 20
7.5893907939
 30
0.0
 10
15.6441967797
 20
7.5637037171
 30
0.0
 10
15.6435241681
 20
7.5463844092
 30
0.0
 10
15.6435241681
 20
7.5377023482
 30
0.0
  0
SPLINE
  5
3AC
100
AcDbEntity
  8
0
100
AcDbSpline
 62
9
  6
CONTINUOUS
 70
0
 71
3
 72
22
 73
18
 74
0
 42
0.0000001
 43
0.0000001
 44
0.0000000001
 40
0.0
 40
0.0
 40
0.0
 40
0.0
 40
0.0514641212
 40
0.1034167973
 40
0.1563146994
 40
0.2105555456
 40
0.2664589929
 40
0.3242563028
 40
0.3840876952
 40
0.446005386
 40
0.5099802427
 40
0.5759104099
 40
0.6436308084
 40
0.7129228637
 40
0.7835238609
 40
0.8551369542
 40
1.0
 40
1.0
 40
1.0
 40
1.0
 10
15.3862969549
 20
7.6877023482
 30
0.0
 10
15.3828231722
 20
7.6877023482
 30
0.0
 10
15.375833095
 20
7.6872146143
 30
0.0
 10
15.3654784608
 20
7.6850316856
 30
0.0
 10
15.355331893
 20
7.6814209343
 30
0.0
 10
15.3454956665
 20
7.6764218287
 30
0.0
 10
15.3360635393
 20
7.6700870255
 30
0.0
 10
15.327124807
 20
7.6624810504
 30
0.0
 10
15.3187630049
 20
7.6536793991
 30
0.0
 10
15.3110560488
 20
7.6437679192
 30
0.0
 10
15.3040757581
 20
7.6328422489
 30
0.0
 10
15.2978873493
 20
7.6210072384
 30
0.0
 10
15.2925488148
 20
7.6083760029
 30
0.0
 10
15.2881104325
 20
7.5950696565
 30
0.0
 10
15.2846138426
 20
7.5812137206
 30
0.0
 10
15.2812402202
 20
7.5621206685
 30
0.0
 10
15.2802309377
 20
7.5474804757
 30
0.0
 10
15.2802309377
 20
7.5377023482
 30
0.0
  0
LINE
  5
3AD
100
AcDbEntity
  8
0
100
AcDbLine
 62
7
  6
CONTINUOUS
 10
14.154914345
 20
8.2087883515
 11
14.1613853625
 21
8.2092981961
  0
SPLINE
  5
3AE
100
AcDbEntity
  8
0
100
AcDbSpline
 62
7
  6
CONTINUOUS
 70
0
 71
3
 72
29
 73
25
 74
0
 42
0.0000001
 43
0.0000001
 44
0.0000000001
 40
0.0
 40
0.0
 40
0.0
 40
0.0
 40
0.0623214958
 40
0.1246695009
 40
0.1870409241
 40
0.249436148
 40
0.2806431542
 40
0.3118560743
 40
0.3430749075
 40
0.3742997015
 40
0.4367665878
 40
0.4992585838
 40
0.5305146396
 40
0.5617770285
 40
0.5930454237
 40
0.6243195209
 40
0.6868831014
 40
0.7181734493
 40
0.7494689019
 40
0.8120732539
 40
0.8746964639
 40
0.9060159897
 40
0.9373403663
 40
1.0
 40
1.0
 40
1.0
 40
1.0
 10
6.05060187
 20
9.895435438
 30
0.0
 10
6.0912892415
 20
9.9000867062
 30
0.0
 10
6.1727826537
 20
9.9085301209
 30
0.0
 10
6.2952954273
 20
9.9184946198
 30
0.0
 10
6.4180533381
 20
9.9256569186
 30
0.0
 10
6.5204945683
 20
9.9292179798
 30
0.0
 10
6.6025025265
 20
9.9305943246
 30
0.0
 10
6.6640347935
 20
9.9308844075
 30
0.0
 10
6.7255777614
 20
9.9304300771
 30
0.0
 10
6.8076443349
 20
9.9288264556
 30
0.0
 10
6.9102124426
 20
9.9249548034
 30
0.0
 10
7.0126790663
 20
9.9186332558
 30
0.0
 10
7.0945676767
 20
9.9121126384
 30
0.0
 10
7.1559410273
 20
9.9064918084
 30
0.0
 10
7.2172542561
 20
9.9001322161
 30
0.0
 10
7.2989163228
 20
9.8906513315
 30
0.0
 10
7.380410094
 20
9.8796444527
 30
0.0
 10
7.4616871976
 20
9.8671015993
 30
0.0
 10
7.5428259528
 20
9.8535282264
 30
0.0
 10
7.6439417856
 20
9.834638121
 30
0.0
 10
7.7445651125
 20
9.8132048398
 30
0.0
 10
7.8247434982
 20
9.7945642905
 30
0.0
 10
7.9047100746
 20
9.7749359806
 30
0.0
 10
7.9644187874
 20
9.7591276811
 30
0.0
 10
8.0040958512
 20
9.7481242575
 30
0.0
  0
LINE
  5
3AF
100
AcDbEntity
  8
0
100
AcDbLine
 62
9
  6
CONTINUOUS
 10
14.1611669192
 20
8.2092763471
 11
14.1603649624
 21
8.2023289751
  0
SPLINE
  5
3B0
100
AcDbEntity
  8
0
100
AcDbSpline
 62
9
  6
CONTINUOUS
 70
0
 71
3
 72
29
 73
25
 74
0
 42
0.0000001
 43
0.0000001
 44
0.0000000001
 40
0.0
 40
0.0
 40
0.0
 40
0.0
 40
0.1249419912
 40
0.1874125421
 40
0.2498817681
 40
0.3123514785
 40
0.3748249823
 40
0.4373050227
 40
0.4997840828
 40
0.5622480012
 40
0.5934714649
 40
0.6246930185
 40
0.6559190157
 40
0.6871573335
 40
0.7184196471
 40
0.7340651773
 40
0.7497204642
 40
0.7810343423
 40
0.8123086506
 40
0.8435233346
 40
0.8747353541
 40
0.9060478219
 40
0.9374284634
 40
1.0
 40
1.0
 40
1.0
 40
1.0
 10
14.5618219841
 20
8.2769075768
 30
0.0
 10
14.5620347202
 20
8.2747912484
 30
0.0
 10
14.5623513952
 20
8.2716165177
 30
0.0
 10
14.5627662332
 20
8.267382842
 30
0.0
 10
14.5630724502
 20
8.2642071394
 30
0.0
 10
14.563376622
 20
8.2610311911
 30
0.0
 10
14.5636826876
 20
8.2578552374
 30
0.0
 10
14.5639967941
 20
8.2546799086
 30
0.0
 10
14.5643106375
 20
8.2515047225
 30
0.0
 10
14.5645589021
 20
8.2488577514
 30
0.0
 10
14.5647409573
 20
8.2467391211
 30
0.0
 10
14.5648740586
 20
8.2451500457
 30
0.0
 10
14.565012394
 20
8.2435611534
 30
0.0
 10
14.565163781
 20
8.2419727383
 30
0.0
 10
14.5653071983
 20
8.2406500785
 30
0.0
 10
14.5654367594
 20
8.2395929072
 30
0.0
 10
14.5655754114
 20
8.2385360138
 30
0.0
 10
14.5657535165
 20
8.2372159737
 30
0.0
 10
14.5659411669
 20
8.2356299775
 30
0.0
 10
14.5660685793
 20
8.2340393115
 30
0.0
 10
14.5660997742
 20
8.2324424379
 30
0.0
 10
14.5660045964
 20
8.2308449113
 30
0.0
 10
14.5657229809
 20
8.2287298529
 30
0.0
 10
14.5653461705
 20
8.2271687527
 30
0.0
 10
14.5650284341
 20
8.226152036
 30
0.0
  0
SPLINE
  5
3B1
100
AcDbEntity
  8
0
100
AcDbSpline
 62
7
  6
CONTINUOUS
 70
0
 71
3
 72
52
 73
48
 74
0
 42
0.0000001
 43
0.0000001
 44
0.0000000001
 40
0.0
 40
0.0
 40
0.0
 40
0.0
 40
0.0003481735
 40
0.0007550056
 40
0.0017501594
 40
0.0029928973
 40
0.004486383
 40
0.006231922
 40
0.0082299584
 40
0.0104803834
 40
0.01298259
 40
0.0187387876
 40
0.0254891805
 40
0.0332213661
 40
0.0419203979
 40
0.0515689925
 40
0.0621477824
 40
0.0736353859
 40
0.0860083923
 40
0.0992415371
 40
0.1133077863
 40
0.1438225567
 40
0.1773023966
 40
0.2134722849
 40
0.2520349509
 40
0.292673225
 40
0.3350528399
 40
0.3788250971
 40
0.4236297979
 40
0.4690982336
 40
0.5605270896
 40
0.6501080234
 40
0.7348982924
 40
0.7746179576
 40
0.8121131608
 40
0.8470756014
 40
0.8792179593
 40
0.9082763973
 40
0.9340126823
 40
0.9455682183
 40
0.9562166489
 40
0.9659364205
 40
0.9747080384
 40
0.9825140455
 40
0.9893392393
 40
0.9951712916
 40
1.0
 40
1.0
 40
1.0
 40
1.0
 10
14.5814865867
 20
7.6943516185
 30
0.0
 10
14.5814546257
 20
7.6942636661
 30
0.0
 10
14.5813750996
 20
7.6940766443
 30
0.0
 10
14.5811605737
 20
7.6936577462
 30
0.0
 10
14.5807850918
 20
7.6930529967
 30
0.0
 10
14.5802045275
 20
7.6922349048
 30
0.0
 10
14.5794659749
 20
7.6912829183
 30
0.0
 10
14.5785697007
 20
7.6901973932
 30
0.0
 10
14.5775157203
 20
7.6889788321
 30
0.0
 10
14.5763045263
 20
7.6876277917
 30
0.0
 10
14.574389301
 20
7.6855517204
 30
0.0
 10
14.5716012997
 20
7.6826358631
 30
0.0
 10
14.567780601
 20
7.6787637373
 30
0.0
 10
14.5633525032
 20
7.6743804011
 30
0.0
 10
14.5583266067
 20
7.6694941863
 30
0.0
 10
14.5527136581
 20
7.6641145384
 30
0.0
 10
14.5465257696
 20
7.6582518207
 30
0.0
 10
14.5397762625
 20
7.6519173749
 30
0.0
 10
14.5324796584
 20
7.6451234933
 30
0.0
 10
14.5246516371
 20
7.6378833861
 30
0.0
 10
14.5132139191
 20
7.6273650242
 30
0.0
 10
14.4977177174
 20
7.6132208326
 30
0.0
 10
14.4777679687
 20
7.5951438594
 30
0.0
 10
14.4561608109
 20
7.5756748061
 30
0.0
 10
14.4330794839
 20
7.5549677125
 30
0.0
 10
14.4087193494
 20
7.5331868174
 30
0.0
 10
14.3832863815
 20
7.5105051515
 30
0.0
 10
14.3569954072
 20
7.4871031351
 30
0.0
 10
14.330068345
 20
7.4631671049
 30
0.0
 10
14.2935546173
 20
7.4307362808
 30
0.0
 10
14.2480322305
 20
7.3903256832
 30
0.0
 10
14.1946326769
 20
7.3428689585
 30
0.0
 10
14.1516803677
 20
7.3045783999
 30
0.0
 10
14.1192414437
 20
7.2755323154
 30
0.0
 10
14.0968177944
 20
7.2553774867
 30
0.0
 10
14.0759545761
 20
7.2365332545
 30
0.0
 10
14.0568287658
 20
7.2191486113
 30
0.0
 10
14.0396030408
 20
7.2033605367
 30
0.0
 10
14.0265227273
 20
7.1912389836
 30
0.0
 10
14.0171243421
 20
7.1824244743
 30
0.0
 10
14.0108934325
 20
7.1765255881
 30
0.0
 10
14.0052364816
 20
7.1711089639
 30
0.0
 10
14.0001656939
 20
7.1661850251
 30
0.0
 10
13.9956920092
 20
7.1617632612
 30
0.0
 10
13.9918248233
 20
7.1578521847
 30
0.0
 10
13.9885724341
 20
7.1544593493
 30
0.0
 10
13.9866345164
 20
7.1523481475
 30
0.0
 10
13.9857747135
 20
7.1513759896
 30
0.0
  0
SPLINE
  5
3B2
100
AcDbEntity
  8
0
100
AcDbSpline
 62
7
  6
CONTINUOUS
 70
0
 71
3
 72
31
 73
27
 74
0
 42
0.0000001
 43
0.0000001
 44
0.0000000001
 40
0.0
 40
0.0
 40
0.0
 40
0.0
 40
0.0014360558
 40
0.0030396621
 40
0.0049343662
 40
0.0071964745
 40
0.0098709342
 40
0.0129846062
 40
0.0165542458
 40
0.0205907748
 40
0.0300906454
 40
0.0415219653
 40
0.0549011514
 40
0.0702356187
 40
0.0875275579
 40
0.1067744542
 40
0.1279715811
 40
0.1511125364
 40
0.2031880799
 40
0.2629159442
 40
0.3301893352
 40
0.4048841132
 40
0.4868602929
 40
0.5759621115
 40
0.7748425261
 40
1.0
 40
1.0
 40
1.0
 40
1.0
 10
13.9797088259
 20
7.2076039005
 30
0.0
 10
13.9796815267
 20
7.2076364381
 30
0.0
 10
13.9796365564
 20
7.2077167766
 30
0.0
 10
13.9796094994
 20
7.207861997
 30
0.0
 10
13.9796177158
 20
7.2080332129
 30
0.0
 10
13.9796598723
 20
7.2082314142
 30
0.0
 10
13.9797356807
 20
7.2084575007
 30
0.0
 10
13.9798452285
 20
7.2087119152
 30
0.0
 10
13.9799885995
 20
7.2089948726
 30
0.0
 10
13.9802389809
 20
7.2094346743
 30
0.0
 10
13.9806420394
 20
7.2100540954
 30
0.0
 10
13.9812369135
 20
7.2108764875
 30
0.0
 10
13.9819668996
 20
7.2118131592
 30
0.0
 10
13.9828317453
 20
7.2128637566
 30
0.0
 10
13.9838312416
 20
7.2140278283
 30
0.0
 10
13.9849649244
 20
7.2153048821
 30
0.0
 10
13.9862322434
 20
7.2166943769
 30
0.0
 10
13.988177328
 20
7.2187795954
 30
0.0
 10
13.9909417439
 20
7.2216585858
 30
0.0
 10
13.994661444
 20
7.2254290691
 30
0.0
 10
13.9988950375
 20
7.2296318403
 30
0.0
 10
14.0036337998
 20
7.2342593696
 30
0.0
 10
14.0088680473
 20
7.2393033065
 30
0.0
 10
14.0167885234
 20
7.2468526083
 30
0.0
 10
14.027847353
 20
7.2572467073
 30
0.0
 10
14.0370407491
 20
7.2657771438
 30
0.0
 10
14.0419326224
 20
7.2702954712
 30
0.0
  0
SPLINE
  5
3B3
100
AcDbEntity
  8
0
100
AcDbSpline
 62
9
  6
CONTINUOUS
 70
0
 71
3
 72
18
 73
14
 74
0
 42
0.0000001
 43
0.0000001
 44
0.0000000001
 40
0.0
 40
0.0
 40
0.0
 40
0.0
 40
0.1249812031
 40
0.2499642278
 40
0.3749387198
 40
0.4999213768
 40
0.6249287122
 40
0.6874410031
 40
0.7499562297
 40
0.8124713874
 40
0.8749838126
 40
0.9374932525
 40
1.0
 40
1.0
 40
1.0
 40
1.0
 10
14.5650284341
 20
8.226152036
 30
0.0
 10
14.566434462
 20
8.2104015222
 30
0.0
 10
14.5693309199
 20
8.1789078869
 30
0.0
 10
14.5735489461
 20
8.131656816
 30
0.0
 10
14.5772608633
 20
8.0843612294
 30
0.0
 10
14.5800845636
 20
8.0370006543
 30
0.0
 10
14.5818393198
 20
7.9974993838
 30
0.0
 10
14.5829703613
 20
7.9658840475
 30
0.0
 10
14.5837035047
 20
7.9421666043
 30
0.0
 10
14.5843436856
 20
7.9184464954
 30
0.0
 10
14.5849094393
 20
7.8947252282
 30
0.0
 10
14.5853938483
 20
7.8710032193
 30
0.0
 10
14.5856595199
 20
7.8551878342
 30
0.0
 10
14.5857771638
 20
7.8472800932
 30
0.0
  0
LINE
  5
3B4
100
AcDbEntity
  8
0
100
AcDbLine
 62
9
  6
CONTINUOUS
 10
14.5857771638
 20
7.8472800932
 11
14.5857810745
 21
7.8470168522
  0
LINE
  5
3B5
100
AcDbEntity
  8
0
100
AcDbLine
 62
9
  6
CONTINUOUS
 10
14.5857810745
 20
7.8470168522
 11
14.5857893214
 21
7.8464592188
  0
LINE
  5
3B6
100
AcDbEntity
  8
0
100
AcDbLine
 62
9
  6
CONTINUOUS
 10
14.5857893214
 20
7.8464592188
 11
14.5857918753
 21
7.8462858429
  0
SPLINE
  5
3B7
100
AcDbEntity
  8
0
100
AcDbSpline
 62
9
  6
CONTINUOUS
 70
0
 71
3
 72
39
 73
35
 74
0
 42
0.0000001
 43
0.0000001
 44
0.0000000001
 40
0.0
 40
0.0
 40
0.0
 40
0.0
 40
0.0724301296
 40
0.1082359468
 40
0.1435357536
 40
0.1781810992
 40
0.2120406245
 40
0.2450050514
 40
0.2769918442
 40
0.3079500819
 40
0.3230421951
 40
0.3378750186
 40
0.3667731126
 40
0.3947242921
 40
0.4218441848
 40
0.4482926167
 40
0.4742684443
 40
0.5
 40
0.5257315557
 40
0.5517073833
 40
0.5781558152
 40
0.6052757079
 40
0.6332268874
 40
0.6621249814
 40
0.6769578049
 40
0.6920499181
 40
0.7230081558
 40
0.7549949486
 40
0.7879593755
 40
0.8218189008
 40
0.8564642464
 40
0.8917640532
 40
0.9275698704
 40
1.0
 40
1.0
 40
1.0
 40
1.0
 10
16.0364662732
 20
7.5377023482
 30
0.0
 10
16.0364662732
 20
7.5446768031
 30
0.0
 10
16.0357463873
 20
7.5551192243
 30
0.0
 10
16.0333400791
 20
7.5687377402
 30
0.0
 10
16.0308460654
 20
7.5786207693
 30
0.0
 10
16.027680288
 20
7.5881118009
 30
0.0
 10
16.0238724831
 20
7.597121264
 30
0.0
 10
16.0194583935
 20
7.6055629078
 30
0.0
 10
16.0144798194
 20
7.6133555707
 30
0.0
 10
16.0098593773
 20
7.6192975244
 30
0.0
 10
16.0059233262
 20
7.6236454145
 30
0.0
 10
16.0019104949
 20
7.6276458477
 30
0.0
 10
15.9966423294
 20
7.632128639
 30
0.0
 10
15.9899149192
 20
7.6366468525
 30
0.0
 10
15.9828988806
 20
7.6402126269
 30
0.0
 10
15.9756619656
 20
7.6427880541
 30
0.0
 10
15.9682751366
 20
7.6443450734
 30
0.0
 10
15.9608124882
 20
7.6448660771
 30
0.0
 10
15.9533498399
 20
7.6443450734
 30
0.0
 10
15.9459630109
 20
7.6427880541
 30
0.0
 10
15.9387260958
 20
7.6402126269
 30
0.0
 10
15.9317100572
 20
7.6366468525
 30
0.0
 10
15.9249826471
 20
7.632128639
 30
0.0
 10
15.9197144816
 20
7.6276458477
 30
0.0
 10
15.9157016502
 20
7.6236454145
 30
0.0
 10
15.9117655991
 20
7.6192975244
 30
0.0
 10
15.907145157
 20
7.6133555707
 30
0.0
 10
15.902166583
 20
7.6055629078
 30
0.0
 10
15.8977524933
 20
7.597121264
 30
0.0
 10
15.8939446884
 20
7.5881118009
 30
0.0
 10
15.890778911
 20
7.5786207693
 30
0.0
 10
15.8882848973
 20
7.5687377402
 30
0.0
 10
15.8858785891
 20
7.5551192243
 30
0.0
 10
15.8851587032
 20
7.5446768031
 30
0.0
 10
15.8851587032
 20
7.5377023482
 30
0.0
  0
SPLINE
  5
3B8
100
AcDbEntity
  8
0
100
AcDbSpline
 62
7
  6
CONTINUOUS
 70
0
 71
3
 72
69
 73
65
 74
0
 42
0.0000001
 43
0.0000001
 44
0.0000000001
 40
0.0
 40
0.0
 40
0.0
 40
0.0
 40
0.0003691928
 40
0.0008043838
 40
0.0013073822
 40
0.0018793286
 40
0.0032326933
 40
0.0048680107
 40
0.0067865689
 40
0.008988718
 40
0.0114740418
 40
0.014241736
 40
0.0206193306
 40
0.0281091933
 40
0.0366953172
 40
0.0463586516
 40
0.0570773525
 40
0.0688268885
 40
0.0815801809
 40
0.0953077499
 40
0.1099778015
 40
0.1255562674
 40
0.1592914297
 40
0.1961993934
 40
0.2359363305
 40
0.2781319147
 40
0.3223926975
 40
0.3683059283
 40
0.4154433408
 40
0.4633652376
 40
0.5116245581
 40
0.5597710964
 40
0.6073556965
 40
0.6539344614
 40
0.6990729142
 40
0.7423500566
 40
0.7833623363
 40
0.8217274235
 40
0.8570878414
 40
0.8891143582
 40
0.9037830423
 40
0.9175092248
 40
0.9302610788
 40
0.9420090997
 40
0.9527262575
 40
0.9623880485
 40
0.9709725932
 40
0.9784608124
 40
0.9817887242
 40
0.9848368198
 40
0.9876037185
 40
0.9900882029
 40
0.9922895013
 40
0.9942072643
 40
0.9958417205
 40
0.9971942709
 40
0.9977658302
 40
0.9982684231
 40
0.998703202
 40
0.9990720018
 40
0.9993778794
 40
0.9996262654
 40
0.999827355
 40
1.0
 40
1.0
 40
1.0
 40
1.0
 10
13.97593197
 20
7.1527013116
 30
0.0
 10
13.9759661839
 20
7.1527954585
 30
0.0
 10
13.976052467
 20
7.1529963205
 30
0.0
 10
13.9762161422
 20
7.1533112345
 30
0.0
 10
13.9764246808
 20
7.1536641263
 30
0.0
 10
13.9767833729
 20
7.1542169547
 30
0.0
 10
13.9773498968
 20
7.1550001629
 30
0.0
 10
13.978174497
 20
7.1560457966
 30
0.0
 10
13.9791780542
 20
7.1572426825
 30
0.0
 10
13.9803600778
 20
7.1585902051
 30
0.0
 10
13.9817200526
 20
7.1600876692
 30
0.0
 10
13.9838736637
 20
7.1623943349
 30
0.0
 10
13.9870104383
 20
7.1656401491
 30
0.0
 10
13.991309702
 20
7.1699567485
 30
0.0
 10
13.9962933499
 20
7.1748493096
 30
0.0
 10
14.0019491434
 20
7.1803072572
 30
0.0
 10
14.0082633805
 20
7.1863186125
 30
0.0
 10
14.0152206318
 20
7.1928702138
 30
0.0
 10
14.0228039335
 20
7.1999476517
 30
0.0
 10
14.030994829
 20
7.2075353174
 30
0.0
 10
14.0397734114
 20
7.2156164465
 30
0.0
 10
14.0525772818
 20
7.2273400641
 30
0.0
 10
14.0698861654
 20
7.2430781409
 30
0.0
 10
14.0921122996
 20
7.2631513501
 30
0.0
 10
14.1160972483
 20
7.2847018096
 30
0.0
 10
14.1416107022
 20
7.3075359527
 30
0.0
 10
14.1684081022
 20
7.3314482283
 30
0.0
 10
14.1962328184
 20
7.3562230777
 30
0.0
 10
14.2248186126
 20
7.38163692
 30
0.0
 10
14.2538921149
 20
7.4074602217
 30
0.0
 10
14.2831753952
 20
7.4334596415
 30
0.0
 10
14.312388558
 20
7.4594001946
 30
0.0
 10
14.3412523651
 20
7.4850474462
 30
0.0
 10
14.3694908474
 20
7.5101696923
 30
0.0
 10
14.3968338875
 20
7.5345401163
 30
0.0
 10
14.4230197563
 20
7.5579388967
 30
0.0
 10
14.4477975558
 20
7.5801552549
 30
0.0
 10
14.4709296335
 20
7.6009893642
 30
0.0
 10
14.4921936819
 20
7.6202543234
 30
0.0
 10
14.5086351028
 20
7.6352662032
 30
0.0
 10
14.5206965513
 20
7.6463693195
 30
0.0
 10
14.5288865624
 20
7.6539562667
 30
0.0
 10
14.5364689641
 20
7.6610329425
 30
0.0
 10
14.5434252815
 20
7.6675837572
 30
0.0
 10
14.5497385507
 20
7.6735943147
 30
0.0
 10
14.5553934057
 20
7.6790514234
 30
0.0
 10
14.5603759631
 20
7.6839432148
 30
0.0
 10
14.5640908662
 20
7.6876728036
 30
0.0
 10
14.5667134901
 20
7.6903695798
 30
0.0
 10
14.5684264398
 20
7.6921639786
 30
0.0
 10
14.5699631107
 20
7.6938101062
 30
0.0
 10
14.5713225801
 20
7.6953071176
 30
0.0
 10
14.5725040731
 20
7.6966542092
 30
0.0
 10
14.5735071142
 20
7.6978506397
 30
0.0
 10
14.5743311852
 20
7.6988958396
 30
0.0
 10
14.574897263
 20
7.6996786756
 30
0.0
 10
14.5752556121
 20
7.700231215
 30
0.0
 10
14.5754638762
 20
7.7005838717
 30
0.0
 10
14.5756273087
 20
7.7008985956
 30
0.0
 10
14.5757460797
 20
7.7011755927
 30
0.0
 10
14.5758205272
 20
7.7014154021
 30
0.0
 10
14.5758506086
 20
7.7016192928
 30
0.0
 10
14.5758351792
 20
7.7017898181
 30
0.0
 10
14.5757880556
 20
7.7018834855
 30
0.0
 10
14.5757579432
 20
7.7019193672
 30
0.0
  0
SPLINE
  5
3B9
100
AcDbEntity
  8
0
100
AcDbSpline
 62
7
  6
CONTINUOUS
 70
0
 71
3
 72
38
 73
34
 74
0
 42
0.0000001
 43
0.0000001
 44
0.0000000001
 40
0.0
 40
0.0
 40
0.0
 40
0.0
 40
0.000730686
 40
0.0016284268
 40
0.002698074
 40
0.0039422472
 40
0.0053624223
 40
0.0069594539
 40
0.0106853273
 40
0.0151200654
 40
0.020261096
 40
0.0261038135
 40
0.0326424105
 40
0.0398697409
 40
0.047777752
 40
0.0655983838
 40
0.0860210292
 40
0.1089488487
 40
0.1342723792
 40
0.1618703049
 40
0.1916100923
 40
0.2233487564
 40
0.2569335487
 40
0.2922027327
 40
0.367107298
 40
0.4466202106
 40
0.5292099528
 40
0.6132854796
 40
0.6972270007
 40
0.7794173216
 40
0.8582731265
 40
0.9322756452
 40
1.0
 40
1.0
 40
1.0
 40
1.0
 10
13.9912010727
 20
7.1947261234
 30
0.0
 10
13.9912515383
 20
7.194865043
 30
0.0
 10
13.9913871568
 20
7.1951661437
 30
0.0
 10
13.9916529419
 20
7.195643164
 30
0.0
 10
13.9920023603
 20
7.1961911887
 30
0.0
 10
13.9924355403
 20
7.1968101217
 30
0.0
 10
13.9929526085
 20
7.1974999551
 30
0.0
 10
13.9937984033
 20
7.1985701778
 30
0.0
 10
13.9950707264
 20
7.2000796969
 30
0.0
 10
13.9968594641
 20
7.202089902
 30
0.0
 10
13.9989784532
 20
7.2043785682
 30
0.0
 10
14.0014250265
 20
7.2069432651
 30
0.0
 10
14.0041962535
 20
7.2097810901
 30
0.0
 10
14.0072885895
 20
7.2128889601
 30
0.0
 10
14.0120268352
 20
7.2175782073
 30
0.0
 10
14.0187265318
 20
7.2240795821
 30
0.0
 10
14.0276835759
 20
7.2326165463
 30
0.0
 10
14.0378043012
 20
7.2421318298
 30
0.0
 10
14.0490376549
 20
7.2525822341
 30
0.0
 10
14.0613272738
 20
7.2639199819
 30
0.0
 10
14.074611546
 20
7.2760931334
 30
0.0
 10
14.0888240284
 20
7.2890457324
 30
0.0
 10
14.1038937382
 20
7.3027181165
 30
0.0
 10
14.1254659994
 20
7.3222178862
 30
0.0
 10
14.1539889076
 20
7.3478823942
 30
0.0
 10
14.189689917
 20
7.3798796027
 30
0.0
 10
14.2268119789
 20
7.4130706804
 30
0.0
 10
14.2646202262
 20
7.4468382683
 30
0.0
 10
14.3023665899
 20
7.480553857
 30
0.0
 10
14.339304165
 20
7.5135899686
 30
0.0
 10
14.3747017692
 20
7.5453321213
 30
0.0
 10
14.4078579843
 20
7.5751906878
 30
0.0
 10
14.4291007674
 20
7.594442183
 30
0.0
 10
14.4392288405
 20
7.6036665812
 30
0.0
  0
SPLINE
  5
3BA
100
AcDbEntity
  8
0
100
AcDbSpline
 62
9
  6
CONTINUOUS
 70
0
 71
3
 72
39
 73
35
 74
0
 42
0.0000001
 43
0.0000001
 44
0.0000000001
 40
0.0
 40
0.0
 40
0.0
 40
0.0
 40
0.0724301296
 40
0.1082359468
 40
0.1435357536
 40
0.1781810992
 40
0.2120406245
 40
0.2450050514
 40
0.2769918442
 40
0.3079500819
 40
0.3230421951
 40
0.3378750186
 40
0.3667731126
 40
0.3947242921
 40
0.4218441848
 40
0.4482926167
 40
0.4742684443
 40
0.5
 40
0.5257315557
 40
0.5517073833
 40
0.5781558152
 40
0.6052757079
 40
0.6332268874
 40
0.6621249814
 40
0.6769578049
 40
0.6920499181
 40
0.7230081558
 40
0.7549949486
 40
0.7879593755
 40
0.8218189008
 40
0.8564642464
 40
0.8917640532
 40
0.9275698704
 40
1.0
 40
1.0
 40
1.0
 40
1.0
 10
16.0364662732
 20
7.5377023482
 30
0.0
 10
16.0364662732
 20
7.5307278933
 30
0.0
 10
16.0357463873
 20
7.520285472
 30
0.0
 10
16.0333400791
 20
7.5066669562
 30
0.0
 10
16.0308460654
 20
7.4967839271
 30
0.0
 10
16.027680288
 20
7.4872928955
 30
0.0
 10
16.0238724831
 20
7.4782834323
 30
0.0
 10
16.0194583935
 20
7.4698417886
 30
0.0
 10
16.0144798194
 20
7.4620491257
 30
0.0
 10
16.0098593773
 20
7.456107172
 30
0.0
 10
16.0059233262
 20
7.4517592819
 30
0.0
 10
16.0019104949
 20
7.4477588486
 30
0.0
 10
15.9966423294
 20
7.4432760574
 30
0.0
 10
15.9899149192
 20
7.4387578438
 30
0.0
 10
15.9828988806
 20
7.4351920695
 30
0.0
 10
15.9756619656
 20
7.4326166423
 30
0.0
 10
15.9682751366
 20
7.431059623
 30
0.0
 10
15.9608124882
 20
7.4305386192
 30
0.0
 10
15.9533498399
 20
7.431059623
 30
0.0
 10
15.9459630109
 20
7.4326166423
 30
0.0
 10
15.9387260958
 20
7.4351920695
 30
0.0
 10
15.9317100572
 20
7.4387578438
 30
0.0
 10
15.9249826471
 20
7.4432760574
 30
0.0
 10
15.9197144816
 20
7.4477588486
 30
0.0
 10
15.9157016502
 20
7.4517592819
 30
0.0
 10
15.9117655991
 20
7.456107172
 30
0.0
 10
15.907145157
 20
7.4620491257
 30
0.0
 10
15.902166583
 20
7.4698417886
 30
0.0
 10
15.8977524933
 20
7.4782834323
 30
0.0
 10
15.8939446884
 20
7.4872928955
 30
0.0
 10
15.890778911
 20
7.4967839271
 30
0.0
 10
15.8882848973
 20
7.5066669562
 30
0.0
 10
15.8858785891
 20
7.520285472
 30
0.0
 10
15.8851587032
 20
7.5307278933
 30
0.0
 10
15.8851587032
 20
7.5377023482
 30
0.0
  0
SPLINE
  5
3BB
100
AcDbEntity
  8
0
100
AcDbSpline
 62
9
  6
CONTINUOUS
 70
0
 71
3
 72
22
 73
18
 74
0
 42
0.0000001
 43
0.0000001
 44
0.0000000001
 40
0.0
 40
0.0
 40
0.0
 40
0.0
 40
0.1448630458
 40
0.2164761391
 40
0.2870771363
 40
0.3563691916
 40
0.4240895901
 40
0.4900197573
 40
0.553994614
 40
0.6159123048
 40
0.6757436972
 40
0.7335410071
 40
0.7894444544
 40
0.8436853006
 40
0.8965832027
 40
0.9485358788
 40
1.0
 40
1.0
 40
1.0
 40
1.0
 10
15.2802309377
 20
7.5377023482
 30
0.0
 10
15.2802309377
 20
7.5279242206
 30
0.0
 10
15.2812402202
 20
7.5132840279
 30
0.0
 10
15.2846138426
 20
7.4941909758
 30
0.0
 10
15.2881104325
 20
7.4803350398
 30
0.0
 10
15.2925488148
 20
7.4670286935
 30
0.0
 10
15.2978873493
 20
7.4543974579
 30
0.0
 10
15.3040757581
 20
7.4425624475
 30
0.0
 10
15.3110560488
 20
7.4316367772
 30
0.0
 10
15.3187630049
 20
7.4217252973
 30
0.0
 10
15.327124807
 20
7.412923646
 30
0.0
 10
15.3360635393
 20
7.4053176708
 30
0.0
 10
15.3454956665
 20
7.3989828677
 30
0.0
 10
15.355331893
 20
7.3939837621
 30
0.0
 10
15.3654784608
 20
7.3903730107
 30
0.0
 10
15.375833095
 20
7.3881900821
 30
0.0
 10
15.3828231722
 20
7.3877023482
 30
0.0
 10
15.3862969549
 20
7.3877023482
 30
0.0
  0
SPLINE
  5
3BC
100
AcDbEntity
  8
0
100
AcDbSpline
 62
9
  6
CONTINUOUS
 70
0
 71
3
 72
17
 73
13
 74
0
 42
0.0000001
 43
0.0000001
 44
0.0000000001
 40
0.0
 40
0.0
 40
0.0
 40
0.0
 40
0.1352415307
 40
0.2693588708
 40
0.401279242
 40
0.5300230802
 40
0.6547576511
 40
0.7748484777
 40
0.8330496321
 40
0.8899711798
 40
0.9456137214
 40
1.0
 40
1.0
 40
1.0
 40
1.0
 10
15.4023515758
 20
7.5377023482
 30
0.0
 10
15.4023515758
 20
7.5288913702
 30
0.0
 10
15.4031521379
 20
7.5113319377
 30
0.0
 10
15.4067401435
 20
7.485399795
 30
0.0
 10
15.4126551506
 20
7.4603282417
 30
0.0
 10
15.4208018996
 20
7.436532606
 30
0.0
 10
15.4310474462
 20
7.4144065239
 30
0.0
 10
15.4413083271
 20
7.3974827022
 30
0.0
 10
15.4504239534
 20
7.3851540795
 30
0.0
 10
15.457595819
 20
7.3766382942
 30
0.0
 10
15.4651425757
 20
7.3687947798
 30
0.0
 10
15.4704638277
 20
7.3639809888
 30
0.0
 10
15.4731767992
 20
7.3617018446
 30
0.0
  0
SPLINE
  5
3BD
100
AcDbEntity
  8
0
100
AcDbSpline
 62
9
  6
CONTINUOUS
 70
0
 71
3
 72
61
 73
57
 74
0
 42
0.0000001
 43
0.0000001
 44
0.0000000001
 40
0.0
 40
0.0
 40
0.0
 40
0.0
 40
0.0000020958
 40
0.0000073292
 40
0.0000157937
 40
0.0000275016
 40
0.0000606491
 40
0.0001067538
 40
0.0001657839
 40
0.0002377041
 40
0.0003224775
 40
0.0004200671
 40
0.0006535438
 40
0.0009378319
 40
0.0012726273
 40
0.0016576255
 40
0.0020925216
 40
0.0025769981
 40
0.0031107178
 40
0.0036933421
 40
0.0050039483
 40
0.0065061057
 40
0.0081971026
 40
0.0100741988
 40
0.0121345825
 40
0.014375431
 40
0.0167939221
 40
0.019387235
 40
0.0250871812
 40
0.0314531395
 40
0.038463121
 40
0.0460959385
 40
0.054330796
 40
0.0631475384
 40
0.0725274275
 40
0.0824519403
 40
0.0929029396
 40
0.1153135154
 40
0.1396225071
 40
0.1657035642
 40
0.193446236
 40
0.2227532934
 40
0.2535406725
 40
0.2857351851
 40
0.3192721121
 40
0.3540956257
 40
0.3901530026
 40
0.465773411
 40
0.5457960975
 40
0.629940263
 40
0.7179278438
 40
0.8093701924
 40
0.8562173802
 40
0.9036909835
 40
0.9516702949
 40
1.0
 40
1.0
 40
1.0
 40
1.0
 10
5.3111774018
 20
9.5297528664
 30
0.0
 10
5.3111775359
 20
9.529753318
 30
0.0
 10
5.3111796433
 20
9.5297535516
 30
0.0
 10
5.3111827265
 20
9.5297541801
 30
0.0
 10
5.3111886552
 20
9.5297545544
 30
0.0
 10
5.3112004808
 20
9.5297552604
 30
0.0
 10
5.3112210202
 20
9.5297558395
 30
0.0
 10
5.3112520442
 20
9.5297564006
 30
0.0
 10
5.3112918549
 20
9.5297567522
 30
0.0
 10
5.3113403309
 20
9.5297569302
 30
0.0
 10
5.3113974828
 20
9.52975691
 30
0.0
 10
5.31149094
 20
9.5297565989
 30
0.0
 10
5.3116292365
 20
9.5297556318
 30
0.0
 10
5.3118208369
 20
9.5297537008
 30
0.0
 10
5.3120464838
 20
9.5297508951
 30
0.0
 10
5.3123059702
 20
9.5297471848
 30
0.0
 10
5.3125990866
 20
9.529742537
 30
0.0
 10
5.3129256162
 20
9.529736925
 30
0.0
 10
5.3132853351
 20
9.5297303302
 30
0.0
 10
5.3138306823
 20
9.5297197771
 30
0.0
 10
5.3145936207
 20
9.5297039349
 30
0.0
 10
5.3156055752
 20
9.5296813735
 30
0.0
 10
5.3167447791
 20
9.5296544222
 30
0.0
 10
5.3180093693
 20
9.5296229254
 30
0.0
 10
5.3193974566
 20
9.5295867119
 30
0.0
 10
5.3209071338
 20
9.5295456138
 30
0.0
 10
5.3225364909
 20
9.5294994642
 30
0.0
 10
5.3249428825
 20
9.5294287076
 30
0.0
 10
5.3282359111
 20
9.5293264973
 30
0.0
 10
5.332520812
 20
9.5291846947
 30
0.0
 10
5.3372395538
 20
9.529018895
 30
0.0
 10
5.3423776889
 20
9.5288279217
 30
0.0
 10
5.3479211776
 20
9.528610599
 30
0.0
 10
5.3538565249
 20
9.5283657381
 30
0.0
 10
5.3601707426
 20
9.5280921769
 30
0.0
 10
5.3668512912
 20
9.5277887551
 30
0.0
 10
5.3764564739
 20
9.527331901
 30
0.0
 10
5.3892887645
 20
9.5266778323
 30
0.0
 10
5.4056252478
 20
9.5257686075
 30
0.0
 10
5.4231533164
 20
9.5247076197
 30
0.0
 10
5.4417965476
 20
9.5234821463
 30
0.0
 10
5.4614879272
 20
9.5220804769
 30
0.0
 10
5.4821690294
 20
9.520495498
 30
0.0
 10
5.5037881747
 20
9.5187140205
 30
0.0
 10
5.5262996611
 20
9.5167209435
 30
0.0
 10
5.5496624395
 20
9.5145038805
 30
0.0
 10
5.5824198765
 20
9.5111775422
 30
0.0
 10
5.6252370253
 20
9.5063745407
 30
0.0
 10
5.6786965764
 20
9.4995475296
 30
0.0
 10
5.7347818927
 20
9.4913989104
 30
0.0
 10
5.7932274426
 20
9.4817195461
 30
0.0
 10
5.8432039464
 20
9.4722774172
 30
0.0
 10
5.8840704774
 20
9.4637302357
 30
0.0
 10
5.9152797459
 20
9.4567391326
 30
0.0
 10
5.946701413
 20
9.4491892406
 30
0.0
 10
5.9676607181
 20
9.4437782824
 30
0.0
 10
5.9781521843
 20
9.4409656343
 30
0.0
  0
SPLINE
  5
3BE
100
AcDbEntity
  8
0
100
AcDbSpline
 62
7
  6
CONTINUOUS
 70
0
 71
3
 72
25
 73
21
 74
0
 42
0.0000001
 43
0.0000001
 44
0.0000000001
 40
0.0
 40
0.0
 40
0.0
 40
0.0
 40
0.0078708186
 40
0.0164867913
 40
0.0263553993
 40
0.0378057411
 40
0.0510369776
 40
0.066161728
 40
0.0832381584
 40
0.102290756
 40
0.146291855
 40
0.1979781171
 40
0.2569644972
 40
0.3227316616
 40
0.3946505399
 40
0.471994925
 40
0.5539541918
 40
0.639642103
 40
0.8183429729
 40
1.0
 40
1.0
 40
1.0
 40
1.0
 10
9.1867581467
 20
11.2200759686
 30
0.0
 10
9.186703405
 20
11.2200300268
 30
0.0
 10
9.1866038239
 20
11.2199147027
 30
0.0
 10
9.1865031582
 20
11.2196950324
 30
0.0
 10
9.1864453042
 20
11.2194278483
 30
0.0
 10
9.1864285447
 20
11.2191136313
 30
0.0
 10
9.1864522088
 20
11.2187523419
 30
0.0
 10
9.1865160978
 20
11.2183443775
 30
0.0
 10
9.1866200655
 20
11.2178904594
 30
0.0
 10
9.1868220087
 20
11.2171911752
 30
0.0
 10
9.1871808728
 20
11.2162118722
 30
0.0
 10
9.1877454271
 20
11.2149253189
 30
0.0
 10
9.1884586402
 20
11.2134902294
 30
0.0
 10
9.1893138453
 20
11.2119221964
 30
0.0
 10
9.1903029094
 20
11.2102384941
 30
0.0
 10
9.1914158761
 20
11.2084580511
 30
0.0
 10
9.1926411485
 20
11.2066011947
 30
0.0
 10
9.1944322463
 20
11.2040160571
 30
0.0
 10
9.1968450715
 20
11.2007617691
 30
0.0
 10
9.1988968838
 20
11.1982117809
 30
0.0
 10
9.1999571024
 20
11.1969482617
 30
0.0
  0
SPLINE
  5
3BF
100
AcDbEntity
  8
0
100
AcDbSpline
 62
9
  6
CONTINUOUS
 70
0
 71
3
 72
30
 73
26
 74
0
 42
0.0000001
 43
0.0000001
 44
0.0000000001
 40
0.0
 40
0.0
 40
0.0
 40
0.0
 40
0.015837153
 40
0.0316650672
 40
0.0474690417
 40
0.0632464816
 40
0.0946831246
 40
0.1103726007
 40
0.1260389998
 40
0.1572991039
 40
0.1885032532
 40
0.2196680304
 40
0.2508073259
 40
0.2819310319
 40
0.3130477329
 40
0.3441622611
 40
0.375277451
 40
0.4375231373
 40
0.4998064551
 40
0.5621376139
 40
0.6245227556
 40
0.686962707
 40
0.7494597784
 40
0.874619728
 40
1.0
 40
1.0
 40
1.0
 40
1.0
 10
15.1027639653
 20
6.1919916701
 30
0.0
 10
15.1027645146
 20
6.1924719443
 30
0.0
 10
15.1027057461
 20
6.1934333328
 30
0.0
 10
15.1024433309
 20
6.1948519657
 30
0.0
 10
15.1020231588
 20
6.1962299468
 30
0.0
 10
15.1012809367
 20
6.1979938801
 30
0.0
 10
15.100298435
 20
6.1996414063
 30
0.0
 10
15.0991480345
 20
6.2011598274
 30
0.0
 10
15.0979076226
 20
6.2025991085
 30
0.0
 10
15.0962147951
 20
6.2042630471
 30
0.0
 10
15.0940193029
 20
6.2060679573
 30
0.0
 10
15.0917055487
 20
6.2077106907
 30
0.0
 10
15.0893048173
 20
6.2092176757
 30
0.0
 10
15.0868358923
 20
6.2106065529
 30
0.0
 10
15.0843121144
 20
6.2118908082
 30
0.0
 10
15.0817457567
 20
6.2130866452
 30
0.0
 10
15.0782770541
 20
6.214576961
 30
0.0
 10
15.0738649887
 20
6.2162598713
 30
0.0
 10
15.0684885002
 20
6.2180540749
 30
0.0
 10
15.0630476694
 20
6.2196566921
 30
0.0
 10
15.057557272
 20
6.2210976934
 30
0.0
 10
15.0520276126
 20
6.222401231
 30
0.0
 10
15.0446084408
 20
6.2239780855
 30
0.0
 10
15.0352677338
 20
6.2256836187
 30
0.0
 10
15.0277548393
 20
6.2268231153
 30
0.0
 10
15.0239888459
 20
6.2273470091
 30
0.0
  0
SPLINE
  5
3C0
100
AcDbEntity
  8
0
100
AcDbSpline
 62
9
  6
CONTINUOUS
 70
0
 71
3
 72
27
 73
23
 74
0
 42
0.0000001
 43
0.0000001
 44
0.0000000001
 40
0.0
 40
0.0
 40
0.0
 40
0.0
 40
0.0324480782
 40
0.0648398743
 40
0.0971259802
 40
0.1132192595
 40
0.1292716752
 40
0.1612448737
 40
0.1930416618
 40
0.2560910183
 40
0.2874065204
 40
0.318594463
 40
0.380654297
 40
0.4424393231
 40
0.4732768274
 40
0.5040904693
 40
0.5656874455
 40
0.6273155694
 40
0.6890330579
 40
0.7508814016
 40
0.8750579073
 40
1.0
 40
1.0
 40
1.0
 40
1.0
 10
15.1240852482
 20
6.1919916701
 30
0.0
 10
15.1240868495
 20
6.1932888067
 30
0.0
 10
15.1239637111
 20
6.1958823685
 30
0.0
 10
15.1234361009
 20
6.1997335241
 30
0.0
 10
15.1227231151
 20
6.2028872265
 30
0.0
 10
15.121994087
 20
6.2053583161
 30
0.0
 10
15.1211646653
 20
6.2077842986
 30
0.0
 10
15.1199519574
 20
6.2107397109
 30
0.0
 10
15.1176813783
 20
6.215276666
 30
0.0
 10
15.1149451417
 20
6.219534347
 30
0.0
 10
15.1118574613
 20
6.2234935471
 30
0.0
 10
15.1085767271
 20
6.2272427704
 30
0.0
 10
15.1041390547
 20
6.2315839821
 30
0.0
 10
15.0993453555
 20
6.2355013047
 30
0.0
 10
15.0953510496
 20
6.2384000738
 30
0.0
 10
15.0912643396
 20
6.2411536574
 30
0.0
 10
15.0859908103
 20
6.2443414219
 30
0.0
 10
15.0794512333
 20
6.2477973581
 30
0.0
 10
15.0727390011
 20
6.250927095
 30
0.0
 10
15.0635854555
 20
6.2547148438
 30
0.0
 10
15.0518315906
 20
6.258795631
 30
0.0
 10
15.0422354159
 20
6.2614784476
 30
0.0
 10
15.0373930315
 20
6.2627023482
 30
0.0
  0
SPLINE
  5
3C1
100
AcDbEntity
  8
0
100
AcDbSpline
 62
9
  6
CONTINUOUS
 70
0
 71
3
 72
14
 73
10
 74
0
 42
0.0000001
 43
0.0000001
 44
0.0000000001
 40
0.0
 40
0.0
 40
0.0
 40
0.0
 40
0.1061315426
 40
0.2199272883
 40
0.3403507371
 40
0.4662700995
 40
0.59647848
 40
0.729712334
 40
1.0
 40
1.0
 40
1.0
 40
1.0
 10
15.0239888459
 20
6.2273470091
 30
0.0
 10
15.0246409049
 20
6.2285186527
 30
0.0
 10
15.025933552
 20
6.2309794013
 30
0.0
 10
15.0277805652
 20
6.2348635181
 30
0.0
 10
15.0295891943
 20
6.2390395563
 30
0.0
 10
15.0313402278
 20
6.2434637151
 30
0.0
 10
15.0330152367
 20
6.2480897354
 30
0.0
 10
15.0351333006
 20
6.2544922108
 30
0.0
 10
15.0365390163
 20
6.2593960173
 30
0.0
 10
15.0373929401
 20
6.2627023482
 30
0.0
  0
SPLINE
  5
3C2
100
AcDbEntity
  8
0
100
AcDbSpline
 62
9
  6
CONTINUOUS
 70
0
 71
3
 72
30
 73
26
 74
0
 42
0.0000001
 43
0.0000001
 44
0.0000000001
 40
0.0
 40
0.0
 40
0.0
 40
0.0
 40
0.1253802713
 40
0.250540219
 40
0.3130372842
 40
0.3754772433
 40
0.4378623833
 40
0.5001935402
 40
0.5624768605
 40
0.6247225437
 40
0.6558377351
 40
0.6869522632
 40
0.7180689627
 40
0.7491926678
 40
0.7803319642
 40
0.8114967411
 40
0.8427008881
 40
0.8739609916
 40
0.8896273944
 40
0.9053168696
 40
0.9367535111
 40
0.9525309536
 40
0.9683349235
 40
0.9841628458
 40
1.0
 40
1.0
 40
1.0
 40
1.0
 10
14.7572455541
 20
6.2273470091
 30
0.0
 10
14.7534795605
 20
6.2268231175
 30
0.0
 10
14.7459666668
 20
6.2256836161
 30
0.0
 10
14.7366259586
 20
6.22397809
 30
0.0
 10
14.7292067895
 20
6.2224012233
 30
0.0
 10
14.7236771278
 20
6.2210976958
 30
0.0
 10
14.7181867302
 20
6.2196566937
 30
0.0
 10
14.7127459013
 20
6.2180540708
 30
0.0
 10
14.7073694098
 20
6.216259876
 30
0.0
 10
14.7029573474
 20
6.2145769578
 30
0.0
 10
14.6994886433
 20
6.2130866458
 30
0.0
 10
14.696922285
 20
6.2118908098
 30
0.0
 10
14.6943985083
 20
6.2106065523
 30
0.0
 10
14.6919295838
 20
6.2092176744
 30
0.0
 10
14.6895288514
 20
6.2077106911
 30
0.0
 10
14.687215096
 20
6.2060679591
 30
0.0
 10
14.6850196074
 20
6.2042630447
 30
0.0
 10
14.6833267781
 20
6.2025991084
 30
0.0
 10
14.6820863623
 20
6.2011598305
 30
0.0
 10
14.6809359601
 20
6.1996414099
 30
0.0
 10
14.679953478
 20
6.1979938733
 30
0.0
 10
14.679211239
 20
6.1962299478
 30
0.0
 10
14.6787910633
 20
6.194851967
 30
0.0
 10
14.6785286533
 20
6.1934333331
 30
0.0
 10
14.6784698837
 20
6.1924719443
 30
0.0
 10
14.6784704348
 20
6.1919916701
 30
0.0
  0
SPLINE
  5
3C3
100
AcDbEntity
  8
0
100
AcDbSpline
 62
9
  6
CONTINUOUS
 70
0
 71
3
 72
27
 73
23
 74
0
 42
0.0000001
 43
0.0000001
 44
0.0000000001
 40
0.0
 40
0.0
 40
0.0
 40
0.0
 40
0.1249420936
 40
0.2491185979
 40
0.3109669431
 40
0.3726844339
 40
0.4343125624
 40
0.4959095395
 40
0.5267231786
 40
0.5575606829
 40
0.6193457145
 40
0.6814055457
 40
0.7125934923
 40
0.7439089933
 40
0.8069583479
 40
0.8387551323
 40
0.8707283271
 40
0.8867807442
 40
0.9028740225
 40
0.9351601326
 40
0.9675519211
 40
1.0
 40
1.0
 40
1.0
 40
1.0
 10
14.7438413686
 20
6.2627023482
 30
0.0
 10
14.7389989841
 20
6.2614784477
 30
0.0
 10
14.7294028127
 20
6.2587956206
 30
0.0
 10
14.7176489423
 20
6.2547148503
 30
0.0
 10
14.708495396
 20
6.2509271026
 30
0.0
 10
14.7017831669
 20
6.2477973579
 30
0.0
 10
14.695243596
 20
6.24434141
 30
0.0
 10
14.6899700627
 20
6.2411536526
 30
0.0
 10
14.68588335
 20
6.2384000731
 30
0.0
 10
14.6818890461
 20
6.2355013008
 30
0.0
 10
14.6770953466
 20
6.2315839793
 30
0.0
 10
14.6726576717
 20
6.227242769
 30
0.0
 10
14.6693769436
 20
6.2234935407
 30
0.0
 10
14.6662892522
 20
6.219534349
 30
0.0
 10
14.6635530292
 20
6.2152766594
 30
0.0
 10
14.6612824411
 20
6.2107397098
 30
0.0
 10
14.6600697281
 20
6.2077842997
 30
0.0
 10
14.6592403082
 20
6.2053583167
 30
0.0
 10
14.658511288
 20
6.2028872244
 30
0.0
 10
14.6577983111
 20
6.1997335211
 30
0.0
 10
14.6572706699
 20
6.1958823698
 30
0.0
 10
14.6571475446
 20
6.1932888067
 30
0.0
 10
14.6571491519
 20
6.1919916701
 30
0.0
  0
SPLINE
  5
3C4
100
AcDbEntity
  8
0
100
AcDbSpline
 62
9
  6
CONTINUOUS
 70
0
 71
3
 72
14
 73
10
 74
0
 42
0.0000001
 43
0.0000001
 44
0.0000000001
 40
0.0
 40
0.0
 40
0.0
 40
0.0
 40
0.1061311285
 40
0.2199265379
 40
0.3403497519
 40
0.4662690026
 40
0.5964774142
 40
0.7297114566
 40
1.0
 40
1.0
 40
1.0
 40
1.0
 10
14.7572455541
 20
6.227347049
 30
0.0
 10
14.7565934921
 20
6.2285186852
 30
0.0
 10
14.7553008383
 20
6.2309794203
 30
0.0
 10
14.7534538144
 20
6.234863519
 30
0.0
 10
14.7516451726
 20
6.2390395433
 30
0.0
 10
14.7498941244
 20
6.243463693
 30
0.0
 10
14.7482190989
 20
6.2480897097
 30
0.0
 10
14.7461010091
 20
6.2544921926
 30
0.0
 10
14.7446952741
 20
6.2593960086
 30
0.0
 10
14.743841337
 20
6.2627023482
 30
0.0
  0
SPLINE
  5
3C5
100
AcDbEntity
  8
0
100
AcDbSpline
 62
7
  6
CONTINUOUS
 70
0
 71
3
 72
30
 73
26
 74
0
 42
0.0000001
 43
0.0000001
 44
0.0000000001
 40
0.0
 40
0.0
 40
0.0
 40
0.0
 40
0.0027808727
 40
0.0058296209
 40
0.0092860109
 40
0.0132447975
 40
0.0228821328
 40
0.0350120986
 40
0.0497201602
 40
0.0670099804
 40
0.0868431794
 40
0.109151116
 40
0.1338454638
 40
0.1608209775
 40
0.2211258852
 40
0.288980391
 40
0.3631372515
 40
0.4422160639
 40
0.5247222392
 40
0.6090690791
 40
0.6936001057
 40
0.7766221379
 40
0.8564431233
 40
0.9314158477
 40
1.0
 40
1.0
 40
1.0
 40
1.0
 10
9.0799956962
 20
11.3503993113
 30
0.0
 10
9.0799680998
 20
11.3503761612
 30
0.0
 10
9.0799170713
 20
11.3503190964
 30
0.0
 10
9.0798606552
 20
11.3502118692
 30
0.0
 10
9.0798212022
 20
11.3500815377
 30
0.0
 10
9.0797885307
 20
11.3498625086
 30
0.0
 10
9.079796147
 20
11.3495274114
 30
0.0
 10
9.0798663294
 20
11.3490596581
 30
0.0
 10
9.079998952
 20
11.3485030908
 30
0.0
 10
9.0801933892
 20
11.3478602302
 30
0.0
 10
9.080449015
 20
11.3471338843
 30
0.0
 10
9.0807646043
 20
11.346327594
 30
0.0
 10
9.0811386541
 20
11.3454452683
 30
0.0
 10
9.0817355777
 20
11.3441232752
 30
0.0
 10
9.0826173857
 20
11.3423171328
 30
0.0
 10
9.0838358356
 20
11.3399967093
 30
0.0
 10
9.0852287248
 20
11.3374941998
 30
0.0
 10
9.0867703188
 20
11.3348581042
 30
0.0
 10
9.0884320895
 20
11.3321401049
 30
0.0
 10
9.0901827799
 20
11.3293943772
 30
0.0
 10
9.0919888252
 20
11.3266766996
 30
0.0
 10
9.0938147744
 20
11.3240433655
 30
0.0
 10
9.0956239087
 20
11.3215498268
 30
0.0
 10
9.0973790152
 20
11.3192491539
 30
0.0
 10
9.0985481715
 20
11.3178027193
 30
0.0
 10
9.0991192051
 20
11.3171221881
 30
0.0
  0
SPLINE
  5
3C6
100
AcDbEntity
  8
0
100
AcDbSpline
 62
7
  6
CONTINUOUS
 70
0
 71
3
 72
25
 73
21
 74
0
 42
0.0000001
 43
0.0000001
 44
0.0000000001
 40
0.0
 40
0.0
 40
0.0
 40
0.0
 40
0.007239812
 40
0.0280855867
 40
0.0607532409
 40
0.0808995441
 40
0.1032714207
 40
0.1276627605
 40
0.1538956348
 40
0.2112578878
 40
0.2742590068
 40
0.3420273121
 40
0.4138986352
 40
0.4893854239
 40
0.5681029448
 40
0.6497299486
 40
0.7339927655
 40
0.8206582948
 40
0.9094566354
 40
1.0
 40
1.0
 40
1.0
 40
1.0
 10
5.4044782071
 20
9.8039178612
 30
0.0
 10
5.4060328912
 20
9.8041697712
 30
0.0
 10
5.4120640215
 20
9.8051469852
 30
0.0
 10
5.4251105855
 20
9.8072587127
 30
0.0
 10
5.4409316191
 20
9.8098014766
 30
0.0
 10
5.4570836042
 20
9.8123771104
 30
0.0
 10
5.4714600955
 20
9.8146535851
 30
0.0
 10
5.4871470735
 20
9.8171200433
 30
0.0
 10
5.5103569877
 20
9.8207467836
 30
0.0
 10
5.54187239
 20
9.8256256491
 30
0.0
 10
5.58232897
 20
9.831809835
 30
0.0
 10
5.6259206584
 20
9.8383720465
 30
0.0
 10
5.6722163916
 20
9.8452169687
 30
0.0
 10
5.720887409
 20
9.8522806917
 30
0.0
 10
5.7716797017
 20
9.8595030864
 30
0.0
 10
5.8243867912
 20
9.866819082
 30
0.0
 10
5.8788372208
 20
9.8741482888
 30
0.0
 10
5.934867087
 20
9.8814341982
 30
0.0
 10
5.9922890127
 20
9.8886048113
 30
0.0
 10
6.0310323713
 20
9.8931983068
 30
0.0
 10
6.05060187
 20
9.895435438
 30
0.0
  0
SPLINE
  5
3C7
100
AcDbEntity
  8
0
100
AcDbSpline
 62
7
  6
CONTINUOUS
 70
0
 71
3
 72
16
 73
12
 74
0
 42
0.0000001
 43
0.0000001
 44
0.0000000001
 40
0.0
 40
0.0
 40
0.0
 40
0.0
 40
0.0324646998
 40
0.0569453549
 40
0.0879202398
 40
0.12568898
 40
0.1703968166
 40
0.2808569065
 40
0.4194051037
 40
0.5857709368
 40
1.0
 40
1.0
 40
1.0
 40
1.0
 10
9.0146213393
 20
11.430152
 30
0.0
 10
9.0146006619
 20
11.4301346484
 30
0.0
 10
9.014587086
 20
11.4300830709
 30
0.0
 10
9.0145870689
 20
11.4300113417
 30
0.0
 10
9.0145958945
 20
11.4299337087
 30
0.0
 10
9.0146141443
 20
11.4298412719
 30
0.0
 10
9.01465381
 20
11.4296856938
 30
0.0
 10
9.0147291015
 20
11.4294532208
 30
0.0
 10
9.0148504996
 20
11.4291298149
 30
0.0
 10
9.0150785478
 20
11.4285769931
 30
0.0
 10
9.0152784373
 20
11.4281374181
 30
0.0
 10
9.0154243497
 20
11.4278254369
 30
0.0
  0
SPLINE
  5
3C8
100
AcDbEntity
  8
0
100
AcDbSpline
 62
7
  6
CONTINUOUS
 70
0
 71
3
 72
20
 73
16
 74
0
 42
0.0000001
 43
0.0000001
 44
0.0000000001
 40
0.0
 40
0.0
 40
0.0
 40
0.0
 40
0.0395011568
 40
0.0879249472
 40
0.1442908838
 40
0.2074777173
 40
0.3492905146
 40
0.5025547843
 40
0.6556766537
 40
0.7284930848
 40
0.7968781173
 40
0.8594458565
 40
0.9149026522
 40
0.9620844351
 40
1.0
 40
1.0
 40
1.0
 40
1.0
 10
9.0154243497
 20
11.4278254369
 30
0.0
 10
9.0156594126
 20
11.4273228393
 30
0.0
 10
9.016202957
 20
11.42621365
 30
0.0
 10
9.017129895
 20
11.4244112064
 30
0.0
 10
9.0182375128
 20
11.4223277978
 30
0.0
 10
9.0199939215
 20
11.4191039122
 30
0.0
 10
9.0224560932
 20
11.4147148379
 30
0.0
 10
9.0256014939
 20
11.4092611804
 30
0.0
 10
9.0283156869
 20
11.4046779621
 30
0.0
 10
9.0304595455
 20
11.4011430366
 30
0.0
 10
9.0319638494
 20
11.3987079457
 30
0.0
 10
9.0333622124
 20
11.3964941726
 30
0.0
 10
9.0346265367
 20
11.3945481614
 30
0.0
 10
9.035730942
 20
11.3929115802
 30
0.0
 10
9.0364242639
 20
11.391937522
 30
0.0
 10
9.0367435139
 20
11.3915112367
 30
0.0
  0
LINE
  5
3C9
100
AcDbEntity
  8
0
100
AcDbLine
 62
7
  6
CONTINUOUS
 10
9.0367435139
 20
11.3915112367
 11
9.0373950335
 21
11.3906821913
  0
SPLINE
  5
3CA
100
AcDbEntity
  8
0
100
AcDbSpline
 62
7
  6
CONTINUOUS
 70
0
 71
3
 72
17
 73
13
 74
0
 42
0.0000001
 43
0.0000001
 44
0.0000000001
 40
0.0
 40
0.0
 40
0.0
 40
0.0
 40
0.0214974313
 40
0.0443608127
 40
0.0707805806
 40
0.1022130331
 40
0.1830890251
 40
0.29059698
 40
0.4259207978
 40
0.5893994134
 40
0.780931585
 40
1.0
 40
1.0
 40
1.0
 40
1.0
 10
9.4066275983
 20
10.9513309123
 30
0.0
 10
9.4066140978
 20
10.9513195811
 30
0.0
 10
9.4065901724
 20
10.9512909704
 30
0.0
 10
9.4065705156
 20
10.9512353613
 30
0.0
 10
9.406566176
 20
10.9511687361
 30
0.0
 10
9.4065809471
 20
10.9510554772
 30
0.0
 10
9.4066415291
 20
10.9508841912
 30
0.0
 10
9.406762629
 20
10.9506478184
 30
0.0
 10
9.4069393596
 20
10.9503650059
 30
0.0
 10
9.4071714276
 20
10.9500365957
 30
0.0
 10
9.4074586124
 20
10.9496635433
 30
0.0
 10
9.4076720891
 20
10.9494031801
 30
0.0
 10
9.4077875417
 20
10.949265589
 30
0.0
  0
SPLINE
  5
3CB
100
AcDbEntity
  8
0
100
AcDbSpline
 62
7
  6
CONTINUOUS
 70
0
 71
3
 72
20
 73
16
 74
0
 42
0.0000001
 43
0.0000001
 44
0.0000000001
 40
0.0
 40
0.0
 40
0.0
 40
0.0
 40
0.0098104868
 40
0.0198473557
 40
0.0419514833
 40
0.0686365442
 40
0.10116364
 40
0.1401781636
 40
0.1859824528
 40
0.2386882084
 40
0.298280099
 40
0.4376552121
 40
0.6026503808
 40
0.7910336924
 40
1.0
 40
1.0
 40
1.0
 40
1.0
 10
9.3285186843
 20
11.0468621516
 30
0.0
 10
9.3284902116
 20
11.0468382641
 30
0.0
 10
9.3284374028
 20
11.0467838639
 30
0.0
 10
9.328351733
 20
11.0466488226
 30
0.0
 10
9.32829029
 20
11.0464299707
 30
0.0
 10
9.3282886936
 20
11.0461198362
 30
0.0
 10
9.3283515699
 20
11.0457517456
 30
0.0
 10
9.3284790628
 20
11.0453251017
 30
0.0
 10
9.3286710084
 20
11.0448402415
 30
0.0
 10
9.3289273277
 20
11.044298551
 30
0.0
 10
9.329378451
 20
11.0434582425
 30
0.0
 10
9.3301060897
 20
11.0422856103
 30
0.0
 10
9.3311753783
 20
11.0407547803
 30
0.0
 10
9.3324673101
 20
11.0390602016
 30
0.0
 10
9.3334194968
 20
11.0378939737
 30
0.0
 10
9.3339283562
 20
11.0372875386
 30
0.0
  0
SPLINE
  5
3CC
100
AcDbEntity
  8
0
100
AcDbSpline
 62
9
  6
CONTINUOUS
 70
0
 71
3
 72
15
 73
11
 74
0
 42
0.0000001
 43
0.0000001
 44
0.0000000001
 40
0.0
 40
0.0
 40
0.0
 40
0.0
 40
0.1280266024
 40
0.2556180434
 40
0.3825566946
 40
0.5086269419
 40
0.6336154784
 40
0.757311647
 40
0.8795078445
 40
1.0
 40
1.0
 40
1.0
 40
1.0
 10
12.9926441471
 20
8.1179235622
 30
0.0
 10
12.9904790277
 20
8.0945386524
 30
0.0
 10
12.9863860467
 20
8.0478266665
 30
0.0
 10
12.9809814393
 20
7.9778584642
 30
0.0
 10
12.976357703
 20
7.9081937796
 30
0.0
 10
12.9725539371
 20
7.8389575669
 30
0.0
 10
12.9696092164
 20
7.7702746694
 30
0.0
 10
12.9675626035
 20
7.7022698617
 30
0.0
 10
12.9664531492
 20
7.6350681601
 30
0.0
 10
12.9663636218
 20
7.5905480199
 30
0.0
 10
12.9664922
 20
7.5684455707
 30
0.0
  0
SPLINE
  5
3CD
100
AcDbEntity
  8
0
100
AcDbSpline
 62
7
  6
CONTINUOUS
 70
0
 71
3
 72
25
 73
21
 74
0
 42
0.0000001
 43
0.0000001
 44
0.0000000001
 40
0.0
 40
0.0
 40
0.0
 40
0.0
 40
0.0081775121
 40
0.0170001007
 40
0.0269528443
 40
0.038368173
 40
0.0514582489
 40
0.0663487031
 40
0.0831123662
 40
0.1017857785
 40
0.1448750753
 40
0.1955193898
 40
0.2534199157
 40
0.3181447578
 40
0.3891536251
 40
0.4658141086
 40
0.5474124409
 40
0.6331629707
 40
0.8136604823
 40
1.0
 40
1.0
 40
1.0
 40
1.0
 10
9.2427643616
 20
11.2392987809
 30
0.0
 10
9.2427118988
 20
11.2392547583
 30
0.0
 10
9.2426160311
 20
11.2391464839
 30
0.0
 10
9.2425158266
 20
11.2389418936
 30
0.0
 10
9.2424549428
 20
11.2386949704
 30
0.0
 10
9.2424319999
 20
11.238406367
 30
0.0
 10
9.2424463663
 20
11.2380761183
 30
0.0
 10
9.2424977802
 20
11.2377045079
 30
0.0
 10
9.2425861618
 20
11.2372920797
 30
0.0
 10
9.2427618584
 20
11.2366580211
 30
0.0
 10
9.2430803645
 20
11.2357708736
 30
0.0
 10
9.2435876817
 20
11.2346060594
 30
0.0
 10
9.244233664
 20
11.2333060814
 30
0.0
 10
9.2450129118
 20
11.2318835177
 30
0.0
 10
9.2459187566
 20
11.2303523393
 30
0.0
 10
9.2469429309
 20
11.2287279332
 30
0.0
 10
9.2480757451
 20
11.227026857
 30
0.0
 10
9.2497450485
 20
11.2246391221
 30
0.0
 10
9.2520147614
 20
11.2216021146
 30
0.0
 10
9.2539457622
 20
11.2192115485
 30
0.0
 10
9.2549488825
 20
11.2180160762
 30
0.0
  0
SPLINE
  5
3CE
100
AcDbEntity
  8
0
100
AcDbSpline
 62
9
  6
CONTINUOUS
 70
0
 71
3
 72
11
 73
7
 74
0
 42
0.0000001
 43
0.0000001
 44
0.0000000001
 40
0.0
 40
0.0
 40
0.0
 40
0.0
 40
0.2547437471
 40
0.5068957063
 40
0.7555954875
 40
1.0
 40
1.0
 40
1.0
 40
1.0
 10
13.212301744
 20
7.9193870406
 30
0.0
 10
13.2103141887
 20
7.8846982289
 30
0.0
 10
13.2068695904
 20
7.8156429976
 30
0.0
 10
13.2033879282
 20
7.7126378556
 30
0.0
 10
13.2017297068
 20
7.6109970363
 30
0.0
 10
13.2019201626
 20
7.5437350422
 30
0.0
 10
13.2023701637
 20
7.5104025915
 30
0.0
  0
SPLINE
  5
3CF
100
AcDbEntity
  8
0
100
AcDbSpline
 62
7
  6
CONTINUOUS
 70
0
 71
3
 72
25
 73
21
 74
0
 42
0.0000001
 43
0.0000001
 44
0.0000000001
 40
0.0
 40
0.0
 40
0.0
 40
0.0
 40
0.0069672911
 40
0.0150138247
 40
0.0247188185
 40
0.036397457
 40
0.0502045732
 40
0.0662097698
 40
0.0844281415
 40
0.1048453912
 40
0.152096128
 40
0.2074765481
 40
0.2703028559
 40
0.3397447516
 40
0.4148468329
 40
0.4945454398
 40
0.5776811051
 40
0.6630159142
 40
0.8350474571
 40
1.0
 40
1.0
 40
1.0
 40
1.0
 10
9.1271356547
 20
11.379312735
 30
0.0
 10
9.1270762356
 20
11.3792628875
 30
0.0
 10
9.1269704645
 20
11.379127731
 30
0.0
 10
9.126879271
 20
11.3788648053
 30
0.0
 10
9.1268417983
 20
11.3785375875
 30
0.0
 10
9.1268561504
 20
11.3781451187
 30
0.0
 10
9.1269215381
 20
11.3776872883
 30
0.0
 10
9.1270379646
 20
11.3771650416
 30
0.0
 10
9.1272050383
 20
11.3765798998
 30
0.0
 10
9.1275101657
 20
11.3756735398
 30
0.0
 10
9.1280219849
 20
11.3744018684
 30
0.0
 10
9.128796415
 20
11.3727301842
 30
0.0
 10
9.1297489285
 20
11.3708705942
 30
0.0
 10
9.1308665563
 20
11.3688504022
 30
0.0
 10
9.1321340284
 20
11.3666995671
 30
0.0
 10
9.1335334401
 20
11.3644504879
 30
0.0
 10
9.1350445548
 20
11.3621375605
 30
0.0
 10
9.1371841701
 20
11.3590084777
 30
0.0
 10
9.1399561724
 20
11.3552098364
 30
0.0
 10
9.1422933788
 20
11.3522736776
 30
0.0
 10
9.1434736851
 20
11.3508670432
 30
0.0
  0
SPLINE
  5
3D0
100
AcDbEntity
  8
0
100
AcDbSpline
 62
9
  6
CONTINUOUS
 70
0
 71
3
 72
11
 73
7
 74
0
 42
0.0000001
 43
0.0000001
 44
0.0000000001
 40
0.0
 40
0.0
 40
0.0
 40
0.0
 40
0.2336326762
 40
0.47873691
 40
0.7345120786
 40
1.0
 40
1.0
 40
1.0
 40
1.0
 10
14.0533391545
 20
8.3725754351
 30
0.0
 10
14.0722546198
 20
8.3718113253
 30
0.0
 10
14.1110122144
 20
8.3701937601
 30
0.0
 10
14.1704743352
 20
8.3676532997
 30
0.0
 10
14.2325164731
 20
8.3650302831
 30
0.0
 10
14.2747202661
 20
8.363349784
 30
0.0
 10
14.2962170386
 20
8.3625385626
 30
0.0
  0
SPLINE
  5
3D1
100
AcDbEntity
  8
0
100
AcDbSpline
 62
7
  6
CONTINUOUS
 70
0
 71
3
 72
30
 73
26
 74
0
 42
0.0000001
 43
0.0000001
 44
0.0000000001
 40
0.0
 40
0.0
 40
0.0
 40
0.0
 40
0.0026252992
 40
0.0055533463
 40
0.0089350587
 40
0.0128673335
 40
0.0225862155
 40
0.0349558318
 40
0.0500390352
 40
0.0678216691
 40
0.0882478164
 40
0.1112343359
 40
0.1366760719
 40
0.1644529049
 40
0.2264551536
 40
0.2960207738
 40
0.3717612145
 40
0.4521507802
 40
0.5355472797
 40
0.6202184754
 40
0.7043690728
 40
0.7861792818
 40
0.8638500538
 40
0.9356529597
 40
1.0
 40
1.0
 40
1.0
 40
1.0
 10
9.028992256
 20
11.4981271105
 30
0.0
 10
9.0289652584
 20
11.4981044587
 30
0.0
 10
9.0289156945
 20
11.4980471331
 30
0.0
 10
9.0288632623
 20
11.4979381796
 30
0.0
 10
9.0288288078
 20
11.497804399
 30
0.0
 10
9.0288045162
 20
11.4975764703
 30
0.0
 10
9.0288256242
 20
11.4972259088
 30
0.0
 10
9.0289143482
 20
11.4967344215
 30
0.0
 10
9.0290692702
 20
11.4961467333
 30
0.0
 10
9.0292896131
 20
11.4954658917
 30
0.0
 10
9.029574561
 20
11.494695216
 30
0.0
 10
9.0299226549
 20
11.4938388459
 30
0.0
 10
9.0303320684
 20
11.4929012761
 30
0.0
 10
9.0309811703
 20
11.4914972575
 30
0.0
 10
9.0319323802
 20
11.4895809169
 30
0.0
 10
9.0332370002
 20
11.487122504
 30
0.0
 10
9.0347175586
 20
11.4844789243
 30
0.0
 10
9.0363442533
 20
11.4817051659
 30
0.0
 10
9.038084229
 20
11.478859526
 30
0.0
 10
9.0399017657
 20
11.4760027663
 30
0.0
 10
9.041758839
 20
11.473197034
 30
0.0
 10
9.0436157181
 20
11.4705045556
 30
0.0
 10
9.0454317677
 20
11.4679860261
 30
0.0
 10
9.0471664432
 20
11.4656988461
 30
0.0
 10
9.048313056
 20
11.4642750649
 30
0.0
 10
9.0488682878
 20
11.4636133654
 30
0.0
  0
SPLINE
  5
3D2
100
AcDbEntity
  8
0
100
AcDbSpline
 62
7
  6
CONTINUOUS
 70
0
 71
3
 72
34
 73
30
 74
0
 42
0.0000001
 43
0.0000001
 44
0.0000000001
 40
0.0
 40
0.0
 40
0.0
 40
0.0
 40
0.1250008534
 40
0.187501283
 40
0.2500017415
 40
0.3125022203
 40
0.3750027031
 40
0.4375031758
 40
0.5000035847
 40
0.5625038063
 40
0.6250035654
 40
0.6562541335
 40
0.6875046804
 40
0.7187552396
 40
0.750005736
 40
0.7812560594
 40
0.8125060182
 40
0.843755203
 40
0.8750027769
 40
0.8906286605
 40
0.906254513
 40
0.9218801417
 40
0.9375049189
 40
0.9531273675
 40
0.9687430002
 40
0.9765585698
 40
0.9843733939
 40
0.992187596
 40
1.0
 40
1.0
 40
1.0
 40
1.0
 10
14.2916833663
 20
7.4080638294
 30
0.0
 10
14.2962963247
 20
7.4119345612
 30
0.0
 10
14.3032146402
 20
7.4177419982
 30
0.0
 10
14.3124493204
 20
7.4254730144
 30
0.0
 10
14.319388177
 20
7.4312559173
 30
0.0
 10
14.3263498759
 20
7.4370113416
 30
0.0
 10
14.333347284
 20
7.4427233751
 30
0.0
 10
14.3403962024
 20
7.4483718435
 30
0.0
 10
14.3475156374
 20
7.4539314129
 30
0.0
 10
14.35472829
 20
7.4593697526
 30
0.0
 10
14.3608395572
 20
7.4637658836
 30
0.0
 10
14.3658059063
 20
7.4671717984
 30
0.0
 10
14.3695747634
 20
7.4696609626
 30
0.0
 10
14.3733934943
 20
7.4720730811
 30
0.0
 10
14.377269044
 20
7.4743930863
 30
0.0
 10
14.3812095742
 20
7.476601291
 30
0.0
 10
14.3852249867
 20
7.4786710408
 30
0.0
 10
14.3893271118
 20
7.4805638542
 30
0.0
 10
14.3928308046
 20
7.4819465748
 30
0.0
 10
14.3956921954
 20
7.4828861447
 30
0.0
 10
14.3978698861
 20
7.4834880104
 30
0.0
 10
14.4000797918
 20
7.4839602787
 30
0.0
 10
14.4023204885
 20
7.4842631973
 30
0.0
 10
14.4045814561
 20
7.4843356768
 30
0.0
 10
14.4064624932
 20
7.4841216169
 30
0.0
 10
14.4079133449
 20
7.4837073597
 30
0.0
 10
14.4089509944
 20
7.4832504047
 30
0.0
 10
14.4099001289
 20
7.4826279642
 30
0.0
 10
14.4104437892
 20
7.4820988047
 30
0.0
 10
14.4106857053
 20
7.4818105003
 30
0.0
  0
SPLINE
  5
3D3
100
AcDbEntity
  8
0
100
AcDbSpline
 62
7
  6
CONTINUOUS
 70
0
 71
3
 72
34
 73
30
 74
0
 42
0.0000001
 43
0.0000001
 44
0.0000000001
 40
0.0
 40
0.0
 40
0.0
 40
0.0
 40
0.0078123947
 40
0.0156265865
 40
0.0234414111
 40
0.0312569797
 40
0.0468726203
 40
0.062495072
 40
0.0781198526
 40
0.093745483
 40
0.1093713365
 40
0.1249972209
 40
0.1562447957
 40
0.1874939806
 40
0.2187439391
 40
0.2499942622
 40
0.2812447584
 40
0.3124953173
 40
0.3437458642
 40
0.3749964323
 40
0.4374961914
 40
0.4999964132
 40
0.5624968223
 40
0.6249972952
 40
0.6874977784
 40
0.7499982574
 40
0.8124987162
 40
0.8749991461
 40
1.0
 40
1.0
 40
1.0
 40
1.0
 10
14.1983932419
 20
7.3036759726
 30
0.0
 10
14.1981513276
 20
7.3039642748
 30
0.0
 10
14.1977246157
 20
7.304591558
 30
0.0
 10
14.1972764478
 20
7.3056343501
 30
0.0
 10
14.1970066199
 20
7.3067355765
 30
0.0
 10
14.1968505904
 20
7.3082363118
 30
0.0
 10
14.1969664145
 20
7.3101259316
 30
0.0
 10
14.1974303966
 20
7.312339952
 30
0.0
 10
14.1981177963
 20
7.3144939946
 30
0.0
 10
14.1989666256
 20
7.3165883072
 30
0.0
 10
14.1999374888
 20
7.3186283904
 30
0.0
 10
14.2013596453
 20
7.3212831417
 30
0.0
 10
14.2033297505
 20
7.3244934819
 30
0.0
 10
14.2059061115
 20
7.3282045837
 30
0.0
 10
14.2086416627
 20
7.3317995662
 30
0.0
 10
14.2115005622
 20
7.3352967621
 30
0.0
 10
14.2144582795
 20
7.3387105512
 30
0.0
 10
14.2174968443
 20
7.3420523897
 30
0.0
 10
14.2206026236
 20
7.3453317336
 30
0.0
 10
14.2248191603
 20
7.3496311792
 30
0.0
 10
14.2302096744
 20
7.3548861947
 30
0.0
 10
14.2368178094
 20
7.36104488
 30
0.0
 10
14.2435291456
 20
7.3670907124
 30
0.0
 10
14.2503157856
 20
7.373051662
 30
0.0
 10
14.257156081
 20
7.3789508453
 30
0.0
 10
14.2640329076
 20
7.3848073266
 30
0.0
 10
14.2709328295
 20
7.3906365402
 30
0.0
 10
14.2801499197
 20
7.3983883996
 30
0.0
 10
14.2870704373
 20
7.4041931224
 30
0.0
 10
14.2916833663
 20
7.4080638294
 30
0.0
  0
SPLINE
  5
3D4
100
AcDbEntity
  8
0
100
AcDbSpline
 62
7
  6
CONTINUOUS
 70
0
 71
3
 72
17
 73
13
 74
0
 42
0.0000001
 43
0.0000001
 44
0.0000000001
 40
0.0
 40
0.0
 40
0.0
 40
0.0
 40
0.0371357685
 40
0.0631868966
 40
0.0953245716
 40
0.1339249121
 40
0.1791738069
 40
0.2899208134
 40
0.4277810084
 40
0.5924543679
 40
0.783432631
 40
1.0
 40
1.0
 40
1.0
 40
1.0
 10
8.9613801229
 20
11.5799659545
 30
0.0
 10
8.961350316
 20
11.5799409303
 30
0.0
 10
8.9613245614
 20
11.5798729288
 30
0.0
 10
8.9613165251
 20
11.5797744175
 30
0.0
 10
8.9613208671
 20
11.5796724649
 30
0.0
 10
8.9613371067
 20
11.5795520295
 30
0.0
 10
8.9613770733
 20
11.5793518832
 30
0.0
 10
8.9614595853
 20
11.579054864
 30
0.0
 10
8.9615982829
 20
11.5786444316
 30
0.0
 10
8.9617825925
 20
11.5781610719
 30
0.0
 10
8.9620117136
 20
11.5776068201
 30
0.0
 10
8.9621832059
 20
11.5772156153
 30
0.0
 10
8.9622759668
 20
11.5770084715
 30
0.0
  0
SPLINE
  5
3D5
100
AcDbEntity
  8
0
100
AcDbSpline
 62
7
  6
CONTINUOUS
 70
0
 71
3
 72
21
 73
17
 74
0
 42
0.0000001
 43
0.0000001
 44
0.0000000001
 40
0.0
 40
0.0
 40
0.0
 40
0.0
 40
0.0427050141
 40
0.0937451703
 40
0.152148583
 40
0.2168193619
 40
0.3600865809
 40
0.5130859901
 40
0.6645856114
 40
0.7361946919
 40
0.8031726143
 40
0.8641921453
 40
0.918027808
 40
0.9635951224
 40
0.9829935882
 40
1.0
 40
1.0
 40
1.0
 40
1.0
 10
8.9622759668
 20
11.5770084715
 30
0.0
 10
8.9625186847
 20
11.5764664603
 30
0.0
 10
8.9630750721
 20
11.5752872252
 30
0.0
 10
8.964022069
 20
11.5733950255
 30
0.0
 10
8.9651427212
 20
11.5712485389
 30
0.0
 10
8.9669010558
 20
11.5679885591
 30
0.0
 10
8.9693590484
 20
11.563611792
 30
0.0
 10
8.972503673
 20
11.5582370205
 30
0.0
 10
8.9752232921
 20
11.5537689379
 30
0.0
 10
8.9773742629
 20
11.5503560643
 30
0.0
 10
8.9788822361
 20
11.5480254829
 30
0.0
 10
8.9802859825
 20
11.5459221099
 30
0.0
 10
8.9815576477
 20
11.5440889822
 30
0.0
 10
8.9825314497
 20
11.5427540123
 30
0.0
 10
8.9832289667
 20
11.5418522969
 30
0.0
 10
8.9835479721
 20
11.5414590863
 30
0.0
 10
8.9836999907
 20
11.5412779175
 30
0.0
  0
SPLINE
  5
3D6
100
AcDbEntity
  8
0
100
AcDbSpline
 62
9
  6
CONTINUOUS
 70
0
 71
3
 72
17
 73
13
 74
0
 42
0.0000001
 43
0.0000001
 44
0.0000000001
 40
0.0
 40
0.0
 40
0.0
 40
0.0
 40
0.0539869883
 40
0.1096863403
 40
0.1669880583
 40
0.2257905261
 40
0.3474124533
 40
0.4735452576
 40
0.603073677
 40
0.7348139844
 40
0.8675363309
 40
1.0
 40
1.0
 40
1.0
 40
1.0
 10
14.2292590499
 20
8.2147709914
 30
0.0
 10
14.2310937907
 20
8.2170705213
 30
0.0
 10
14.2347312241
 20
8.2218151588
 30
0.0
 10
14.24000718
 20
8.2292308324
 30
0.0
 10
14.2451754698
 20
8.2370387045
 30
0.0
 10
14.2519784328
 20
8.2480645332
 30
0.0
 10
14.2600931636
 20
8.2626775589
 30
0.0
 10
14.269062803
 20
8.2811866568
 30
0.0
 10
14.2772665535
 20
8.3006471748
 30
0.0
 10
14.28460799
 20
8.3208311548
 30
0.0
 10
14.2910010708
 20
8.3415019963
 30
0.0
 10
14.2945959966
 20
8.3555049122
 30
0.0
 10
14.2962170386
 20
8.3625385626
 30
0.0
  0
SPLINE
  5
3D7
100
AcDbEntity
  8
0
100
AcDbSpline
 62
7
  6
CONTINUOUS
 70
0
 71
3
 72
49
 73
45
 74
0
 42
0.0000001
 43
0.0000001
 44
0.0000000001
 40
0.0
 40
0.0
 40
0.0
 40
0.0
 40
0.0000719351
 40
0.0002039048
 40
0.0006777033
 40
0.0014410864
 40
0.0024966472
 40
0.0038444467
 40
0.005483751
 40
0.0074136194
 40
0.0096330137
 40
0.0149354938
 40
0.021377083
 40
0.0289408457
 40
0.0376084259
 40
0.0473564158
 40
0.0581601405
 40
0.0699926924
 40
0.0828232365
 40
0.1113496631
 40
0.1434564181
 40
0.178830593
 40
0.2171330526
 40
0.2580018707
 40
0.3010565388
 40
0.3459019354
 40
0.3921314994
 40
0.4870737642
 40
0.5825046295
 40
0.6750318814
 40
0.7613300495
 40
0.8011429141
 40
0.8382259417
 40
0.8722227411
 40
0.9028012495
 40
0.9296576368
 40
0.9525203027
 40
0.9711542854
 40
0.9788238885
 40
0.9853672597
 40
0.990768744
 40
0.9950136866
 40
0.9980923855
 40
1.0
 40
1.0
 40
1.0
 40
1.0
 10
8.9332889759
 20
11.6139647163
 30
0.0
 10
8.9332881201
 20
11.6139639948
 30
0.0
 10
8.9332875488
 20
11.6139604439
 30
0.0
 10
8.9332892579
 20
11.6139503144
 30
0.0
 10
8.9332962606
 20
11.6139298096
 30
0.0
 10
8.9333099371
 20
11.6138970526
 30
0.0
 10
8.9333305419
 20
11.613852197
 30
0.0
 10
8.9333579811
 20
11.6137956258
 30
0.0
 10
8.933392325
 20
11.6137272454
 30
0.0
 10
8.9334335372
 20
11.6136471607
 30
0.0
 10
8.9335017921
 20
11.6135168877
 30
0.0
 10
8.9336043092
 20
11.6133253217
 30
0.0
 10
8.9337479073
 20
11.6130614327
 30
0.0
 10
8.9339180815
 20
11.6127524003
 30
0.0
 10
8.9341143797
 20
11.6123990253
 30
0.0
 10
8.934336285
 20
11.6120022078
 30
0.0
 10
8.9345832116
 20
11.6115629605
 30
0.0
 10
8.9348545122
 20
11.6110823927
 30
0.0
 10
8.9352624495
 20
11.6103622904
 30
0.0
 10
8.9358277558
 20
11.6093687717
 30
0.0
 10
8.9365687464
 20
11.6080716354
 30
0.0
 10
8.9373869794
 20
11.6066434415
 30
0.0
 10
8.9382744165
 20
11.6050977701
 30
0.0
 10
8.9392224938
 20
11.6034491112
 30
0.0
 10
8.9402222158
 20
11.6017127109
 30
0.0
 10
8.9412642511
 20
11.5999044227
 30
0.0
 10
8.9427101219
 20
11.5973970239
 30
0.0
 10
8.9445502426
 20
11.5942083752
 30
0.0
 10
8.946751653
 20
11.5903964863
 30
0.0
 10
8.9488872731
 20
11.5867019224
 30
0.0
 10
8.9505917576
 20
11.583757733
 30
0.0
 10
8.9518661119
 20
11.5815613791
 30
0.0
 10
8.9527333429
 20
11.5800696738
 30
0.0
 10
8.9535299472
 20
11.5787031126
 30
0.0
 10
8.9542483679
 20
11.5774751653
 30
0.0
 10
8.9548816642
 20
11.5763981356
 30
0.0
 10
8.95542364
 20
11.5754830203
 30
0.0
 10
8.9558164947
 20
11.5748265648
 30
0.0
 10
8.9560816485
 20
11.5743896311
 30
0.0
 10
8.9562413736
 20
11.5741295575
 30
0.0
 10
8.9563748615
 20
11.5739159329
 30
0.0
 10
8.9564815772
 20
11.5737491043
 30
0.0
 10
8.9565615202
 20
11.5736298366
 30
0.0
 10
8.9566066156
 20
11.5735665447
 30
0.0
 10
8.956625695
 20
11.5735438068
 30
0.0
  0
SPLINE
  5
3D8
100
AcDbEntity
  8
0
100
AcDbSpline
 62
9
  6
CONTINUOUS
 70
0
 71
3
 72
11
 73
7
 74
0
 42
0.0000001
 43
0.0000001
 44
0.0000000001
 40
0.0
 40
0.0
 40
0.0
 40
0.0
 40
0.2422807788
 40
0.4901656894
 40
0.7429670275
 40
1.0
 40
1.0
 40
1.0
 40
1.0
 10
14.2962165772
 20
8.3625383297
 30
0.0
 10
14.3175564242
 20
8.3552865429
 30
0.0
 10
14.3607837468
 20
8.3407734102
 30
0.0
 10
14.426491604
 20
8.3193376133
 30
0.0
 10
14.4936893065
 20
8.2980526985
 30
0.0
 10
14.5389911841
 20
8.2840121994
 30
0.0
 10
14.5618219841
 20
8.2769075768
 30
0.0
  0
SPLINE
  5
3D9
100
AcDbEntity
  8
0
100
AcDbSpline
 62
7
  6
CONTINUOUS
 70
0
 71
3
 72
21
 73
17
 74
0
 42
0.0000001
 43
0.0000001
 44
0.0000000001
 40
0.0
 40
0.0
 40
0.0
 40
0.0
 40
0.1263276918
 40
0.1893979601
 40
0.252392773
 40
0.3153072083
 40
0.378134106
 40
0.4408667744
 40
0.5034986488
 40
0.534774494
 40
0.5660222558
 40
0.6284304894
 40
0.6907161358
 40
0.7528693886
 40
0.8767418303
 40
1.0
 40
1.0
 40
1.0
 40
1.0
 10
14.2292591073
 20
8.2147706764
 30
0.0
 10
14.2434580769
 20
8.216075502
 30
0.0
 10
14.264714169
 20
8.2183976759
 30
0.0
 10
14.2929562836
 20
8.222136402
 30
0.0
 10
14.3140612446
 20
8.2252345947
 30
0.0
 10
14.3350966742
 20
8.228603265
 30
0.0
 10
14.3560613847
 20
8.2322166108
 30
0.0
 10
14.3769531079
 20
8.2360575067
 30
0.0
 10
14.3943075252
 20
8.2394378648
 30
0.0
 10
14.4081529178
 20
8.2422421604
 30
0.0
 10
14.4219599872
 20
8.245107701
 30
0.0
 10
14.4391710147
 20
8.2487948858
 30
0.0
 10
14.4597635942
 20
8.2533474756
 30
0.0
 10
14.4871025922
 20
8.2595208068
 30
0.0
 10
14.5211260223
 20
8.2673359886
 30
0.0
 10
14.5482835805
 20
8.2737037328
 30
0.0
 10
14.5618219879
 20
8.2769075768
 30
0.0
  0
SPLINE
  5
3DA
100
AcDbEntity
  8
0
100
AcDbSpline
 62
9
  6
CONTINUOUS
 70
0
 71
3
 72
43
 73
39
 74
0
 42
0.0000001
 43
0.0000001
 44
0.0000000001
 40
0.0
 40
0.0
 40
0.0
 40
0.0
 40
0.2111520577
 40
0.3099685288
 40
0.4038100449
 40
0.4923048091
 40
0.5750573353
 40
0.6516560453
 40
0.7216880636
 40
0.784749017
 40
0.8135338473
 40
0.8404191524
 40
0.8653556785
 40
0.8882968637
 40
0.9092026296
 40
0.9280336238
 40
0.9447490892
 40
0.9593083919
 40
0.9657692062
 40
0.9716799592
 40
0.9770375619
 40
0.9818390255
 40
0.9860821408
 40
0.9897650639
 40
0.9928859525
 40
0.9942350581
 40
0.9954429673
 40
0.9965094781
 40
0.9974344012
 40
0.9982175474
 40
0.9988587273
 40
0.9993577518
 40
0.9995538966
 40
0.9997144316
 40
0.9998393331
 40
0.9999285774
 40
0.9999821409
 40
1.0
 40
1.0
 40
1.0
 40
1.0
 10
10.5750976887
 20
11.3206585696
 30
0.0
 10
10.5710720128
 20
11.3121814483
 30
0.0
 10
10.5652699793
 20
11.2996856719
 30
0.0
 10
10.5579044803
 20
11.283319707
 30
0.0
 10
10.5528581225
 20
11.2718883593
 30
0.0
 10
10.5481704224
 20
11.2610794145
 30
0.0
 10
10.5438480563
 20
11.2509475603
 30
0.0
 10
10.539898891
 20
11.241548783
 30
0.0
 10
10.5363310045
 20
11.2329392276
 30
0.0
 10
10.5336045473
 20
11.2262813413
 30
0.0
 10
10.5316190295
 20
11.221392249
 30
0.0
 10
10.5302769648
 20
11.2180706468
 30
0.0
 10
10.5290373296
 20
11.2149877772
 30
0.0
 10
10.5279011799
 20
11.2121497343
 30
0.0
 10
10.5268693531
 20
11.2095622215
 30
0.0
 10
10.5259425161
 20
11.207230728
 30
0.0
 10
10.5251219801
 20
11.20516051
 30
0.0
 10
10.5245056186
 20
11.2036007573
 30
0.0
 10
10.5240665609
 20
11.2024872791
 30
0.0
 10
10.523777832
 20
11.2017541295
 30
0.0
 10
10.5235163765
 20
11.2010895001
 30
0.0
 10
10.523282232
 20
11.2004937722
 30
0.0
 10
10.5230754457
 20
11.1999672634
 30
0.0
 10
10.5228960548
 20
11.1995102405
 30
0.0
 10
10.5227636995
 20
11.1991729305
 30
0.0
 10
10.5226715202
 20
11.19893802
 30
0.0
 10
10.5226126826
 20
11.1987881099
 30
0.0
 10
10.5225607196
 20
11.1986557511
 30
0.0
 10
10.5225156501
 20
11.1985409754
 30
0.0
 10
10.522477469
 20
11.1984437784
 30
0.0
 10
10.5224462371
 20
11.1983642582
 30
0.0
 10
10.5224244541
 20
11.1983088867
 30
0.0
 10
10.5224106338
 20
11.1982736352
 30
0.0
 10
10.5224026106
 20
11.1982534149
 30
0.0
 10
10.5223970155
 20
11.1982386938
 30
0.0
 10
10.5223915351
 20
11.1982258637
 30
0.0
 10
10.5223908983
 20
11.1982223012
 30
0.0
 10
10.5223876902
 20
11.1982161554
 30
0.0
 10
10.5223882402
 20
11.1982167277
 30
0.0
  0
SPLINE
  5
3DB
100
AcDbEntity
  8
0
100
AcDbSpline
 62
9
  6
CONTINUOUS
 70
0
 71
3
 72
13
 73
9
 74
0
 42
0.0000001
 43
0.0000001
 44
0.0000000001
 40
0.0
 40
0.0
 40
0.0
 40
0.0
 40
0.1367540645
 40
0.2725459982
 40
0.4063211813
 40
0.53690402
 40
0.7832178224
 40
1.0
 40
1.0
 40
1.0
 40
1.0
 10
10.6880742848
 20
11.6277601201
 30
0.0
 10
10.6838428463
 20
11.6134477806
 30
0.0
 10
10.6750999297
 20
11.5850145444
 30
0.0
 10
10.6612316095
 20
11.5428922479
 30
0.0
 10
10.6468337316
 20
11.5016609643
 30
0.0
 10
10.6276095989
 20
11.4493468757
 30
0.0
 10
10.6039637936
 20
11.3890155159
 30
0.0
 10
10.5844446874
 20
11.3423925911
 30
0.0
 10
10.5750976495
 20
11.3206586163
 30
0.0
  0
SPLINE
  5
3DC
100
AcDbEntity
  8
0
100
AcDbSpline
 62
9
  6
CONTINUOUS
 70
0
 71
3
 72
11
 73
7
 74
0
 42
0.0000001
 43
0.0000001
 44
0.0000000001
 40
0.0
 40
0.0
 40
0.0
 40
0.0
 40
0.2696361682
 40
0.5326015906
 40
0.7799634373
 40
1.0
 40
1.0
 40
1.0
 40
1.0
 10
10.7717485869
 20
11.6029594676
 30
0.0
 10
10.7672041568
 20
11.5755947833
 30
0.0
 10
10.7570034687
 20
11.5217400353
 30
0.0
 10
10.7390234216
 20
11.443523691
 30
0.0
 10
10.7198101562
 20
11.3708722803
 30
0.0
 10
10.7062800464
 20
11.3247250359
 30
0.0
 10
10.6996639239
 20
11.303076688
 30
0.0
  0
SPLINE
  5
3DD
100
AcDbEntity
  8
0
100
AcDbSpline
 62
7
  6
CONTINUOUS
 70
0
 71
3
 72
17
 73
13
 74
0
 42
0.0000001
 43
0.0000001
 44
0.0000000001
 40
0.0
 40
0.0
 40
0.0
 40
0.0
 40
0.0210502228
 40
0.0435569263
 40
0.0697349591
 40
0.1010278522
 40
0.1818501439
 40
0.2894985937
 40
0.4250745483
 40
0.5888589935
 40
0.780694395
 40
1.0
 40
1.0
 40
1.0
 40
1.0
 10
9.5497117515
 20
10.8674406381
 30
0.0
 10
9.5496977176
 20
10.8674288596
 30
0.0
 10
9.5496728975
 20
10.8673988796
 30
0.0
 10
9.549653035
 20
10.8673404501
 30
0.0
 10
9.5496493913
 20
10.867270321
 30
0.0
 10
9.5496664018
 20
10.867150666
 30
0.0
 10
9.5497322049
 20
10.8669694719
 30
0.0
 10
9.5498622173
 20
10.8667189819
 30
0.0
 10
9.5500511504
 20
10.8664188811
 30
0.0
 10
9.5502986231
 20
10.8660701272
 30
0.0
 10
9.5506043275
 20
10.8656738232
 30
0.0
 10
9.5508313163
 20
10.8653971228
 30
0.0
 10
9.5509540109
 20
10.8652509011
 30
0.0
  0
SPLINE
  5
3DE
100
AcDbEntity
  8
0
100
AcDbSpline
 62
9
  6
CONTINUOUS
 70
0
 71
3
 72
44
 73
40
 74
0
 42
0.0000001
 43
0.0000001
 44
0.0000000001
 40
0.0
 40
0.0
 40
0.0
 40
0.0
 40
0.1077092384
 40
0.2111069356
 40
0.3098605155
 40
0.4036342658
 40
0.4920655618
 40
0.5747693262
 40
0.6513435158
 40
0.7213767361
 40
0.7844566115
 40
0.8132577026
 40
0.8401622274
 40
0.8651225136
 40
0.8880931993
 40
0.9090300933
 40
0.9278905744
 40
0.9446332182
 40
0.9592207938
 40
0.9656951227
 40
0.9716179734
 40
0.9769868006
 40
0.9817991372
 40
0.9860525162
 40
0.9897445184
 40
0.9928730632
 40
0.9942254349
 40
0.9954362174
 40
0.9965051688
 40
0.9974320474
 40
0.9982166114
 40
0.998858625
 40
0.9993579729
 40
0.9995541458
 40
0.9997146513
 40
0.9998394894
 40
0.9999286602
 40
0.9999821637
 40
1.0
 40
1.0
 40
1.0
 40
1.0
 10
10.6996639239
 20
11.303076688
 30
0.0
 10
10.6984767654
 20
11.2991924496
 30
0.0
 10
10.6961912037
 20
11.2915667878
 30
0.0
 10
10.6929515305
 20
11.2803401725
 30
0.0
 10
10.6899587273
 20
11.2695897968
 30
0.0
 10
10.6872040215
 20
11.2593593987
 30
0.0
 10
10.6846824548
 20
11.2496933452
 30
0.0
 10
10.6823887824
 20
11.2406383927
 30
0.0
 10
10.6803184146
 20
11.2322427573
 30
0.0
 10
10.6784685939
 20
11.2245550428
 30
0.0
 10
10.6770711801
 20
11.2186114613
 30
0.0
 10
10.6760608203
 20
11.2142476148
 30
0.0
 10
10.6753801167
 20
11.2112829253
 30
0.0
 10
10.674753437
 20
11.208531416
 30
0.0
 10
10.6741811811
 20
11.2059983118
 30
0.0
 10
10.6736635342
 20
11.2036886885
 30
0.0
 10
10.6732004238
 20
11.2016075247
 30
0.0
 10
10.6727917491
 20
11.1997595322
 30
0.0
 10
10.6724853643
 20
11.1983672739
 30
0.0
 10
10.6722671047
 20
11.1973733889
 30
0.0
 10
10.6721235275
 20
11.1967190168
 30
0.0
 10
10.6719935366
 20
11.1961258266
 30
0.0
 10
10.6718771981
 20
11.1955940926
 30
0.0
 10
10.6717745762
 20
11.1951240847
 30
0.0
 10
10.671685746
 20
11.1947160555
 30
0.0
 10
10.6716203739
 20
11.1944148759
 30
0.0
 10
10.6715749416
 20
11.1942051113
 30
0.0
 10
10.671545985
 20
11.1940712443
 30
0.0
 10
10.6715204499
 20
11.1939530529
 30
0.0
 10
10.6714983283
 20
11.1938505679
 30
0.0
 10
10.6714796227
 20
11.1937638137
 30
0.0
 10
10.6714643048
 20
11.1936928268
 30
0.0
 10
10.6714536996
 20
11.193643508
 30
0.0
 10
10.6714468566
 20
11.1936119759
 30
0.0
 10
10.6714431114
 20
11.1935941789
 30
0.0
 10
10.6714399229
 20
11.1935804961
 30
0.0
 10
10.6714382754
 20
11.1935703582
 30
0.0
 10
10.6714361596
 20
11.1935649271
 30
0.0
 10
10.6714364619
 20
11.1935617948
 30
0.0
 10
10.6714359629
 20
11.1935613437
 30
0.0
  0
SPLINE
  5
3DF
100
AcDbEntity
  8
0
100
AcDbSpline
 62
9
  6
CONTINUOUS
 70
0
 71
3
 72
20
 73
16
 74
0
 42
0.0000001
 43
0.0000001
 44
0.0000000001
 40
0.0
 40
0.0
 40
0.0
 40
0.0
 40
0.0523982867
 40
0.1065887362
 40
0.1626252333
 40
0.2205011166
 40
0.341390593
 40
0.4042293636
 40
0.4683976542
 40
0.5336790147
 40
0.5998335922
 40
0.7336563314
 40
0.8008422465
 40
0.8678200953
 40
1.0
 40
1.0
 40
1.0
 40
1.0
 10
10.5750982106
 20
11.3206603123
 30
0.0
 10
10.5771088499
 20
11.3217974569
 30
0.0
 10
10.5813240729
 20
11.3238952592
 30
0.0
 10
10.588031972
 20
11.3264531439
 30
0.0
 10
10.5951773607
 20
11.3284558854
 30
0.0
 10
10.6053555197
 20
11.3303928424
 30
0.0
 10
10.6160315834
 20
11.3311058833
 30
0.0
 10
10.6269570649
 20
11.3306785631
 30
0.0
 10
10.635391881
 20
11.3297678574
 30
0.0
 10
10.6438915859
 20
11.3282783847
 30
0.0
 10
10.6552631717
 20
11.3255267975
 30
0.0
 10
10.6664341809
 20
11.3216845866
 30
0.0
 10
10.677213555
 20
11.3168350859
 30
0.0
 10
10.6876103951
 20
11.3113680148
 30
0.0
 10
10.694996964
 20
11.3065657016
 30
0.0
 10
10.6996640618
 20
11.3030768037
 30
0.0
  0
SPLINE
  5
3E0
100
AcDbEntity
  8
0
100
AcDbSpline
 62
7
  6
CONTINUOUS
 70
0
 71
3
 72
19
 73
15
 74
0
 42
0.0000001
 43
0.0000001
 44
0.0000000001
 40
0.0
 40
0.0
 40
0.0
 40
0.0
 40
0.0201331665
 40
0.0422679297
 40
0.0686349705
 40
0.100571478
 40
0.1388027662
 40
0.1836994869
 40
0.2354477211
 40
0.2941023626
 40
0.4319867121
 40
0.5965918157
 40
0.7865670198
 40
1.0
 40
1.0
 40
1.0
 40
1.0
 10
9.4776847919
 20
10.9547236512
 30
0.0
 10
9.4776439169
 20
10.9546893536
 30
0.0
 10
9.4775720787
 20
10.9545989711
 30
0.0
 10
9.4775191302
 20
10.9544216772
 30
0.0
 10
9.4775147873
 20
10.9542068562
 30
0.0
 10
9.4775561356
 20
10.9539534362
 30
0.0
 10
9.4776426877
 20
10.9536604501
 30
0.0
 10
9.4777744426
 20
10.9533277872
 30
0.0
 10
9.4779514289
 20
10.9529559392
 30
0.0
 10
9.478264831
 20
10.9523770838
 30
0.0
 10
9.4787736952
 20
10.951565423
 30
0.0
 10
9.4795258358
 20
10.9504983286
 30
0.0
 10
9.4804423974
 20
10.9493037144
 30
0.0
 10
9.481119657
 20
10.9484762432
 30
0.0
 10
9.4814832519
 20
10.9480429277
 30
0.0
  0
SPLINE
  5
3E1
100
AcDbEntity
  8
0
100
AcDbSpline
 62
7
  6
CONTINUOUS
 70
0
 71
3
 72
22
 73
18
 74
0
 42
0.0000001
 43
0.0000001
 44
0.0000000001
 40
0.0
 40
0.0
 40
0.0
 40
0.0
 40
0.0092913672
 40
0.0189124278
 40
0.0292650345
 40
0.040671287
 40
0.0674950676
 40
0.1006138628
 40
0.1405581423
 40
0.1875197377
 40
0.2415056317
 40
0.3023955975
 40
0.3699797484
 40
0.4439789429
 40
0.6097833737
 40
0.7964639359
 40
1.0
 40
1.0
 40
1.0
 40
1.0
 10
9.3765827798
 20
11.0772144115
 30
0.0
 10
9.3765462587
 20
11.0771837709
 30
0.0
 10
9.3764787556
 20
11.0771127163
 30
0.0
 10
9.3764013789
 20
11.0769827983
 30
0.0
 10
9.3763473175
 20
11.0768301997
 30
0.0
 10
9.3763035836
 20
11.0765838891
 30
0.0
 10
9.376314831
 20
11.0762146745
 30
0.0
 10
9.3764151527
 20
11.0757109027
 30
0.0
 10
9.3766029419
 20
11.0751233419
 30
0.0
 10
9.3768779869
 20
11.0744542545
 30
0.0
 10
9.3772397363
 20
11.0737063968
 30
0.0
 10
9.3776868713
 20
11.0728836078
 30
0.0
 10
9.3782174492
 20
11.0719902257
 30
0.0
 10
9.3790656435
 20
11.0706603333
 30
0.0
 10
9.380318326
 20
11.0688650305
 30
0.0
 10
9.3820449863
 20
11.0665933705
 30
0.0
 10
9.3833101261
 20
11.0650411031
 30
0.0
 10
9.3839813903
 20
11.0642411215
 30
0.0
  0
SPLINE
  5
3E2
100
AcDbEntity
  8
0
100
AcDbSpline
 62
7
  6
CONTINUOUS
 70
0
 71
3
 72
25
 73
21
 74
0
 42
0.0000001
 43
0.0000001
 44
0.0000000001
 40
0.0
 40
0.0
 40
0.0
 40
0.0
 40
0.0083258305
 40
0.0172468644
 40
0.0272371654
 40
0.03863197
 40
0.0516466186
 40
0.0664155188
 40
0.0830186715
 40
0.1014967345
 40
0.1441202057
 40
0.1942325523
 40
0.2515780501
 40
0.3157694162
 40
0.3863124091
 40
0.4626218878
 40
0.5440338064
 40
0.6298147896
 40
0.811236179
 40
1.0
 40
1.0
 40
1.0
 40
1.0
 10
9.3040516715
 20
11.2577257744
 30
0.0
 10
9.3040007362
 20
11.257683041
 30
0.0
 10
9.3039075223
 20
11.2575788947
 30
0.0
 10
9.3038086034
 20
11.2573830043
 30
0.0
 10
9.3037470838
 20
11.2571474739
 30
0.0
 10
9.3037218397
 20
11.2568730198
 30
0.0
 10
9.3037321057
 20
11.2565597106
 30
0.0
 10
9.3037777259
 20
11.2562077781
 30
0.0
 10
9.3038586015
 20
11.2558176871
 30
0.0
 10
9.3040213107
 20
11.2552185669
 30
0.0
 10
9.3043193507
 20
11.2543806901
 30
0.0
 10
9.3047969578
 20
11.2532808463
 30
0.0
 10
9.3054074512
 20
11.2520530033
 30
0.0
 10
9.3061460362
 20
11.2507082676
 30
0.0
 10
9.3070067721
 20
11.2492590037
 30
0.0
 10
9.3079822256
 20
11.2477188669
 30
0.0
 10
9.3090636672
 20
11.2461025771
 30
0.0
 10
9.3106637717
 20
11.2438242133
 30
0.0
 10
9.3128496227
 20
11.240910882
 30
0.0
 10
9.3147097226
 20
11.2386123521
 30
0.0
 10
9.3156786628
 20
11.2374576141
 30
0.0
  0
SPLINE
  5
3E3
100
AcDbEntity
  8
0
100
AcDbSpline
 62
7
  6
CONTINUOUS
 70
0
 71
3
 72
25
 73
21
 74
0
 42
0.0000001
 43
0.0000001
 44
0.0000000001
 40
0.0
 40
0.0
 40
0.0
 40
0.0
 40
0.0075283818
 40
0.0159222438
 40
0.0257210879
 40
0.0372541197
 40
0.0507053876
 40
0.0661730839
 40
0.0836985952
 40
0.1032918704
 40
0.1485915339
 40
0.2017682542
 40
0.2623183368
 40
0.3295957703
 40
0.402837248
 40
0.4811754195
 40
0.5636520281
 40
0.649231055
 40
0.8252432081
 40
1.0
 40
1.0
 40
1.0
 40
1.0
 10
9.1869818973
 20
11.3988694056
 30
0.0
 10
9.1869241746
 20
11.3988209764
 30
0.0
 10
9.1868199505
 20
11.3986960355
 30
0.0
 10
9.1867201279
 20
11.3984558147
 30
0.0
 10
9.1866683291
 20
11.3981611178
 30
0.0
 10
9.1866626154
 20
11.3978120369
 30
0.0
 10
9.1867021938
 20
11.3974084675
 30
0.0
 10
9.1867869883
 20
11.3969509964
 30
0.0
 10
9.1869167366
 20
11.3964406217
 30
0.0
 10
9.1871616807
 20
11.3956526367
 30
0.0
 10
9.1875858792
 20
11.3945484638
 30
0.0
 10
9.1882419325
 20
11.3930977396
 30
0.0
 10
9.1890612345
 20
11.39148145
 30
0.0
 10
9.1900345113
 20
11.3897196772
 30
0.0
 10
9.1911506068
 20
11.3878345872
 30
0.0
 10
9.1923961445
 20
11.3858503302
 30
0.0
 10
9.1937557732
 20
11.3837927157
 30
0.0
 10
9.1957162246
 20
11.3809613577
 30
0.0
 10
9.1983130152
 20
11.3774485784
 30
0.0
 10
9.2005107223
 20
11.3747094209
 30
0.0
 10
9.2016349924
 20
11.3733695681
 30
0.0
  0
SPLINE
  5
3E4
100
AcDbEntity
  8
0
100
AcDbSpline
 62
7
  6
CONTINUOUS
 70
0
 71
3
 72
26
 73
22
 74
0
 42
0.0000001
 43
0.0000001
 44
0.0000000001
 40
0.0
 40
0.0
 40
0.0
 40
0.0
 40
0.006602461
 40
0.0144470619
 40
0.024139938
 40
0.0359793703
 40
0.0501010084
 40
0.0665510705
 40
0.0853287603
 40
0.106399652
 40
0.1551800383
 40
0.2122723861
 40
0.2768552779
 40
0.3479556604
 40
0.424468956
 40
0.5051782147
 40
0.5887690026
 40
0.6738496565
 40
0.8426676802
 40
0.923483482
 40
1.0
 40
1.0
 40
1.0
 40
1.0
 10
9.0778843095
 20
11.5303893592
 30
0.0
 10
9.0778242762
 20
11.5303389901
 30
0.0
 10
9.0777189424
 20
11.5301968174
 30
0.0
 10
9.0776366008
 20
11.5299188975
 30
0.0
 10
9.0776118993
 20
11.5295693703
 30
0.0
 10
9.0776431929
 20
11.5291463806
 30
0.0
 10
9.0777299106
 20
11.5286499482
 30
0.0
 10
9.0778719448
 20
11.5280813184
 30
0.0
 10
9.0780689062
 20
11.5274425302
 30
0.0
 10
9.0784216153
 20
11.5264512215
 30
0.0
 10
9.0790017012
 20
11.5250596189
 30
0.0
 10
9.0798669738
 20
11.523230331
 30
0.0
 10
9.080920069
 20
11.5211985367
 30
0.0
 10
9.0821446956
 20
11.518997405
 30
0.0
 10
9.0835218987
 20
11.5166631646
 30
0.0
 10
9.0850297714
 20
11.5142347894
 30
0.0
 10
9.0866438094
 20
11.5117533999
 30
0.0
 10
9.088895774
 20
11.5084404722
 30
0.0
 10
9.0912266429
 20
11.5052216366
 30
0.0
 10
9.0935994364
 20
11.502162695
 30
0.0
 10
9.0947794444
 20
11.5007150512
 30
0.0
 10
9.0953632096
 20
11.500019347
 30
0.0
  0
LINE
  5
3E5
100
AcDbEntity
  8
0
100
AcDbLine
 62
7
  6
CONTINUOUS
 10
8.8900618905
 20
11.7446879317
 11
8.8906749923
 21
11.7441793307
  0
SPLINE
  5
3E6
100
AcDbEntity
  8
0
100
AcDbSpline
 62
7
  6
CONTINUOUS
 70
0
 71
3
 72
18
 73
14
 74
0
 42
0.0000001
 43
0.0000001
 44
0.0000000001
 40
0.0
 40
0.0
 40
0.0
 40
0.0
 40
0.218828639
 40
0.4106188885
 40
0.5746107063
 40
0.7105275591
 40
0.8185075518
 40
0.8623100326
 40
0.8996194882
 40
0.9308973916
 40
0.9569709546
 40
0.9792642593
 40
1.0
 40
1.0
 40
1.0
 40
1.0
 10
8.9340811042
 20
11.6922278756
 30
0.0
 10
8.9342332944
 20
11.6920465023
 30
0.0
 10
8.9345226633
 20
11.6917093021
 30
0.0
 10
8.9349414827
 20
11.691249693
 30
0.0
 10
8.9353151626
 20
11.6908707078
 30
0.0
 10
8.9356419654
 20
11.6905738226
 30
0.0
 10
8.9358889191
 20
11.6903831145
 30
0.0
 10
8.9360636409
 20
11.6902762551
 30
0.0
 10
8.9361731512
 20
11.6902228267
 30
0.0
 10
8.9362706872
 20
11.6901902734
 30
0.0
 10
8.9363568388
 20
11.6901787915
 30
0.0
 10
8.9364321013
 20
11.6901896328
 30
0.0
 10
8.9364738049
 20
11.6902130855
 30
0.0
 10
8.9364909902
 20
11.6902275083
 30
0.0
  0
SPLINE
  5
3E7
100
AcDbEntity
  8
0
100
AcDbSpline
 62
7
  6
CONTINUOUS
 70
0
 71
3
 72
19
 73
15
 74
0
 42
0.0000001
 43
0.0000001
 44
0.0000000001
 40
0.0
 40
0.0
 40
0.0
 40
0.0
 40
0.2145923784
 40
0.4050243021
 40
0.5695965168
 40
0.7071646386
 40
0.7656054676
 40
0.8171277109
 40
0.8618028327
 40
0.8998240647
 40
0.9315851193
 40
0.9578171108
 40
0.979875803
 40
1.0
 40
1.0
 40
1.0
 40
1.0
 10
9.0041055609
 20
11.6087759777
 30
0.0
 10
9.0044312385
 20
11.6083878502
 30
0.0
 10
9.0050546691
 20
11.6076625441
 30
0.0
 10
9.0059624839
 20
11.6066699361
 30
0.0
 10
9.006781211
 20
11.6058435132
 30
0.0
 10
9.0074124447
 20
11.6052711197
 30
0.0
 10
9.0078696318
 20
11.6049067327
 30
0.0
 10
9.0081667633
 20
11.6046942018
 30
0.0
 10
9.0084365705
 20
11.6045273934
 30
0.0
 10
9.0086787617
 20
11.6044063968
 30
0.0
 10
9.0088934593
 20
11.604331082
 30
0.0
 10
9.0090817239
 20
11.6043018231
 30
0.0
 10
9.009244914
 20
11.6043210734
 30
0.0
 10
9.0093350677
 20
11.6043701178
 30
0.0
 10
9.0093714632
 20
11.6044006625
 30
0.0
  0
SPLINE
  5
3E8
100
AcDbEntity
  8
0
100
AcDbSpline
 62
7
  6
CONTINUOUS
 70
0
 71
3
 72
21
 73
17
 74
0
 42
0.0000001
 43
0.0000001
 44
0.0000000001
 40
0.0
 40
0.0
 40
0.0
 40
0.0
 40
0.2083364653
 40
0.3966983735
 40
0.5620499592
 40
0.63531237
 40
0.7019620747
 40
0.7618087819
 40
0.8147359394
 40
0.8607026133
 40
0.8997976688
 40
0.9322943213
 40
0.9588126271
 40
0.9805936929
 40
0.9904195052
 40
1.0
 40
1.0
 40
1.0
 40
1.0
 10
9.0953632096
 20
11.500019347
 30
0.0
 10
9.0959016421
 20
11.4993776682
 30
0.0
 10
9.0969429828
 20
11.4981691457
 30
0.0
 10
9.0984730643
 20
11.496505579
 30
0.0
 10
9.0996853203
 20
11.4952889812
 30
0.0
 10
9.1005874411
 20
11.4944565034
 30
0.0
 10
9.1011951558
 20
11.4939311198
 30
0.0
 10
9.1017591789
 20
11.4934809794
 30
0.0
 10
9.1022771736
 20
11.4931075546
 30
0.0
 10
9.102747245
 20
11.4928119574
 30
0.0
 10
9.1031677959
 20
11.4925945877
 30
0.0
 10
9.1035384753
 20
11.4924558073
 30
0.0
 10
9.1038597852
 20
11.4923951938
 30
0.0
 10
9.1040974892
 20
11.4924148279
 30
0.0
 10
9.1042522452
 20
11.4924767898
 30
0.0
 10
9.1043175501
 20
11.4925207462
 30
0.0
 10
9.104347056
 20
11.492545509
 30
0.0
  0
SPLINE
  5
3E9
100
AcDbEntity
  8
0
100
AcDbSpline
 62
7
  6
CONTINUOUS
 70
0
 71
3
 72
22
 73
18
 74
0
 42
0.0000001
 43
0.0000001
 44
0.0000000001
 40
0.0
 40
0.0
 40
0.0
 40
0.0
 40
0.1998323594
 40
0.3852726459
 40
0.5515228581
 40
0.6261447948
 40
0.694508434
 40
0.7562514223
 40
0.8110922297
 40
0.8588428829
 40
0.8994382443
 40
0.9330071038
 40
0.9600030605
 40
0.971368623
 40
0.9815887454
 40
0.990992095
 40
1.0
 40
1.0
 40
1.0
 40
1.0
 10
9.2016349924
 20
11.3733695681
 30
0.0
 10
9.2023981459
 20
11.3724600771
 30
0.0
 10
9.2038958879
 20
11.3707284476
 30
0.0
 10
9.2061237408
 20
11.3683247179
 30
0.0
 10
9.2079198321
 20
11.3665373759
 30
0.0
 10
9.2092736192
 20
11.36529496
 30
0.0
 10
9.21019487
 20
11.3645003815
 30
0.0
 10
9.2110530107
 20
11.363813615
 30
0.0
 10
9.2118425428
 20
11.3632385042
 30
0.0
 10
9.2125584719
 20
11.3627779492
 30
0.0
 10
9.2131970356
 20
11.3624337065
 30
0.0
 10
9.2137548743
 20
11.3622067693
 30
0.0
 10
9.2141749475
 20
11.3621100677
 30
0.0
 10
9.2144645369
 20
11.3621034933
 30
0.0
 10
9.2146478039
 20
11.3621299
 30
0.0
 10
9.2148091186
 20
11.3621878106
 30
0.0
 10
9.2149017691
 20
11.3622482246
 30
0.0
 10
9.2149427636
 20
11.362282629
 30
0.0
  0
SPLINE
  5
3EA
100
AcDbEntity
  8
0
100
AcDbSpline
 62
7
  6
CONTINUOUS
 70
0
 71
3
 72
30
 73
26
 74
0
 42
0.0000001
 43
0.0000001
 44
0.0000000001
 40
0.0
 40
0.0
 40
0.0
 40
0.0
 40
0.002639775
 40
0.0055819684
 40
0.0089771978
 40
0.0129223909
 40
0.0226657724
 40
0.0350591154
 40
0.050165821
 40
0.0679721509
 40
0.0884222253
 40
0.1114330569
 40
0.1368993717
 40
0.1647010687
 40
0.2267531448
 40
0.2963673021
 40
0.3721520652
 40
0.4525775277
 40
0.5359960851
 40
0.6206695242
 40
0.7047967477
 40
0.7865529966
 40
0.8641356877
 40
0.9358143054
 40
1.0
 40
1.0
 40
1.0
 40
1.0
 10
8.9841956263
 20
11.6433243603
 30
0.0
 10
8.9841684452
 20
11.6433015545
 30
0.0
 10
8.984118524
 20
11.6432439071
 30
0.0
 10
8.9840655824
 20
11.6431344
 30
0.0
 10
8.9840306576
 20
11.6429999938
 30
0.0
 10
8.9840057606
 20
11.6427711449
 30
0.0
 10
8.9840262361
 20
11.6424192621
 30
0.0
 10
8.9841144534
 20
11.6419260488
 30
0.0
 10
8.9842690684
 20
11.6413364865
 30
0.0
 10
8.98448933
 20
11.6406536498
 30
0.0
 10
8.9847744333
 20
11.6398808792
 30
0.0
 10
8.9851229374
 20
11.6390223428
 30
0.0
 10
8.9855330225
 20
11.6380825569
 30
0.0
 10
8.9861834078
 20
11.6366754832
 30
0.0
 10
8.9871369277
 20
11.6347553804
 30
0.0
 10
8.9884452487
 20
11.6322927306
 30
0.0
 10
8.9899303467
 20
11.62964527
 30
0.0
 10
8.9915621602
 20
11.6268681569
 30
0.0
 10
8.9933074849
 20
11.6240198459
 30
0.0
 10
8.9951301835
 20
11.6211612318
 30
0.0
 10
8.9969917842
 20
11.6183545566
 30
0.0
 10
8.9988521203
 20
11.6156620937
 30
0.0
 10
9.0006701727
 20
11.6131445398
 30
0.0
 10
9.0024051037
 20
11.6108592651
 30
0.0
 10
9.003551014
 20
11.609436861
 30
0.0
 10
9.0041055609
 20
11.6087759777
 30
0.0
  0
SPLINE
  5
3EB
100
AcDbEntity
  8
0
100
AcDbSpline
 62
7
  6
CONTINUOUS
 70
0
 71
3
 72
17
 73
13
 74
0
 42
0.0000001
 43
0.0000001
 44
0.0000000001
 40
0.0
 40
0.0
 40
0.0
 40
0.0
 40
0.2197901976
 40
0.4117641003
 40
0.5754869675
 40
0.710866746
 40
0.8182900963
 40
0.8989156646
 40
0.9301530717
 40
0.9563228037
 40
0.9788676313
 40
1.0
 40
1.0
 40
1.0
 40
1.0
 10
8.9836999907
 20
11.5412779175
 30
0.0
 10
8.9838001528
 20
11.541158549
 30
0.0
 10
8.9839902756
 20
11.5409369725
 30
0.0
 10
8.9842651488
 20
11.5406353387
 30
0.0
 10
8.9845097737
 20
11.5403874784
 30
0.0
 10
8.9847235035
 20
11.5401936709
 30
0.0
 10
8.9849057075
 20
11.540054218
 30
0.0
 10
8.9850415355
 20
11.5399760836
 30
0.0
 10
8.9851350034
 20
11.5399457626
 30
0.0
 10
8.9851917746
 20
11.5399389055
 30
0.0
 10
8.9852415145
 20
11.5399467164
 30
0.0
 10
8.9852691144
 20
11.5399624778
 30
0.0
 10
8.9852805894
 20
11.5399721107
 30
0.0
  0
SPLINE
  5
3EC
100
AcDbEntity
  8
0
100
AcDbSpline
 62
7
  6
CONTINUOUS
 70
0
 71
3
 72
19
 73
15
 74
0
 42
0.0000001
 43
0.0000001
 44
0.0000000001
 40
0.0
 40
0.0
 40
0.0
 40
0.0
 40
0.2143811366
 40
0.4046599338
 40
0.5691307822
 40
0.7066466391
 40
0.7650809974
 40
0.8166115202
 40
0.8613112723
 40
0.8993776137
 40
0.9312077544
 40
0.9575379899
 40
0.9797262525
 40
1.0
 40
1.0
 40
1.0
 40
1.0
 10
9.0488682878
 20
11.4636133654
 30
0.0
 10
9.0491962247
 20
11.4632225453
 30
0.0
 10
9.0498241586
 20
11.4624922479
 30
0.0
 10
9.0507390105
 20
11.461493114
 30
0.0
 10
9.0515646205
 20
11.4606615421
 30
0.0
 10
9.0522015625
 20
11.4600859309
 30
0.0
 10
9.0526631312
 20
11.4597197926
 30
0.0
 10
9.0529632637
 20
11.4595063661
 30
0.0
 10
9.0532359259
 20
11.4593390335
 30
0.0
 10
9.0534808099
 20
11.4592178745
 30
0.0
 10
9.0536980337
 20
11.4591427646
 30
0.0
 10
9.0538886426
 20
11.4591141027
 30
0.0
 10
9.0540539197
 20
11.4591343427
 30
0.0
 10
9.0541452571
 20
11.4591842465
 30
0.0
 10
9.0541822131
 20
11.4592152631
 30
0.0
  0
SPLINE
  5
3ED
100
AcDbEntity
  8
0
100
AcDbSpline
 62
7
  6
CONTINUOUS
 70
0
 71
3
 72
21
 73
17
 74
0
 42
0.0000001
 43
0.0000001
 44
0.0000000001
 40
0.0
 40
0.0
 40
0.0
 40
0.0
 40
0.205046386
 40
0.3922478573
 40
0.5578969747
 40
0.631657536
 40
0.6989398838
 40
0.7594973935
 40
0.8131456705
 40
0.8597959468
 40
0.8994770909
 40
0.9324119341
 40
0.9591579802
 40
0.9809000095
 40
0.9906012602
 40
1.0
 40
1.0
 40
1.0
 40
1.0
 10
9.1434736851
 20
11.3508670432
 30
0.0
 10
9.1441048708
 20
11.3501148255
 30
0.0
 10
9.1453325221
 20
11.3486925714
 30
0.0
 10
9.1471455062
 20
11.3467294314
 30
0.0
 10
9.1485920454
 20
11.3452854824
 30
0.0
 10
9.1496740658
 20
11.3442920192
 30
0.0
 10
9.1504059794
 20
11.3436621188
 30
0.0
 10
9.1510863175
 20
11.3431208356
 30
0.0
 10
9.1517117238
 20
11.3426704623
 30
0.0
 10
9.1522792135
 20
11.3423125986
 30
0.0
 10
9.1527863708
 20
11.3420480919
 30
0.0
 10
9.1532322048
 20
11.341877424
 30
0.0
 10
9.1536167831
 20
11.3418000816
 30
0.0
 10
9.1539006089
 20
11.3418188169
 30
0.0
 10
9.1540842879
 20
11.3418899027
 30
0.0
 10
9.1541611436
 20
11.3419410936
 30
0.0
 10
9.1541956236
 20
11.3419700248
 30
0.0
  0
SPLINE
  5
3EE
100
AcDbEntity
  8
0
100
AcDbSpline
 62
7
  6
CONTINUOUS
 70
0
 71
3
 72
24
 73
20
 74
0
 42
0.0000001
 43
0.0000001
 44
0.0000000001
 40
0.0
 40
0.0
 40
0.0
 40
0.0
 40
0.1910335686
 40
0.3732796144
 40
0.4590621462
 40
0.5402725274
 40
0.6162294316
 40
0.6863182554
 40
0.7500015659
 40
0.8068307061
 40
0.85645973
 40
0.8986722213
 40
0.9334380562
 40
0.9481137465
 40
0.9610778771
 40
0.9724710589
 40
0.9825128281
 40
0.991534766
 40
1.0
 40
1.0
 40
1.0
 40
1.0
 10
9.2549488825
 20
11.2180160762
 30
0.0
 10
9.2558820002
 20
11.2169040299
 30
0.0
 10
9.2577432604
 20
11.2147626134
 30
0.0
 10
9.260127228
 20
11.2122145622
 30
0.0
 10
9.2620011605
 20
11.2103350671
 30
0.0
 10
9.2633344194
 20
11.2090577653
 30
0.0
 10
9.2646116887
 20
11.2078951793
 30
0.0
 10
9.2658213754
 20
11.2068571513
 30
0.0
 10
9.2669526524
 20
11.2059521327
 30
0.0
 10
9.2679955451
 20
11.2051871936
 30
0.0
 10
9.2689412153
 20
11.2045676974
 30
0.0
 10
9.2697817575
 20
11.204097925
 30
0.0
 10
9.2704218719
 20
11.2038180826
 30
0.0
 10
9.2708764406
 20
11.2036809582
 30
0.0
 10
9.2711680372
 20
11.2036234372
 30
0.0
 10
9.2714296823
 20
11.2036053283
 30
0.0
 10
9.2716614322
 20
11.2036273148
 30
0.0
 10
9.2718627099
 20
11.2036906276
 30
0.0
 10
9.2719768298
 20
11.2037622559
 30
0.0
 10
9.2720261115
 20
11.2038036003
 30
0.0
  0
SPLINE
  5
3EF
100
AcDbEntity
  8
0
100
AcDbSpline
 62
7
  6
CONTINUOUS
 70
0
 71
3
 72
25
 73
21
 74
0
 42
0.0000001
 43
0.0000001
 44
0.0000000001
 40
0.0
 40
0.0
 40
0.0
 40
0.0
 40
0.1887637957
 40
0.3701851733
 40
0.4559661499
 40
0.5373780594
 40
0.6136875387
 40
0.6842305386
 40
0.7484219002
 40
0.8057674066
 40
0.8558797648
 40
0.8985032408
 40
0.916981308
 40
0.9335844655
 40
0.9483533698
 40
0.9613680257
 40
0.9727628352
 40
0.9827531368
 40
0.9916741695
 40
1.0
 40
1.0
 40
1.0
 40
1.0
 10
9.3156786628
 20
11.2374576141
 30
0.0
 10
9.3166476029
 20
11.2363028763
 30
0.0
 10
9.3185882099
 20
11.2340719002
 30
0.0
 10
9.3210777118
 20
11.2314133627
 30
0.0
 10
9.3230436067
 20
11.2294419338
 30
0.0
 10
9.324447551
 20
11.228096256
 30
0.0
 10
9.3257949039
 20
11.2268681799
 30
0.0
 10
9.327072685
 20
11.2257688584
 30
0.0
 10
9.3282687372
 20
11.2248079832
 30
0.0
 10
9.3293719156
 20
11.2239935517
 30
0.0
 10
9.3303721148
 20
11.2233322145
 30
0.0
 10
9.3311455084
 20
11.2228932065
 30
0.0
 10
9.3317072725
 20
11.2226289331
 30
0.0
 10
9.3320773934
 20
11.2224815474
 30
0.0
 10
9.3324160574
 20
11.2223755078
 30
0.0
 10
9.3327228242
 20
11.2223109922
 30
0.0
 10
9.3329974925
 20
11.2222881942
 30
0.0
 10
9.3332401274
 20
11.2223078798
 30
0.0
 10
9.3334502189
 20
11.2223712799
 30
0.0
 10
9.3335689694
 20
11.2224449929
 30
0.0
 10
9.3336198984
 20
11.2224877339
 30
0.0
  0
SPLINE
  5
3F0
100
AcDbEntity
  8
0
100
AcDbSpline
 62
7
  6
CONTINUOUS
 70
0
 71
3
 72
25
 73
21
 74
0
 42
0.0000001
 43
0.0000001
 44
0.0000000001
 40
0.0
 40
0.0
 40
0.0
 40
0.0
 40
0.1747567625
 40
0.3507688984
 40
0.4363479118
 40
0.5188245172
 40
0.5971626908
 40
0.6704041604
 40
0.7376816085
 40
0.7982316992
 40
0.851408427
 40
0.89670811
 40
0.9163013928
 40
0.9338269048
 40
0.9492945997
 40
0.9627458703
 40
0.9742789095
 40
0.9840777576
 40
0.9924716194
 40
1.0
 40
1.0
 40
1.0
 40
1.0
 10
9.4297223333
 20
11.1015456601
 30
0.0
 10
9.4308466032
 20
11.1002058075
 30
0.0
 10
9.4331625185
 20
11.0975658391
 30
0.0
 10
9.4361710024
 20
11.0943985123
 30
0.0
 10
9.4386189166
 20
11.0919761846
 30
0.0
 10
9.4404091741
 20
11.0902799107
 30
0.0
 10
9.4421470004
 20
11.088708733
 30
0.0
 10
9.4438096437
 20
11.087282251
 30
0.0
 10
9.4453756435
 20
11.0860178317
 30
0.0
 10
9.446825108
 20
11.0849303107
 30
0.0
 10
9.4481398702
 20
11.0840323084
 30
0.0
 10
9.4491536072
 20
11.0834228166
 30
0.0
 10
9.4498870871
 20
11.0830447614
 30
0.0
 10
9.4503671775
 20
11.0828283586
 30
0.0
 10
9.4508029742
 20
11.0826654133
 30
0.0
 10
9.4511935398
 20
11.0825563571
 30
0.0
 10
9.4515383097
 20
11.0825013667
 30
0.0
 10
9.4518375244
 20
11.0825012049
 30
0.0
 10
9.4520914298
 20
11.0825577971
 30
0.0
 10
9.4522325708
 20
11.082638742
 30
0.0
 10
9.4522902877
 20
11.0826871781
 30
0.0
  0
SPLINE
  5
3F1
100
AcDbEntity
  8
0
100
AcDbSpline
 62
7
  6
CONTINUOUS
 70
0
 71
3
 72
26
 73
22
 74
0
 42
0.0000001
 43
0.0000001
 44
0.0000000001
 40
0.0
 40
0.0
 40
0.0
 40
0.0
 40
0.0765165071
 40
0.1573322931
 40
0.3261502949
 40
0.4112309374
 40
0.4948217273
 40
0.5755309747
 40
0.6520442831
 40
0.7231446698
 40
0.7877275741
 40
0.8448199449
 40
0.893600329
 40
0.9146712306
 40
0.9334489299
 40
0.9498989927
 40
0.9640206285
 40
0.9758600604
 40
0.9855529369
 40
0.9933975386
 40
1.0
 40
1.0
 40
1.0
 40
1.0
 10
9.5359941161
 20
10.9748958812
 30
0.0
 10
9.5365778812
 20
10.9742001771
 30
0.0
 10
9.5377986255
 20
10.9727867155
 30
0.0
 10
9.5403990633
 20
10.9699187909
 30
0.0
 10
9.5431642459
 20
10.9670643886
 30
0.0
 10
9.546035793
 20
10.9642713528
 30
0.0
 10
9.5481992096
 20
10.962250947
 30
0.0
 10
9.550328853
 20
10.9603442993
 30
0.0
 10
9.5523884822
 20
10.9585826824
 30
0.0
 10
9.5543435199
 20
10.9569944377
 30
0.0
 10
9.5561615789
 20
10.9556045238
 30
0.0
 10
9.5578128231
 20
10.9544347438
 30
0.0
 10
9.5590825536
 20
10.9536218212
 30
0.0
 10
9.5599975549
 20
10.9531023315
 30
0.0
 10
9.5605924367
 20
10.9527974379
 30
0.0
 10
9.5611277639
 20
10.9525588199
 30
0.0
 10
9.5616015959
 20
10.952387215
 30
0.0
 10
9.5620127253
 20
10.9522829455
 30
0.0
 10
9.5623612318
 20
10.9522465769
 30
0.0
 10
9.562649228
 20
10.9522794074
 30
0.0
 10
9.5628075318
 20
10.9523584528
 30
0.0
 10
9.5628675604
 20
10.9524088276
 30
0.0
  0
SPLINE
  5
3F2
100
AcDbEntity
  8
0
100
AcDbSpline
 62
7
  6
CONTINUOUS
 70
0
 71
3
 72
30
 73
26
 74
0
 42
0.0000001
 43
0.0000001
 44
0.0000000001
 40
0.0
 40
0.0
 40
0.0
 40
0.0
 40
0.0641856841
 40
0.1358642892
 40
0.2134469698
 40
0.2952032025
 40
0.3793304239
 40
0.4640038498
 40
0.5474224147
 40
0.62784788
 40
0.7036326578
 40
0.7732468335
 40
0.8352989156
 40
0.8631006265
 40
0.8885669431
 40
0.9115777714
 40
0.9320278454
 40
0.9498341763
 40
0.9649408839
 40
0.977334227
 40
0.9870776069
 40
0.9910227997
 40
0.9944180298
 40
0.9973602243
 40
1.0
 40
1.0
 40
1.0
 40
1.0
 10
9.6272517648
 20
10.8661392505
 30
0.0
 10
9.6278063116
 20
10.8654783673
 30
0.0
 10
9.6290081207
 20
10.8641028683
 30
0.0
 10
9.6309574091
 20
10.8619974614
 30
0.0
 10
9.6331210138
 20
10.859769861
 30
0.0
 10
9.6354495279
 20
10.8574702466
 30
0.0
 10
9.6378902995
 20
10.855149554
 30
0.0
 10
9.6403889764
 20
10.8528581531
 30
0.0
 10
9.6428909427
 20
10.8506447399
 30
0.0
 10
9.645342504
 20
10.8485554764
 30
0.0
 10
9.6476918594
 20
10.8466332134
 30
0.0
 10
9.6498899088
 20
10.8449171337
 30
0.0
 10
9.6516152645
 20
10.8436446772
 30
0.0
 10
9.6528880236
 20
10.8427598368
 30
0.0
 10
9.6537423216
 20
10.8421927896
 30
0.0
 10
9.6545272978
 20
10.8417004968
 30
0.0
 10
9.6552388205
 20
10.8412855347
 30
0.0
 10
9.6558730355
 20
10.840950046
 30
0.0
 10
9.6564267923
 20
10.8406954034
 30
0.0
 10
9.6568971938
 20
10.8405228807
 30
0.0
 10
9.6572401752
 20
10.8404416125
 30
0.0
 10
9.6574698707
 20
10.8404263921
 30
0.0
 10
9.6576082996
 20
10.8404374469
 30
0.0
 10
9.6577253363
 20
10.8404705685
 30
0.0
 10
9.6577907766
 20
10.8405097209
 30
0.0
 10
9.657817956
 20
10.8405325289
 30
0.0
  0
SPLINE
  5
3F3
100
AcDbEntity
  8
0
100
AcDbSpline
 62
7
  6
CONTINUOUS
 70
0
 71
3
 72
19
 73
15
 74
0
 42
0.0000001
 43
0.0000001
 44
0.0000000001
 40
0.0
 40
0.0
 40
0.0
 40
0.0
 40
0.0417714988
 40
0.0914164093
 40
0.1480694277
 40
0.210726809
 40
0.3495402363
 40
0.4982651478
 40
0.6469453185
 40
0.7858977168
 40
0.8488920757
 40
0.9061802729
 40
0.9568268597
 40
1.0
 40
1.0
 40
1.0
 40
1.0
 10
9.6972762215
 20
10.7826873526
 30
0.0
 10
9.6976369773
 20
10.7822574206
 30
0.0
 10
9.698450323
 20
10.7813365408
 30
0.0
 10
9.6998126105
 20
10.7798864614
 30
0.0
 10
9.7014047767
 20
10.7782681346
 30
0.0
 10
9.7038819656
 20
10.7758407177
 30
0.0
 10
9.7073183005
 20
10.7726257071
 30
0.0
 10
9.7116894687
 20
10.7687207257
 30
0.0
 10
9.7161434467
 20
10.7649076131
 30
0.0
 10
9.7197881581
 20
10.7619219283
 30
0.0
 10
9.7225277617
 20
10.7597708916
 30
0.0
 10
9.7243567485
 20
10.7583817533
 30
0.0
 10
9.7259977742
 20
10.7571861142
 30
0.0
 10
9.7270358454
 20
10.7564705177
 30
0.0
 10
9.727520203
 20
10.7561513355
 30
0.0
  0
SPLINE
  5
3F4
100
AcDbEntity
  8
0
100
AcDbSpline
 62
7
  6
CONTINUOUS
 70
0
 71
3
 72
17
 73
13
 74
0
 42
0.0000001
 43
0.0000001
 44
0.0000000001
 40
0.0
 40
0.0
 40
0.0
 40
0.0
 40
0.2129979955
 40
0.4013351368
 40
0.5642756895
 40
0.7013110688
 40
0.8121860086
 40
0.8972026979
 40
0.9304408691
 40
0.9580005844
 40
0.9806960136
 40
1.0
 40
1.0
 40
1.0
 40
1.0
 10
9.727520203
 20
10.7561513355
 30
0.0
 10
9.7277308183
 20
10.7560125441
 30
0.0
 10
9.7281301298
 20
10.7557547347
 30
0.0
 10
9.7287004148
 20
10.7554062818
 30
0.0
 10
9.7292034806
 20
10.7551209163
 30
0.0
 10
9.7296370787
 20
10.7548995617
 30
0.0
 10
9.7299992481
 20
10.7547433187
 30
0.0
 10
9.7302587925
 20
10.7546603907
 30
0.0
 10
9.7304296351
 20
10.7546328985
 30
0.0
 10
9.7305289377
 20
10.7546308634
 30
0.0
 10
9.7306107249
 20
10.7546458328
 30
0.0
 10
9.7306557032
 20
10.7546698302
 30
0.0
 10
9.7306732147
 20
10.7546845246
 30
0.0
  0
LINE
  5
3F5
100
AcDbEntity
  8
0
100
AcDbLine
 62
7
  6
CONTINUOUS
 10
9.7412954352
 20
10.7302272965
 11
9.7428622382
 21
10.7285781328
  0
SPLINE
  5
3F6
100
AcDbEntity
  8
0
100
AcDbSpline
 62
7
  6
CONTINUOUS
 70
0
 71
3
 72
20
 73
16
 74
0
 42
0.0000001
 43
0.0000001
 44
0.0000000001
 40
0.0
 40
0.0
 40
0.0
 40
0.0
 40
0.0432237912
 40
0.0950341502
 40
0.1543639162
 40
0.220007603
 40
0.3649287551
 40
0.5186442477
 40
0.6696755338
 40
0.7406673231
 40
0.8068540074
 40
0.8669808043
 40
0.9198858018
 40
0.9645251239
 40
1.0
 40
1.0
 40
1.0
 40
1.0
 10
9.7428622382
 20
10.7285781328
 30
0.0
 10
9.7432909123
 20
10.7281547751
 30
0.0
 10
9.7442463296
 20
10.7272370447
 30
0.0
 10
9.7458219199
 20
10.7257716689
 30
0.0
 10
9.7476460916
 20
10.7241149466
 30
0.0
 10
9.7504542021
 20
10.7216114378
 30
0.0
 10
9.7542828579
 20
10.7182759392
 30
0.0
 10
9.759054998
 20
10.7142122194
 30
0.0
 10
9.7630780353
 20
10.7108586582
 30
0.0
 10
9.7661869311
 20
10.7083143097
 30
0.0
 10
9.7683270661
 20
10.7065870005
 30
0.0
 10
9.7702836822
 20
10.7050338483
 30
0.0
 10
9.772018973
 20
10.7036850865
 30
0.0
 10
9.7734986989
 20
10.702567779
 30
0.0
 10
9.7744033958
 20
10.7019128275
 30
0.0
 10
9.7748097349
 20
10.7016310522
 30
0.0
  0
LINE
  5
3F7
100
AcDbEntity
  8
0
100
AcDbLine
 62
7
  6
CONTINUOUS
 10
9.7748097349
 20
10.7016310522
 11
9.7764707435
 21
10.7007172048
  0
SPLINE
  5
3F8
100
AcDbEntity
  8
0
100
AcDbSpline
 62
7
  6
CONTINUOUS
 70
0
 71
3
 72
17
 73
13
 74
0
 42
0.0000001
 43
0.0000001
 44
0.0000000001
 40
0.0
 40
0.0
 40
0.0
 40
0.0
 40
0.0193041089
 40
0.0419996374
 40
0.0695594266
 40
0.1027976511
 40
0.1878143934
 40
0.2986893034
 40
0.4357245721
 40
0.5986650094
 40
0.7870020767
 40
1.0
 40
1.0
 40
1.0
 40
1.0
 10
8.912303029
 20
11.7299801335
 30
0.0
 10
8.9122855172
 20
11.7299654398
 30
0.0
 10
8.9122540742
 20
11.7299253124
 30
0.0
 10
8.9122251301
 20
11.7298473682
 30
0.0
 10
8.9122098904
 20
11.7297492222
 30
0.0
 10
8.9122072978
 20
11.7295762036
 30
0.0
 10
8.9122438951
 20
11.7293062059
 30
0.0
 10
8.9123348719
 20
11.7289224133
 30
0.0
 10
8.9124775668
 20
11.728456972
 30
0.0
 10
8.9126712363
 20
11.7279120042
 30
0.0
 10
8.9129153615
 20
11.7272898847
 30
0.0
 10
8.913099911
 20
11.7268518782
 30
0.0
 10
8.9132000189
 20
11.7266203654
 30
0.0
  0
SPLINE
  5
3F9
100
AcDbEntity
  8
0
100
AcDbSpline
 62
7
  6
CONTINUOUS
 70
0
 71
3
 72
19
 73
15
 74
0
 42
0.0000001
 43
0.0000001
 44
0.0000000001
 40
0.0
 40
0.0
 40
0.0
 40
0.0
 40
0.0431729029
 40
0.0938193057
 40
0.1511073672
 40
0.2141016065
 40
0.3530539235
 40
0.5017341557
 40
0.6504592326
 40
0.7892728686
 40
0.8519303557
 40
0.9085834646
 40
0.9582284513
 40
1.0
 40
1.0
 40
1.0
 40
1.0
 10
8.9132000189
 20
11.7266203654
 30
0.0
 10
8.9134302425
 20
11.7260879426
 30
0.0
 10
8.9139547055
 20
11.7249413831
 30
0.0
 10
8.9148472156
 20
11.7231176712
 30
0.0
 10
8.9158976473
 20
11.7210752514
 30
0.0
 10
8.9175402766
 20
11.718003744
 30
0.0
 10
8.9198477058
 20
11.7138959405
 30
0.0
 10
8.9228294675
 20
11.7088474791
 30
0.0
 10
8.9259160846
 20
11.7038646134
 30
0.0
 10
8.9284855451
 20
11.6999221921
 30
0.0
 10
8.9304459301
 20
11.6970611121
 30
0.0
 10
8.9317631978
 20
11.6952121092
 30
0.0
 10
8.9329546918
 20
11.6936187097
 30
0.0
 10
8.9337203475
 20
11.6926578087
 30
0.0
 10
8.9340811042
 20
11.6922278756
 30
0.0
  0
LINE
  5
3FA
100
AcDbEntity
  8
0
100
AcDbLine
 62
7
  6
CONTINUOUS
 10
8.8671082515
 20
11.7844532216
 11
8.8677197627
 21
11.7826588066
  0
SPLINE
  5
3FB
100
AcDbEntity
  8
0
100
AcDbSpline
 62
7
  6
CONTINUOUS
 70
0
 71
3
 72
20
 73
16
 74
0
 42
0.0000001
 43
0.0000001
 44
0.0000000001
 40
0.0
 40
0.0
 40
0.0
 40
0.0
 40
0.0354743168
 40
0.0801129865
 40
0.1330172928
 40
0.1931433654
 40
0.2593293515
 40
0.3303204799
 40
0.4813507515
 40
0.6350658877
 40
0.7799876425
 40
0.8456320549
 40
0.904962854
 40
0.9567745592
 40
1.0
 40
1.0
 40
1.0
 40
1.0
 10
8.8677197627
 20
11.7826588066
 30
0.0
 10
8.8679266918
 20
11.7822097207
 30
0.0
 10
8.8684145823
 20
11.7812050583
 30
0.0
 10
8.8692579445
 20
11.7795538281
 30
0.0
 10
8.8702848637
 20
11.7776107276
 30
0.0
 10
8.8714746338
 20
11.7754141746
 30
0.0
 10
8.8728040464
 20
11.7730066494
 30
0.0
 10
8.874769855
 20
11.769503214
 30
0.0
 10
8.877373841
 20
11.7649590091
 30
0.0
 10
8.8805471202
 20
11.7595537537
 30
0.0
 10
8.8831670915
 20
11.7552040753
 30
0.0
 10
8.8851449429
 20
11.7520038869
 30
0.0
 10
8.8864597424
 20
11.7499197166
 30
0.0
 10
8.8876292756
 20
11.748113565
 30
0.0
 10
8.8883671714
 20
11.7470132702
 30
0.0
 10
8.888709667
 20
11.7465175759
 30
0.0
  0
LINE
  5
3FC
100
AcDbEntity
  8
0
100
AcDbLine
 62
7
  6
CONTINUOUS
 10
8.888709667
 20
11.7465175759
 11
8.8900618905
 21
11.7446879317
  0
SPLINE
  5
3FD
100
AcDbEntity
  8
0
100
AcDbSpline
 62
7
  6
CONTINUOUS
 70
0
 71
3
 72
38
 73
34
 74
0
 42
0.0000001
 43
0.0000001
 44
0.0000000001
 40
0.0
 40
0.0
 40
0.0
 40
0.0
 40
0.0312309238
 40
0.0468543094
 40
0.0624800319
 40
0.0781076249
 40
0.0937369729
 40
0.1093678557
 40
0.1249993161
 40
0.1562635123
 40
0.1875295837
 40
0.2187967243
 40
0.2500643391
 40
0.3125913577
 40
0.3438572158
 40
0.3751219023
 40
0.4376373967
 40
0.4688958499
 40
0.5001516718
 40
0.5626442521
 40
0.6251238548
 40
0.6563655042
 40
0.6876047576
 40
0.7188419967
 40
0.7500776005
 40
0.7813122706
 40
0.8125467938
 40
0.8437817981
 40
0.8750183227
 40
0.9062574902
 40
0.9374996375
 40
0.9687479212
 40
1.0
 40
1.0
 40
1.0
 40
1.0
 10
6.0652568553
 20
8.8492420879
 30
0.0
 10
6.0699980329
 20
8.8575110768
 30
0.0
 10
6.0776063605
 20
8.8696364903
 30
0.0
 10
6.0884293725
 20
8.8853374374
 30
0.0
 10
6.0968559013
 20
8.8969017464
 30
0.0
 10
6.1055499682
 20
8.9082676832
 30
0.0
 10
6.1144866494
 20
8.9194458261
 30
0.0
 10
6.1236447835
 20
8.9304446072
 30
0.0
 10
6.1361236539
 20
8.9448835982
 30
0.0
 10
6.1521938078
 20
8.9625203193
 30
0.0
 10
6.1721378583
 20
8.983063062
 30
0.0
 10
6.1927058884
 20
9.0029832067
 30
0.0
 10
6.2209140535
 20
9.0287029435
 30
0.0
 10
6.2502568034
 20
9.0531566865
 30
0.0
 10
6.280679748
 20
9.0762139376
 30
0.0
 10
6.3118036865
 20
9.0983090652
 30
0.0
 10
6.3439684136
 20
9.1189066564
 30
0.0
 10
6.3771060299
 20
9.1378413576
 30
0.0
 10
6.4108745607
 20
9.1556125623
 30
0.0
 10
6.4542386569
 20
9.1755464513
 30
0.0
 10
6.4989993145
 20
9.1921200313
 30
0.0
 10
6.5355138913
 20
9.2031622966
 30
0.0
 10
6.563224089
 20
9.2102892985
 30
0.0
 10
6.59121468
 20
9.2162120137
 30
0.0
 10
6.6194402251
 20
9.2208839296
 30
0.0
 10
6.6478495785
 20
9.2242601723
 30
0.0
 10
6.6763865144
 20
9.2262985184
 30
0.0
 10
6.7049896073
 20
9.2269601857
 30
0.0
 10
6.7335924976
 20
9.2262099125
 30
0.0
 10
6.7621237036
 20
9.2240166743
 30
0.0
 10
6.790508219
 20
9.2203549368
 30
0.0
 10
6.8186643228
 20
9.2152044514
 30
0.0
 10
6.8372281598
 20
9.2107690353
 30
0.0
 10
6.8464413857
 20
9.2083003236
 30
0.0
  0
SPLINE
  5
3FE
100
AcDbEntity
  8
0
100
AcDbSpline
 62
7
  6
CONTINUOUS
 70
0
 71
3
 72
25
 73
21
 74
0
 42
0.0000001
 43
0.0000001
 44
0.0000000001
 40
0.0
 40
0.0
 40
0.0
 40
0.0
 40
0.1680374746
 40
0.3413381764
 40
0.4267587847
 40
0.5096949268
 40
0.5889717327
 40
0.6634929354
 40
0.7322567976
 40
0.7943685492
 40
0.8490557998
 40
0.8956912375
 40
0.9158471875
 40
0.9338453974
 40
0.9496772206
 40
0.9633679317
 40
0.9749934429
 40
0.9847201111
 40
0.9928660559
 40
1.0
 40
1.0
 40
1.0
 40
1.0
 10
9.3839813903
 20
11.0642411215
 30
0.0
 10
9.3851480606
 20
11.062850738
 30
0.0
 10
9.3875877737
 20
11.0600846192
 30
0.0
 10
9.3907780247
 20
11.056755643
 30
0.0
 10
9.3934125182
 20
11.0541711271
 30
0.0
 10
9.395361506
 20
11.0523389332
 30
0.0
 10
9.3972637474
 20
11.0506298236
 30
0.0
 10
9.3990912846
 20
11.0490676411
 30
0.0
 10
9.400817648
 20
11.0476737071
 30
0.0
 10
9.4024181985
 20
11.0464664706
 30
0.0
 10
9.4038703702
 20
11.0454618279
 30
0.0
 10
9.4049884954
 20
11.0447731325
 30
0.0
 10
9.405795984
 20
11.0443404464
 30
0.0
 10
9.4063229084
 20
11.0440900387
 30
0.0
 10
9.4067994343
 20
11.0438982119
 30
0.0
 10
9.4072242378
 20
11.0437654322
 30
0.0
 10
9.4075965691
 20
11.0436920076
 30
0.0
 10
9.407916646
 20
11.0436785264
 30
0.0
 10
9.4081854192
 20
11.0437270078
 30
0.0
 10
9.4083338942
 20
11.0438080482
 30
0.0
 10
9.4083929254
 20
11.0438575748
 30
0.0
  0
SPLINE
  5
3FF
100
AcDbEntity
  8
0
100
AcDbSpline
 62
7
  6
CONTINUOUS
 70
0
 71
3
 72
28
 73
24
 74
0
 42
0.0000001
 43
0.0000001
 44
0.0000000001
 40
0.0
 40
0.0
 40
0.0
 40
0.0
 40
0.0667241936
 40
0.1403129155
 40
0.2192030413
 40
0.3017103522
 40
0.3860942491
 40
0.4706038597
 40
0.5535197134
 40
0.6331894749
 40
0.7080528047
 40
0.7766662486
 40
0.8377223088
 40
0.8650529658
 40
0.8900795603
 40
0.9126912609
 40
0.9327919885
 40
0.9503088134
 40
0.965194645
 40
0.9774486952
 40
0.9826105995
 40
0.9871544774
 40
1.0
 40
1.0
 40
1.0
 40
1.0
 10
9.4814832519
 20
10.9480429277
 30
0.0
 10
9.4820479639
 20
10.9473699301
 30
0.0
 10
9.4832621919
 20
10.945977037
 30
0.0
 10
9.4852194151
 20
10.9438555039
 30
0.0
 10
9.4873710934
 20
10.9416318393
 30
0.0
 10
9.4896699787
 20
10.9393538997
 30
0.0
 10
9.4920660701
 20
10.9370698453
 30
0.0
 10
9.4945080475
 20
10.9348269721
 30
0.0
 10
9.4969445731
 20
10.9326707364
 30
0.0
 10
9.4993253652
 20
10.9306440239
 30
0.0
 10
9.501602072
 20
10.9287864713
 30
0.0
 10
9.5037289954
 20
10.9271342018
 30
0.0
 10
9.5053975916
 20
10.9259132187
 30
0.0
 10
9.50662815
 20
10.9250671093
 30
0.0
 10
9.5074540544
 20
10.9245263377
 30
0.0
 10
9.5082133411
 20
10.9240581546
 30
0.0
 10
9.5089022481
 20
10.9236649448
 30
0.0
 10
9.5095171133
 20
10.9233484877
 30
0.0
 10
9.5100554205
 20
10.9231104088
 30
0.0
 10
9.510457249
 20
10.9229703867
 30
0.0
 10
9.5107400424
 20
10.9229034436
 30
0.0
 10
9.5110292027
 20
10.9228593783
 30
0.0
 10
9.5112923818
 20
10.9228750977
 30
0.0
 10
9.511421958
 20
10.9229837987
 30
0.0
  0
SPLINE
  5
400
100
AcDbEntity
  8
0
100
AcDbSpline
 62
7
  6
CONTINUOUS
 70
0
 71
3
 72
21
 73
17
 74
0
 42
0.0000001
 43
0.0000001
 44
0.0000000001
 40
0.0
 40
0.0
 40
0.0
 40
0.0
 40
0.0394721977
 40
0.0878173217
 40
0.144084301
 40
0.2071432182
 40
0.2757323909
 40
0.3484976168
 40
0.5008822517
 40
0.6528503569
 40
0.7251720849
 40
0.7932729975
 40
0.8559062506
 40
0.9119139085
 40
0.9602492176
 40
1.0
 40
1.0
 40
1.0
 40
1.0
 10
9.5509540109
 20
10.8652509011
 30
0.0
 10
9.5513072248
 20
10.8648299571
 30
0.0
 10
9.552121352
 20
10.8639172748
 30
0.0
 10
9.5535057792
 20
10.8624655781
 30
0.0
 10
9.5551569894
 20
10.860815462
 30
0.0
 10
9.5570410477
 20
10.859000407
 30
0.0
 10
9.559119616
 20
10.8570566854
 30
0.0
 10
9.5621415521
 20
10.8543016285
 30
0.0
 10
9.5660804209
 20
10.8508300812
 30
0.0
 10
9.570080739
 20
10.8474391256
 30
0.0
 10
9.5732267266
 20
10.8448561196
 30
0.0
 10
9.5754319544
 20
10.8430874568
 30
0.0
 10
9.5774812914
 20
10.8414877687
 30
0.0
 10
9.5793364744
 20
10.8400869181
 30
0.0
 10
9.5809623159
 20
10.8389117296
 30
0.0
 10
9.5819767399
 20
10.838222099
 30
0.0
 10
9.5824422961
 20
10.8379229527
 30
0.0
  0
SPLINE
  5
401
100
AcDbEntity
  8
0
100
AcDbSpline
 62
7
  6
CONTINUOUS
 70
0
 71
3
 72
16
 73
12
 74
0
 42
0.0000001
 43
0.0000001
 44
0.0000000001
 40
0.0
 40
0.0
 40
0.0
 40
0.0
 40
0.2135422103
 40
0.4018995812
 40
0.5645514881
 40
0.7011810788
 40
0.8117305428
 40
0.8966408785
 40
0.929973832
 40
0.9577405587
 40
1.0
 40
1.0
 40
1.0
 40
1.0
 10
9.5824422961
 20
10.8379229527
 30
0.0
 10
9.5826019535
 20
10.8378203637
 30
0.0
 10
9.5829042626
 20
10.8376300927
 30
0.0
 10
9.5833354931
 20
10.8373735122
 30
0.0
 10
9.5837150919
 20
10.8371642533
 30
0.0
 10
9.5840417706
 20
10.8370027436
 30
0.0
 10
9.5843145911
 20
10.8368896105
 30
0.0
 10
9.5845098531
 20
10.8368304753
 30
0.0
 10
9.5846389046
 20
10.8368121708
 30
0.0
 10
9.5847302952
 20
10.8368114619
 30
0.0
 10
9.5847945895
 20
10.836829937
 30
0.0
 10
9.5848233579
 20
10.8368540793
 30
0.0
  0
LINE
  5
402
100
AcDbEntity
  8
0
100
AcDbLine
 62
7
  6
CONTINUOUS
 10
9.5831652311
 20
10.8268630637
 11
9.5850679463
 21
10.8250856269
  0
SPLINE
  5
403
100
AcDbEntity
  8
0
100
AcDbSpline
 62
7
  6
CONTINUOUS
 70
0
 71
3
 72
17
 73
13
 74
0
 42
0.0000001
 43
0.0000001
 44
0.0000000001
 40
0.0
 40
0.0
 40
0.0
 40
0.0
 40
0.0413116981
 40
0.0913727604
 40
0.2134513801
 40
0.3565123156
 40
0.5096308452
 40
0.6614050576
 40
0.8005441696
 40
0.916463768
 40
0.9627745206
 40
1.0
 40
1.0
 40
1.0
 40
1.0
 10
9.5850679463
 20
10.8250856269
 30
0.0
 10
9.585499379
 20
10.8247027922
 30
0.0
 10
9.5864586048
 20
10.8238616671
 30
0.0
 10
9.5887119493
 20
10.8219112121
 30
0.0
 10
9.5920587063
 20
10.8190533817
 30
0.0
 10
9.5965161254
 20
10.8152805387
 30
0.0
 10
9.6013022778
 20
10.8112543592
 30
0.0
 10
9.6060566869
 20
10.8072755359
 30
0.0
 10
9.6104238897
 20
10.8036433489
 30
0.0
 10
9.6136706637
 20
10.8009667827
 30
0.0
 10
9.6158318709
 20
10.7992105152
 30
0.0
 10
9.6167420953
 20
10.798481201
 30
0.0
 10
9.6171499181
 20
10.7981589949
 30
0.0
  0
LINE
  5
404
100
AcDbEntity
  8
0
100
AcDbLine
 62
7
  6
CONTINUOUS
 10
9.6171499181
 20
10.7981589949
 11
9.6188550103
 21
10.7969169403
  0
SPLINE
  5
405
100
AcDbEntity
  8
0
100
AcDbSpline
 62
9
  6
CONTINUOUS
 70
0
 71
3
 72
92
 73
88
 74
0
 42
0.0000001
 43
0.0000001
 44
0.0000000001
 40
0.0
 40
0.0
 40
0.0
 40
0.0
 40
0.0691208942
 40
0.1351895878
 40
0.1981576836
 40
0.2580397065
 40
0.3148986831
 40
0.3688136814
 40
0.4199169738
 40
0.4683432844
 40
0.5142070937
 40
0.5576006861
 40
0.5783980252
 40
0.5986017206
 40
0.6372077539
 40
0.6733876168
 40
0.6905633284
 40
0.7071288721
 40
0.7230863303
 40
0.7384420928
 40
0.7532215138
 40
0.7674557578
 40
0.7811720199
 40
0.7943848224
 40
0.8070842851
 40
0.8132393047
 40
0.8192643112
 40
0.8251609357
 40
0.830937237
 40
0.842165051
 40
0.8530162828
 40
0.8583293086
 40
0.8635759635
 40
0.8687553271
 40
0.8738645017
 40
0.8788988828
 40
0.8838513248
 40
0.8886973496
 40
0.893400791
 40
0.8979320463
 40
0.9022775855
 40
0.9064524856
 40
0.9105063535
 40
0.9145092916
 40
0.9185473097
 40
0.9206110556
 40
0.9227180858
 40
0.9270449448
 40
0.9357906834
 40
0.9399409164
 40
0.9437748527
 40
0.9472349728
 40
0.9503402144
 40
0.9518044508
 40
0.9532514079
 40
0.9547274299
 40
0.9562711383
 40
0.9578950576
 40
0.959594441
 40
0.9631480066
 40
0.9667373755
 40
0.9684713812
 40
0.9701309761
 40
0.9732220492
 40
0.9760249105
 40
0.9808420196
 40
0.9847514476
 40
0.9864276521
 40
0.9879604015
 40
0.9893950486
 40
0.9907852385
 40
0.9921663483
 40
0.9935304853
 40
0.994842968
 40
0.9960540052
 40
0.9971075434
 40
0.997955295
 40
0.9986079946
 40
0.9991059591
 40
0.9993069733
 40
0.9994793814
 40
0.9996246486
 40
0.999743407
 40
0.9998358385
 40
0.9999028567
 40
0.9999504909
 40
1.0
 40
1.0
 40
1.0
 40
1.0
 10
6.8464413857
 20
9.2083003236
 30
0.0
 10
6.8482444388
 20
9.2052516063
 30
0.0
 10
6.8517115465
 20
9.199253369
 30
0.0
 10
6.8565960132
 20
9.190350021
 30
0.0
 10
6.8610400162
 20
9.1817482363
 30
0.0
 10
6.8650482009
 20
9.1734561412
 30
0.0
 10
6.8686373392
 20
9.1654803624
 30
0.0
 10
6.8718250414
 20
9.1578209727
 30
0.0
 10
6.8746447264
 20
9.150479892
 30
0.0
 10
6.8771321794
 20
9.1434560768
 30
0.0
 10
6.8793196791
 20
9.1367476224
 30
0.0
 10
6.8809340579
 20
9.1313434097
 30
0.0
 10
6.8820959322
 20
9.1271776458
 30
0.0
 10
6.8831431159
 20
9.123234919
 30
0.0
 10
6.8842965272
 20
9.1185052028
 30
0.0
 10
6.8852584598
 20
9.1138907317
 30
0.0
 10
6.8858784215
 20
9.1103615096
 30
0.0
 10
6.8862610112
 20
9.1078434303
 30
0.0
 10
6.8865677373
 20
9.1054088995
 30
0.0
 10
6.8867953553
 20
9.1030576181
 30
0.0
 10
6.8869514249
 20
9.100789076
 30
0.0
 10
6.88704698
 20
9.098601333
 30
0.0
 10
6.8870928909
 20
9.0964923506
 30
0.0
 10
6.8870981017
 20
9.0944615085
 30
0.0
 10
6.8870570875
 20
9.0928184573
 30
0.0
 10
6.8869900441
 20
9.0915452423
 30
0.0
 10
6.8869223724
 20
9.0906213232
 30
0.0
 10
6.8868341304
 20
9.0897186506
 30
0.0
 10
6.8866986105
 20
9.0885529406
 30
0.0
 10
6.88651618
 20
9.0871373592
 30
0.0
 10
6.8863700544
 20
9.0857406432
 30
0.0
 10
6.8863145309
 20
9.0846446179
 30
0.0
 10
6.8863008446
 20
9.0838380864
 30
0.0
 10
6.8863106059
 20
9.0830419692
 30
0.0
 10
6.8863402725
 20
9.0822572638
 30
0.0
 10
6.8863856814
 20
9.0814849734
 30
0.0
 10
6.8864444079
 20
9.0807271417
 30
0.0
 10
6.8865046106
 20
9.0799864622
 30
0.0
 10
6.8865487435
 20
9.0792661551
 30
0.0
 10
6.8865603677
 20
9.078569998
 30
0.0
 10
6.8865226681
 20
9.0779013236
 30
0.0
 10
6.886417302
 20
9.0772641298
 30
0.0
 10
6.8862378569
 20
9.0766616448
 30
0.0
 10
6.8859792969
 20
9.0760960437
 30
0.0
 10
6.8856955029
 20
9.0756604386
 30
0.0
 10
6.8854279105
 20
9.075335457
 30
0.0
 10
6.8851270092
 20
9.0750202352
 30
0.0
 10
6.8845419347
 20
9.0745057192
 30
0.0
 10
6.8838255394
 20
9.0739893054
 30
0.0
 10
6.8831443672
 20
9.0734686072
 30
0.0
 10
6.8827029774
 20
9.0730811859
 30
0.0
 10
6.8823452903
 20
9.0726839529
 30
0.0
 10
6.8821319384
 20
9.07232655
 30
0.0
 10
6.8820368579
 20
9.0720319377
 30
0.0
 10
6.8820047709
 20
9.071808168
 30
0.0
 10
6.8820150313
 20
9.0715782649
 30
0.0
 10
6.8820641679
 20
9.0713446413
 30
0.0
 10
6.882144329
 20
9.0711080256
 30
0.0
 10
6.882286703
 20
9.0707853078
 30
0.0
 10
6.8825080532
 20
9.0703891529
 30
0.0
 10
6.8827489878
 20
9.0700034191
 30
0.0
 10
6.8829356832
 20
9.0696981178
 30
0.0
 10
6.8831021272
 20
9.069410485
 30
0.0
 10
6.8832835044
 20
9.0690682972
 30
0.0
 10
6.8835121653
 20
9.0685690339
 30
0.0
 10
6.8837077417
 20
9.0680097036
 30
0.0
 10
6.8837976135
 20
9.0674795682
 30
0.0
 10
6.8837854855
 20
9.0671137414
 30
0.0
 10
6.8837398367
 20
9.0668790396
 30
0.0
 10
6.8836570779
 20
9.0666700016
 30
0.0
 10
6.8835366395
 20
9.066489458
 30
0.0
 10
6.8833886177
 20
9.0663366876
 30
0.0
 10
6.88322657
 20
9.0662058867
 30
0.0
 10
6.8830621291
 20
9.0660932457
 30
0.0
 10
6.8829073656
 20
9.0659950423
 30
0.0
 10
6.8827732558
 20
9.0659086777
 30
0.0
 10
6.8826699038
 20
9.0658277406
 30
0.0
 10
6.8826000744
 20
9.0657521769
 30
0.0
 10
6.8825622166
 20
9.0656937253
 30
0.0
 10
6.8825432191
 20
9.0656532648
 30
0.0
 10
6.8825337656
 20
9.0656284014
 30
0.0
 10
6.8825270791
 20
9.065607048
 30
0.0
 10
6.8825222666
 20
9.065589434
 30
0.0
 10
6.8825182358
 20
9.0655757394
 30
0.0
 10
6.882514429
 20
9.0655658491
 30
0.0
 10
6.8825081538
 20
9.0655593102
 30
0.0
 10
6.8825026305
 20
9.0655596837
 30
0.0
 10
6.8825001795
 20
9.0655603387
 30
0.0
  0
SPLINE
  5
406
100
AcDbEntity
  8
0
100
AcDbSpline
 62
9
  6
CONTINUOUS
 70
0
 71
3
 72
93
 73
89
 74
0
 42
0.0000001
 43
0.0000001
 44
0.0000000001
 40
0.0
 40
0.0
 40
0.0
 40
0.0
 40
0.1042927785
 40
0.2043185965
 40
0.2526772606
 40
0.2999052831
 40
0.3459581688
 40
0.3907902137
 40
0.4343750208
 40
0.4766958477
 40
0.5177515971
 40
0.5575804218
 40
0.5962175058
 40
0.6150599436
 40
0.6335566608
 40
0.651678547
 40
0.6694136949
 40
0.6867999349
 40
0.7038878443
 40
0.720739379
 40
0.7373680804
 40
0.7455501069
 40
0.753610475
 40
0.7615244377
 40
0.7692672074
 40
0.7768150796
 40
0.7841617455
 40
0.7913150105
 40
0.7982830933
 40
0.8050762352
 40
0.8117060083
 40
0.8246262055
 40
0.8310253901
 40
0.8374346537
 40
0.8438683759
 40
0.8503027194
 40
0.856715545
 40
0.859909903
 40
0.8630874322
 40
0.8662327259
 40
0.8693308425
 40
0.8754107244
 40
0.8784285813
 40
0.8814383725
 40
0.8844381334
 40
0.8874621077
 40
0.8905721243
 40
0.8938075682
 40
0.8971693754
 40
0.9006305978
 40
0.904079236
 40
0.9057584894
 40
0.9073922089
 40
0.9105365478
 40
0.913546466
 40
0.9192366942
 40
0.9219052885
 40
0.9244475076
 40
0.9291834815
 40
0.9313960319
 40
0.933517244
 40
0.9355574145
 40
0.9375280091
 40
0.9412896483
 40
0.9448479773
 40
0.9482574787
 40
0.9548464918
 40
0.9580920456
 40
0.961271721
 40
0.9672718951
 40
0.9700462976
 40
0.9726640717
 40
0.9751360017
 40
0.9775032558
 40
0.9821444645
 40
0.9866956132
 40
0.9888416426
 40
0.9908518262
 40
0.9926948407
 40
0.9943395721
 40
0.9957653134
 40
0.9969692996
 40
0.9979507223
 40
0.9987105683
 40
0.9992655893
 40
0.9996470319
 40
0.9998818136
 40
1.0
 40
1.0
 40
1.0
 40
1.0
 10
6.3801361092
 20
8.8073439923
 30
0.0
 10
6.3885710706
 20
8.8094433927
 30
0.0
 10
6.4050323571
 20
8.8138155458
 30
0.0
 10
6.4252285015
 20
8.8197916692
 30
0.0
 10
6.4407754535
 20
8.8247009368
 30
0.0
 10
6.4519935359
 20
8.828377531
 30
0.0
 10
6.4628960294
 20
8.8320712688
 30
0.0
 10
6.4734779855
 20
8.8357633272
 30
0.0
 10
6.4837355639
 20
8.8394396147
 30
0.0
 10
6.4936670645
 20
8.8430919102
 30
0.0
 10
6.503264562
 20
8.8467439157
 30
0.0
 10
6.5125233348
 20
8.8504204438
 30
0.0
 10
6.5200069275
 20
8.8535473203
 30
0.0
 10
6.5258230867
 20
8.8560513294
 30
0.0
 10
6.5300570436
 20
8.8579062076
 30
0.0
 10
6.5341963132
 20
8.8597470241
 30
0.0
 10
6.5382415688
 20
8.861571365
 30
0.0
 10
6.5421910025
 20
8.8633982554
 30
0.0
 10
6.5460484377
 20
8.8652477256
 30
0.0
 10
6.5498226795
 20
8.8671237272
 30
0.0
 10
6.5529108641
 20
8.8687113426
 30
0.0
 10
6.5553518435
 20
8.8699552567
 30
0.0
 10
6.557152507
 20
8.8708559021
 30
0.0
 10
6.5589286623
 20
8.8717235139
 30
0.0
 10
6.5606742789
 20
8.87255614
 30
0.0
 10
6.5623854184
 20
8.8733509969
 30
0.0
 10
6.5640590909
 20
8.8741096711
 30
0.0
 10
6.5656937832
 20
8.8748371654
 30
0.0
 10
6.5672894299
 20
8.8755388722
 30
0.0
 10
6.5688475059
 20
8.8762176201
 30
0.0
 10
6.570863561
 20
8.8770870839
 30
0.0
 10
6.572849958
 20
8.8779427722
 30
0.0
 10
6.5748004617
 20
8.8788339697
 30
0.0
 10
6.5762482097
 20
8.879524093
 30
0.0
 10
6.5776864728
 20
8.8802403115
 30
0.0
 10
6.5791179742
 20
8.8809705038
 30
0.0
 10
6.5803046945
 20
8.8815863572
 30
0.0
 10
6.5812463545
 20
8.8820850288
 30
0.0
 10
6.5819456279
 20
8.8824594598
 30
0.0
 10
6.5826370031
 20
8.8828316679
 30
0.0
 10
6.583542189
 20
8.8833168989
 30
0.0
 10
6.5844356327
 20
8.8838022427
 30
0.0
 10
6.5853001146
 20
8.8843231027
 30
0.0
 10
6.5859350005
 20
8.8847269228
 30
0.0
 10
6.5865637957
 20
8.8851410799
 30
0.0
 10
6.5871893503
 20
8.8855751334
 30
0.0
 10
6.5878120047
 20
8.8860468651
 30
0.0
 10
6.588434812
 20
8.886563594
 30
0.0
 10
6.5890623114
 20
8.8871196787
 30
0.0
 10
6.5896892729
 20
8.8877026138
 30
0.0
 10
6.5902169018
 20
8.8881865194
 30
0.0
 10
6.5906431729
 20
8.8885552334
 30
0.0
 10
6.5910598966
 20
8.8888958945
 30
0.0
 10
6.5915770367
 20
8.8892885321
 30
0.0
 10
6.5923834904
 20
8.8898580184
 30
0.0
 10
6.5931701351
 20
8.8903864059
 30
0.0
 10
6.5939308948
 20
8.8908831017
 30
0.0
 10
6.5946274294
 20
8.8913326642
 30
0.0
 10
6.5952970052
 20
8.8917539442
 30
0.0
 10
6.5959452811
 20
8.8921428049
 30
0.0
 10
6.5964071202
 20
8.8924054507
 30
0.0
 10
6.5968594977
 20
8.8926435457
 30
0.0
 10
6.5974456899
 20
8.8929197047
 30
0.0
 10
6.5981671399
 20
8.8932036248
 30
0.0
 10
6.5990225964
 20
8.8934665035
 30
0.0
 10
6.6001218646
 20
8.893730394
 30
0.0
 10
6.6012100721
 20
8.8939179676
 30
0.0
 10
6.6022737668
 20
8.8941304071
 30
0.0
 10
6.6032866516
 20
8.8943458279
 30
0.0
 10
6.6042581493
 20
8.8945693872
 30
0.0
 10
6.6051696606
 20
8.8948364169
 30
0.0
 10
6.6057885409
 20
8.8950535094
 30
0.0
 10
6.6063595464
 20
8.8953004196
 30
0.0
 10
6.6070594075
 20
8.8956686938
 30
0.0
 10
6.6078654663
 20
8.8961998412
 30
0.0
 10
6.6086181363
 20
8.8967711996
 30
0.0
 10
6.6091968091
 20
8.8972091595
 30
0.0
 10
6.6095964218
 20
8.8975096861
 30
0.0
 10
6.6099620939
 20
8.8977858274
 30
0.0
 10
6.6102870302
 20
8.8980350884
 30
0.0
 10
6.6105670358
 20
8.8982553302
 30
0.0
 10
6.6108036026
 20
8.8984414659
 30
0.0
 10
6.6109986747
 20
8.8985903107
 30
0.0
 10
6.611156794
 20
8.8986989854
 30
0.0
 10
6.6112798945
 20
8.8987675643
 30
0.0
 10
6.6113702096
 20
8.898808506
 30
0.0
 10
6.6114246033
 20
8.8988299429
 30
0.0
 10
6.6114537326
 20
8.8988459013
 30
0.0
 10
6.611456856
 20
8.8988552432
 30
0.0
  0
SPLINE
  5
407
100
AcDbEntity
  8
0
100
AcDbSpline
 62
7
  6
CONTINUOUS
 70
0
 71
3
 72
17
 73
13
 74
0
 42
0.0000001
 43
0.0000001
 44
0.0000000001
 40
0.0
 40
0.0
 40
0.0
 40
0.0
 40
0.2202832952
 40
0.4121301444
 40
0.5754299829
 40
0.7102570532
 40
0.817172596
 40
0.897571964
 40
0.9288719002
 40
0.955272614
 40
0.9782538168
 40
1.0
 40
1.0
 40
1.0
 40
1.0
 10
9.0373950335
 20
11.3906821913
 30
0.0
 10
9.037451218
 20
11.3906152332
 30
0.0
 10
9.0375577329
 20
11.3904911206
 30
0.0
 10
9.0377116719
 20
11.3903224192
 30
0.0
 10
9.0378484846
 20
11.3901842108
 30
0.0
 10
9.0379680012
 20
11.3900764906
 30
0.0
 10
9.0380700148
 20
11.3899993207
 30
0.0
 10
9.0381462575
 20
11.3899564496
 30
0.0
 10
9.0381988549
 20
11.3899402566
 30
0.0
 10
9.038230992
 20
11.3899369759
 30
0.0
 10
9.0382592407
 20
11.3899419363
 30
0.0
 10
9.0382749634
 20
11.3899510714
 30
0.0
 10
9.0382815738
 20
11.3899566174
 30
0.0
  0
SPLINE
  5
408
100
AcDbEntity
  8
0
100
AcDbSpline
 62
7
  6
CONTINUOUS
 70
0
 71
3
 72
19
 73
15
 74
0
 42
0.0000001
 43
0.0000001
 44
0.0000000001
 40
0.0
 40
0.0
 40
0.0
 40
0.0
 40
0.2123463483
 40
0.4018142484
 40
0.5663411371
 40
0.7044084965
 40
0.7632202427
 40
0.8151466455
 40
0.8602437889
 40
0.898678992
 40
0.9308245444
 40
0.9573949722
 40
0.9797155883
 40
1.0
 40
1.0
 40
1.0
 40
1.0
 10
9.0991192051
 20
11.3171221881
 30
0.0
 10
9.0995127735
 20
11.3166531515
 30
0.0
 10
9.1002688475
 20
11.3157750121
 30
0.0
 10
9.1013742076
 20
11.3145724663
 30
0.0
 10
9.1023771595
 20
11.3135683017
 30
0.0
 10
9.103153748
 20
11.3128719853
 30
0.0
 10
9.1037178308
 20
11.3124283076
 30
0.0
 10
9.1040853348
 20
11.3121693107
 30
0.0
 10
9.1044193525
 20
11.3119661166
 30
0.0
 10
9.1047193346
 20
11.3118189069
 30
0.0
 10
9.1049852319
 20
11.3117275976
 30
0.0
 10
9.1052181082
 20
11.3116925495
 30
0.0
 10
9.105419502
 20
11.3117166701
 30
0.0
 10
9.1055307518
 20
11.3117770353
 30
0.0
 10
9.1055755538
 20
11.3118146343
 30
0.0
  0
SPLINE
  5
409
100
AcDbEntity
  8
0
100
AcDbSpline
 62
9
  6
CONTINUOUS
 70
0
 71
3
 72
16
 73
12
 74
0
 42
0.0000001
 43
0.0000001
 44
0.0000000001
 40
0.0
 40
0.0
 40
0.0
 40
0.0
 40
0.1247816151
 40
0.1872663711
 40
0.2497977652
 40
0.3749586744
 40
0.5001835164
 40
0.625387238
 40
0.7504833602
 40
0.8753869042
 40
1.0
 40
1.0
 40
1.0
 40
1.0
 10
6.0009378155
 20
8.8578050001
 30
0.0
 10
5.9999150912
 20
8.8820579778
 30
0.0
 10
5.9983664733
 20
8.9184551228
 30
0.0
 10
5.9963071784
 20
8.9670061592
 30
0.0
 10
5.994261319
 20
9.0156316164
 30
0.0
 10
5.9917394775
 20
9.0764530528
 30
0.0
 10
5.9887735177
 20
9.1494585612
 30
0.0
 10
5.9858972651
 20
9.2224550599
 30
0.0
 10
5.9831460109
 20
9.2953938452
 30
0.0
 10
5.9805449392
 20
9.3682231795
 30
0.0
 10
5.978927019
 20
9.4167362717
 30
0.0
 10
5.9781521843
 20
9.4409656343
 30
0.0
  0
SPLINE
  5
40A
100
AcDbEntity
  8
0
100
AcDbSpline
 62
7
  6
CONTINUOUS
 70
0
 71
3
 72
24
 73
20
 74
0
 42
0.0000001
 43
0.0000001
 44
0.0000000001
 40
0.0
 40
0.0
 40
0.0
 40
0.0
 40
0.1948759501
 40
0.3784699415
 40
0.4642237209
 40
0.5450613801
 40
0.6203917718
 40
0.6896864455
 40
0.7524909559
 40
0.8084335905
 40
0.8572403199
 40
0.8987641133
 40
0.9330447274
 40
0.9475769149
 40
0.9604760247
 40
0.9718904337
 40
0.9820456329
 40
0.9912684876
 40
1.0
 40
1.0
 40
1.0
 40
1.0
 10
9.1999571024
 20
11.1969482617
 30
0.0
 10
9.2008208089
 20
11.1959189363
 30
0.0
 10
9.2025319522
 20
11.1939478817
 30
0.0
 10
9.204718039
 20
11.1916085709
 30
0.0
 10
9.2064231787
 20
11.1898987439
 30
0.0
 10
9.207628662
 20
11.1887455466
 30
0.0
 10
9.2087801329
 20
11.1877007993
 30
0.0
 10
9.2098682667
 20
11.1867721987
 30
0.0
 10
9.2108843644
 20
11.1859662717
 30
0.0
 10
9.2118204302
 20
11.1852884127
 30
0.0
 10
9.212669431
 20
11.1847426082
 30
0.0
 10
9.2134250869
 20
11.1843319893
 30
0.0
 10
9.2140016992
 20
11.1840910342
 30
0.0
 10
9.2144120357
 20
11.1839763568
 30
0.0
 10
9.2146764997
 20
11.1839304813
 30
0.0
 10
9.2149147404
 20
11.1839199751
 30
0.0
 10
9.2151267467
 20
11.1839454101
 30
0.0
 10
9.2153119085
 20
11.1840077776
 30
0.0
 10
9.2154175015
 20
11.1840753137
 30
0.0
 10
9.2154636233
 20
11.1841140097
 30
0.0
  0
LINE
  5
40B
100
AcDbEntity
  8
0
100
AcDbLine
 62
7
  6
CONTINUOUS
 10
9.7409010251
 20
10.7309194017
 11
9.7412954352
 21
10.7302272965
  0
SPLINE
  5
40C
100
AcDbEntity
  8
0
100
AcDbSpline
 62
7
  6
CONTINUOUS
 70
0
 71
3
 72
27
 73
23
 74
0
 42
0.0000001
 43
0.0000001
 44
0.0000000001
 40
0.0
 40
0.0
 40
0.0
 40
0.0
 40
0.0750253851
 40
0.1547542067
 40
0.3224894012
 40
0.4912407162
 40
0.5723146935
 40
0.6493397503
 40
0.721046361
 40
0.7862764155
 40
0.8440010778
 40
0.8933416685
 40
0.9146468928
 40
0.9336183851
 40
0.9502129576
 40
0.9644206543
 40
0.9762766203
 40
0.985903632
 40
0.9899685792
 40
0.9936081303
 40
0.9969117016
 40
1.0
 40
1.0
 40
1.0
 40
1.0
 10
9.3339283562
 20
11.0372875386
 30
0.0
 10
9.3345117045
 20
11.0365923313
 30
0.0
 10
9.335737101
 20
11.0351768089
 30
0.0
 10
9.3383652465
 20
11.0322936648
 30
0.0
 10
9.3418848584
 20
11.0286913141
 30
0.0
 10
9.3455565729
 20
11.0252207599
 30
0.0
 10
9.3485129186
 20
11.0225951882
 30
0.0
 10
9.3506315512
 20
11.0207951709
 30
0.0
 10
9.3526441428
 20
11.0191674764
 30
0.0
 10
9.3545160724
 20
11.0177383959
 30
0.0
 10
9.3562154199
 20
11.016531086
 30
0.0
 10
9.3575204959
 20
11.015688028
 30
0.0
 10
9.3584595884
 20
11.0151460658
 30
0.0
 10
9.3590690424
 20
11.0148264551
 30
0.0
 10
9.359616234
 20
11.0145745471
 30
0.0
 10
9.3600991928
 20
11.0143910959
 30
0.0
 10
9.3605162084
 20
11.0142767721
 30
0.0
 10
9.3608246714
 20
11.0142368869
 30
0.0
 10
9.3610346408
 20
11.0142466398
 30
0.0
 10
9.361165979
 20
11.0142718039
 30
0.0
 10
9.3612799568
 20
11.0143154939
 30
0.0
 10
9.3613453117
 20
11.0143582356
 30
0.0
 10
9.3613739272
 20
11.01438225
 30
0.0
  0
SPLINE
  5
40D
100
AcDbEntity
  8
0
100
AcDbSpline
 62
7
  6
CONTINUOUS
 70
0
 71
3
 72
20
 73
16
 74
0
 42
0.0000001
 43
0.0000001
 44
0.0000000001
 40
0.0
 40
0.0
 40
0.0
 40
0.0
 40
0.0376718386
 40
0.0838084262
 40
0.1375811442
 40
0.1980008625
 40
0.2639580546
 40
0.334256384
 40
0.482831543
 40
0.6334674868
 40
0.7760358507
 40
0.8412870784
 40
0.9010269769
 40
0.9542371876
 40
1.0
 40
1.0
 40
1.0
 40
1.0
 10
9.4077875417
 20
10.949265589
 30
0.0
 10
9.4081153043
 20
10.9488749767
 30
0.0
 10
9.408871001
 20
10.9480283157
 30
0.0
 10
9.4101572616
 20
10.946681451
 30
0.0
 10
9.4116937451
 20
10.9451486392
 30
0.0
 10
9.4134512816
 20
10.9434582462
 30
0.0
 10
9.4153967975
 20
10.9416410507
 30
0.0
 10
9.4182462894
 20
10.9390440232
 30
0.0
 10
9.4219962897
 20
10.9357340331
 30
0.0
 10
9.4265477482
 20
10.9318553473
 30
0.0
 10
9.4302943897
 20
10.9287720567
 30
0.0
 10
9.4331271244
 20
10.9265155579
 30
0.0
 10
9.4350322348
 20
10.9250360542
 30
0.0
 10
9.4367488948
 20
10.923744362
 30
0.0
 10
9.4378353465
 20
10.9229603109
 30
0.0
 10
9.4383432765
 20
10.9226057789
 30
0.0
  0
SPLINE
  5
40E
100
AcDbEntity
  8
0
100
AcDbSpline
 62
7
  6
CONTINUOUS
 70
0
 71
3
 72
18
 73
14
 74
0
 42
0.0000001
 43
0.0000001
 44
0.0000000001
 40
0.0
 40
0.0
 40
0.0
 40
0.0
 40
0.2167272112
 40
0.4082325985
 40
0.5735879342
 40
0.7120683969
 40
0.7710718238
 40
0.8232120999
 40
0.8684968322
 40
0.9069891318
 40
0.9388590627
 40
0.964453009
 40
1.0
 40
1.0
 40
1.0
 40
1.0
 10
9.4383432765
 20
10.9226057789
 30
0.0
 10
9.4385775204
 20
10.922442278
 30
0.0
 10
9.4390210575
 20
10.9221375858
 30
0.0
 10
9.439652657
 20
10.9217219325
 30
0.0
 10
9.4402073445
 20
10.9213774066
 30
0.0
 10
9.4406224977
 20
10.9211396123
 30
0.0
 10
9.4409147685
 20
10.9209883744
 30
0.0
 10
9.4411011036
 20
10.9209000364
 30
0.0
 10
9.4412664401
 20
10.9208306699
 30
0.0
 10
9.4414102021
 20
10.9207802551
 30
0.0
 10
9.4415336092
 20
10.9207489291
 30
0.0
 10
9.4416535679
 20
10.9207334415
 30
0.0
 10
9.4417419575
 20
10.9207466516
 30
0.0
 10
9.4417778475
 20
10.9207767708
 30
0.0
  0
SPLINE
  5
40F
100
AcDbEntity
  8
0
100
AcDbSpline
 62
9
  6
CONTINUOUS
 70
0
 71
3
 72
13
 73
9
 74
0
 42
0.0000001
 43
0.0000001
 44
0.0000000001
 40
0.0
 40
0.0
 40
0.0
 40
0.0
 40
0.249482723
 40
0.4998486414
 40
0.6251239696
 40
0.7503190974
 40
0.8753206456
 40
1.0
 40
1.0
 40
1.0
 40
1.0
 10
6.0625416739
 20
8.849603565
 30
0.0
 10
6.0562997483
 20
8.8988872433
 30
0.0
 10
6.0431618427
 20
8.9975495307
 30
0.0
 10
6.025569053
 20
9.1207766653
 30
0.0
 10
6.0110596386
 20
9.2194428755
 30
0.0
 10
6.0000584582
 20
9.2933936527
 30
0.0
 10
5.9890432305
 20
9.3672223224
 30
0.0
 10
5.9817566522
 20
9.4164023437
 30
0.0
 10
5.9781521843
 20
9.4409656343
 30
0.0
  0
SPLINE
  5
410
100
AcDbEntity
  8
0
100
AcDbSpline
 62
7
  6
CONTINUOUS
 70
0
 71
3
 72
18
 73
14
 74
0
 42
0.0000001
 43
0.0000001
 44
0.0000000001
 40
0.0
 40
0.0
 40
0.0
 40
0.0
 40
0.0207357417
 40
0.0430290455
 40
0.0691026052
 40
0.100380511
 40
0.1376899723
 40
0.1814924473
 40
0.2894724266
 40
0.4253892808
 40
0.5893811146
 40
0.7811713808
 40
1.0
 40
1.0
 40
1.0
 40
1.0
 10
9.6957247166
 20
10.7854079872
 30
0.0
 10
9.6957075288
 20
10.7853935674
 30
0.0
 10
9.6956771906
 20
10.78535657
 30
0.0
 10
9.6956534448
 20
10.7852843334
 30
0.0
 10
9.6956497922
 20
10.7851974969
 30
0.0
 10
9.695664914
 20
10.7850957899
 30
0.0
 10
9.6956985144
 20
10.7849786655
 30
0.0
 10
9.6957734103
 20
10.7847880422
 30
0.0
 10
9.695918338
 20
10.7845117242
 30
0.0
 10
9.6961539642
 20
10.7841383327
 30
0.0
 10
9.6964623029
 20
10.7837045197
 30
0.0
 10
9.6968422023
 20
10.7832122528
 30
0.0
 10
9.6971240313
 20
10.7828687259
 30
0.0
 10
9.6972762215
 20
10.7826873526
 30
0.0
  0
SPLINE
  5
411
100
AcDbEntity
  8
0
100
AcDbSpline
 62
9
  6
CONTINUOUS
 70
0
 71
3
 72
49
 73
45
 74
0
 42
0.0000001
 43
0.0000001
 44
0.0000000001
 40
0.0
 40
0.0
 40
0.0
 40
0.0
 40
0.0000040793
 40
0.0000162363
 40
0.0000364705
 40
0.0000647811
 40
0.0001456286
 40
0.0002587729
 40
0.0004042084
 40
0.0005819293
 40
0.0007919298
 40
0.0010342042
 40
0.0016155519
 40
0.0023259267
 40
0.003165283
 40
0.0041335755
 40
0.0052307589
 40
0.0064567847
 40
0.0092950303
 40
0.0126475633
 40
0.0165136189
 40
0.0208924339
 40
0.025783227
 40
0.0311850352
 40
0.0370967959
 40
0.0435174469
 40
0.0504459271
 40
0.0658217015
 40
0.0832136822
 40
0.1026109216
 40
0.1240007678
 40
0.1473695779
 40
0.1727025127
 40
0.1999831288
 40
0.2291944556
 40
0.26031805
 40
0.3282252469
 40
0.4035411429
 40
0.4860883657
 40
0.575673653
 40
0.6720871455
 40
0.7751049332
 40
0.8844915965
 40
1.0
 40
1.0
 40
1.0
 40
1.0
 10
13.611089641
 20
7.0708084793
 30
0.0
 10
13.6110901069
 20
7.0708084095
 30
0.0
 10
13.6110919408
 20
7.0708091465
 30
0.0
 10
13.6110960823
 20
7.0708095837
 30
0.0
 10
13.61110296
 20
7.0708111291
 30
0.0
 10
13.6111176311
 20
7.0708138566
 30
0.0
 10
13.6111428314
 20
7.07081885
 30
0.0
 10
13.6111813142
 20
7.0708262778
 30
0.0
 10
13.6112307812
 20
7.0708358884
 30
0.0
 10
13.6112912332
 20
7.0708475879
 30
0.0
 10
13.6113626692
 20
7.0708614016
 30
0.0
 10
13.6114798796
 20
7.0708840266
 30
0.0
 10
13.6116538472
 20
7.0709175241
 30
0.0
 10
13.6118955566
 20
7.0709639134
 30
0.0
 10
13.612181187
 20
7.0710185517
 30
0.0
 10
13.6125107336
 20
7.0710813808
 30
0.0
 10
13.6128841908
 20
7.071152343
 30
0.0
 10
13.6134698839
 20
7.0712632555
 30
0.0
 10
13.6143116515
 20
7.0714218389
 30
0.0
 10
13.6154532913
 20
7.0716355764
 30
0.0
 10
13.6167700859
 20
7.0718806023
 30
0.0
 10
13.6182618372
 20
7.0721565154
 30
0.0
 10
13.6199283249
 20
7.0724629042
 30
0.0
 10
13.6217692856
 20
7.072799398
 30
0.0
 10
13.6237844212
 20
7.0731656334
 30
0.0
 10
13.6259734226
 20
7.0735612433
 30
0.0
 10
13.6292385805
 20
7.0741480712
 30
0.0
 10
13.6337520352
 20
7.0749524172
 30
0.0
 10
13.6396849473
 20
7.0759994712
 30
0.0
 10
13.6463036507
 20
7.0771570539
 30
0.0
 10
13.6536041875
 20
7.0784227402
 30
0.0
 10
13.6615821582
 20
7.0797940044
 30
0.0
 10
13.6702327898
 20
7.0812678871
 30
0.0
 10
13.6795510302
 20
7.082840744
 30
0.0
 10
13.689531381
 20
7.0845090258
 30
0.0
 10
13.7041434201
 20
7.0869275163
 30
0.0
 10
13.7240167755
 20
7.0901662688
 30
0.0
 10
13.7497647975
 20
7.0942795813
 30
0.0
 10
13.7779978573
 20
7.0987072319
 30
0.0
 10
13.8086513157
 20
7.1034272602
 30
0.0
 10
13.8416566352
 20
7.1084072605
 30
0.0
 10
13.876940957
 20
7.1136098157
 30
0.0
 10
13.9144265224
 20
7.1189999049
 30
0.0
 10
13.9401492613
 20
7.1226001527
 30
0.0
 10
13.9533644835
 20
7.1244218968
 30
0.0
  0
SPLINE
  5
412
100
AcDbEntity
  8
0
100
AcDbSpline
 62
7
  6
CONTINUOUS
 70
0
 71
3
 72
19
 73
15
 74
0
 42
0.0000001
 43
0.0000001
 44
0.0000000001
 40
0.0
 40
0.0
 40
0.0
 40
0.0
 40
0.0201241957
 40
0.042182881
 40
0.0684148733
 40
0.1001759272
 40
0.1381971544
 40
0.1828722814
 40
0.234394522
 40
0.2928353506
 40
0.4304034657
 40
0.5949756798
 40
0.7854076273
 40
1.0
 40
1.0
 40
1.0
 40
1.0
 10
9.6238573348
 20
10.8720849174
 30
0.0
 10
9.6238209341
 20
10.8720543789
 30
0.0
 10
9.6237569798
 20
10.8719741113
 30
0.0
 10
9.6237096843
 20
10.8718167432
 30
0.0
 10
9.6237058069
 20
10.8716262581
 30
0.0
 10
9.6237426956
 20
10.871401744
 30
0.0
 10
9.623819798
 20
10.8711422214
 30
0.0
 10
9.6239372206
 20
10.8708475471
 30
0.0
 10
9.6240949263
 20
10.8705180241
 30
0.0
 10
9.6243743878
 20
10.8700045076
 30
0.0
 10
9.6248284727
 20
10.8692834687
 30
0.0
 10
9.6255001699
 20
10.868333673
 30
0.0
 10
9.6263200576
 20
10.8672672854
 30
0.0
 10
9.6269260872
 20
10.866527378
 30
0.0
 10
9.6272517648
 20
10.8661392505
 30
0.0
  0
SPLINE
  5
413
100
AcDbEntity
  8
0
100
AcDbSpline
 62
7
  6
CONTINUOUS
 70
0
 71
3
 72
21
 73
17
 74
0
 42
0.0000001
 43
0.0000001
 44
0.0000000001
 40
0.0
 40
0.0
 40
0.0
 40
0.0
 40
0.0095804929
 40
0.0194063023
 40
0.0411873617
 40
0.0677056712
 40
0.1002023215
 40
0.1392973722
 40
0.1852640361
 40
0.2381911944
 40
0.2980379014
 40
0.3646876098
 40
0.4379500206
 40
0.6033016024
 40
0.7916635268
 40
1.0
 40
1.0
 40
1.0
 40
1.0
 10
9.530193851
 20
10.9850410611
 30
0.0
 10
9.5301643408
 20
10.9850163035
 30
0.0
 10
9.5301097121
 20
10.9849596237
 30
0.0
 10
9.5300218185
 20
10.9848179784
 30
0.0
 10
9.5299612058
 20
10.9845872951
 30
0.0
 10
9.5299651036
 20
10.9842603413
 30
0.0
 10
9.5300374077
 20
10.9838711943
 30
0.0
 10
9.5301784472
 20
10.9834192868
 30
0.0
 10
9.5303879265
 20
10.9829050269
 30
0.0
 10
9.5306657293
 20
10.9823300573
 30
0.0
 10
9.5310110894
 20
10.9816964369
 30
0.0
 10
9.5314229627
 20
10.9810067228
 30
0.0
 10
9.5320861417
 20
10.979973749
 30
0.0
 10
9.5330737506
 20
10.9785686498
 30
0.0
 10
9.5344463481
 20
10.9767729383
 30
0.0
 10
9.5354556836
 20
10.9755375601
 30
0.0
 10
9.5359941161
 20
10.9748958812
 30
0.0
  0
SPLINE
  5
414
100
AcDbEntity
  8
0
100
AcDbSpline
 62
7
  6
CONTINUOUS
 70
0
 71
3
 72
22
 73
18
 74
0
 42
0.0000001
 43
0.0000001
 44
0.0000000001
 40
0.0
 40
0.0
 40
0.0
 40
0.0
 40
0.0090079023
 40
0.0184112497
 40
0.02863137
 40
0.0399969328
 40
0.0669928839
 40
0.1005617351
 40
0.1411570872
 40
0.1889077426
 40
0.2437485483
 40
0.3054915246
 40
0.3738551649
 40
0.4484771078
 40
0.6147273258
 40
0.8001676219
 40
1.0
 40
1.0
 40
1.0
 40
1.0
 10
9.4211146999
 20
11.1165764832
 30
0.0
 10
9.4210736996
 20
11.1165420857
 30
0.0
 10
9.4209981149
 20
11.1164613335
 30
0.0
 10
9.420913072
 20
11.1163125257
 30
0.0
 10
9.4208552425
 20
11.1161366285
 30
0.0
 10
9.4208114305
 20
11.115850297
 30
0.0
 10
9.4208337178
 20
11.1154198137
 30
0.0
 10
9.4209603397
 20
11.1148310427
 30
0.0
 10
9.4211884671
 20
11.1141424031
 30
0.0
 10
9.4215177053
 20
11.1133573761
 30
0.0
 10
9.4219469781
 20
11.1124799719
 30
0.0
 10
9.4224742964
 20
11.1115156126
 30
0.0
 10
9.4230968299
 20
11.1104703806
 30
0.0
 10
9.4240852881
 20
11.1089214172
 30
0.0
 10
9.4255335884
 20
11.1068422438
 30
0.0
 10
9.4275139376
 20
11.1042308335
 30
0.0
 10
9.4289591797
 20
11.1024551512
 30
0.0
 10
9.4297223333
 20
11.1015456601
 30
0.0
  0
SPLINE
  5
415
100
AcDbEntity
  8
0
100
AcDbSpline
 62
9
  6
CONTINUOUS
 70
0
 71
3
 72
51
 73
47
 74
0
 42
0.0000001
 43
0.0000001
 44
0.0000000001
 40
0.0
 40
0.0
 40
0.0
 40
0.0
 40
0.0000041783
 40
0.000016541
 40
0.0000370865
 40
0.000065813
 40
0.0001027187
 40
0.0001478018
 40
0.0002624927
 40
0.0004098715
 40
0.0005899235
 40
0.0008026342
 40
0.0010479893
 40
0.0016365744
 40
0.0023555631
 40
0.0032048396
 40
0.0041842884
 40
0.0052937939
 40
0.0065332407
 40
0.0079025116
 40
0.0094014886
 40
0.0127880877
 40
0.0166920929
 40
0.0211125603
 40
0.0260485372
 40
0.031498855
 40
0.0374621323
 40
0.0439369792
 40
0.0509220064
 40
0.0664170788
 40
0.0839364789
 40
0.1034692799
 40
0.1250007898
 40
0.1485121342
 40
0.1739842125
 40
0.2013978973
 40
0.2307340162
 40
0.2619727622
 40
0.3300767509
 40
0.405542183
 40
0.4881840265
 40
0.5777729275
 40
0.6740202014
 40
0.776664073
 40
0.8854291001
 40
1.0
 40
1.0
 40
1.0
 40
1.0
 10
13.4257944042
 20
7.3122899432
 30
0.0
 10
13.4257949047
 20
7.3122897899
 30
0.0
 10
13.4257969957
 20
7.3122906533
 30
0.0
 10
13.4258015437
 20
7.3122908536
 30
0.0
 10
13.4258091935
 20
7.3122923593
 30
0.0
 10
13.4258198456
 20
7.3122939225
 30
0.0
 10
13.4258335475
 20
7.3122961525
 30
0.0
 10
13.4258578789
 20
7.3123000019
 30
0.0
 10
13.425895881
 20
7.3123060686
 30
0.0
 10
13.4259505801
 20
7.3123147677
 30
0.0
 10
13.4260174083
 20
7.3123253988
 30
0.0
 10
13.4260963599
 20
7.3123379431
 30
0.0
 10
13.4262258612
 20
7.3123584992
 30
0.0
 10
13.4264180122
 20
7.3123889444
 30
0.0
 10
13.426684905
 20
7.3124311294
 30
0.0
 10
13.4270001837
 20
7.3124808354
 30
0.0
 10
13.4273638116
 20
7.3125380141
 30
0.0
 10
13.4277757525
 20
7.3126026171
 30
0.0
 10
13.4282359698
 20
7.3126745958
 30
0.0
 10
13.4287444262
 20
7.3127539035
 30
0.0
 10
13.4295187097
 20
7.3128743485
 30
0.0
 10
13.4306068739
 20
7.3130429105
 30
0.0
 10
13.4320569045
 20
7.3132663263
 30
0.0
 10
13.4336989781
 20
7.3135179755
 30
0.0
 10
13.4355327623
 20
7.3137974851
 30
0.0
 10
13.4375578624
 20
7.3141045235
 30
0.0
 10
13.4397738228
 20
7.3144387954
 30
0.0
 10
13.4421801621
 20
7.3147999903
 30
0.0
 10
13.4457677799
 20
7.3153358881
 30
0.0
 10
13.4507246555
 20
7.3160708342
 30
0.0
 10
13.4572377068
 20
7.3170281144
 30
0.0
 10
13.4645002038
 20
7.3180868216
 30
0.0
 10
13.4725067742
 20
7.3192451
 30
0.0
 10
13.4812509944
 20
7.32050121
 30
0.0
 10
13.4907259104
 20
7.3218531938
 30
0.0
 10
13.500924678
 20
7.3232980475
 30
0.0
 10
13.5118403572
 20
7.3248327833
 30
0.0
 10
13.5278063863
 20
7.3270601604
 30
0.0
 10
13.5495010284
 20
7.330049732
 30
0.0
 10
13.5775833343
 20
7.3338579405
 30
0.0
 10
13.6083410454
 20
7.3379666927
 30
0.0
 10
13.6416868421
 20
7.3423636304
 30
0.0
 10
13.677523627
 20
7.3470372469
 30
0.0
 10
13.7157507439
 20
7.3519586409
 30
0.0
 10
13.7562635511
 20
7.3571032982
 30
0.0
 10
13.7840255033
 20
7.3605825363
 30
0.0
 10
13.7982685522
 20
7.3623575553
 30
0.0
  0
SPLINE
  5
416
100
AcDbEntity
  8
0
100
AcDbSpline
 62
9
  6
CONTINUOUS
 70
0
 71
3
 72
22
 73
18
 74
0
 42
0.0000001
 43
0.0000001
 44
0.0000000001
 40
0.0
 40
0.0
 40
0.0
 40
0.0
 40
0.0010912317
 40
0.0043581275
 40
0.009790512
 40
0.017378241
 40
0.0389792994
 40
0.0690807888
 40
0.1075732746
 40
0.1542301449
 40
0.2087959461
 40
0.2710158503
 40
0.3406105464
 40
0.4172008735
 40
0.5897548077
 40
0.785321432
 40
1.0
 40
1.0
 40
1.0
 40
1.0
 10
12.3660225913
 20
7.5962549368
 30
0.0
 10
12.3662412885
 20
7.5962558388
 30
0.0
 10
12.3671147167
 20
7.5962588683
 30
0.0
 10
12.3690768813
 20
7.5962613482
 30
0.0
 10
12.3723410408
 20
7.5962592357
 30
0.0
 10
12.3792796151
 20
7.5962395335
 30
0.0
 10
12.3911620658
 20
7.5961635474
 30
0.0
 10
12.4092375088
 20
7.5959700475
 30
0.0
 10
12.4323329261
 20
7.5956207303
 30
0.0
 10
12.4603285975
 20
7.5950698514
 30
0.0
 10
12.4930753146
 20
7.5942716789
 30
0.0
 10
12.5304129279
 20
7.5931807773
 30
0.0
 10
12.5721561385
 20
7.5917527067
 30
0.0
 10
12.6359867685
 20
7.5892349615
 30
0.0
 10
12.7250131987
 20
7.5849638718
 30
0.0
 10
12.8416079107
 20
7.5779670968
 30
0.0
 10
12.923608521
 20
7.5719270917
 30
0.0
 10
12.9664922
 20
7.5684455707
 30
0.0
  0
SPLINE
  5
417
100
AcDbEntity
  8
0
100
AcDbSpline
 62
9
  6
CONTINUOUS
 70
0
 71
3
 72
47
 73
43
 74
0
 42
0.0000001
 43
0.0000001
 44
0.0000000001
 40
0.0
 40
0.0
 40
0.0
 40
0.0
 40
0.000018011
 40
0.0000699467
 40
0.000155733
 40
0.0002755547
 40
0.000618409
 40
0.0011001146
 40
0.0017178437
 40
0.0024667968
 40
0.003342188
 40
0.0043392651
 40
0.0066821549
 40
0.0094647043
 40
0.0126523497
 40
0.0162059585
 40
0.0200849504
 40
0.024256605
 40
0.0333785822
 40
0.0433612285
 40
0.0540498247
 40
0.0653277317
 40
0.0770960752
 40
0.0892920904
 40
0.1018588919
 40
0.1279443344
 40
0.1551215457
 40
0.183239508
 40
0.2122033684
 40
0.2419502845
 40
0.2724358939
 40
0.3036287491
 40
0.3355045525
 40
0.4012216061
 40
0.4694509774
 40
0.5400451238
 40
0.6128279296
 40
0.6875810846
 40
0.7640350098
 40
0.8418620043
 40
0.9206702823
 40
1.0
 40
1.0
 40
1.0
 40
1.0
 10
10.7048963686
 20
12.213367879
 30
0.0
 10
10.7048980713
 20
12.2133647196
 30
0.0
 10
10.704903532
 20
12.2133518711
 30
0.0
 10
10.7049169713
 20
12.2133239123
 30
0.0
 10
10.7049383093
 20
12.2132772286
 30
0.0
 10
10.7049843437
 20
12.213178111
 30
0.0
 10
10.7050633232
 20
12.2130072974
 30
0.0
 10
10.7051842995
 20
12.2127465989
 30
0.0
 10
10.7053390918
 20
12.2124123789
 30
0.0
 10
10.7055264387
 20
12.2120067833
 30
0.0
 10
10.7057447802
 20
12.2115322381
 30
0.0
 10
10.7060945563
 20
12.2107685402
 30
0.0
 10
10.7065992949
 20
12.2096578191
 30
0.0
 10
10.7072785305
 20
12.20814694
 30
0.0
 10
10.7080487414
 20
12.2064124626
 30
0.0
 10
10.7088974555
 20
12.2044738145
 30
0.0
 10
10.7098120522
 20
12.2023500001
 30
0.0
 10
10.7111452507
 20
12.1991984145
 30
0.0
 10
10.7129098938
 20
12.1949088232
 30
0.0
 10
10.7150882511
 20
12.189385831
 30
0.0
 10
10.7173337676
 20
12.1834282717
 30
0.0
 10
10.7196059126
 20
12.17710132
 30
0.0
 10
10.7218708684
 20
12.1704536067
 30
0.0
 10
10.7241061088
 20
12.1635254242
 30
0.0
 10
10.727056737
 20
12.1538317112
 30
0.0
 10
10.730558744
 20
12.1411873584
 30
0.0
 10
10.7343701269
 20
12.1254221372
 30
0.0
 10
10.7377825585
 20
12.1089794304
 30
0.0
 10
10.7407582529
 20
12.0919321627
 30
0.0
 10
10.7432721633
 20
12.0743340625
 30
0.0
 10
10.7453072214
 20
12.0562272901
 30
0.0
 10
10.7468530149
 20
12.0376465143
 30
0.0
 10
10.7482677702
 20
12.012019874
 30
0.0
 10
10.7487511755
 20
11.9789641915
 30
0.0
 10
10.747344738
 20
11.9382156021
 30
0.0
 10
10.7439971038
 20
11.896169161
 30
0.0
 10
10.738772672
 20
11.853006786
 30
0.0
 10
10.7317574814
 20
11.8089179337
 30
0.0
 10
10.7230587459
 20
11.764107306
 30
0.0
 10
10.712803736
 20
11.7187993993
 30
0.0
 10
10.7011435082
 20
11.6732422775
 30
0.0
 10
10.6925560884
 20
11.6429193606
 30
0.0
 10
10.6880742848
 20
11.6277601201
 30
0.0
  0
SPLINE
  5
418
100
AcDbEntity
  8
0
100
AcDbSpline
 62
7
  6
CONTINUOUS
 70
0
 71
3
 72
23
 73
19
 74
0
 42
0.0000001
 43
0.0000001
 44
0.0000000001
 40
0.0
 40
0.0
 40
0.0
 40
0.0
 40
0.0484575685
 40
0.0968080102
 40
0.1455772784
 40
0.1952854201
 40
0.2464255003
 40
0.2994516521
 40
0.3547711285
 40
0.4127407919
 40
0.4736676147
 40
0.5378115879
 40
0.6053900189
 40
0.6765822661
 40
0.7515344198
 40
0.830363657
 40
0.9131620707
 40
1.0
 40
1.0
 40
1.0
 40
1.0
 10
14.8906172
 20
7.8508175036
 30
0.0
 10
14.8912035818
 20
7.8519604949
 30
0.0
 10
14.8924937421
 20
7.8541854474
 30
0.0
 10
14.8947753577
 20
7.8573066255
 30
0.0
 10
14.8973954066
 20
7.860194962
 30
0.0
 10
14.9003530278
 20
7.8628479058
 30
0.0
 10
14.9036473614
 20
7.8652641795
 30
0.0
 10
14.9072773037
 20
7.8674428875
 30
0.0
 10
14.9112417657
 20
7.8693835818
 30
0.0
 10
14.9155396696
 20
7.8710860045
 30
0.0
 10
14.9201698883
 20
7.8725499794
 30
0.0
 10
14.9251311595
 20
7.8737753366
 30
0.0
 10
14.9304220047
 20
7.8747618954
 30
0.0
 10
14.9360406694
 20
7.8755094732
 30
0.0
 10
14.9419850757
 20
7.876017908
 30
0.0
 10
14.948252833
 20
7.8762870809
 30
0.0
 10
14.9548410963
 20
7.8763169475
 30
0.0
 10
14.959337125
 20
7.8761806047
 30
0.0
 10
14.9616368174
 20
7.8760751697
 30
0.0
  0
SPLINE
  5
419
100
AcDbEntity
  8
0
100
AcDbSpline
 62
7
  6
CONTINUOUS
 70
0
 71
3
 72
23
 73
19
 74
0
 42
0.0000001
 43
0.0000001
 44
0.0000000001
 40
0.0
 40
0.0
 40
0.0
 40
0.0
 40
0.0868379296
 40
0.1696363436
 40
0.248465581
 40
0.3234177348
 40
0.3946099821
 40
0.4621884132
 40
0.5263323863
 40
0.5872592091
 40
0.6452288723
 40
0.7005483485
 40
0.7535745002
 40
0.8047145803
 40
0.8544227219
 40
0.90319199
 40
0.9515424315
 40
1.0
 40
1.0
 40
1.0
 40
1.0
 10
14.8195975827
 20
7.8760751697
 30
0.0
 10
14.821897275
 20
7.8761806047
 30
0.0
 10
14.8263933038
 20
7.8763169475
 30
0.0
 10
14.8329815672
 20
7.8762870809
 30
0.0
 10
14.8392493244
 20
7.876017908
 30
0.0
 10
14.8451937308
 20
7.8755094732
 30
0.0
 10
14.8508123955
 20
7.8747618954
 30
0.0
 10
14.8561032406
 20
7.8737753365
 30
0.0
 10
14.8610645119
 20
7.8725499794
 30
0.0
 10
14.8656947305
 20
7.8710860045
 30
0.0
 10
14.8699926344
 20
7.8693835817
 30
0.0
 10
14.8739570965
 20
7.8674428875
 30
0.0
 10
14.8775870387
 20
7.8652641795
 30
0.0
 10
14.8808813723
 20
7.8628479057
 30
0.0
 10
14.8838389935
 20
7.860194962
 30
0.0
 10
14.8864590423
 20
7.8573066254
 30
0.0
 10
14.888740658
 20
7.8541854474
 30
0.0
 10
14.8900308182
 20
7.8519604949
 30
0.0
 10
14.8906172
 20
7.8508175036
 30
0.0
  0
SPLINE
  5
41A
100
AcDbEntity
  8
0
100
AcDbSpline
 62
9
  6
CONTINUOUS
 70
0
 71
3
 72
55
 73
51
 74
0
 42
0.0000001
 43
0.0000001
 44
0.0000000001
 40
0.0
 40
0.0
 40
0.0
 40
0.0
 40
0.0000062346
 40
0.0000247308
 40
0.0000554837
 40
0.0000984881
 40
0.0001537391
 40
0.0002212316
 40
0.0003929209
 40
0.0006135131
 40
0.0008826824
 40
0.0011995626
 40
0.0015632271
 40
0.0024272007
 40
0.0034666504
 40
0.0046721934
 40
0.0060342252
 40
0.0075434559
 40
0.0091909474
 40
0.0128650551
 40
0.016985354
 40
0.0214851965
 40
0.0263127701
 40
0.0314223256
 40
0.036775686
 40
0.0423382729
 40
0.0539950606
 40
0.0662310347
 40
0.0789259099
 40
0.0919991026
 40
0.1053910162
 40
0.1190557584
 40
0.1329587371
 40
0.1470736975
 40
0.1758634968
 40
0.2053109477
 40
0.2353415866
 40
0.2659073427
 40
0.2969755022
 40
0.328522816
 40
0.3605329052
 40
0.425886111
 40
0.4929544982
 40
0.5616557067
 40
0.6318904137
 40
0.7035297888
 40
0.7764057855
 40
0.8503024849
 40
0.9249463935
 40
1.0
 40
1.0
 40
1.0
 40
1.0
 10
10.7137417846
 20
12.2010353838
 30
0.0
 10
10.7137425967
 20
12.201034406
 30
0.0
 10
10.7137445062
 20
12.2010296391
 30
0.0
 10
10.7137503498
 20
12.2010200053
 30
0.0
 10
10.7137590162
 20
12.2010032739
 30
0.0
 10
10.7137716261
 20
12.2009802099
 30
0.0
 10
10.7137876323
 20
12.2009504451
 30
0.0
 10
10.7138161736
 20
12.2008976439
 30
0.0
 10
10.71386071
 20
12.2008151675
 30
0.0
 10
10.7139248447
 20
12.2006965509
 30
0.0
 10
10.7140030761
 20
12.2005519063
 30
0.0
 10
10.714095163
 20
12.200381596
 30
0.0
 10
10.714244841
 20
12.2001045757
 30
0.0
 10
10.714464273
 20
12.1996978119
 30
0.0
 10
10.7147645416
 20
12.1991396474
 30
0.0
 10
10.7151119569
 20
12.1984915509
 30
0.0
 10
10.7155033614
 20
12.1977583727
 30
0.0
 10
10.7159357057
 20
12.1969449197
 30
0.0
 10
10.716586959
 20
12.1957140313
 30
0.0
 10
10.7174820932
 20
12.194009966
 30
0.0
 10
10.7186375936
 20
12.1917858582
 30
0.0
 10
10.7198886614
 20
12.189346449
 30
0.0
 10
10.7212176693
 20
12.1867204089
 30
0.0
 10
10.7226095161
 20
12.1839312086
 30
0.0
 10
10.7240509117
 20
12.1809993303
 30
0.0
 10
10.7260551055
 20
12.1768569135
 30
0.0
 10
10.728618402
 20
12.1714264323
 30
0.0
 10
10.7317146393
 20
12.1646403064
 30
0.0
 10
10.7348345301
 20
12.1575483418
 30
0.0
 10
10.7379494073
 20
12.1501975302
 30
0.0
 10
10.7410380612
 20
12.1426216852
 30
0.0
 10
10.7440834341
 20
12.1348463686
 30
0.0
 10
10.7470726846
 20
12.1268916185
 30
0.0
 10
10.7509961375
 20
12.1159951143
 30
0.0
 10
10.7557040542
 20
12.1020145219
 30
0.0
 10
10.7609817905
 20
12.0848090588
 30
0.0
 10
10.7658933054
 20
12.067119408
 30
0.0
 10
10.7704181021
 20
12.0489862565
 30
0.0
 10
10.7745422027
 20
12.0304409974
 30
0.0
 10
10.7782557671
 20
12.0115090229
 30
0.0
 10
10.7826824195
 20
11.9856021331
 30
0.0
 10
10.7871387998
 20
11.952364713
 30
0.0
 10
10.7907609667
 20
11.9115108796
 30
0.0
 10
10.7927070706
 20
11.8695474988
 30
0.0
 10
10.7930069936
 20
11.8266096207
 30
0.0
 10
10.7917060349
 20
11.7828400799
 30
0.0
 10
10.788863968
 20
11.7383965969
 30
0.0
 10
10.7845575013
 20
11.6934566224
 30
0.0
 10
10.7788771806
 20
11.6482233629
 30
0.0
 10
10.7742548819
 20
11.6180534963
 30
0.0
 10
10.7717485869
 20
11.6029594676
 30
0.0
  0
SPLINE
  5
41B
100
AcDbEntity
  8
0
100
AcDbSpline
 62
7
  6
CONTINUOUS
 70
0
 71
3
 72
23
 73
19
 74
0
 42
0.0000001
 43
0.0000001
 44
0.0000000001
 40
0.0
 40
0.0
 40
0.0
 40
0.0
 40
0.0484752501
 40
0.096840282
 40
0.1456209894
 40
0.1953374756
 40
0.2464829643
 40
0.2995118268
 40
0.3548316027
 40
0.4127994615
 40
0.4737226804
 40
0.5378615374
 40
0.6054336008
 40
0.6766184591
 40
0.7515624026
 40
0.8303827789
 40
0.913171825
 40
1.0
 40
1.0
 40
1.0
 40
1.0
 10
14.8906172
 20
7.8497998484
 30
0.0
 10
14.8900308443
 20
7.8509435527
 30
0.0
 10
14.8887407542
 20
7.8531698882
 30
0.0
 10
14.8864591875
 20
7.8562931095
 30
0.0
 10
14.8838391828
 20
7.8591833471
 30
0.0
 10
14.880881597
 20
7.8618380455
 30
0.0
 10
14.8775872885
 20
7.8642559231
 30
0.0
 10
14.8739573608
 20
7.8664360804
 30
0.0
 10
14.8699929034
 20
7.868378067
 30
0.0
 10
14.8656949953
 20
7.8700816236
 30
0.0
 10
14.8610647644
 20
7.8715465736
 30
0.0
 10
14.8561034735
 20
7.8727727466
 30
0.0
 10
14.8508126019
 20
7.8737599623
 30
0.0
 10
14.8451939042
 20
7.874508038
 30
0.0
 10
14.8392494592
 20
7.8750168119
 30
0.0
 10
14.8329816581
 20
7.8752861653
 30
0.0
 10
14.826393347
 20
7.8753160539
 30
0.0
 10
14.8218972887
 20
7.8751796224
 30
0.0
 10
14.8195975827
 20
7.8750741186
 30
0.0
  0
SPLINE
  5
41C
100
AcDbEntity
  8
0
100
AcDbSpline
 62
7
  6
CONTINUOUS
 70
0
 71
3
 72
23
 73
19
 74
0
 42
0.0000001
 43
0.0000001
 44
0.0000000001
 40
0.0
 40
0.0
 40
0.0
 40
0.0
 40
0.086828176
 40
0.169617223
 40
0.2484376
 40
0.3233815441
 40
0.3945664028
 40
0.4621384664
 40
0.5262773232
 40
0.5872005419
 40
0.6451684003
 40
0.7004881759
 40
0.753517038
 40
0.8046625262
 40
0.8543790121
 40
0.9031597187
 40
0.9515247499
 40
1.0
 40
1.0
 40
1.0
 40
1.0
 10
14.9616368174
 20
7.8750741186
 30
0.0
 10
14.9593371114
 20
7.8751796224
 30
0.0
 10
14.954841053
 20
7.8753160539
 30
0.0
 10
14.9482527418
 20
7.8752861653
 30
0.0
 10
14.9419849407
 20
7.8750168119
 30
0.0
 10
14.9360404956
 20
7.874508038
 30
0.0
 10
14.9304217979
 20
7.8737599623
 30
0.0
 10
14.9251309263
 20
7.8727727465
 30
0.0
 10
14.9201696354
 20
7.8715465735
 30
0.0
 10
14.9155394045
 20
7.8700816236
 30
0.0
 10
14.9112414965
 20
7.8683780669
 30
0.0
 10
14.9072770391
 20
7.8664360803
 30
0.0
 10
14.9036471114
 20
7.864255923
 30
0.0
 10
14.9003528029
 20
7.8618380454
 30
0.0
 10
14.8973952172
 20
7.859183347
 30
0.0
 10
14.8947752125
 20
7.8562931094
 30
0.0
 10
14.8924936458
 20
7.8531698882
 30
0.0
 10
14.8912035557
 20
7.8509435527
 30
0.0
 10
14.8906172
 20
7.8497998484
 30
0.0
  0
LINE
  5
41D
100
AcDbEntity
  8
0
100
AcDbLine
 62
7
  6
CONTINUOUS
 10
13.7848753483
 20
7.4098760003
 11
13.7846273241
 21
7.4099062247
  0
ENDSEC
  0
SECTION
  2
OBJECTS
  0
DICTIONARY
  5
C
100
AcDbDictionary
280
0
281
1
  3
ACAD_GROUP
350
D
  3
ACAD_MLINESTYLE
350
17
  3
ACAD_LAYOUT
350
1A
  3
ACAD_PLOTSETTINGS
350
19
  3
ACAD_PLOTSTYLENAME
350
E
  0
DICTIONARY
  5
D
102
{ACAD_REACTORS
330
C
102
}
100
AcDbDictionary
280
0
281
1
  0
ACDBDICTIONARYWDFLT
  5
E
102
{ACAD_REACTORS
330
C
102
}
100
AcDbDictionary
281
1
  3
Normal
350
F
100
AcDbDictionaryWithDefault
340
F
  0
DICTIONARY
  5
17
102
{ACAD_REACTORS
330
C
102
}
100
AcDbDictionary
280
0
281
1
  3
Standard
350
18
  0
DICTIONARY
  5
19
102
{ACAD_REACTORS
330
C
102
}
100
AcDbDictionary
281
1
  0
DICTIONARY
  5
1A
102
{ACAD_REACTORS
330
C
102
}
100
AcDbDictionary
281
1
  3
Model
350
41E
  3
Layout1
350
41F
  0
ACDBPLACEHOLDER
  5
F
102
{ACAD_REACTORS
330
E
102
}
  0
MLINESTYLE
  5
18
102
{ACAD_REACTORS
330
17
102
}
100
AcDbMlineStyle
  2
STANDARD
 70
0
  3

 62
256
 51
90.0
 52
90.0
 71
2
 49
0.5
 62
256
  6
BYLAYER
 49
-0.5
 62
256
  6
BYLAYER
  0
LAYOUT
  5
41E
102
{ACAD_REACTORS
330
1A
102
}
100
AcDbPlotSettings
  1

  2
none_device
  4
ANSI_C_(22.00_x_17.00_Inches)
  6

 40
0.0
 41
0.0
 42
0.0
 43
0.0
 44
558.8
 45
431.8
 46
0.0
 47
0.0
 48
0.0
 49
0.0
140
0.0
141
0.0
142
1.0
143
1.0
 70
1024
 72
0
 73
0
 74
0
  7

 75
0
147
1.0
148
0.0
149
0.0
100
AcDbLayout
  1
Model
 70
0
 71
0
 10
0.0
 20
0.0
 11
22.0
 21
17.0
 12
0.0
 22
0.0
 32
0.0
 14
0.0
 24
0.0
 34
0.0
 15
0.0
 25
0.0
 35
0.0
146
0.0
 13
0.0
 23
0.0
 33
0.0
 16
1.0
 26
0.0
 36
0.0
 17
0.0
 27
1.0
 37
0.0
 76
0
330
205
345
0
346
0
  0
LAYOUT
  5
41F
102
{ACAD_REACTORS
330
1A
102
}
100
AcDbPlotSettings
  1

  2
none_device
  4
ANSI_C_(22.00_x_17.00_Inches)
  6

 40
0.0
 41
0.0
 42
0.0
 43
0.0
 44
558.8
 45
431.8
 46
0.0
 47
0.0
 48
0.0
 49
0.0
140
0.0
141
0.0
142
1.0
143
1.0
 70
0
 72
0
 73
0
 74
0
  7

 75
0
147
1.0
148
0.0
149
0.0
100
AcDbLayout
  1
Layout1
 70
0
 71
1
 10
0.0
 20
0.0
 11
22.0
 21
17.0
 12
0.0
 22
0.0
 32
0.0
 14
0.0
 24
0.0
 34
0.0
 15
0.0
 25
0.0
 35
0.0
146
0.0
 13
0.0
 23
0.0
 33
0.0
 16
1.0
 26
0.0
 36
0.0
 17
0.0
 27
1.0
 37
0.0
 76
0
330
206
345
0
346
0
  0
ENDSEC
  0
EOF
