999
DXF file: E:\BT Custom\CADOUTPUT\_TOP.dxf
999
Pro/ENGINEER 2018400 by Parametric Technology Corporation
  0
SECTION
  2
HEADER
  9
$ACADVER
  1
AC1018
  9
$DWGCODEPAGE
  3
ANSI_1252
  9
$EXTMAX
 10
22.0
 20
17.0
 30
0.0
  9
$EXTMIN
 10
0.0
 20
0.0
 30
0.0
  9
$LIMMIN
 10
0.0
 20
0.0
  9
$LIMMAX
 10
22.0
 20
17.0
  9
$VIEWCTR
 10
11.0
 20
8.5
  9
$VIEWSIZE
 40
17.0
  9
$CLAYER
  8
0
  9
$LTSCALE
 40
1.21
  9
$CELTYPE
  6
BYLAYER
  9
$DIMSCALE
 40
1.0
  9
$DIMASZ
 40
0.1
  9
$DIMEXO
 40
0.0625
  9
$DIMDLI
 40
0.836
  9
$DIMEXE
 40
0.125
  9
$DIMCEN
 40
0.198
  9
$DIMLFAC
 40
1.0
  9
$DIMBLK
  1
_FILLED
  9
$DIMALT
 70
1
  9
$DIMALTD
 70
2
  9
$DIMALTTD
 70
2
  9
$DIMALTF
 40
25.4
  9
$DIMTXT
 40
0.08
  9
$DIMTOL
 70
1
  9
$DIMLIM
 70
0
  9
$DIMTFAC
 40
1.0
  9
$DIMTP
 40
0.001
  9
$DIMTM
 40
0.001
  9
$DIMGAP
 40
0.09
  9
$DIMDSEP
 70
46
  9
$AUNITS
 70
0
  9
$PDMODE
 70
3
  9
$PDSIZE
 40
0.06
  9
$HANDSEED
  5
67C
  9
$TILEMODE
 70
1
  9
$MEASUREMENT
 70
0
  9
$INSUNITS
 70
1
  0
ENDSEC
  0
SECTION
  2
CLASSES
  0
CLASS
  1
ACDBDICTIONARYWDFLT
  2
AcDbDictionaryWithDefault
  3
AutoCAD 2000
 90
0
 91
1
280
0
281
0
  0
CLASS
  1
ACDBPLACEHOLDER
  2
AcDbPlaceHolder
  3
AutoCAD 2000
 90
0
 91
1
280
0
281
0
  0
CLASS
  1
LAYOUT
  2
AcDbLayout
  3
AutoCAD 2000
 90
0
 91
0
280
0
281
0
  0
ENDSEC
  0
SECTION
  2
TABLES
  0
TABLE
  2
VPORT
  5
8
100
AcDbSymbolTable
 70
2
  0
VPORT
  5
1F4
100
AcDbSymbolTableRecord
100
AcDbViewportTableRecord
  2
*ACTIVE
 70
0
 10
0.0
 20
0.0
 11
1.0
 21
1.0
 12
11.0
 22
8.5
 13
0.0
 23
0.0
 14
1.0
 24
1.0
 15
0.0
 25
0.0
 16
0.0
 26
0.0
 36
1.0
 17
0.0
 27
0.0
 37
0.0
 40
17.0
 41
1.2941176471
 42
50.0
 43
0.0
 44
0.0
 50
0.0
 51
0.0
 71
0
 72
100
 73
1
 74
1
 75
0
 76
0
 77
0
 78
0
  0
ENDTAB
  0
TABLE
  2
LTYPE
  5
5
100
AcDbSymbolTable
 70
6
  0
LTYPE
  5
14
100
AcDbSymbolTableRecord
100
AcDbLinetypeTableRecord
  2
BYBLOCK
 70
0
  3

 72
65
 73
0
 40
0.0
  0
LTYPE
  5
15
100
AcDbSymbolTableRecord
100
AcDbLinetypeTableRecord
  2
BYLAYER
 70
0
  3

 72
65
 73
0
 40
0.0
  0
LTYPE
  5
16
100
AcDbSymbolTableRecord
100
AcDbLinetypeTableRecord
  2
CONTINUOUS
 70
64
  3
Solid line
 72
65
 73
0
 40
0.0
  0
LTYPE
  5
1F5
100
AcDbSymbolTableRecord
100
AcDbLinetypeTableRecord
  2
CENTER
 70
64
  3
____ _ ____ _ ____ _ ____ _ ____ _ ____ _ ____
 72
65
 73
4
 40
0.6
 49
0.375
 74
0
 49
-0.075
 74
0
 49
0.075
 74
0
 49
-0.075
 74
0
  0
LTYPE
  5
1F6
100
AcDbSymbolTableRecord
100
AcDbLinetypeTableRecord
  2
HIDDEN
 70
64
  3
- - - - - - - - - - - - - - - - - - - -
 72
65
 73
2
 40
0.2
 49
0.1
 74
0
 49
-0.1
 74
0
  0
LTYPE
  5
1F7
100
AcDbSymbolTableRecord
100
AcDbLinetypeTableRecord
  2
PHANTOM
 70
64
  3
_____ _ _ _____ _ _ _____ _ _ _____
 72
65
 73
6
 40
0.8
 49
0.45
 74
0
 49
-0.05
 74
0
 49
0.1
 74
0
 49
-0.05
 74
0
 49
0.1
 74
0
 49
-0.05
 74
0
  0
LTYPE
  5
1F8
100
AcDbSymbolTableRecord
100
AcDbLinetypeTableRecord
  2
DOT
 70
64
  3
. . . . . . . . . . . . . . . . . . . .
 72
65
 73
2
 40
0.2
 49
0.1
 74
0
 49
-0.1
 74
0
  0
LTYPE
  5
1F9
100
AcDbSymbolTableRecord
100
AcDbLinetypeTableRecord
  2
DASHED
 70
64
  3
- - - - - - - - - - - - - - - - - - - -
 72
65
 73
2
 40
0.2
 49
0.1
 74
0
 49
-0.1
 74
0
  0
ENDTAB
  0
TABLE
  2
LAYER
  5
2
100
AcDbSymbolTable
 70
36
  0
LAYER
  5
10
100
AcDbSymbolTableRecord
100
AcDbLayerTableRecord
  2
0
 70
0
 62
7
  6
CONTINUOUS
370
-3
390
F
  0
LAYER
  5
1FA
100
AcDbSymbolTableRecord
100
AcDbLayerTableRecord
  2
DEFAULT_1
 70
0
 62
7
  6
CENTER
370
-3
390
F
  0
LAYER
  5
1FB
100
AcDbSymbolTableRecord
100
AcDbLayerTableRecord
  2
DEFAULT_2
 70
0
 62
8
  6
HIDDEN
370
-3
390
F
  0
LAYER
  5
1FC
100
AcDbSymbolTableRecord
100
AcDbLayerTableRecord
  2
DEFAULT_3
 70
0
 62
7
  6
PHANTOM
370
-3
390
F
  0
LAYER
  5
1FD
100
AcDbSymbolTableRecord
100
AcDbLayerTableRecord
  2
ALL_FEATURES
 70
0
 62
7
  6
CONTINUOUS
370
-3
390
F
  0
LAYER
  5
1FE
100
AcDbSymbolTableRecord
100
AcDbLayerTableRecord
  2
AXES_FEATURES
 70
0
 62
7
  6
CONTINUOUS
370
-3
390
F
  0
LAYER
  5
1FF
100
AcDbSymbolTableRecord
100
AcDbLayerTableRecord
  2
DEFAULT_COORDINATE_SYSTEM
 70
0
 62
7
  6
CONTINUOUS
370
-3
390
F
  0
LAYER
  5
200
100
AcDbSymbolTableRecord
100
AcDbLayerTableRecord
  2
DEFAULT_DATUM_AXES
 70
0
 62
7
  6
CONTINUOUS
370
-3
390
F
  0
LAYER
  5
201
100
AcDbSymbolTableRecord
100
AcDbLayerTableRecord
  2
DEFAULT_DATUM_PLANES
 70
0
 62
7
  6
CONTINUOUS
370
-3
390
F
  0
LAYER
  5
202
100
AcDbSymbolTableRecord
100
AcDbLayerTableRecord
  2
DIMENSIONS
 70
0
 62
7
  6
CONTINUOUS
370
-3
390
F
  0
ENDTAB
  0
TABLE
  2
STYLE
  5
3
100
AcDbSymbolTable
 70
1
  0
STYLE
  5
11
100
AcDbSymbolTableRecord
100
AcDbTextStyleTableRecord
  2
STANDARD
 70
0
 40
0.0
 41
0.8
 50
0.0
 71
0
 42
0.2
  3
txt
  4

  0
STYLE
  5
203
100
AcDbSymbolTableRecord
100
AcDbTextStyleTableRecord
  2
TEXTSTYLE_1
 70
0
 40
0.0
 41
0.8
 50
0.0
 71
0
 42
0.2
  3
gdt
  4

  0
ENDTAB
  0
TABLE
  2
VIEW
  5
6
100
AcDbSymbolTable
 70
0
  0
ENDTAB
  0
TABLE
  2
UCS
  5
7
100
AcDbSymbolTable
 70
0
  0
ENDTAB
  0
TABLE
  2
APPID
  5
9
100
AcDbSymbolTable
 70
1
  0
APPID
  5
204
100
AcDbSymbolTableRecord
100
AcDbRegAppTableRecord
  2
ACAD
 70
0
  0
ENDTAB
  0
TABLE
  2
BLOCK_RECORD
  5
1
100
AcDbSymbolTable
 70
0
  0
BLOCK_RECORD
  5
205
100
AcDbSymbolTableRecord
100
AcDbBlockTableRecord
  2
*Model_Space
  0
BLOCK_RECORD
  5
206
100
AcDbSymbolTableRecord
100
AcDbBlockTableRecord
  2
*Paper_Space
  0
BLOCK_RECORD
  5
207
100
AcDbSymbolTableRecord
100
AcDbBlockTableRecord
  2
_FILLED
  0
ENDTAB
  0
TABLE
  2
DIMSTYLE
  5
A
100
AcDbSymbolTable
 70
1
100
AcDbDimStyleTable
 71
0
  0
DIMSTYLE
105
208
100
AcDbSymbolTableRecord
100
AcDbDimStyleTableRecord
  2
STANDARD
 70
0
  3

  4

 40
1.0
 41
0.1
 42
0.0625
 43
0.38
 44
0.125
 45
0.0
 46
0.0
 47
0.001
 48
0.001
140
0.08
141
0.09
142
0.0
143
25.4
144
1.0
145
0.0
146
1.0
147
0.09
 71
1.0
 72
0.0
 73
1
 74
1
 75
0
 76
0
 77
0
 78
4
 79
1
170
1
171
2
172
0
173
0
174
0
175
0
176
0
177
0
178
0
270
2
179
3
271
3
272
3
273
2
274
2
275
0
280
0
281
0
282
0
283
1
284
4
285
0
286
0
287
3
288
0
340
11
278
46
341
207
342
207
343
207
344
207
  0
ENDTAB
  0
ENDSEC
  0
SECTION
  2
BLOCKS
  0
BLOCK
  5
20
100
AcDbEntity
  8
0
100
AcDbBlockBegin
  2
*Model_Space
 70
0
 10
0.0
 20
0.0
 30
0.0
  3
*Model_Space
  1

  0
ENDBLK
  5
21
100
AcDbEntity
  8
0
100
AcDbBlockEnd
  0
BLOCK
  5
1C
100
AcDbEntity
  8
0
100
AcDbBlockBegin
  2
*Paper_Space
 70
0
 10
0.0
 20
0.0
 30
0.0
  3
*Paper_Space
  1

  0
ENDBLK
  5
1D
100
AcDbEntity
  8
0
100
AcDbBlockEnd
  0
BLOCK
  5
209
100
AcDbEntity
  8
0
100
AcDbBlockBegin
  2
_FILLED
 70
64
 10
0.0
 20
0.0
  3
_FILLED
  1

  0
SOLID
  5
20A
100
AcDbEntity
  8
0
  6
BYBLOCK
 62
0
100
AcDbTrace
 10
0.0
 20
0.0
 11
-1.0
 21
0.2
 12
-1.0
 22
-0.2
 13
-1.0
 23
-0.2
  0
ENDBLK
  5
20B
100
AcDbEntity
  8
0
  6
BYBLOCK
 62
0
100
AcDbBlockEnd
  0
ENDSEC
  0
SECTION
  2
ENTITIES
  0
LINE
  5
20C
100
AcDbEntity
  8
0
100
AcDbLine
 62
7
  6
CONTINUOUS
 10
1.5788611709
 20
11.9733113308
 11
1.577653355
 21
11.9704658949
  0
LINE
  5
20D
100
AcDbEntity
  8
0
100
AcDbLine
 62
7
  6
CONTINUOUS
 10
1.5777832289
 20
11.9995379854
 11
1.5747814037
 21
11.9943428872
  0
LINE
  5
20E
100
AcDbEntity
  8
0
100
AcDbLine
 62
9
  6
CONTINUOUS
 10
0.5377192651
 20
12.6575070744
 11
0.6890268351
 21
12.8088146445
  0
LINE
  5
20F
100
AcDbEntity
  8
0
100
AcDbLine
 62
9
  6
CONTINUOUS
 10
0.5956446306
 20
12.4158725393
 11
0.9306613702
 21
12.750889279
  0
LINE
  5
210
100
AcDbEntity
  8
0
100
AcDbLine
 62
9
  6
CONTINUOUS
 10
0.7930745354
 20
12.2184426346
 11
1.128091275
 21
12.5534593742
  0
LINE
  5
211
100
AcDbEntity
  8
0
100
AcDbLine
 62
9
  6
CONTINUOUS
 10
0.8823283149
 20
12.1746999471
 11
1.1718339625
 21
12.4642055946
  0
LINE
  5
212
100
AcDbEntity
  8
0
100
AcDbLine
 62
7
  6
CONTINUOUS
 10
1.4735683383
 20
11.5929655713
 11
1.4735683383
 21
11.6129655713
  0
LINE
  5
213
100
AcDbEntity
  8
0
100
AcDbLine
 62
7
  6
CONTINUOUS
 10
1.4735683383
 20
11.7179655713
 11
1.4735683383
 21
11.7329655713
  0
LINE
  5
214
100
AcDbEntity
  8
0
100
AcDbLine
 62
7
  6
CONTINUOUS
 10
1.4880683383
 20
11.6321944558
 11
1.4880683383
 21
11.6937366868
  0
LINE
  5
215
100
AcDbEntity
  8
0
100
AcDbLine
 62
7
  6
CONTINUOUS
 10
1.6766295707
 20
11.9625533773
 11
1.6770221452
 21
11.9715448113
  0
LINE
  5
216
100
AcDbEntity
  8
0
100
AcDbLine
 62
7
  6
CONTINUOUS
 10
1.6789850176
 20
12.0165019813
 11
1.6792467339
 21
12.0224962706
  0
LINE
  5
217
100
AcDbEntity
  8
0
100
AcDbLine
 62
7
  6
CONTINUOUS
 10
1.6802459428
 20
11.97660516
 11
1.6817555093
 21
12.0111799163
  0
LINE
  5
218
100
AcDbEntity
  8
0
100
AcDbLine
 62
7
  6
CONTINUOUS
 10
1.6959117904
 20
12.0144538622
 11
1.6951534965
 21
11.9970860768
  0
LINE
  5
219
100
AcDbEntity
  8
0
100
AcDbLine
 62
7
  6
CONTINUOUS
 10
1.6947911139
 20
11.9887861497
 11
1.6942326179
 21
11.9759944886
  0
LINE
  5
21A
100
AcDbEntity
  8
0
100
AcDbLine
 62
7
  6
CONTINUOUS
 10
1.5959760255
 20
11.9651871024
 11
1.5938133794
 21
11.9491841021
  0
LINE
  5
21B
100
AcDbEntity
  8
0
100
AcDbLine
 62
7
  6
CONTINUOUS
 10
1.583288292
 20
11.316238139
 11
1.5851594972
 21
11.3250414674
  0
LINE
  5
21C
100
AcDbEntity
  8
0
100
AcDbLine
 62
7
  6
CONTINUOUS
 10
1.5945155233
 20
11.3690581094
 11
1.5957629934
 21
11.374926995
  0
LINE
  5
21D
100
AcDbEntity
  8
0
100
AcDbLine
 62
7
  6
CONTINUOUS
 10
1.5925199339
 20
11.3332160605
 11
1.5979147102
 21
11.3585964878
  0
LINE
  5
21E
100
AcDbEntity
  8
0
100
AcDbLine
 62
7
  6
CONTINUOUS
 10
1.6123182832
 20
11.3638334245
 11
1.607914344
 21
11.3431145194
  0
LINE
  5
21F
100
AcDbEntity
  8
0
100
AcDbLine
 62
7
  6
CONTINUOUS
 10
1.606205945
 20
11.3350771343
 11
1.6052358527
 21
11.3305132085
  0
LINE
  5
220
100
AcDbEntity
  8
0
100
AcDbLine
 62
7
  6
CONTINUOUS
 10
1.6086350396
 20
11.3200515868
 11
1.6067638344
 21
11.3112482584
  0
LINE
  5
221
100
AcDbEntity
  8
0
100
AcDbLine
 62
7
  6
CONTINUOUS
 10
1.6438483532
 20
11.312566766
 11
1.641977148
 21
11.3037634376
  0
LINE
  5
222
100
AcDbEntity
  8
0
100
AcDbLine
 62
7
  6
CONTINUOUS
 10
1.6241764339
 20
11.9807193649
 11
1.6318743476
 21
12.0135151356
  0
LINE
  5
223
100
AcDbEntity
  8
0
100
AcDbLine
 62
7
  6
CONTINUOUS
 10
1.6320720238
 20
11.9881005048
 11
1.6243741101
 21
11.9553047341
  0
LINE
  5
224
100
AcDbEntity
  8
0
100
AcDbLine
 62
7
  6
CONTINUOUS
 10
1.6493299491
 20
11.9847032903
 11
1.6545723694
 21
12.007037811
  0
LINE
  5
225
100
AcDbEntity
  8
0
100
AcDbLine
 62
7
  6
CONTINUOUS
 10
1.6620063116
 20
12.0124521723
 11
1.6495276253
 21
11.9592886595
  0
LINE
  5
226
100
AcDbEntity
  8
0
100
AcDbLine
 62
7
  6
CONTINUOUS
 10
1.9258670983
 20
11.929238572
 11
1.9232002079
 21
11.9209523003
  0
LINE
  5
227
100
AcDbEntity
  8
0
100
AcDbLine
 62
7
  6
CONTINUOUS
 10
1.635082307
 20
11.634094763
 11
1.6710683383
 21
11.7329655713
  0
LINE
  5
228
100
AcDbEntity
  8
0
100
AcDbLine
 62
7
  6
CONTINUOUS
 10
1.678087005
 20
11.7083921336
 11
1.6597332373
 21
11.6579655713
  0
LINE
  5
229
100
AcDbEntity
  8
0
100
AcDbLine
 62
7
  6
CONTINUOUS
 10
1.6524538326
 20
11.6379655713
 11
1.6502589016
 21
11.631935048
  0
LINE
  5
22A
100
AcDbEntity
  8
0
100
AcDbLine
 62
7
  6
CONTINUOUS
 10
1.6628036142
 20
11.3210260865
 11
1.6780683383
 21
11.3629655713
  0
LINE
  5
22B
100
AcDbEntity
  8
0
100
AcDbLine
 62
7
  6
CONTINUOUS
 10
1.6808437161
 20
11.3530480327
 11
1.6728063574
 21
11.3309655713
  0
LINE
  5
22C
100
AcDbEntity
  8
0
100
AcDbLine
 62
7
  6
CONTINUOUS
 10
1.6695306253
 20
11.3219655713
 11
1.6687220009
 21
11.319743894
  0
LINE
  5
22D
100
AcDbEntity
  8
0
100
AcDbLine
 62
7
  6
CONTINUOUS
 10
1.5188722376
 20
11.3422239394
 11
1.5225328674
 21
11.3504458485
  0
LINE
  5
22E
100
AcDbEntity
  8
0
100
AcDbLine
 62
7
  6
CONTINUOUS
 10
1.5408360163
 20
11.3915553941
 11
1.5432764362
 21
11.3970366669
  0
LINE
  5
22F
100
AcDbEntity
  8
0
100
AcDbLine
 62
7
  6
CONTINUOUS
 10
1.529829067
 20
11.3545404146
 11
1.5426752713
 21
11.3833934617
  0
LINE
  5
230
100
AcDbEntity
  8
0
100
AcDbLine
 62
7
  6
CONTINUOUS
 10
1.5559595525
 20
11.3837273257
 11
1.5498585028
 21
11.3700241439
  0
LINE
  5
231
100
AcDbEntity
  8
0
100
AcDbLine
 62
7
  6
CONTINUOUS
 10
1.5457911364
 20
11.3608886893
 11
1.5376564035
 21
11.3426177801
  0
LINE
  5
232
100
AcDbEntity
  8
0
100
AcDbLine
 62
7
  6
CONTINUOUS
 10
1.79217146
 20
11.9426642698
 11
1.7961168003
 21
11.9507534162
  0
LINE
  5
233
100
AcDbEntity
  8
0
100
AcDbLine
 62
7
  6
CONTINUOUS
 10
1.8158435019
 20
11.9911991483
 11
1.8184737288
 21
11.9965919126
  0
LINE
  5
234
100
AcDbEntity
  8
0
100
AcDbLine
 62
7
  6
CONTINUOUS
 10
1.8052362136
 20
11.9569045382
 11
1.8166108232
 21
11.9802259438
  0
LINE
  5
235
100
AcDbEntity
  8
0
100
AcDbLine
 62
7
  6
CONTINUOUS
 10
1.8318534781
 20
11.9818227814
 11
1.8225679979
 21
11.9627847257
  0
LINE
  5
236
100
AcDbEntity
  8
0
100
AcDbLine
 62
7
  6
CONTINUOUS
 10
1.8189659263
 20
11.9553993844
 11
1.8169205362
 21
11.9512057133
  0
LINE
  5
237
100
AcDbEntity
  8
0
100
AcDbLine
 62
7
  6
CONTINUOUS
 10
1.8176878574
 20
11.9402325087
 11
1.8137425171
 21
11.9321433623
  0
LINE
  5
238
100
AcDbEntity
  8
0
100
AcDbLine
 62
7
  6
CONTINUOUS
 10
1.8500444431
 20
11.9244511474
 11
1.8460991028
 21
11.916362001
  0
LINE
  5
239
100
AcDbEntity
  8
0
100
AcDbLine
 62
7
  6
CONTINUOUS
 10
1.8574069796
 20
11.9065843858
 11
1.8629479329
 21
11.9136764826
  0
LINE
  5
23A
100
AcDbEntity
  8
0
100
AcDbLine
 62
7
  6
CONTINUOUS
 10
1.875001323
 20
11.9185463683
 11
1.8947281447
 21
11.9437955486
  0
LINE
  5
23B
100
AcDbEntity
  8
0
100
AcDbLine
 62
7
  6
CONTINUOUS
 10
1.9049722845
 20
11.9357919495
 11
1.8852454628
 21
11.9105427691
  0
LINE
  5
23C
100
AcDbEntity
  8
0
100
AcDbLine
 62
7
  6
CONTINUOUS
 10
1.8834362125
 20
11.8976692842
 11
1.8778952592
 21
11.8905771875
  0
LINE
  5
23D
100
AcDbEntity
  8
0
100
AcDbLine
 62
9
  6
CONTINUOUS
 10
1.0818225663
 20
12.052579309
 11
1.2939546006
 21
12.2647113433
  0
LINE
  5
23E
100
AcDbEntity
  8
0
100
AcDbLine
 62
7
  6
CONTINUOUS
 10
2.073182076
 20
12.2647113433
 11
1.914555804
 21
12.1060850713
  0
LINE
  5
23F
100
AcDbEntity
  8
0
100
AcDbLine
 62
7
  6
CONTINUOUS
 10
1.0818225663
 20
11.2733518336
 11
1.2404488382
 21
11.4319781056
  0
LINE
  5
240
100
AcDbEntity
  8
0
100
AcDbLine
 62
7
  6
CONTINUOUS
 10
1.7275760232
 20
11.3116336615
 11
1.7267909839
 21
11.3266131045
  0
LINE
  5
241
100
AcDbEntity
  8
0
100
AcDbLine
 62
7
  6
CONTINUOUS
 10
1.7769817197
 20
11.3677821949
 11
1.777766759
 21
11.3528027519
  0
LINE
  5
242
100
AcDbEntity
  8
0
100
AcDbLine
 62
7
  6
CONTINUOUS
 10
1.5210683383
 20
11.6937366868
 11
1.5210683383
 21
11.6737366868
  0
LINE
  5
243
100
AcDbEntity
  8
0
100
AcDbLine
 62
7
  6
CONTINUOUS
 10
1.5210683383
 20
11.6549655713
 11
1.5210683383
 21
11.6321944558
  0
LINE
  5
244
100
AcDbEntity
  8
0
100
AcDbLine
 62
7
  6
CONTINUOUS
 10
1.5335683383
 20
11.7329655713
 11
1.5335683383
 21
11.712277183
  0
LINE
  5
245
100
AcDbEntity
  8
0
100
AcDbLine
 62
7
  6
CONTINUOUS
 10
1.5335683383
 20
11.6136539596
 11
1.5335683383
 21
11.5929655713
  0
LINE
  5
246
100
AcDbEntity
  8
0
100
AcDbLine
 62
7
  6
CONTINUOUS
 10
1.5485683383
 20
11.5929655713
 11
1.5485683383
 21
11.6136539596
  0
LINE
  5
247
100
AcDbEntity
  8
0
100
AcDbLine
 62
7
  6
CONTINUOUS
 10
1.5485683383
 20
11.712277183
 11
1.5485683383
 21
11.7329655713
  0
LINE
  5
248
100
AcDbEntity
  8
0
100
AcDbLine
 62
7
  6
CONTINUOUS
 10
1.5610683383
 20
11.6321944558
 11
1.5610683383
 21
11.6549655713
  0
LINE
  5
249
100
AcDbEntity
  8
0
100
AcDbLine
 62
7
  6
CONTINUOUS
 10
1.5610683383
 20
11.6737366868
 11
1.5610683383
 21
11.6937366868
  0
LINE
  5
24A
100
AcDbEntity
  8
0
100
AcDbLine
 62
7
  6
CONTINUOUS
 10
1.5940683383
 20
11.6937366868
 11
1.5940683383
 21
11.6321944558
  0
LINE
  5
24B
100
AcDbEntity
  8
0
100
AcDbLine
 62
7
  6
CONTINUOUS
 10
1.6085683383
 20
11.7329655713
 11
1.6085683383
 21
11.7179655713
  0
LINE
  5
24C
100
AcDbEntity
  8
0
100
AcDbLine
 62
7
  6
CONTINUOUS
 10
1.6085683383
 20
11.6129655713
 11
1.6085683383
 21
11.5929655713
  0
LINE
  5
24D
100
AcDbEntity
  8
0
100
AcDbLine
 62
7
  6
CONTINUOUS
 10
1.6135683383
 20
11.5929655713
 11
1.6135683383
 21
11.6129655713
  0
LINE
  5
24E
100
AcDbEntity
  8
0
100
AcDbLine
 62
7
  6
CONTINUOUS
 10
1.6535683383
 20
11.3029655713
 11
1.6535683383
 21
11.3119655713
  0
LINE
  5
24F
100
AcDbEntity
  8
0
100
AcDbLine
 62
7
  6
CONTINUOUS
 10
1.6585683383
 20
11.6129655713
 11
1.6585683383
 21
11.5929655713
  0
LINE
  5
250
100
AcDbEntity
  8
0
100
AcDbLine
 62
7
  6
CONTINUOUS
 10
1.6725683383
 20
11.3119655713
 11
1.6725683383
 21
11.3029655713
  0
LINE
  5
251
100
AcDbEntity
  8
0
100
AcDbLine
 62
7
  6
CONTINUOUS
 10
1.6891190939
 20
11.3029655713
 11
1.6891190939
 21
11.3119655713
  0
LINE
  5
252
100
AcDbEntity
  8
0
100
AcDbLine
 62
7
  6
CONTINUOUS
 10
1.6976056717
 20
11.5929655713
 11
1.6976056717
 21
11.6129655713
  0
LINE
  5
253
100
AcDbEntity
  8
0
100
AcDbLine
 62
7
  6
CONTINUOUS
 10
1.7155683383
 20
11.3119655713
 11
1.7155683383
 21
11.3029655713
  0
LINE
  5
254
100
AcDbEntity
  8
0
100
AcDbLine
 62
7
  6
CONTINUOUS
 10
1.7485683383
 20
11.7179655713
 11
1.7485683383
 21
11.7329655713
  0
LINE
  5
255
100
AcDbEntity
  8
0
100
AcDbLine
 62
7
  6
CONTINUOUS
 10
1.7585683383
 20
11.6129655713
 11
1.7585683383
 21
11.5929655713
  0
LINE
  5
256
100
AcDbEntity
  8
0
100
AcDbLine
 62
7
  6
CONTINUOUS
 10
1.7645683383
 20
11.6479655713
 11
1.7645683383
 21
11.7019655713
  0
LINE
  5
257
100
AcDbEntity
  8
0
100
AcDbLine
 62
7
  6
CONTINUOUS
 10
1.7945683383
 20
11.6479655713
 11
1.7945683383
 21
11.7019655713
  0
LINE
  5
258
100
AcDbEntity
  8
0
100
AcDbLine
 62
7
  6
CONTINUOUS
 10
1.8105683383
 20
11.7329655713
 11
1.8105683383
 21
11.7179655713
  0
LINE
  5
259
100
AcDbEntity
  8
0
100
AcDbLine
 62
7
  6
CONTINUOUS
 10
1.8385683383
 20
11.7179655713
 11
1.8385683383
 21
11.7329655713
  0
LINE
  5
25A
100
AcDbEntity
  8
0
100
AcDbLine
 62
7
  6
CONTINUOUS
 10
1.8545683383
 20
11.7019655713
 11
1.8545683383
 21
11.6479655713
  0
LINE
  5
25B
100
AcDbEntity
  8
0
100
AcDbLine
 62
7
  6
CONTINUOUS
 10
1.8745683383
 20
11.7019655713
 11
1.8745683383
 21
11.6479655713
  0
LINE
  5
25C
100
AcDbEntity
  8
0
100
AcDbLine
 62
7
  6
CONTINUOUS
 10
1.8885683383
 20
11.7329655713
 11
1.8885683383
 21
11.7159655713
  0
LINE
  5
25D
100
AcDbEntity
  8
0
100
AcDbLine
 62
7
  6
CONTINUOUS
 10
1.8935683383
 20
11.5929655713
 11
1.8935683383
 21
11.6129655713
  0
LINE
  5
25E
100
AcDbEntity
  8
0
100
AcDbLine
 62
7
  6
CONTINUOUS
 10
1.8935683383
 20
11.7179655713
 11
1.8935683383
 21
11.7329655713
  0
LINE
  5
25F
100
AcDbEntity
  8
0
100
AcDbLine
 62
7
  6
CONTINUOUS
 10
1.9015683383
 20
11.6262320705
 11
1.9015683383
 21
11.7046990721
  0
LINE
  5
260
100
AcDbEntity
  8
0
100
AcDbLine
 62
7
  6
CONTINUOUS
 10
1.9385683383
 20
11.6179655713
 11
1.9385683383
 21
11.7129655713
  0
LINE
  5
261
100
AcDbEntity
  8
0
100
AcDbLine
 62
7
  6
CONTINUOUS
 10
1.6966105351
 20
11.9616809896
 11
1.6970031096
 21
11.9706724236
  0
LINE
  5
262
100
AcDbEntity
  8
0
100
AcDbLine
 62
7
  6
CONTINUOUS
 10
2.2853141103
 20
12.052579309
 11
2.1266878383
 21
11.893953037
  0
LINE
  5
263
100
AcDbEntity
  8
0
100
AcDbLine
 62
7
  6
CONTINUOUS
 10
1.2939546006
 20
11.0612197993
 11
1.4525808726
 21
11.2198460713
  0
LINE
  5
264
100
AcDbEntity
  8
0
100
AcDbLine
 62
9
  6
CONTINUOUS
 10
2.2853141103
 20
11.2733518336
 11
2.073182076
 21
11.0612197993
  0
LINE
  5
265
100
AcDbEntity
  8
0
100
AcDbLine
 62
7
  6
CONTINUOUS
 10
1.4482829229
 20
11.9357691147
 11
1.4620568287
 21
11.9457764431
  0
LINE
  5
266
100
AcDbEntity
  8
0
100
AcDbLine
 62
7
  6
CONTINUOUS
 10
1.4814526196
 20
11.9598683101
 11
1.4992509935
 21
11.9727995856
  0
LINE
  5
267
100
AcDbEntity
  8
0
100
AcDbLine
 62
7
  6
CONTINUOUS
 10
1.5345181087
 20
11.924258566
 11
1.5207442028
 21
11.9142512376
  0
LINE
  5
268
100
AcDbEntity
  8
0
100
AcDbLine
 62
7
  6
CONTINUOUS
 10
1.5013484119
 20
11.9001593706
 11
1.483550038
 21
11.8872280951
  0
LINE
  5
269
100
AcDbEntity
  8
0
100
AcDbLine
 62
9
  6
CONTINUOUS
 10
2.4848083616
 20
11.1512311955
 11
2.1953027141
 21
10.861725548
  0
LINE
  5
26A
100
AcDbEntity
  8
0
100
AcDbLine
 62
9
  6
CONTINUOUS
 10
2.5740621412
 20
11.107488508
 11
2.2390454016
 21
10.7724717684
  0
LINE
  5
26B
100
AcDbEntity
  8
0
100
AcDbLine
 62
9
  6
CONTINUOUS
 10
2.771492046
 20
10.9100586033
 11
2.4364753063
 21
10.5750418636
  0
LINE
  5
26C
100
AcDbEntity
  8
0
100
AcDbLine
 62
9
  6
CONTINUOUS
 10
2.8294174115
 20
10.6684240682
 11
2.6781098414
 21
10.5171164981
  0
LINE
  5
26D
100
AcDbEntity
  8
0
100
AcDbLine
 62
7
  6
CONTINUOUS
 10
1.8759195627
 20
11.9578919888
 11
1.8833145176
 21
11.9624842917
  0
LINE
  5
26E
100
AcDbEntity
  8
0
100
AcDbLine
 62
7
  6
CONTINUOUS
 10
1.4555683383
 20
11.7329655713
 11
1.4685683383
 21
11.6870520393
  0
LINE
  5
26F
100
AcDbEntity
  8
0
100
AcDbLine
 62
7
  6
CONTINUOUS
 10
1.5904774055
 20
12.0046091403
 11
1.5895387987
 21
12.0105352703
  0
LINE
  5
270
100
AcDbEntity
  8
0
100
AcDbLine
 62
7
  6
CONTINUOUS
 10
1.6152186955
 20
12.0146025664
 11
1.6161573023
 21
12.0086764364
  0
LINE
  5
271
100
AcDbEntity
  8
0
100
AcDbLine
 62
7
  6
CONTINUOUS
 10
1.6483173862
 20
12.0137700933
 11
1.6473787795
 21
12.0196962233
  0
LINE
  5
272
100
AcDbEntity
  8
0
100
AcDbLine
 62
7
  6
CONTINUOUS
 10
1.6655908009
 20
12.0225807241
 11
1.6665294077
 21
12.0166545941
  0
LINE
  5
273
100
AcDbEntity
  8
0
100
AcDbLine
 62
7
  6
CONTINUOUS
 10
1.8764070401
 20
11.9539218042
 11
1.8759195627
 21
11.9578919888
  0
LINE
  5
274
100
AcDbEntity
  8
0
100
AcDbLine
 62
7
  6
CONTINUOUS
 10
1.5231234233
 20
11.9853355905
 11
1.5611599239
 21
12.0007033342
  0
LINE
  5
275
100
AcDbEntity
  8
0
100
AcDbLine
 62
7
  6
CONTINUOUS
 10
1.5655344101
 20
11.9927639287
 11
1.5442734223
 21
11.9841739321
  0
LINE
  5
276
100
AcDbEntity
  8
0
100
AcDbLine
 62
7
  6
CONTINUOUS
 10
1.5485907307
 20
11.9708187515
 11
1.5671344078
 21
11.9783108834
  0
LINE
  5
277
100
AcDbEntity
  8
0
100
AcDbLine
 62
7
  6
CONTINUOUS
 10
1.5677243156
 20
11.9688424089
 11
1.5528893739
 21
11.9628487034
  0
LINE
  5
278
100
AcDbEntity
  8
0
100
AcDbLine
 62
7
  6
CONTINUOUS
 10
1.559257686
 20
11.9470865779
 11
1.5768741793
 21
11.9542041032
  0
LINE
  5
279
100
AcDbEntity
  8
0
100
AcDbLine
 62
7
  6
CONTINUOUS
 10
1.5938133794
 20
11.9491841021
 11
1.5455998189
 21
11.9297045592
  0
LINE
  5
27A
100
AcDbEntity
  8
0
100
AcDbLine
 62
7
  6
CONTINUOUS
 10
1.5455998189
 20
11.9297045592
 11
1.5422283596
 21
11.9380492139
  0
LINE
  5
27B
100
AcDbEntity
  8
0
100
AcDbLine
 62
7
  6
CONTINUOUS
 10
1.5253710629
 20
11.9797724874
 11
1.5231234233
 21
11.9853355905
  0
LINE
  5
27C
100
AcDbEntity
  8
0
100
AcDbLine
 62
7
  6
CONTINUOUS
 10
1.5430633982
 20
11.9439908223
 11
1.5300991274
 21
11.9760785185
  0
LINE
  5
27D
100
AcDbEntity
  8
0
100
AcDbLine
 62
7
  6
CONTINUOUS
 10
1.5426156905
 20
11.9802685607
 11
1.5459871498
 21
11.971923906
  0
LINE
  5
27E
100
AcDbEntity
  8
0
100
AcDbLine
 62
7
  6
CONTINUOUS
 10
1.5512316422
 20
11.9589433321
 11
1.5553523147
 21
11.9487443097
  0
LINE
  5
27F
100
AcDbEntity
  8
0
100
AcDbLine
 62
7
  6
CONTINUOUS
 10
1.6929654313
 20
11.319743894
 11
1.6921568068
 21
11.3219655713
  0
LINE
  5
280
100
AcDbEntity
  8
0
100
AcDbLine
 62
7
  6
CONTINUOUS
 10
1.6888810747
 20
11.3309655713
 11
1.6808437161
 21
11.3530480327
  0
LINE
  5
281
100
AcDbEntity
  8
0
100
AcDbLine
 62
7
  6
CONTINUOUS
 10
1.6910683383
 20
11.3629655713
 11
1.7063330624
 21
11.3210260865
  0
LINE
  5
282
100
AcDbEntity
  8
0
100
AcDbLine
 62
7
  6
CONTINUOUS
 10
1.7059151083
 20
11.631935048
 11
1.7037201774
 21
11.6379655713
  0
LINE
  5
283
100
AcDbEntity
  8
0
100
AcDbLine
 62
7
  6
CONTINUOUS
 10
1.6964407727
 20
11.6579655713
 11
1.678087005
 21
11.7083921336
  0
LINE
  5
284
100
AcDbEntity
  8
0
100
AcDbLine
 62
7
  6
CONTINUOUS
 10
1.7010683383
 20
11.7329655713
 11
1.7370543695
 21
11.634094763
  0
LINE
  5
285
100
AcDbEntity
  8
0
100
AcDbLine
 62
7
  6
CONTINUOUS
 10
1.8054805926
 20
11.3305378507
 11
1.8013460323
 21
11.3449567761
  0
LINE
  5
286
100
AcDbEntity
  8
0
100
AcDbLine
 62
7
  6
CONTINUOUS
 10
1.8409893525
 20
11.3963611644
 11
1.8451239128
 21
11.3819422389
  0
LINE
  5
287
100
AcDbEntity
  8
0
100
AcDbLine
 62
7
  6
CONTINUOUS
 10
1.830819604
 20
11.9238143105
 11
1.8231780275
 21
11.9540628135
  0
LWPOLYLINE
  5
288
100
AcDbEntity
  8
0
100
AcDbPolyline
 62
7
  6
CONTINUOUS
 90
19
 70
0
 10
4.9051623441
 20
4.0974210219
 10
4.9208748169
 20
3.902753163
 10
4.9280561459
 20
3.8132967385
 10
4.9347918764
 20
3.7284495757
 10
4.941100321
 20
3.6475729548
 10
4.9469776957
 20
3.5703056722
 10
4.9524095833
 20
3.4964396586
 10
4.9573838544
 20
3.4257626797
 10
4.9618888891
 20
3.3580776642
 10
4.9659130644
 20
3.2932088304
 10
4.9694460168
 20
3.2309808601
 10
4.9724783387
 20
3.1712182047
 10
4.9750051292
 20
3.1136462291
 10
4.9770232478
 20
3.0578353351
 10
4.978519111
 20
3.0033582833
 10
4.9794636773
 20
2.9499272463
 10
4.9798164178
 20
2.8974520368
 10
4.9795330738
 20
2.8458693408
 10
4.9784835836
 20
2.7920283213
  0
LWPOLYLINE
  5
289
100
AcDbEntity
  8
0
100
AcDbPolyline
 62
7
  6
CONTINUOUS
 90
6
 70
0
 10
4.8612858796
 20
4.6588494705
 10
4.8701773626
 20
4.5411796932
 10
4.8791716472
 20
4.4245875699
 10
4.8880519696
 20
4.3114588149
 10
4.8967419984
 20
4.2022490947
 10
4.9051623441
 20
4.0974210219
  0
LWPOLYLINE
  5
28A
100
AcDbEntity
  8
0
100
AcDbPolyline
 62
7
  6
CONTINUOUS
 90
8
 70
0
 10
4.5310959573
 20
9.7515758768
 10
4.5688472375
 20
8.9393712641
 10
4.6130615852
 20
8.1537170524
 10
4.6613998544
 20
7.397041963
 10
4.7118896884
 20
6.6695983074
 10
4.762901925
 20
5.9709195133
 10
4.8131021878
 20
5.3003738359
 10
4.8612859864
 20
4.6588480404
  0
LWPOLYLINE
  5
28B
100
AcDbEntity
  8
0
100
AcDbPolyline
 62
7
  6
CONTINUOUS
 90
4
 70
0
 10
4.5222376814
 20
9.9829251316
 10
4.5249694486
 20
9.9081329446
 10
4.5279651541
 20
9.8298294749
 10
4.5310959407
 20
9.7515762819
  0
LWPOLYLINE
  5
28C
100
AcDbEntity
  8
0
100
AcDbPolyline
 62
7
  6
CONTINUOUS
 90
8
 70
0
 10
4.4985885451
 20
10.9084200491
 10
4.5005747063
 20
10.7899564048
 10
4.5032981325
 20
10.6507255692
 10
4.5064058794
 20
10.5130406451
 10
4.5098803929
 20
10.3770747869
 10
4.5137019251
 20
10.2430054712
 10
4.5178489028
 20
10.1110033392
 10
4.5222376817
 20
9.9829251228
  0
LINE
  5
28D
100
AcDbEntity
  8
0
100
AcDbLine
 62
7
  6
CONTINUOUS
 10
1.6253486388
 20
11.3072979363
 11
1.6106162745
 21
11.3347992648
  0
LINE
  5
28E
100
AcDbEntity
  8
0
100
AcDbLine
 62
7
  6
CONTINUOUS
 10
1.5758430201
 20
11.980781516
 11
1.5788611709
 21
11.9733113308
  0
LINE
  5
28F
100
AcDbEntity
  8
0
100
AcDbLine
 62
7
  6
CONTINUOUS
 10
4.5109181328
 20
10.9335853378
 11
4.8919420083
 21
4.7764442225
  0
LWPOLYLINE
  5
290
100
AcDbEntity
  8
0
100
AcDbPolyline
 62
7
  6
CONTINUOUS
 90
6
 70
0
 10
4.9742652194
 20
2.6911018216
 10
4.9755718626
 20
2.6567056976
 10
4.9787347489
 20
2.6186241069
 10
4.9838228064
 20
2.5790699815
 10
4.9909552814
 20
2.5380878393
 10
4.9998770144
 20
2.4973878401
  0
LWPOLYLINE
  5
291
100
AcDbEntity
  8
0
100
AcDbPolyline
 62
7
  6
CONTINUOUS
 90
3
 70
0
 10
4.9784840334
 20
2.7920265747
 10
4.9777473611
 20
2.7753543189
 10
4.9767783574
 20
2.7623333999
  0
LWPOLYLINE
  5
292
100
AcDbEntity
  8
0
100
AcDbPolyline
 62
7
  6
CONTINUOUS
 90
4
 70
0
 10
4.9767777264
 20
2.7623331663
 10
4.9754579466
 20
2.7445869916
 10
4.9743423931
 20
2.7175623662
 10
4.9742652216
 20
2.6911016828
  0
LINE
  5
293
100
AcDbEntity
  8
0
100
AcDbLine
 62
7
  6
CONTINUOUS
 10
1.8451239128
 20
11.3819422389
 11
1.8393563427
 21
11.3802884148
  0
LINE
  5
294
100
AcDbEntity
  8
0
100
AcDbLine
 62
7
  6
CONTINUOUS
 10
1.8013460323
 20
11.3449567761
 11
1.8071136025
 21
11.3466106002
  0
LINE
  5
295
100
AcDbEntity
  8
0
100
AcDbLine
 62
7
  6
CONTINUOUS
 10
1.6243741101
 20
11.9553047341
 11
1.5960777453
 21
12.0020101132
  0
LINE
  5
296
100
AcDbEntity
  8
0
100
AcDbLine
 62
7
  6
CONTINUOUS
 10
1.6122888495
 20
12.0003407593
 11
1.6241764339
 21
11.9807193649
  0
LINE
  5
297
100
AcDbEntity
  8
0
100
AcDbLine
 62
7
  6
CONTINUOUS
 10
1.6495276253
 20
11.9592886595
 11
1.6320720238
 21
11.9881005048
  0
LINE
  5
298
100
AcDbEntity
  8
0
100
AcDbLine
 62
7
  6
CONTINUOUS
 10
1.6318743476
 20
12.0135151356
 11
1.6493299491
 21
11.9847032903
  0
LINE
  5
299
100
AcDbEntity
  8
0
100
AcDbLine
 62
7
  6
CONTINUOUS
 10
1.8346760329
 20
11.9488299517
 11
1.845159562
 21
11.9291634394
  0
LWPOLYLINE
  5
29A
100
AcDbEntity
  8
0
100
AcDbPolyline
 62
7
  6
CONTINUOUS
 90
7
 70
0
 10
4.441404107
 20
11.3560020731
 10
4.4579115069
 20
11.2821836598
 10
4.4716538644
 20
11.2077873509
 10
4.4826106441
 20
11.1329158859
 10
4.4907649819
 20
11.0576737458
 10
4.4961039633
 20
10.9821657673
 10
4.4985897335
 20
10.9084201338
  0
LWPOLYLINE
  5
29B
100
AcDbEntity
  8
0
100
AcDbPolyline
 62
7
  6
CONTINUOUS
 90
3
 70
0
 10
6.3903951095
 20
2.7622639076
 10
6.3893618799
 20
2.7761241462
 10
6.3886324817
 20
2.7927819524
  0
LWPOLYLINE
  5
29C
100
AcDbEntity
  8
0
100
AcDbPolyline
 62
7
  6
CONTINUOUS
 90
17
 70
0
 10
6.3886326593
 20
2.7927816799
 10
6.3876052291
 20
2.8457346772
 10
6.3873201666
 20
2.897336845
 10
6.3876718062
 20
2.949830857
 10
6.3886157655
 20
3.0032791031
 10
6.390111425
 20
3.0577726371
 10
6.3921299053
 20
3.1136053349
 10
6.3946577777
 20
3.1712063959
 10
6.3976919385
 20
3.231004597
 10
6.401227079
 20
3.293267082
 10
6.4052535097
 20
3.3581665136
 10
6.4097605704
 20
3.4258756717
 10
6.4147363451
 20
3.4965680538
 10
6.4201690763
 20
3.5704404654
 10
6.4260465636
 20
3.6477053151
 10
6.4323543578
 20
3.7285709034
 10
6.4390888227
 20
3.8134005094
  0
LINE
  5
29D
100
AcDbEntity
  8
0
100
AcDbLine
 62
9
  6
CONTINUOUS
 10
5.6835683383
 20
10.2464639437
 11
5.6835683383
 21
2.0835258927
  0
LINE
  5
29E
100
AcDbEntity
  8
0
100
AcDbLine
 62
7
  6
CONTINUOUS
 10
6.91969478
 20
11.3305164102
 11
6.9219076768
 21
11.3400415561
  0
LINE
  5
29F
100
AcDbEntity
  8
0
100
AcDbLine
 62
7
  6
CONTINUOUS
 10
6.9219076768
 20
11.3400415561
 11
6.9239871183
 21
11.3487987397
  0
LWPOLYLINE
  5
2A0
100
AcDbEntity
  8
0
100
AcDbPolyline
 62
7
  6
CONTINUOUS
 90
3
 70
0
 10
6.9239871183
 20
11.3487987397
 10
6.9258587007
 20
11.3565163738
 10
6.9261043055
 20
11.3575169394
  0
LINE
  5
2A1
100
AcDbEntity
  8
0
100
AcDbLine
 62
7
  6
CONTINUOUS
 10
6.9192170247
 20
11.3307252051
 11
6.9201298794
 21
11.3341703592
  0
LINE
  5
2A2
100
AcDbEntity
  8
0
100
AcDbLine
 62
9
  6
CONTINUOUS
 10
8.5377192651
 20
12.6575070744
 11
8.6890268351
 21
12.8088146445
  0
LINE
  5
2A3
100
AcDbEntity
  8
0
100
AcDbLine
 62
9
  6
CONTINUOUS
 10
8.5956446306
 20
12.4158725393
 11
8.9306613702
 21
12.750889279
  0
LINE
  5
2A4
100
AcDbEntity
  8
0
100
AcDbLine
 62
9
  6
CONTINUOUS
 10
8.7930745354
 20
12.2184426346
 11
9.128091275
 21
12.5534593742
  0
LINE
  5
2A5
100
AcDbEntity
  8
0
100
AcDbLine
 62
9
  6
CONTINUOUS
 10
8.8823283149
 20
12.1746999471
 11
9.1718339625
 21
12.4642055946
  0
LINE
  5
2A6
100
AcDbEntity
  8
0
100
AcDbLine
 62
7
  6
CONTINUOUS
 10
9.5231234233
 20
11.9853355905
 11
9.5611599239
 21
12.0007033342
  0
LINE
  5
2A7
100
AcDbEntity
  8
0
100
AcDbLine
 62
7
  6
CONTINUOUS
 10
9.5655344101
 20
11.9927639287
 11
9.5442734223
 21
11.9841739321
  0
LINE
  5
2A8
100
AcDbEntity
  8
0
100
AcDbLine
 62
7
  6
CONTINUOUS
 10
9.5485907307
 20
11.9708187515
 11
9.5671344078
 21
11.9783108834
  0
LINE
  5
2A9
100
AcDbEntity
  8
0
100
AcDbLine
 62
9
  6
CONTINUOUS
 10
0.6890268351
 20
10.5171164981
 11
0.5377192651
 21
10.6684240682
  0
LINE
  5
2AA
100
AcDbEntity
  8
0
100
AcDbLine
 62
9
  6
CONTINUOUS
 10
0.9306613702
 20
10.5750418636
 11
0.5956446306
 21
10.9100586033
  0
LINE
  5
2AB
100
AcDbEntity
  8
0
100
AcDbLine
 62
7
  6
CONTINUOUS
 10
1.483550038
 20
11.8872280951
 11
1.4794355413
 21
11.892891214
  0
LINE
  5
2AC
100
AcDbEntity
  8
0
100
AcDbLine
 62
7
  6
CONTINUOUS
 10
1.4523974196
 20
11.9301059958
 11
1.4482829229
 21
11.9357691147
  0
LINE
  5
2AD
100
AcDbEntity
  8
0
100
AcDbLine
 62
7
  6
CONTINUOUS
 10
1.4796871428
 20
11.9061553271
 11
1.46509009
 21
11.9262464467
  0
LINE
  5
2AE
100
AcDbEntity
  8
0
100
AcDbLine
 62
7
  6
CONTINUOUS
 10
1.469944192
 20
11.9297731582
 11
1.4845412448
 21
11.9096820386
  0
LINE
  5
2AF
100
AcDbEntity
  8
0
100
AcDbLine
 62
7
  6
CONTINUOUS
 10
1.4972339151
 20
11.9058224896
 11
1.5013484119
 21
11.9001593706
  0
LINE
  5
2B0
100
AcDbEntity
  8
0
100
AcDbLine
 62
7
  6
CONTINUOUS
 10
1.4855671164
 20
11.9542051911
 11
1.4814526196
 21
11.9598683101
  0
LINE
  5
2B1
100
AcDbEntity
  8
0
100
AcDbLine
 62
7
  6
CONTINUOUS
 10
1.5128568396
 20
11.9302545225
 11
1.4982597868
 21
11.950345642
  0
LINE
  5
2B2
100
AcDbEntity
  8
0
100
AcDbLine
 62
7
  6
CONTINUOUS
 10
1.5031138887
 20
11.9538723535
 11
1.5177109415
 21
11.933781234
  0
LINE
  5
2B3
100
AcDbEntity
  8
0
100
AcDbLine
 62
7
  6
CONTINUOUS
 10
1.4992509935
 20
11.9727995856
 11
1.5033654903
 21
11.9671364667
  0
LINE
  5
2B4
100
AcDbEntity
  8
0
100
AcDbLine
 62
7
  6
CONTINUOUS
 10
1.5304036119
 20
11.9299216849
 11
1.5345181087
 21
11.924258566
  0
LINE
  5
2B5
100
AcDbEntity
  8
0
100
AcDbLine
 62
7
  6
CONTINUOUS
 10
4.4463694255
 20
11.3365768085
 11
4.4470340418
 21
11.3340678546
  0
LINE
  5
2B6
100
AcDbEntity
  8
0
100
AcDbLine
 62
7
  6
CONTINUOUS
 10
4.4418179275
 20
11.3543449436
 11
4.4418243734
 21
11.3543190097
  0
LINE
  5
2B7
100
AcDbEntity
  8
0
100
AcDbLine
 62
7
  6
CONTINUOUS
 10
4.4410515319
 20
11.3574444811
 11
4.441404107
 21
11.3560020731
  0
LWPOLYLINE
  5
2B8
100
AcDbEntity
  8
0
100
AcDbPolyline
 62
7
  6
CONTINUOUS
 90
9
 70
0
 10
6.8685442644
 20
10.9084096947
 10
6.8704138318
 20
10.9695417808
 10
6.8741602502
 20
11.0310219966
 10
6.8795634106
 20
11.0903857069
 10
6.8864438585
 20
11.147594685
 10
6.8946204402
 20
11.2025780811
 10
6.9039075627
 20
11.2552451206
 10
6.9139470917
 20
11.3047197264
 10
6.9198490112
 20
11.3304810758
  0
LWPOLYLINE
  5
2B9
100
AcDbEntity
  8
0
100
AcDbPolyline
 62
7
  6
CONTINUOUS
 90
8
 70
0
 10
6.8448989948
 20
9.9829251228
 10
6.8492800448
 20
10.1107681641
 10
6.8534251372
 20
10.2426847209
 10
6.8572452014
 20
10.3766649864
 10
6.8607187108
 20
10.5125386466
 10
6.8638259596
 20
10.650128568
 10
6.86654943
 20
10.7892619173
 10
6.8685480145
 20
10.9084124949
  0
LWPOLYLINE
  5
2BA
100
AcDbEntity
  8
0
100
AcDbPolyline
 62
7
  6
CONTINUOUS
 90
4
 70
0
 10
6.8360407358
 20
9.7515762814
 10
6.839165471
 20
9.8296748583
 10
6.8421614367
 20
9.9079780004
 10
6.8448989951
 20
9.9829251309
  0
LINE
  5
2BB
100
AcDbEntity
  8
0
100
AcDbLine
 62
7
  6
CONTINUOUS
 10
6.4751946682
 20
4.7764442225
 11
6.8562277285
 21
10.9337337406
  0
LWPOLYLINE
  5
2BC
100
AcDbEntity
  8
0
100
AcDbPolyline
 62
7
  6
CONTINUOUS
 90
8
 70
0
 10
6.5058506818
 20
4.6588479282
 10
6.5540229639
 20
5.300220674
 10
6.6042233933
 20
5.9707664869
 10
6.6552360391
 20
6.6694452337
 10
6.7057265571
 20
7.3968887475
 10
6.7540658125
 20
8.1535635904
 10
6.7982814833
 20
8.9392176077
 10
6.8360407207
 20
9.7515759107
  0
LWPOLYLINE
  5
2BD
100
AcDbEntity
  8
0
100
AcDbPolyline
 62
7
  6
CONTINUOUS
 90
5
 70
0
 10
6.470394715
 20
4.2022495553
 10
6.4790820174
 20
4.3114248077
 10
6.4879594067
 20
4.4245153617
 10
6.4969505919
 20
4.5410655099
 10
6.5058507959
 20
4.6588494559
  0
LINE
  5
2BE
100
AcDbEntity
  8
0
100
AcDbLine
 62
7
  6
CONTINUOUS
 10
6.4390888227
 20
3.8134005094
 11
6.470394715
 21
4.2022495553
  0
LINE
  5
2BF
100
AcDbEntity
  8
0
100
AcDbLine
 62
9
  6
CONTINUOUS
 10
9.0818225663
 20
12.052579309
 11
9.2939546006
 21
12.2647113433
  0
LINE
  5
2C0
100
AcDbEntity
  8
0
100
AcDbLine
 62
7
  6
CONTINUOUS
 10
10.073182076
 20
12.2647113433
 11
9.9145847896
 21
12.1061140569
  0
LINE
  5
2C1
100
AcDbEntity
  8
0
100
AcDbLine
 62
7
  6
CONTINUOUS
 10
9.0818225663
 20
11.2733518336
 11
9.2404198526
 21
11.43194912
  0
LINE
  5
2C2
100
AcDbEntity
  8
0
100
AcDbLine
 62
7
  6
CONTINUOUS
 10
9.4965683383
 20
11.7130452579
 11
9.4837054377
 21
11.7004537612
  0
LINE
  5
2C3
100
AcDbEntity
  8
0
100
AcDbLine
 62
7
  6
CONTINUOUS
 10
9.4482829229
 20
11.9357691147
 11
9.4620568287
 21
11.9457764431
  0
LINE
  5
2C4
100
AcDbEntity
  8
0
100
AcDbLine
 62
7
  6
CONTINUOUS
 10
9.4814526196
 20
11.9598683101
 11
9.4992509935
 21
11.9727995856
  0
LINE
  5
2C5
100
AcDbEntity
  8
0
100
AcDbLine
 62
7
  6
CONTINUOUS
 10
9.5345181087
 20
11.924258566
 11
9.5207442028
 21
11.9142512376
  0
LINE
  5
2C6
100
AcDbEntity
  8
0
100
AcDbLine
 62
7
  6
CONTINUOUS
 10
9.5013484119
 20
11.9001593706
 11
9.483550038
 21
11.8872280951
  0
LINE
  5
2C7
100
AcDbEntity
  8
0
100
AcDbLine
 62
7
  6
CONTINUOUS
 10
9.8759195627
 20
11.9578919888
 11
9.8833145176
 21
11.9624842917
  0
LINE
  5
2C8
100
AcDbEntity
  8
0
100
AcDbLine
 62
7
  6
CONTINUOUS
 10
9.5677243156
 20
11.9688424089
 11
9.5528893739
 21
11.9628487034
  0
LINE
  5
2C9
100
AcDbEntity
  8
0
100
AcDbLine
 62
7
  6
CONTINUOUS
 10
9.559257686
 20
11.9470865779
 11
9.5768741793
 21
11.9542041032
  0
LINE
  5
2CA
100
AcDbEntity
  8
0
100
AcDbLine
 62
7
  6
CONTINUOUS
 10
9.5938133794
 20
11.9491841021
 11
9.5455998189
 21
11.9297045592
  0
LINE
  5
2CB
100
AcDbEntity
  8
0
100
AcDbLine
 62
7
  6
CONTINUOUS
 10
9.8451239128
 20
11.3819422389
 11
9.8393563427
 21
11.3802884148
  0
LINE
  5
2CC
100
AcDbEntity
  8
0
100
AcDbLine
 62
7
  6
CONTINUOUS
 10
9.8013460323
 20
11.3449567761
 11
9.8071136025
 21
11.3466106002
  0
LINE
  5
2CD
100
AcDbEntity
  8
0
100
AcDbLine
 62
9
  6
CONTINUOUS
 10
1.128091275
 20
10.7724717684
 11
0.7930745354
 21
11.107488508
  0
LINE
  5
2CE
100
AcDbEntity
  8
0
100
AcDbLine
 62
9
  6
CONTINUOUS
 10
1.1718339625
 20
10.861725548
 11
0.8823283149
 21
11.1512311955
  0
LINE
  5
2CF
100
AcDbEntity
  8
0
100
AcDbLine
 62
9
  6
CONTINUOUS
 10
1.2939546006
 20
11.0612197993
 11
1.0818225663
 21
11.2733518336
  0
LINE
  5
2D0
100
AcDbEntity
  8
0
100
AcDbLine
 62
7
  6
CONTINUOUS
 10
1.6230386839
 20
11.3325034606
 11
1.6379685673
 21
11.3159573231
  0
LWPOLYLINE
  5
2D1
100
AcDbEntity
  8
0
100
AcDbPolyline
 62
7
  6
CONTINUOUS
 90
13
 70
0
 10
6.3672599042
 20
2.4973888412
 10
6.3728873758
 20
2.5220660648
 10
6.3780079664
 20
2.5476264233
 10
6.3822949947
 20
2.5724907925
 10
6.3858055223
 20
2.5967182594
 10
6.3885855428
 20
2.6203767165
 10
6.3906699457
 20
2.6435435381
 10
6.3920817406
 20
2.6663038036
 10
6.3928311086
 20
2.6887509749
 10
6.3929141448
 20
2.7109547878
 10
6.3923201946
 20
2.7328558385
 10
6.3910441455
 20
2.7543709074
 10
6.3903952702
 20
2.7622636921
  0
LINE
  5
2D2
100
AcDbEntity
  8
0
100
AcDbLine
 62
7
  6
CONTINUOUS
 10
9.5777832289
 20
11.9995379854
 11
9.5747814037
 21
11.9943428872
  0
LINE
  5
2D3
100
AcDbEntity
  8
0
100
AcDbLine
 62
7
  6
CONTINUOUS
 10
9.8574069796
 20
11.9065843858
 11
9.8629479329
 21
11.9136764826
  0
LINE
  5
2D4
100
AcDbEntity
  8
0
100
AcDbLine
 62
7
  6
CONTINUOUS
 10
9.875001323
 20
11.9185463683
 11
9.8947281447
 21
11.9437955486
  0
LINE
  5
2D5
100
AcDbEntity
  8
0
100
AcDbLine
 62
7
  6
CONTINUOUS
 10
9.9049722845
 20
11.9357919495
 11
9.8852454628
 21
11.9105427691
  0
LINE
  5
2D6
100
AcDbEntity
  8
0
100
AcDbLine
 62
7
  6
CONTINUOUS
 10
9.8834362125
 20
11.8976692842
 11
9.8778952592
 21
11.8905771875
  0
LINE
  5
2D7
100
AcDbEntity
  8
0
100
AcDbLine
 62
7
  6
CONTINUOUS
 10
10.2853141103
 20
12.052579309
 11
10.1267168239
 21
11.8939820226
  0
LINE
  5
2D8
100
AcDbEntity
  8
0
100
AcDbLine
 62
7
  6
CONTINUOUS
 10
9.2939546006
 20
11.0612197993
 11
9.452551887
 21
11.2198170857
  0
LINE
  5
2D9
100
AcDbEntity
  8
0
100
AcDbLine
 62
9
  6
CONTINUOUS
 10
10.2853141103
 20
11.2733518336
 11
10.073182076
 21
11.0612197993
  0
LINE
  5
2DA
100
AcDbEntity
  8
0
100
AcDbLine
 62
7
  6
CONTINUOUS
 10
1.0818225663
 20
12.052579309
 11
1.2404488382
 21
11.893953037
  0
LINE
  5
2DB
100
AcDbEntity
  8
0
100
AcDbLine
 62
7
  6
CONTINUOUS
 10
2.073182076
 20
11.0612197993
 11
1.914555804
 21
11.2198460713
  0
LINE
  5
2DC
100
AcDbEntity
  8
0
100
AcDbLine
 62
7
  6
CONTINUOUS
 10
1.2939546006
 20
12.2647113433
 11
1.4525808726
 21
12.1060850713
  0
LINE
  5
2DD
100
AcDbEntity
  8
0
100
AcDbLine
 62
7
  6
CONTINUOUS
 10
2.2853141103
 20
11.2733518336
 11
2.1266878383
 21
11.4319781056
  0
LINE
  5
2DE
100
AcDbEntity
  8
0
100
AcDbLine
 62
7
  6
CONTINUOUS
 10
9.6241764339
 20
11.9807193649
 11
9.6318743476
 21
12.0135151356
  0
LINE
  5
2DF
100
AcDbEntity
  8
0
100
AcDbLine
 62
7
  6
CONTINUOUS
 10
9.6320720238
 20
11.9881005048
 11
9.6243741101
 21
11.9553047341
  0
LINE
  5
2E0
100
AcDbEntity
  8
0
100
AcDbLine
 62
7
  6
CONTINUOUS
 10
9.6493299491
 20
11.9847032903
 11
9.6545723694
 21
12.007037811
  0
LINE
  5
2E1
100
AcDbEntity
  8
0
100
AcDbLine
 62
7
  6
CONTINUOUS
 10
9.6620063116
 20
12.0124521723
 11
9.6495276253
 21
11.9592886595
  0
LINE
  5
2E2
100
AcDbEntity
  8
0
100
AcDbLine
 62
7
  6
CONTINUOUS
 10
9.9258670983
 20
11.929238572
 11
9.9232002079
 21
11.9209523003
  0
LINE
  5
2E3
100
AcDbEntity
  8
0
100
AcDbLine
 62
7
  6
CONTINUOUS
 10
9.6628036142
 20
11.3210260865
 11
9.6780683383
 21
11.3629655713
  0
LINE
  5
2E4
100
AcDbEntity
  8
0
100
AcDbLine
 62
7
  6
CONTINUOUS
 10
9.6808437161
 20
11.3530480327
 11
9.6728063574
 21
11.3309655713
  0
LINE
  5
2E5
100
AcDbEntity
  8
0
100
AcDbLine
 62
7
  6
CONTINUOUS
 10
9.6695306253
 20
11.3219655713
 11
9.6687220009
 21
11.319743894
  0
LINE
  5
2E6
100
AcDbEntity
  8
0
100
AcDbLine
 62
7
  6
CONTINUOUS
 10
9.5788611709
 20
11.9733113308
 11
9.577653355
 21
11.9704658949
  0
LINE
  5
2E7
100
AcDbEntity
  8
0
100
AcDbLine
 62
7
  6
CONTINUOUS
 10
9.5188722376
 20
11.3422239394
 11
9.5225328674
 21
11.3504458485
  0
LINE
  5
2E8
100
AcDbEntity
  8
0
100
AcDbLine
 62
7
  6
CONTINUOUS
 10
9.5408360163
 20
11.3915553941
 11
9.5432764362
 21
11.3970366669
  0
LINE
  5
2E9
100
AcDbEntity
  8
0
100
AcDbLine
 62
7
  6
CONTINUOUS
 10
9.529829067
 20
11.3545404146
 11
9.5426752713
 21
11.3833934617
  0
LINE
  5
2EA
100
AcDbEntity
  8
0
100
AcDbLine
 62
7
  6
CONTINUOUS
 10
9.5559595525
 20
11.3837273257
 11
9.5498585028
 21
11.3700241439
  0
LINE
  5
2EB
100
AcDbEntity
  8
0
100
AcDbLine
 62
7
  6
CONTINUOUS
 10
9.5457911364
 20
11.3608886893
 11
9.5376564035
 21
11.3426177801
  0
LINE
  5
2EC
100
AcDbEntity
  8
0
100
AcDbLine
 62
7
  6
CONTINUOUS
 10
9.79217146
 20
11.9426642698
 11
9.7961168003
 21
11.9507534162
  0
LINE
  5
2ED
100
AcDbEntity
  8
0
100
AcDbLine
 62
7
  6
CONTINUOUS
 10
9.8158435019
 20
11.9911991483
 11
9.8184737288
 21
11.9965919126
  0
LINE
  5
2EE
100
AcDbEntity
  8
0
100
AcDbLine
 62
7
  6
CONTINUOUS
 10
9.8052362136
 20
11.9569045382
 11
9.8166108232
 21
11.9802259438
  0
LINE
  5
2EF
100
AcDbEntity
  8
0
100
AcDbLine
 62
7
  6
CONTINUOUS
 10
9.8318534781
 20
11.9818227814
 11
9.8225679979
 21
11.9627847257
  0
LINE
  5
2F0
100
AcDbEntity
  8
0
100
AcDbLine
 62
7
  6
CONTINUOUS
 10
9.8189659263
 20
11.9553993844
 11
9.8169205362
 21
11.9512057133
  0
LINE
  5
2F1
100
AcDbEntity
  8
0
100
AcDbLine
 62
7
  6
CONTINUOUS
 10
9.8176878574
 20
11.9402325087
 11
9.8137425171
 21
11.9321433623
  0
LINE
  5
2F2
100
AcDbEntity
  8
0
100
AcDbLine
 62
7
  6
CONTINUOUS
 10
9.8500444431
 20
11.9244511474
 11
9.8460991028
 21
11.916362001
  0
LINE
  5
2F3
100
AcDbEntity
  8
0
100
AcDbLine
 62
9
  6
CONTINUOUS
 10
10.4848083616
 20
11.1512311955
 11
10.1953027141
 21
10.861725548
  0
LINE
  5
2F4
100
AcDbEntity
  8
0
100
AcDbLine
 62
9
  6
CONTINUOUS
 10
10.5740621412
 20
11.107488508
 11
10.2390454016
 21
10.7724717684
  0
LINE
  5
2F5
100
AcDbEntity
  8
0
100
AcDbLine
 62
9
  6
CONTINUOUS
 10
10.771492046
 20
10.9100586033
 11
10.4364753063
 21
10.5750418636
  0
LINE
  5
2F6
100
AcDbEntity
  8
0
100
AcDbLine
 62
9
  6
CONTINUOUS
 10
10.8294174115
 20
10.6684240682
 11
10.6781098414
 21
10.5171164981
  0
LINE
  5
2F7
100
AcDbEntity
  8
0
100
AcDbLine
 62
9
  6
CONTINUOUS
 10
2.073182076
 20
12.2647113433
 11
2.2853141103
 21
12.052579309
  0
LINE
  5
2F8
100
AcDbEntity
  8
0
100
AcDbLine
 62
9
  6
CONTINUOUS
 10
2.1953027141
 20
12.4642055946
 11
2.4848083616
 21
12.1746999471
  0
LINE
  5
2F9
100
AcDbEntity
  8
0
100
AcDbLine
 62
9
  6
CONTINUOUS
 10
2.2390454016
 20
12.5534593742
 11
2.5740621412
 21
12.2184426346
  0
LINE
  5
2FA
100
AcDbEntity
  8
0
100
AcDbLine
 62
9
  6
CONTINUOUS
 10
2.4364753063
 20
12.750889279
 11
2.771492046
 21
12.4158725393
  0
LINE
  5
2FB
100
AcDbEntity
  8
0
100
AcDbLine
 62
7
  6
CONTINUOUS
 10
9.3665683383
 20
11.5929655713
 11
9.3665683383
 21
11.6129655713
  0
LINE
  5
2FC
100
AcDbEntity
  8
0
100
AcDbLine
 62
7
  6
CONTINUOUS
 10
9.3700683383
 20
11.7179655713
 11
9.3700683383
 21
11.7329655713
  0
LINE
  5
2FD
100
AcDbEntity
  8
0
100
AcDbLine
 62
7
  6
CONTINUOUS
 10
9.3850683383
 20
11.6338162308
 11
9.3850683383
 21
11.6978409595
  0
LINE
  5
2FE
100
AcDbEntity
  8
0
100
AcDbLine
 62
7
  6
CONTINUOUS
 10
9.4130683383
 20
11.7029655713
 11
9.4130683383
 21
11.6809655713
  0
LINE
  5
2FF
100
AcDbEntity
  8
0
100
AcDbLine
 62
7
  6
CONTINUOUS
 10
9.4130683383
 20
11.6449655713
 11
9.4130683383
 21
11.6338162308
  0
LINE
  5
300
100
AcDbEntity
  8
0
100
AcDbLine
 62
7
  6
CONTINUOUS
 10
9.4315683383
 20
11.6129655713
 11
9.4315683383
 21
11.5929655713
  0
LINE
  5
301
100
AcDbEntity
  8
0
100
AcDbLine
 62
7
  6
CONTINUOUS
 10
9.4415683383
 20
11.6379655713
 11
9.4415683383
 21
11.6449655713
  0
LINE
  5
302
100
AcDbEntity
  8
0
100
AcDbLine
 62
7
  6
CONTINUOUS
 10
9.4415683383
 20
11.6809655713
 11
9.4415683383
 21
11.6879655713
  0
LINE
  5
303
100
AcDbEntity
  8
0
100
AcDbLine
 62
7
  6
CONTINUOUS
 10
9.4545683383
 20
11.6879655713
 11
9.4545683383
 21
11.6379655713
  0
LINE
  5
304
100
AcDbEntity
  8
0
100
AcDbLine
 62
7
  6
CONTINUOUS
 10
9.5095683383
 20
11.5929655713
 11
9.5095683383
 21
11.6129655713
  0
LINE
  5
305
100
AcDbEntity
  8
0
100
AcDbLine
 62
7
  6
CONTINUOUS
 10
9.5095683383
 20
11.7179655713
 11
9.5095683383
 21
11.7329655713
  0
LINE
  5
306
100
AcDbEntity
  8
0
100
AcDbLine
 62
7
  6
CONTINUOUS
 10
9.5220683383
 20
11.6346162064
 11
9.5220683383
 21
11.6963149362
  0
LINE
  5
307
100
AcDbEntity
  8
0
100
AcDbLine
 62
7
  6
CONTINUOUS
 10
9.6766295707
 20
11.9625533773
 11
9.6770221452
 21
11.9715448113
  0
LINE
  5
308
100
AcDbEntity
  8
0
100
AcDbLine
 62
7
  6
CONTINUOUS
 10
9.6789850176
 20
12.0165019813
 11
9.6792467339
 21
12.0224962706
  0
LINE
  5
309
100
AcDbEntity
  8
0
100
AcDbLine
 62
7
  6
CONTINUOUS
 10
9.6802459428
 20
11.97660516
 11
9.6817555093
 21
12.0111799163
  0
LINE
  5
30A
100
AcDbEntity
  8
0
100
AcDbLine
 62
7
  6
CONTINUOUS
 10
9.6959117904
 20
12.0144538622
 11
9.6951534965
 21
11.9970860768
  0
LINE
  5
30B
100
AcDbEntity
  8
0
100
AcDbLine
 62
7
  6
CONTINUOUS
 10
9.6947911139
 20
11.9887861497
 11
9.6942326179
 21
11.9759944886
  0
LINE
  5
30C
100
AcDbEntity
  8
0
100
AcDbLine
 62
7
  6
CONTINUOUS
 10
9.6966105351
 20
11.9616809896
 11
9.6970031096
 21
11.9706724236
  0
LINE
  5
30D
100
AcDbEntity
  8
0
100
AcDbLine
 62
7
  6
CONTINUOUS
 10
9.5959760255
 20
11.9651871024
 11
9.5938133794
 21
11.9491841021
  0
LINE
  5
30E
100
AcDbEntity
  8
0
100
AcDbLine
 62
7
  6
CONTINUOUS
 10
9.583288292
 20
11.316238139
 11
9.5851594972
 21
11.3250414674
  0
LINE
  5
30F
100
AcDbEntity
  8
0
100
AcDbLine
 62
7
  6
CONTINUOUS
 10
9.5945155233
 20
11.3690581094
 11
9.5957629934
 21
11.374926995
  0
LINE
  5
310
100
AcDbEntity
  8
0
100
AcDbLine
 62
7
  6
CONTINUOUS
 10
9.5925199339
 20
11.3332160605
 11
9.5979147102
 21
11.3585964878
  0
LINE
  5
311
100
AcDbEntity
  8
0
100
AcDbLine
 62
7
  6
CONTINUOUS
 10
9.6123182832
 20
11.3638334245
 11
9.607914344
 21
11.3431145194
  0
LINE
  5
312
100
AcDbEntity
  8
0
100
AcDbLine
 62
7
  6
CONTINUOUS
 10
9.606205945
 20
11.3350771343
 11
9.6052358527
 21
11.3305132085
  0
LINE
  5
313
100
AcDbEntity
  8
0
100
AcDbLine
 62
7
  6
CONTINUOUS
 10
9.6086350396
 20
11.3200515868
 11
9.6067638344
 21
11.3112482584
  0
LINE
  5
314
100
AcDbEntity
  8
0
100
AcDbLine
 62
7
  6
CONTINUOUS
 10
9.6438483532
 20
11.312566766
 11
9.641977148
 21
11.3037634376
  0
LINE
  5
315
100
AcDbEntity
  8
0
100
AcDbLine
 62
7
  6
CONTINUOUS
 10
1.8778952592
 20
11.8905771875
 11
1.8574069796
 21
11.9065843858
  0
LINE
  5
316
100
AcDbEntity
  8
0
100
AcDbLine
 62
7
  6
CONTINUOUS
 10
1.9136969348
 20
11.9302445238
 11
1.9063759567
 21
11.9359642987
  0
LINE
  5
317
100
AcDbEntity
  8
0
100
AcDbLine
 62
7
  6
CONTINUOUS
 10
1.8945557954
 20
11.9451992209
 11
1.8872348173
 21
11.9509189958
  0
LINE
  5
318
100
AcDbEntity
  8
0
100
AcDbLine
 62
7
  6
CONTINUOUS
 10
1.8833145176
 20
11.9624842917
 11
1.9258670983
 21
11.929238572
  0
LINE
  5
319
100
AcDbEntity
  8
0
100
AcDbLine
 62
9
  6
CONTINUOUS
 10
2.6781098414
 20
12.8088146445
 11
2.8294174115
 21
12.6575070744
  0
LINE
  5
31A
100
AcDbEntity
  8
0
100
AcDbLine
 62
7
  6
CONTINUOUS
 10
9.7275760232
 20
11.3116336615
 11
9.7267909839
 21
11.3266131045
  0
LINE
  5
31B
100
AcDbEntity
  8
0
100
AcDbLine
 62
7
  6
CONTINUOUS
 10
9.7769817197
 20
11.3677821949
 11
9.777766759
 21
11.3528027519
  0
LINE
  5
31C
100
AcDbEntity
  8
0
100
AcDbLine
 62
7
  6
CONTINUOUS
 10
9.5520683383
 20
11.7149655713
 11
9.5520683383
 21
11.6669655713
  0
LINE
  5
31D
100
AcDbEntity
  8
0
100
AcDbLine
 62
7
  6
CONTINUOUS
 10
9.5520683383
 20
11.6449655713
 11
9.5520683383
 21
11.6346162064
  0
LINE
  5
31E
100
AcDbEntity
  8
0
100
AcDbLine
 62
7
  6
CONTINUOUS
 10
9.5645683383
 20
11.6129655713
 11
9.5645683383
 21
11.5929655713
  0
LINE
  5
31F
100
AcDbEntity
  8
0
100
AcDbLine
 62
7
  6
CONTINUOUS
 10
9.6495683383
 20
11.6129655713
 11
9.6495683383
 21
11.5929655713
  0
LINE
  5
320
100
AcDbEntity
  8
0
100
AcDbLine
 62
7
  6
CONTINUOUS
 10
9.6535683383
 20
11.3029655713
 11
9.6535683383
 21
11.3119655713
  0
LINE
  5
321
100
AcDbEntity
  8
0
100
AcDbLine
 62
7
  6
CONTINUOUS
 10
9.6725683383
 20
11.3119655713
 11
9.6725683383
 21
11.3029655713
  0
LINE
  5
322
100
AcDbEntity
  8
0
100
AcDbLine
 62
7
  6
CONTINUOUS
 10
9.6891190939
 20
11.3029655713
 11
9.6891190939
 21
11.3119655713
  0
LINE
  5
323
100
AcDbEntity
  8
0
100
AcDbLine
 62
7
  6
CONTINUOUS
 10
9.7155683383
 20
11.3119655713
 11
9.7155683383
 21
11.3029655713
  0
LINE
  5
324
100
AcDbEntity
  8
0
100
AcDbLine
 62
7
  6
CONTINUOUS
 10
9.7985683383
 20
11.5929655713
 11
9.7985683383
 21
11.6129655713
  0
LINE
  5
325
100
AcDbEntity
  8
0
100
AcDbLine
 62
7
  6
CONTINUOUS
 10
9.7985683383
 20
11.7179655713
 11
9.7985683383
 21
11.7329655713
  0
LINE
  5
326
100
AcDbEntity
  8
0
100
AcDbLine
 62
7
  6
CONTINUOUS
 10
9.8160683383
 20
11.6368140513
 11
9.8160683383
 21
11.6941170913
  0
LINE
  5
327
100
AcDbEntity
  8
0
100
AcDbLine
 62
7
  6
CONTINUOUS
 10
9.8460683383
 20
11.6941170913
 11
9.8460683383
 21
11.6368140513
  0
LINE
  5
328
100
AcDbEntity
  8
0
100
AcDbLine
 62
7
  6
CONTINUOUS
 10
9.8635683383
 20
11.7329655713
 11
9.8635683383
 21
11.7179655713
  0
LINE
  5
329
100
AcDbEntity
  8
0
100
AcDbLine
 62
7
  6
CONTINUOUS
 10
9.8635683383
 20
11.6129655713
 11
9.8635683383
 21
11.5929655713
  0
LINE
  5
32A
100
AcDbEntity
  8
0
100
AcDbLine
 62
7
  6
CONTINUOUS
 10
9.8735683383
 20
11.5929655713
 11
9.8735683383
 21
11.6129655713
  0
LINE
  5
32B
100
AcDbEntity
  8
0
100
AcDbLine
 62
7
  6
CONTINUOUS
 10
9.8735683383
 20
11.7179655713
 11
9.8735683383
 21
11.7329655713
  0
LINE
  5
32C
100
AcDbEntity
  8
0
100
AcDbLine
 62
7
  6
CONTINUOUS
 10
9.8815683383
 20
11.6262320705
 11
9.8815683383
 21
11.7046990721
  0
LINE
  5
32D
100
AcDbEntity
  8
0
100
AcDbLine
 62
7
  6
CONTINUOUS
 10
9.9185683383
 20
11.6179655713
 11
9.9185683383
 21
11.7129655713
  0
LINE
  5
32E
100
AcDbEntity
  8
0
100
AcDbLine
 62
9
  6
CONTINUOUS
 10
14.5377192651
 20
12.6575070744
 11
14.6890268351
 21
12.8088146445
  0
LINE
  5
32F
100
AcDbEntity
  8
0
100
AcDbLine
 62
9
  6
CONTINUOUS
 10
14.5956446306
 20
12.4158725393
 11
14.9306613702
 21
12.750889279
  0
LINE
  5
330
100
AcDbEntity
  8
0
100
AcDbLine
 62
9
  6
CONTINUOUS
 10
14.7930745354
 20
12.2184426346
 11
15.128091275
 21
12.5534593742
  0
LINE
  5
331
100
AcDbEntity
  8
0
100
AcDbLine
 62
7
  6
CONTINUOUS
 10
9.5904774055
 20
12.0046091403
 11
9.5895387987
 21
12.0105352703
  0
LINE
  5
332
100
AcDbEntity
  8
0
100
AcDbLine
 62
7
  6
CONTINUOUS
 10
9.6152186955
 20
12.0146025664
 11
9.6161573023
 21
12.0086764364
  0
LINE
  5
333
100
AcDbEntity
  8
0
100
AcDbLine
 62
9
  6
CONTINUOUS
 10
14.8823283149
 20
12.1746999471
 11
15.1718339625
 21
12.4642055946
  0
LINE
  5
334
100
AcDbEntity
  8
0
100
AcDbLine
 62
9
  6
CONTINUOUS
 10
15.0818225663
 20
12.052579309
 11
15.2939546006
 21
12.2647113433
  0
LINE
  5
335
100
AcDbEntity
  8
0
100
AcDbLine
 62
7
  6
CONTINUOUS
 10
1.5501755662
 20
11.3282867996
 11
1.5188722376
 21
11.3422239394
  0
LINE
  5
336
100
AcDbEntity
  8
0
100
AcDbLine
 62
7
  6
CONTINUOUS
 10
1.5386700212
 20
11.3399772159
 11
1.5468919303
 21
11.3363165862
  0
LINE
  5
337
100
AcDbEntity
  8
0
100
AcDbLine
 62
7
  6
CONTINUOUS
 10
1.5566536097
 20
11.3582416771
 11
1.5484317006
 21
11.3619023069
  0
LINE
  5
338
100
AcDbEntity
  8
0
100
AcDbLine
 62
7
  6
CONTINUOUS
 10
1.5508721205
 20
11.3673835797
 11
1.5568101659
 21
11.3647397915
  0
LINE
  5
339
100
AcDbEntity
  8
0
100
AcDbLine
 62
7
  6
CONTINUOUS
 10
1.5645381622
 20
11.3820971552
 11
1.5586001167
 21
11.3847409434
  0
LINE
  5
33A
100
AcDbEntity
  8
0
100
AcDbLine
 62
7
  6
CONTINUOUS
 10
1.5432764362
 20
11.3970366669
 11
1.5729666636
 21
11.383817726
  0
LINE
  5
33B
100
AcDbEntity
  8
0
100
AcDbLine
 62
7
  6
CONTINUOUS
 10
1.455038547
 20
11.6429655713
 11
1.4685683383
 21
11.6364890949
  0
LINE
  5
33C
100
AcDbEntity
  8
0
100
AcDbLine
 62
7
  6
CONTINUOUS
 10
1.8460991028
 20
11.916362001
 11
1.830819604
 21
11.9238143105
  0
LINE
  5
33D
100
AcDbEntity
  8
0
100
AcDbLine
 62
7
  6
CONTINUOUS
 10
1.8137425171
 20
11.9321433623
 11
1.79217146
 21
11.9426642698
  0
LINE
  5
33E
100
AcDbEntity
  8
0
100
AcDbLine
 62
7
  6
CONTINUOUS
 10
1.8226468583
 20
11.9547166759
 11
1.8203030915
 21
11.9558598073
  0
LINE
  5
33F
100
AcDbEntity
  8
0
100
AcDbLine
 62
7
  6
CONTINUOUS
 10
1.8230284208
 20
11.9614475605
 11
1.833732259
 21
11.9562269498
  0
LINE
  5
340
100
AcDbEntity
  8
0
100
AcDbLine
 62
7
  6
CONTINUOUS
 10
1.8438944815
 20
11.9770625936
 11
1.8331906433
 21
11.9822832043
  0
LINE
  5
341
100
AcDbEntity
  8
0
100
AcDbLine
 62
7
  6
CONTINUOUS
 10
1.8184737288
 20
11.9965919126
 11
1.8526279026
 21
11.979933809
  0
LINE
  5
342
100
AcDbEntity
  8
0
100
AcDbLine
 62
7
  6
CONTINUOUS
 10
9.6929654313
 20
11.319743894
 11
9.6921568068
 21
11.3219655713
  0
LINE
  5
343
100
AcDbEntity
  8
0
100
AcDbLine
 62
7
  6
CONTINUOUS
 10
9.6888810747
 20
11.3309655713
 11
9.6808437161
 21
11.3530480327
  0
LINE
  5
344
100
AcDbEntity
  8
0
100
AcDbLine
 62
7
  6
CONTINUOUS
 10
9.6910683383
 20
11.3629655713
 11
9.7063330624
 21
11.3210260865
  0
LINE
  5
345
100
AcDbEntity
  8
0
100
AcDbLine
 62
7
  6
CONTINUOUS
 10
9.8054805926
 20
11.3305378507
 11
9.8013460323
 21
11.3449567761
  0
LINE
  5
346
100
AcDbEntity
  8
0
100
AcDbLine
 62
7
  6
CONTINUOUS
 10
9.8409893525
 20
11.3963611644
 11
9.8451239128
 21
11.3819422389
  0
LINE
  5
347
100
AcDbEntity
  8
0
100
AcDbLine
 62
7
  6
CONTINUOUS
 10
9.830819604
 20
11.9238143105
 11
9.8231780275
 21
11.9540628135
  0
LINE
  5
348
100
AcDbEntity
  8
0
100
AcDbLine
 62
7
  6
CONTINUOUS
 10
9.6483173862
 20
12.0137700933
 11
9.6473787795
 21
12.0196962233
  0
LINE
  5
349
100
AcDbEntity
  8
0
100
AcDbLine
 62
7
  6
CONTINUOUS
 10
9.6655908009
 20
12.0225807241
 11
9.6665294077
 21
12.0166545941
  0
LINE
  5
34A
100
AcDbEntity
  8
0
100
AcDbLine
 62
7
  6
CONTINUOUS
 10
9.8764070401
 20
11.9539218042
 11
9.8759195627
 21
11.9578919888
  0
LINE
  5
34B
100
AcDbEntity
  8
0
100
AcDbLine
 62
7
  6
CONTINUOUS
 10
16.073182076
 20
12.2647113433
 11
15.9146263889
 21
12.1061556563
  0
LINE
  5
34C
100
AcDbEntity
  8
0
100
AcDbLine
 62
7
  6
CONTINUOUS
 10
15.0818225663
 20
11.2733518336
 11
15.2403782533
 21
11.4319075207
  0
LINE
  5
34D
100
AcDbEntity
  8
0
100
AcDbLine
 62
7
  6
CONTINUOUS
 10
16.2853141103
 20
12.052579309
 11
16.1267584233
 21
11.894023622
  0
LINE
  5
34E
100
AcDbEntity
  8
0
100
AcDbLine
 62
7
  6
CONTINUOUS
 10
15.2939546006
 20
11.0612197993
 11
15.4525102876
 21
11.2197754863
  0
LINE
  5
34F
100
AcDbEntity
  8
0
100
AcDbLine
 62
7
  6
CONTINUOUS
 10
1.5729975842
 20
11.9819893319
 11
1.5758430201
 21
11.980781516
  0
LINE
  5
350
100
AcDbEntity
  8
0
100
AcDbLine
 62
9
  6
CONTINUOUS
 10
8.6890268351
 20
10.5171164981
 11
8.5377192651
 21
10.6684240682
  0
LINE
  5
351
100
AcDbEntity
  8
0
100
AcDbLine
 62
9
  6
CONTINUOUS
 10
8.9306613702
 20
10.5750418636
 11
8.5956446306
 21
10.9100586033
  0
LINE
  5
352
100
AcDbEntity
  8
0
100
AcDbLine
 62
7
  6
CONTINUOUS
 10
9.6253486388
 20
11.3072979363
 11
9.6106162745
 21
11.3347992648
  0
LINE
  5
353
100
AcDbEntity
  8
0
100
AcDbLine
 62
7
  6
CONTINUOUS
 10
9.5455998189
 20
11.9297045592
 11
9.5422283596
 21
11.9380492139
  0
LINE
  5
354
100
AcDbEntity
  8
0
100
AcDbLine
 62
7
  6
CONTINUOUS
 10
9.5253710629
 20
11.9797724874
 11
9.5231234233
 21
11.9853355905
  0
LINE
  5
355
100
AcDbEntity
  8
0
100
AcDbLine
 62
7
  6
CONTINUOUS
 10
9.5430633982
 20
11.9439908223
 11
9.5300991274
 21
11.9760785185
  0
LINE
  5
356
100
AcDbEntity
  8
0
100
AcDbLine
 62
7
  6
CONTINUOUS
 10
9.5426156905
 20
11.9802685607
 11
9.5459871498
 21
11.971923906
  0
LINE
  5
357
100
AcDbEntity
  8
0
100
AcDbLine
 62
7
  6
CONTINUOUS
 10
9.5512316422
 20
11.9589433321
 11
9.5553523147
 21
11.9487443097
  0
LINE
  5
358
100
AcDbEntity
  8
0
100
AcDbLine
 62
7
  6
CONTINUOUS
 10
9.5758430201
 20
11.980781516
 11
9.5788611709
 21
11.9733113308
  0
LINE
  5
359
100
AcDbEntity
  8
0
100
AcDbLine
 62
9
  6
CONTINUOUS
 10
16.2853141103
 20
11.2733518336
 11
16.073182076
 21
11.0612197993
  0
LINE
  5
35A
100
AcDbEntity
  8
0
100
AcDbLine
 62
9
  6
CONTINUOUS
 10
16.4848083616
 20
11.1512311955
 11
16.1953027141
 21
10.861725548
  0
LINE
  5
35B
100
AcDbEntity
  8
0
100
AcDbLine
 62
9
  6
CONTINUOUS
 10
16.5740621412
 20
11.107488508
 11
16.2390454016
 21
10.7724717684
  0
LINE
  5
35C
100
AcDbEntity
  8
0
100
AcDbLine
 62
9
  6
CONTINUOUS
 10
16.771492046
 20
10.9100586033
 11
16.4364753063
 21
10.5750418636
  0
LINE
  5
35D
100
AcDbEntity
  8
0
100
AcDbLine
 62
7
  6
CONTINUOUS
 10
1.5207442028
 20
11.9142512376
 11
1.469944192
 21
11.9297731582
  0
LINE
  5
35E
100
AcDbEntity
  8
0
100
AcDbLine
 62
7
  6
CONTINUOUS
 10
1.4620568287
 20
11.9457764431
 11
1.5128568396
 21
11.9302545225
  0
LINE
  5
35F
100
AcDbEntity
  8
0
100
AcDbLine
 62
9
  6
CONTINUOUS
 10
9.128091275
 20
10.7724717684
 11
8.7930745354
 21
11.107488508
  0
LINE
  5
360
100
AcDbEntity
  8
0
100
AcDbLine
 62
9
  6
CONTINUOUS
 10
9.1718339625
 20
10.861725548
 11
8.8823283149
 21
11.1512311955
  0
LINE
  5
361
100
AcDbEntity
  8
0
100
AcDbLine
 62
9
  6
CONTINUOUS
 10
9.2939546006
 20
11.0612197993
 11
9.0818225663
 21
11.2733518336
  0
LINE
  5
362
100
AcDbEntity
  8
0
100
AcDbLine
 62
7
  6
CONTINUOUS
 10
9.6230386839
 20
11.3325034606
 11
9.6379685673
 21
11.3159573231
  0
LINE
  5
363
100
AcDbEntity
  8
0
100
AcDbLine
 62
7
  6
CONTINUOUS
 10
9.6095683383
 20
11.5929655713
 11
9.563846707
 21
11.6469053815
  0
LINE
  5
364
100
AcDbEntity
  8
0
100
AcDbLine
 62
7
  6
CONTINUOUS
 10
9.483550038
 20
11.8872280951
 11
9.4794355413
 21
11.892891214
  0
LINE
  5
365
100
AcDbEntity
  8
0
100
AcDbLine
 62
7
  6
CONTINUOUS
 10
9.4523974196
 20
11.9301059958
 11
9.4482829229
 21
11.9357691147
  0
LINE
  5
366
100
AcDbEntity
  8
0
100
AcDbLine
 62
7
  6
CONTINUOUS
 10
9.4796871428
 20
11.9061553271
 11
9.46509009
 21
11.9262464467
  0
LINE
  5
367
100
AcDbEntity
  8
0
100
AcDbLine
 62
7
  6
CONTINUOUS
 10
9.469944192
 20
11.9297731582
 11
9.4845412448
 21
11.9096820386
  0
LINE
  5
368
100
AcDbEntity
  8
0
100
AcDbLine
 62
7
  6
CONTINUOUS
 10
9.4972339151
 20
11.9058224896
 11
9.5013484119
 21
11.9001593706
  0
LINE
  5
369
100
AcDbEntity
  8
0
100
AcDbLine
 62
7
  6
CONTINUOUS
 10
9.4855671164
 20
11.9542051911
 11
9.4814526196
 21
11.9598683101
  0
LINE
  5
36A
100
AcDbEntity
  8
0
100
AcDbLine
 62
7
  6
CONTINUOUS
 10
9.5128568396
 20
11.9302545225
 11
9.4982597868
 21
11.950345642
  0
LINE
  5
36B
100
AcDbEntity
  8
0
100
AcDbLine
 62
7
  6
CONTINUOUS
 10
9.5031138887
 20
11.9538723535
 11
9.5177109415
 21
11.933781234
  0
LINE
  5
36C
100
AcDbEntity
  8
0
100
AcDbLine
 62
7
  6
CONTINUOUS
 10
9.4992509935
 20
11.9727995856
 11
9.5033654903
 21
11.9671364667
  0
LINE
  5
36D
100
AcDbEntity
  8
0
100
AcDbLine
 62
7
  6
CONTINUOUS
 10
9.5304036119
 20
11.9299216849
 11
9.5345181087
 21
11.924258566
  0
LINE
  5
36E
100
AcDbEntity
  8
0
100
AcDbLine
 62
7
  6
CONTINUOUS
 10
9.6243741101
 20
11.9553047341
 11
9.5960777453
 21
12.0020101132
  0
LINE
  5
36F
100
AcDbEntity
  8
0
100
AcDbLine
 62
7
  6
CONTINUOUS
 10
9.6122888495
 20
12.0003407593
 11
9.6241764339
 21
11.9807193649
  0
LINE
  5
370
100
AcDbEntity
  8
0
100
AcDbLine
 62
7
  6
CONTINUOUS
 10
9.6495276253
 20
11.9592886595
 11
9.6320720238
 21
11.9881005048
  0
LINE
  5
371
100
AcDbEntity
  8
0
100
AcDbLine
 62
7
  6
CONTINUOUS
 10
9.6318743476
 20
12.0135151356
 11
9.6493299491
 21
11.9847032903
  0
LINE
  5
372
100
AcDbEntity
  8
0
100
AcDbLine
 62
7
  6
CONTINUOUS
 10
9.8346760329
 20
11.9488299517
 11
9.845159562
 21
11.9291634394
  0
LINE
  5
373
100
AcDbEntity
  8
0
100
AcDbLine
 62
7
  6
CONTINUOUS
 10
15.5774478397
 20
11.5492490431
 11
15.6160683383
 21
11.6329655713
  0
LINE
  5
374
100
AcDbEntity
  8
0
100
AcDbLine
 62
7
  6
CONTINUOUS
 10
15.6477821599
 20
11.6539663915
 11
15.601772081
 21
11.5542316857
  0
LINE
  5
375
100
AcDbEntity
  8
0
100
AcDbLine
 62
9
  6
CONTINUOUS
 10
16.8294174115
 20
10.6684240682
 11
16.6781098414
 21
10.5171164981
  0
LINE
  5
376
100
AcDbEntity
  8
0
100
AcDbLine
 62
7
  6
CONTINUOUS
 10
1.641977148
 20
11.3037634376
 11
1.6253486388
 21
11.3072979363
  0
LINE
  5
377
100
AcDbEntity
  8
0
100
AcDbLine
 62
7
  6
CONTINUOUS
 10
1.6067638344
 20
11.3112482584
 11
1.583288292
 21
11.316238139
  0
LINE
  5
378
100
AcDbEntity
  8
0
100
AcDbLine
 62
7
  6
CONTINUOUS
 10
1.6099426997
 20
11.3353052032
 11
1.6073920043
 21
11.3358473702
  0
LINE
  5
379
100
AcDbEntity
  8
0
100
AcDbLine
 62
7
  6
CONTINUOUS
 10
1.6086845799
 20
11.3419284601
 11
1.6203334484
 21
11.3394524167
  0
LINE
  5
37A
100
AcDbEntity
  8
0
100
AcDbLine
 62
7
  6
CONTINUOUS
 10
1.625153211
 20
11.362127617
 11
1.6135043425
 21
11.3646036604
  0
LINE
  5
37B
100
AcDbEntity
  8
0
100
AcDbLine
 62
7
  6
CONTINUOUS
 10
1.5957629934
 20
11.374926995
 11
1.6329326022
 21
11.3670263508
  0
LINE
  5
37C
100
AcDbEntity
  8
0
100
AcDbLine
 62
7
  6
CONTINUOUS
 10
9.5920683383
 20
11.6493272476
 11
9.6347240028
 21
11.617849764
  0
LINE
  5
37D
100
AcDbEntity
  8
0
100
AcDbLine
 62
7
  6
CONTINUOUS
 10
9.0818225663
 20
12.052579309
 11
9.240420018
 21
11.8939818572
  0
LINE
  5
37E
100
AcDbEntity
  8
0
100
AcDbLine
 62
7
  6
CONTINUOUS
 10
10.073182076
 20
11.0612197993
 11
9.9145846242
 21
11.2198172511
  0
LINE
  5
37F
100
AcDbEntity
  8
0
100
AcDbLine
 62
7
  6
CONTINUOUS
 10
9.2939546006
 20
12.2647113433
 11
9.4525520524
 21
12.1061138915
  0
LINE
  5
380
100
AcDbEntity
  8
0
100
AcDbLine
 62
7
  6
CONTINUOUS
 10
10.2853141103
 20
11.2733518336
 11
10.1267166585
 21
11.4319492854
  0
LINE
  5
381
100
AcDbEntity
  8
0
100
AcDbLine
 62
7
  6
CONTINUOUS
 10
9.4770683383
 20
11.7329655713
 11
9.4965683383
 21
11.7130452579
  0
LINE
  5
382
100
AcDbEntity
  8
0
100
AcDbLine
 62
7
  6
CONTINUOUS
 10
1.5900300748
 20
11.9659906384
 11
1.5959760255
 21
11.9651871024
  0
LINE
  5
383
100
AcDbEntity
  8
0
100
AcDbLine
 62
7
  6
CONTINUOUS
 10
9.5501755662
 20
11.3282867996
 11
9.5188722376
 21
11.3422239394
  0
LINE
  5
384
100
AcDbEntity
  8
0
100
AcDbLine
 62
7
  6
CONTINUOUS
 10
9.5386700212
 20
11.3399772159
 11
9.5468919303
 21
11.3363165862
  0
LINE
  5
385
100
AcDbEntity
  8
0
100
AcDbLine
 62
7
  6
CONTINUOUS
 10
9.5566536097
 20
11.3582416771
 11
9.5484317006
 21
11.3619023069
  0
LINE
  5
386
100
AcDbEntity
  8
0
100
AcDbLine
 62
7
  6
CONTINUOUS
 10
9.5508721205
 20
11.3673835797
 11
9.5568101659
 21
11.3647397915
  0
LINE
  5
387
100
AcDbEntity
  8
0
100
AcDbLine
 62
7
  6
CONTINUOUS
 10
9.5645381622
 20
11.3820971552
 11
9.5586001167
 21
11.3847409434
  0
LINE
  5
388
100
AcDbEntity
  8
0
100
AcDbLine
 62
7
  6
CONTINUOUS
 10
9.5432764362
 20
11.3970366669
 11
9.5729666636
 21
11.383817726
  0
LINE
  5
389
100
AcDbEntity
  8
0
100
AcDbLine
 62
7
  6
CONTINUOUS
 10
9.8778952592
 20
11.8905771875
 11
9.8574069796
 21
11.9065843858
  0
LINE
  5
38A
100
AcDbEntity
  8
0
100
AcDbLine
 62
7
  6
CONTINUOUS
 10
9.9136969348
 20
11.9302445238
 11
9.9063759567
 21
11.9359642987
  0
LINE
  5
38B
100
AcDbEntity
  8
0
100
AcDbLine
 62
7
  6
CONTINUOUS
 10
9.8945557954
 20
11.9451992209
 11
9.8872348173
 21
11.9509189958
  0
LINE
  5
38C
100
AcDbEntity
  8
0
100
AcDbLine
 62
7
  6
CONTINUOUS
 10
9.8833145176
 20
11.9624842917
 11
9.9258670983
 21
11.929238572
  0
LINE
  5
38D
100
AcDbEntity
  8
0
100
AcDbLine
 62
9
  6
CONTINUOUS
 10
10.073182076
 20
12.2647113433
 11
10.2853141103
 21
12.052579309
  0
LINE
  5
38E
100
AcDbEntity
  8
0
100
AcDbLine
 62
9
  6
CONTINUOUS
 10
10.1953027141
 20
12.4642055946
 11
10.4848083616
 21
12.1746999471
  0
LINE
  5
38F
100
AcDbEntity
  8
0
100
AcDbLine
 62
9
  6
CONTINUOUS
 10
10.2390454016
 20
12.5534593742
 11
10.5740621412
 21
12.2184426346
  0
LINE
  5
390
100
AcDbEntity
  8
0
100
AcDbLine
 62
9
  6
CONTINUOUS
 10
10.4364753063
 20
12.750889279
 11
10.771492046
 21
12.4158725393
  0
LINE
  5
391
100
AcDbEntity
  8
0
100
AcDbLine
 62
7
  6
CONTINUOUS
 10
20.3255288252
 20
7.5055980292
 11
20.3255331504
 21
7.5056001667
  0
LINE
  5
392
100
AcDbEntity
  8
0
100
AcDbLine
 62
7
  6
CONTINUOUS
 10
9.7267909839
 20
11.3266131045
 11
9.7327827611
 21
11.3269271202
  0
LINE
  5
393
100
AcDbEntity
  8
0
100
AcDbLine
 62
7
  6
CONTINUOUS
 10
9.777766759
 20
11.3528027519
 11
9.7717749818
 21
11.3524887362
  0
LINE
  5
394
100
AcDbEntity
  8
0
100
AcDbLine
 62
7
  6
CONTINUOUS
 10
15.6160683383
 20
11.6329655713
 11
15.3760683383
 21
11.6254655713
  0
LINE
  5
395
100
AcDbEntity
  8
0
100
AcDbLine
 62
7
  6
CONTINUOUS
 10
15.3960683383
 20
11.6461003345
 11
15.6477821599
 21
11.6539663915
  0
LINE
  5
396
100
AcDbEntity
  8
0
100
AcDbLine
 62
7
  6
CONTINUOUS
 10
9.7155683383
 20
11.3029655713
 11
9.6891190939
 21
11.3029655713
  0
LINE
  5
397
100
AcDbEntity
  8
0
100
AcDbLine
 62
7
  6
CONTINUOUS
 10
9.6725683383
 20
11.3029655713
 11
9.6535683383
 21
11.3029655713
  0
LINE
  5
398
100
AcDbEntity
  8
0
100
AcDbLine
 62
7
  6
CONTINUOUS
 10
1.7155683383
 20
11.3029655713
 11
1.6891190939
 21
11.3029655713
  0
LINE
  5
399
100
AcDbEntity
  8
0
100
AcDbLine
 62
7
  6
CONTINUOUS
 10
1.6725683383
 20
11.3029655713
 11
1.6535683383
 21
11.3029655713
  0
LINE
  5
39A
100
AcDbEntity
  8
0
100
AcDbLine
 62
7
  6
CONTINUOUS
 10
9.6921568068
 20
11.3219655713
 11
9.6695306253
 21
11.3219655713
  0
LINE
  5
39B
100
AcDbEntity
  8
0
100
AcDbLine
 62
7
  6
CONTINUOUS
 10
1.6921568068
 20
11.3219655713
 11
1.6695306253
 21
11.3219655713
  0
LINE
  5
39C
100
AcDbEntity
  8
0
100
AcDbLine
 62
7
  6
CONTINUOUS
 10
1.6728063574
 20
11.3309655713
 11
1.6888810747
 21
11.3309655713
  0
LINE
  5
39D
100
AcDbEntity
  8
0
100
AcDbLine
 62
7
  6
CONTINUOUS
 10
9.6728063574
 20
11.3309655713
 11
9.6888810747
 21
11.3309655713
  0
LINE
  5
39E
100
AcDbEntity
  8
0
100
AcDbLine
 62
7
  6
CONTINUOUS
 10
1.6780683383
 20
11.3629655713
 11
1.6910683383
 21
11.3629655713
  0
LINE
  5
39F
100
AcDbEntity
  8
0
100
AcDbLine
 62
7
  6
CONTINUOUS
 10
9.6780683383
 20
11.3629655713
 11
9.6910683383
 21
11.3629655713
  0
LINE
  5
3A0
100
AcDbEntity
  8
0
100
AcDbLine
 62
7
  6
CONTINUOUS
 10
9.9435683383
 20
11.5929655713
 11
9.8735683383
 21
11.5929655713
  0
LINE
  5
3A1
100
AcDbEntity
  8
0
100
AcDbLine
 62
7
  6
CONTINUOUS
 10
9.8635683383
 20
11.5929655713
 11
9.7985683383
 21
11.5929655713
  0
LINE
  5
3A2
100
AcDbEntity
  8
0
100
AcDbLine
 62
7
  6
CONTINUOUS
 10
9.6495683383
 20
11.5929655713
 11
9.6095683383
 21
11.5929655713
  0
LINE
  5
3A3
100
AcDbEntity
  8
0
100
AcDbLine
 62
7
  6
CONTINUOUS
 10
9.5645683383
 20
11.5929655713
 11
9.5095683383
 21
11.5929655713
  0
LINE
  5
3A4
100
AcDbEntity
  8
0
100
AcDbLine
 62
7
  6
CONTINUOUS
 10
9.4315683383
 20
11.5929655713
 11
9.3665683383
 21
11.5929655713
  0
LINE
  5
3A5
100
AcDbEntity
  8
0
100
AcDbLine
 62
7
  6
CONTINUOUS
 10
1.9635683383
 20
11.5929655713
 11
1.8935683383
 21
11.5929655713
  0
LINE
  5
3A6
100
AcDbEntity
  8
0
100
AcDbLine
 62
7
  6
CONTINUOUS
 10
1.7585683383
 20
11.5929655713
 11
1.6976056717
 21
11.5929655713
  0
LINE
  5
3A7
100
AcDbEntity
  8
0
100
AcDbLine
 62
7
  6
CONTINUOUS
 10
1.6585683383
 20
11.5929655713
 11
1.6135683383
 21
11.5929655713
  0
LINE
  5
3A8
100
AcDbEntity
  8
0
100
AcDbLine
 62
7
  6
CONTINUOUS
 10
1.6085683383
 20
11.5929655713
 11
1.5485683383
 21
11.5929655713
  0
LINE
  5
3A9
100
AcDbEntity
  8
0
100
AcDbLine
 62
7
  6
CONTINUOUS
 10
1.5335683383
 20
11.5929655713
 11
1.4735683383
 21
11.5929655713
  0
LINE
  5
3AA
100
AcDbEntity
  8
0
100
AcDbLine
 62
7
  6
CONTINUOUS
 10
1.6966105351
 20
11.9616809896
 11
1.6766295707
 21
11.9625533773
  0
LINE
  5
3AB
100
AcDbEntity
  8
0
100
AcDbLine
 62
7
  6
CONTINUOUS
 10
1.7178128424
 20
11.988781952
 11
1.6958337815
 21
11.9897415785
  0
LINE
  5
3AC
100
AcDbEntity
  8
0
100
AcDbLine
 62
7
  6
CONTINUOUS
 10
1.6961089254
 20
11.9960434092
 11
1.71140219
 21
11.9953756908
  0
LINE
  5
3AD
100
AcDbEntity
  8
0
100
AcDbLine
 62
7
  6
CONTINUOUS
 10
1.7122477227
 20
12.0147415727
 11
1.696954458
 21
12.015409291
  0
LINE
  5
3AE
100
AcDbEntity
  8
0
100
AcDbLine
 62
7
  6
CONTINUOUS
 10
1.6792467339
 20
12.0224962706
 11
1.7192086628
 21
12.0207514951
  0
LINE
  5
3AF
100
AcDbEntity
  8
0
100
AcDbLine
 62
7
  6
CONTINUOUS
 10
9.641977148
 20
11.3037634376
 11
9.6253486388
 21
11.3072979363
  0
LINE
  5
3B0
100
AcDbEntity
  8
0
100
AcDbLine
 62
7
  6
CONTINUOUS
 10
9.6067638344
 20
11.3112482584
 11
9.583288292
 21
11.316238139
  0
LINE
  5
3B1
100
AcDbEntity
  8
0
100
AcDbLine
 62
7
  6
CONTINUOUS
 10
9.6099426997
 20
11.3353052032
 11
9.6073920043
 21
11.3358473702
  0
LINE
  5
3B2
100
AcDbEntity
  8
0
100
AcDbLine
 62
7
  6
CONTINUOUS
 10
9.6086845799
 20
11.3419284601
 11
9.6203334484
 21
11.3394524167
  0
LINE
  5
3B3
100
AcDbEntity
  8
0
100
AcDbLine
 62
7
  6
CONTINUOUS
 10
9.625153211
 20
11.362127617
 11
9.6135043425
 21
11.3646036604
  0
LINE
  5
3B4
100
AcDbEntity
  8
0
100
AcDbLine
 62
7
  6
CONTINUOUS
 10
9.5957629934
 20
11.374926995
 11
9.6329326022
 21
11.3670263508
  0
LINE
  5
3B5
100
AcDbEntity
  8
0
100
AcDbLine
 62
7
  6
CONTINUOUS
 10
9.5207442028
 20
11.9142512376
 11
9.469944192
 21
11.9297731582
  0
LINE
  5
3B6
100
AcDbEntity
  8
0
100
AcDbLine
 62
7
  6
CONTINUOUS
 10
9.4620568287
 20
11.9457764431
 11
9.5128568396
 21
11.9302545225
  0
LINE
  5
3B7
100
AcDbEntity
  8
0
100
AcDbLine
 62
7
  6
CONTINUOUS
 10
9.5729975842
 20
11.9819893319
 11
9.5758430201
 21
11.980781516
  0
LINE
  5
3B8
100
AcDbEntity
  8
0
100
AcDbLine
 62
7
  6
CONTINUOUS
 10
9.8460991028
 20
11.916362001
 11
9.830819604
 21
11.9238143105
  0
LINE
  5
3B9
100
AcDbEntity
  8
0
100
AcDbLine
 62
7
  6
CONTINUOUS
 10
9.8137425171
 20
11.9321433623
 11
9.79217146
 21
11.9426642698
  0
LINE
  5
3BA
100
AcDbEntity
  8
0
100
AcDbLine
 62
7
  6
CONTINUOUS
 10
9.8226468583
 20
11.9547166759
 11
9.8203030915
 21
11.9558598073
  0
LINE
  5
3BB
100
AcDbEntity
  8
0
100
AcDbLine
 62
7
  6
CONTINUOUS
 10
9.8230284208
 20
11.9614475605
 11
9.833732259
 21
11.9562269498
  0
LINE
  5
3BC
100
AcDbEntity
  8
0
100
AcDbLine
 62
7
  6
CONTINUOUS
 10
9.8438944815
 20
11.9770625936
 11
9.8331906433
 21
11.9822832043
  0
LINE
  5
3BD
100
AcDbEntity
  8
0
100
AcDbLine
 62
7
  6
CONTINUOUS
 10
9.8184737288
 20
11.9965919126
 11
9.8526279026
 21
11.979933809
  0
LINE
  5
3BE
100
AcDbEntity
  8
0
100
AcDbLine
 62
9
  6
CONTINUOUS
 10
10.6781098414
 20
12.8088146445
 11
10.8294174115
 21
12.6575070744
  0
LINE
  5
3BF
100
AcDbEntity
  8
0
100
AcDbLine
 62
7
  6
CONTINUOUS
 10
15.3760683383
 20
11.6254655713
 11
15.3760683383
 21
11.7004655713
  0
LINE
  5
3C0
100
AcDbEntity
  8
0
100
AcDbLine
 62
7
  6
CONTINUOUS
 10
15.3960683383
 20
11.6798308081
 11
15.3960683383
 21
11.6461003345
  0
LINE
  5
3C1
100
AcDbEntity
  8
0
100
AcDbLine
 62
7
  6
CONTINUOUS
 10
9.5895387987
 20
12.0105352703
 11
9.6152186955
 21
12.0146025664
  0
LINE
  5
3C2
100
AcDbEntity
  8
0
100
AcDbLine
 62
7
  6
CONTINUOUS
 10
9.6473787795
 20
12.0196962233
 11
9.6655908009
 21
12.0225807241
  0
LINE
  5
3C3
100
AcDbEntity
  8
0
100
AcDbLine
 62
7
  6
CONTINUOUS
 10
9.9232002079
 20
11.9209523003
 11
9.9192300233
 21
11.9204648229
  0
LINE
  5
3C4
100
AcDbEntity
  8
0
100
AcDbLine
 62
7
  6
CONTINUOUS
 10
1.7267909839
 20
11.3266131045
 11
1.7327827611
 21
11.3269271202
  0
LINE
  5
3C5
100
AcDbEntity
  8
0
100
AcDbLine
 62
7
  6
CONTINUOUS
 10
1.777766759
 20
11.3528027519
 11
1.7717749818
 21
11.3524887362
  0
LINE
  5
3C6
100
AcDbEntity
  8
0
100
AcDbLine
 62
7
  6
CONTINUOUS
 10
1.9435683383
 20
11.6129655713
 11
1.9635683383
 21
11.6129655713
  0
LINE
  5
3C7
100
AcDbEntity
  8
0
100
AcDbLine
 62
7
  6
CONTINUOUS
 10
9.9235683383
 20
11.6129655713
 11
9.9435683383
 21
11.6129655713
  0
LINE
  5
3C8
100
AcDbEntity
  8
0
100
AcDbLine
 62
7
  6
CONTINUOUS
 10
9.4545683383
 20
11.6379655713
 11
9.4415683383
 21
11.6379655713
  0
LINE
  5
3C9
100
AcDbEntity
  8
0
100
AcDbLine
 62
7
  6
CONTINUOUS
 10
1.7037201774
 20
11.6379655713
 11
1.6524538326
 21
11.6379655713
  0
LINE
  5
3CA
100
AcDbEntity
  8
0
100
AcDbLine
 62
7
  6
CONTINUOUS
 10
9.561558228
 20
11.6479655713
 11
9.5550683383
 21
11.6479655713
  0
LINE
  5
3CB
100
AcDbEntity
  8
0
100
AcDbLine
 62
7
  6
CONTINUOUS
 10
9.4315683383
 20
11.6549655713
 11
9.4230683383
 21
11.6549655713
  0
LINE
  5
3CC
100
AcDbEntity
  8
0
100
AcDbLine
 62
7
  6
CONTINUOUS
 10
1.6597332373
 20
11.6579655713
 11
1.6964407727
 21
11.6579655713
  0
LINE
  5
3CD
100
AcDbEntity
  8
0
100
AcDbLine
 62
7
  6
CONTINUOUS
 10
1.5560683383
 20
11.6599655713
 11
1.5260683383
 21
11.6599655713
  0
LINE
  5
3CE
100
AcDbEntity
  8
0
100
AcDbLine
 62
7
  6
CONTINUOUS
 10
9.5550683383
 20
11.6639655713
 11
9.5825683383
 21
11.6639655713
  0
LINE
  5
3CF
100
AcDbEntity
  8
0
100
AcDbLine
 62
7
  6
CONTINUOUS
 10
1.5260683383
 20
11.6687366868
 11
1.5560683383
 21
11.6687366868
  0
LINE
  5
3D0
100
AcDbEntity
  8
0
100
AcDbLine
 62
7
  6
CONTINUOUS
 10
9.4230683383
 20
11.6709655713
 11
9.4315683383
 21
11.6709655713
  0
LINE
  5
3D1
100
AcDbEntity
  8
0
100
AcDbLine
 62
7
  6
CONTINUOUS
 10
9.4415683383
 20
11.6879655713
 11
9.4545683383
 21
11.6879655713
  0
LINE
  5
3D2
100
AcDbEntity
  8
0
100
AcDbLine
 62
7
  6
CONTINUOUS
 10
9.4658402981
 20
11.7079655713
 11
9.4180683383
 21
11.7079655713
  0
LINE
  5
3D3
100
AcDbEntity
  8
0
100
AcDbLine
 62
7
  6
CONTINUOUS
 10
9.9435683383
 20
11.7179655713
 11
9.9235683383
 21
11.7179655713
  0
LINE
  5
3D4
100
AcDbEntity
  8
0
100
AcDbLine
 62
7
  6
CONTINUOUS
 10
9.5825683383
 20
11.7179655713
 11
9.5550683383
 21
11.7179655713
  0
LINE
  5
3D5
100
AcDbEntity
  8
0
100
AcDbLine
 62
7
  6
CONTINUOUS
 10
1.9635683383
 20
11.7179655713
 11
1.9435683383
 21
11.7179655713
  0
LINE
  5
3D6
100
AcDbEntity
  8
0
100
AcDbLine
 62
7
  6
CONTINUOUS
 10
1.4405683383
 20
11.7329655713
 11
1.4555683383
 21
11.7329655713
  0
LINE
  5
3D7
100
AcDbEntity
  8
0
100
AcDbLine
 62
7
  6
CONTINUOUS
 10
1.4735683383
 20
11.7329655713
 11
1.5335683383
 21
11.7329655713
  0
LINE
  5
3D8
100
AcDbEntity
  8
0
100
AcDbLine
 62
7
  6
CONTINUOUS
 10
1.5485683383
 20
11.7329655713
 11
1.6085683383
 21
11.7329655713
  0
LINE
  5
3D9
100
AcDbEntity
  8
0
100
AcDbLine
 62
7
  6
CONTINUOUS
 10
1.6710683383
 20
11.7329655713
 11
1.7010683383
 21
11.7329655713
  0
LINE
  5
3DA
100
AcDbEntity
  8
0
100
AcDbLine
 62
7
  6
CONTINUOUS
 10
1.7485683383
 20
11.7329655713
 11
1.8105683383
 21
11.7329655713
  0
LINE
  5
3DB
100
AcDbEntity
  8
0
100
AcDbLine
 62
7
  6
CONTINUOUS
 10
1.8385683383
 20
11.7329655713
 11
1.8885683383
 21
11.7329655713
  0
LINE
  5
3DC
100
AcDbEntity
  8
0
100
AcDbLine
 62
7
  6
CONTINUOUS
 10
1.8935683383
 20
11.7329655713
 11
1.9635683383
 21
11.7329655713
  0
LINE
  5
3DD
100
AcDbEntity
  8
0
100
AcDbLine
 62
7
  6
CONTINUOUS
 10
9.3700683383
 20
11.7329655713
 11
9.4770683383
 21
11.7329655713
  0
LINE
  5
3DE
100
AcDbEntity
  8
0
100
AcDbLine
 62
7
  6
CONTINUOUS
 10
9.5095683383
 20
11.7329655713
 11
9.5975683383
 21
11.7329655713
  0
LINE
  5
3DF
100
AcDbEntity
  8
0
100
AcDbLine
 62
7
  6
CONTINUOUS
 10
9.7985683383
 20
11.7329655713
 11
9.8635683383
 21
11.7329655713
  0
LINE
  5
3E0
100
AcDbEntity
  8
0
100
AcDbLine
 62
7
  6
CONTINUOUS
 10
9.8735683383
 20
11.7329655713
 11
9.9435683383
 21
11.7329655713
  0
LINE
  5
3E1
100
AcDbEntity
  8
0
100
AcDbLine
 62
7
  6
CONTINUOUS
 10
15.3960683383
 20
11.6798308081
 11
15.6477821599
 21
11.6719647511
  0
LINE
  5
3E2
100
AcDbEntity
  8
0
100
AcDbLine
 62
7
  6
CONTINUOUS
 10
15.6160683383
 20
11.6929655713
 11
15.3760683383
 21
11.7004655713
  0
LINE
  5
3E3
100
AcDbEntity
  8
0
100
AcDbLine
 62
7
  6
CONTINUOUS
 10
9.6966105351
 20
11.9616809896
 11
9.6766295707
 21
11.9625533773
  0
LINE
  5
3E4
100
AcDbEntity
  8
0
100
AcDbLine
 62
7
  6
CONTINUOUS
 10
9.7178128424
 20
11.988781952
 11
9.6958337815
 21
11.9897415785
  0
LINE
  5
3E5
100
AcDbEntity
  8
0
100
AcDbLine
 62
7
  6
CONTINUOUS
 10
9.6961089254
 20
11.9960434092
 11
9.71140219
 21
11.9953756908
  0
LINE
  5
3E6
100
AcDbEntity
  8
0
100
AcDbLine
 62
7
  6
CONTINUOUS
 10
9.7122477227
 20
12.0147415727
 11
9.696954458
 21
12.015409291
  0
LINE
  5
3E7
100
AcDbEntity
  8
0
100
AcDbLine
 62
7
  6
CONTINUOUS
 10
9.6792467339
 20
12.0224962706
 11
9.7192086628
 21
12.0207514951
  0
LINE
  5
3E8
100
AcDbEntity
  8
0
100
AcDbLine
 62
7
  6
CONTINUOUS
 10
9.5900300748
 20
11.9659906384
 11
9.5959760255
 21
11.9651871024
  0
LWPOLYLINE
  5
3E9
100
AcDbEntity
  8
0
100
AcDbPolyline
 62
7
  6
CONTINUOUS
 90
10
 70
0
 10
21.0416061811
 20
7.5055988073
 10
21.0417061454
 20
7.5055486432
 10
21.0415655302
 20
7.5056429931
 10
21.0401330725
 20
7.5066673284
 10
21.0376214021
 20
7.508887901
 10
21.0342119806
 20
7.5127187145
 10
21.0303068836
 20
7.5185717878
 10
21.0267147834
 20
7.5263941495
 10
21.0243159418
 20
7.5354424495
 10
21.0235681359
 20
7.5440786748
  0
LINE
  5
3EA
100
AcDbEntity
  8
0
100
AcDbLine
 62
9
  6
CONTINUOUS
 10
14.6890268351
 20
10.5171164981
 11
14.5377192651
 21
10.6684240682
  0
LINE
  5
3EB
100
AcDbEntity
  8
0
100
AcDbLine
 62
7
  6
CONTINUOUS
 10
1.9232002079
 20
11.9209523003
 11
1.9192300233
 21
11.9204648229
  0
LINE
  5
3EC
100
AcDbEntity
  8
0
100
AcDbLine
 62
9
  6
CONTINUOUS
 10
14.9306613702
 20
10.5750418636
 11
14.5956446306
 21
10.9100586033
  0
LINE
  5
3ED
100
AcDbEntity
  8
0
100
AcDbLine
 62
9
  6
CONTINUOUS
 10
15.128091275
 20
10.7724717684
 11
14.7930745354
 21
11.107488508
  0
LINE
  5
3EE
100
AcDbEntity
  8
0
100
AcDbLine
 62
9
  6
CONTINUOUS
 10
15.1718339625
 20
10.861725548
 11
14.8823283149
 21
11.1512311955
  0
LINE
  5
3EF
100
AcDbEntity
  8
0
100
AcDbLine
 62
9
  6
CONTINUOUS
 10
15.2939546006
 20
11.0612197993
 11
15.0818225663
 21
11.2733518336
  0
LINE
  5
3F0
100
AcDbEntity
  8
0
100
AcDbLine
 62
7
  6
CONTINUOUS
 10
1.5895387987
 20
12.0105352703
 11
1.6152186955
 21
12.0146025664
  0
LINE
  5
3F1
100
AcDbEntity
  8
0
100
AcDbLine
 62
7
  6
CONTINUOUS
 10
1.6473787795
 20
12.0196962233
 11
1.6655908009
 21
12.0225807241
  0
LINE
  5
3F2
100
AcDbEntity
  8
0
100
AcDbLine
 62
7
  6
CONTINUOUS
 10
16.073182076
 20
11.0612197993
 11
15.9146296366
 21
11.2197722386
  0
LINE
  5
3F3
100
AcDbEntity
  8
0
100
AcDbLine
 62
7
  6
CONTINUOUS
 10
15.0818225663
 20
12.052579309
 11
15.2403750056
 21
11.8940268696
  0
LINE
  5
3F4
100
AcDbEntity
  8
0
100
AcDbLine
 62
7
  6
CONTINUOUS
 10
16.2853141103
 20
11.2733518336
 11
16.126761671
 21
11.431904273
  0
LINE
  5
3F5
100
AcDbEntity
  8
0
100
AcDbLine
 62
7
  6
CONTINUOUS
 10
15.2939546006
 20
12.2647113433
 11
15.45250704
 21
12.106158904
  0
LINE
  5
3F6
100
AcDbEntity
  8
0
100
AcDbLine
 62
7
  6
CONTINUOUS
 10
15.5774478397
 20
11.7766820995
 11
15.6160683383
 21
11.6929655713
  0
LINE
  5
3F7
100
AcDbEntity
  8
0
100
AcDbLine
 62
7
  6
CONTINUOUS
 10
15.6477821599
 20
11.6719647511
 11
15.601772081
 21
11.7716994569
  0
LINE
  5
3F8
100
AcDbEntity
  8
0
100
AcDbLine
 62
7
  6
CONTINUOUS
 10
1.4685683383
 20
11.6870520393
 11
1.4541357093
 21
11.6829655713
  0
LINE
  5
3F9
100
AcDbEntity
  8
0
100
AcDbLine
 62
9
  6
CONTINUOUS
 10
16.073182076
 20
12.2647113433
 11
16.2853141103
 21
12.052579309
  0
LINE
  5
3FA
100
AcDbEntity
  8
0
100
AcDbLine
 62
9
  6
CONTINUOUS
 10
16.1953027141
 20
12.4642055946
 11
16.4848083616
 21
12.1746999471
  0
LINE
  5
3FB
100
AcDbEntity
  8
0
100
AcDbLine
 62
9
  6
CONTINUOUS
 10
16.2390454016
 20
12.5534593742
 11
16.5740621412
 21
12.2184426346
  0
LINE
  5
3FC
100
AcDbEntity
  8
0
100
AcDbLine
 62
9
  6
CONTINUOUS
 10
16.4364753063
 20
12.750889279
 11
16.771492046
 21
12.4158725393
  0
LINE
  5
3FD
100
AcDbEntity
  8
0
100
AcDbLine
 62
9
  6
CONTINUOUS
 10
16.6781098414
 20
12.8088146445
 11
16.8294174115
 21
12.6575070744
  0
LINE
  5
3FE
100
AcDbEntity
  8
0
100
AcDbLine
 62
7
  6
CONTINUOUS
 10
19.6435683383
 20
6.126600694
 11
19.6435683383
 21
6.1886689913
  0
LINE
  5
3FF
100
AcDbEntity
  8
0
100
AcDbLine
 62
7
  6
CONTINUOUS
 10
19.8470308636
 20
6.5925224339
 11
19.8947948434
 21
6.9161533131
  0
LINE
  5
400
100
AcDbEntity
  8
0
100
AcDbLine
 62
7
  6
CONTINUOUS
 10
20.1435683383
 20
8.7361513903
 11
20.1435683383
 21
10.1406930653
  0
LINE
  5
401
100
AcDbEntity
  8
0
100
AcDbLine
 62
7
  6
CONTINUOUS
 10
20.1935683383
 20
11.28257988
 11
20.1935683383
 21
11.3661422693
  0
LINE
  5
402
100
AcDbEntity
  8
0
100
AcDbLine
 62
7
  6
CONTINUOUS
 10
20.1960683383
 20
11.6629655713
 11
20.1960683383
 21
11.4027893098
  0
LINE
  5
403
100
AcDbEntity
  8
0
100
AcDbLine
 62
7
  6
CONTINUOUS
 10
20.2135683383
 20
11.3887261117
 11
20.2135683383
 21
10.969246288
  0
LINE
  5
404
100
AcDbEntity
  8
0
100
AcDbLine
 62
7
  6
CONTINUOUS
 10
20.2335683383
 20
10.9901115176
 11
20.2335683383
 21
10.9258327566
  0
LINE
  5
405
100
AcDbEntity
  8
0
100
AcDbLine
 62
7
  6
CONTINUOUS
 10
20.2335683383
 20
8.3308991763
 11
20.2335683383
 21
8.2987597958
  0
LINE
  5
406
100
AcDbEntity
  8
0
100
AcDbLine
 62
7
  6
CONTINUOUS
 10
20.2735683383
 20
10.6243653677
 11
20.2735683383
 21
10.6113200083
  0
LINE
  5
407
100
AcDbEntity
  8
0
100
AcDbLine
 62
7
  6
CONTINUOUS
 10
20.3435683383
 20
8.121672101
 11
20.3435683383
 21
7.5440969582
  0
LWPOLYLINE
  5
408
100
AcDbEntity
  8
0
100
AcDbPolyline
 62
7
  6
CONTINUOUS
 90
9
 70
0
 10
20.3435684641
 20
7.5440785762
 10
20.3428276114
 20
7.5354826187
 10
20.3404371183
 20
7.5264360127
 10
20.3368492405
 20
7.5186061764
 10
20.3329437496
 20
7.5127430341
 10
20.3295306357
 20
7.5089030312
 10
20.3270138171
 20
7.5066753311
 10
20.3255758043
 20
7.5056459404
 10
20.3255245692
 20
7.5056138801
  0
LINE
  5
409
100
AcDbEntity
  8
0
100
AcDbLine
 62
7
  6
CONTINUOUS
 10
21.0235683383
 20
8.121672101
 11
21.0235683383
 21
7.5440969582
  0
LINE
  5
40A
100
AcDbEntity
  8
0
100
AcDbLine
 62
7
  6
CONTINUOUS
 10
21.0935683383
 20
10.6243653677
 11
21.0935683383
 21
10.6113384299
  0
LINE
  5
40B
100
AcDbEntity
  8
0
100
AcDbLine
 62
7
  6
CONTINUOUS
 10
21.1335683383
 20
10.9901115176
 11
21.1335683383
 21
10.9258327566
  0
LINE
  5
40C
100
AcDbEntity
  8
0
100
AcDbLine
 62
7
  6
CONTINUOUS
 10
21.1335683383
 20
8.3308991763
 11
21.1335683383
 21
8.2987597958
  0
LINE
  5
40D
100
AcDbEntity
  8
0
100
AcDbLine
 62
7
  6
CONTINUOUS
 10
21.1535683383
 20
10.9692462852
 11
21.1535683383
 21
11.3887261117
  0
LINE
  5
40E
100
AcDbEntity
  8
0
100
AcDbLine
 62
7
  6
CONTINUOUS
 10
21.1710683383
 20
11.6629655713
 11
21.1710683383
 21
11.402786859
  0
LINE
  5
40F
100
AcDbEntity
  8
0
100
AcDbLine
 62
7
  6
CONTINUOUS
 10
21.1735683383
 20
11.28257988
 11
21.1735683383
 21
11.3661422693
  0
LINE
  5
410
100
AcDbEntity
  8
0
100
AcDbLine
 62
7
  6
CONTINUOUS
 10
21.2235683383
 20
8.7361513903
 11
21.2235683383
 21
10.1406930653
  0
LINE
  5
411
100
AcDbEntity
  8
0
100
AcDbLine
 62
7
  6
CONTINUOUS
 10
21.520105813
 20
6.5925224339
 11
21.4723418332
 21
6.9161533131
  0
LINE
  5
412
100
AcDbEntity
  8
0
100
AcDbLine
 62
7
  6
CONTINUOUS
 10
21.7235683383
 20
6.126600694
 11
21.7235683383
 21
6.1886689913
  0
ARC
  5
413
100
AcDbEntity
  8
0
100
AcDbCircle
 62
7
  6
CONTINUOUS
 10
5.6960316411
 20
2.659811141
 40
0.7690405816
100
AcDbArc
 50
0.0096803671
 51
25.7549332252
  0
ARC
  5
414
100
AcDbEntity
  8
0
100
AcDbCircle
 62
7
  6
CONTINUOUS
 10
5.6711050314
 20
2.6598111414
 40
0.769040578
100
AcDbArc
 50
154.245108073
 51
179.9903196595
  0
ARC
  5
415
100
AcDbEntity
  8
0
100
AcDbCircle
 62
7
  6
CONTINUOUS
 10
5.6973226444
 20
2.6599413238
 40
0.7677456939
100
AcDbArc
 50
359.3603174386
 51
359.9999812875
  0
ARC
  5
416
100
AcDbEntity
  8
0
100
AcDbCircle
 62
7
  6
CONTINUOUS
 10
5.6698140321
 20
2.6599413238
 40
0.7677456938
100
AcDbArc
 50
180.0000187125
 51
180.6396825615
  0
ARC
  5
417
100
AcDbEntity
  8
0
100
AcDbCircle
 62
7
  6
CONTINUOUS
 10
1.2154213434
 20
10.4877117952
 40
0.75
100
AcDbArc
 50
124.2724717156
 51
145.7275282844
  0
ARC
  5
418
100
AcDbEntity
  8
0
100
AcDbCircle
 62
7
  6
CONTINUOUS
 10
1.6475079912
 20
10.7076664087
 40
0.5
100
AcDbArc
 50
135.0
 51
162.0541342467
  0
ARC
  5
419
100
AcDbEntity
  8
0
100
AcDbCircle
 62
7
  6
CONTINUOUS
 10
0.7335661932
 20
10.8642709963
 40
0.35
100
AcDbArc
 50
262.6889842707
 51
304.2724717156
  0
ARC
  5
41A
100
AcDbEntity
  8
0
100
AcDbCircle
 62
7
  6
CONTINUOUS
 10
0.8848737632
 20
10.7129634262
 40
0.35
100
AcDbArc
 50
145.7275282844
 51
187.3110157293
  0
ARC
  5
41B
100
AcDbEntity
  8
0
100
AcDbCircle
 62
7
  6
CONTINUOUS
 10
0.9901697124
 20
10.8182593754
 40
0.35
100
AcDbArc
 50
107.9458657533
 51
124.2724717156
  0
ARC
  5
41C
100
AcDbEntity
  8
0
100
AcDbCircle
 62
7
  6
CONTINUOUS
 10
0.8388621424
 20
10.9695669455
 40
0.35
100
AcDbArc
 50
325.7275282844
 51
342.0541342467
  0
ARC
  5
41D
100
AcDbEntity
  8
0
100
AcDbCircle
 62
7
  6
CONTINUOUS
 10
0.7112965142
 20
10.6906937472
 40
0.175
100
AcDbArc
 50
187.3110157293
 51
262.6889842707
  0
ARC
  5
41E
100
AcDbEntity
  8
0
100
AcDbCircle
 62
7
  6
CONTINUOUS
 10
0.5083145622
 20
11.1948185764
 40
0.75
100
AcDbArc
 50
304.2724717156
 51
325.7275282844
  0
ARC
  5
41F
100
AcDbEntity
  8
0
100
AcDbCircle
 62
7
  6
CONTINUOUS
 10
0.7282691757
 20
11.6269052242
 40
0.5
100
AcDbArc
 50
287.9458657533
 51
315.0
  0
ARC
  5
420
100
AcDbEntity
  8
0
100
AcDbCircle
 62
7
  6
CONTINUOUS
 10
1.4035527171
 20
11.6329655713
 40
0.1
100
AcDbArc
 50
72.2472098381
 51
100.0172899058
  0
ARC
  5
421
100
AcDbEntity
  8
0
100
AcDbCircle
 62
7
  6
CONTINUOUS
 10
1.3982850862
 20
11.6627871645
 40
0.0697167479
100
AcDbArc
 50
100.0172899058
 51
259.9827100942
  0
ARC
  5
422
100
AcDbEntity
  8
0
100
AcDbCircle
 62
7
  6
CONTINUOUS
 10
1.405786785
 20
11.6529655713
 40
0.04
100
AcDbArc
 50
202.1725080048
 51
263.3735843887
  0
ARC
  5
423
100
AcDbEntity
  8
0
100
AcDbCircle
 62
7
  6
CONTINUOUS
 10
1.6021930653
 20
11.6460654681
 40
0.035
100
AcDbArc
 50
288.9660475066
 51
340.0
  0
ARC
  5
424
100
AcDbEntity
  8
0
100
AcDbCircle
 62
7
  6
CONTINUOUS
 10
1.6140683383
 20
11.6321944558
 40
0.02
100
AcDbArc
 50
180.0
 51
254.0379858372
  0
ARC
  5
425
100
AcDbEntity
  8
0
100
AcDbCircle
 62
7
  6
CONTINUOUS
 10
1.5410683383
 20
11.6321944558
 40
0.02
100
AcDbArc
 50
292.0243128371
 51
360.0
  0
ARC
  5
426
100
AcDbEntity
  8
0
100
AcDbCircle
 62
7
  6
CONTINUOUS
 10
1.5410683383
 20
11.6321944558
 40
0.02
100
AcDbArc
 50
180.0
 51
247.9756871629
  0
ARC
  5
427
100
AcDbEntity
  8
0
100
AcDbCircle
 62
7
  6
CONTINUOUS
 10
1.4680683383
 20
11.6321944558
 40
0.02
100
AcDbArc
 50
285.9620141628
 51
360.0
  0
ARC
  5
428
100
AcDbEntity
  8
0
100
AcDbCircle
 62
7
  6
CONTINUOUS
 10
1.6291901918
 20
11.349419694
 40
0.018
100
AcDbArc
 50
250.0164438544
 51
78.0
  0
ARC
  5
429
100
AcDbEntity
  8
0
100
AcDbCircle
 62
7
  6
CONTINUOUS
 10
1.5573887318
 20
11.3444878348
 40
0.0177342409
100
AcDbArc
 50
246.0
 51
42.5194112808
  0
ARC
  5
42A
100
AcDbEntity
  8
0
100
AcDbCircle
 62
7
  6
CONTINUOUS
 10
1.6487082249
 20
11.3261563887
 40
0.015
100
AcDbArc
 50
288.905459207
 51
340.0
  0
ARC
  5
42B
100
AcDbEntity
  8
0
100
AcDbCircle
 62
7
  6
CONTINUOUS
 10
1.6643542909
 20
11.6268047458
 40
0.015
100
AcDbArc
 50
160.0
 51
247.3109219557
  0
ARC
  5
42C
100
AcDbEntity
  8
0
100
AcDbCircle
 62
7
  6
CONTINUOUS
 10
1.5670689823
 20
11.3705713168
 40
0.0145
100
AcDbArc
 50
283.5235132021
 51
66.0
  0
ARC
  5
42D
100
AcDbEntity
  8
0
100
AcDbCircle
 62
7
  6
CONTINUOUS
 10
1.55177277
 20
11.3472791316
 40
0.012
100
AcDbArc
 50
246.0
 51
66.0
  0
ARC
  5
42E
100
AcDbEntity
  8
0
100
AcDbCircle
 62
7
  6
CONTINUOUS
 10
1.6227433297
 20
11.3507900168
 40
0.0115908889
100
AcDbArc
 50
258.0
 51
78.0
  0
ARC
  5
42F
100
AcDbEntity
  8
0
100
AcDbCircle
 62
7
  6
CONTINUOUS
 10
1.5871550866
 20
11.3608835164
 40
0.011
100
AcDbArc
 50
348.0
 51
48.0
  0
ARC
  5
430
100
AcDbEntity
  8
0
100
AcDbCircle
 62
7
  6
CONTINUOUS
 10
1.6461353818
 20
11.3233263896
 40
0.011
100
AcDbArc
 50
222.0605153624
 51
258.0
  0
ARC
  5
431
100
AcDbEntity
  8
0
100
AcDbCircle
 62
7
  6
CONTINUOUS
 10
1.6159954763
 20
11.3282261799
 40
0.011
100
AcDbArc
 50
168.0
 51
228.0
  0
ARC
  5
432
100
AcDbEntity
  8
0
100
AcDbCircle
 62
7
  6
CONTINUOUS
 10
1.5817603102
 20
11.3355030891
 40
0.011
100
AcDbArc
 50
288.0
 51
348.0
  0
ARC
  5
433
100
AcDbEntity
  8
0
100
AcDbCircle
 62
7
  6
CONTINUOUS
 10
1.5606741641
 20
11.3734184733
 40
0.0095
100
AcDbArc
 50
246.0
 51
66.0
  0
ARC
  5
434
100
AcDbEntity
  8
0
100
AcDbCircle
 62
7
  6
CONTINUOUS
 10
1.5234342488
 20
11.3573875711
 40
0.007
100
AcDbArc
 50
262.601549599
 51
336.0
  0
ARC
  5
435
100
AcDbEntity
  8
0
100
AcDbCircle
 62
7
  6
CONTINUOUS
 10
1.5362804531
 20
11.3862406182
 40
0.007
100
AcDbArc
 50
336.0
 51
49.398450401
  0
ARC
  5
436
100
AcDbEntity
  8
0
100
AcDbCircle
 62
7
  6
CONTINUOUS
 10
1.6743601566
 20
11.3176917731
 40
0.006
100
AcDbArc
 50
160.0
 51
252.6242801223
  0
ARC
  5
437
100
AcDbEntity
  8
0
100
AcDbCircle
 62
7
  6
CONTINUOUS
 10
1.5560683383
 20
11.6549655713
 40
0.005
100
AcDbArc
 50
0.0000000001
 51
90.0
  0
ARC
  5
438
100
AcDbEntity
  8
0
100
AcDbCircle
 62
7
  6
CONTINUOUS
 10
1.5260683383
 20
11.6549655713
 40
0.005
100
AcDbArc
 50
90.0
 51
179.9999999999
  0
ARC
  5
439
100
AcDbEntity
  8
0
100
AcDbCircle
 62
7
  6
CONTINUOUS
 10
1.5577866434
 20
11.3829138525
 40
0.002
100
AcDbArc
 50
66.0
 51
156.0
  0
ARC
  5
43A
100
AcDbEntity
  8
0
100
AcDbCircle
 62
7
  6
CONTINUOUS
 10
1.5516855938
 20
11.3692106706
 40
0.002
100
AcDbArc
 50
155.9999999999
 51
246.0
  0
ARC
  5
43B
100
AcDbEntity
  8
0
100
AcDbCircle
 62
7
  6
CONTINUOUS
 10
1.5476182273
 20
11.360075216
 40
0.002
100
AcDbArc
 50
66.0
 51
155.9999999999
  0
ARC
  5
43C
100
AcDbEntity
  8
0
100
AcDbCircle
 62
7
  6
CONTINUOUS
 10
1.5394834945
 20
11.3418043069
 40
0.002
100
AcDbArc
 50
155.9999999999
 51
246.0
  0
ARC
  5
43D
100
AcDbEntity
  8
0
100
AcDbCircle
 62
7
  6
CONTINUOUS
 10
1.6088924916
 20
11.3429066077
 40
0.001
100
AcDbArc
 50
167.9999999998
 51
258.0
  0
ARC
  5
43E
100
AcDbEntity
  8
0
100
AcDbCircle
 62
7
  6
CONTINUOUS
 10
1.6132964308
 20
11.3636255128
 40
0.001
100
AcDbArc
 50
78.0000000001
 51
167.9999999997
  0
ARC
  5
43F
100
AcDbEntity
  8
0
100
AcDbCircle
 62
7
  6
CONTINUOUS
 10
1.609734788
 20
11.3343270556
 40
0.001
100
AcDbArc
 50
28.1777964195
 51
78.0000000001
  0
ARC
  5
440
100
AcDbEntity
  8
0
100
AcDbCircle
 62
7
  6
CONTINUOUS
 10
1.6071840926
 20
11.3348692226
 40
0.001
100
AcDbArc
 50
78.0
 51
167.9999999998
  0
ARC
  5
441
100
AcDbEntity
  8
0
100
AcDbCircle
 62
7
  6
CONTINUOUS
 10
2.1946856738
 20
10.78528044
 40
2.3210317025
100
AcDbArc
 50
4.9420803721
 51
5.3475935792
  0
ARC
  5
442
100
AcDbEntity
  8
0
100
AcDbCircle
 62
7
  6
CONTINUOUS
 10
2.3972337427
 20
10.8028040181
 40
2.1177269946
100
AcDbArc
 50
3.5404135901
 51
4.9421412547
  0
ARC
  5
443
100
AcDbEntity
  8
0
100
AcDbCircle
 62
7
  6
CONTINUOUS
 10
2.1517153332
 20
10.4877117952
 40
0.75
100
AcDbArc
 50
34.2724717156
 51
55.7275282844
  0
ARC
  5
444
100
AcDbEntity
  8
0
100
AcDbCircle
 62
7
  6
CONTINUOUS
 10
1.7196286854
 20
10.7076664087
 40
0.5
100
AcDbArc
 50
17.9458657533
 51
45.0
  0
ARC
  5
445
100
AcDbEntity
  8
0
100
AcDbCircle
 62
7
  6
CONTINUOUS
 10
2.4822629133
 20
10.7129634262
 40
0.35
100
AcDbArc
 50
352.6889842707
 51
34.2724717156
  0
ARC
  5
446
100
AcDbEntity
  8
0
100
AcDbCircle
 62
7
  6
CONTINUOUS
 10
2.6335704834
 20
10.8642709963
 40
0.35
100
AcDbArc
 50
235.7275282844
 51
277.3110157293
  0
ARC
  5
447
100
AcDbEntity
  8
0
100
AcDbCircle
 62
7
  6
CONTINUOUS
 10
2.5282745342
 20
10.9695669455
 40
0.35
100
AcDbArc
 50
197.9458657533
 51
214.2724717156
  0
ARC
  5
448
100
AcDbEntity
  8
0
100
AcDbCircle
 62
7
  6
CONTINUOUS
 10
2.3769669641
 20
10.8182593754
 40
0.35
100
AcDbArc
 50
55.7275282844
 51
72.0541342467
  0
ARC
  5
449
100
AcDbEntity
  8
0
100
AcDbCircle
 62
7
  6
CONTINUOUS
 10
2.6558401624
 20
10.6906937472
 40
0.175
100
AcDbArc
 50
277.3110157293
 51
352.6889842707
  0
ARC
  5
44A
100
AcDbEntity
  8
0
100
AcDbCircle
 62
7
  6
CONTINUOUS
 10
2.8588221144
 20
11.1948185764
 40
0.75
100
AcDbArc
 50
214.2724717156
 51
235.7275282844
  0
ARC
  5
44B
100
AcDbEntity
  8
0
100
AcDbCircle
 62
7
  6
CONTINUOUS
 10
2.6388675009
 20
11.6269052242
 40
0.5
100
AcDbArc
 50
225.0
 51
252.0541342467
  0
ARC
  5
44C
100
AcDbEntity
  8
0
100
AcDbCircle
 62
7
  6
CONTINUOUS
 10
1.8103538168
 20
11.3910732352
 40
0.06
100
AcDbArc
 50
269.214635172
 51
314.4712206345
  0
ARC
  5
44D
100
AcDbEntity
  8
0
100
AcDbCircle
 62
7
  6
CONTINUOUS
 10
1.7459418455
 20
11.3695212911
 40
0.06
100
AcDbArc
 50
256.214635172
 51
301.4712206345
  0
ARC
  5
44E
100
AcDbEntity
  8
0
100
AcDbCircle
 62
7
  6
CONTINUOUS
 10
1.8195683383
 20
11.6479655713
 40
0.055
100
AcDbArc
 50
180.0
 51
360.0
  0
ARC
  5
44F
100
AcDbEntity
  8
0
100
AcDbCircle
 62
7
  6
CONTINUOUS
 10
1.831866281
 20
11.347039144
 40
0.049
100
AcDbArc
 50
85.2068956492
 51
144.7931043508
  0
ARC
  5
450
100
AcDbEntity
  8
0
100
AcDbCircle
 62
7
  6
CONTINUOUS
 10
1.7569974314
 20
11.3217765393
 40
0.049
100
AcDbArc
 50
72.2068956492
 51
131.7931043508
  0
ARC
  5
451
100
AcDbEntity
  8
0
100
AcDbCircle
 62
7
  6
CONTINUOUS
 10
1.9635683383
 20
11.6529655713
 40
0.04
100
AcDbArc
 50
270.0
 51
341.7900431357
  0
ARC
  5
452
100
AcDbEntity
  8
0
100
AcDbCircle
 62
7
  6
CONTINUOUS
 10
1.7699436113
 20
11.6460654681
 40
0.035
100
AcDbArc
 50
200.0
 51
251.0339524934
  0
ARC
  5
453
100
AcDbEntity
  8
0
100
AcDbCircle
 62
7
  6
CONTINUOUS
 10
1.8245683383
 20
11.6479655713
 40
0.03
100
AcDbArc
 50
180.0
 51
360.0
  0
ARC
  5
454
100
AcDbEntity
  8
0
100
AcDbCircle
 62
7
  6
CONTINUOUS
 10
1.8219971571
 20
11.3622978985
 40
0.025
100
AcDbArc
 50
46.0231697077
 51
131.2602047083
  0
ARC
  5
455
100
AcDbEntity
  8
0
100
AcDbCircle
 62
7
  6
CONTINUOUS
 10
1.8215791029
 20
11.3670005315
 40
0.025
100
AcDbArc
 50
234.64645964
 51
318.5781784782
  0
ARC
  5
456
100
AcDbEntity
  8
0
100
AcDbCircle
 62
7
  6
CONTINUOUS
 10
1.7508137255
 20
11.3388642827
 40
0.025
100
AcDbArc
 50
33.0231697077
 51
118.2602047083
  0
ARC
  5
457
100
AcDbEntity
  8
0
100
AcDbCircle
 62
7
  6
CONTINUOUS
 10
1.7514642482
 20
11.3435404293
 40
0.025
100
AcDbArc
 50
221.64645964
 51
305.5781784782
  0
ARC
  5
458
100
AcDbEntity
  8
0
100
AcDbCircle
 62
7
  6
CONTINUOUS
 10
1.8418786079
 20
11.3589611262
 40
0.015
100
AcDbArc
 50
314.4712206345
 51
74.6196427434
  0
ARC
  5
459
100
AcDbEntity
  8
0
100
AcDbCircle
 62
7
  6
CONTINUOUS
 10
1.7694350055
 20
11.3311406784
 40
0.015
100
AcDbArc
 50
301.4712206345
 51
61.6196427434
  0
ARC
  5
45A
100
AcDbEntity
  8
0
100
AcDbCircle
 62
7
  6
CONTINUOUS
 10
1.7204284517
 20
11.3261563887
 40
0.015
100
AcDbArc
 50
200.0
 51
251.094540793
  0
ARC
  5
45B
100
AcDbEntity
  8
0
100
AcDbCircle
 62
7
  6
CONTINUOUS
 10
1.8865683383
 20
11.6262320705
 40
0.015
100
AcDbArc
 50
297.8181392847
 51
360.0
  0
ARC
  5
45C
100
AcDbEntity
  8
0
100
AcDbCircle
 62
7
  6
CONTINUOUS
 10
1.691819719
 20
11.6268047458
 40
0.015
100
AcDbArc
 50
292.6890780443
 51
20.0
  0
ARC
  5
45D
100
AcDbEntity
  8
0
100
AcDbCircle
 62
7
  6
CONTINUOUS
 10
1.8371304295
 20
11.4098188281
 40
0.014
100
AcDbArc
 50
265.2068956492
 51
286.0
  0
ARC
  5
45E
100
AcDbEntity
  8
0
100
AcDbCircle
 62
7
  6
CONTINUOUS
 10
1.8093395156
 20
11.3170801869
 40
0.014
100
AcDbArc
 50
89.214635172
 51
106.0
  0
ARC
  5
45F
100
AcDbEntity
  8
0
100
AcDbCircle
 62
7
  6
CONTINUOUS
 10
1.7762490163
 20
11.3817630084
 40
0.014
100
AcDbArc
 50
252.2068956492
 51
273.0
  0
ARC
  5
460
100
AcDbEntity
  8
0
100
AcDbCircle
 62
7
  6
CONTINUOUS
 10
1.7283087266
 20
11.297652848
 40
0.014
100
AcDbArc
 50
76.214635172
 51
93.0
  0
ARC
  5
461
100
AcDbEntity
  8
0
100
AcDbCircle
 62
7
  6
CONTINUOUS
 10
1.8024515624
 20
11.3677942476
 40
0.013
100
AcDbArc
 50
144.7931043507
 51
256.9826041728
  0
ARC
  5
462
100
AcDbEntity
  8
0
100
AcDbCircle
 62
7
  6
CONTINUOUS
 10
1.7330054926
 20
11.3486165629
 40
0.013
100
AcDbArc
 50
131.7931043507
 51
243.9826041728
  0
ARC
  5
463
100
AcDbEntity
  8
0
100
AcDbCircle
 62
7
  6
CONTINUOUS
 10
1.6873272755
 20
11.3176917731
 40
0.006
100
AcDbArc
 50
287.3757198777
 51
20.0
  0
ARC
  5
464
100
AcDbEntity
  8
0
100
AcDbCircle
 62
7
  6
CONTINUOUS
 10
1.9435683383
 20
11.6179655713
 40
0.005
100
AcDbArc
 50
179.9999999999
 51
270.0
  0
ARC
  5
465
100
AcDbEntity
  8
0
100
AcDbCircle
 62
7
  6
CONTINUOUS
 10
0.7282691757
 20
11.6990259184
 40
0.5
100
AcDbArc
 50
45.0
 51
72.0541342467
  0
ARC
  5
466
100
AcDbEntity
  8
0
100
AcDbCircle
 62
7
  6
CONTINUOUS
 10
0.5083145622
 20
12.1311125662
 40
0.75
100
AcDbArc
 50
34.2724717156
 51
55.7275282844
  0
ARC
  5
467
100
AcDbEntity
  8
0
100
AcDbCircle
 62
7
  6
CONTINUOUS
 10
1.3994813948
 20
11.6695598163
 40
0.076594245
100
AcDbArc
 50
259.9827100942
 51
334.4203702628
  0
ARC
  5
468
100
AcDbEntity
  8
0
100
AcDbCircle
 62
7
  6
CONTINUOUS
 10
1.4335683383
 20
11.6642874659
 40
0.07
100
AcDbArc
 50
157.8274919952
 51
202.1725080048
  0
ARC
  5
469
100
AcDbEntity
  8
0
100
AcDbCircle
 62
7
  6
CONTINUOUS
 10
1.4072808379
 20
11.6658263583
 40
0.0529472791
100
AcDbArc
 50
263.3735843887
 51
334.4203702628
  0
ARC
  5
46A
100
AcDbEntity
  8
0
100
AcDbCircle
 62
7
  6
CONTINUOUS
 10
1.4072808379
 20
11.6696990396
 40
0.0486968155
100
AcDbArc
 50
15.8089885518
 51
65.8402771873
  0
ARC
  5
46B
100
AcDbEntity
  8
0
100
AcDbCircle
 62
7
  6
CONTINUOUS
 10
1.4092913801
 20
11.674181123
 40
0.0437844483
100
AcDbArc
 50
65.8402771873
 51
157.8274919952
  0
ARC
  5
46C
100
AcDbEntity
  8
0
100
AcDbCircle
 62
7
  6
CONTINUOUS
 10
1.4605756195
 20
11.6937366868
 40
0.0274927188
100
AcDbArc
 50
0.0
 51
61.7976033231
  0
ARC
  5
46D
100
AcDbEntity
  8
0
100
AcDbCircle
 62
7
  6
CONTINUOUS
 10
1.6215610571
 20
11.6937366868
 40
0.0274927188
100
AcDbArc
 50
118.2023966769
 51
180.0
  0
ARC
  5
46E
100
AcDbEntity
  8
0
100
AcDbCircle
 62
7
  6
CONTINUOUS
 10
1.5410683383
 20
11.6937366868
 40
0.02
100
AcDbArc
 50
112.024312837
 51
180.0
  0
ARC
  5
46F
100
AcDbEntity
  8
0
100
AcDbCircle
 62
7
  6
CONTINUOUS
 10
1.5410683383
 20
11.6937366868
 40
0.02
100
AcDbArc
 50
0.0
 51
67.9756871629
  0
ARC
  5
470
100
AcDbEntity
  8
0
100
AcDbCircle
 62
7
  6
CONTINUOUS
 10
1.4355683383
 20
11.7329655713
 40
0.005
100
AcDbArc
 50
252.247209838
 51
360.0
  0
ARC
  5
471
100
AcDbEntity
  8
0
100
AcDbCircle
 62
7
  6
CONTINUOUS
 10
1.5260683383
 20
11.6737366868
 40
0.005
100
AcDbArc
 50
179.9999999999
 51
270.0
  0
ARC
  5
472
100
AcDbEntity
  8
0
100
AcDbCircle
 62
7
  6
CONTINUOUS
 10
1.5560683383
 20
11.6737366868
 40
0.005
100
AcDbArc
 50
270.0
 51
360.0
  0
ARC
  5
473
100
AcDbEntity
  8
0
100
AcDbCircle
 62
7
  6
CONTINUOUS
 10
1.5671344078
 20
11.9783108834
 40
0.026
100
AcDbArc
 50
292.0
 51
331.7151372318
  0
ARC
  5
474
100
AcDbEntity
  8
0
100
AcDbCircle
 62
7
  6
CONTINUOUS
 10
1.5737757552
 20
11.9723658839
 40
0.022
100
AcDbArc
 50
87.3800226713
 51
112.0
  0
ARC
  5
475
100
AcDbEntity
  8
0
100
AcDbCircle
 62
7
  6
CONTINUOUS
 10
1.5682774492
 20
11.983086841
 40
0.019
100
AcDbArc
 50
59.9798724449
 51
112.0
  0
ARC
  5
476
100
AcDbEntity
  8
0
100
AcDbCircle
 62
7
  6
CONTINUOUS
 10
1.5722195947
 20
11.9577162026
 40
0.012
100
AcDbArc
 50
75.1301023541
 51
112.0
  0
ARC
  5
477
100
AcDbEntity
  8
0
100
AcDbCircle
 62
7
  6
CONTINUOUS
 10
1.4561909031
 20
11.9197808089
 40
0.011
100
AcDbArc
 50
36.0
 51
110.1733798681
  0
ARC
  5
478
100
AcDbEntity
  8
0
100
AcDbCircle
 62
7
  6
CONTINUOUS
 10
1.4893605998
 20
11.9438800043
 40
0.011
100
AcDbArc
 50
36.0
 51
110.1733798681
  0
ARC
  5
479
100
AcDbEntity
  8
0
100
AcDbCircle
 62
7
  6
CONTINUOUS
 10
1.5120130757
 20
11.9603379913
 40
0.011
100
AcDbArc
 50
141.8266201319
 51
216.0
  0
ARC
  5
47A
100
AcDbEntity
  8
0
100
AcDbCircle
 62
7
  6
CONTINUOUS
 10
1.5266101285
 20
11.9402468718
 40
0.011
100
AcDbArc
 50
216.0
 51
290.1733798681
  0
ARC
  5
47B
100
AcDbEntity
  8
0
100
AcDbCircle
 62
7
  6
CONTINUOUS
 10
1.4934404317
 20
11.9161476764
 40
0.011
100
AcDbArc
 50
216.0
 51
290.1733798681
  0
ARC
  5
47C
100
AcDbEntity
  8
0
100
AcDbCircle
 62
7
  6
CONTINUOUS
 10
1.4707879559
 20
11.8996896894
 40
0.011
100
AcDbArc
 50
321.8266201319
 51
36.0
  0
ARC
  5
47D
100
AcDbEntity
  8
0
100
AcDbCircle
 62
7
  6
CONTINUOUS
 10
1.5645121617
 20
11.9848011704
 40
0.007
100
AcDbArc
 50
292.0
 51
328.8698976459
  0
ARC
  5
47E
100
AcDbEntity
  8
0
100
AcDbCircle
 62
7
  6
CONTINUOUS
 10
1.6757612199
 20
12.0114416326
 40
0.006
100
AcDbArc
 50
357.5
 51
57.5
  0
ARC
  5
47F
100
AcDbEntity
  8
0
100
AcDbCircle
 62
7
  6
CONTINUOUS
 10
1.6742516535
 20
11.9768668763
 40
0.006
100
AcDbArc
 50
297.5
 51
357.5
  0
ARC
  5
480
100
AcDbEntity
  8
0
100
AcDbCircle
 62
7
  6
CONTINUOUS
 10
1.5245360243
 20
11.9738308789
 40
0.006
100
AcDbArc
 50
22.0
 51
82.0
  0
ARC
  5
481
100
AcDbEntity
  8
0
100
AcDbCircle
 62
7
  6
CONTINUOUS
 10
1.5375002951
 20
11.9417431828
 40
0.006
100
AcDbArc
 50
322.0
 51
22.0
  0
ARC
  5
482
100
AcDbEntity
  8
0
100
AcDbCircle
 62
7
  6
CONTINUOUS
 10
1.591343349
 20
11.9991417882
 40
0.0055355033
100
AcDbArc
 50
31.2094967086
 51
99.0
  0
ARC
  5
483
100
AcDbEntity
  8
0
100
AcDbCircle
 62
7
  6
CONTINUOUS
 10
1.6170232458
 20
12.0032090843
 40
0.0055355033
100
AcDbArc
 50
99.0
 51
211.2094967085
  0
ARC
  5
484
100
AcDbEntity
  8
0
100
AcDbCircle
 62
7
  6
CONTINUOUS
 10
1.6491833297
 20
12.0083027412
 40
0.0055355033
100
AcDbArc
 50
346.7905032915
 51
99.0
  0
ARC
  5
485
100
AcDbEntity
  8
0
100
AcDbCircle
 62
7
  6
CONTINUOUS
 10
1.6673953512
 20
12.011187242
 40
0.0055355033
100
AcDbArc
 50
99.0
 51
166.7905032914
  0
ARC
  5
486
100
AcDbEntity
  8
0
100
AcDbCircle
 62
7
  6
CONTINUOUS
 10
1.5453972421
 20
11.9813923805
 40
0.003
100
AcDbArc
 50
112.0
 51
202.0
  0
ARC
  5
487
100
AcDbEntity
  8
0
100
AcDbCircle
 62
7
  6
CONTINUOUS
 10
1.5540131937
 20
11.9600671518
 40
0.003
100
AcDbArc
 50
112.0
 51
202.0
  0
ARC
  5
488
100
AcDbEntity
  8
0
100
AcDbCircle
 62
7
  6
CONTINUOUS
 10
1.5581338662
 20
11.9498681294
 40
0.003
100
AcDbArc
 50
201.9999999999
 51
292.0000000001
  0
ARC
  5
489
100
AcDbEntity
  8
0
100
AcDbCircle
 62
7
  6
CONTINUOUS
 10
1.5478415176
 20
11.9726731192
 40
0.002
100
AcDbArc
 50
201.9999999999
 51
292.0
  0
ARC
  5
48A
100
AcDbEntity
  8
0
100
AcDbCircle
 62
7
  6
CONTINUOUS
 10
1.572216122
 20
11.9801483222
 40
0.002
100
AcDbArc
 50
67.0
 51
148.8698976457
  0
ARC
  5
48B
100
AcDbEntity
  8
0
100
AcDbCircle
 62
7
  6
CONTINUOUS
 10
1.5758123453
 20
11.9712473572
 40
0.002
100
AcDbArc
 50
255.1301023541
 51
337.0
  0
ARC
  5
48C
100
AcDbEntity
  8
0
100
AcDbCircle
 62
7
  6
CONTINUOUS
 10
1.2154213434
 20
12.8382193474
 40
0.75
100
AcDbArc
 50
214.2724717156
 51
235.7275282844
  0
ARC
  5
48D
100
AcDbEntity
  8
0
100
AcDbCircle
 62
7
  6
CONTINUOUS
 10
1.6475079912
 20
12.6182647339
 40
0.5
100
AcDbArc
 50
197.9458657533
 51
225.0
  0
ARC
  5
48E
100
AcDbEntity
  8
0
100
AcDbCircle
 62
7
  6
CONTINUOUS
 10
0.8848737632
 20
12.6129677164
 40
0.35
100
AcDbArc
 50
172.6889842707
 51
214.2724717156
  0
ARC
  5
48F
100
AcDbEntity
  8
0
100
AcDbCircle
 62
7
  6
CONTINUOUS
 10
0.7335661932
 20
12.4616601464
 40
0.35
100
AcDbArc
 50
55.7275282844
 51
97.3110157293
  0
ARC
  5
490
100
AcDbEntity
  8
0
100
AcDbCircle
 62
7
  6
CONTINUOUS
 10
0.8388621424
 20
12.3563641972
 40
0.35
100
AcDbArc
 50
17.9458657533
 51
34.2724717156
  0
ARC
  5
491
100
AcDbEntity
  8
0
100
AcDbCircle
 62
7
  6
CONTINUOUS
 10
0.9901697124
 20
12.5076717672
 40
0.35
100
AcDbArc
 50
235.7275282844
 51
252.0541342467
  0
ARC
  5
492
100
AcDbEntity
  8
0
100
AcDbCircle
 62
7
  6
CONTINUOUS
 10
0.7112965142
 20
12.6352373954
 40
0.175
100
AcDbArc
 50
97.3110157293
 51
172.6889842707
  0
ARC
  5
493
100
AcDbEntity
  8
0
100
AcDbCircle
 62
7
  6
CONTINUOUS
 10
1.6835683383
 20
11.6629655713
 40
1.3125
100
AcDbArc
 50
235.4784847744
 51
304.5215152256
  0
ARC
  5
494
100
AcDbEntity
  8
0
100
AcDbCircle
 62
7
  6
CONTINUOUS
 10
1.6835683383
 20
11.6629655713
 40
1.3125
100
AcDbArc
 50
325.4836016014
 51
34.5163983986
  0
ARC
  5
495
100
AcDbEntity
  8
0
100
AcDbCircle
 62
7
  6
CONTINUOUS
 10
1.6835683383
 20
11.6629655713
 40
1.3125
100
AcDbArc
 50
55.4784847744
 51
124.5215152256
  0
ARC
  5
496
100
AcDbEntity
  8
0
100
AcDbCircle
 62
7
  6
CONTINUOUS
 10
1.6835683383
 20
11.6629655713
 40
1.3125
100
AcDbArc
 50
145.4836016014
 51
214.5163983986
  0
ARC
  5
497
100
AcDbEntity
  8
0
100
AcDbCircle
 62
7
  6
CONTINUOUS
 10
1.6835683383
 20
11.6629655713
 40
1.2625
100
AcDbArc
 50
56.232043936
 51
123.767956064
  0
ARC
  5
498
100
AcDbEntity
  8
0
100
AcDbCircle
 62
7
  6
CONTINUOUS
 10
1.6835683383
 20
11.6629655713
 40
1.2625
100
AcDbArc
 50
326.2321004197
 51
33.7678995803
  0
ARC
  5
499
100
AcDbEntity
  8
0
100
AcDbCircle
 62
7
  6
CONTINUOUS
 10
1.6835683383
 20
11.6629655713
 40
1.2625
100
AcDbArc
 50
236.232043936
 51
303.767956064
  0
ARC
  5
49A
100
AcDbEntity
  8
0
100
AcDbCircle
 62
7
  6
CONTINUOUS
 10
1.6835683383
 20
11.6629655713
 40
1.2625
100
AcDbArc
 50
146.2321004197
 51
213.7678995803
  0
ARC
  5
49B
100
AcDbEntity
  8
0
100
AcDbCircle
 62
9
  6
CONTINUOUS
 10
1.6835683383
 20
11.6629655713
 40
1.1354891084
100
AcDbArc
 50
57.6140677198
 51
122.3859322802
  0
ARC
  5
49C
100
AcDbEntity
  8
0
100
AcDbCircle
 62
9
  6
CONTINUOUS
 10
1.6835683383
 20
11.6629655713
 40
1.1354891084
100
AcDbArc
 50
327.6138497479
 51
32.3861502521
  0
ARC
  5
49D
100
AcDbEntity
  8
0
100
AcDbCircle
 62
9
  6
CONTINUOUS
 10
1.6835683383
 20
11.6629655713
 40
1.1354891084
100
AcDbArc
 50
237.6140677198
 51
302.3859322802
  0
ARC
  5
49E
100
AcDbEntity
  8
0
100
AcDbCircle
 62
9
  6
CONTINUOUS
 10
1.6835683383
 20
11.6629655713
 40
1.1354891084
100
AcDbArc
 50
147.6138497479
 51
212.3861502521
  0
ARC
  5
49F
100
AcDbEntity
  8
0
100
AcDbCircle
 62
7
  6
CONTINUOUS
 10
1.6835683383
 20
11.6629655713
 40
1.125
100
AcDbArc
 50
57.6893079364
 51
122.3106920636
  0
ARC
  5
4A0
100
AcDbEntity
  8
0
100
AcDbCircle
 62
7
  6
CONTINUOUS
 10
1.6835683383
 20
11.6629655713
 40
1.125
100
AcDbArc
 50
327.6892981696
 51
32.3107018304
  0
ARC
  5
4A1
100
AcDbEntity
  8
0
100
AcDbCircle
 62
7
  6
CONTINUOUS
 10
1.6835683383
 20
11.6629655713
 40
1.125
100
AcDbArc
 50
237.6893079364
 51
302.3106920636
  0
ARC
  5
4A2
100
AcDbEntity
  8
0
100
AcDbCircle
 62
7
  6
CONTINUOUS
 10
1.6835683383
 20
11.6629655713
 40
1.125
100
AcDbArc
 50
147.6892981696
 51
212.3107018304
  0
ARC
  5
4A3
100
AcDbEntity
  8
0
100
AcDbCircle
 62
7
  6
CONTINUOUS
 10
1.6835683383
 20
11.6629655713
 40
1.05
100
AcDbArc
 50
238.0444707865
 51
301.9555292135
  0
ARC
  5
4A4
100
AcDbEntity
  8
0
100
AcDbCircle
 62
7
  6
CONTINUOUS
 10
1.6835683383
 20
11.6629655713
 40
1.05
100
AcDbArc
 50
148.0449884863
 51
211.9550115137
  0
ARC
  5
4A5
100
AcDbEntity
  8
0
100
AcDbCircle
 62
7
  6
CONTINUOUS
 10
1.6835683383
 20
11.6629655713
 40
1.05
100
AcDbArc
 50
58.0444707865
 51
121.9555292135
  0
ARC
  5
4A6
100
AcDbEntity
  8
0
100
AcDbCircle
 62
7
  6
CONTINUOUS
 10
1.6835683383
 20
11.6629655713
 40
1.05
100
AcDbArc
 50
328.0449884863
 51
31.9550115137
  0
ARC
  5
4A7
100
AcDbEntity
  8
0
100
AcDbCircle
 62
7
  6
CONTINUOUS
 10
1.6835683383
 20
11.6629655713
 40
0.6375
100
AcDbArc
 50
238.6102247695
 51
301.3897752305
  0
ARC
  5
4A8
100
AcDbEntity
  8
0
100
AcDbCircle
 62
7
  6
CONTINUOUS
 10
1.6835683383
 20
11.6629655713
 40
0.6375
100
AcDbArc
 50
148.6160538831
 51
211.3839461169
  0
ARC
  5
4A9
100
AcDbEntity
  8
0
100
AcDbCircle
 62
7
  6
CONTINUOUS
 10
1.6835683383
 20
11.6629655713
 40
0.6375
100
AcDbArc
 50
58.6102247695
 51
121.3897752305
  0
ARC
  5
4AA
100
AcDbEntity
  8
0
100
AcDbCircle
 62
7
  6
CONTINUOUS
 10
1.6835683383
 20
11.6629655713
 40
0.6375
100
AcDbArc
 50
328.6160538831
 51
31.3839461169
  0
ARC
  5
4AB
100
AcDbEntity
  8
0
100
AcDbCircle
 62
7
  6
CONTINUOUS
 10
1.6835683383
 20
11.6629655713
 40
0.5375
100
AcDbArc
 50
241.205396107
 51
298.794603893
  0
ARC
  5
4AC
100
AcDbEntity
  8
0
100
AcDbCircle
 62
7
  6
CONTINUOUS
 10
1.6835683383
 20
11.6629655713
 40
0.5375
100
AcDbArc
 50
151.2139770468
 51
208.7860229532
  0
ARC
  5
4AD
100
AcDbEntity
  8
0
100
AcDbCircle
 62
7
  6
CONTINUOUS
 10
1.6835683383
 20
11.6629655713
 40
0.5375
100
AcDbArc
 50
61.205396107
 51
118.794603893
  0
ARC
  5
4AE
100
AcDbEntity
  8
0
100
AcDbCircle
 62
7
  6
CONTINUOUS
 10
1.6835683383
 20
11.6629655713
 40
0.5375
100
AcDbArc
 50
331.2139770468
 51
28.7860229532
  0
CIRCLE
  5
4AF
100
AcDbEntity
  8
0
100
AcDbCircle
 62
7
  6
CONTINUOUS
 10
1.6835683383
 20
11.6629655713
 40
0.5
  0
CIRCLE
  5
4B0
100
AcDbEntity
  8
0
100
AcDbCircle
 62
7
  6
CONTINUOUS
 10
1.6835683383
 20
11.6629655713
 40
0.425
  0
CIRCLE
  5
4B1
100
AcDbEntity
  8
0
100
AcDbCircle
 62
7
  6
CONTINUOUS
 10
1.6835683383
 20
11.6629655713
 40
0.4175
  0
CIRCLE
  5
4B2
100
AcDbEntity
  8
0
100
AcDbCircle
 62
9
  6
CONTINUOUS
 10
1.6835683383
 20
11.6629655713
 40
0.3951446566
  0
ARC
  5
4B3
100
AcDbEntity
  8
0
100
AcDbCircle
 62
7
  6
CONTINUOUS
 10
1.7485683383
 20
11.7019655713
 40
0.016
100
AcDbArc
 50
0.0
 51
90.0
  0
ARC
  5
4B4
100
AcDbEntity
  8
0
100
AcDbCircle
 62
7
  6
CONTINUOUS
 10
1.8105683383
 20
11.7019655713
 40
0.016
100
AcDbArc
 50
90.0
 51
180.0
  0
ARC
  5
4B5
100
AcDbEntity
  8
0
100
AcDbCircle
 62
7
  6
CONTINUOUS
 10
1.9255716279
 20
11.6654655713
 40
0.08
100
AcDbArc
 50
341.7900431357
 51
18.2099568643
  0
ARC
  5
4B6
100
AcDbEntity
  8
0
100
AcDbCircle
 62
7
  6
CONTINUOUS
 10
1.9635683383
 20
11.6629655713
 40
0.07
100
AcDbArc
 50
270.0
 51
90.0
  0
ARC
  5
4B7
100
AcDbEntity
  8
0
100
AcDbCircle
 62
7
  6
CONTINUOUS
 10
1.9635683383
 20
11.6779655713
 40
0.04
100
AcDbArc
 50
18.2099568643
 51
90.0
  0
ARC
  5
4B8
100
AcDbEntity
  8
0
100
AcDbCircle
 62
7
  6
CONTINUOUS
 10
1.8385683383
 20
11.7019655713
 40
0.016
100
AcDbArc
 50
0.0
 51
90.0
  0
ARC
  5
4B9
100
AcDbEntity
  8
0
100
AcDbCircle
 62
7
  6
CONTINUOUS
 10
1.8865683383
 20
11.7046990721
 40
0.015
100
AcDbArc
 50
0.0
 51
62.1818607153
  0
ARC
  5
4BA
100
AcDbEntity
  8
0
100
AcDbCircle
 62
7
  6
CONTINUOUS
 10
1.8885683383
 20
11.7019655713
 40
0.014
100
AcDbArc
 50
90.0
 51
180.0
  0
ARC
  5
4BB
100
AcDbEntity
  8
0
100
AcDbCircle
 62
7
  6
CONTINUOUS
 10
1.9435683383
 20
11.7129655713
 40
0.005
100
AcDbArc
 50
90.0
 51
179.9999999999
  0
ARC
  5
4BC
100
AcDbEntity
  8
0
100
AcDbCircle
 62
7
  6
CONTINUOUS
 10
1.8447372219
 20
11.9637555162
 40
0.018
100
AcDbArc
 50
236.0164438544
 51
64.0
  0
ARC
  5
4BD
100
AcDbEntity
  8
0
100
AcDbCircle
 62
7
  6
CONTINUOUS
 10
1.7185107526
 20
12.0047667236
 40
0.016
100
AcDbArc
 50
267.5
 51
87.5
  0
ARC
  5
4BE
100
AcDbEntity
  8
0
100
AcDbCircle
 62
7
  6
CONTINUOUS
 10
1.8781962183
 20
11.9393501167
 40
0.0146811183
100
AcDbArc
 50
52.0
 51
97.0
  0
ARC
  5
4BF
100
AcDbEntity
  8
0
100
AcDbCircle
 62
7
  6
CONTINUOUS
 10
1.9046583358
 20
11.9186756447
 40
0.0146811183
100
AcDbArc
 50
7.0
 51
52.0
  0
ARC
  5
4C0
100
AcDbEntity
  8
0
100
AcDbCircle
 62
7
  6
CONTINUOUS
 10
1.8954896026
 20
11.90253917
 40
0.013
100
AcDbArc
 50
142.0
 51
202.0
  0
ARC
  5
4C1
100
AcDbEntity
  8
0
100
AcDbCircle
 62
7
  6
CONTINUOUS
 10
1.8647571832
 20
11.9265499675
 40
0.013
100
AcDbArc
 50
262.0
 51
322.0
  0
ARC
  5
4C2
100
AcDbEntity
  8
0
100
AcDbCircle
 62
7
  6
CONTINUOUS
 10
1.8388133703
 20
11.9666447717
 40
0.0115908889
100
AcDbArc
 50
244.0
 51
64.0
  0
ARC
  5
4C3
100
AcDbEntity
  8
0
100
AcDbCircle
 62
7
  6
CONTINUOUS
 10
1.8067240886
 20
11.9850480264
 40
0.011
100
AcDbArc
 50
334.0
 51
34.0
  0
ARC
  5
4C4
100
AcDbEntity
  8
0
100
AcDbCircle
 62
7
  6
CONTINUOUS
 10
1.8548665257
 20
11.9343378819
 40
0.011
100
AcDbArc
 50
208.0605153624
 51
244.0
  0
ARC
  5
4C5
100
AcDbEntity
  8
0
100
AcDbCircle
 62
7
  6
CONTINUOUS
 10
1.8268072707
 20
11.9463836307
 40
0.011
100
AcDbArc
 50
154.0
 51
214.0
  0
ARC
  5
4C6
100
AcDbEntity
  8
0
100
AcDbCircle
 62
7
  6
CONTINUOUS
 10
1.7953494791
 20
11.9617266208
 40
0.011
100
AcDbArc
 50
274.0
 51
334.0
  0
ARC
  5
4C7
100
AcDbEntity
  8
0
100
AcDbCircle
 62
7
  6
CONTINUOUS
 10
1.7118249563
 20
12.0050586317
 40
0.0096921657
100
AcDbArc
 50
267.5
 51
87.5
  0
ARC
  5
4C8
100
AcDbEntity
  8
0
100
AcDbCircle
 62
7
  6
CONTINUOUS
 10
1.7002269072
 20
11.9757327722
 40
0.006
100
AcDbArc
 50
177.5
 51
237.5
  0
ARC
  5
4C9
100
AcDbEntity
  8
0
100
AcDbCircle
 62
7
  6
CONTINUOUS
 10
1.823466792
 20
11.9623463545
 40
0.001
100
AcDbArc
 50
153.9999999998
 51
243.9999999999
  0
ARC
  5
4CA
100
AcDbEntity
  8
0
100
AcDbCircle
 62
7
  6
CONTINUOUS
 10
1.8327522722
 20
11.9813844103
 40
0.001
100
AcDbArc
 50
64.0000000001
 51
153.9999999998
  0
ARC
  5
4CB
100
AcDbEntity
  8
0
100
AcDbCircle
 62
7
  6
CONTINUOUS
 10
1.6961525448
 20
11.9970424574
 40
0.001
100
AcDbArc
 50
177.4999999998
 51
267.5
  0
ARC
  5
4CC
100
AcDbEntity
  8
0
100
AcDbCircle
 62
7
  6
CONTINUOUS
 10
1.6969108386
 20
12.0144102428
 40
0.001
100
AcDbArc
 50
87.5
 51
177.4999999996
  0
ARC
  5
4CD
100
AcDbEntity
  8
0
100
AcDbCircle
 62
7
  6
CONTINUOUS
 10
1.6957901621
 20
11.9887425303
 40
0.001
100
AcDbArc
 50
87.5
 51
177.4999999996
  0
ARC
  5
4CE
100
AcDbEntity
  8
0
100
AcDbCircle
 62
7
  6
CONTINUOUS
 10
1.8939401339
 20
11.9444112101
 40
0.001
100
AcDbArc
 50
322.0000000002
 51
52.0000000001
  0
ARC
  5
4CF
100
AcDbEntity
  8
0
100
AcDbCircle
 62
7
  6
CONTINUOUS
 10
1.9057602952
 20
11.935176288
 40
0.001
100
AcDbArc
 50
52.0000000001
 51
141.9999999998
  0
ARC
  5
4D0
100
AcDbEntity
  8
0
100
AcDbCircle
 62
7
  6
CONTINUOUS
 10
1.8222084871
 20
11.9538178818
 40
0.001
100
AcDbArc
 50
14.1777964195
 51
64.0000000001
  0
ARC
  5
4D1
100
AcDbEntity
  8
0
100
AcDbCircle
 62
7
  6
CONTINUOUS
 10
1.8198647204
 20
11.9549610132
 40
0.001
100
AcDbArc
 50
64.0000000001
 51
153.9999999998
  0
ARC
  5
4D2
100
AcDbEntity
  8
0
100
AcDbCircle
 62
7
  6
CONTINUOUS
 10
2.6388675009
 20
11.6990259184
 40
0.5
100
AcDbArc
 50
107.9458657533
 51
135.0
  0
ARC
  5
4D3
100
AcDbEntity
  8
0
100
AcDbCircle
 62
7
  6
CONTINUOUS
 10
2.8588221144
 20
12.1311125662
 40
0.75
100
AcDbArc
 50
124.2724717156
 51
145.7275282844
  0
ARC
  5
4D4
100
AcDbEntity
  8
0
100
AcDbCircle
 62
7
  6
CONTINUOUS
 10
2.1517153332
 20
12.8382193474
 40
0.75
100
AcDbArc
 50
304.2724717156
 51
325.7275282844
  0
ARC
  5
4D5
100
AcDbEntity
  8
0
100
AcDbCircle
 62
7
  6
CONTINUOUS
 10
1.7196286854
 20
12.6182647339
 40
0.5
100
AcDbArc
 50
315.0
 51
342.0541342467
  0
ARC
  5
4D6
100
AcDbEntity
  8
0
100
AcDbCircle
 62
7
  6
CONTINUOUS
 10
2.6335704834
 20
12.4616601464
 40
0.35
100
AcDbArc
 50
82.6889842707
 51
124.2724717156
  0
ARC
  5
4D7
100
AcDbEntity
  8
0
100
AcDbCircle
 62
7
  6
CONTINUOUS
 10
2.4822629133
 20
12.6129677164
 40
0.35
100
AcDbArc
 50
325.7275282844
 51
7.3110157293
  0
ARC
  5
4D8
100
AcDbEntity
  8
0
100
AcDbCircle
 62
7
  6
CONTINUOUS
 10
2.3769669641
 20
12.5076717672
 40
0.35
100
AcDbArc
 50
287.9458657533
 51
304.2724717156
  0
ARC
  5
4D9
100
AcDbEntity
  8
0
100
AcDbCircle
 62
7
  6
CONTINUOUS
 10
2.5282745342
 20
12.3563641972
 40
0.35
100
AcDbArc
 50
145.7275282844
 51
162.0541342467
  0
ARC
  5
4DA
100
AcDbEntity
  8
0
100
AcDbCircle
 62
7
  6
CONTINUOUS
 10
2.6558401624
 20
12.6352373954
 40
0.175
100
AcDbArc
 50
7.3110157293
 51
82.6889842707
  0
ARC
  5
4DB
100
AcDbEntity
  8
0
100
AcDbCircle
 62
9
  6
CONTINUOUS
 10
5.6835691528
 20
11.6629655661
 40
1.2611776176
100
AcDbArc
 50
269.9999667366
 51
90.0000361327
  0
ARC
  5
4DC
100
AcDbEntity
  8
0
100
AcDbCircle
 62
7
  6
CONTINUOUS
 10
9.1575509485
 20
10.7868332728
 40
2.3060667341
100
AcDbArc
 50
174.6560471243
 51
175.0657850299
  0
ARC
  5
4DD
100
AcDbEntity
  8
0
100
AcDbCircle
 62
7
  6
CONTINUOUS
 10
8.9668920331
 20
10.8032148977
 40
2.1147054969
100
AcDbArc
 50
175.0623714262
 51
176.4674066151
  0
ARC
  5
4DE
100
AcDbEntity
  8
0
100
AcDbCircle
 62
7
  6
CONTINUOUS
 10
10.1517153332
 20
10.4877117952
 40
0.75
100
AcDbArc
 50
34.2724717156
 51
55.7275282844
  0
ARC
  5
4DF
100
AcDbEntity
  8
0
100
AcDbCircle
 62
7
  6
CONTINUOUS
 10
9.2154213434
 20
10.4877117952
 40
0.75
100
AcDbArc
 50
124.2724717156
 51
145.7275282844
  0
ARC
  5
4E0
100
AcDbEntity
  8
0
100
AcDbCircle
 62
7
  6
CONTINUOUS
 10
9.7196286854
 20
10.7076664087
 40
0.5
100
AcDbArc
 50
17.9458657533
 51
45.0
  0
ARC
  5
4E1
100
AcDbEntity
  8
0
100
AcDbCircle
 62
7
  6
CONTINUOUS
 10
9.6475079912
 20
10.7076664087
 40
0.5
100
AcDbArc
 50
135.0
 51
162.0541342467
  0
ARC
  5
4E2
100
AcDbEntity
  8
0
100
AcDbCircle
 62
7
  6
CONTINUOUS
 10
10.4822629133
 20
10.7129634262
 40
0.35
100
AcDbArc
 50
352.6889842707
 51
34.2724717156
  0
ARC
  5
4E3
100
AcDbEntity
  8
0
100
AcDbCircle
 62
7
  6
CONTINUOUS
 10
10.6335704834
 20
10.8642709963
 40
0.35
100
AcDbArc
 50
235.7275282844
 51
277.3110157293
  0
ARC
  5
4E4
100
AcDbEntity
  8
0
100
AcDbCircle
 62
7
  6
CONTINUOUS
 10
10.5282745342
 20
10.9695669455
 40
0.35
100
AcDbArc
 50
197.9458657533
 51
214.2724717156
  0
ARC
  5
4E5
100
AcDbEntity
  8
0
100
AcDbCircle
 62
7
  6
CONTINUOUS
 10
10.3769669641
 20
10.8182593754
 40
0.35
100
AcDbArc
 50
55.7275282844
 51
72.0541342467
  0
ARC
  5
4E6
100
AcDbEntity
  8
0
100
AcDbCircle
 62
7
  6
CONTINUOUS
 10
8.7335661932
 20
10.8642709963
 40
0.35
100
AcDbArc
 50
262.6889842707
 51
304.2724717156
  0
ARC
  5
4E7
100
AcDbEntity
  8
0
100
AcDbCircle
 62
7
  6
CONTINUOUS
 10
8.8848737632
 20
10.7129634262
 40
0.35
100
AcDbArc
 50
145.7275282844
 51
187.3110157293
  0
ARC
  5
4E8
100
AcDbEntity
  8
0
100
AcDbCircle
 62
7
  6
CONTINUOUS
 10
8.9901697124
 20
10.8182593754
 40
0.35
100
AcDbArc
 50
107.9458657533
 51
124.2724717156
  0
ARC
  5
4E9
100
AcDbEntity
  8
0
100
AcDbCircle
 62
7
  6
CONTINUOUS
 10
8.8388621424
 20
10.9695669455
 40
0.35
100
AcDbArc
 50
325.7275282844
 51
342.0541342467
  0
ARC
  5
4EA
100
AcDbEntity
  8
0
100
AcDbCircle
 62
7
  6
CONTINUOUS
 10
10.6558401624
 20
10.6906937472
 40
0.175
100
AcDbArc
 50
277.3110157293
 51
352.6889842707
  0
ARC
  5
4EB
100
AcDbEntity
  8
0
100
AcDbCircle
 62
7
  6
CONTINUOUS
 10
8.7112965142
 20
10.6906937472
 40
0.175
100
AcDbArc
 50
187.3110157293
 51
262.6889842707
  0
ARC
  5
4EC
100
AcDbEntity
  8
0
100
AcDbCircle
 62
7
  6
CONTINUOUS
 10
8.5083145622
 20
11.1948185764
 40
0.75
100
AcDbArc
 50
304.2724717156
 51
325.7275282844
  0
ARC
  5
4ED
100
AcDbEntity
  8
0
100
AcDbCircle
 62
7
  6
CONTINUOUS
 10
9.5573887318
 20
11.3444878348
 40
0.0177342409
100
AcDbArc
 50
246.0
 51
42.5194112808
  0
ARC
  5
4EE
100
AcDbEntity
  8
0
100
AcDbCircle
 62
7
  6
CONTINUOUS
 10
9.5670689823
 20
11.3705713168
 40
0.0145
100
AcDbArc
 50
283.5235132021
 51
66.0
  0
ARC
  5
4EF
100
AcDbEntity
  8
0
100
AcDbCircle
 62
7
  6
CONTINUOUS
 10
9.55177277
 20
11.3472791316
 40
0.012
100
AcDbArc
 50
246.0
 51
66.0
  0
ARC
  5
4F0
100
AcDbEntity
  8
0
100
AcDbCircle
 62
7
  6
CONTINUOUS
 10
9.5606741641
 20
11.3734184733
 40
0.0095
100
AcDbArc
 50
246.0
 51
66.0
  0
ARC
  5
4F1
100
AcDbEntity
  8
0
100
AcDbCircle
 62
7
  6
CONTINUOUS
 10
9.5362804531
 20
11.3862406182
 40
0.007
100
AcDbArc
 50
336.0
 51
49.398450401
  0
ARC
  5
4F2
100
AcDbEntity
  8
0
100
AcDbCircle
 62
7
  6
CONTINUOUS
 10
9.5234342488
 20
11.3573875711
 40
0.007
100
AcDbArc
 50
262.6015495991
 51
336.0
  0
ARC
  5
4F3
100
AcDbEntity
  8
0
100
AcDbCircle
 62
7
  6
CONTINUOUS
 10
9.5577866434
 20
11.3829138525
 40
0.002
100
AcDbArc
 50
65.9999999999
 51
155.9999999999
  0
ARC
  5
4F4
100
AcDbEntity
  8
0
100
AcDbCircle
 62
7
  6
CONTINUOUS
 10
9.5516855938
 20
11.3692106706
 40
0.002
100
AcDbArc
 50
155.9999999999
 51
246.0
  0
ARC
  5
4F5
100
AcDbEntity
  8
0
100
AcDbCircle
 62
7
  6
CONTINUOUS
 10
9.5476182273
 20
11.360075216
 40
0.002
100
AcDbArc
 50
65.9999999999
 51
155.9999999998
  0
ARC
  5
4F6
100
AcDbEntity
  8
0
100
AcDbCircle
 62
7
  6
CONTINUOUS
 10
9.5394834945
 20
11.3418043069
 40
0.002
100
AcDbArc
 50
155.9999999999
 51
246.0000000001
  0
ARC
  5
4F7
100
AcDbEntity
  8
0
100
AcDbCircle
 62
7
  6
CONTINUOUS
 10
8.7282691757
 20
11.6269052242
 40
0.5
100
AcDbArc
 50
287.9458657533
 51
315.0
  0
ARC
  5
4F8
100
AcDbEntity
  8
0
100
AcDbCircle
 62
7
  6
CONTINUOUS
 10
9.4970683383
 20
11.6346162064
 40
0.025
100
AcDbArc
 50
300.0
 51
360.0
  0
ARC
  5
4F9
100
AcDbEntity
  8
0
100
AcDbCircle
 62
7
  6
CONTINUOUS
 10
9.3640683383
 20
11.6338162308
 40
0.021
100
AcDbArc
 50
276.8371411681
 51
360.0
  0
ARC
  5
4FA
100
AcDbEntity
  8
0
100
AcDbCircle
 62
7
  6
CONTINUOUS
 10
9.4340683383
 20
11.6338162308
 40
0.021
100
AcDbArc
 50
180.0
 51
263.1628588319
  0
ARC
  5
4FB
100
AcDbEntity
  8
0
100
AcDbCircle
 62
7
  6
CONTINUOUS
 10
9.4230683383
 20
11.6449655713
 40
0.01
100
AcDbArc
 50
90.0
 51
180.0
  0
ARC
  5
4FC
100
AcDbEntity
  8
0
100
AcDbCircle
 62
7
  6
CONTINUOUS
 10
9.4315683383
 20
11.6449655713
 40
0.01
100
AcDbArc
 50
0.0
 51
90.0
  0
ARC
  5
4FD
100
AcDbEntity
  8
0
100
AcDbCircle
 62
7
  6
CONTINUOUS
 10
9.5550683383
 20
11.6449655713
 40
0.003
100
AcDbArc
 50
89.9999999999
 51
180.0
  0
ARC
  5
4FE
100
AcDbEntity
  8
0
100
AcDbCircle
 62
7
  6
CONTINUOUS
 10
9.561558228
 20
11.6449655713
 40
0.003
100
AcDbArc
 50
40.286
 51
90.0
  0
ARC
  5
4FF
100
AcDbEntity
  8
0
100
AcDbCircle
 62
7
  6
CONTINUOUS
 10
9.7459418455
 20
11.3695212911
 40
0.06
100
AcDbArc
 50
256.214635172
 51
301.4712206345
  0
ARC
  5
500
100
AcDbEntity
  8
0
100
AcDbCircle
 62
7
  6
CONTINUOUS
 10
9.8103538168
 20
11.3910732352
 40
0.06
100
AcDbArc
 50
269.214635172
 51
314.4712206345
  0
ARC
  5
501
100
AcDbEntity
  8
0
100
AcDbCircle
 62
7
  6
CONTINUOUS
 10
9.7569974314
 20
11.3217765393
 40
0.049
100
AcDbArc
 50
72.2068956492
 51
131.7931043508
  0
ARC
  5
502
100
AcDbEntity
  8
0
100
AcDbCircle
 62
7
  6
CONTINUOUS
 10
9.831866281
 20
11.347039144
 40
0.049
100
AcDbArc
 50
85.2068956492
 51
144.7931043507
  0
ARC
  5
503
100
AcDbEntity
  8
0
100
AcDbCircle
 62
7
  6
CONTINUOUS
 10
9.7514642482
 20
11.3435404293
 40
0.025
100
AcDbArc
 50
221.64645964
 51
305.5781784782
  0
ARC
  5
504
100
AcDbEntity
  8
0
100
AcDbCircle
 62
7
  6
CONTINUOUS
 10
9.7508137255
 20
11.3388642827
 40
0.025
100
AcDbArc
 50
33.0231697077
 51
118.2602047083
  0
ARC
  5
505
100
AcDbEntity
  8
0
100
AcDbCircle
 62
7
  6
CONTINUOUS
 10
9.8215791029
 20
11.3670005315
 40
0.025
100
AcDbArc
 50
234.64645964
 51
318.5781784782
  0
ARC
  5
506
100
AcDbEntity
  8
0
100
AcDbCircle
 62
7
  6
CONTINUOUS
 10
9.8219971571
 20
11.3622978985
 40
0.025
100
AcDbArc
 50
46.0231697077
 51
131.2602047083
  0
ARC
  5
507
100
AcDbEntity
  8
0
100
AcDbCircle
 62
7
  6
CONTINUOUS
 10
9.6291901918
 20
11.349419694
 40
0.018
100
AcDbArc
 50
250.0164438545
 51
78.0
  0
ARC
  5
508
100
AcDbEntity
  8
0
100
AcDbCircle
 62
7
  6
CONTINUOUS
 10
9.7204284517
 20
11.3261563887
 40
0.015
100
AcDbArc
 50
200.0
 51
251.094540793
  0
ARC
  5
509
100
AcDbEntity
  8
0
100
AcDbCircle
 62
7
  6
CONTINUOUS
 10
9.6487082249
 20
11.3261563887
 40
0.015
100
AcDbArc
 50
288.905459207
 51
340.0
  0
ARC
  5
50A
100
AcDbEntity
  8
0
100
AcDbCircle
 62
7
  6
CONTINUOUS
 10
9.7694350055
 20
11.3311406784
 40
0.015
100
AcDbArc
 50
301.4712206345
 51
61.6196427434
  0
ARC
  5
50B
100
AcDbEntity
  8
0
100
AcDbCircle
 62
7
  6
CONTINUOUS
 10
9.8418786079
 20
11.3589611262
 40
0.015
100
AcDbArc
 50
314.4712206345
 51
74.6196427434
  0
ARC
  5
50C
100
AcDbEntity
  8
0
100
AcDbCircle
 62
7
  6
CONTINUOUS
 10
9.7283087266
 20
11.297652848
 40
0.014
100
AcDbArc
 50
76.214635172
 51
93.0
  0
ARC
  5
50D
100
AcDbEntity
  8
0
100
AcDbCircle
 62
7
  6
CONTINUOUS
 10
9.7762490163
 20
11.3817630084
 40
0.014
100
AcDbArc
 50
252.2068956493
 51
273.0
  0
ARC
  5
50E
100
AcDbEntity
  8
0
100
AcDbCircle
 62
7
  6
CONTINUOUS
 10
9.8093395156
 20
11.3170801869
 40
0.014
100
AcDbArc
 50
89.214635172
 51
106.0
  0
ARC
  5
50F
100
AcDbEntity
  8
0
100
AcDbCircle
 62
7
  6
CONTINUOUS
 10
9.8371304295
 20
11.4098188281
 40
0.014
100
AcDbArc
 50
265.2068956493
 51
286.0
  0
ARC
  5
510
100
AcDbEntity
  8
0
100
AcDbCircle
 62
7
  6
CONTINUOUS
 10
9.7330054926
 20
11.3486165629
 40
0.013
100
AcDbArc
 50
131.7931043507
 51
243.9826041728
  0
ARC
  5
511
100
AcDbEntity
  8
0
100
AcDbCircle
 62
7
  6
CONTINUOUS
 10
9.8024515624
 20
11.3677942476
 40
0.013
100
AcDbArc
 50
144.7931043507
 51
256.9826041729
  0
ARC
  5
512
100
AcDbEntity
  8
0
100
AcDbCircle
 62
7
  6
CONTINUOUS
 10
9.6227433297
 20
11.3507900168
 40
0.0115908889
100
AcDbArc
 50
258.0
 51
78.0
  0
ARC
  5
513
100
AcDbEntity
  8
0
100
AcDbCircle
 62
7
  6
CONTINUOUS
 10
9.5817603102
 20
11.3355030891
 40
0.011
100
AcDbArc
 50
288.0
 51
348.0
  0
ARC
  5
514
100
AcDbEntity
  8
0
100
AcDbCircle
 62
7
  6
CONTINUOUS
 10
9.6159954763
 20
11.3282261799
 40
0.011
100
AcDbArc
 50
168.0
 51
228.0
  0
ARC
  5
515
100
AcDbEntity
  8
0
100
AcDbCircle
 62
7
  6
CONTINUOUS
 10
9.6461353818
 20
11.3233263896
 40
0.011
100
AcDbArc
 50
222.0605153624
 51
258.0
  0
ARC
  5
516
100
AcDbEntity
  8
0
100
AcDbCircle
 62
7
  6
CONTINUOUS
 10
9.5871550866
 20
11.3608835164
 40
0.011
100
AcDbArc
 50
348.0
 51
48.0
  0
ARC
  5
517
100
AcDbEntity
  8
0
100
AcDbCircle
 62
7
  6
CONTINUOUS
 10
9.6743601566
 20
11.3176917731
 40
0.006
100
AcDbArc
 50
159.9999999999
 51
252.6242801223
  0
ARC
  5
518
100
AcDbEntity
  8
0
100
AcDbCircle
 62
7
  6
CONTINUOUS
 10
9.6873272755
 20
11.3176917731
 40
0.006
100
AcDbArc
 50
287.3757198777
 51
20.0
  0
ARC
  5
519
100
AcDbEntity
  8
0
100
AcDbCircle
 62
7
  6
CONTINUOUS
 10
9.6088924916
 20
11.3429066077
 40
0.001
100
AcDbArc
 50
167.9999999998
 51
258.0000000001
  0
ARC
  5
51A
100
AcDbEntity
  8
0
100
AcDbCircle
 62
7
  6
CONTINUOUS
 10
9.6132964308
 20
11.3636255128
 40
0.001
100
AcDbArc
 50
77.9999999998
 51
167.9999999996
  0
ARC
  5
51B
100
AcDbEntity
  8
0
100
AcDbCircle
 62
7
  6
CONTINUOUS
 10
9.6071840926
 20
11.3348692226
 40
0.001
100
AcDbArc
 50
77.9999999998
 51
167.9999999998
  0
ARC
  5
51C
100
AcDbEntity
  8
0
100
AcDbCircle
 62
7
  6
CONTINUOUS
 10
9.609734788
 20
11.3343270556
 40
0.001
100
AcDbArc
 50
28.1777964194
 51
77.9999999998
  0
ARC
  5
51D
100
AcDbEntity
  8
0
100
AcDbCircle
 62
7
  6
CONTINUOUS
 10
10.6388675009
 20
11.6269052242
 40
0.5
100
AcDbArc
 50
225.0
 51
252.0541342467
  0
ARC
  5
51E
100
AcDbEntity
  8
0
100
AcDbCircle
 62
7
  6
CONTINUOUS
 10
9.9435683383
 20
11.6529655713
 40
0.04
100
AcDbArc
 50
270.0
 51
341.7900431357
  0
ARC
  5
51F
100
AcDbEntity
  8
0
100
AcDbCircle
 62
7
  6
CONTINUOUS
 10
9.5770683383
 20
11.6346162064
 40
0.025
100
AcDbArc
 50
180.0
 51
240.0
  0
ARC
  5
520
100
AcDbEntity
  8
0
100
AcDbCircle
 62
7
  6
CONTINUOUS
 10
9.6495683383
 20
11.6379655713
 40
0.025
100
AcDbArc
 50
233.5747586979
 51
270.0
  0
ARC
  5
521
100
AcDbEntity
  8
0
100
AcDbCircle
 62
7
  6
CONTINUOUS
 10
9.7910683383
 20
11.6368140513
 40
0.025
100
AcDbArc
 50
287.4576031237
 51
360.0
  0
ARC
  5
522
100
AcDbEntity
  8
0
100
AcDbCircle
 62
7
  6
CONTINUOUS
 10
9.8710683383
 20
11.6368140513
 40
0.025
100
AcDbArc
 50
180.0
 51
252.5423968763
  0
ARC
  5
523
100
AcDbEntity
  8
0
100
AcDbCircle
 62
7
  6
CONTINUOUS
 10
9.8665683383
 20
11.6262320705
 40
0.015
100
AcDbArc
 50
297.8181392847
 51
360.0
  0
ARC
  5
524
100
AcDbEntity
  8
0
100
AcDbCircle
 62
7
  6
CONTINUOUS
 10
9.9235683383
 20
11.6179655713
 40
0.005
100
AcDbArc
 50
179.9999999999
 51
270.0
  0
ARC
  5
525
100
AcDbEntity
  8
0
100
AcDbCircle
 62
7
  6
CONTINUOUS
 10
5.6835683383
 20
11.6629655713
 40
1.425
100
AcDbArc
 50
326.2378524267
 51
213.76212721
  0
ARC
  5
526
100
AcDbEntity
  8
0
100
AcDbCircle
 62
7
  6
CONTINUOUS
 10
5.6835683383
 20
11.6629655713
 40
1.375
100
AcDbArc
 50
329.6905136068
 51
210.2935739355
  0
ARC
  5
527
100
AcDbEntity
  8
0
100
AcDbCircle
 62
7
  6
CONTINUOUS
 10
5.6835683383
 20
11.6629655713
 40
1.2795275591
100
AcDbArc
 50
332.319062119
 51
207.6809684605
  0
ARC
  5
528
100
AcDbEntity
  8
0
100
AcDbCircle
 62
9
  6
CONTINUOUS
 10
5.6835675315
 20
11.6629656189
 40
1.2611775135
100
AcDbArc
 50
89.9999624764
 51
270.0000403936
  0
CIRCLE
  5
529
100
AcDbEntity
  8
0
100
AcDbCircle
 62
7
  6
CONTINUOUS
 10
5.6835681084
 20
11.6629655713
 40
0.96
  0
CIRCLE
  5
52A
100
AcDbEntity
  8
0
100
AcDbCircle
 62
9
  6
CONTINUOUS
 10
5.6835683383
 20
11.6629655713
 40
0.91
  0
CIRCLE
  5
52B
100
AcDbEntity
  8
0
100
AcDbCircle
 62
7
  6
CONTINUOUS
 10
5.6835683383
 20
11.6629655713
 40
0.885
  0
CIRCLE
  5
52C
100
AcDbEntity
  8
0
100
AcDbCircle
 62
9
  6
CONTINUOUS
 10
5.6835683383
 20
11.6629655713
 40
0.525
  0
CIRCLE
  5
52D
100
AcDbEntity
  8
0
100
AcDbCircle
 62
7
  6
CONTINUOUS
 10
5.6835683383
 20
11.6629655713
 40
0.5
  0
CIRCLE
  5
52E
100
AcDbEntity
  8
0
100
AcDbCircle
 62
7
  6
CONTINUOUS
 10
5.6835683383
 20
11.6629655713
 40
0.4
  0
CIRCLE
  5
52F
100
AcDbEntity
  8
0
100
AcDbCircle
 62
9
  6
CONTINUOUS
 10
5.6835683383
 20
11.6629655713
 40
0.3875
  0
CIRCLE
  5
530
100
AcDbEntity
  8
0
100
AcDbCircle
 62
7
  6
CONTINUOUS
 10
5.6835683383
 20
11.6629655713
 40
0.3125
  0
CIRCLE
  5
531
100
AcDbEntity
  8
0
100
AcDbCircle
 62
7
  6
CONTINUOUS
 10
5.6835683383
 20
11.6629655713
 40
0.2625
  0
ARC
  5
532
100
AcDbEntity
  8
0
100
AcDbCircle
 62
7
  6
CONTINUOUS
 10
8.7282691757
 20
11.6990259184
 40
0.5
100
AcDbArc
 50
45.0
 51
72.0541342467
  0
ARC
  5
533
100
AcDbEntity
  8
0
100
AcDbCircle
 62
7
  6
CONTINUOUS
 10
9.4658402981
 20
11.6829655713
 40
0.025
100
AcDbArc
 50
44.3891151241
 51
90.0
  0
ARC
  5
534
100
AcDbEntity
  8
0
100
AcDbCircle
 62
7
  6
CONTINUOUS
 10
9.4970683383
 20
11.6963149362
 40
0.025
100
AcDbArc
 50
0.0
 51
60.0
  0
ARC
  5
535
100
AcDbEntity
  8
0
100
AcDbCircle
 62
7
  6
CONTINUOUS
 10
9.3640683383
 20
11.6978409595
 40
0.021
100
AcDbArc
 50
0.0
 51
73.398450401
  0
ARC
  5
536
100
AcDbEntity
  8
0
100
AcDbCircle
 62
7
  6
CONTINUOUS
 10
9.4315683383
 20
11.6809655713
 40
0.01
100
AcDbArc
 50
270.0
 51
360.0
  0
ARC
  5
537
100
AcDbEntity
  8
0
100
AcDbCircle
 62
7
  6
CONTINUOUS
 10
9.4230683383
 20
11.6809655713
 40
0.01
100
AcDbArc
 50
180.0
 51
270.0
  0
ARC
  5
538
100
AcDbEntity
  8
0
100
AcDbCircle
 62
7
  6
CONTINUOUS
 10
9.4180683383
 20
11.7029655713
 40
0.005
100
AcDbArc
 50
90.0
 51
179.9999999999
  0
ARC
  5
539
100
AcDbEntity
  8
0
100
AcDbCircle
 62
7
  6
CONTINUOUS
 10
9.5550683383
 20
11.6669655713
 40
0.003
100
AcDbArc
 50
180.0
 51
270.0000000001
  0
ARC
  5
53A
100
AcDbEntity
  8
0
100
AcDbCircle
 62
7
  6
CONTINUOUS
 10
9.5550683383
 20
11.7149655713
 40
0.003
100
AcDbArc
 50
89.9999999999
 51
179.9999999999
  0
ARC
  5
53B
100
AcDbEntity
  8
0
100
AcDbCircle
 62
7
  6
CONTINUOUS
 10
8.5083145622
 20
12.1311125662
 40
0.75
100
AcDbArc
 50
34.2724717156
 51
55.7275282844
  0
ARC
  5
53C
100
AcDbEntity
  8
0
100
AcDbCircle
 62
7
  6
CONTINUOUS
 10
9.5671344078
 20
11.9783108834
 40
0.026
100
AcDbArc
 50
292.0
 51
331.7151372318
  0
ARC
  5
53D
100
AcDbEntity
  8
0
100
AcDbCircle
 62
7
  6
CONTINUOUS
 10
9.5682774492
 20
11.983086841
 40
0.019
100
AcDbArc
 50
59.9798724449
 51
112.0
  0
ARC
  5
53E
100
AcDbEntity
  8
0
100
AcDbCircle
 62
7
  6
CONTINUOUS
 10
9.5722195947
 20
11.9577162026
 40
0.012
100
AcDbArc
 50
75.1301023541
 51
112.0
  0
ARC
  5
53F
100
AcDbEntity
  8
0
100
AcDbCircle
 62
7
  6
CONTINUOUS
 10
9.4707879559
 20
11.8996896894
 40
0.011
100
AcDbArc
 50
321.8266201319
 51
36.0
  0
ARC
  5
540
100
AcDbEntity
  8
0
100
AcDbCircle
 62
7
  6
CONTINUOUS
 10
9.4934404317
 20
11.9161476764
 40
0.011
100
AcDbArc
 50
216.0
 51
290.1733798682
  0
ARC
  5
541
100
AcDbEntity
  8
0
100
AcDbCircle
 62
7
  6
CONTINUOUS
 10
9.5266101285
 20
11.9402468718
 40
0.011
100
AcDbArc
 50
216.0
 51
290.1733798681
  0
ARC
  5
542
100
AcDbEntity
  8
0
100
AcDbCircle
 62
7
  6
CONTINUOUS
 10
9.5120130757
 20
11.9603379913
 40
0.011
100
AcDbArc
 50
141.8266201318
 51
216.0
  0
ARC
  5
543
100
AcDbEntity
  8
0
100
AcDbCircle
 62
7
  6
CONTINUOUS
 10
9.4893605998
 20
11.9438800043
 40
0.011
100
AcDbArc
 50
36.0
 51
110.1733798681
  0
ARC
  5
544
100
AcDbEntity
  8
0
100
AcDbCircle
 62
7
  6
CONTINUOUS
 10
9.4561909031
 20
11.9197808089
 40
0.011
100
AcDbArc
 50
36.0
 51
110.1733798681
  0
ARC
  5
545
100
AcDbEntity
  8
0
100
AcDbCircle
 62
7
  6
CONTINUOUS
 10
9.5645121617
 20
11.9848011704
 40
0.007
100
AcDbArc
 50
292.0
 51
328.8698976459
  0
ARC
  5
546
100
AcDbEntity
  8
0
100
AcDbCircle
 62
7
  6
CONTINUOUS
 10
9.5375002951
 20
11.9417431828
 40
0.006
100
AcDbArc
 50
322.0000000001
 51
22.0
  0
ARC
  5
547
100
AcDbEntity
  8
0
100
AcDbCircle
 62
7
  6
CONTINUOUS
 10
9.5245360243
 20
11.9738308789
 40
0.006
100
AcDbArc
 50
22.0
 51
82.0
  0
ARC
  5
548
100
AcDbEntity
  8
0
100
AcDbCircle
 62
7
  6
CONTINUOUS
 10
9.5581338662
 20
11.9498681294
 40
0.003
100
AcDbArc
 50
201.9999999999
 51
292.0000000001
  0
ARC
  5
549
100
AcDbEntity
  8
0
100
AcDbCircle
 62
7
  6
CONTINUOUS
 10
9.5540131937
 20
11.9600671518
 40
0.003
100
AcDbArc
 50
111.9999999999
 51
202.0
  0
ARC
  5
54A
100
AcDbEntity
  8
0
100
AcDbCircle
 62
7
  6
CONTINUOUS
 10
9.5453972421
 20
11.9813923805
 40
0.003
100
AcDbArc
 50
111.9999999999
 51
202.0
  0
ARC
  5
54B
100
AcDbEntity
  8
0
100
AcDbCircle
 62
7
  6
CONTINUOUS
 10
9.572216122
 20
11.9801483222
 40
0.002
100
AcDbArc
 50
67.0
 51
148.8698976457
  0
ARC
  5
54C
100
AcDbEntity
  8
0
100
AcDbCircle
 62
7
  6
CONTINUOUS
 10
9.5478415176
 20
11.9726731192
 40
0.002
100
AcDbArc
 50
202.0
 51
292.0000000001
  0
ARC
  5
54D
100
AcDbEntity
  8
0
100
AcDbCircle
 62
7
  6
CONTINUOUS
 10
9.6835683383
 20
11.6629655713
 40
1.3125
100
AcDbArc
 50
235.4761449172
 51
304.5238550828
  0
ARC
  5
54E
100
AcDbEntity
  8
0
100
AcDbCircle
 62
7
  6
CONTINUOUS
 10
9.6835683383
 20
11.6629655713
 40
1.3125
100
AcDbArc
 50
325.4812097381
 51
34.5187902619
  0
ARC
  5
54F
100
AcDbEntity
  8
0
100
AcDbCircle
 62
7
  6
CONTINUOUS
 10
9.6835683383
 20
11.6629655713
 40
1.3125
100
AcDbArc
 50
55.4761449172
 51
124.5238550828
  0
ARC
  5
550
100
AcDbEntity
  8
0
100
AcDbCircle
 62
7
  6
CONTINUOUS
 10
9.6835683383
 20
11.6629655713
 40
1.3125
100
AcDbArc
 50
145.4812097381
 51
214.5187902619
  0
ARC
  5
551
100
AcDbEntity
  8
0
100
AcDbCircle
 62
7
  6
CONTINUOUS
 10
9.6835683383
 20
11.6629655713
 40
1.2625
100
AcDbArc
 50
56.2321087979
 51
123.7678912021
  0
ARC
  5
552
100
AcDbEntity
  8
0
100
AcDbCircle
 62
7
  6
CONTINUOUS
 10
9.6835683383
 20
11.6629655713
 40
1.2625
100
AcDbArc
 50
326.2320604766
 51
33.7679395234
  0
ARC
  5
553
100
AcDbEntity
  8
0
100
AcDbCircle
 62
7
  6
CONTINUOUS
 10
9.6835683383
 20
11.6629655713
 40
1.2625
100
AcDbArc
 50
236.2321087979
 51
303.7678912021
  0
ARC
  5
554
100
AcDbEntity
  8
0
100
AcDbCircle
 62
7
  6
CONTINUOUS
 10
9.6835683383
 20
11.6629655713
 40
1.2625
100
AcDbArc
 50
146.2320604766
 51
213.7679395234
  0
ARC
  5
555
100
AcDbEntity
  8
0
100
AcDbCircle
 62
9
  6
CONTINUOUS
 10
9.6835683383
 20
11.6629655713
 40
1.1354891084
100
AcDbArc
 50
57.6113762117
 51
122.3886237883
  0
ARC
  5
556
100
AcDbEntity
  8
0
100
AcDbCircle
 62
9
  6
CONTINUOUS
 10
9.6835683383
 20
11.6629655713
 40
1.1354891084
100
AcDbArc
 50
327.6098485517
 51
32.3901514483
  0
ARC
  5
557
100
AcDbEntity
  8
0
100
AcDbCircle
 62
9
  6
CONTINUOUS
 10
9.6835683383
 20
11.6629655713
 40
1.1354891084
100
AcDbArc
 50
237.6113762117
 51
302.3886237883
  0
ARC
  5
558
100
AcDbEntity
  8
0
100
AcDbCircle
 62
9
  6
CONTINUOUS
 10
9.6835683383
 20
11.6629655713
 40
1.1354891084
100
AcDbArc
 50
147.6098485517
 51
212.3901514483
  0
ARC
  5
559
100
AcDbEntity
  8
0
100
AcDbCircle
 62
7
  6
CONTINUOUS
 10
9.6835683383
 20
11.6629655713
 40
1.125
100
AcDbArc
 50
57.6792084736
 51
122.3207915264
  0
ARC
  5
55A
100
AcDbEntity
  8
0
100
AcDbCircle
 62
7
  6
CONTINUOUS
 10
9.6835683383
 20
11.6629655713
 40
1.125
100
AcDbArc
 50
327.6791298257
 51
32.3208701743
  0
ARC
  5
55B
100
AcDbEntity
  8
0
100
AcDbCircle
 62
7
  6
CONTINUOUS
 10
9.6835683383
 20
11.6629655713
 40
1.125
100
AcDbArc
 50
237.6792084737
 51
302.3207915264
  0
ARC
  5
55C
100
AcDbEntity
  8
0
100
AcDbCircle
 62
7
  6
CONTINUOUS
 10
9.6835683383
 20
11.6629655713
 40
1.125
100
AcDbArc
 50
147.6791298257
 51
212.3208701743
  0
ARC
  5
55D
100
AcDbEntity
  8
0
100
AcDbCircle
 62
7
  6
CONTINUOUS
 10
9.6835683383
 20
11.6629655713
 40
1.05
100
AcDbArc
 50
238.0452506343
 51
301.9547493657
  0
ARC
  5
55E
100
AcDbEntity
  8
0
100
AcDbCircle
 62
7
  6
CONTINUOUS
 10
9.6835683383
 20
11.6629655713
 40
1.05
100
AcDbArc
 50
148.0445964854
 51
211.9554035146
  0
ARC
  5
55F
100
AcDbEntity
  8
0
100
AcDbCircle
 62
7
  6
CONTINUOUS
 10
9.6835683383
 20
11.6629655713
 40
1.05
100
AcDbArc
 50
58.0452506343
 51
121.9547493657
  0
ARC
  5
560
100
AcDbEntity
  8
0
100
AcDbCircle
 62
7
  6
CONTINUOUS
 10
9.6835683383
 20
11.6629655713
 40
1.05
100
AcDbArc
 50
328.0445964854
 51
31.9554035146
  0
ARC
  5
561
100
AcDbEntity
  8
0
100
AcDbCircle
 62
7
  6
CONTINUOUS
 10
9.6835683383
 20
11.6629655713
 40
0.6375
100
AcDbArc
 50
238.6156007404
 51
301.3843992596
  0
ARC
  5
562
100
AcDbEntity
  8
0
100
AcDbCircle
 62
7
  6
CONTINUOUS
 10
9.6835683383
 20
11.6629655713
 40
0.6375
100
AcDbArc
 50
148.613887399
 51
211.386112601
  0
ARC
  5
563
100
AcDbEntity
  8
0
100
AcDbCircle
 62
7
  6
CONTINUOUS
 10
9.6835683383
 20
11.6629655713
 40
0.6375
100
AcDbArc
 50
58.6156007404
 51
121.3843992596
  0
ARC
  5
564
100
AcDbEntity
  8
0
100
AcDbCircle
 62
7
  6
CONTINUOUS
 10
9.6835683383
 20
11.6629655713
 40
0.6375
100
AcDbArc
 50
328.613887399
 51
31.386112601
  0
ARC
  5
565
100
AcDbEntity
  8
0
100
AcDbCircle
 62
7
  6
CONTINUOUS
 10
9.6835683383
 20
11.6629655713
 40
0.5375
100
AcDbArc
 50
241.2133495496
 51
298.7866504504
  0
ARC
  5
566
100
AcDbEntity
  8
0
100
AcDbCircle
 62
7
  6
CONTINUOUS
 10
9.6835683383
 20
11.6629655713
 40
0.5375
100
AcDbArc
 50
151.2110631645
 51
208.7889368355
  0
ARC
  5
567
100
AcDbEntity
  8
0
100
AcDbCircle
 62
7
  6
CONTINUOUS
 10
9.6835683383
 20
11.6629655713
 40
0.5375
100
AcDbArc
 50
61.2133495496
 51
118.7866504504
  0
ARC
  5
568
100
AcDbEntity
  8
0
100
AcDbCircle
 62
7
  6
CONTINUOUS
 10
9.6835683383
 20
11.6629655713
 40
0.5375
100
AcDbArc
 50
331.2110631645
 51
28.7889368355
  0
CIRCLE
  5
569
100
AcDbEntity
  8
0
100
AcDbCircle
 62
7
  6
CONTINUOUS
 10
9.6835683383
 20
11.6629655713
 40
0.5
  0
CIRCLE
  5
56A
100
AcDbEntity
  8
0
100
AcDbCircle
 62
7
  6
CONTINUOUS
 10
9.6835683383
 20
11.6629655713
 40
0.425
  0
CIRCLE
  5
56B
100
AcDbEntity
  8
0
100
AcDbCircle
 62
7
  6
CONTINUOUS
 10
9.6835683383
 20
11.6629655713
 40
0.4175
  0
CIRCLE
  5
56C
100
AcDbEntity
  8
0
100
AcDbCircle
 62
9
  6
CONTINUOUS
 10
9.6835683383
 20
11.6629655713
 40
0.3951446566
  0
ARC
  5
56D
100
AcDbEntity
  8
0
100
AcDbCircle
 62
7
  6
CONTINUOUS
 10
9.9055716279
 20
11.6654655713
 40
0.08
100
AcDbArc
 50
341.7900431357
 51
18.2099568643
  0
ARC
  5
56E
100
AcDbEntity
  8
0
100
AcDbCircle
 62
7
  6
CONTINUOUS
 10
9.9435683383
 20
11.6629655713
 40
0.07
100
AcDbArc
 50
270.0
 51
90.0
  0
ARC
  5
56F
100
AcDbEntity
  8
0
100
AcDbCircle
 62
7
  6
CONTINUOUS
 10
9.9435683383
 20
11.6779655713
 40
0.04
100
AcDbArc
 50
18.2099568643
 51
90.0
  0
ARC
  5
570
100
AcDbEntity
  8
0
100
AcDbCircle
 62
7
  6
CONTINUOUS
 10
9.5975683383
 20
11.6909655713
 40
0.042
100
AcDbArc
 50
262.4753697776
 51
90.0
  0
ARC
  5
571
100
AcDbEntity
  8
0
100
AcDbCircle
 62
7
  6
CONTINUOUS
 10
9.5825683383
 20
11.6909655713
 40
0.027
100
AcDbArc
 50
270.0
 51
90.0
  0
ARC
  5
572
100
AcDbEntity
  8
0
100
AcDbCircle
 62
7
  6
CONTINUOUS
 10
9.8710683383
 20
11.6941170913
 40
0.025
100
AcDbArc
 50
107.4576031237
 51
180.0
  0
ARC
  5
573
100
AcDbEntity
  8
0
100
AcDbCircle
 62
7
  6
CONTINUOUS
 10
9.7910683383
 20
11.6941170913
 40
0.025
100
AcDbArc
 50
0.0
 51
72.5423968763
  0
ARC
  5
574
100
AcDbEntity
  8
0
100
AcDbCircle
 62
7
  6
CONTINUOUS
 10
9.8665683383
 20
11.7046990721
 40
0.015
100
AcDbArc
 50
0.0
 51
62.1818607153
  0
ARC
  5
575
100
AcDbEntity
  8
0
100
AcDbCircle
 62
7
  6
CONTINUOUS
 10
9.9235683383
 20
11.7129655713
 40
0.005
100
AcDbArc
 50
90.0
 51
179.9999999999
  0
ARC
  5
576
100
AcDbEntity
  8
0
100
AcDbCircle
 62
7
  6
CONTINUOUS
 10
10.6388675009
 20
11.6990259184
 40
0.5
100
AcDbArc
 50
107.9458657533
 51
135.0
  0
ARC
  5
577
100
AcDbEntity
  8
0
100
AcDbCircle
 62
7
  6
CONTINUOUS
 10
9.5737757552
 20
11.9723658839
 40
0.022
100
AcDbArc
 50
87.3800226713
 51
112.0
  0
ARC
  5
578
100
AcDbEntity
  8
0
100
AcDbCircle
 62
7
  6
CONTINUOUS
 10
9.8447372219
 20
11.9637555162
 40
0.018
100
AcDbArc
 50
236.0164438545
 51
64.0
  0
ARC
  5
579
100
AcDbEntity
  8
0
100
AcDbCircle
 62
7
  6
CONTINUOUS
 10
9.7185107526
 20
12.0047667236
 40
0.016
100
AcDbArc
 50
267.5
 51
87.5
  0
ARC
  5
57A
100
AcDbEntity
  8
0
100
AcDbCircle
 62
7
  6
CONTINUOUS
 10
9.9046583358
 20
11.9186756447
 40
0.0146811183
100
AcDbArc
 50
7.0
 51
52.0
  0
ARC
  5
57B
100
AcDbEntity
  8
0
100
AcDbCircle
 62
7
  6
CONTINUOUS
 10
9.8781962183
 20
11.9393501167
 40
0.0146811183
100
AcDbArc
 50
52.0
 51
97.0
  0
ARC
  5
57C
100
AcDbEntity
  8
0
100
AcDbCircle
 62
7
  6
CONTINUOUS
 10
9.8647571832
 20
11.9265499675
 40
0.013
100
AcDbArc
 50
262.0
 51
322.0
  0
ARC
  5
57D
100
AcDbEntity
  8
0
100
AcDbCircle
 62
7
  6
CONTINUOUS
 10
9.8954896026
 20
11.90253917
 40
0.013
100
AcDbArc
 50
142.0
 51
202.0
  0
ARC
  5
57E
100
AcDbEntity
  8
0
100
AcDbCircle
 62
7
  6
CONTINUOUS
 10
9.8388133703
 20
11.9666447717
 40
0.0115908889
100
AcDbArc
 50
244.0
 51
64.0
  0
ARC
  5
57F
100
AcDbEntity
  8
0
100
AcDbCircle
 62
7
  6
CONTINUOUS
 10
9.7953494791
 20
11.9617266208
 40
0.011
100
AcDbArc
 50
274.0
 51
334.0
  0
ARC
  5
580
100
AcDbEntity
  8
0
100
AcDbCircle
 62
7
  6
CONTINUOUS
 10
9.8268072707
 20
11.9463836307
 40
0.011
100
AcDbArc
 50
154.0
 51
214.0
  0
ARC
  5
581
100
AcDbEntity
  8
0
100
AcDbCircle
 62
7
  6
CONTINUOUS
 10
9.8548665257
 20
11.9343378819
 40
0.011
100
AcDbArc
 50
208.0605153624
 51
244.0
  0
ARC
  5
582
100
AcDbEntity
  8
0
100
AcDbCircle
 62
7
  6
CONTINUOUS
 10
9.8067240886
 20
11.9850480264
 40
0.011
100
AcDbArc
 50
334.0
 51
34.0
  0
ARC
  5
583
100
AcDbEntity
  8
0
100
AcDbCircle
 62
7
  6
CONTINUOUS
 10
9.7118249563
 20
12.0050586317
 40
0.0096921657
100
AcDbArc
 50
267.5
 51
87.5
  0
ARC
  5
584
100
AcDbEntity
  8
0
100
AcDbCircle
 62
7
  6
CONTINUOUS
 10
9.6742516535
 20
11.9768668763
 40
0.006
100
AcDbArc
 50
297.5
 51
357.5
  0
ARC
  5
585
100
AcDbEntity
  8
0
100
AcDbCircle
 62
7
  6
CONTINUOUS
 10
9.7002269072
 20
11.9757327722
 40
0.006
100
AcDbArc
 50
177.5
 51
237.5
  0
ARC
  5
586
100
AcDbEntity
  8
0
100
AcDbCircle
 62
7
  6
CONTINUOUS
 10
9.6757612199
 20
12.0114416326
 40
0.006
100
AcDbArc
 50
357.5000000001
 51
57.5
  0
ARC
  5
587
100
AcDbEntity
  8
0
100
AcDbCircle
 62
7
  6
CONTINUOUS
 10
9.6673953512
 20
12.011187242
 40
0.0055355033
100
AcDbArc
 50
99.0
 51
166.7905032914
  0
ARC
  5
588
100
AcDbEntity
  8
0
100
AcDbCircle
 62
7
  6
CONTINUOUS
 10
9.6491833297
 20
12.0083027412
 40
0.0055355033
100
AcDbArc
 50
346.7905032915
 51
99.0
  0
ARC
  5
589
100
AcDbEntity
  8
0
100
AcDbCircle
 62
7
  6
CONTINUOUS
 10
9.6170232458
 20
12.0032090843
 40
0.0055355033
100
AcDbArc
 50
99.0
 51
211.2094967086
  0
ARC
  5
58A
100
AcDbEntity
  8
0
100
AcDbCircle
 62
7
  6
CONTINUOUS
 10
9.591343349
 20
11.9991417882
 40
0.0055355033
100
AcDbArc
 50
31.2094967086
 51
99.0
  0
ARC
  5
58B
100
AcDbEntity
  8
0
100
AcDbCircle
 62
7
  6
CONTINUOUS
 10
9.5758123453
 20
11.9712473572
 40
0.002
100
AcDbArc
 50
255.1301023542
 51
337.0000000001
  0
ARC
  5
58C
100
AcDbEntity
  8
0
100
AcDbCircle
 62
7
  6
CONTINUOUS
 10
9.823466792
 20
11.9623463545
 40
0.001
100
AcDbArc
 50
153.9999999997
 51
244.0000000001
  0
ARC
  5
58D
100
AcDbEntity
  8
0
100
AcDbCircle
 62
7
  6
CONTINUOUS
 10
9.8327522722
 20
11.9813844103
 40
0.001
100
AcDbArc
 50
63.9999999999
 51
153.9999999997
  0
ARC
  5
58E
100
AcDbEntity
  8
0
100
AcDbCircle
 62
7
  6
CONTINUOUS
 10
9.6961525448
 20
11.9970424574
 40
0.001
100
AcDbArc
 50
177.4999999998
 51
267.5000000001
  0
ARC
  5
58F
100
AcDbEntity
  8
0
100
AcDbCircle
 62
7
  6
CONTINUOUS
 10
9.6969108386
 20
12.0144102428
 40
0.001
100
AcDbArc
 50
87.4999999997
 51
177.4999999996
  0
ARC
  5
590
100
AcDbEntity
  8
0
100
AcDbCircle
 62
7
  6
CONTINUOUS
 10
9.8198647204
 20
11.9549610132
 40
0.001
100
AcDbArc
 50
64.0
 51
153.9999999998
  0
ARC
  5
591
100
AcDbEntity
  8
0
100
AcDbCircle
 62
7
  6
CONTINUOUS
 10
9.8222084871
 20
11.9538178818
 40
0.001
100
AcDbArc
 50
14.1777964195
 51
63.9999999999
  0
ARC
  5
592
100
AcDbEntity
  8
0
100
AcDbCircle
 62
7
  6
CONTINUOUS
 10
9.9057602952
 20
11.935176288
 40
0.001
100
AcDbArc
 50
51.9999999999
 51
141.9999999998
  0
ARC
  5
593
100
AcDbEntity
  8
0
100
AcDbCircle
 62
7
  6
CONTINUOUS
 10
9.8939401339
 20
11.9444112101
 40
0.001
100
AcDbArc
 50
322.0000000003
 51
52.0
  0
ARC
  5
594
100
AcDbEntity
  8
0
100
AcDbCircle
 62
7
  6
CONTINUOUS
 10
9.6957901621
 20
11.9887425303
 40
0.001
100
AcDbArc
 50
87.4999999999
 51
177.4999999996
  0
ARC
  5
595
100
AcDbEntity
  8
0
100
AcDbCircle
 62
7
  6
CONTINUOUS
 10
10.1517153332
 20
12.8382193474
 40
0.75
100
AcDbArc
 50
304.2724717156
 51
325.7275282844
  0
ARC
  5
596
100
AcDbEntity
  8
0
100
AcDbCircle
 62
7
  6
CONTINUOUS
 10
9.2154213434
 20
12.8382193474
 40
0.75
100
AcDbArc
 50
214.2724717156
 51
235.7275282844
  0
ARC
  5
597
100
AcDbEntity
  8
0
100
AcDbCircle
 62
7
  6
CONTINUOUS
 10
9.7196286854
 20
12.6182647339
 40
0.5
100
AcDbArc
 50
315.0
 51
342.0541342467
  0
ARC
  5
598
100
AcDbEntity
  8
0
100
AcDbCircle
 62
7
  6
CONTINUOUS
 10
9.6475079912
 20
12.6182647339
 40
0.5
100
AcDbArc
 50
197.9458657533
 51
225.0
  0
ARC
  5
599
100
AcDbEntity
  8
0
100
AcDbCircle
 62
7
  6
CONTINUOUS
 10
10.6335704834
 20
12.4616601464
 40
0.35
100
AcDbArc
 50
82.6889842707
 51
124.2724717156
  0
ARC
  5
59A
100
AcDbEntity
  8
0
100
AcDbCircle
 62
7
  6
CONTINUOUS
 10
10.4822629133
 20
12.6129677164
 40
0.35
100
AcDbArc
 50
325.7275282844
 51
7.3110157293
  0
ARC
  5
59B
100
AcDbEntity
  8
0
100
AcDbCircle
 62
7
  6
CONTINUOUS
 10
10.3769669641
 20
12.5076717672
 40
0.35
100
AcDbArc
 50
287.9458657533
 51
304.2724717156
  0
ARC
  5
59C
100
AcDbEntity
  8
0
100
AcDbCircle
 62
7
  6
CONTINUOUS
 10
10.5282745342
 20
12.3563641972
 40
0.35
100
AcDbArc
 50
145.7275282844
 51
162.0541342467
  0
ARC
  5
59D
100
AcDbEntity
  8
0
100
AcDbCircle
 62
7
  6
CONTINUOUS
 10
8.8848737632
 20
12.6129677164
 40
0.35
100
AcDbArc
 50
172.6889842707
 51
214.2724717156
  0
ARC
  5
59E
100
AcDbEntity
  8
0
100
AcDbCircle
 62
7
  6
CONTINUOUS
 10
8.7335661932
 20
12.4616601464
 40
0.35
100
AcDbArc
 50
55.7275282844
 51
97.3110157293
  0
ARC
  5
59F
100
AcDbEntity
  8
0
100
AcDbCircle
 62
7
  6
CONTINUOUS
 10
8.8388621424
 20
12.3563641972
 40
0.35
100
AcDbArc
 50
17.9458657533
 51
34.2724717156
  0
ARC
  5
5A0
100
AcDbEntity
  8
0
100
AcDbCircle
 62
7
  6
CONTINUOUS
 10
8.9901697124
 20
12.5076717672
 40
0.35
100
AcDbArc
 50
235.7275282844
 51
252.0541342467
  0
ARC
  5
5A1
100
AcDbEntity
  8
0
100
AcDbCircle
 62
7
  6
CONTINUOUS
 10
10.6558401624
 20
12.6352373954
 40
0.175
100
AcDbArc
 50
7.3110157293
 51
82.6889842707
  0
ARC
  5
5A2
100
AcDbEntity
  8
0
100
AcDbCircle
 62
7
  6
CONTINUOUS
 10
8.7112965142
 20
12.6352373954
 40
0.175
100
AcDbArc
 50
97.3110157293
 51
172.6889842707
  0
ARC
  5
5A3
100
AcDbEntity
  8
0
100
AcDbCircle
 62
9
  6
CONTINUOUS
 10
20.1953970002
 20
6.5410999561
 40
0.3521409342
100
AcDbArc
 50
171.6031807551
 51
174.3820689017
  0
ARC
  5
5A4
100
AcDbEntity
  8
0
100
AcDbCircle
 62
9
  6
CONTINUOUS
 10
21.1747431063
 20
6.5414497357
 40
0.3491186343
100
AcDbArc
 50
0.0099985387
 51
8.4120089586
  0
ARC
  5
5A5
100
AcDbEntity
  8
0
100
AcDbCircle
 62
9
  6
CONTINUOUS
 10
20.1913533825
 20
6.5414911638
 40
0.3480784418
100
AcDbArc
 50
174.3809958924
 51
179.9967908969
  0
ARC
  5
5A6
100
AcDbEntity
  8
0
100
AcDbCircle
 62
9
  6
CONTINUOUS
 10
21.146696083
 20
6.8679964968
 40
0.3291872333
100
AcDbArc
 50
0.0100282163
 51
8.4119899256
  0
ARC
  5
5A7
100
AcDbEntity
  8
0
100
AcDbCircle
 62
9
  6
CONTINUOUS
 10
20.2204405936
 20
6.8679964968
 40
0.3291872333
100
AcDbArc
 50
171.5880100241
 51
179.9899717835
  0
ARC
  5
5A8
100
AcDbEntity
  8
0
100
AcDbCircle
 62
7
  6
CONTINUOUS
 10
15.2154213434
 20
10.4877117952
 40
0.75
100
AcDbArc
 50
124.2724717156
 51
145.7275282844
  0
ARC
  5
5A9
100
AcDbEntity
  8
0
100
AcDbCircle
 62
7
  6
CONTINUOUS
 10
10.8588221144
 20
11.1948185764
 40
0.75
100
AcDbArc
 50
214.2724717156
 51
235.7275282844
  0
ARC
  5
5AA
100
AcDbEntity
  8
0
100
AcDbCircle
 62
7
  6
CONTINUOUS
 10
10.8588221144
 20
12.1311125662
 40
0.75
100
AcDbArc
 50
124.2724717156
 51
145.7275282844
  0
ARC
  5
5AB
100
AcDbEntity
  8
0
100
AcDbCircle
 62
7
  6
CONTINUOUS
 10
14.5083145622
 20
11.1948185764
 40
0.75
100
AcDbArc
 50
304.2724717156
 51
325.7275282844
  0
ARC
  5
5AC
100
AcDbEntity
  8
0
100
AcDbCircle
 62
7
  6
CONTINUOUS
 10
14.7335661932
 20
10.8642709963
 40
0.35
100
AcDbArc
 50
262.6889842707
 51
304.2724717156
  0
ARC
  5
5AD
100
AcDbEntity
  8
0
100
AcDbCircle
 62
7
  6
CONTINUOUS
 10
14.8848737632
 20
10.7129634262
 40
0.35
100
AcDbArc
 50
145.7275282844
 51
187.3110157293
  0
ARC
  5
5AE
100
AcDbEntity
  8
0
100
AcDbCircle
 62
7
  6
CONTINUOUS
 10
14.9901697124
 20
10.8182593754
 40
0.35
100
AcDbArc
 50
107.9458657533
 51
124.2724717156
  0
ARC
  5
5AF
100
AcDbEntity
  8
0
100
AcDbCircle
 62
7
  6
CONTINUOUS
 10
14.8388621424
 20
10.9695669455
 40
0.35
100
AcDbArc
 50
325.7275282844
 51
342.0541342467
  0
ARC
  5
5B0
100
AcDbEntity
  8
0
100
AcDbCircle
 62
7
  6
CONTINUOUS
 10
14.7112965142
 20
10.6906937472
 40
0.175
100
AcDbArc
 50
187.3110157293
 51
262.6889842707
  0
ARC
  5
5B1
100
AcDbEntity
  8
0
100
AcDbCircle
 62
7
  6
CONTINUOUS
 10
14.7282691757
 20
11.6990259184
 40
0.5
100
AcDbArc
 50
45.0
 51
72.0541342467
  0
ARC
  5
5B2
100
AcDbEntity
  8
0
100
AcDbCircle
 62
7
  6
CONTINUOUS
 10
14.7282691757
 20
11.6269052242
 40
0.5
100
AcDbArc
 50
287.9458657533
 51
315.0
  0
ARC
  5
5B3
100
AcDbEntity
  8
0
100
AcDbCircle
 62
7
  6
CONTINUOUS
 10
15.7196286854
 20
10.7076664087
 40
0.5
100
AcDbArc
 50
17.9458657533
 51
45.0
  0
ARC
  5
5B4
100
AcDbEntity
  8
0
100
AcDbCircle
 62
7
  6
CONTINUOUS
 10
15.6475079912
 20
10.7076664087
 40
0.5
100
AcDbArc
 50
135.0
 51
162.0541342467
  0
ARC
  5
5B5
100
AcDbEntity
  8
0
100
AcDbCircle
 62
7
  6
CONTINUOUS
 10
15.5910683383
 20
11.5429655713
 40
0.015
100
AcDbArc
 50
155.2349591454
 51
298.1124318918
  0
ARC
  5
5B6
100
AcDbEntity
  8
0
100
AcDbCircle
 62
7
  6
CONTINUOUS
 10
15.6835683383
 20
11.6629655713
 40
1.3125
100
AcDbArc
 50
235.4784847744
 51
304.5215152256
  0
ARC
  5
5B7
100
AcDbEntity
  8
0
100
AcDbCircle
 62
7
  6
CONTINUOUS
 10
15.6835683383
 20
11.6629655713
 40
1.3125
100
AcDbArc
 50
325.4836016014
 51
34.5163983986
  0
ARC
  5
5B8
100
AcDbEntity
  8
0
100
AcDbCircle
 62
7
  6
CONTINUOUS
 10
15.6835683383
 20
11.6629655713
 40
1.3125
100
AcDbArc
 50
55.4784847744
 51
124.5215152256
  0
ARC
  5
5B9
100
AcDbEntity
  8
0
100
AcDbCircle
 62
7
  6
CONTINUOUS
 10
15.6835683383
 20
11.6629655713
 40
1.3125
100
AcDbArc
 50
145.4836016014
 51
214.5163983986
  0
ARC
  5
5BA
100
AcDbEntity
  8
0
100
AcDbCircle
 62
7
  6
CONTINUOUS
 10
15.6835683383
 20
11.6629655713
 40
1.2625
100
AcDbArc
 50
56.2346153182
 51
123.7653846818
  0
ARC
  5
5BB
100
AcDbEntity
  8
0
100
AcDbCircle
 62
7
  6
CONTINUOUS
 10
15.6835683383
 20
11.6629655713
 40
1.2625
100
AcDbArc
 50
326.23463709
 51
33.76536291
  0
ARC
  5
5BC
100
AcDbEntity
  8
0
100
AcDbCircle
 62
7
  6
CONTINUOUS
 10
15.6835683383
 20
11.6629655713
 40
1.2625
100
AcDbArc
 50
236.2346153182
 51
303.7653846818
  0
ARC
  5
5BD
100
AcDbEntity
  8
0
100
AcDbCircle
 62
7
  6
CONTINUOUS
 10
15.6835683383
 20
11.6629655713
 40
1.2625
100
AcDbArc
 50
146.23463709
 51
213.76536291
  0
ARC
  5
5BE
100
AcDbEntity
  8
0
100
AcDbCircle
 62
9
  6
CONTINUOUS
 10
15.6835683383
 20
11.6629655713
 40
1.1354891084
100
AcDbArc
 50
57.6134939829
 51
122.3865060171
  0
ARC
  5
5BF
100
AcDbEntity
  8
0
100
AcDbCircle
 62
9
  6
CONTINUOUS
 10
15.6835683383
 20
11.6629655713
 40
1.1354891084
100
AcDbArc
 50
327.6134939829
 51
32.3865060171
  0
ARC
  5
5C0
100
AcDbEntity
  8
0
100
AcDbCircle
 62
9
  6
CONTINUOUS
 10
15.6835683383
 20
11.6629655713
 40
1.1354891084
100
AcDbArc
 50
237.6134939829
 51
302.3865060171
  0
ARC
  5
5C1
100
AcDbEntity
  8
0
100
AcDbCircle
 62
9
  6
CONTINUOUS
 10
15.6835683383
 20
11.6629655713
 40
1.1354891084
100
AcDbArc
 50
147.6134939829
 51
212.3865060171
  0
ARC
  5
5C2
100
AcDbEntity
  8
0
100
AcDbCircle
 62
7
  6
CONTINUOUS
 10
15.6835683383
 20
11.6629655713
 40
1.125
100
AcDbArc
 50
57.6904311412
 51
122.3095688588
  0
ARC
  5
5C3
100
AcDbEntity
  8
0
100
AcDbCircle
 62
7
  6
CONTINUOUS
 10
15.6835683383
 20
11.6629655713
 40
1.125
100
AcDbArc
 50
327.6903483897
 51
32.3096516103
  0
ARC
  5
5C4
100
AcDbEntity
  8
0
100
AcDbCircle
 62
7
  6
CONTINUOUS
 10
15.6835683383
 20
11.6629655713
 40
1.125
100
AcDbArc
 50
237.6904311412
 51
302.3095688588
  0
ARC
  5
5C5
100
AcDbEntity
  8
0
100
AcDbCircle
 62
7
  6
CONTINUOUS
 10
15.6835683383
 20
11.6629655713
 40
1.125
100
AcDbArc
 50
147.6903483897
 51
212.3096516103
  0
ARC
  5
5C6
100
AcDbEntity
  8
0
100
AcDbCircle
 62
7
  6
CONTINUOUS
 10
15.6835683383
 20
11.6629655713
 40
1.05
100
AcDbArc
 50
238.0453136122
 51
301.9546863878
  0
ARC
  5
5C7
100
AcDbEntity
  8
0
100
AcDbCircle
 62
7
  6
CONTINUOUS
 10
15.6835683383
 20
11.6629655713
 40
1.05
100
AcDbArc
 50
148.0446619401
 51
211.9553380599
  0
ARC
  5
5C8
100
AcDbEntity
  8
0
100
AcDbCircle
 62
7
  6
CONTINUOUS
 10
15.6835683383
 20
11.6629655713
 40
1.05
100
AcDbArc
 50
58.0453136122
 51
121.9546863878
  0
ARC
  5
5C9
100
AcDbEntity
  8
0
100
AcDbCircle
 62
7
  6
CONTINUOUS
 10
15.6835683383
 20
11.6629655713
 40
1.05
100
AcDbArc
 50
328.0446619401
 51
31.9553380599
  0
ARC
  5
5CA
100
AcDbEntity
  8
0
100
AcDbCircle
 62
7
  6
CONTINUOUS
 10
15.6835683383
 20
11.6629655713
 40
0.6375
100
AcDbArc
 50
238.6106173546
 51
301.3893826454
  0
ARC
  5
5CB
100
AcDbEntity
  8
0
100
AcDbCircle
 62
7
  6
CONTINUOUS
 10
15.6835683383
 20
11.6629655713
 40
0.6375
100
AcDbArc
 50
148.6106173546
 51
211.3893826454
  0
ARC
  5
5CC
100
AcDbEntity
  8
0
100
AcDbCircle
 62
7
  6
CONTINUOUS
 10
15.6835683383
 20
11.6629655713
 40
0.6375
100
AcDbArc
 50
58.6106173546
 51
121.3893826454
  0
ARC
  5
5CD
100
AcDbEntity
  8
0
100
AcDbCircle
 62
7
  6
CONTINUOUS
 10
15.6835683383
 20
11.6629655713
 40
0.6375
100
AcDbArc
 50
328.6106173546
 51
31.3893826454
  0
ARC
  5
5CE
100
AcDbEntity
  8
0
100
AcDbCircle
 62
7
  6
CONTINUOUS
 10
15.6835683383
 20
11.6629655713
 40
0.5375
100
AcDbArc
 50
241.2047324753
 51
298.7952675247
  0
ARC
  5
5CF
100
AcDbEntity
  8
0
100
AcDbCircle
 62
7
  6
CONTINUOUS
 10
15.6835683383
 20
11.6629655713
 40
0.5375
100
AcDbArc
 50
151.2047394909
 51
208.7952605091
  0
ARC
  5
5D0
100
AcDbEntity
  8
0
100
AcDbCircle
 62
7
  6
CONTINUOUS
 10
15.6835683383
 20
11.6629655713
 40
0.5375
100
AcDbArc
 50
61.2047324753
 51
118.7952675247
  0
ARC
  5
5D1
100
AcDbEntity
  8
0
100
AcDbCircle
 62
7
  6
CONTINUOUS
 10
15.6835683383
 20
11.6629655713
 40
0.5375
100
AcDbArc
 50
331.2047394909
 51
28.7952605091
  0
CIRCLE
  5
5D2
100
AcDbEntity
  8
0
100
AcDbCircle
 62
7
  6
CONTINUOUS
 10
15.6835683383
 20
11.6629655713
 40
0.5
  0
CIRCLE
  5
5D3
100
AcDbEntity
  8
0
100
AcDbCircle
 62
7
  6
CONTINUOUS
 10
15.6835683383
 20
11.6629655713
 40
0.425
  0
CIRCLE
  5
5D4
100
AcDbEntity
  8
0
100
AcDbCircle
 62
7
  6
CONTINUOUS
 10
15.6835683383
 20
11.6629655713
 40
0.4175
  0
CIRCLE
  5
5D5
100
AcDbEntity
  8
0
100
AcDbCircle
 62
9
  6
CONTINUOUS
 10
15.6835683383
 20
11.6629655713
 40
0.3951446566
  0
ARC
  5
5D6
100
AcDbEntity
  8
0
100
AcDbCircle
 62
7
  6
CONTINUOUS
 10
15.2154213434
 20
12.8382193474
 40
0.75
100
AcDbArc
 50
214.2724717156
 51
235.7275282844
  0
ARC
  5
5D7
100
AcDbEntity
  8
0
100
AcDbCircle
 62
7
  6
CONTINUOUS
 10
14.5083145622
 20
12.1311125662
 40
0.75
100
AcDbArc
 50
34.2724717156
 51
55.7275282844
  0
ARC
  5
5D8
100
AcDbEntity
  8
0
100
AcDbCircle
 62
7
  6
CONTINUOUS
 10
15.7196286854
 20
12.6182647339
 40
0.5
100
AcDbArc
 50
315.0
 51
342.0541342467
  0
ARC
  5
5D9
100
AcDbEntity
  8
0
100
AcDbCircle
 62
7
  6
CONTINUOUS
 10
15.6475079912
 20
12.6182647339
 40
0.5
100
AcDbArc
 50
197.9458657533
 51
225.0
  0
ARC
  5
5DA
100
AcDbEntity
  8
0
100
AcDbCircle
 62
7
  6
CONTINUOUS
 10
14.8848737632
 20
12.6129677164
 40
0.35
100
AcDbArc
 50
172.6889842707
 51
214.2724717156
  0
ARC
  5
5DB
100
AcDbEntity
  8
0
100
AcDbCircle
 62
7
  6
CONTINUOUS
 10
14.7335661932
 20
12.4616601464
 40
0.35
100
AcDbArc
 50
55.7275282844
 51
97.3110157293
  0
ARC
  5
5DC
100
AcDbEntity
  8
0
100
AcDbCircle
 62
7
  6
CONTINUOUS
 10
14.8388621424
 20
12.3563641972
 40
0.35
100
AcDbArc
 50
17.9458657533
 51
34.2724717156
  0
ARC
  5
5DD
100
AcDbEntity
  8
0
100
AcDbCircle
 62
7
  6
CONTINUOUS
 10
14.9901697124
 20
12.5076717672
 40
0.35
100
AcDbArc
 50
235.7275282844
 51
252.0541342467
  0
ARC
  5
5DE
100
AcDbEntity
  8
0
100
AcDbCircle
 62
7
  6
CONTINUOUS
 10
14.7112965142
 20
12.6352373954
 40
0.175
100
AcDbArc
 50
97.3110157293
 51
172.6889842707
  0
ARC
  5
5DF
100
AcDbEntity
  8
0
100
AcDbCircle
 62
7
  6
CONTINUOUS
 10
15.5910683383
 20
11.7829655713
 40
0.015
100
AcDbArc
 50
61.8875681082
 51
204.7650408546
  0
ARC
  5
5E0
100
AcDbEntity
  8
0
100
AcDbCircle
 62
7
  6
CONTINUOUS
 10
16.1517153332
 20
10.4877117952
 40
0.75
100
AcDbArc
 50
34.2724717156
 51
55.7275282844
  0
ARC
  5
5E1
100
AcDbEntity
  8
0
100
AcDbCircle
 62
9
  6
CONTINUOUS
 10
20.8687835741
 20
8.2987407229
 40
0.2647847648
100
AcDbArc
 50
0.0041271289
 51
6.9214517951
  0
ARC
  5
5E2
100
AcDbEntity
  8
0
100
AcDbCircle
 62
9
  6
CONTINUOUS
 10
20.4983531025
 20
8.2987407229
 40
0.2647847649
100
AcDbArc
 50
173.0785482061
 51
179.995872871
  0
ARC
  5
5E3
100
AcDbEntity
  8
0
100
AcDbCircle
 62
7
  6
CONTINUOUS
 10
16.0693396591
 20
10.6477105553
 40
1.02
100
AcDbArc
 50
95.5287050837
 51
117.2838838627
  0
ARC
  5
5E4
100
AcDbEntity
  8
0
100
AcDbCircle
 62
7
  6
CONTINUOUS
 10
16.0693396591
 20
10.6477105553
 40
1.0
100
AcDbArc
 50
95.5287050837
 51
118.1124318918
  0
ARC
  5
5E5
100
AcDbEntity
  8
0
100
AcDbCircle
 62
7
  6
CONTINUOUS
 10
16.8588221144
 20
11.1948185764
 40
0.75
100
AcDbArc
 50
214.2724717156
 51
235.7275282844
  0
ARC
  5
5E6
100
AcDbEntity
  8
0
100
AcDbCircle
 62
7
  6
CONTINUOUS
 10
16.6388675009
 20
11.6269052242
 40
0.5
100
AcDbArc
 50
225.0
 51
252.0541342467
  0
ARC
  5
5E7
100
AcDbEntity
  8
0
100
AcDbCircle
 62
7
  6
CONTINUOUS
 10
16.6388675009
 20
11.6990259184
 40
0.5
100
AcDbArc
 50
107.9458657533
 51
135.0
  0
ARC
  5
5E8
100
AcDbEntity
  8
0
100
AcDbCircle
 62
7
  6
CONTINUOUS
 10
16.4822629133
 20
10.7129634262
 40
0.35
100
AcDbArc
 50
352.6889842707
 51
34.2724717156
  0
ARC
  5
5E9
100
AcDbEntity
  8
0
100
AcDbCircle
 62
7
  6
CONTINUOUS
 10
16.6335704834
 20
10.8642709963
 40
0.35
100
AcDbArc
 50
235.7275282844
 51
277.3110157293
  0
ARC
  5
5EA
100
AcDbEntity
  8
0
100
AcDbCircle
 62
7
  6
CONTINUOUS
 10
16.5282745342
 20
10.9695669455
 40
0.35
100
AcDbArc
 50
197.9458657533
 51
214.2724717156
  0
ARC
  5
5EB
100
AcDbEntity
  8
0
100
AcDbCircle
 62
7
  6
CONTINUOUS
 10
16.3769669641
 20
10.8182593754
 40
0.35
100
AcDbArc
 50
55.7275282844
 51
72.0541342467
  0
ARC
  5
5EC
100
AcDbEntity
  8
0
100
AcDbCircle
 62
7
  6
CONTINUOUS
 10
16.6558401624
 20
10.6906937472
 40
0.175
100
AcDbArc
 50
277.3110157293
 51
352.6889842707
  0
ARC
  5
5ED
100
AcDbEntity
  8
0
100
AcDbCircle
 62
7
  6
CONTINUOUS
 10
15.9710683383
 20
11.6629655713
 40
0.02
100
AcDbArc
 50
275.5287050837
 51
84.4712949163
  0
ARC
  5
5EE
100
AcDbEntity
  8
0
100
AcDbCircle
 62
7
  6
CONTINUOUS
 10
16.0693396591
 20
12.6782205873
 40
1.02
100
AcDbArc
 50
242.7161161373
 51
264.4712949163
  0
ARC
  5
5EF
100
AcDbEntity
  8
0
100
AcDbCircle
 62
7
  6
CONTINUOUS
 10
16.0693396591
 20
12.6782205873
 40
1.0
100
AcDbArc
 50
241.8875681082
 51
264.4712949163
  0
ARC
  5
5F0
100
AcDbEntity
  8
0
100
AcDbCircle
 62
7
  6
CONTINUOUS
 10
16.8588221144
 20
12.1311125662
 40
0.75
100
AcDbArc
 50
124.2724717156
 51
145.7275282844
  0
ARC
  5
5F1
100
AcDbEntity
  8
0
100
AcDbCircle
 62
7
  6
CONTINUOUS
 10
16.1517153332
 20
12.8382193474
 40
0.75
100
AcDbArc
 50
304.2724717156
 51
325.7275282844
  0
ARC
  5
5F2
100
AcDbEntity
  8
0
100
AcDbCircle
 62
7
  6
CONTINUOUS
 10
16.6335704834
 20
12.4616601464
 40
0.35
100
AcDbArc
 50
82.6889842707
 51
124.2724717156
  0
ARC
  5
5F3
100
AcDbEntity
  8
0
100
AcDbCircle
 62
7
  6
CONTINUOUS
 10
16.4822629133
 20
12.6129677164
 40
0.35
100
AcDbArc
 50
325.7275282844
 51
7.3110157293
  0
ARC
  5
5F4
100
AcDbEntity
  8
0
100
AcDbCircle
 62
7
  6
CONTINUOUS
 10
16.3769669641
 20
12.5076717672
 40
0.35
100
AcDbArc
 50
287.9458657533
 51
304.2724717156
  0
ARC
  5
5F5
100
AcDbEntity
  8
0
100
AcDbCircle
 62
7
  6
CONTINUOUS
 10
16.5282745342
 20
12.3563641972
 40
0.35
100
AcDbArc
 50
145.7275282844
 51
162.0541342467
  0
ARC
  5
5F6
100
AcDbEntity
  8
0
100
AcDbCircle
 62
7
  6
CONTINUOUS
 10
16.6558401624
 20
12.6352373954
 40
0.175
100
AcDbArc
 50
7.3110157293
 51
82.6889842707
  0
ARC
  5
5F7
100
AcDbEntity
  8
0
100
AcDbCircle
 62
7
  6
CONTINUOUS
 10
20.5213634312
 20
11.0863784455
 40
0.3293291848
100
AcDbArc
 50
200.8344088606
 51
209.015569597
  0
ARC
  5
5F8
100
AcDbEntity
  8
0
100
AcDbCircle
 62
7
  6
CONTINUOUS
 10
20.5033912807
 20
11.2879805606
 40
0.310547986
100
AcDbArc
 50
199.8952996464
 51
201.0506930156
  0
ARC
  5
5F9
100
AcDbEntity
  8
0
100
AcDbCircle
 62
7
  6
CONTINUOUS
 10
20.8457722813
 20
11.0863788649
 40
0.3293302353
100
AcDbArc
 50
330.9836908281
 51
339.1655826696
  0
ARC
  5
5FA
100
AcDbEntity
  8
0
100
AcDbCircle
 62
7
  6
CONTINUOUS
 10
20.863358508
 20
11.2881250043
 40
0.3109609374
100
AcDbArc
 50
338.9500741828
 51
340.1039331552
  0
ARC
  5
5FB
100
AcDbEntity
  8
0
100
AcDbCircle
 62
7
  6
CONTINUOUS
 10
20.6835683383
 20
11.6629655713
 40
0.9794250637
100
AcDbArc
 50
294.1708549916
 51
245.8291450084
  0
ARC
  5
5FC
100
AcDbEntity
  8
0
100
AcDbCircle
 62
9
  6
CONTINUOUS
 10
20.6835683383
 20
11.6629655713
 40
0.7622057121
100
AcDbArc
 50
308.0873059933
 51
231.9126940026
  0
ARC
  5
5FD
100
AcDbEntity
  8
0
100
AcDbCircle
 62
9
  6
CONTINUOUS
 10
20.6835683383
 20
11.6629655713
 40
0.7298140957
100
AcDbArc
 50
310.1096566238
 51
229.8903433759
  0
ARC
  5
5FE
100
AcDbEntity
  8
0
100
AcDbCircle
 62
7
  6
CONTINUOUS
 10
20.6835683383
 20
11.6629655713
 40
0.5475
100
AcDbArc
 50
332.9563010111
 51
207.0436989889
  0
ARC
  5
5FF
100
AcDbEntity
  8
0
100
AcDbCircle
 62
9
  6
CONTINUOUS
 10
20.6835683383
 20
11.6629655713
 40
0.5175
100
AcDbArc
 50
340.4627074406
 51
199.5372925594
  0
ARC
  5
600
100
AcDbEntity
  8
0
100
AcDbCircle
 62
7
  6
CONTINUOUS
 10
20.6835683383
 20
11.6629655713
 40
0.4875
100
AcDbArc
 50
0.0
 51
180.0
  0
SPLINE
  5
601
100
AcDbEntity
  8
0
100
AcDbSpline
 62
7
  6
CONTINUOUS
 70
0
 71
3
 72
26
 73
22
 74
0
 42
0.0000001
 43
0.0000001
 44
0.0000000001
 40
0.0
 40
0.0
 40
0.0
 40
0.0
 40
0.060101165
 40
0.0907830491
 40
0.1218561695
 40
0.18506141
 40
0.24950609
 40
0.3149006895
 40
0.3809126102
 40
0.4471805622
 40
0.5133289589
 40
0.5789823316
 40
0.6437798296
 40
0.7073898806
 40
0.7695250401
 40
0.8299569961
 40
0.8885315007
 40
0.9171104376
 40
0.9452085683
 40
0.9728335641
 40
1.0
 40
1.0
 40
1.0
 40
1.0
 10
20.3865651275
 20
11.2490741529
 30
0.0
 10
20.397592923
 20
11.2584045418
 30
0.0
 10
20.4150866559
 20
11.2715442272
 30
0.0
 10
20.4398500872
 20
11.2871996282
 30
0.0
 10
20.4660556553
 20
11.3018998981
 30
0.0
 10
20.500731374
 20
11.3179704229
 30
0.0
 10
20.5445970991
 20
11.3333011699
 30
0.0
 10
20.5903644819
 20
11.3445989366
 30
0.0
 10
20.6374047657
 20
11.3517219639
 30
0.0
 10
20.6850755455
 20
11.3545864449
 30
0.0
 10
20.7327248971
 20
11.3531654421
 30
0.0
 10
20.7797015063
 20
11.3474899739
 30
0.0
 10
20.8253633644
 20
11.3376482538
 30
0.0
 10
20.8690861492
 20
11.3237846978
 30
0.0
 10
20.9102730662
 20
11.3060962598
 30
0.0
 10
20.9483568896
 20
11.2848342537
 30
0.0
 10
20.9773182018
 20
11.2642068943
 30
0.0
 10
20.9983850664
 20
11.2461986516
 30
0.0
 10
21.01297311
 20
11.2321173485
 30
0.0
 10
21.0264236731
 20
11.2174036827
 30
0.0
 10
21.0346701078
 20
11.2071216557
 30
0.0
 10
21.0385817676
 20
11.2018935644
 30
0.0
  0
SPLINE
  5
602
100
AcDbEntity
  8
0
100
AcDbSpline
 62
7
  6
CONTINUOUS
 70
0
 71
3
 72
19
 73
15
 74
0
 42
0.0000001
 43
0.0000001
 44
0.0000000001
 40
0.0
 40
0.0
 40
0.0
 40
0.0
 40
0.1335215746
 40
0.2640041989
 40
0.3916285913
 40
0.516675138
 40
0.5783669379
 40
0.6395629715
 40
0.7003236915
 40
0.7607144239
 40
0.8208037319
 40
0.8806636158
 40
0.9403725779
 40
1.0
 40
1.0
 40
1.0
 40
1.0
 10
20.3668391182
 20
10.8238057293
 30
0.0
 10
20.3594638833
 20
10.8169325033
 30
0.0
 10
20.3454595816
 20
10.8027034885
 30
0.0
 10
20.3267056823
 20
10.7797878492
 30
0.0
 10
20.3105843757
 20
10.7557116864
 30
0.0
 10
20.2993944199
 20
10.7347279226
 30
0.0
 10
20.2919028404
 20
10.7175643215
 30
0.0
 10
20.2870326577
 20
10.7045742106
 30
0.0
 10
20.2828963115
 20
10.6914352924
 30
0.0
 10
20.2795012971
 20
10.6781716101
 30
0.0
 10
20.2768540489
 20
10.6648079661
 30
0.0
 10
20.2749595444
 20
10.6513687902
 30
0.0
 10
20.2738215274
 20
10.6378799213
 30
0.0
 10
20.2735683383
 20
10.6288674863
 30
0.0
 10
20.2735683383
 20
10.6243653677
 30
0.0
  0
SPLINE
  5
603
100
AcDbEntity
  8
0
100
AcDbSpline
 62
7
  6
CONTINUOUS
 70
0
 71
3
 72
15
 73
11
 74
0
 42
0.0000001
 43
0.0000001
 44
0.0000000001
 40
0.0
 40
0.0
 40
0.0
 40
0.0
 40
0.1312818531
 40
0.2602404898
 40
0.3870785561
 40
0.5120519823
 40
0.6354660144
 40
0.7576694354
 40
0.879044251
 40
1.0
 40
1.0
 40
1.0
 40
1.0
 10
20.3032192467
 20
10.7416081169
 30
0.0
 10
20.2976227784
 20
10.7483885455
 30
0.0
 10
20.2870339576
 20
10.762257016
 30
0.0
 10
20.2729738829
 20
10.7840668599
 30
0.0
 10
20.2609512657
 20
10.8065883622
 30
0.0
 10
20.2510287724
 20
10.829708383
 30
0.0
 10
20.2432571155
 20
10.853311973
 30
0.0
 10
20.2376767712
 20
10.8772816084
 30
0.0
 10
20.2343167332
 20
10.901494195
 30
0.0
 10
20.2335683383
 20
10.9177325408
 30
0.0
 10
20.2335683383
 20
10.9258327566
 30
0.0
  0
SPLINE
  5
604
100
AcDbEntity
  8
0
100
AcDbSpline
 62
7
  6
CONTINUOUS
 70
0
 71
3
 72
15
 73
11
 74
0
 42
0.0000001
 43
0.0000001
 44
0.0000000001
 40
0.0
 40
0.0
 40
0.0
 40
0.0
 40
0.1258568333
 40
0.2516353033
 40
0.3772587498
 40
0.5026443058
 40
0.6277068201
 40
0.7523546124
 40
0.8764883978
 40
1.0
 40
1.0
 40
1.0
 40
1.0
 10
21.2235683383
 20
8.7361513903
 30
0.0
 10
21.2235683383
 20
8.7188886088
 30
0.0
 10
21.2226138756
 20
8.6843661683
 30
0.0
 10
21.2183228505
 20
8.632773542
 30
0.0
 10
21.2111868277
 20
8.5815604256
 30
0.0
 10
21.2012291614
 20
8.5309206481
 30
0.0
 10
21.1884834785
 20
8.481047562
 30
0.0
 10
21.17299328
 20
8.432136697
 30
0.0
 10
21.1548143948
 20
8.3843891198
 30
0.0
 10
21.1409052308
 20
8.3533749775
 30
0.0
 10
21.1335208809
 20
8.3381279317
 30
0.0
  0
SPLINE
  5
605
100
AcDbEntity
  8
0
100
AcDbSpline
 62
7
  6
CONTINUOUS
 70
0
 71
3
 72
16
 73
12
 74
0
 42
0.0000001
 43
0.0000001
 44
0.0000000001
 40
0.0
 40
0.0
 40
0.0
 40
0.0
 40
0.12056227
 40
0.1816279574
 40
0.2431298562
 40
0.3672048263
 40
0.4924682295
 40
0.6186218627
 40
0.7454096418
 40
0.8726043722
 40
1.0
 40
1.0
 40
1.0
 40
1.0
 10
21.0030007913
 20
10.7323731419
 30
0.0
 10
21.020560334
 20
10.7132680631
 30
0.0
 10
21.0455002195
 20
10.6830475546
 30
0.0
 10
21.0757111066
 20
10.6403028731
 30
0.0
 10
21.1042032524
 20
10.5954885984
 30
0.0
 10
21.1359815729
 20
10.5364917994
 30
0.0
 10
21.1675707796
 20
10.4619826187
 30
0.0
 10
21.1924363652
 20
10.3843552928
 30
0.0
 10
21.2103508942
 20
10.3044113621
 30
0.0
 10
21.2211603076
 20
10.2229391655
 30
0.0
 10
21.2235683383
 20
10.1681126468
 30
0.0
 10
21.2235683383
 20
10.1406930653
 30
0.0
  0
SPLINE
  5
606
100
AcDbEntity
  8
0
100
AcDbSpline
 62
7
  6
CONTINUOUS
 70
0
 71
3
 72
28
 73
24
 74
0
 42
0.0000001
 43
0.0000001
 44
0.0000000001
 40
0.0
 40
0.0
 40
0.0
 40
0.0
 40
0.0624713629
 40
0.0937109808
 40
0.1249510067
 40
0.1561923682
 40
0.1874349985
 40
0.2186793266
 40
0.2499256279
 40
0.3124144486
 40
0.3749097006
 40
0.4374099326
 40
0.4999134919
 40
0.5624193038
 40
0.6249266203
 40
0.6874349272
 40
0.7499438798
 40
0.7812028479
 40
0.8124618952
 40
0.8437210412
 40
0.8749802912
 40
0.9374898309
 40
1.0
 40
1.0
 40
1.0
 40
1.0
 10
4.5504854472
 20
11.0685630899
 30
0.0
 10
4.5638694178
 20
11.0430454959
 30
0.0
 10
4.5853325902
 20
11.0054705944
 30
0.0
 10
4.6165791521
 20
10.9570333569
 30
0.0
 10
4.6413125021
 20
10.9215675653
 30
0.0
 10
4.6673008097
 20
10.88701055
 30
0.0
 10
4.6945019384
 20
10.8533972975
 30
0.0
 10
4.7228742877
 20
10.8207631785
 30
0.0
 10
4.7622022413
 20
10.7786029002
 30
0.0
 10
4.8140712066
 20
10.7284905778
 30
0.0
 10
4.8802600705
 20
10.672738554
 30
0.0
 10
4.9500619502
 20
10.6215690856
 30
0.0
 10
5.023136579
 20
10.5751861451
 30
0.0
 10
5.099148776
 20
10.5337864475
 30
0.0
 10
5.1777521414
 20
10.4975409409
 30
0.0
 10
5.2585948511
 20
10.4666123526
 30
0.0
 10
5.3275363349
 20
10.4453715198
 30
0.0
 10
5.3834342211
 20
10.4311580171
 30
0.0
 10
5.4256933824
 20
10.421895123
 30
0.0
 10
5.468237226
 20
10.4140424421
 30
0.0
 10
5.5252736126
 20
10.4054665713
 30
0.0
 10
5.5970546765
 20
10.398303806
 30
0.0
 10
5.6547359893
 20
10.3963829647
 30
0.0
 10
5.683568438
 20
10.3963806829
 30
0.0
  0
SPLINE
  5
607
100
AcDbEntity
  8
0
100
AcDbSpline
 62
7
  6
CONTINUOUS
 70
0
 71
3
 72
15
 73
11
 74
0
 42
0.0000001
 43
0.0000001
 44
0.0000000001
 40
0.0
 40
0.0
 40
0.0
 40
0.0
 40
0.1235102518
 40
0.2476431803
 40
0.3722906419
 40
0.497353021
 40
0.6227389419
 40
0.7483627202
 40
0.8741425118
 40
1.0
 40
1.0
 40
1.0
 40
1.0
 10
20.2336548983
 20
8.3380471966
 30
0.0
 10
20.2262674267
 20
8.3532966266
 30
0.0
 10
20.2123523575
 20
8.3843159187
 30
0.0
 10
20.1941656734
 20
8.4320720803
 30
0.0
 10
20.178668748
 20
8.4809923654
 30
0.0
 10
20.1659174633
 20
8.5308755968
 30
0.0
 10
20.1559554072
 20
8.5815260636
 30
0.0
 10
20.1488161615
 20
8.6327504002
 30
0.0
 10
20.1445232484
 20
8.6843545199
 30
0.0
 10
20.1435683383
 20
8.7188847571
 30
0.0
 10
20.1435683383
 20
8.7361513903
 30
0.0
  0
SPLINE
  5
608
100
AcDbEntity
  8
0
100
AcDbSpline
 62
7
  6
CONTINUOUS
 70
0
 71
3
 72
16
 73
12
 74
0
 42
0.0000001
 43
0.0000001
 44
0.0000000001
 40
0.0
 40
0.0
 40
0.0
 40
0.0
 40
0.1273949431
 40
0.2545887343
 40
0.3813761232
 40
0.5075297565
 40
0.6327934783
 40
0.7568688281
 40
0.8183715787
 40
0.8794370142
 40
1.0
 40
1.0
 40
1.0
 40
1.0
 10
20.1435683383
 20
10.1406930653
 30
0.0
 10
20.1435683383
 20
10.1681124994
 30
0.0
 10
20.1459763275
 20
10.2229386686
 30
0.0
 10
20.1567856234
 20
10.3044104425
 30
0.0
 10
20.1747000144
 20
10.3843541093
 30
0.0
 10
20.1995654742
 20
10.4619814587
 30
0.0
 10
20.2311546176
 20
10.5364908286
 30
0.0
 10
20.2629330182
 20
10.5954879701
 30
0.0
 10
20.2914253246
 20
10.6403023908
 30
0.0
 10
20.3216362298
 20
10.683047406
 30
0.0
 10
20.3465762383
 20
10.7132679497
 30
0.0
 10
20.3641358852
 20
10.7323731419
 30
0.0
  0
SPLINE
  5
609
100
AcDbEntity
  8
0
100
AcDbSpline
 62
7
  6
CONTINUOUS
 70
0
 71
3
 72
21
 73
17
 74
0
 42
0.0000001
 43
0.0000001
 44
0.0000000001
 40
0.0
 40
0.0
 40
0.0
 40
0.0
 40
0.1358913112
 40
0.2677832875
 40
0.3323413099
 40
0.3960265455
 40
0.4588954878
 40
0.5210109172
 40
0.582441521
 40
0.643261303
 40
0.7035489481
 40
0.7633871374
 40
0.8228617308
 40
0.8820617411
 40
0.9410766989
 40
1.0
 40
1.0
 40
1.0
 40
1.0
 10
19.84765273
 20
6.5985108222
 30
0.0
 10
19.8316881496
 20
6.5842972001
 30
0.0
 10
19.8013459759
 20
6.5549988677
 30
0.0
 10
19.7670354743
 20
6.5154556374
 30
0.0
 10
19.7424841063
 20
6.4827040761
 30
0.0
 10
19.7256431673
 20
6.4577878582
 30
0.0
 10
19.7102803455
 20
6.4323817788
 30
0.0
 10
19.6964282412
 20
6.4065222376
 30
0.0
 10
19.6841185169
 20
6.3802487824
 30
0.0
 10
19.6733809393
 20
6.3536036627
 30
0.0
 10
19.6642430953
 20
6.3266321865
 30
0.0
 10
19.6567298245
 20
6.2993827068
 30
0.0
 10
19.6508624591
 20
6.2719066366
 30
0.0
 10
19.6466585351
 20
6.2442577305
 30
0.0
 10
19.6441307808
 20
6.2164934245
 30
0.0
 10
19.6435683383
 20
6.1979373648
 30
0.0
 10
19.6435683383
 20
6.1886689913
 30
0.0
  0
SPLINE
  5
60A
100
AcDbEntity
  8
0
100
AcDbSpline
 62
7
  6
CONTINUOUS
 70
0
 71
3
 72
21
 73
17
 74
0
 42
0.0000001
 43
0.0000001
 44
0.0000000001
 40
0.0
 40
0.0
 40
0.0
 40
0.0
 40
0.0589234773
 40
0.1179386045
 40
0.177138786
 40
0.2366135361
 40
0.2964518648
 40
0.3567396255
 40
0.4175594949
 40
0.4789901541
 40
0.5411056015
 40
0.6039745206
 40
0.6676596904
 40
0.7322176034
 40
0.8641092249
 40
1.0
 40
1.0
 40
1.0
 40
1.0
 10
21.7235683383
 20
6.1886690264
 30
0.0
 10
21.7235683376
 20
6.1979370851
 30
0.0
 10
21.7230059322
 20
6.2164925131
 30
0.0
 10
21.7204783467
 20
6.2442558806
 30
0.0
 10
21.7162747053
 20
6.2719038625
 30
0.0
 10
21.7104077325
 20
6.2993790291
 30
0.0
 10
21.702894962
 20
6.3266276295
 30
0.0
 10
21.693757722
 20
6.3535982552
 30
0.0
 10
21.6830208508
 20
6.3802425581
 30
0.0
 10
21.6707119313
 20
6.4065152334
 30
0.0
 10
21.6568607261
 20
6.4323740348
 30
0.0
 10
21.6414988921
 20
6.4577794157
 30
0.0
 10
21.6246590285
 20
6.4826949807
 30
0.0
 10
21.600109226
 20
6.5154457203
 30
0.0
 10
21.5658008863
 20
6.5549880528
 30
0.0
 10
21.5354605645
 20
6.5842858549
 30
0.0
 10
21.5194969482
 20
6.5984992453
 30
0.0
  0
SPLINE
  5
60B
100
AcDbEntity
  8
0
100
AcDbSpline
 62
7
  6
CONTINUOUS
 70
0
 71
3
 72
16
 73
12
 74
0
 42
0.0000001
 43
0.0000001
 44
0.0000000001
 40
0.0
 40
0.0
 40
0.0
 40
0.0
 40
0.1941922193
 40
0.3735866455
 40
0.535777989
 40
0.609659125
 40
0.6783102267
 40
0.7986176573
 40
0.8940501894
 40
0.9619728035
 40
1.0
 40
1.0
 40
1.0
 40
1.0
 10
21.520105813
 20
6.5925224338
 30
0.0
 10
21.520270065
 20
6.5914095237
 30
0.0
 10
21.5206215684
 20
6.5892735577
 30
0.0
 10
21.5212256477
 20
6.5862286213
 30
0.0
 10
21.5217697503
 20
6.5838836108
 30
0.0
 10
21.5222132055
 20
6.5821748587
 30
0.0
 10
21.5226204031
 20
6.5807076127
 30
0.0
 10
21.5230977518
 20
6.5791304941
 30
0.0
 10
21.5236221702
 20
6.5775728344
 30
0.0
 10
21.524030639
 20
6.576479872
 30
0.0
 10
21.5242619799
 20
6.575911248
 30
0.0
 10
21.5243492498
 20
6.5757089779
 30
0.0
  0
SPLINE
  5
60C
100
AcDbEntity
  8
0
100
AcDbSpline
 62
7
  6
CONTINUOUS
 70
0
 71
3
 72
30
 73
26
 74
0
 42
0.0000001
 43
0.0000001
 44
0.0000000001
 40
0.0
 40
0.0
 40
0.0
 40
0.0
 40
0.0079175167
 40
0.0127354543
 40
0.0145132145
 40
0.0157170565
 40
0.0174190129
 40
0.0198447971
 40
0.0229873343
 40
0.02683935
 40
0.0366392702
 40
0.0491790321
 40
0.0643935734
 40
0.0822185359
 40
0.1025903001
 40
0.1254460206
 40
0.1783604718
 40
0.2404347535
 40
0.311095641
 40
0.3897747221
 40
0.4759136779
 40
0.5689684191
 40
0.6684161427
 40
0.7737429147
 40
1.0
 40
1.0
 40
1.0
 40
1.0
 10
19.8428465959
 20
6.5758213759
 30
0.0
 10
19.8428258018
 20
6.5757793448
 30
0.0
 10
19.8427881227
 20
6.5757017475
 30
0.0
 10
19.8427623404
 20
6.5756491325
 30
0.0
 10
19.8427284104
 20
6.5755757503
 30
0.0
 10
19.8427462082
 20
6.5756146177
 30
0.0
 10
19.8427567914
 20
6.5756386169
 30
0.0
 10
19.8427750996
 20
6.5756801437
 30
0.0
 10
19.8427968951
 20
6.5757305147
 30
0.0
 10
19.8428361528
 20
6.5758223847
 30
0.0
 10
19.8428958527
 20
6.5759652579
 30
0.0
 10
19.8429797807
 20
6.5761713776
 30
0.0
 10
19.84307924
 20
6.5764222997
 30
0.0
 10
19.843193066
 20
6.5767174752
 30
0.0
 10
19.8433199586
 20
6.5770560795
 30
0.0
 10
19.8435146321
 20
6.5775912053
 30
0.0
 10
19.8437817647
 20
6.5783627484
 30
0.0
 10
19.8441209847
 20
6.5794087441
 30
0.0
 10
19.8444845463
 20
6.5806070389
 30
0.0
 10
19.8448637841
 20
6.5819492651
 30
0.0
 10
19.8452501441
 20
6.5834270161
 30
0.0
 10
19.8456350819
 20
6.5850319349
 30
0.0
 10
19.8460126539
 20
6.5867551492
 30
0.0
 10
19.8465102857
 20
6.5892591874
 30
0.0
 10
19.8468352054
 20
6.5911967271
 30
0.0
 10
19.8470308636
 20
6.5925224339
 30
0.0
  0
SPLINE
  5
60D
100
AcDbEntity
  8
0
100
AcDbSpline
 62
7
  6
CONTINUOUS
 70
0
 71
3
 72
21
 73
17
 74
0
 42
0.0000001
 43
0.0000001
 44
0.0000000001
 40
0.0
 40
0.0
 40
0.0
 40
0.0
 40
0.060577133
 40
0.1212031386
 40
0.1819272661
 40
0.2427975497
 40
0.3038614931
 40
0.3651654471
 40
0.4267542355
 40
0.4886708026
 40
0.550956013
 40
0.6136481638
 40
0.6767824714
 40
0.7403908176
 40
0.8691025801
 40
1.0
 40
1.0
 40
1.0
 40
1.0
 10
21.1335683383
 20
8.2987597958
 30
0.0
 10
21.1335683383
 20
8.2933883263
 30
0.0
 10
21.1332639527
 20
8.2826385744
 30
0.0
 10
21.1318959399
 20
8.2665567259
 30
0.0
 10
21.1296208904
 20
8.2505512212
 30
0.0
 10
21.1264459701
 20
8.2346603082
 30
0.0
 10
21.1223810826
 20
8.2189204288
 30
0.0
 10
21.1174386938
 20
8.2033669783
 30
0.0
 10
21.1116334221
 20
8.1880338942
 30
0.0
 10
21.104981837
 20
8.1729536108
 30
0.0
 10
21.097502339
 20
8.1581568596
 30
0.0
 10
21.0892149112
 20
8.1436728194
 30
0.0
 10
21.080140461
 20
8.1295287501
 30
0.0
 10
21.0669721643
 20
8.1110883225
 30
0.0
 10
21.048624339
 20
8.0890113172
 30
0.0
 10
21.0323009647
 20
8.0727282434
 30
0.0
 10
21.0237298612
 20
8.0649016321
 30
0.0
  0
SPLINE
  5
60E
100
AcDbEntity
  8
0
100
AcDbSpline
 62
7
  6
CONTINUOUS
 70
0
 71
3
 72
21
 73
17
 74
0
 42
0.0000001
 43
0.0000001
 44
0.0000000001
 40
0.0
 40
0.0
 40
0.0
 40
0.0
 40
0.130897277
 40
0.2596089128
 40
0.3232172116
 40
0.3863514835
 40
0.4490436031
 40
0.5113287966
 40
0.5732453643
 40
0.6348341628
 40
0.6961381409
 40
0.7572021256
 40
0.818072466
 40
0.8787966617
 40
0.9394227672
 40
1.0
 40
1.0
 40
1.0
 40
1.0
 10
20.3434051462
 20
8.0649031567
 30
0.0
 10
20.3348341728
 20
8.0727297455
 30
0.0
 10
20.3185110402
 20
8.0890127493
 30
0.0
 10
20.3001634971
 20
8.111089635
 30
0.0
 10
20.2869954044
 20
8.1295299488
 30
0.0
 10
20.2779210981
 20
8.1436739287
 30
0.0
 10
20.269633796
 20
8.1581578688
 30
0.0
 10
20.2621544124
 20
8.1729545152
 30
0.0
 10
20.2555029318
 20
8.188034691
 30
0.0
 10
20.2496977474
 20
8.2033676624
 30
0.0
 10
20.2447554317
 20
8.2189209976
 30
0.0
 10
20.2406906049
 20
8.2346607611
 30
0.0
 10
20.2375157312
 20
8.250551558
 30
0.0
 10
20.235240713
 20
8.2665569485
 30
0.0
 10
20.23387272
 20
8.2826386848
 30
0.0
 10
20.2335683383
 20
8.2933883631
 30
0.0
 10
20.2335683383
 20
8.2987597958
 30
0.0
  0
SPLINE
  5
60F
100
AcDbEntity
  8
0
100
AcDbSpline
 62
7
  6
CONTINUOUS
 70
0
 71
3
 72
25
 73
21
 74
0
 42
0.0000001
 43
0.0000001
 44
0.0000000001
 40
0.0
 40
0.0
 40
0.0
 40
0.0
 40
0.0624981563
 40
0.1249962599
 40
0.1874933505
 40
0.2499901822
 40
0.2812425288
 40
0.3124948414
 40
0.3749919192
 40
0.437489559
 40
0.499988466
 40
0.5624872486
 40
0.6249866267
 40
0.6874867933
 40
0.7499869886
 40
0.8124880941
 40
0.8749893987
 40
0.9062434491
 40
0.9374978824
 40
1.0
 40
1.0
 40
1.0
 40
1.0
 10
20.325533748
 20
7.5056004587
 30
0.0
 10
20.3113559711
 20
7.4985934076
 30
0.0
 10
20.2834093289
 20
7.4837337684
 30
0.0
 10
20.2428956419
 20
7.45899221
 30
0.0
 10
20.2039298881
 20
7.431876897
 30
0.0
 10
20.1728663551
 20
7.407376275
 30
0.0
 10
20.1489342089
 20
7.3866874293
 30
0.0
 10
20.1256340198
 20
7.3652893009
 30
0.0
 10
20.0977308082
 20
7.3372416136
 30
0.0
 10
20.0663372507
 20
7.3016317063
 30
0.0
 10
20.0371481373
 20
7.2641918078
 30
0.0
 10
20.0102740874
 20
7.2250566109
 30
0.0
 10
19.9858164268
 20
7.184366993
 30
0.0
 10
19.9638676341
 20
7.1422706112
 30
0.0
 10
19.9445107376
 20
7.0989204929
 30
0.0
 10
19.9278193951
 20
7.0544764304
 30
0.0
 10
19.9161830425
 20
7.0166600559
 30
0.0
 10
19.908266008
 20
6.9860292539
 30
0.0
 10
19.9012833896
 20
6.9551727473
 30
0.0
 10
19.8971040499
 20
6.931799634
 30
0.0
 10
19.8947948432
 20
6.9161533119
 30
0.0
  0
SPLINE
  5
610
100
AcDbEntity
  8
0
100
AcDbSpline
 62
7
  6
CONTINUOUS
 70
0
 71
3
 72
26
 73
22
 74
0
 42
0.0000001
 43
0.0000001
 44
0.0000000001
 40
0.0
 40
0.0
 40
0.0
 40
0.0
 40
0.0625004055
 40
0.0937541254
 40
0.1250074651
 40
0.1875075439
 40
0.2500077282
 40
0.3125071702
 40
0.3750066364
 40
0.4375055407
 40
0.5000042798
 40
0.5625030257
 40
0.625000757
 40
0.6874979126
 40
0.7187503596
 40
0.7500028763
 40
0.8124999324
 40
0.874997163
 40
0.9062496471
 40
0.9375021229
 40
1.0
 40
1.0
 40
1.0
 40
1.0
 10
21.4723418334
 20
6.9161533116
 30
0.0
 10
21.4700326912
 20
6.9317991968
 30
0.0
 10
21.4658534832
 20
6.955171696
 30
0.0
 10
21.4588711023
 20
6.9860274253
 30
0.0
 10
21.4509543324
 20
7.0166575856
 30
0.0
 10
21.4393183311
 20
7.0544732883
 30
0.0
 10
21.4226274715
 20
7.0989167197
 30
0.0
 10
21.4032710708
 20
7.1422663735
 30
0.0
 10
21.3813227569
 20
7.1843624249
 30
0.0
 10
21.3568655791
 20
7.2250519429
 30
0.0
 10
21.3299919303
 20
7.2641871772
 30
0.0
 10
21.3008031186
 20
7.3016272433
 30
0.0
 10
21.2694098475
 20
7.3372373688
 30
0.0
 10
21.2415068026
 20
7.3652853126
 30
0.0
 10
21.2182067007
 20
7.3866836322
 30
0.0
 10
21.1942745768
 20
7.4073727755
 30
0.0
 10
21.1632115093
 20
7.4318734183
 30
0.0
 10
21.1307381857
 20
7.4544711438
 30
0.0
 10
21.1039884036
 20
7.4713603686
 30
0.0
 10
21.0767479339
 20
7.487444629
 30
0.0
 10
21.0557856869
 20
7.4985908637
 30
0.0
 10
21.0416080127
 20
7.5055979443
 30
0.0
  0
SPLINE
  5
611
100
AcDbEntity
  8
0
100
AcDbSpline
 62
7
  6
CONTINUOUS
 70
0
 71
3
 72
39
 73
35
 74
0
 42
0.0000001
 43
0.0000001
 44
0.0000000001
 40
0.0
 40
0.0
 40
0.0
 40
0.0
 40
0.0241788614
 40
0.048440095
 40
0.072864444
 40
0.0975295104
 40
0.1225083714
 40
0.1478684272
 40
0.1736705225
 40
0.1999682876
 40
0.2133193635
 40
0.22681096
 40
0.2542303591
 40
0.2822601671
 40
0.3109232139
 40
0.3402349647
 40
0.3702038308
 40
0.4008315553
 40
0.4321136372
 40
0.4640397332
 40
0.4965940934
 40
0.5297559904
 40
0.563500108
 40
0.5977969535
 40
0.6326132468
 40
0.6679122661
 40
0.7036542225
 40
0.7397966082
 40
0.7762944993
 40
0.8131009057
 40
0.8501670724
 40
0.8874427955
 40
0.9248766434
 40
1.0
 40
1.0
 40
1.0
 40
1.0
 10
19.6435683383
 20
6.126600694
 30
0.0
 10
19.6435683383
 20
6.1156588246
 30
0.0
 10
19.644407162
 20
6.0937286397
 30
0.0
 10
19.6481764335
 20
6.0609405043
 30
0.0
 10
19.6544476033
 20
6.0283122695
 30
0.0
 10
19.6632043964
 20
5.9959265063
 30
0.0
 10
19.6744242353
 20
5.9638616483
 30
0.0
 10
19.6880786278
 20
5.9321955665
 30
0.0
 10
19.7041326564
 20
5.9010053569
 30
0.0
 10
19.7194013008
 20
5.8755992293
 30
0.0
 10
19.7327488966
 20
5.8555915209
 30
0.0
 10
19.7470041388
 20
5.835593023
 30
0.0
 10
19.7662674035
 20
5.8110264273
 30
0.0
 10
19.7914658197
 20
5.7824708137
 30
0.0
 10
19.8188104699
 20
5.7547477552
 30
0.0
 10
19.8482345635
 20
5.7279239928
 30
0.0
 10
19.8796671706
 20
5.7020631412
 30
0.0
 10
19.913032467
 20
5.6772268324
 30
0.0
 10
19.9482501326
 20
5.6534742263
 30
0.0
 10
19.9852354487
 20
5.630861969
 30
0.0
 10
20.0238995005
 20
5.6094440313
 30
0.0
 10
20.0641493643
 20
5.5892715794
 30
0.0
 10
20.1058883211
 20
5.5703928437
 30
0.0
 10
20.1490160787
 20
5.5528529977
 30
0.0
 10
20.193429003
 20
5.5366940393
 30
0.0
 10
20.2390203653
 20
5.5219546845
 30
0.0
 10
20.2856805929
 20
5.5086702677
 30
0.0
 10
20.3332975385
 20
5.4968726493
 30
0.0
 10
20.3817567168
 20
5.4865901365
 30
0.0
 10
20.4309417098
 20
5.4778474055
 30
0.0
 10
20.4807339508
 20
5.4706654645
 30
0.0
 10
20.5310148922
 20
5.4650614767
 30
0.0
 10
20.5986159593
 20
5.4597058645
 30
0.0
 10
20.6495721155
 20
5.45810158
 30
0.0
 10
20.6835683383
 20
5.45810158
 30
0.0
  0
SPLINE
  5
612
100
AcDbEntity
  8
0
100
AcDbSpline
 62
7
  6
CONTINUOUS
 70
0
 71
3
 72
51
 73
47
 74
0
 42
0.0000001
 43
0.0000001
 44
0.0000000001
 40
0.0
 40
0.0
 40
0.0
 40
0.0
 40
0.013738619
 40
0.027496818
 40
0.041293298
 40
0.0551470101
 40
0.0690758274
 40
0.0830968643
 40
0.0972261203
 40
0.1114783407
 40
0.1258668541
 40
0.1404034334
 40
0.155098196
 40
0.1699595301
 40
0.2001965432
 40
0.2311560958
 40
0.2628402475
 40
0.2952235377
 40
0.3282553282
 40
0.3618626238
 40
0.395953497
 40
0.430420618
 40
0.4651450597
 40
0.5000001076
 40
0.5348551539
 40
0.56957959
 40
0.6040467024
 40
0.638137563
 40
0.671744844
 40
0.7047766169
 40
0.7371598878
 40
0.7688440193
 40
0.7998035506
 40
0.8300405429
 40
0.8449018669
 40
0.8595966199
 40
0.8741331901
 40
0.8885216949
 40
0.9027739074
 40
0.9169031565
 40
0.9309241872
 40
0.9448529994
 40
0.9587067072
 40
0.9725031843
 40
0.9862613815
 40
1.0
 40
1.0
 40
1.0
 40
1.0
 10
21.1735683383
 20
11.3661422693
 30
0.0
 10
21.1735683383
 20
11.3724255713
 30
0.0
 10
21.1731672024
 20
11.3850048031
 30
0.0
 10
21.1713645538
 20
11.4038160345
 30
0.0
 10
21.1683663361
 20
11.4225280576
 30
0.0
 10
21.1641820046
 20
11.4410906242
 30
0.0
 10
21.158824255
 20
11.4594559169
 30
0.0
 10
21.1523092095
 20
11.4775768871
 30
0.0
 10
21.1446560428
 20
11.495408049
 30
0.0
 10
21.1358867907
 20
11.5129054172
 30
0.0
 10
21.1260260546
 20
11.5300266571
 30
0.0
 10
21.1151009929
 20
11.5467309248
 30
0.0
 10
21.1031404408
 20
11.5629795287
 30
0.0
 10
21.0857579333
 20
11.5841044751
 30
0.0
 10
21.0615489463
 20
11.6091762124
 30
0.0
 10
21.0290917275
 20
11.6366805578
 30
0.0
 10
20.9933717312
 20
11.6615465227
 30
0.0
 10
20.9547350551
 20
11.6835552881
 30
0.0
 10
20.9135483008
 20
11.7025159966
 30
0.0
 10
20.8702003541
 20
11.7182628792
 30
0.0
 10
20.8250988268
 20
11.7306575152
 30
0.0
 10
20.7786674327
 20
11.7395903846
 30
0.0
 10
20.7313423251
 20
11.7449821773
 30
0.0
 10
20.6835681911
 20
11.7467847594
 30
0.0
 10
20.6357940603
 20
11.7449821572
 30
0.0
 10
20.5884689632
 20
11.7395903387
 30
0.0
 10
20.5420375839
 20
11.7306574563
 30
0.0
 10
20.4969360796
 20
11.7182627985
 30
0.0
 10
20.4535881576
 20
11.7025159082
 30
0.0
 10
20.4124014333
 20
11.6835551907
 30
0.0
 10
20.3737647892
 20
11.6615464224
 30
0.0
 10
20.3380448232
 20
11.6366804626
 30
0.0
 10
20.3055876376
 20
11.6091761221
 30
0.0
 10
20.2813786727
 20
11.584104397
 30
0.0
 10
20.2639961821
 20
11.5629794606
 30
0.0
 10
20.2520356423
 20
11.5467308642
 30
0.0
 10
20.2411105906
 20
11.5300266049
 30
0.0
 10
20.2312498626
 20
11.5129053738
 30
0.0
 10
20.2224806174
 20
11.4954080141
 30
0.0
 10
20.2148274563
 20
11.4775768602
 30
0.0
 10
20.2083124155
 20
11.4594558973
 30
0.0
 10
20.2029546688
 20
11.4410906111
 30
0.0
 10
20.198770339
 20
11.42252805
 30
0.0
 10
20.1957721222
 20
11.4038160308
 30
0.0
 10
20.1939694741
 20
11.3850048018
 30
0.0
 10
20.1935683383
 20
11.3724255711
 30
0.0
 10
20.1935683383
 20
11.3661422693
 30
0.0
  0
SPLINE
  5
613
100
AcDbEntity
  8
0
100
AcDbSpline
 62
7
  6
CONTINUOUS
 70
0
 71
3
 72
39
 73
35
 74
0
 42
0.0000001
 43
0.0000001
 44
0.0000000001
 40
0.0
 40
0.0
 40
0.0
 40
0.0
 40
0.0311127619
 40
0.0622268464
 40
0.093343571
 40
0.1244642252
 40
0.1555900518
 40
0.1867222539
 40
0.2178619657
 40
0.2490102504
 40
0.280168095
 40
0.311336374
 40
0.3425158802
 40
0.3737072964
 40
0.4049111709
 40
0.4361279545
 40
0.4673579598
 40
0.4986013721
 40
0.5298582617
 40
0.5611285428
 40
0.5924120229
 40
0.6237083834
 40
0.6550171604
 40
0.6863377942
 40
0.717669601
 40
0.7490117877
 40
0.780363474
 40
0.81172368
 40
0.8430913163
 40
0.8744653124
 40
0.9058445082
 40
0.9372271197
 40
0.9686136906
 40
1.0
 40
1.0
 40
1.0
 40
1.0
 10
4.9020683383
 20
2.6513631872
 30
0.0
 10
4.9020683383
 20
2.6386889647
 30
0.0
 10
4.9026962124
 20
2.6133354965
 30
0.0
 10
4.9055192712
 20
2.575400794
 30
0.0
 10
4.9102167539
 20
2.5376481451
 30
0.0
 10
4.9167773671
 20
2.5001697339
 30
0.0
 10
4.9251853819
 20
2.4630555498
 30
0.0
 10
4.9354204535
 20
2.4263950887
 30
0.0
 10
4.9474578873
 20
2.3902766404
 30
0.0
 10
4.9612687058
 20
2.3547872345
 30
0.0
 10
4.9768197018
 20
2.3200124078
 30
0.0
 10
4.9940733203
 20
2.286035908
 30
0.0
 10
5.0129879648
 20
2.2529395743
 30
0.0
 10
5.0335180793
 20
2.2208031473
 30
0.0
 10
5.0556142639
 20
2.1897040931
 30
0.0
 10
5.0792232048
 20
2.1597172871
 30
0.0
 10
5.1042879932
 20
2.1309149403
 30
0.0
 10
5.1307482647
 20
2.1033664508
 30
0.0
 10
5.1585403196
 20
2.0771382392
 30
0.0
 10
5.1875971362
 20
2.052293422
 30
0.0
 10
5.2178486958
 20
2.0288918224
 30
0.0
 10
5.2492221329
 20
2.0069898222
 30
0.0
 10
5.28164191
 20
1.9866402459
 30
0.0
 10
5.3150298742
 20
1.9678920398
 30
0.0
 10
5.349305581
 20
1.9507903282
 30
0.0
 10
5.3843864782
 20
1.9353763259
 30
0.0
 10
5.420188085
 20
1.9216872281
 30
0.0
 10
5.4566241213
 20
1.9097559413
 30
0.0
 10
5.493606809
 20
1.8996111459
 30
0.0
 10
5.5310471281
 20
1.8912773076
 30
0.0
 10
5.5688546438
 20
1.8847746808
 30
0.0
 10
5.6069390803
 20
1.880118493
 30
0.0
 10
5.6452069003
 20
1.8773205513
 30
0.0
 10
5.6707826824
 20
1.8766981495
 30
0.0
 10
5.6835683383
 20
1.8766981495
 30
0.0
  0
SPLINE
  5
614
100
AcDbEntity
  8
0
100
AcDbSpline
 62
7
  6
CONTINUOUS
 70
0
 71
3
 72
39
 73
35
 74
0
 42
0.0000001
 43
0.0000001
 44
0.0000000001
 40
0.0
 40
0.0
 40
0.0
 40
0.0
 40
0.0311127619
 40
0.0622268464
 40
0.093343571
 40
0.1244642252
 40
0.1555900518
 40
0.1867222539
 40
0.2178619657
 40
0.2490102504
 40
0.280168095
 40
0.311336374
 40
0.3425158802
 40
0.3737072964
 40
0.4049111709
 40
0.4361279545
 40
0.4673579598
 40
0.4986013721
 40
0.5298582617
 40
0.5611285428
 40
0.5924120229
 40
0.6237083834
 40
0.6550171604
 40
0.6863377942
 40
0.717669601
 40
0.7490117877
 40
0.780363474
 40
0.81172368
 40
0.8430913163
 40
0.8744653124
 40
0.9058445082
 40
0.9372271197
 40
0.9686136906
 40
1.0
 40
1.0
 40
1.0
 40
1.0
 10
6.4650683383
 20
2.6513631872
 30
0.0
 10
6.4650683383
 20
2.6386889647
 30
0.0
 10
6.4644404642
 20
2.6133354965
 30
0.0
 10
6.4616174054
 20
2.575400794
 30
0.0
 10
6.4569199227
 20
2.5376481451
 30
0.0
 10
6.4503593095
 20
2.5001697339
 30
0.0
 10
6.4419512947
 20
2.4630555498
 30
0.0
 10
6.4317162231
 20
2.4263950887
 30
0.0
 10
6.4196787893
 20
2.3902766404
 30
0.0
 10
6.4058679707
 20
2.3547872345
 30
0.0
 10
6.3903169748
 20
2.3200124078
 30
0.0
 10
6.3730633563
 20
2.286035908
 30
0.0
 10
6.3541487118
 20
2.2529395743
 30
0.0
 10
6.3336185973
 20
2.2208031473
 30
0.0
 10
6.3115224126
 20
2.1897040931
 30
0.0
 10
6.2879134717
 20
2.1597172871
 30
0.0
 10
6.2628486834
 20
2.1309149403
 30
0.0
 10
6.2363884118
 20
2.1033664508
 30
0.0
 10
6.2085963569
 20
2.0771382392
 30
0.0
 10
6.1795395403
 20
2.052293422
 30
0.0
 10
6.1492879808
 20
2.0288918224
 30
0.0
 10
6.1179145437
 20
2.0069898222
 30
0.0
 10
6.0854947666
 20
1.9866402459
 30
0.0
 10
6.0521068024
 20
1.9678920398
 30
0.0
 10
6.0178310956
 20
1.9507903282
 30
0.0
 10
5.9827501984
 20
1.9353763259
 30
0.0
 10
5.9469485915
 20
1.9216872281
 30
0.0
 10
5.9105125553
 20
1.9097559413
 30
0.0
 10
5.8735298676
 20
1.8996111459
 30
0.0
 10
5.8360895485
 20
1.8912773076
 30
0.0
 10
5.7982820327
 20
1.8847746808
 30
0.0
 10
5.7601975963
 20
1.880118493
 30
0.0
 10
5.7219297763
 20
1.8773205513
 30
0.0
 10
5.6963539942
 20
1.8766981495
 30
0.0
 10
5.6835683383
 20
1.8766981495
 30
0.0
  0
SPLINE
  5
615
100
AcDbEntity
  8
0
100
AcDbSpline
 62
7
  6
CONTINUOUS
 70
0
 71
3
 72
11
 73
7
 74
0
 42
0.0000001
 43
0.0000001
 44
0.0000000001
 40
0.0
 40
0.0
 40
0.0
 40
0.0
 40
0.2906657346
 40
0.5
 40
0.7093342654
 40
1.0
 40
1.0
 40
1.0
 40
1.0
 10
9.7585683383
 20
11.6629655713
 30
0.0
 10
9.7585683383
 20
11.6767062761
 30
0.0
 10
9.7557337054
 20
11.7003428854
 30
0.0
 10
9.7235683383
 20
11.7182502927
 30
0.0
 10
9.6914029711
 20
11.7003428854
 30
0.0
 10
9.6885683383
 20
11.6767062761
 30
0.0
 10
9.6885683383
 20
11.6629655713
 30
0.0
  0
SPLINE
  5
616
100
AcDbEntity
  8
0
100
AcDbSpline
 62
7
  6
CONTINUOUS
 70
0
 71
3
 72
11
 73
7
 74
0
 42
0.0000001
 43
0.0000001
 44
0.0000000001
 40
0.0
 40
0.0
 40
0.0
 40
0.0
 40
0.2906657346
 40
0.5
 40
0.7093342654
 40
1.0
 40
1.0
 40
1.0
 40
1.0
 10
9.6885683383
 20
11.6629655713
 30
0.0
 10
9.6885683383
 20
11.6492248665
 30
0.0
 10
9.6914029711
 20
11.6255882572
 30
0.0
 10
9.7235683383
 20
11.6076808499
 30
0.0
 10
9.7557337054
 20
11.6255882572
 30
0.0
 10
9.7585683383
 20
11.6492248665
 30
0.0
 10
9.7585683383
 20
11.6629655713
 30
0.0
  0
SPLINE
  5
617
100
AcDbEntity
  8
0
100
AcDbSpline
 62
7
  6
CONTINUOUS
 70
0
 71
3
 72
11
 73
7
 74
0
 42
0.0000001
 43
0.0000001
 44
0.0000000001
 40
0.0
 40
0.0
 40
0.0
 40
0.0
 40
0.2856552383
 40
0.4992298503
 40
0.7128044624
 40
1.0
 40
1.0
 40
1.0
 40
1.0
 10
9.7830320607
 20
11.9769202106
 30
0.0
 10
9.7845495197
 20
11.9825834447
 30
0.0
 10
9.7865228346
 20
11.9926627406
 30
0.0
 10
9.7748545915
 20
12.0037612467
 30
0.0
 10
9.7593469769
 20
11.9999083177
 30
0.0
 10
9.7555706667
 20
11.9903439923
 30
0.0
 10
9.7540542859
 20
11.9846847819
 30
0.0
  0
SPLINE
  5
618
100
AcDbEntity
  8
0
100
AcDbSpline
 62
7
  6
CONTINUOUS
 70
0
 71
3
 72
11
 73
7
 74
0
 42
0.0000001
 43
0.0000001
 44
0.0000000001
 40
0.0
 40
0.0
 40
0.0
 40
0.0
 40
0.2871955376
 40
0.5007701497
 40
0.7143447617
 40
1.0
 40
1.0
 40
1.0
 40
1.0
 10
9.7540542859
 20
11.9846847819
 30
0.0
 10
9.752537905
 20
11.9790255716
 30
0.0
 10
9.7510261229
 20
11.9688544678
 30
0.0
 10
9.7625296466
 20
11.957763926
 30
0.0
 10
9.7781838946
 20
11.9615413927
 30
0.0
 10
9.7815146016
 20
11.9712569765
 30
0.0
 10
9.7830320607
 20
11.9769202106
 30
0.0
  0
SPLINE
  5
619
100
AcDbEntity
  8
0
100
AcDbSpline
 62
7
  6
CONTINUOUS
 70
0
 71
3
 72
11
 73
7
 74
0
 42
0.0000001
 43
0.0000001
 44
0.0000000001
 40
0.0
 40
0.0
 40
0.0
 40
0.0
 40
0.2856552383
 40
0.4992298503
 40
0.7128044624
 40
1.0
 40
1.0
 40
1.0
 40
1.0
 10
1.7830320607
 20
11.9769202106
 30
0.0
 10
1.7845495197
 20
11.9825834447
 30
0.0
 10
1.7865228346
 20
11.9926627406
 30
0.0
 10
1.7748545915
 20
12.0037612467
 30
0.0
 10
1.7593469769
 20
11.9999083177
 30
0.0
 10
1.7555706667
 20
11.9903439923
 30
0.0
 10
1.7540542859
 20
11.9846847819
 30
0.0
  0
SPLINE
  5
61A
100
AcDbEntity
  8
0
100
AcDbSpline
 62
7
  6
CONTINUOUS
 70
0
 71
3
 72
11
 73
7
 74
0
 42
0.0000001
 43
0.0000001
 44
0.0000000001
 40
0.0
 40
0.0
 40
0.0
 40
0.0
 40
0.2871955376
 40
0.5007701497
 40
0.7143447617
 40
1.0
 40
1.0
 40
1.0
 40
1.0
 10
1.7540542859
 20
11.9846847819
 30
0.0
 10
1.752537905
 20
11.9790255716
 30
0.0
 10
1.7510261229
 20
11.9688544678
 30
0.0
 10
1.7625296466
 20
11.957763926
 30
0.0
 10
1.7781838946
 20
11.9615413927
 30
0.0
 10
1.7815146016
 20
11.9712569765
 30
0.0
 10
1.7830320607
 20
11.9769202106
 30
0.0
  0
SPLINE
  5
61B
100
AcDbEntity
  8
0
100
AcDbSpline
 62
7
  6
CONTINUOUS
 70
0
 71
3
 72
11
 73
7
 74
0
 42
0.0000001
 43
0.0000001
 44
0.0000000001
 40
0.0
 40
0.0
 40
0.0
 40
0.0
 40
0.248048877
 40
0.4968891318
 40
0.7472941467
 40
1.0
 40
1.0
 40
1.0
 40
1.0
 10
20.1935683383
 20
11.28257988
 30
0.0
 10
20.1935683383
 20
11.2741187288
 30
0.0
 10
20.1943179797
 20
11.2571600404
 30
0.0
 10
20.1976845763
 20
11.2318607384
 30
0.0
 10
20.2032766672
 20
11.2067962429
 30
0.0
 10
20.208444672
 20
11.1904058805
 30
0.0
 10
20.211378026
 20
11.1823003323
 30
0.0
  0
SPLINE
  5
61C
100
AcDbEntity
  8
0
100
AcDbSpline
 62
7
  6
CONTINUOUS
 70
0
 71
3
 72
11
 73
7
 74
0
 42
0.0000001
 43
0.0000001
 44
0.0000000001
 40
0.0
 40
0.0
 40
0.0
 40
0.0
 40
0.2527058533
 40
0.5031108682
 40
0.751951123
 40
1.0
 40
1.0
 40
1.0
 40
1.0
 10
21.1557586506
 20
11.1823003323
 30
0.0
 10
21.1586920045
 20
11.1904058805
 30
0.0
 10
21.1638600094
 20
11.2067962429
 30
0.0
 10
21.1694521002
 20
11.2318607384
 30
0.0
 10
21.1728186969
 20
11.2571600404
 30
0.0
 10
21.1735683383
 20
11.2741187288
 30
0.0
 10
21.1735683383
 20
11.28257988
 30
0.0
  0
SPLINE
  5
61D
100
AcDbEntity
  8
0
100
AcDbSpline
 62
7
  6
CONTINUOUS
 70
0
 71
3
 72
39
 73
35
 74
0
 42
0.0000001
 43
0.0000001
 44
0.0000000001
 40
0.0
 40
0.0
 40
0.0
 40
0.0
 40
0.0751233566
 40
0.1125572045
 40
0.1498329276
 40
0.1868990943
 40
0.2237055007
 40
0.2602033918
 40
0.2963457775
 40
0.3320877339
 40
0.3673867532
 40
0.4022030465
 40
0.436499892
 40
0.4702440096
 40
0.5034059066
 40
0.5359602668
 40
0.5678863628
 40
0.5991684447
 40
0.6297961692
 40
0.6597650353
 40
0.6890767861
 40
0.7177398329
 40
0.7457696409
 40
0.77318904
 40
0.7866806365
 40
0.8000317124
 40
0.8263294775
 40
0.8521315728
 40
0.8774916286
 40
0.9024704896
 40
0.927135556
 40
0.951559905
 40
0.9758211386
 40
1.0
 40
1.0
 40
1.0
 40
1.0
 10
20.6835683383
 20
5.45810158
 30
0.0
 10
20.7175645611
 20
5.45810158
 30
0.0
 10
20.7685207172
 20
5.4597058645
 30
0.0
 10
20.8361217844
 20
5.4650614767
 30
0.0
 10
20.8864027258
 20
5.4706654645
 30
0.0
 10
20.9361949668
 20
5.4778474055
 30
0.0
 10
20.9853799597
 20
5.4865901365
 30
0.0
 10
21.0338391381
 20
5.4968726493
 30
0.0
 10
21.0814560837
 20
5.5086702677
 30
0.0
 10
21.1281163112
 20
5.5219546845
 30
0.0
 10
21.1737076735
 20
5.5366940393
 30
0.0
 10
21.2181205979
 20
5.5528529977
 30
0.0
 10
21.2612483554
 20
5.5703928437
 30
0.0
 10
21.3029873122
 20
5.5892715794
 30
0.0
 10
21.3432371761
 20
5.6094440313
 30
0.0
 10
21.3819012278
 20
5.630861969
 30
0.0
 10
21.418886544
 20
5.6534742263
 30
0.0
 10
21.4541042095
 20
5.6772268324
 30
0.0
 10
21.487469506
 20
5.7020631412
 30
0.0
 10
21.518902113
 20
5.7279239928
 30
0.0
 10
21.5483262066
 20
5.7547477552
 30
0.0
 10
21.5756708568
 20
5.7824708137
 30
0.0
 10
21.600869273
 20
5.8110264273
 30
0.0
 10
21.6201325377
 20
5.835593023
 30
0.0
 10
21.63438778
 20
5.8555915209
 30
0.0
 10
21.6477353758
 20
5.8755992293
 30
0.0
 10
21.6630040201
 20
5.9010053569
 30
0.0
 10
21.6790580487
 20
5.9321955665
 30
0.0
 10
21.6927124413
 20
5.9638616483
 30
0.0
 10
21.7039322801
 20
5.9959265063
 30
0.0
 10
21.7126890733
 20
6.0283122695
 30
0.0
 10
21.7189602431
 20
6.0609405043
 30
0.0
 10
21.7227295146
 20
6.0937286397
 30
0.0
 10
21.7235683383
 20
6.1156588246
 30
0.0
 10
21.7235683383
 20
6.126600694
 30
0.0
  0
SPLINE
  5
61E
100
AcDbEntity
  8
0
100
AcDbSpline
 62
7
  6
CONTINUOUS
 70
0
 71
3
 72
51
 73
47
 74
0
 42
0.0000001
 43
0.0000001
 44
0.0000000001
 40
0.0
 40
0.0
 40
0.0
 40
0.0
 40
0.0135005059
 40
0.0270243681
 40
0.0405930944
 40
0.0542291616
 40
0.0679532297
 40
0.0817849792
 40
0.0957425663
 40
0.109842467
 40
0.1240993303
 40
0.1385258273
 40
0.153132581
 40
0.1679281342
 40
0.1980993627
 40
0.2290767953
 40
0.2608551666
 40
0.2933999619
 40
0.3266505376
 40
0.3605237505
 40
0.3949175842
 40
0.4297150207
 40
0.4647877497
 40
0.5
 40
0.5352122503
 40
0.5702849793
 40
0.6050824158
 40
0.6394762495
 40
0.6733494624
 40
0.7066000381
 40
0.7391448334
 40
0.7709232047
 40
0.8019006373
 40
0.8320718658
 40
0.846867419
 40
0.8614741727
 40
0.8759006697
 40
0.890157533
 40
0.9042574337
 40
0.9182150208
 40
0.9320467703
 40
0.9457708384
 40
0.9594069056
 40
0.9729756319
 40
0.9864994941
 40
1.0
 40
1.0
 40
1.0
 40
1.0
 10
20.2335683383
 20
8.3308991763
 30
0.0
 10
20.2335683383
 20
8.3365401863
 30
0.0
 10
20.2339306073
 20
8.3478352983
 30
0.0
 10
20.2355587319
 20
8.3647292936
 30
0.0
 10
20.2382679969
 20
8.3815419099
 30
0.0
 10
20.2420513997
 20
8.3982312417
 30
0.0
 10
20.2468998067
 20
8.4147572442
 30
0.0
 10
20.2528011979
 20
8.4310797862
 30
0.0
 10
20.2597410505
 20
8.4471594676
 30
0.0
 10
20.2677023467
 20
8.4629574818
 30
0.0
 10
20.2766656479
 20
8.4784358012
 30
0.0
 10
20.2866090181
 20
8.4935570745
 30
0.0
 10
20.2975086321
 20
8.5082853553
 30
0.0
 10
20.3133811288
 20
8.527473327
 30
0.0
 10
20.335526658
 20
8.5502858926
 30
0.0
 10
20.3652590932
 20
8.5753503121
 30
0.0
 10
20.3980412038
 20
8.5980554667
 30
0.0
 10
20.4335554645
 20
8.6181852122
 30
0.0
 10
20.4714615599
 20
8.635550891
 30
0.0
 10
20.5113963159
 20
8.6499885454
 30
0.0
 10
20.552977644
 20
8.6613619649
 30
0.0
 10
20.5958078161
 20
8.6695636438
 30
0.0
 10
20.6394772563
 20
8.6745158883
 30
0.0
 10
20.6835683383
 20
8.6761719145
 30
0.0
 10
20.7276594202
 20
8.6745158883
 30
0.0
 10
20.7713288605
 20
8.6695636438
 30
0.0
 10
20.8141590326
 20
8.6613619649
 30
0.0
 10
20.8557403607
 20
8.6499885454
 30
0.0
 10
20.8956751167
 20
8.635550891
 30
0.0
 10
20.933581212
 20
8.6181852122
 30
0.0
 10
20.9690954728
 20
8.5980554667
 30
0.0
 10
21.0018775834
 20
8.5753503121
 30
0.0
 10
21.0316100185
 20
8.5502858926
 30
0.0
 10
21.0537555478
 20
8.527473327
 30
0.0
 10
21.0696280445
 20
8.5082853553
 30
0.0
 10
21.0805276585
 20
8.4935570745
 30
0.0
 10
21.0904710286
 20
8.4784358012
 30
0.0
 10
21.0994343299
 20
8.4629574818
 30
0.0
 10
21.1073956261
 20
8.4471594676
 30
0.0
 10
21.1143354787
 20
8.4310797862
 30
0.0
 10
21.1202368699
 20
8.4147572442
 30
0.0
 10
21.1250852768
 20
8.3982312417
 30
0.0
 10
21.1288686796
 20
8.3815419099
 30
0.0
 10
21.1315779447
 20
8.3647292936
 30
0.0
 10
21.1332060693
 20
8.3478352983
 30
0.0
 10
21.1335683383
 20
8.3365401863
 30
0.0
 10
21.1335683383
 20
8.3308991763
 30
0.0
  0
SPLINE
  5
61F
100
AcDbEntity
  8
0
100
AcDbSpline
 62
7
  6
CONTINUOUS
 70
0
 71
3
 72
11
 73
7
 74
0
 42
0.0000001
 43
0.0000001
 44
0.0000000001
 40
0.0
 40
0.0
 40
0.0
 40
0.0
 40
0.271807482
 40
0.4996624675
 40
0.727528153
 40
1.0
 40
1.0
 40
1.0
 40
1.0
 10
1.795685689
 20
11.9735296811
 30
0.0
 10
1.793504434
 20
11.9653880328
 30
0.0
 10
1.7849983655
 20
11.9516260842
 30
0.0
 10
1.7602225245
 20
11.9491016704
 30
0.0
 10
1.7401051049
 20
11.9636775847
 30
0.0
 10
1.7394129991
 20
11.9798836471
 30
0.0
 10
1.7415938838
 20
11.9880237011
 30
0.0
  0
SPLINE
  5
620
100
AcDbEntity
  8
0
100
AcDbSpline
 62
7
  6
CONTINUOUS
 70
0
 71
3
 72
11
 73
7
 74
0
 42
0.0000001
 43
0.0000001
 44
0.0000000001
 40
0.0
 40
0.0
 40
0.0
 40
0.0
 40
0.2724684209
 40
0.5003046949
 40
0.728192518
 40
1.0
 40
1.0
 40
1.0
 40
1.0
 10
1.7415938838
 20
11.9880237011
 30
0.0
 10
1.7437747411
 20
11.9961636529
 30
0.0
 10
1.7524756935
 20
12.0098517199
 30
0.0
 10
1.7771912954
 20
12.0124155513
 30
0.0
 10
1.7973804259
 20
11.9978439538
 30
0.0
 10
1.797866944
 20
11.9816713293
 30
0.0
 10
1.795685689
 20
11.9735296811
 30
0.0
  0
SPLINE
  5
621
100
AcDbEntity
  8
0
100
AcDbSpline
 62
7
  6
CONTINUOUS
 70
0
 71
3
 72
12
 73
8
 74
0
 42
0.0000001
 43
0.0000001
 44
0.0000000001
 40
0.0
 40
0.0
 40
0.0
 40
0.0
 40
0.1951112257
 40
0.2906771722
 40
0.5118928084
 40
0.8199224049
 40
1.0
 40
1.0
 40
1.0
 40
1.0
 10
1.8055101643
 20
11.3810909575
 30
0.0
 10
1.8012256457
 20
11.3773321853
 30
0.0
 10
1.7985459904
 20
11.3704573332
 30
0.0
 10
1.8098596617
 20
11.3682516368
 30
0.0
 10
1.821099272
 20
11.3729423504
 30
0.0
 10
1.8314903104
 20
11.3763509994
 30
0.0
 10
1.8409407911
 20
11.3747762561
 30
0.0
 10
1.8458569916
 20
11.373423922
 30
0.0
  0
SPLINE
  5
622
100
AcDbEntity
  8
0
100
AcDbSpline
 62
7
  6
CONTINUOUS
 70
0
 71
3
 72
11
 73
7
 74
0
 42
0.0000001
 43
0.0000001
 44
0.0000000001
 40
0.0
 40
0.0
 40
0.0
 40
0.0
 40
0.1272293453
 40
0.4753759124
 40
0.7537985656
 40
1.0
 40
1.0
 40
1.0
 40
1.0
 10
1.8403255816
 20
11.350460594
 30
0.0
 10
1.8423672679
 20
11.3527746552
 30
0.0
 10
1.8443562012
 20
11.3604601421
 30
0.0
 10
1.8253006852
 20
11.3597262322
 30
0.0
 10
1.8123963163
 20
11.353407378
 30
0.0
 10
1.8046831071
 20
11.3539354519
 30
0.0
 10
1.799523353
 20
11.3551283252
 30
0.0
  0
SPLINE
  5
623
100
AcDbEntity
  8
0
100
AcDbSpline
 62
7
  6
CONTINUOUS
 70
0
 71
3
 72
12
 73
8
 74
0
 42
0.0000001
 43
0.0000001
 44
0.0000000001
 40
0.0
 40
0.0
 40
0.0
 40
0.0
 40
0.1951112257
 40
0.2906771722
 40
0.5118928084
 40
0.8199224049
 40
1.0
 40
1.0
 40
1.0
 40
1.0
 10
1.7389768117
 20
11.3608844433
 30
0.0
 10
1.7339565652
 20
11.3581858151
 30
0.0
 10
1.7297990841
 20
11.3520899563
 30
0.0
 10
1.740326613
 20
11.3473957695
 30
0.0
 10
1.7523333338
 20
11.3494378982
 30
0.0
 10
1.7632248297
 20
11.3504217088
 30
0.0
 10
1.772078855
 20
11.3467614304
 30
0.0
 10
1.7765648447
 20
11.3443378521
 30
0.0
  0
SPLINE
  5
624
100
AcDbEntity
  8
0
100
AcDbSpline
 62
7
  6
CONTINUOUS
 70
0
 71
3
 72
11
 73
7
 74
0
 42
0.0000001
 43
0.0000001
 44
0.0000000001
 40
0.0
 40
0.0
 40
0.0
 40
0.0
 40
0.1272293453
 40
0.4753759124
 40
0.7537985656
 40
1.0
 40
1.0
 40
1.0
 40
1.0
 10
1.7660095795
 20
11.3232073691
 30
0.0
 10
1.768519488
 20
11.3250028416
 30
0.0
 10
1.7721863034
 20
11.3320439374
 30
0.0
 10
1.7534540853
 20
11.335615396
 30
0.0
 10
1.7394590217
 20
11.332361345
 30
0.0
 10
1.7320622923
 20
11.3346109789
 30
0.0
 10
1.7273031204
 20
11.3369339711
 30
0.0
  0
SPLINE
  5
625
100
AcDbEntity
  8
0
100
AcDbSpline
 62
7
  6
CONTINUOUS
 70
0
 71
3
 72
19
 73
15
 74
0
 42
0.0000001
 43
0.0000001
 44
0.0000000001
 40
0.0
 40
0.0
 40
0.0
 40
0.0
 40
0.0596275058
 40
0.1193365492
 40
0.1791965091
 40
0.2392858855
 40
0.2996766765
 40
0.3604374434
 40
0.4216335101
 40
0.483325328
 40
0.6083718623
 40
0.735996172
 40
0.8664786433
 40
1.0
 40
1.0
 40
1.0
 40
1.0
 10
21.0935683383
 20
10.6243653677
 30
0.0
 10
21.0935683383
 20
10.6288674073
 30
0.0
 10
21.093315158
 20
10.6378796839
 30
0.0
 10
21.092177181
 20
10.6513683168
 30
0.0
 10
21.0902827429
 20
10.6648072593
 30
0.0
 10
21.0876355874
 20
10.678170674
 30
0.0
 10
21.0842406915
 20
10.6914341321
 30
0.0
 10
21.0801044892
 20
10.7045728328
 30
0.0
 10
21.0752344752
 20
10.7175627339
 30
0.0
 10
21.0677431552
 20
10.734726064
 30
0.0
 10
21.0565535846
 20
10.7557095145
 30
0.0
 10
21.0404328231
 20
10.7797853575
 30
0.0
 10
21.0216795472
 20
10.8027007363
 30
0.0
 10
21.0076756989
 20
10.8169296263
 30
0.0
 10
21.0003007001
 20
10.8238028014
 30
0.0
  0
SPLINE
  5
626
100
AcDbEntity
  8
0
100
AcDbSpline
 62
7
  6
CONTINUOUS
 70
0
 71
3
 72
15
 73
11
 74
0
 42
0.0000001
 43
0.0000001
 44
0.0000000001
 40
0.0
 40
0.0
 40
0.0
 40
0.0
 40
0.120955749
 40
0.2423305646
 40
0.3645339856
 40
0.4879480177
 40
0.6129214439
 40
0.7397595102
 40
0.8687181469
 40
1.0
 40
1.0
 40
1.0
 40
1.0
 10
21.1335683383
 20
10.9258327566
 30
0.0
 10
21.1335683383
 20
10.9177325408
 30
0.0
 10
21.1328199434
 20
10.901494195
 30
0.0
 10
21.1294599053
 20
10.8772816084
 30
0.0
 10
21.123879561
 20
10.853311973
 30
0.0
 10
21.1161079042
 20
10.829708383
 30
0.0
 10
21.1061854108
 20
10.8065883622
 30
0.0
 10
21.0941627936
 20
10.7840668599
 30
0.0
 10
21.080102719
 20
10.762257016
 30
0.0
 10
21.0695138981
 20
10.7483885455
 30
0.0
 10
21.0639174298
 20
10.7416081169
 30
0.0
  0
SPLINE
  5
627
100
AcDbEntity
  8
0
100
AcDbSpline
 62
7
  6
CONTINUOUS
 70
0
 71
3
 72
32
 73
28
 74
0
 42
0.0000001
 43
0.0000001
 44
0.0000000001
 40
0.0
 40
0.0
 40
0.0
 40
0.0
 40
0.0263365919
 40
0.0527477208
 40
0.079306182
 40
0.1060811363
 40
0.1331366712
 40
0.1605304464
 40
0.1883126693
 40
0.2165253228
 40
0.2452017397
 40
0.27436633
 40
0.3040346338
 40
0.3342134788
 40
0.3960606728
 40
0.4277305366
 40
0.4598591668
 40
0.5253433742
 40
0.5586461819
 40
0.5922564054
 40
0.6601803638
 40
0.7287151525
 40
0.7974108208
 40
0.8658102089
 40
0.8997695768
 40
0.9334908135
 40
1.0
 40
1.0
 40
1.0
 40
1.0
 10
21.1335683383
 20
10.9901115176
 30
0.0
 10
21.1335683383
 20
10.997419544
 30
0.0
 10
21.1329596106
 20
11.0120635198
 30
0.0
 10
21.1302254829
 20
11.0339233171
 30
0.0
 10
21.125681479
 20
11.0556051645
 30
0.0
 10
21.1193467474
 20
11.0770184973
 30
0.0
 10
21.1112478915
 20
11.0980766308
 30
0.0
 10
21.1014187168
 20
11.1186939376
 30
0.0
 10
21.0899000202
 20
11.138787053
 30
0.0
 10
21.0767393629
 20
11.1582749201
 30
0.0
 10
21.0619907186
 20
11.177079206
 30
0.0
 10
21.0457146685
 20
11.195124229
 30
0.0
 10
21.0279764209
 20
11.2123384261
 30
0.0
 10
21.0022702204
 20
11.2342638522
 30
0.0
 10
20.9741022645
 20
11.254050121
 30
0.0
 10
20.9439346415
 20
11.2715555787
 30
0.0
 10
20.9119249144
 20
11.2877882133
 30
0.0
 10
20.8782000538
 20
11.301511085
 30
0.0
 10
20.8431833481
 20
11.3126660763
 30
0.0
 10
20.8069831805
 20
11.3221823509
 30
0.0
 10
20.7604801925
 20
11.3306996281
 30
0.0
 10
20.7036593057
 20
11.3354148628
 30
0.0
 10
20.6465175523
 20
11.3345907618
 30
0.0
 10
20.5992668848
 20
11.3292832544
 30
0.0
 10
20.5621458096
 20
11.322286325
 30
0.0
 10
20.5259360617
 20
11.3135604071
 30
0.0
 10
20.4994081926
 20
11.3049887489
 30
0.0
 10
20.4821758069
 20
11.2983823393
 30
0.0
  0
SPLINE
  5
628
100
AcDbEntity
  8
0
100
AcDbSpline
 62
7
  6
CONTINUOUS
 70
0
 71
3
 72
22
 73
18
 74
0
 42
0.0000001
 43
0.0000001
 44
0.0000000001
 40
0.0
 40
0.0
 40
0.0
 40
0.0
 40
0.1396559798
 40
0.2079672409
 40
0.2751564123
 40
0.3411786081
 40
0.4060094959
 40
0.4696467276
 40
0.5321113222
 40
0.5934485326
 40
0.6537282656
 40
0.7130449175
 40
0.7715163482
 40
0.829282042
 40
0.8865005327
 40
0.943344858
 40
1.0
 40
1.0
 40
1.0
 40
1.0
 10
20.4821758069
 20
11.2983823393
 30
0.0
 10
20.4638767163
 20
11.2913669852
 30
0.0
 10
20.4371813858
 20
11.2793509489
 30
0.0
 10
20.4035638888
 20
11.2603204607
 30
0.0
 10
20.3798628832
 20
11.2448556795
 30
0.0
 10
20.3576117738
 20
11.2281719784
 30
0.0
 10
20.3369151527
 20
11.2103473235
 30
0.0
 10
20.3178728283
 20
11.1914662194
 30
0.0
 10
20.3005763141
 20
11.1716179385
 30
0.0
 10
20.285109216
 20
11.1508965333
 30
0.0
 10
20.271546638
 20
11.1294003708
 30
0.0
 10
20.2599548372
 20
11.1072318247
 30
0.0
 10
20.2503908502
 20
11.0844967881
 30
0.0
 10
20.2429020382
 20
11.061304561
 30
0.0
 10
20.2375258539
 20
11.0377662887
 30
0.0
 10
20.2342891917
 20
11.0139984209
 30
0.0
 10
20.2335683383
 20
10.9980618643
 30
0.0
 10
20.2335683383
 20
10.9901115176
 30
0.0
  0
SPLINE
  5
629
100
AcDbEntity
  8
0
100
AcDbSpline
 62
7
  6
CONTINUOUS
 70
0
 71
3
 72
11
 73
7
 74
0
 42
0.0000001
 43
0.0000001
 44
0.0000000001
 40
0.0
 40
0.0
 40
0.0
 40
0.0
 40
0.2734606541
 40
0.499994681
 40
0.7265393459
 40
1.0
 40
1.0
 40
1.0
 40
1.0
 10
9.7885683383
 20
11.6629655713
 30
0.0
 10
9.7885690005
 20
11.6433260252
 30
0.0
 10
9.7773278656
 20
11.6074172159
 30
0.0
 10
9.7235669369
 20
11.5864180218
 30
0.0
 10
9.6698099481
 20
11.6074164094
 30
0.0
 10
9.6585689491
 20
11.6433260464
 30
0.0
 10
9.6585683383
 20
11.6629655713
 30
0.0
  0
SPLINE
  5
62A
100
AcDbEntity
  8
0
100
AcDbSpline
 62
7
  6
CONTINUOUS
 70
0
 71
3
 72
11
 73
7
 74
0
 42
0.0000001
 43
0.0000001
 44
0.0000000001
 40
0.0
 40
0.0
 40
0.0
 40
0.0
 40
0.1272293453
 40
0.4753759124
 40
0.7537985656
 40
1.0
 40
1.0
 40
1.0
 40
1.0
 10
9.7660095795
 20
11.3232073691
 30
0.0
 10
9.768519488
 20
11.3250028416
 30
0.0
 10
9.7721863034
 20
11.3320439374
 30
0.0
 10
9.7534540853
 20
11.335615396
 30
0.0
 10
9.7394590217
 20
11.332361345
 30
0.0
 10
9.7320622923
 20
11.3346109789
 30
0.0
 10
9.7273031204
 20
11.3369339711
 30
0.0
  0
SPLINE
  5
62B
100
AcDbEntity
  8
0
100
AcDbSpline
 62
7
  6
CONTINUOUS
 70
0
 71
3
 72
12
 73
8
 74
0
 42
0.0000001
 43
0.0000001
 44
0.0000000001
 40
0.0
 40
0.0
 40
0.0
 40
0.0
 40
0.1951112257
 40
0.2906771722
 40
0.5118928084
 40
0.8199224049
 40
1.0
 40
1.0
 40
1.0
 40
1.0
 10
9.7389768117
 20
11.3608844433
 30
0.0
 10
9.7339565652
 20
11.3581858151
 30
0.0
 10
9.7297990841
 20
11.3520899563
 30
0.0
 10
9.740326613
 20
11.3473957695
 30
0.0
 10
9.7523333338
 20
11.3494378982
 30
0.0
 10
9.7632248297
 20
11.3504217088
 30
0.0
 10
9.772078855
 20
11.3467614304
 30
0.0
 10
9.7765648447
 20
11.3443378521
 30
0.0
  0
SPLINE
  5
62C
100
AcDbEntity
  8
0
100
AcDbSpline
 62
7
  6
CONTINUOUS
 70
0
 71
3
 72
11
 73
7
 74
0
 42
0.0000001
 43
0.0000001
 44
0.0000000001
 40
0.0
 40
0.0
 40
0.0
 40
0.0
 40
0.1272293453
 40
0.4753759124
 40
0.7537985656
 40
1.0
 40
1.0
 40
1.0
 40
1.0
 10
9.8403255816
 20
11.350460594
 30
0.0
 10
9.8423672679
 20
11.3527746552
 30
0.0
 10
9.8443562012
 20
11.3604601421
 30
0.0
 10
9.8253006852
 20
11.3597262322
 30
0.0
 10
9.8123963163
 20
11.353407378
 30
0.0
 10
9.8046831071
 20
11.3539354519
 30
0.0
 10
9.799523353
 20
11.3551283252
 30
0.0
  0
SPLINE
  5
62D
100
AcDbEntity
  8
0
100
AcDbSpline
 62
7
  6
CONTINUOUS
 70
0
 71
3
 72
12
 73
8
 74
0
 42
0.0000001
 43
0.0000001
 44
0.0000000001
 40
0.0
 40
0.0
 40
0.0
 40
0.0
 40
0.1951112257
 40
0.2906771722
 40
0.5118928084
 40
0.8199224049
 40
1.0
 40
1.0
 40
1.0
 40
1.0
 10
9.8055101643
 20
11.3810909575
 30
0.0
 10
9.8012256457
 20
11.3773321853
 30
0.0
 10
9.7985459904
 20
11.3704573332
 30
0.0
 10
9.8098596617
 20
11.3682516368
 30
0.0
 10
9.821099272
 20
11.3729423504
 30
0.0
 10
9.8314903104
 20
11.3763509994
 30
0.0
 10
9.8409407911
 20
11.3747762561
 30
0.0
 10
9.8458569916
 20
11.373423922
 30
0.0
  0
SPLINE
  5
62E
100
AcDbEntity
  8
0
100
AcDbSpline
 62
7
  6
CONTINUOUS
 70
0
 71
3
 72
11
 73
7
 74
0
 42
0.0000001
 43
0.0000001
 44
0.0000000001
 40
0.0
 40
0.0
 40
0.0
 40
0.0
 40
0.2734597226
 40
0.4999743749
 40
0.7265402774
 40
1.0
 40
1.0
 40
1.0
 40
1.0
 10
9.6585683383
 20
11.6629655713
 30
0.0
 10
9.6585677275
 20
11.6826050963
 30
0.0
 10
9.6698058002
 20
11.7185125902
 30
0.0
 10
9.7235755456
 20
11.7395130658
 30
0.0
 10
9.7773233852
 20
11.718516433
 30
0.0
 10
9.788567676
 20
11.6826051174
 30
0.0
 10
9.7885683383
 20
11.6629655713
 30
0.0
  0
SPLINE
  5
62F
100
AcDbEntity
  8
0
100
AcDbSpline
 62
7
  6
CONTINUOUS
 70
0
 71
3
 72
11
 73
7
 74
0
 42
0.0000001
 43
0.0000001
 44
0.0000000001
 40
0.0
 40
0.0
 40
0.0
 40
0.0
 40
0.2724684209
 40
0.5003046949
 40
0.728192518
 40
1.0
 40
1.0
 40
1.0
 40
1.0
 10
9.7415938838
 20
11.9880237011
 30
0.0
 10
9.7437747411
 20
11.9961636529
 30
0.0
 10
9.7524756935
 20
12.0098517199
 30
0.0
 10
9.7771912954
 20
12.0124155513
 30
0.0
 10
9.7973804259
 20
11.9978439538
 30
0.0
 10
9.797866944
 20
11.9816713293
 30
0.0
 10
9.795685689
 20
11.9735296811
 30
0.0
  0
SPLINE
  5
630
100
AcDbEntity
  8
0
100
AcDbSpline
 62
7
  6
CONTINUOUS
 70
0
 71
3
 72
11
 73
7
 74
0
 42
0.0000001
 43
0.0000001
 44
0.0000000001
 40
0.0
 40
0.0
 40
0.0
 40
0.0
 40
0.271807482
 40
0.4996624675
 40
0.727528153
 40
1.0
 40
1.0
 40
1.0
 40
1.0
 10
9.795685689
 20
11.9735296811
 30
0.0
 10
9.793504434
 20
11.9653880328
 30
0.0
 10
9.7849983655
 20
11.9516260842
 30
0.0
 10
9.7602225245
 20
11.9491016704
 30
0.0
 10
9.7401051049
 20
11.9636775847
 30
0.0
 10
9.7394129991
 20
11.9798836471
 30
0.0
 10
9.7415938838
 20
11.9880237011
 30
0.0
  0
SPLINE
  5
631
100
AcDbEntity
  8
0
100
AcDbSpline
 62
9
  6
CONTINUOUS
 70
0
 71
3
 72
15
 73
11
 74
0
 42
0.0000001
 43
0.0000001
 44
0.0000000001
 40
0.0
 40
0.0
 40
0.0
 40
0.0
 40
0.1483124444
 40
0.2895288593
 40
0.4238186646
 40
0.5513842788
 40
0.6724675671
 40
0.7873574025
 40
0.896398315
 40
1.0
 40
1.0
 40
1.0
 40
1.0
 10
5.0754740309
 20
2.8229502412
 30
0.0
 10
5.0708957475
 20
2.8200430475
 30
0.0
 10
5.0620483151
 20
2.8142238591
 30
0.0
 10
5.0494135729
 20
2.8052431115
 30
0.0
 10
5.037746766
 20
2.7962289984
 30
0.0
 10
5.0270507397
 20
2.7871837465
 30
0.0
 10
5.0173282104
 20
2.7781093693
 30
0.0
 10
5.0085818631
 20
2.7690074394
 30
0.0
 10
5.0008152202
 20
2.7598803154
 30
0.0
 10
4.9961801162
 20
2.7536274814
 30
0.0
 10
4.9940415889
 20
2.7505004042
 30
0.0
  0
SPLINE
  5
632
100
AcDbEntity
  8
0
100
AcDbSpline
 62
7
  6
CONTINUOUS
 70
0
 71
3
 72
38
 73
34
 74
0
 42
0.0000001
 43
0.0000001
 44
0.0000000001
 40
0.0
 40
0.0
 40
0.0
 40
0.0
 40
0.0312041618
 40
0.0624008655
 40
0.0935894376
 40
0.1247731827
 40
0.1559534332
 40
0.187131241
 40
0.2183074502
 40
0.2494833939
 40
0.3118290395
 40
0.3741864846
 40
0.4053761729
 40
0.4365716781
 40
0.467773618
 40
0.4989829491
 40
0.5302003329
 40
0.5614270388
 40
0.6239008594
 40
0.6551621058
 40
0.6864367404
 40
0.717725801
 40
0.7490300354
 40
0.7803497901
 40
0.8116853723
 40
0.843037181
 40
0.8587211308
 40
0.8744087929
 40
0.905790658
 40
0.9371845943
 40
0.9528875482
 40
0.9685927534
 40
1.0
 40
1.0
 40
1.0
 40
1.0
 10
5.0754740309
 20
2.8229502412
 30
0.0
 10
5.0766970243
 20
2.8130939177
 30
0.0
 10
5.0796511613
 20
2.7934435219
 30
0.0
 10
5.0854861542
 20
2.7642220555
 30
0.0
 10
5.0926199163
 20
2.735297426
 30
0.0
 10
5.1009581183
 20
2.7067035491
 30
0.0
 10
5.1104201445
 20
2.6784660514
 30
0.0
 10
5.1209364348
 20
2.650607401
 30
0.0
 10
5.1324457595
 20
2.6231458583
 30
0.0
 10
5.1490465863
 20
2.5870874591
 30
0.0
 10
5.1720479233
 20
2.5430835497
 30
0.0
 10
5.1978676824
 20
2.5006684818
 30
0.0
 10
5.2201427549
 20
2.4677944551
 30
0.0
 10
5.2376521404
 20
2.4436893003
 30
0.0
 10
5.2559527703
 20
2.4201714221
 30
0.0
 10
5.2750370114
 20
2.3972756333
 30
0.0
 10
5.2949037299
 20
2.3750434643
 30
0.0
 10
5.3224337729
 20
2.3463484551
 30
0.0
 10
5.3515500431
 20
2.3191825066
 30
0.0
 10
5.3822423715
 20
2.2938469984
 30
0.0
 10
5.4060711975
 20
2.2758302147
 30
0.0
 10
5.4306999093
 20
2.2588980404
 30
0.0
 10
5.4561233842
 20
2.2431543638
 30
0.0
 10
5.4823267538
 20
2.2287117778
 30
0.0
 10
5.5092891624
 20
2.2157030081
 30
0.0
 10
5.5323640629
 20
2.2061837782
 30
0.0
 10
5.5511585134
 20
2.1994417347
 30
0.0
 10
5.5701698042
 20
2.1933066816
 30
0.0
 10
5.5943105479
 20
2.1868294615
 30
0.0
 10
5.6188565082
 20
2.1820738655
 30
0.0
 10
5.638666621
 20
2.1793714472
 30
0.0
 10
5.6585680586
 20
2.1774216802
 30
0.0
 10
5.6735717893
 20
2.1768265784
 30
0.0
 10
5.6835683383
 20
2.1768265784
 30
0.0
  0
SPLINE
  5
633
100
AcDbEntity
  8
0
100
AcDbSpline
 62
9
  6
CONTINUOUS
 70
0
 71
3
 72
35
 73
31
 74
0
 42
0.0000001
 43
0.0000001
 44
0.0000000001
 40
0.0
 40
0.0
 40
0.0
 40
0.0
 40
0.0610207182
 40
0.0917415254
 40
0.1225706456
 40
0.153493189
 40
0.1844964491
 40
0.2155690513
 40
0.2467013712
 40
0.2778848565
 40
0.3091114093
 40
0.3403748396
 40
0.3716695801
 40
0.4029908906
 40
0.4343349871
 40
0.4656983402
 40
0.497078107
 40
0.5284717853
 40
0.5598772189
 40
0.5912923445
 40
0.6227155394
 40
0.6541455552
 40
0.6855809284
 40
0.7484484517
 40
0.8113230766
 40
0.8741991805
 40
0.9056495176
 40
0.9370996598
 40
0.9685502132
 40
1.0
 40
1.0
 40
1.0
 40
1.0
 10
4.9940416923
 20
2.7505005556
 30
0.0
 10
4.995110402
 20
2.7293811259
 30
0.0
 10
4.9989622565
 20
2.6977032473
 30
0.0
 10
5.007872583
 20
2.6561594848
 30
0.0
 10
5.0163481903
 20
2.6252358888
 30
0.0
 10
5.0264706635
 20
2.5947134757
 30
0.0
 10
5.0381251516
 20
2.5646527916
 30
0.0
 10
5.0512084424
 20
2.5351078545
 30
0.0
 10
5.0656310661
 20
2.5061243286
 30
0.0
 10
5.0813066746
 20
2.477738968
 30
0.0
 10
5.0981536958
 20
2.4499804931
 30
0.0
 10
5.116105117
 20
2.422877477
 30
0.0
 10
5.1351032038
 20
2.3964575928
 30
0.0
 10
5.1550984395
 20
2.3707489908
 30
0.0
 10
5.1760498003
 20
2.3457825731
 30
0.0
 10
5.1979210554
 20
2.321590657
 30
0.0
 10
5.2206833167
 20
2.2982110683
 30
0.0
 10
5.2443076508
 20
2.2756816957
 30
0.0
 10
5.2687655528
 20
2.2540413985
 30
0.0
 10
5.2940336486
 20
2.2333362147
 30
0.0
 10
5.3200893726
 20
2.2136170036
 30
0.0
 10
5.3469128842
 20
2.1949410804
 30
0.0
 10
5.3836689976
 20
2.1715240921
 30
0.0
 10
5.4314478591
 20
2.1452069947
 30
0.0
 10
5.491477903
 20
2.1190964964
 30
0.0
 10
5.5435032244
 20
2.1025460472
 30
0.0
 10
5.5860306272
 20
2.0928966221
 30
0.0
 10
5.6183128036
 20
2.0875720064
 30
0.0
 10
5.6508650931
 20
2.0842843959
 30
0.0
 10
5.6726695578
 20
2.0835277944
 30
0.0
 10
5.6835683383
 20
2.0835258927
 30
0.0
  0
SPLINE
  5
634
100
AcDbEntity
  8
0
100
AcDbSpline
 62
9
  6
CONTINUOUS
 70
0
 71
3
 72
15
 73
11
 74
0
 42
0.0000001
 43
0.0000001
 44
0.0000000001
 40
0.0
 40
0.0
 40
0.0
 40
0.0
 40
0.148312393
 40
0.2895287736
 40
0.423818561
 40
0.5513841724
 40
0.6724674717
 40
0.7873573301
 40
0.8963982753
 40
1.0
 40
1.0
 40
1.0
 40
1.0
 10
6.2916626457
 20
2.8229502412
 30
0.0
 10
6.2962409199
 20
2.8200430534
 30
0.0
 10
6.305088335
 20
2.8142238767
 30
0.0
 10
6.3177230541
 20
2.8052431478
 30
0.0
 10
6.3293898417
 20
2.7962290535
 30
0.0
 10
6.3400858529
 20
2.7871838204
 30
0.0
 10
6.3498083711
 20
2.7781094622
 30
0.0
 10
6.3585547113
 20
2.7690075514
 30
0.0
 10
6.3663213512
 20
2.7598804467
 30
0.0
 10
6.3709564558
 20
2.753627626
 30
0.0
 10
6.3730949842
 20
2.7505005556
 30
0.0
  0
SPLINE
  5
635
100
AcDbEntity
  8
0
100
AcDbSpline
 62
7
  6
CONTINUOUS
 70
0
 71
3
 72
45
 73
41
 74
0
 42
0.0000001
 43
0.0000001
 44
0.0000000001
 40
0.0
 40
0.0
 40
0.0
 40
0.0
 40
0.0134482566
 40
0.0269763738
 40
0.0406000226
 40
0.0543337527
 40
0.0681909229
 40
0.0821836021
 40
0.1106076435
 40
0.139683296
 40
0.169454284
 40
0.1999404746
 40
0.2311388382
 40
0.2630251282
 40
0.2955558461
 40
0.3286705288
 40
0.3622941146
 40
0.3963393594
 40
0.4307093297
 40
0.4652997943
 40
0.5000017071
 40
0.5347035957
 40
0.5692939883
 40
0.6036638404
 40
0.6377089233
 40
0.6713323073
 40
0.704446753
 40
0.7369772043
 40
0.7688632053
 40
0.800061265
 40
0.8305471456
 40
0.8603178272
 40
0.889393187
 40
0.9178169598
 40
0.9318095171
 40
0.9456665752
 40
0.9594002043
 40
0.9730237641
 40
0.9865518054
 40
1.0
 40
1.0
 40
1.0
 40
1.0
 10
21.1650600016
 20
11.4374487846
 30
0.0
 10
21.1639336753
 20
11.4428934736
 30
0.0
 10
21.161363239
 20
11.4537533851
 30
0.0
 10
21.1565846561
 20
11.4698528646
 30
0.0
 10
21.1508822205
 20
11.4857746092
 30
0.0
 10
21.1442675181
 20
11.5014867007
 30
0.0
 10
21.1367532952
 20
11.5169590353
 30
0.0
 10
21.1254985332
 20
11.5373313523
 30
0.0
 10
21.1092079358
 20
11.5620605
 30
0.0
 10
21.0864502035
 20
11.5901287126
 30
0.0
 10
21.0605574499
 20
11.6165391993
 30
0.0
 10
21.0317351294
 20
11.6410869633
 30
0.0
 10
21.0002088888
 20
11.6635848912
 30
0.0
 10
20.9662247868
 20
11.6838605134
 30
0.0
 10
20.9300473686
 20
11.7017587827
 30
0.0
 10
20.8919576742
 20
11.7171423985
 30
0.0
 10
20.8522514245
 20
11.7298934283
 30
0.0
 10
20.8112366817
 20
11.7399138997
 30
0.0
 10
20.7692316224
 20
11.7471267619
 30
0.0
 10
20.7265620814
 20
11.7514765959
 30
0.0
 10
20.6835590369
 20
11.7529298054
 30
0.0
 10
20.6405560646
 20
11.7514753405
 30
0.0
 10
20.5978867394
 20
11.7471242606
 30
0.0
 10
20.5558820381
 20
11.739910172
 30
0.0
 10
20.5148677925
 20
11.7298885026
 30
0.0
 10
20.4751621755
 20
11.717136313
 30
0.0
 10
20.4370732445
 20
11.7017515838
 30
0.0
 10
20.4008967143
 20
11.6838522565
 30
0.0
 10
20.3669136183
 20
11.6635756394
 30
0.0
 10
20.3353884941
 20
11.6410767874
 30
0.0
 10
20.306567392
 20
11.6165281774
 30
0.0
 10
20.2806759502
 20
11.5901169287
 30
0.0
 10
20.2579196125
 20
11.562048045
 30
0.0
 10
20.241630249
 20
11.5373184209
 30
0.0
 10
20.2303765046
 20
11.5169457788
 30
0.0
 10
20.2228630527
 20
11.5014732236
 30
0.0
 10
20.2162491332
 20
11.4857609378
 30
0.0
 10
20.2105474911
 20
11.4698390257
 30
0.0
 10
20.2057697107
 20
11.4537394057
 30
0.0
 10
20.2031998172
 20
11.4428794242
 30
0.0
 10
20.2020737627
 20
11.4374347052
 30
0.0
  0
SPLINE
  5
636
100
AcDbEntity
  8
0
100
AcDbSpline
 62
9
  6
CONTINUOUS
 70
0
 71
3
 72
51
 73
47
 74
0
 42
0.0000001
 43
0.0000001
 44
0.0000000001
 40
0.0
 40
0.0
 40
0.0
 40
0.0
 40
0.0135005342
 40
0.0270243554
 40
0.0405930953
 40
0.0542291649
 40
0.0679532292
 40
0.0817849775
 40
0.0957425662
 40
0.1098424701
 40
0.1240993307
 40
0.138525824
 40
0.1531325809
 40
0.1679281364
 40
0.1980993624
 40
0.2290767942
 40
0.2608551701
 40
0.2933999579
 40
0.326650542
 40
0.3605237468
 40
0.3949175869
 40
0.4297150189
 40
0.4647877505
 40
0.5
 40
0.5352122495
 40
0.5702849811
 40
0.6050824131
 40
0.6394762532
 40
0.673349458
 40
0.7066000421
 40
0.7391448299
 40
0.7709232058
 40
0.8019006376
 40
0.8320718636
 40
0.8468674191
 40
0.861474176
 40
0.8759006693
 40
0.8901575299
 40
0.9042574338
 40
0.9182150225
 40
0.9320467708
 40
0.9457708351
 40
0.9594069047
 40
0.9729756446
 40
0.9864994658
 40
1.0
 40
1.0
 40
1.0
 40
1.0
 10
21.1710683383
 20
11.5108944593
 30
0.0
 10
21.1710683383
 20
11.5170055664
 30
0.0
 10
21.1706758867
 20
11.5292419323
 30
0.0
 10
21.1689120755
 20
11.54754376
 30
0.0
 10
21.1659770436
 20
11.5657574171
 30
0.0
 10
21.1618783504
 20
11.5838375307
 30
0.0
 10
21.1566259153
 20
11.6017407002
 30
0.0
 10
21.1502327489
 20
11.6194234555
 30
0.0
 10
21.1427145683
 20
11.6368431093
 30
0.0
 10
21.134089824
 20
11.6539576224
 30
0.0
 10
21.1243795783
 20
11.6707257983
 30
0.0
 10
21.1136076107
 20
11.6871071868
 30
0.0
 10
21.1017996949
 20
11.7030628255
 30
0.0
 10
21.0846044778
 20
11.7238497865
 30
0.0
 10
21.0606134857
 20
11.7485633944
 30
0.0
 10
21.0284033667
 20
11.7757165418
 30
0.0
 10
20.9928893848
 20
11.8003137466
 30
0.0
 10
20.9544156329
 20
11.8221210297
 30
0.0
 10
20.913350673
 20
11.840933793
 30
0.0
 10
20.8700880331
 20
11.8565746231
 30
0.0
 10
20.8250415921
 20
11.8688958182
 30
0.0
 10
20.7786422342
 20
11.877780945
 30
0.0
 10
20.7313336798
 20
11.8831459319
 30
0.0
 10
20.6835683383
 20
11.8849398873
 30
0.0
 10
20.6358029968
 20
11.8831459319
 30
0.0
 10
20.5884944424
 20
11.877780945
 30
0.0
 10
20.5420950845
 20
11.8688958182
 30
0.0
 10
20.4970486435
 20
11.8565746231
 30
0.0
 10
20.4537860036
 20
11.840933793
 30
0.0
 10
20.4127210437
 20
11.8221210297
 30
0.0
 10
20.3742472918
 20
11.8003137466
 30
0.0
 10
20.3387333099
 20
11.7757165418
 30
0.0
 10
20.3065231908
 20
11.7485633944
 30
0.0
 10
20.2825321988
 20
11.7238497865
 30
0.0
 10
20.2653369816
 20
11.7030628255
 30
0.0
 10
20.2535290659
 20
11.6871071868
 30
0.0
 10
20.2427570982
 20
11.6707257983
 30
0.0
 10
20.2330468526
 20
11.6539576224
 30
0.0
 10
20.2244221082
 20
11.6368431093
 30
0.0
 10
20.2169039277
 20
11.6194234555
 30
0.0
 10
20.2105107612
 20
11.6017407002
 30
0.0
 10
20.2052583262
 20
11.5838375307
 30
0.0
 10
20.2011596329
 20
11.5657574171
 30
0.0
 10
20.1982246011
 20
11.54754376
 30
0.0
 10
20.1964607899
 20
11.5292419323
 30
0.0
 10
20.1960683383
 20
11.5170055664
 30
0.0
 10
20.1960683383
 20
11.5108944593
 30
0.0
  0
SPLINE
  5
637
100
AcDbEntity
  8
0
100
AcDbSpline
 62
9
  6
CONTINUOUS
 70
0
 71
3
 72
35
 73
31
 74
0
 42
0.0000001
 43
0.0000001
 44
0.0000000001
 40
0.0
 40
0.0
 40
0.0
 40
0.0
 40
0.0314497823
 40
0.0629003316
 40
0.0943504693
 40
0.1258008024
 40
0.1886768976
 40
0.2515515132
 40
0.3144190269
 40
0.3458543956
 40
0.3772844073
 40
0.4087075984
 40
0.4401227207
 40
0.4715281508
 40
0.5029218228
 40
0.5343015797
 40
0.5656649192
 40
0.5970089988
 40
0.6283302899
 40
0.6596250096
 40
0.6908884192
 40
0.7221149521
 40
0.7532984195
 40
0.7844307246
 40
0.8155033167
 40
0.846506574
 40
0.8774291254
 40
0.908258268
 40
0.9389791172
 40
1.0
 40
1.0
 40
1.0
 40
1.0
 10
5.6835683383
 20
2.083525773
 30
0.0
 10
5.6944671184
 20
2.0835277128
 30
0.0
 10
5.7162715791
 20
2.0842843735
 30
0.0
 10
5.7488238657
 20
2.087571994
 30
0.0
 10
5.7811060394
 20
2.0928966222
 30
0.0
 10
5.8236334374
 20
2.1025460618
 30
0.0
 10
5.8756587557
 20
2.119096513
 30
0.0
 10
5.9356888
 20
2.1452070034
 30
0.0
 10
5.9834676653
 20
2.1715240894
 30
0.0
 10
6.0202237774
 20
2.1949410769
 30
0.0
 10
6.0470472872
 20
2.2136170012
 30
0.0
 10
6.07310301
 20
2.2333362135
 30
0.0
 10
6.0983711002
 20
2.2540414039
 30
0.0
 10
6.1228289972
 20
2.275681705
 30
0.0
 10
6.1464533359
 20
2.2982110677
 30
0.0
 10
6.1692156102
 20
2.3215906339
 30
0.0
 10
6.1910868859
 20
2.3457825172
 30
0.0
 10
6.2120382722
 20
2.3707488954
 30
0.0
 10
6.2320335356
 20
2.3964574553
 30
0.0
 10
6.2510316492
 20
2.4228772985
 30
0.0
 10
6.2689830941
 20
2.4499802777
 30
0.0
 10
6.2858301345
 20
2.4777387214
 30
0.0
 10
6.3015057573
 20
2.5061240575
 30
0.0
 10
6.3159283896
 20
2.5351075666
 30
0.0
 10
6.3290116824
 20
2.5646524962
 30
0.0
 10
6.3406661655
 20
2.5947131843
 30
0.0
 10
6.3507886254
 20
2.6252356158
 30
0.0
 10
6.3592642111
 20
2.6561592476
 30
0.0
 10
6.3681745016
 20
2.697703104
 30
0.0
 10
6.3720263094
 20
2.7293810647
 30
0.0
 10
6.3730949842
 20
2.7505005556
 30
0.0
  0
SPLINE
  5
638
100
AcDbEntity
  8
0
100
AcDbSpline
 62
9
  6
CONTINUOUS
 70
0
 71
3
 72
15
 73
11
 74
0
 42
0.0000001
 43
0.0000001
 44
0.0000000001
 40
0.0
 40
0.0
 40
0.0
 40
0.0
 40
0.1353504767
 40
0.2664487981
 40
0.3938843753
 40
0.5182978035
 40
0.6403764498
 40
0.7608469189
 40
0.880464477
 40
1.0
 40
1.0
 40
1.0
 40
1.0
 10
6.4751946682
 20
4.7764442225
 30
0.0
 10
6.478068013
 20
4.7716705851
 30
0.0
 10
6.4834316265
 20
4.7620924584
 30
0.0
 10
6.4903792157
 20
4.7474280571
 30
0.0
 10
6.4960903549
 20
4.73271942
 30
0.0
 10
6.5005633668
 20
4.7179748899
 30
0.0
 10
6.5037971145
 20
4.703202493
 30
0.0
 10
6.5057904744
 20
4.6884105254
 30
0.0
 10
6.5065428656
 20
4.6736093386
 30
0.0
 10
6.5062174104
 20
4.663756448
 30
0.0
 10
6.5058507959
 20
4.6588494559
 30
0.0
  0
SPLINE
  5
639
100
AcDbEntity
  8
0
100
AcDbSpline
 62
9
  6
CONTINUOUS
 70
0
 71
3
 72
23
 73
19
 74
0
 42
0.0000001
 43
0.0000001
 44
0.0000000001
 40
0.0
 40
0.0
 40
0.0
 40
0.0
 40
0.1050202205
 40
0.2040324839
 40
0.2970607372
 40
0.3841341109
 40
0.4652884425
 40
0.5405683739
 40
0.6100302886
 40
0.6737465087
 40
0.7318114107
 40
0.7843505244
 40
0.8315343234
 40
0.8735994201
 40
0.9108811861
 40
0.9438626376
 40
0.9732413305
 40
1.0
 40
1.0
 40
1.0
 40
1.0
 10
6.7855163834
 20
9.7910670143
 30
0.0
 10
6.7875894584
 20
9.7900470806
 30
0.0
 10
6.7916020064
 20
9.788034818
 30
0.0
 10
6.7973924915
 20
9.7850043991
 30
0.0
 10
6.8027774572
 20
9.7820528903
 30
0.0
 10
6.8077572687
 20
9.779182189
 30
0.0
 10
6.8123323465
 20
9.7763941792
 30
0.0
 10
6.8165031494
 20
9.7736907368
 30
0.0
 10
6.8202701984
 20
9.7710737152
 30
0.0
 10
6.8236340993
 20
9.7685449224
 30
0.0
 10
6.8265955742
 20
9.7661060794
 30
0.0
 10
6.8291554962
 20
9.7637587293
 30
0.0
 10
6.8313149172
 20
9.7615041075
 30
0.0
 10
6.8330750033
 20
9.7593427774
 30
0.0
 10
6.8344367905
 20
9.7572744391
 30
0.0
 10
6.8354000841
 20
9.7552966116
 30
0.0
 10
6.8359617554
 20
9.7534075062
 30
0.0
 10
6.8360647793
 20
9.7521644671
 30
0.0
 10
6.8360407358
 20
9.7515762814
 30
0.0
  0
SPLINE
  5
63A
100
AcDbEntity
  8
0
100
AcDbSpline
 62
9
  6
CONTINUOUS
 70
0
 71
3
 72
24
 73
20
 74
0
 42
0.0000001
 43
0.0000001
 44
0.0000000001
 40
0.0
 40
0.0
 40
0.0
 40
0.0
 40
0.2080307131
 40
0.3026992024
 40
0.3911637801
 40
0.473453211
 40
0.5496036598
 40
0.6196612738
 40
0.6836859385
 40
0.7417568728
 40
0.7685940899
 40
0.7939862626
 40
0.8405124181
 40
0.8815518963
 40
0.9174147599
 40
0.9485677062
 40
0.9757233996
 40
0.988142359
 40
1.0
 40
1.0
 40
1.0
 40
1.0
 10
6.7994029204
 20
10.0154655713
 30
0.0
 10
6.8030162055
 20
10.0137940491
 30
0.0
 10
6.8082424191
 20
10.0112921363
 30
0.0
 10
6.8149056976
 20
10.0078797335
 30
0.0
 10
6.8193809374
 20
10.0054760806
 30
0.0
 10
6.8234935217
 20
10.0031485044
 30
0.0
 10
6.8272438413
 20
10.0008986802
 30
0.0
 10
6.83063239
 20
9.9987283371
 30
0.0
 10
6.8336596015
 20
9.9966391708
 30
0.0
 10
6.8359380863
 20
9.9949250032
 30
0.0
 10
6.8375752369
 20
9.993592114
 30
0.0
 10
6.8390071562
 20
9.9923583866
 30
0.0
 10
6.8405814157
 20
9.9908743144
 30
0.0
 10
6.8421722047
 20
9.9891243048
 30
0.0
 10
6.8434070895
 20
9.9874599431
 30
0.0
 10
6.8442868367
 20
9.9858800859
 30
0.0
 10
6.8447344272
 20
9.9845916851
 30
0.0
 10
6.8448914085
 20
9.983617848
 30
0.0
 10
6.8449070843
 20
9.983151912
 30
0.0
 10
6.8448989951
 20
9.9829251309
 30
0.0
  0
SPLINE
  5
63B
100
AcDbEntity
  8
0
100
AcDbSpline
 62
9
  6
CONTINUOUS
 70
0
 71
3
 72
34
 73
30
 74
0
 42
0.0000001
 43
0.0000001
 44
0.0000000001
 40
0.0
 40
0.0
 40
0.0
 40
0.0
 40
0.0000743411
 40
0.0001695711
 40
0.0003747764
 40
0.0006982424
 40
0.000904917
 40
0.0011416723
 40
0.001705626
 40
0.0031960706
 40
0.005170689
 40
0.0076302307
 40
0.0105753375
 40
0.0140065746
 40
0.0223295093
 40
0.0326030741
 40
0.0448311551
 40
0.0590175969
 40
0.0751662354
 40
0.0932809119
 40
0.1354237684
 40
0.1854765294
 40
0.2434657865
 40
0.3094183077
 40
0.3833629741
 40
0.465330826
 40
0.5553702752
 40
0.7603496223
 40
1.0
 40
1.0
 40
1.0
 40
1.0
 10
4.4985898922
 20
10.9084196401
 30
0.0
 10
4.4985898922
 20
10.9084189453
 30
0.0
 10
4.4985905974
 20
10.9084167876
 30
0.0
 10
4.4985944172
 20
10.9084197024
 30
0.0
 10
4.4985978216
 20
10.9084234207
 30
0.0
 10
4.4986023528
 20
10.9084290441
 30
0.0
 10
4.4986065873
 20
10.9084347418
 30
0.0
 10
4.498612099
 20
10.908442405
 30
0.0
 10
4.4986242118
 20
10.9084600428
 30
0.0
 10
4.4986447286
 20
10.9084916429
 30
0.0
 10
4.4986741225
 20
10.9085385651
 30
0.0
 10
4.4987100872
 20
10.9085974209
 30
0.0
 10
4.4987525973
 20
10.9086682242
 30
0.0
 10
4.4988226047
 20
10.9087864384
 30
0.0
 10
4.4989261866
 20
10.90896437
 30
0.0
 10
4.4990694917
 20
10.909214306
 30
0.0
 10
4.4992384831
 20
10.9095126816
 30
0.0
 10
4.4994330056
 20
10.9098596995
 30
0.0
 10
4.4996529
 20
10.910255565
 30
0.0
 10
4.49999749
 20
10.9108810621
 30
0.0
 10
4.5004904291
 20
10.9117866159
 30
0.0
 10
4.5011546186
 20
10.9130232548
 30
0.0
 10
4.5019145349
 20
10.91446105
 30
0.0
 10
4.5027666642
 20
10.916102633
 30
0.0
 10
4.5037075299
 20
10.9179505995
 30
0.0
 10
4.5047335824
 20
10.9200077401
 30
0.0
 10
4.5062800298
 20
10.9231738077
 30
0.0
 10
4.5083984916
 20
10.9277004197
 30
0.0
 10
4.5100555644
 20
10.931512297
 30
0.0
 10
4.5109190332
 20
10.933579079
 30
0.0
  0
SPLINE
  5
63C
100
AcDbEntity
  8
0
100
AcDbSpline
 62
9
  6
CONTINUOUS
 70
0
 71
3
 72
21
 73
17
 74
0
 42
0.0000001
 43
0.0000001
 44
0.0000000001
 40
0.0
 40
0.0
 40
0.0
 40
0.0
 40
0.0363004142
 40
0.0728770762
 40
0.1108104995
 40
0.1510778313
 40
0.1945045352
 40
0.2417598061
 40
0.2933726878
 40
0.3497548839
 40
0.4112270495
 40
0.4780409594
 40
0.5503966635
 40
0.6284550364
 40
0.8021593581
 40
1.0
 40
1.0
 40
1.0
 40
1.0
 10
6.3903949946
 20
2.7622642509
 30
0.0
 10
6.3904186865
 20
2.7619964658
 30
0.0
 10
6.3904192501
 20
2.7614533883
 30
0.0
 10
6.3902726908
 20
2.7606417932
 30
0.0
 10
6.3899796942
 20
2.7598397588
 30
0.0
 10
6.3895418239
 20
2.759049001
 30
0.0
 10
6.3889603116
 20
2.7582697662
 30
0.0
 10
6.388235701
 20
2.7575019398
 30
0.0
 10
6.3873680026
 20
2.7567453106
 30
0.0
 10
6.3863569013
 20
2.7559998477
 30
0.0
 10
6.3852019619
 20
2.7552657059
 30
0.0
 10
6.3839027178
 20
2.754543203
 30
0.0
 10
6.3824587362
 20
2.7538326937
 30
0.0
 10
6.3802603743
 20
2.7528673865
 30
0.0
 10
6.3771364211
 20
2.7517073009
 30
0.0
 10
6.374504721
 20
2.7508997053
 30
0.0
 10
6.3730949842
 20
2.7505005556
 30
0.0
  0
SPLINE
  5
63D
100
AcDbEntity
  8
0
100
AcDbSpline
 62
7
  6
CONTINUOUS
 70
0
 71
3
 72
55
 73
51
 74
0
 42
0.0000001
 43
0.0000001
 44
0.0000000001
 40
0.0
 40
0.0
 40
0.0
 40
0.0
 40
0.0310122096
 40
0.0465352873
 40
0.0620682093
 40
0.077611967
 40
0.0931669097
 40
0.1243025205
 40
0.1554772013
 40
0.1710807995
 40
0.1866923847
 40
0.2023119673
 40
0.2179400423
 40
0.2335769297
 40
0.2492222902
 40
0.2805281797
 40
0.3118550889
 40
0.3275266625
 40
0.3432001536
 40
0.358875136
 40
0.3745519461
 40
0.3902310432
 40
0.4059124138
 40
0.4372736159
 40
0.4686374139
 40
0.4999999967
 40
0.5313625796
 40
0.5627263776
 40
0.5940875797
 40
0.6097689504
 40
0.6254480476
 40
0.6411248577
 40
0.6567998403
 40
0.6724733314
 40
0.6881449051
 40
0.7194718146
 40
0.7507777045
 40
0.7664230653
 40
0.782059953
 40
0.7976880283
 40
0.8133076112
 40
0.8289191967
 40
0.8445227951
 40
0.8756974766
 40
0.9068330882
 40
0.9223880313
 40
0.9379317893
 40
0.9534647117
 40
0.9689877898
 40
1.0
 40
1.0
 40
1.0
 40
1.0
 10
6.3672599042
 20
2.4973888413
 30
0.0
 10
6.3627170481
 20
2.4785920279
 30
0.0
 10
6.3547189792
 20
2.4506519904
 30
0.0
 10
6.3417464631
 20
2.4141793208
 30
0.0
 10
6.3308575873
 20
2.3872287943
 30
0.0
 10
6.3188269618
 20
2.3607469753
 30
0.0
 10
6.3013004966
 20
2.326112609
 30
0.0
 10
6.2766741249
 20
2.2841981413
 30
0.0
 10
6.2486350999
 20
2.2444487464
 30
0.0
 10
6.2242652656
 20
2.2141113983
 30
0.0
 10
6.2050348381
 20
2.1921204537
 30
0.0
 10
6.1848878156
 20
2.170945378
 30
0.0
 10
6.1638511861
 20
2.150631072
 30
0.0
 10
6.1419666853
 20
2.13120852
 30
0.0
 10
6.1117143507
 20
2.1065371145
 30
0.0
 10
6.0719927483
 20
2.0780673783
 30
0.0
 10
6.030043539
 20
2.0529639921
 30
0.0
 10
5.9953201204
 20
2.0350127806
 30
0.0
 10
5.9687293996
 20
2.0226391109
 30
0.0
 10
5.9416407027
 20
2.0113896905
 30
0.0
 10
5.9141006325
 20
2.0012857009
 30
0.0
 10
5.8861600257
 20
1.9923346012
 30
0.0
 10
5.8484432906
 20
1.9819513431
 30
0.0
 10
5.8005349834
 20
1.9718998057
 30
0.0
 10
5.7422559026
 20
1.9646040878
 30
0.0
 10
5.68356886
 20
1.9621463506
 30
0.0
 10
5.6248818137
 20
1.9646040009
 30
0.0
 10
5.5666027223
 20
1.9718996337
 30
0.0
 10
5.5186944003
 20
1.981951101
 30
0.0
 10
5.4809776498
 20
1.9923343039
 30
0.0
 10
5.4530370296
 20
2.0012853624
 30
0.0
 10
5.4254969444
 20
2.0113893112
 30
0.0
 10
5.3984082305
 20
2.0226386912
 30
0.0
 10
5.3718174913
 20
2.0350123215
 30
0.0
 10
5.337094046
 20
2.052963482
 30
0.0
 10
5.2951447994
 20
2.0780668068
 30
0.0
 10
5.2554231546
 20
2.1065364852
 30
0.0
 10
5.2251707831
 20
2.1312078463
 30
0.0
 10
5.203286253
 20
2.1506303662
 30
0.0
 10
5.1822495926
 20
2.1709446409
 30
0.0
 10
5.162102538
 20
2.1921196868
 30
0.0
 10
5.1428720774
 20
2.2141106032
 30
0.0
 10
5.1185021977
 20
2.2444479159
 30
0.0
 10
5.0904631134
 20
2.2841972703
 30
0.0
 10
5.0658366792
 20
2.3261117025
 30
0.0
 10
5.048310162
 20
2.3607460435
 30
0.0
 10
5.0362794965
 20
2.3872278452
 30
0.0
 10
5.0253905798
 20
2.4141783558
 30
0.0
 10
5.0124180089
 20
2.4506510068
 30
0.0
 10
5.0044198983
 20
2.478591033
 30
0.0
 10
4.9998770144
 20
2.4973878401
 30
0.0
  0
SPLINE
  5
63E
100
AcDbEntity
  8
0
100
AcDbSpline
 62
9
  6
CONTINUOUS
 70
0
 71
3
 72
21
 73
17
 74
0
 42
0.0000001
 43
0.0000001
 44
0.0000000001
 40
0.0
 40
0.0
 40
0.0
 40
0.0
 40
0.0424435635
 40
0.0843793008
 40
0.1267151693
 40
0.1703447183
 40
0.2645104384
 40
0.316563715
 40
0.3725764042
 40
0.4329618898
 40
0.4980584139
 40
0.5681435465
 40
0.643441932
 40
0.7241369613
 40
0.8103826355
 40
1.0
 40
1.0
 40
1.0
 40
1.0
 10
4.9767784095
 20
2.762333703
 30
0.0
 10
4.9767503587
 20
2.7620137635
 30
0.0
 10
4.9767405474
 20
2.7613725161
 30
0.0
 10
4.9768735441
 20
2.7604192307
 30
0.0
 10
4.9771546694
 20
2.7594890939
 30
0.0
 10
4.9777404469
 20
2.7582535405
 30
0.0
 10
4.9786280489
 20
2.7571011498
 30
0.0
 10
4.9797453087
 20
2.7560537453
 30
0.0
 10
4.9807568231
 20
2.7552746809
 30
0.0
 10
4.9819132348
 20
2.7545313902
 30
0.0
 10
4.98321506
 20
2.753825149
 30
0.0
 10
4.9846623814
 20
2.753158042
 30
0.0
 10
4.9862553193
 20
2.7525320007
 30
0.0
 10
4.9879939155
 20
2.7519490251
 30
0.0
 10
4.9905890585
 20
2.751208487
 30
0.0
 10
4.992631003
 20
2.7507625854
 30
0.0
 10
4.9940416924
 20
2.7505005556
 30
0.0
  0
SPLINE
  5
63F
100
AcDbEntity
  8
0
100
AcDbSpline
 62
9
  6
CONTINUOUS
 70
0
 71
3
 72
26
 73
22
 74
0
 42
0.0000001
 43
0.0000001
 44
0.0000000001
 40
0.0
 40
0.0
 40
0.0
 40
0.0
 40
0.0619663437
 40
0.1240982979
 40
0.1863643232
 40
0.2175410242
 40
0.2487393676
 40
0.3111799219
 40
0.3736691572
 40
0.4361919721
 40
0.4987451008
 40
0.5613367686
 40
0.5926517803
 40
0.6239759399
 40
0.6866387549
 40
0.7493200647
 40
0.7806669912
 40
0.81201329
 40
0.8746907242
 40
0.9373526688
 40
1.0
 40
1.0
 40
1.0
 40
1.0
 10
4.5677337562
 20
10.0154655713
 30
0.0
 10
4.5827052751
 20
9.9925271931
 30
0.0
 10
4.6140959968
 20
9.947490667
 30
0.0
 10
4.665210538
 20
9.8828259706
 30
0.0
 10
4.711037168
 20
9.8314880803
 30
0.0
 10
4.7495389556
 20
9.7920665444
 30
0.0
 10
4.7892604956
 20
9.7537629708
 30
0.0
 10
4.8410841076
 20
9.7081148408
 30
0.0
 10
4.9065116028
 20
9.6571858231
 30
0.0
 10
4.9749918727
 20
9.6103477593
 30
0.0
 10
5.0463109248
 20
9.5678673821
 30
0.0
 10
5.1079194736
 20
9.5363260187
 30
0.0
 10
5.1583416966
 20
9.5134584964
 30
0.0
 10
5.20948733
 20
9.4921755231
 30
0.0
 10
5.2746509614
 20
9.4685851414
 30
0.0
 10
5.3411677417
 20
9.4490997029
 30
0.0
 10
5.395031962
 20
9.4360218558
 30
0.0
 10
5.4492765182
 20
9.4246338143
 30
0.0
 10
5.5177044441
 20
9.4135961946
 30
0.0
 10
5.6004665605
 20
9.4055697543
 30
0.0
 10
5.6558754226
 20
9.4037635807
 30
0.0
 10
5.6835683383
 20
9.4037635807
 30
0.0
  0
SPLINE
  5
640
100
AcDbEntity
  8
0
100
AcDbSpline
 62
9
  6
CONTINUOUS
 70
0
 71
3
 72
30
 73
26
 74
0
 42
0.0000001
 43
0.0000001
 44
0.0000000001
 40
0.0
 40
0.0
 40
0.0
 40
0.0
 40
0.0270010787
 40
0.0540478165
 40
0.0811852042
 40
0.1084569168
 40
0.1359047045
 40
0.1635678432
 40
0.1914826537
 40
0.2196820975
 40
0.2481954527
 40
0.2770480697
 40
0.3062612041
 40
0.3358519299
 40
0.396193602
 40
0.4581476651
 40
0.5217035958
 40
0.5867923291
 40
0.6532926363
 40
0.7210381742
 40
0.78982496
 40
0.8245431589
 40
0.8594318355
 40
0.9295762159
 40
1.0
 40
1.0
 40
1.0
 40
1.0
 10
21.2235683209
 20
8.7361513903
 30
0.0
 10
21.2235683209
 20
8.7429207067
 30
0.0
 10
21.2231336552
 20
8.756474789
 30
0.0
 10
21.2211798241
 20
8.776747591
 30
0.0
 10
21.2179288091
 20
8.7969226405
 30
0.0
 10
21.2133886449
 20
8.8169498796
 30
0.0
 10
21.2075705622
 20
8.8367810652
 30
0.0
 10
21.2004889084
 20
8.8563681221
 30
0.0
 10
21.1921610927
 20
8.8756637435
 30
0.0
 10
21.1826075385
 20
8.8946213621
 30
0.0
 10
21.1718515641
 20
8.9131953382
 30
0.0
 10
21.1599195227
 20
8.9313408671
 30
0.0
 10
21.1468399902
 20
8.9490148084
 30
0.0
 10
21.1277929907
 20
8.9720403726
 30
0.0
 10
21.1012183487
 20
8.9994154432
 30
0.0
 10
21.0655394519
 20
9.0294927737
 30
0.0
 10
21.0262008669
 20
9.0567389132
 30
0.0
 10
20.983583863
 20
9.0808946495
 30
0.0
 10
20.9380962336
 20
9.1017334935
 30
0.0
 10
20.8901756649
 20
9.1190584126
 30
0.0
 10
20.848716951
 20
9.1303981918
 30
0.0
 10
20.81476739
 20
9.1375915319
 30
0.0
 10
20.7802299443
 20
9.1435296686
 30
0.0
 10
20.7364786407
 20
9.1484916264
 30
0.0
 10
20.7012239616
 20
9.1498153896
 30
0.0
 10
20.6835683383
 20
9.1498153896
 30
0.0
  0
SPLINE
  5
641
100
AcDbEntity
  8
0
100
AcDbSpline
 62
7
  6
CONTINUOUS
 70
0
 71
3
 72
11
 73
7
 74
0
 42
0.0000001
 43
0.0000001
 44
0.0000000001
 40
0.0
 40
0.0
 40
0.0
 40
0.0
 40
0.2530212738
 40
0.5034785626
 40
0.7521832739
 40
1.0
 40
1.0
 40
1.0
 40
1.0
 10
20.2135683383
 20
11.3887261117
 30
0.0
 10
20.2102788615
 20
11.3801788295
 30
0.0
 10
20.2044790812
 20
11.3628720165
 30
0.0
 10
20.1981956759
 20
11.3363428502
 30
0.0
 10
20.1944112493
 20
11.3095333161
 30
0.0
 10
20.1935683383
 20
11.2915499167
 30
0.0
 10
20.1935683383
 20
11.28257988
 30
0.0
  0
SPLINE
  5
642
100
AcDbEntity
  8
0
100
AcDbSpline
 62
7
  6
CONTINUOUS
 70
0
 71
3
 72
11
 73
7
 74
0
 42
0.0000001
 43
0.0000001
 44
0.0000000001
 40
0.0
 40
0.0
 40
0.0
 40
0.0
 40
0.2478167261
 40
0.4965214374
 40
0.7469787262
 40
1.0
 40
1.0
 40
1.0
 40
1.0
 10
21.1735683383
 20
11.28257988
 30
0.0
 10
21.1735683383
 20
11.2915499167
 30
0.0
 10
21.1727254272
 20
11.3095333161
 30
0.0
 10
21.1689410007
 20
11.3363428502
 30
0.0
 10
21.1626575953
 20
11.3628720165
 30
0.0
 10
21.1568578151
 20
11.3801788295
 30
0.0
 10
21.1535683383
 20
11.3887261117
 30
0.0
  0
SPLINE
  5
643
100
AcDbEntity
  8
0
100
AcDbSpline
 62
9
  6
CONTINUOUS
 70
0
 71
3
 72
51
 73
47
 74
0
 42
0.0000001
 43
0.0000001
 44
0.0000000001
 40
0.0
 40
0.0
 40
0.0
 40
0.0
 40
0.0135005176
 40
0.0270243161
 40
0.0405930553
 40
0.0542291261
 40
0.0679531936
 40
0.0817849443
 40
0.0957425332
 40
0.1098424365
 40
0.1240992974
 40
0.138525792
 40
0.1531325506
 40
0.1679281074
 40
0.1980993353
 40
0.2290767694
 40
0.260855148
 40
0.2933999384
 40
0.3266505254
 40
0.3605237334
 40
0.3949175767
 40
0.429715012
 40
0.464787747
 40
0.5
 40
0.535212253
 40
0.570284988
 40
0.6050824233
 40
0.6394762666
 40
0.6733494746
 40
0.7066000616
 40
0.739144852
 40
0.7709232306
 40
0.8019006647
 40
0.8320718926
 40
0.8468674494
 40
0.861474208
 40
0.8759007026
 40
0.8901575635
 40
0.9042574668
 40
0.9182150557
 40
0.9320468064
 40
0.9457708739
 40
0.9594069447
 40
0.9729756839
 40
0.9864994824
 40
1.0
 40
1.0
 40
1.0
 40
1.0
 10
20.2135683383
 20
11.0640320927
 30
0.0
 10
20.2135683383
 20
11.0699238194
 30
0.0
 10
20.2139466988
 20
11.0817209141
 30
0.0
 10
20.2156471926
 20
11.0993657357
 30
0.0
 10
20.2184768585
 20
11.1169255602
 30
0.0
 10
20.2224284172
 20
11.1343566463
 30
0.0
 10
20.2274923005
 20
11.1516171418
 30
0.0
 10
20.2336559666
 20
11.168665135
 30
0.0
 10
20.240904262
 20
11.1854594696
 30
0.0
 10
20.2492193981
 20
11.2019596165
 30
0.0
 10
20.2585810691
 20
11.2181258594
 30
0.0
 10
20.268966349
 20
11.2339192009
 30
0.0
 10
20.2803503901
 20
11.249302076
 30
0.0
 10
20.2969283425
 20
11.2693428417
 30
0.0
 10
20.3200581191
 20
11.293169298
 30
0.0
 10
20.3511119771
 20
11.3193477223
 30
0.0
 10
20.3853510998
 20
11.343061954
 30
0.0
 10
20.4224437443
 20
11.3640864159
 30
0.0
 10
20.4620345802
 20
11.3822238525
 30
0.0
 10
20.5037442055
 20
11.3973032196
 30
0.0
 10
20.5471735985
 20
11.409182118
 30
0.0
 10
20.5919073426
 20
11.4177482929
 30
0.0
 10
20.6375176455
 20
11.4229206918
 30
0.0
 10
20.6835683383
 20
11.4246502489
 30
0.0
 10
20.729619031
 20
11.4229206918
 30
0.0
 10
20.775229334
 20
11.4177482929
 30
0.0
 10
20.8199630781
 20
11.409182118
 30
0.0
 10
20.8633924711
 20
11.3973032196
 30
0.0
 10
20.9051020964
 20
11.3822238525
 30
0.0
 10
20.9446929323
 20
11.3640864159
 30
0.0
 10
20.9817855768
 20
11.343061954
 30
0.0
 10
21.0160246994
 20
11.3193477223
 30
0.0
 10
21.0470785574
 20
11.293169298
 30
0.0
 10
21.0702083341
 20
11.2693428417
 30
0.0
 10
21.0867862865
 20
11.249302076
 30
0.0
 10
21.0981703276
 20
11.2339192009
 30
0.0
 10
21.1085556075
 20
11.2181258594
 30
0.0
 10
21.1179172784
 20
11.2019596165
 30
0.0
 10
21.1262324146
 20
11.1854594696
 30
0.0
 10
21.13348071
 20
11.168665135
 30
0.0
 10
21.139644376
 20
11.1516171418
 30
0.0
 10
21.1447082594
 20
11.1343566463
 30
0.0
 10
21.1486598181
 20
11.1169255602
 30
0.0
 10
21.151489484
 20
11.0993657357
 30
0.0
 10
21.1531899777
 20
11.0817209141
 30
0.0
 10
21.1535683383
 20
11.0699238194
 30
0.0
 10
21.1535683383
 20
11.0640320927
 30
0.0
  0
SPLINE
  5
644
100
AcDbEntity
  8
0
100
AcDbSpline
 62
9
  6
CONTINUOUS
 70
0
 71
3
 72
39
 73
35
 74
0
 42
0.0000001
 43
0.0000001
 44
0.0000000001
 40
0.0
 40
0.0
 40
0.0
 40
0.0
 40
0.0271755724
 40
0.054825634
 40
0.0830186486
 40
0.1118049771
 40
0.1412173953
 40
0.1712710244
 40
0.2019640823
 40
0.2332789479
 40
0.2651834942
 40
0.2976325913
 40
0.3305696694
 40
0.3639283404
 40
0.3976340568
 40
0.4316057497
 40
0.4657574639
 40
0.5
 40
0.5342425361
 40
0.5683942503
 40
0.6023659432
 40
0.6360716596
 40
0.6694303306
 40
0.7023674087
 40
0.7348165058
 40
0.7667210521
 40
0.7980359177
 40
0.8287289756
 40
0.8587826047
 40
0.8881950229
 40
0.9169813514
 40
0.945174366
 40
0.9728244276
 40
1.0
 40
1.0
 40
1.0
 40
1.0
 10
20.2135683383
 20
11.1830340766
 30
0.0
 10
20.2173026627
 20
11.1927372379
 30
0.0
 10
20.2258213656
 20
11.2119483253
 30
0.0
 10
20.2414467115
 20
11.2396519189
 30
0.0
 10
20.2599180016
 20
11.2662989604
 30
0.0
 10
20.2811122191
 20
11.2917154423
 30
0.0
 10
20.304891082
 20
11.3157407792
 30
0.0
 10
20.3311000287
 20
11.3382222633
 30
0.0
 10
20.3595697143
 20
11.3590174534
 30
0.0
 10
20.3901167068
 20
11.377994581
 30
0.0
 10
20.4225446387
 20
11.3950334154
 30
0.0
 10
20.4566453932
 20
11.4100258523
 30
0.0
 10
20.4922002829
 20
11.4228767177
 30
0.0
 10
20.5289813854
 20
11.4335044272
 30
0.0
 10
20.5667530061
 20
11.4418413891
 30
0.0
 10
20.6052731224
 20
11.44783453
 30
0.0
 10
20.6442949083
 20
11.4514457627
 30
0.0
 10
20.6835683383
 20
11.4526520854
 30
0.0
 10
20.7228417683
 20
11.4514457627
 30
0.0
 10
20.7618635541
 20
11.44783453
 30
0.0
 10
20.8003836705
 20
11.4418413891
 30
0.0
 10
20.8381552912
 20
11.4335044272
 30
0.0
 10
20.8749363937
 20
11.4228767177
 30
0.0
 10
20.9104912834
 20
11.4100258523
 30
0.0
 10
20.9445920379
 20
11.3950334154
 30
0.0
 10
20.9770199697
 20
11.377994581
 30
0.0
 10
21.0075669622
 20
11.3590174534
 30
0.0
 10
21.0360366478
 20
11.3382222633
 30
0.0
 10
21.0622455946
 20
11.3157407792
 30
0.0
 10
21.0860244574
 20
11.2917154423
 30
0.0
 10
21.107218675
 20
11.2662989604
 30
0.0
 10
21.125689965
 20
11.2396519189
 30
0.0
 10
21.1413153109
 20
11.2119483253
 30
0.0
 10
21.1498340139
 20
11.1927372379
 30
0.0
 10
21.1535683383
 20
11.1830340766
 30
0.0
  0
SPLINE
  5
645
100
AcDbEntity
  8
0
100
AcDbSpline
 62
9
  6
CONTINUOUS
 70
0
 71
3
 72
11
 73
7
 74
0
 42
0.0000001
 43
0.0000001
 44
0.0000000001
 40
0.0
 40
0.0
 40
0.0
 40
0.0
 40
0.2477444152
 40
0.4964064945
 40
0.7468813952
 40
1.0
 40
1.0
 40
1.0
 40
1.0
 10
21.1535683383
 20
11.0640320927
 30
0.0
 10
21.1535683383
 20
11.0552822088
 30
0.0
 10
21.1527320455
 20
11.0377387499
 30
0.0
 10
21.1489776621
 20
11.0115905975
 30
0.0
 10
21.1427449274
 20
10.9857254481
 30
0.0
 10
21.1369940692
 20
10.968864284
 30
0.0
 10
21.133733148
 20
10.9605405553
 30
0.0
  0
SPLINE
  5
646
100
AcDbEntity
  8
0
100
AcDbSpline
 62
9
  6
CONTINUOUS
 70
0
 71
3
 72
11
 73
7
 74
0
 42
0.0000001
 43
0.0000001
 44
0.0000000001
 40
0.0
 40
0.0
 40
0.0
 40
0.0
 40
0.2531186048
 40
0.5035935055
 40
0.7522555848
 40
1.0
 40
1.0
 40
1.0
 40
1.0
 10
20.2334035286
 20
10.9605405554
 30
0.0
 10
20.2301426073
 20
10.968864284
 30
0.0
 10
20.2243917491
 20
10.9857254482
 30
0.0
 10
20.2181590144
 20
11.0115905976
 30
0.0
 10
20.2144046311
 20
11.0377387499
 30
0.0
 10
20.2135683383
 20
11.0552822088
 30
0.0
 10
20.2135683383
 20
11.0640320927
 30
0.0
  0
SPLINE
  5
647
100
AcDbEntity
  8
0
100
AcDbSpline
 62
9
  6
CONTINUOUS
 70
0
 71
3
 72
51
 73
47
 74
0
 42
0.0000001
 43
0.0000001
 44
0.0000000001
 40
0.0
 40
0.0
 40
0.0
 40
0.0
 40
0.0135005342
 40
0.0270243554
 40
0.0405930953
 40
0.054229165
 40
0.0679532292
 40
0.0817849775
 40
0.0957425663
 40
0.1098424702
 40
0.1240993308
 40
0.1385258242
 40
0.1531325811
 40
0.1679281365
 40
0.1980993625
 40
0.2290767943
 40
0.2608551702
 40
0.293399958
 40
0.326650542
 40
0.3605237469
 40
0.394917587
 40
0.4297150189
 40
0.4647877505
 40
0.5
 40
0.5352122495
 40
0.5702849811
 40
0.605082413
 40
0.6394762531
 40
0.673349458
 40
0.706600042
 40
0.7391448298
 40
0.7709232057
 40
0.8019006375
 40
0.8320718635
 40
0.8468674189
 40
0.8614741758
 40
0.8759006692
 40
0.8901575298
 40
0.9042574337
 40
0.9182150225
 40
0.9320467708
 40
0.945770835
 40
0.9594069047
 40
0.9729756446
 40
0.9864994658
 40
1.0
 40
1.0
 40
1.0
 40
1.0
 10
20.1935683383
 20
11.3661422693
 30
0.0
 10
20.1935683383
 20
11.3722847153
 30
0.0
 10
20.1939628025
 20
11.3845838318
 30
0.0
 10
20.1957356589
 20
11.4029795151
 30
0.0
 10
20.1986857422
 20
11.4212865755
 30
0.0
 10
20.2028054543
 20
11.4394594077
 30
0.0
 10
20.208084825
 20
11.4574543884
 30
0.0
 10
20.2145107769
 20
11.4752278244
 30
0.0
 10
20.2220675122
 20
11.4927368098
 30
0.0
 10
20.2307364861
 20
11.5099390897
 30
0.0
 10
20.2404965279
 20
11.5267932562
 30
0.0
 10
20.2513237364
 20
11.5432586519
 30
0.0
 10
20.2631922056
 20
11.5592961143
 30
0.0
 10
20.2804756033
 20
11.5801896752
 30
0.0
 10
20.3045896261
 20
11.6050300194
 30
0.0
 10
20.3369649252
 20
11.6323224138
 30
0.0
 10
20.3726610301
 20
11.657045758
 30
0.0
 10
20.4113320833
 20
11.6789648733
 30
0.0
 10
20.4526076328
 20
11.6978741124
 30
0.0
 10
20.4960921323
 20
11.7135951518
 30
0.0
 10
20.5413695807
 20
11.7259795325
 30
0.0
 10
20.588006884
 20
11.7349102241
 30
0.0
 10
20.6355580463
 20
11.7403027238
 30
0.0
 10
20.6835683383
 20
11.7421058789
 30
0.0
 10
20.7315786302
 20
11.7403027238
 30
0.0
 10
20.7791297926
 20
11.7349102241
 30
0.0
 10
20.8257670959
 20
11.7259795325
 30
0.0
 10
20.8710445443
 20
11.7135951518
 30
0.0
 10
20.9145290438
 20
11.6978741124
 30
0.0
 10
20.9558045932
 20
11.6789648733
 30
0.0
 10
20.9944756464
 20
11.657045758
 30
0.0
 10
21.0301717513
 20
11.6323224138
 30
0.0
 10
21.0625470505
 20
11.6050300194
 30
0.0
 10
21.0866610733
 20
11.5801896752
 30
0.0
 10
21.103944471
 20
11.5592961143
 30
0.0
 10
21.1158129402
 20
11.5432586519
 30
0.0
 10
21.1266401487
 20
11.5267932562
 30
0.0
 10
21.1364001905
 20
11.5099390897
 30
0.0
 10
21.1450691643
 20
11.4927368098
 30
0.0
 10
21.1526258997
 20
11.4752278244
 30
0.0
 10
21.1590518516
 20
11.4574543884
 30
0.0
 10
21.1643312222
 20
11.4394594077
 30
0.0
 10
21.1684509344
 20
11.4212865755
 30
0.0
 10
21.1714010177
 20
11.4029795151
 30
0.0
 10
21.1731738741
 20
11.3845838318
 30
0.0
 10
21.1735683383
 20
11.3722847153
 30
0.0
 10
21.1735683383
 20
11.3661422693
 30
0.0
  0
SPLINE
  5
648
100
AcDbEntity
  8
0
100
AcDbSpline
 62
7
  6
CONTINUOUS
 70
0
 71
3
 72
17
 73
13
 74
0
 42
0.0000001
 43
0.0000001
 44
0.0000000001
 40
0.0
 40
0.0
 40
0.0
 40
0.0
 40
0.1321571143
 40
0.2635378919
 40
0.3933975855
 40
0.5210531332
 40
0.6459149804
 40
0.7675183778
 40
0.827018517
 40
0.8856030036
 40
0.94326231
 40
1.0
 40
1.0
 40
1.0
 40
1.0
 10
20.6835683383
 20
10.8593531665
 30
0.0
 10
20.6991308617
 20
10.8593531665
 30
0.0
 10
20.7301834595
 20
10.8579327566
 30
0.0
 10
20.776133096
 20
10.8515643137
 30
0.0
 10
20.8207763504
 20
10.8410491714
 30
0.0
 10
20.863477112
 20
10.826533065
 30
0.0
 10
20.9036285235
 20
10.8082199995
 30
0.0
 10
20.9347237715
 20
10.7898664329
 30
0.0
 10
20.9577481911
 20
10.7735183375
 30
0.0
 10
20.9739154831
 20
10.7605791431
 30
0.0
 10
20.9890445934
 20
10.746922096
 30
0.0
 10
20.9984795541
 20
10.7372923103
 30
0.0
 10
21.0030007904
 20
10.7323731414
 30
0.0
  0
SPLINE
  5
649
100
AcDbEntity
  8
0
100
AcDbSpline
 62
9
  6
CONTINUOUS
 70
0
 71
3
 72
31
 73
27
 74
0
 42
0.0000001
 43
0.0000001
 44
0.0000000001
 40
0.0
 40
0.0
 40
0.0
 40
0.0
 40
0.0242167539
 40
0.0487616788
 40
0.0739311658
 40
0.0999842986
 40
0.127119101
 40
0.155473379
 40
0.1851237341
 40
0.2160906118
 40
0.2817567814
 40
0.3518223693
 40
0.4250766382
 40
0.5
 40
0.5749233618
 40
0.6481776307
 40
0.7182432186
 40
0.7839093882
 40
0.8148762659
 40
0.844526621
 40
0.872880899
 40
0.9000157014
 40
0.9260688342
 40
0.9512383212
 40
0.9757832461
 40
1.0
 40
1.0
 40
1.0
 40
1.0
 10
20.7127021966
 20
7.3905740252
 30
0.0
 10
20.7127021966
 20
7.389960431
 30
0.0
 10
20.7126070007
 20
7.3887229053
 30
0.0
 10
20.7121815713
 20
7.3868918553
 30
0.0
 10
20.71147827
 20
7.3850985876
 30
0.0
 10
20.7105054854
 20
7.3833613025
 30
0.0
 10
20.7092736611
 20
7.3816962863
 30
0.0
 10
20.7077955488
 20
7.380119012
 30
0.0
 10
20.706085711
 20
7.3786438241
 30
0.0
 10
20.7034686076
 20
7.3767956631
 30
0.0
 10
20.6997018215
 20
7.3748377635
 30
0.0
 10
20.6946707769
 20
7.3731317049
 30
0.0
 10
20.6892249973
 20
7.3720822964
 30
0.0
 10
20.6835683383
 20
7.3717282405
 30
0.0
 10
20.6779116793
 20
7.3720822964
 30
0.0
 10
20.6724658996
 20
7.3731317049
 30
0.0
 10
20.667434855
 20
7.3748377635
 30
0.0
 10
20.663668069
 20
7.3767956631
 30
0.0
 10
20.6610509656
 20
7.3786438241
 30
0.0
 10
20.6593411278
 20
7.380119012
 30
0.0
 10
20.6578630155
 20
7.3816962863
 30
0.0
 10
20.6566311912
 20
7.3833613025
 30
0.0
 10
20.6556584065
 20
7.3850985876
 30
0.0
 10
20.6549551053
 20
7.3868918553
 30
0.0
 10
20.6545296759
 20
7.3887229053
 30
0.0
 10
20.65443448
 20
7.389960431
 30
0.0
 10
20.65443448
 20
7.3905740252
 30
0.0
  0
SPLINE
  5
64A
100
AcDbEntity
  8
0
100
AcDbSpline
 62
9
  6
CONTINUOUS
 70
0
 71
3
 72
31
 73
27
 74
0
 42
0.0000001
 43
0.0000001
 44
0.0000000001
 40
0.0
 40
0.0
 40
0.0
 40
0.0
 40
0.0242167539
 40
0.0487616788
 40
0.0739311658
 40
0.0999842986
 40
0.127119101
 40
0.155473379
 40
0.1851237341
 40
0.2160906118
 40
0.2817567814
 40
0.3518223693
 40
0.4250766382
 40
0.5
 40
0.5749233618
 40
0.6481776307
 40
0.7182432186
 40
0.7839093882
 40
0.8148762659
 40
0.844526621
 40
0.872880899
 40
0.9000157014
 40
0.9260688342
 40
0.9512383212
 40
0.9757832461
 40
1.0
 40
1.0
 40
1.0
 40
1.0
 10
20.65443448
 20
7.3905740252
 30
0.0
 10
20.65443448
 20
7.3911876194
 30
0.0
 10
20.6545296759
 20
7.3924251451
 30
0.0
 10
20.6549551053
 20
7.3942561951
 30
0.0
 10
20.6556584065
 20
7.3960494628
 30
0.0
 10
20.6566311912
 20
7.3977867478
 30
0.0
 10
20.6578630155
 20
7.399451764
 30
0.0
 10
20.6593411278
 20
7.4010290384
 30
0.0
 10
20.6610509656
 20
7.4025042263
 30
0.0
 10
20.663668069
 20
7.4043523873
 30
0.0
 10
20.667434855
 20
7.4063102869
 30
0.0
 10
20.6724658996
 20
7.4080163455
 30
0.0
 10
20.6779116793
 20
7.4090657539
 30
0.0
 10
20.6835683383
 20
7.4094198099
 30
0.0
 10
20.6892249973
 20
7.4090657539
 30
0.0
 10
20.6946707769
 20
7.4080163455
 30
0.0
 10
20.6997018215
 20
7.4063102869
 30
0.0
 10
20.7034686076
 20
7.4043523873
 30
0.0
 10
20.706085711
 20
7.4025042263
 30
0.0
 10
20.7077955488
 20
7.4010290384
 30
0.0
 10
20.7092736611
 20
7.399451764
 30
0.0
 10
20.7105054854
 20
7.3977867478
 30
0.0
 10
20.71147827
 20
7.3960494628
 30
0.0
 10
20.7121815713
 20
7.3942561951
 30
0.0
 10
20.7126070007
 20
7.3924251451
 30
0.0
 10
20.7127021966
 20
7.3911876194
 30
0.0
 10
20.7127021966
 20
7.3905740252
 30
0.0
  0
SPLINE
  5
64B
100
AcDbEntity
  8
0
100
AcDbSpline
 62
7
  6
CONTINUOUS
 70
0
 71
3
 72
43
 73
39
 74
0
 42
0.0000001
 43
0.0000001
 44
0.0000000001
 40
0.0
 40
0.0
 40
0.0
 40
0.0
 40
0.0134734769
 40
0.0270416134
 40
0.040717492
 40
0.0545131329
 40
0.0824974185
 40
0.1110754173
 40
0.1402982038
 40
0.1701956615
 40
0.2007770012
 40
0.232031833
 40
0.263931732
 40
0.2964319574
 40
0.329473443
 40
0.3629847955
 40
0.3968843637
 40
0.431082289
 40
0.465482592
 40
0.4999852002
 40
0.5344880062
 40
0.5688888986
 40
0.6030877931
 40
0.6369886906
 40
0.6705017051
 40
0.7035451493
 40
0.7360475866
 40
0.7679498994
 40
0.7992072875
 40
0.8297912596
 40
0.8596913532
 40
0.8889167005
 40
0.9174971042
 40
0.945483557
 40
0.9592801665
 40
0.9729569253
 40
0.9865258451
 40
1.0
 40
1.0
 40
1.0
 40
1.0
 10
21.0842211636
 20
10.6267690229
 30
0.0
 10
21.0829872147
 20
10.6311197196
 30
0.0
 10
21.0802751148
 20
10.6397867729
 30
0.0
 10
21.0755067263
 20
10.6526008382
 30
0.0
 10
21.0700333387
 20
10.6652485236
 30
0.0
 10
21.0617715532
 20
10.6819354795
 30
0.0
 10
21.0496960232
 20
10.7022791216
 30
0.0
 10
21.0326485938
 20
10.725535311
 30
0.0
 10
21.0130973124
 20
10.7475939767
 30
0.0
 10
20.9911854917
 20
10.76829695
 30
0.0
 10
20.9670715893
 20
10.7874985225
 30
0.0
 10
20.9409294071
 20
10.8050630188
 30
0.0
 10
20.912946621
 20
10.8208664189
 30
0.0
 10
20.8833237832
 20
10.8347971047
 30
0.0
 10
20.852272918
 20
10.8467566118
 30
0.0
 10
20.8200160765
 20
10.8566602342
 30
0.0
 10
20.7867838918
 20
10.8644378339
 30
0.0
 10
20.7528139248
 20
10.8700343075
 30
0.0
 10
20.7183489852
 20
10.8734098972
 30
0.0
 10
20.6836354324
 20
10.8745406497
 30
0.0
 10
20.6489214001
 20
10.8734185898
 30
0.0
 10
20.614455025
 20
10.8700516321
 30
0.0
 10
20.5804826772
 20
10.8644636666
 30
0.0
 10
20.5472471833
 20
10.8566943915
 30
0.0
 10
20.5149861274
 20
10.8467988529
 30
0.0
 10
20.483930173
 20
10.8348471295
 30
0.0
 10
20.4543014072
 20
10.8209238732
 30
0.0
 10
20.4263118952
 20
10.8051274978
 30
0.0
 10
20.4001622369
 20
10.7875695701
 30
0.0
 10
20.3760401603
 20
10.7683740642
 30
0.0
 10
20.3541195221
 20
10.7476766141
 30
0.0
 10
20.3345588411
 20
10.7256228868
 30
0.0
 10
20.3175014956
 20
10.7023710136
 30
0.0
 10
20.3054172544
 20
10.6820303929
 30
0.0
 10
20.2971483189
 20
10.665345476
 30
0.0
 10
20.2916695256
 20
10.6526991699
 30
0.0
 10
20.2868956608
 20
10.6398863062
 30
0.0
 10
20.2841798454
 20
10.6312199032
 30
0.0
 10
20.2829440326
 20
10.626869499
 30
0.0
  0
SPLINE
  5
64C
100
AcDbEntity
  8
0
100
AcDbSpline
 62
9
  6
CONTINUOUS
 70
0
 71
3
 72
39
 73
35
 74
0
 42
0.0000001
 43
0.0000001
 44
0.0000000001
 40
0.0
 40
0.0
 40
0.0
 40
0.0
 40
0.0751233554
 40
0.112557206
 40
0.1498329298
 40
0.1868990937
 40
0.2237055033
 40
0.2602033943
 40
0.2963457775
 40
0.3320877369
 40
0.3673867559
 40
0.4022030471
 40
0.4364998951
 40
0.4702440123
 40
0.5034059076
 40
0.5359602698
 40
0.567886365
 40
0.5991684458
 40
0.6297961723
 40
0.6597650367
 40
0.6890767868
 40
0.7177398356
 40
0.7457696415
 40
0.7731890401
 40
0.7866806381
 40
0.8000317144
 40
0.8263294774
 40
0.8521315721
 40
0.8774916306
 40
0.9024704869
 40
0.9271355607
 40
0.951559893
 40
0.9758211611
 40
1.0
 40
1.0
 40
1.0
 40
1.0
 10
20.6835683383
 20
5.5201698773
 30
0.0
 10
20.7175645614
 20
5.5201698773
 30
0.0
 10
20.7685207194
 20
5.5217741618
 30
0.0
 10
20.8361217892
 20
5.5271297744
 30
0.0
 10
20.886402732
 20
5.5327337626
 30
0.0
 10
20.9361949747
 20
5.539915704
 30
0.0
 10
20.9853799689
 20
5.5486584357
 30
0.0
 10
21.0338391486
 20
5.558940949
 30
0.0
 10
21.0814560955
 20
5.570738568
 30
0.0
 10
21.1281163241
 20
5.5840229859
 30
0.0
 10
21.1737076876
 20
5.5987623414
 30
0.0
 10
21.2181206129
 20
5.6149213007
 30
0.0
 10
21.2612483711
 20
5.6324611479
 30
0.0
 10
21.3029873289
 20
5.6513398844
 30
0.0
 10
21.3432371933
 20
5.6715123376
 30
0.0
 10
21.3819012453
 20
5.6929302766
 30
0.0
 10
21.4188865621
 20
5.715542535
 30
0.0
 10
21.4541042278
 20
5.7392951427
 30
0.0
 10
21.4874695242
 20
5.7641314528
 30
0.0
 10
21.5189021312
 20
5.7899923056
 30
0.0
 10
21.5483262243
 20
5.8168160697
 30
0.0
 10
21.5756708741
 20
5.8445391294
 30
0.0
 10
21.6008692897
 20
5.8730947444
 30
0.0
 10
21.6201325534
 20
5.8976613412
 30
0.0
 10
21.6343877954
 20
5.9176598408
 30
0.0
 10
21.6477353908
 20
5.9376675501
 30
0.0
 10
21.6630040333
 20
5.9630736784
 30
0.0
 10
21.6790580614
 20
5.9942638893
 30
0.0
 10
21.6927124503
 20
6.0259299721
 30
0.0
 10
21.7039322921
 20
6.0579948327
 30
0.0
 10
21.7126890741
 20
6.0903805931
 30
0.0
 10
21.718960256
 20
6.123008838
 30
0.0
 10
21.7227295115
 20
6.1557969742
 30
0.0
 10
21.7235683391
 20
6.1777271646
 30
0.0
 10
21.7235683383
 20
6.1886690241
 30
0.0
  0
SPLINE
  5
64D
100
AcDbEntity
  8
0
100
AcDbSpline
 62
9
  6
CONTINUOUS
 70
0
 71
3
 72
63
 73
59
 74
0
 42
0.0000001
 43
0.0000001
 44
0.0000000001
 40
0.0
 40
0.0
 40
0.0
 40
0.0
 40
0.0120897836
 40
0.024220873
 40
0.036433414
 40
0.048766369
 40
0.0612562055
 40
0.073936654
 40
0.0868381263
 40
0.099987441
 40
0.1134076121
 40
0.1271177633
 40
0.141133129
 40
0.1554651271
 40
0.1701214869
 40
0.1851064145
 40
0.2004207837
 40
0.2160623405
 40
0.2320259147
 40
0.2483036325
 40
0.2648851268
 40
0.2817577418
 40
0.2989067317
 40
0.3163154524
 40
0.3339655452
 40
0.3518371154
 40
0.3881532625
 40
0.4250858351
 40
0.4624370932
 40
0.5
 40
0.5375629068
 40
0.5749141649
 40
0.6118467375
 40
0.6481628846
 40
0.6660344548
 40
0.6836845476
 40
0.7010932683
 40
0.7182422582
 40
0.7351148732
 40
0.7516963675
 40
0.7679740853
 40
0.7839376595
 40
0.7995792163
 40
0.8148935855
 40
0.8298785131
 40
0.8445348729
 40
0.858866871
 40
0.8728822367
 40
0.8865923879
 40
0.900012559
 40
0.9131618737
 40
0.926063346
 40
0.9387437945
 40
0.951233631
 40
0.963566586
 40
0.975779127
 40
0.9879102164
 40
1.0
 40
1.0
 40
1.0
 40
1.0
 10
21.4758833112
 20
6.8680541129
 30
0.0
 10
21.4758833112
 20
6.8597181764
 30
0.0
 10
21.4752442423
 20
6.8430108389
 30
0.0
 10
21.4723726932
 20
6.8180314851
 30
0.0
 10
21.4675950081
 20
6.7931739198
 30
0.0
 10
21.4609237508
 20
6.7685011267
 30
0.0
 10
21.4523759839
 20
6.744072768
 30
0.0
 10
21.4419735682
 20
6.719948323
 30
0.0
 10
21.4297427312
 20
6.6961860119
 30
0.0
 10
21.4157140589
 20
6.6728429597
 30
0.0
 10
21.3999223052
 20
6.6499750515
 30
0.0
 10
21.3824063026
 20
6.6276368789
 30
0.0
 10
21.3632088526
 20
6.6058816672
 30
0.0
 10
21.3423766367
 20
6.5847611977
 30
0.0
 10
21.3199601232
 20
6.5643257207
 30
0.0
 10
21.2960134662
 20
6.5446238651
 30
0.0
 10
21.270594401
 20
6.5257025382
 30
0.0
 10
21.2437641281
 20
6.5076068224
 30
0.0
 10
21.2155871866
 20
6.4903798699
 30
0.0
 10
21.1861313169
 20
6.4740627986
 30
0.0
 10
21.1554673087
 20
6.4586945881
 30
0.0
 10
21.1236688537
 20
6.4443119867
 30
0.0
 10
21.0908123271
 20
6.4309493977
 30
0.0
 10
21.0569767997
 20
6.4186388661
 30
0.0
 10
21.0222431282
 20
6.4074097071
 30
0.0
 10
20.974595694
 20
6.3938443941
 30
0.0
 10
20.9133059857
 20
6.3797909036
 30
0.0
 10
20.8379593304
 20
6.3676948929
 30
0.0
 10
20.7611344493
 20
6.3603906316
 30
0.0
 10
20.6835683383
 20
6.3579481842
 30
0.0
 10
20.6060022272
 20
6.3603906316
 30
0.0
 10
20.5291773462
 20
6.3676948929
 30
0.0
 10
20.4538306909
 20
6.3797909036
 30
0.0
 10
20.3925409826
 20
6.3938443941
 30
0.0
 10
20.3448935483
 20
6.4074097071
 30
0.0
 10
20.3101598768
 20
6.4186388661
 30
0.0
 10
20.2763243494
 20
6.4309493977
 30
0.0
 10
20.2434678229
 20
6.4443119867
 30
0.0
 10
20.2116693678
 20
6.4586945881
 30
0.0
 10
20.1810053596
 20
6.4740627986
 30
0.0
 10
20.15154949
 20
6.4903798699
 30
0.0
 10
20.1233725485
 20
6.5076068224
 30
0.0
 10
20.0965422755
 20
6.5257025382
 30
0.0
 10
20.0711232103
 20
6.5446238651
 30
0.0
 10
20.0471765534
 20
6.5643257207
 30
0.0
 10
20.0247600398
 20
6.5847611977
 30
0.0
 10
20.003927824
 20
6.6058816672
 30
0.0
 10
19.984730374
 20
6.6276368789
 30
0.0
 10
19.9672143714
 20
6.6499750515
 30
0.0
 10
19.9514226177
 20
6.6728429597
 30
0.0
 10
19.9373939453
 20
6.6961860119
 30
0.0
 10
19.9251631084
 20
6.719948323
 30
0.0
 10
19.9147606927
 20
6.744072768
 30
0.0
 10
19.9062129258
 20
6.7685011267
 30
0.0
 10
19.8995416685
 20
6.7931739198
 30
0.0
 10
19.8947639834
 20
6.8180314851
 30
0.0
 10
19.8918924343
 20
6.8430108389
 30
0.0
 10
19.8912533654
 20
6.8597181764
 30
0.0
 10
19.8912533654
 20
6.8680541129
 30
0.0
  0
SPLINE
  5
64E
100
AcDbEntity
  8
0
100
AcDbSpline
 62
9
  6
CONTINUOUS
 70
0
 71
3
 72
15
 73
11
 74
0
 42
0.0000001
 43
0.0000001
 44
0.0000000001
 40
0.0
 40
0.0
 40
0.0
 40
0.0
 40
0.1381222372
 40
0.2711775281
 40
0.3997487873
 40
0.5244825501
 40
0.6460873456
 40
0.7653282917
 40
0.8830174396
 40
1.0
 40
1.0
 40
1.0
 40
1.0
 10
4.9940416923
 20
2.7505005556
 30
0.0
 10
4.9923884202
 20
2.7480830528
 30
0.0
 10
4.9892814785
 20
2.7432394194
 30
0.0
 10
4.9851747548
 20
2.7358173478
 30
0.0
 10
4.9817147812
 20
2.7283835229
 30
0.0
 10
4.9789028175
 20
2.7209395288
 30
0.0
 10
4.9767399576
 20
2.713486872
 30
0.0
 10
4.975227375
 20
2.7060272267
 30
0.0
 10
4.9743660778
 20
2.6985635257
 30
0.0
 10
4.9742265135
 20
2.6935820304
 30
0.0
 10
4.9742652194
 20
2.6911018216
 30
0.0
  0
SPLINE
  5
64F
100
AcDbEntity
  8
0
100
AcDbSpline
 62
7
  6
CONTINUOUS
 70
0
 71
3
 72
51
 73
47
 74
0
 42
0.0000001
 43
0.0000001
 44
0.0000000001
 40
0.0
 40
0.0
 40
0.0
 40
0.0
 40
0.0135005063
 40
0.0270243684
 40
0.040593094
 40
0.054229162
 40
0.0679532313
 40
0.0817849781
 40
0.0957425654
 40
0.1098424691
 40
0.1240993315
 40
0.1385258242
 40
0.1531325816
 40
0.1679281367
 40
0.1980993609
 40
0.2290767953
 40
0.2608551688
 40
0.2933999592
 40
0.3266505414
 40
0.3605237482
 40
0.3949175858
 40
0.4297150206
 40
0.4647877495
 40
0.5
 40
0.5352122505
 40
0.5702849794
 40
0.6050824142
 40
0.6394762518
 40
0.6733494586
 40
0.7066000408
 40
0.7391448312
 40
0.7709232047
 40
0.8019006391
 40
0.8320718633
 40
0.8468674184
 40
0.8614741758
 40
0.8759006685
 40
0.8901575309
 40
0.9042574346
 40
0.9182150219
 40
0.9320467687
 40
0.945770838
 40
0.959406906
 40
0.9729756316
 40
0.9864994937
 40
1.0
 40
1.0
 40
1.0
 40
1.0
 10
21.1335683383
 20
10.9258327566
 30
0.0
 10
21.1335683383
 20
10.9314737668
 30
0.0
 10
21.1332060692
 20
10.9427688789
 30
0.0
 10
21.1315779447
 20
10.959662874
 30
0.0
 10
21.1288686796
 20
10.9764754903
 30
0.0
 10
21.1250852767
 20
10.9931648226
 30
0.0
 10
21.1202368696
 20
11.0096908247
 30
0.0
 10
21.1143354791
 20
11.0260133665
 30
0.0
 10
21.1073956258
 20
11.0420930478
 30
0.0
 10
21.0994343295
 20
11.057891063
 30
0.0
 10
21.0904710284
 20
11.0733693815
 30
0.0
 10
21.0805276591
 20
11.0884906546
 30
0.0
 10
21.069628044
 20
11.1032189352
 30
0.0
 10
21.0537555479
 20
11.1224069082
 30
0.0
 10
21.031610018
 20
11.1452194728
 30
0.0
 10
21.0018775837
 20
11.170283893
 30
0.0
 10
20.9690954728
 20
11.1929890467
 30
0.0
 10
20.933581211
 20
11.2131187934
 30
0.0
 10
20.8956751172
 20
11.2304844713
 30
0.0
 10
20.8557403595
 20
11.2449221259
 30
0.0
 10
20.814159033
 20
11.2562955454
 30
0.0
 10
20.7713288599
 20
11.2644972241
 30
0.0
 10
20.7276594203
 20
11.2694494686
 30
0.0
 10
20.6835683383
 20
11.2711054948
 30
0.0
 10
20.6394772562
 20
11.2694494686
 30
0.0
 10
20.5958078167
 20
11.2644972241
 30
0.0
 10
20.5529776436
 20
11.2562955454
 30
0.0
 10
20.5113963171
 20
11.2449221259
 30
0.0
 10
20.4714615593
 20
11.2304844713
 30
0.0
 10
20.4335554655
 20
11.2131187934
 30
0.0
 10
20.3980412037
 20
11.1929890467
 30
0.0
 10
20.3652590928
 20
11.170283893
 30
0.0
 10
20.3355266586
 20
11.1452194728
 30
0.0
 10
20.3133811287
 20
11.1224069082
 30
0.0
 10
20.2975086326
 20
11.1032189352
 30
0.0
 10
20.2866090175
 20
11.0884906546
 30
0.0
 10
20.2766656482
 20
11.0733693815
 30
0.0
 10
20.267702347
 20
11.057891063
 30
0.0
 10
20.2597410508
 20
11.0420930478
 30
0.0
 10
20.2528011975
 20
11.0260133665
 30
0.0
 10
20.2468998069
 20
11.0096908247
 30
0.0
 10
20.2420513999
 20
10.9931648226
 30
0.0
 10
20.2382679969
 20
10.9764754903
 30
0.0
 10
20.2355587319
 20
10.959662874
 30
0.0
 10
20.2339306073
 20
10.9427688789
 30
0.0
 10
20.2335683383
 20
10.9314737668
 30
0.0
 10
20.2335683383
 20
10.9258327566
 30
0.0
  0
SPLINE
  5
650
100
AcDbEntity
  8
0
100
AcDbSpline
 62
9
  6
CONTINUOUS
 70
0
 71
3
 72
103
 73
99
 74
0
 42
0.0000001
 43
0.0000001
 44
0.0000000001
 40
0.0
 40
0.0
 40
0.0
 40
0.0
 40
0.0025564529
 40
0.0050497478
 40
0.0075159473
 40
0.0099909339
 40
0.0125089926
 40
0.0151013879
 40
0.0206085229
 40
0.0235729869
 40
0.0266981428
 40
0.02999671
 40
0.0334786802
 40
0.0371517528
 40
0.0410218609
 40
0.0493678113
 40
0.0585411304
 40
0.0685512316
 40
0.0793992133
 40
0.0910806165
 40
0.1035876564
 40
0.1169102035
 40
0.1310371695
 40
0.1459569765
 40
0.1616582572
 40
0.1781307148
 40
0.1953650707
 40
0.2133548107
 40
0.2320957233
 40
0.2515887017
 40
0.2718404351
 40
0.2928662805
 40
0.3146949903
 40
0.3373736559
 40
0.3609815603
 40
0.3731718703
 40
0.3856479325
 40
0.39843834
 40
0.4115822054
 40
0.4183003069
 40
0.4251238174
 40
0.4320602045
 40
0.4391173952
 40
0.4463011577
 40
0.4536165055
 40
0.46106639
 40
0.4686497355
 40
0.4763573201
 40
0.4841713096
 40
0.4920644101
 40
0.500000278
 40
0.5079360914
 40
0.5158293734
 40
0.523643302
 40
0.5313507424
 40
0.5389342159
 40
0.5463842216
 40
0.553699599
 40
0.5608831936
 40
0.5748763257
 40
0.5817000424
 40
0.5884181083
 40
0.6015616437
 40
0.6143520786
 40
0.6390185262
 40
0.6626261421
 40
0.6853050474
 40
0.7071337377
 40
0.7281595247
 40
0.7484112476
 40
0.7679042384
 40
0.786645163
 40
0.8046349106
 40
0.8218692711
 40
0.8383417319
 40
0.8540430148
 40
0.8689628222
 40
0.8830897889
 40
0.8964123373
 40
0.9089193785
 40
0.9206007838
 40
0.9314487694
 40
0.9414588728
 40
0.950632192
 40
0.9589781469
 40
0.9628482573
 40
0.9665213295
 40
0.9700032951
 40
0.9733018547
 40
0.9764270026
 40
0.9793914611
 40
0.9848986014
 40
0.9874910124
 40
0.9900090932
 40
0.9924841049
 40
0.994950326
 40
0.9974436147
 40
1.0
 40
1.0
 40
1.0
 40
1.0
 10
20.3435683383
 20
7.5440969582
 30
0.0
 10
20.3435683776
 20
7.544713265
 30
0.0
 10
20.3436399296
 20
7.5459321318
 30
0.0
 10
20.3439724952
 20
7.5477180597
 30
0.0
 10
20.3445250227
 20
7.5494283136
 30
0.0
 10
20.345293438
 20
7.5510593634
 30
0.0
 10
20.346273301
 20
7.5526087303
 30
0.0
 10
20.3478869144
 20
7.554601951
 30
0.0
 10
20.3498988259
 20
7.556384567
 30
0.0
 10
20.3522154482
 20
7.5579525059
 30
0.0
 10
20.3541868616
 20
7.5590693639
 30
0.0
 10
20.3563448518
 20
7.5600960194
 30
0.0
 10
20.3586864841
 20
7.5610318271
 30
0.0
 10
20.3612083329
 20
7.5618755657
 30
0.0
 10
20.3649002335
 20
7.5629020919
 30
0.0
 10
20.369960981
 20
7.5639271401
 30
0.0
 10
20.3765523544
 20
7.5647440045
 30
0.0
 10
20.3837841841
 20
7.5651691638
 30
0.0
 10
20.3916321469
 20
7.5651956785
 30
0.0
 10
20.4000730795
 20
7.5648171608
 30
0.0
 10
20.4090841456
 20
7.5640284018
 30
0.0
 10
20.4186434159
 20
7.5628247177
 30
0.0
 10
20.4287300006
 20
7.5612028563
 30
0.0
 10
20.4393242989
 20
7.5591603745
 30
0.0
 10
20.4504082634
 20
7.556695884
 30
0.0
 10
20.4619658365
 20
7.5538097983
 30
0.0
 10
20.4739832458
 20
7.5505031888
 30
0.0
 10
20.486449981
 20
7.5467802582
 30
0.0
 10
20.4993592336
 20
7.5426459558
 30
0.0
 10
20.512709924
 20
7.5381097554
 30
0.0
 10
20.5265082483
 20
7.5331845672
 30
0.0
 10
20.5407707265
 20
7.5278888608
 30
0.0
 10
20.5555297142
 20
7.5222519339
 30
0.0
 10
20.5708393416
 20
7.5163131454
 30
0.0
 10
20.5839865512
 20
7.5112245621
 30
0.0
 10
20.594869553
 20
7.5071010964
 30
0.0
 10
20.6033383806
 20
7.5039669498
 30
0.0
 10
20.6120582527
 20
7.5008501041
 30
0.0
 10
20.6195141749
 20
7.4983235778
 30
0.0
 10
20.6256407281
 20
7.4963602879
 30
0.0
 10
20.6303608336
 20
7.4949131164
 30
0.0
 10
20.6351810307
 20
7.4935152952
 30
0.0
 10
20.6401090225
 20
7.492179925
 30
0.0
 10
20.6451516725
 20
7.4909220957
 30
0.0
 10
20.6503138703
 20
7.4897573962
 30
0.0
 10
20.6555994926
 20
7.4887096284
 30
0.0
 10
20.6610072186
 20
7.4878028987
 30
0.0
 10
20.6665288141
 20
7.4870612728
 30
0.0
 10
20.6721476193
 20
7.4865073368
 30
0.0
 10
20.6778386528
 20
7.4861648913
 30
0.0
 10
20.6835682678
 20
7.4860524992
 30
0.0
 10
20.6892978905
 20
7.486165642
 30
0.0
 10
20.6949889944
 20
7.4865070201
 30
0.0
 10
20.7006078306
 20
7.4870608203
 30
0.0
 10
20.7061292655
 20
7.4878034534
 30
0.0
 10
20.7115370973
 20
7.488709649
 30
0.0
 10
20.7168228431
 20
7.4897571493
 30
0.0
 10
20.7219850579
 20
7.4909218228
 30
0.0
 10
20.7286500093
 20
7.4925848675
 30
0.0
 10
20.735149353
 20
7.4944146287
 30
0.0
 10
20.7414961243
 20
7.4963598802
 30
0.0
 10
20.747622636
 20
7.4983232745
 30
0.0
 10
20.7550782474
 20
7.5008504186
 30
0.0
 10
20.7665655216
 20
7.5049563873
 30
0.0
 10
20.7803453566
 20
7.5101386477
 30
0.0
 10
20.7962971036
 20
7.5163136244
 30
0.0
 10
20.811607037
 20
7.5222516698
 30
0.0
 10
20.8263659765
 20
7.5278888049
 30
0.0
 10
20.8406284022
 20
7.5331845996
 30
0.0
 10
20.854426703
 20
7.5381098121
 30
0.0
 10
20.8677774011
 20
7.5426460013
 30
0.0
 10
20.880686665
 20
7.5467802934
 30
0.0
 10
20.8931534089
 20
7.5505032153
 30
0.0
 10
20.9051708241
 20
7.5538098172
 30
0.0
 10
20.9167284015
 20
7.5566958957
 30
0.0
 10
20.9278123681
 20
7.5591603826
 30
0.0
 10
20.9384066666
 20
7.5612028676
 30
0.0
 10
20.9484932519
 20
7.5628247295
 30
0.0
 10
20.9580525231
 20
7.5640284122
 30
0.0
 10
20.9670635903
 20
7.5648171716
 30
0.0
 10
20.9755045248
 20
7.5651956878
 30
0.0
 10
20.9833524897
 20
7.5651691646
 30
0.0
 10
20.9905843204
 20
7.5647440021
 30
0.0
 10
20.9971756961
 20
7.5639271414
 30
0.0
 10
21.0022364438
 20
7.5629020847
 30
0.0
 10
21.0059283445
 20
7.5618755531
 30
0.0
 10
21.0084501927
 20
7.5610318153
 30
0.0
 10
21.0107918243
 20
7.5600960144
 30
0.0
 10
21.0129498136
 20
7.5590693682
 30
0.0
 10
21.0149212262
 20
7.5579525192
 30
0.0
 10
21.0172378503
 20
7.5563845862
 30
0.0
 10
21.0192497642
 20
7.5546019661
 30
0.0
 10
21.0208633779
 20
7.5526087322
 30
0.0
 10
21.0218432426
 20
7.5510593483
 30
0.0
 10
21.0226116564
 20
7.5494282792
 30
0.0
 10
21.0231641751
 20
7.5477180122
 30
0.0
 10
21.0234967358
 20
7.5459320969
 30
0.0
 10
21.0235682944
 20
7.5447132487
 30
0.0
 10
21.0235683383
 20
7.5440969582
 30
0.0
  0
SPLINE
  5
651
100
AcDbEntity
  8
0
100
AcDbSpline
 62
9
  6
CONTINUOUS
 70
0
 71
3
 72
49
 73
45
 74
0
 42
0.0000001
 43
0.0000001
 44
0.0000000001
 40
0.0
 40
0.0
 40
0.0
 40
0.0
 40
0.0135006962
 40
0.0270249862
 40
0.0405939641
 40
0.0542303172
 40
0.0679546955
 40
0.0817867305
 40
0.0957446175
 40
0.1098448254
 40
0.1241019954
 40
0.1385287978
 40
0.1679210104
 40
0.1980928868
 40
0.2290709819
 40
0.2608500383
 40
0.2933955278
 40
0.3266468206
 40
0.3605207565
 40
0.3949153308
 40
0.4297135118
 40
0.4647869946
 40
0.5
 40
0.5352130054
 40
0.5702864882
 40
0.6050846692
 40
0.6394792435
 40
0.6733531794
 40
0.7066044722
 40
0.7391499617
 40
0.7709290181
 40
0.8019071132
 40
0.8320789896
 40
0.8614712022
 40
0.8758980046
 40
0.8901551746
 40
0.9042553825
 40
0.9182132695
 40
0.9320453045
 40
0.9457696828
 40
0.9594060359
 40
0.9729750138
 40
0.9864993038
 40
1.0
 40
1.0
 40
1.0
 40
1.0
 10
20.3435683383
 20
8.121672101
 30
0.0
 10
20.3435683383
 20
8.1259341661
 30
0.0
 10
20.3438420704
 20
8.1344682618
 30
0.0
 10
20.3450721828
 20
8.1472326156
 30
0.0
 10
20.3471191898
 20
8.15993551
 30
0.0
 10
20.349977761
 20
8.172545217
 30
0.0
 10
20.3536410163
 20
8.1850315262
 30
0.0
 10
20.3580998393
 20
8.1973641119
 30
0.0
 10
20.3633432731
 20
8.2095132258
 30
0.0
 10
20.3693584342
 20
8.2214494516
 30
0.0
 10
20.3761309094
 20
8.2331443623
 30
0.0
 10
20.3862085921
 20
8.2484702887
 30
0.0
 10
20.4006586787
 20
8.2668864143
 30
0.0
 10
20.4206026422
 20
8.2874297397
 30
0.0
 10
20.4430682587
 20
8.30636886
 30
0.0
 10
20.4678366647
 20
8.3235234167
 30
0.0
 10
20.4946697415
 20
8.3387326889
 30
0.0
 10
20.5233098773
 20
8.351853393
 30
0.0
 10
20.5534828166
 20
8.3627618341
 30
0.0
 10
20.5848998087
 20
8.3713551167
 30
0.0
 10
20.6172603928
 20
8.3775518915
 30
0.0
 10
20.650255074
 20
8.3812936484
 30
0.0
 10
20.6835683383
 20
8.3825448003
 30
0.0
 10
20.7168816026
 20
8.3812936484
 30
0.0
 10
20.7498762837
 20
8.3775518915
 30
0.0
 10
20.7822368679
 20
8.3713551167
 30
0.0
 10
20.81365386
 20
8.3627618341
 30
0.0
 10
20.8438267993
 20
8.351853393
 30
0.0
 10
20.8724669351
 20
8.3387326889
 30
0.0
 10
20.8993000118
 20
8.3235234167
 30
0.0
 10
20.9240684179
 20
8.30636886
 30
0.0
 10
20.9465340344
 20
8.2874297397
 30
0.0
 10
20.9664779979
 20
8.2668864143
 30
0.0
 10
20.9809280844
 20
8.2484702887
 30
0.0
 10
20.9910057671
 20
8.2331443623
 30
0.0
 10
20.9977782424
 20
8.2214494516
 30
0.0
 10
21.0037934035
 20
8.2095132258
 30
0.0
 10
21.0090368373
 20
8.1973641119
 30
0.0
 10
21.0134956603
 20
8.1850315263
 30
0.0
 10
21.0171589155
 20
8.172545217
 30
0.0
 10
21.0200174868
 20
8.15993551
 30
0.0
 10
21.0220644938
 20
8.1472326156
 30
0.0
 10
21.0232946062
 20
8.1344682618
 30
0.0
 10
21.0235683383
 20
8.1259341661
 30
0.0
 10
21.0235683383
 20
8.121672101
 30
0.0
  0
SPLINE
  5
652
100
AcDbEntity
  8
0
100
AcDbSpline
 62
9
  6
CONTINUOUS
 70
0
 71
3
 72
51
 73
47
 74
0
 42
0.0000001
 43
0.0000001
 44
0.0000000001
 40
0.0
 40
0.0
 40
0.0
 40
0.0
 40
0.0134464752
 40
0.0269523661
 40
0.0405359944
 40
0.0542149063
 40
0.0680055138
 40
0.0819228548
 40
0.0959805085
 40
0.1101904673
 40
0.1245630694
 40
0.1391069481
 40
0.1538289928
 40
0.1687343527
 40
0.1990987382
 40
0.2302164987
 40
0.2620697878
 40
0.2946177497
 40
0.3277991611
 40
0.3615352316
 40
0.3957325481
 40
0.4302859903
 40
0.4650817026
 40
0.5
 40
0.5349182974
 40
0.5697140097
 40
0.6042674519
 40
0.6384647684
 40
0.6722008389
 40
0.7053822503
 40
0.7379302122
 40
0.7697835013
 40
0.8009012618
 40
0.8312656473
 40
0.8461710072
 40
0.8608930519
 40
0.8754369306
 40
0.8898095327
 40
0.9040194915
 40
0.9180771452
 40
0.9319944862
 40
0.9457850937
 40
0.9594640056
 40
0.9730476339
 40
0.9865535248
 40
1.0
 40
1.0
 40
1.0
 40
1.0
 10
21.1316386651
 20
8.3306495438
 30
0.0
 10
21.1309966741
 20
8.3359428862
 30
0.0
 10
21.1293907349
 20
8.3465169861
 30
0.0
 10
21.1260339967
 20
8.3622460729
 30
0.0
 10
21.1217321373
 20
8.3778394455
 30
0.0
 10
21.1164946967
 20
8.3932628781
 30
0.0
 10
21.1103330541
 20
8.4084835847
 30
0.0
 10
21.1032605271
 20
8.4234689668
 30
0.0
 10
21.0952924206
 20
8.4381870467
 30
0.0
 10
21.0864459839
 20
8.4526064583
 30
0.0
 10
21.0767402514
 20
8.4666965179
 30
0.0
 10
21.0661961459
 20
8.4804271474
 30
0.0
 10
21.054835993
 20
8.4937694541
 30
0.0
 10
21.038535843
 20
8.511107916
 30
0.0
 10
21.0162089798
 20
8.5316511077
 30
0.0
 10
20.9867625853
 20
8.5541520352
 30
0.0
 10
20.9547426497
 20
8.5744726052
 30
0.0
 10
20.920423501
 20
8.5924412552
 30
0.0
 10
20.8840961978
 20
8.6079081987
 30
0.0
 10
20.8460691186
 20
8.6207438859
 30
0.0
 10
20.8066646347
 20
8.6308406565
 30
0.0
 10
20.7662168073
 20
8.6381138956
 30
0.0
 10
20.725068447
 20
8.6425023743
 30
0.0
 10
20.6835683383
 20
8.6439693651
 30
0.0
 10
20.6420682296
 20
8.6425023743
 30
0.0
 10
20.6009198692
 20
8.6381138956
 30
0.0
 10
20.5604720418
 20
8.6308406565
 30
0.0
 10
20.521067558
 20
8.6207438859
 30
0.0
 10
20.4830404788
 20
8.6079081987
 30
0.0
 10
20.4467131756
 20
8.5924412552
 30
0.0
 10
20.4123940268
 20
8.5744726052
 30
0.0
 10
20.3803740913
 20
8.5541520352
 30
0.0
 10
20.3509276968
 20
8.5316511077
 30
0.0
 10
20.3286008336
 20
8.511107916
 30
0.0
 10
20.3123006836
 20
8.4937694541
 30
0.0
 10
20.3009405306
 20
8.4804271474
 30
0.0
 10
20.2903964251
 20
8.4666965179
 30
0.0
 10
20.2806906927
 20
8.4526064582
 30
0.0
 10
20.271844256
 20
8.4381870467
 30
0.0
 10
20.2638761494
 20
8.4234689668
 30
0.0
 10
20.2568036225
 20
8.4084835847
 30
0.0
 10
20.2506419799
 20
8.3932628781
 30
0.0
 10
20.2454045393
 20
8.3778394455
 30
0.0
 10
20.2411026798
 20
8.3622460729
 30
0.0
 10
20.2377459416
 20
8.3465169861
 30
0.0
 10
20.2361400025
 20
8.3359428862
 30
0.0
 10
20.2354980115
 20
8.3306495438
 30
0.0
  0
SPLINE
  5
653
100
AcDbEntity
  8
0
100
AcDbSpline
 62
9
  6
CONTINUOUS
 70
0
 71
3
 72
51
 73
47
 74
0
 42
0.0000001
 43
0.0000001
 44
0.0000000001
 40
0.0
 40
0.0
 40
0.0
 40
0.0
 40
0.013500507
 40
0.0270243674
 40
0.0405930932
 40
0.0542291632
 40
0.0679532306
 40
0.0817849773
 40
0.095742566
 40
0.1098424691
 40
0.12409933
 40
0.1385258253
 40
0.153132582
 40
0.1679281357
 40
0.1980993617
 40
0.2290767952
 40
0.2608551677
 40
0.2933999603
 40
0.32665054
 40
0.360523748
 40
0.3949175864
 40
0.4297150188
 40
0.4647877506
 40
0.5
 40
0.5352122494
 40
0.5702849813
 40
0.6050824136
 40
0.639476252
 40
0.67334946
 40
0.7066000397
 40
0.7391448323
 40
0.7709232048
 40
0.8019006383
 40
0.8320718644
 40
0.8468674181
 40
0.8614741747
 40
0.87590067
 40
0.890157531
 40
0.904257434
 40
0.9182150227
 40
0.9320467694
 40
0.9457708368
 40
0.9594069069
 40
0.9729756326
 40
0.9864994931
 40
1.0
 40
1.0
 40
1.0
 40
1.0
 10
20.2473183383
 20
8.2766238339
 30
0.0
 10
20.2473183383
 20
8.2820924802
 30
0.0
 10
20.2476695382
 20
8.2930424635
 30
0.0
 10
20.2492479138
 20
8.3094202529
 30
0.0
 10
20.2518743966
 20
8.3257191505
 30
0.0
 10
20.255542195
 20
8.3418985312
 30
0.0
 10
20.2602424565
 20
8.3579195721
 30
0.0
 10
20.2659635267
 20
8.3737433693
 30
0.0
 10
20.2726913291
 20
8.3893317272
 30
0.0
 10
20.2804093631
 20
8.4046470252
 30
0.0
 10
20.2890987858
 20
8.4196523951
 30
0.0
 10
20.2987383301
 20
8.4343116294
 30
0.0
 10
20.3093049013
 20
8.4485898796
 30
0.0
 10
20.3246924047
 20
8.467191553
 30
0.0
 10
20.3461612652
 20
8.4893070672
 30
0.0
 10
20.3749852088
 20
8.5136056298
 30
0.0
 10
20.4067656439
 20
8.5356170152
 30
0.0
 10
20.4411947473
 20
8.555131686
 30
0.0
 10
20.4779425997
 20
8.571966746
 30
0.0
 10
20.5166571284
 20
8.5859632504
 30
0.0
 10
20.5569679143
 20
8.5969891484
 30
0.0
 10
20.5984893881
 20
8.6049402206
 30
0.0
 10
20.6408244834
 20
8.6097411466
 30
0.0
 10
20.6835683383
 20
8.6113465717
 30
0.0
 10
20.7263121931
 20
8.6097411466
 30
0.0
 10
20.7686472884
 20
8.6049402206
 30
0.0
 10
20.8101687622
 20
8.5969891484
 30
0.0
 10
20.8504795481
 20
8.5859632504
 30
0.0
 10
20.8891940768
 20
8.571966746
 30
0.0
 10
20.9259419292
 20
8.555131686
 30
0.0
 10
20.9603710327
 20
8.5356170153
 30
0.0
 10
20.9921514678
 20
8.5136056298
 30
0.0
 10
21.0209754113
 20
8.4893070672
 30
0.0
 10
21.0424442718
 20
8.467191553
 30
0.0
 10
21.0578317753
 20
8.4485898796
 30
0.0
 10
21.0683983464
 20
8.4343116294
 30
0.0
 10
21.0780378908
 20
8.4196523952
 30
0.0
 10
21.0867273134
 20
8.4046470252
 30
0.0
 10
21.0944453475
 20
8.3893317273
 30
0.0
 10
21.1011731499
 20
8.3737433693
 30
0.0
 10
21.1068942201
 20
8.3579195721
 30
0.0
 10
21.1115944816
 20
8.3418985312
 30
0.0
 10
21.11526228
 20
8.3257191505
 30
0.0
 10
21.1178887627
 20
8.3094202529
 30
0.0
 10
21.1194671383
 20
8.2930424635
 30
0.0
 10
21.1198183383
 20
8.2820924803
 30
0.0
 10
21.1198183383
 20
8.276623834
 30
0.0
  0
SPLINE
  5
654
100
AcDbEntity
  8
0
100
AcDbSpline
 62
9
  6
CONTINUOUS
 70
0
 71
3
 72
19
 73
15
 74
0
 42
0.0000001
 43
0.0000001
 44
0.0000000001
 40
0.0
 40
0.0
 40
0.0
 40
0.0
 40
0.0597058023
 40
0.1194905225
 40
0.1794215052
 40
0.2395748822
 40
0.3000205054
 40
0.3608250637
 40
0.4220522269
 40
0.4837610566
 40
0.6087962837
 40
0.736343522
 40
0.8666829498
 40
1.0
 40
1.0
 40
1.0
 40
1.0
 10
21.1198183383
 20
8.276623834
 30
0.0
 10
21.1198183383
 20
8.271912218
 30
0.0
 10
21.1195577398
 20
8.2624806914
 30
0.0
 10
21.1183863692
 20
8.2483635502
 30
0.0
 10
21.1164362659
 20
8.2342967099
 30
0.0
 10
21.1137111573
 20
8.2203063256
 30
0.0
 10
21.110215991
 20
8.206417141
 30
0.0
 10
21.1059571784
 20
8.1926542818
 30
0.0
 10
21.1009421807
 20
8.1790421026
 30
0.0
 10
21.0932276108
 20
8.1610505881
 30
0.0
 10
21.0817024885
 20
8.1390371505
 30
0.0
 10
21.0650887614
 20
8.1137408701
 30
0.0
 10
21.0457517726
 20
8.0896211941
 30
0.0
 10
21.0313004647
 20
8.0746084525
 30
0.0
 10
21.0236872139
 20
8.0673475509
 30
0.0
  0
SPLINE
  5
655
100
AcDbEntity
  8
0
100
AcDbSpline
 62
9
  6
CONTINUOUS
 70
0
 71
3
 72
19
 73
15
 74
0
 42
0.0000001
 43
0.0000001
 44
0.0000000001
 40
0.0
 40
0.0
 40
0.0
 40
0.0
 40
0.1333170503
 40
0.2636564783
 40
0.3912037166
 40
0.5162389438
 40
0.5779477735
 40
0.6391749367
 40
0.699979495
 40
0.7604251182
 40
0.8205784951
 40
0.8805094778
 40
0.9402941978
 40
1.0
 40
1.0
 40
1.0
 40
1.0
 10
20.3434494648
 20
8.0673475489
 30
0.0
 10
20.3358362138
 20
8.0746084506
 30
0.0
 10
20.3213849056
 20
8.0896211922
 30
0.0
 10
20.3020479164
 20
8.1137408684
 30
0.0
 10
20.2854341889
 20
8.139037149
 30
0.0
 10
20.2739090664
 20
8.1610505868
 30
0.0
 10
20.2661944963
 20
8.1790421015
 30
0.0
 10
20.2611794985
 20
8.1926542808
 30
0.0
 10
20.2569206858
 20
8.2064171402
 30
0.0
 10
20.2534255194
 20
8.2203063249
 30
0.0
 10
20.2507004108
 20
8.2342967094
 30
0.0
 10
20.2487503074
 20
8.2483635499
 30
0.0
 10
20.2475789368
 20
8.2624806912
 30
0.0
 10
20.2473183383
 20
8.2719122179
 30
0.0
 10
20.2473183383
 20
8.2766238339
 30
0.0
  0
SPLINE
  5
656
100
AcDbEntity
  8
0
100
AcDbSpline
 62
9
  6
CONTINUOUS
 70
0
 71
3
 72
39
 73
35
 74
0
 42
0.0000001
 43
0.0000001
 44
0.0000000001
 40
0.0
 40
0.0
 40
0.0
 40
0.0
 40
0.0751233553
 40
0.1125572059
 40
0.1498329296
 40
0.1868990936
 40
0.2237055032
 40
0.2602033943
 40
0.2963457774
 40
0.3320877369
 40
0.3673867559
 40
0.4022030471
 40
0.4364998951
 40
0.4702440122
 40
0.5034059076
 40
0.5359602698
 40
0.567886365
 40
0.5991684458
 40
0.6297961723
 40
0.6597650367
 40
0.6890767868
 40
0.7177398356
 40
0.7457696416
 40
0.7731890401
 40
0.7866806381
 40
0.8000317145
 40
0.8263294774
 40
0.8521315721
 40
0.8774916306
 40
0.902470487
 40
0.9271355608
 40
0.9515598931
 40
0.9758211611
 40
1.0
 40
1.0
 40
1.0
 40
1.0
 10
20.6835683391
 20
5.5530997422
 30
0.0
 10
20.7171654112
 20
5.5530997422
 30
0.0
 10
20.767523291
 20
5.5546851908
 30
0.0
 10
20.834330654
 20
5.5599779229
 30
0.0
 10
20.8840212464
 20
5.5655161145
 30
0.0
 10
20.9332288765
 20
5.5726137325
 30
0.0
 10
20.9818363879
 20
5.5812538154
 30
0.0
 10
21.0297266066
 20
5.5914156014
 30
0.0
 10
21.0767844811
 20
5.6030747042
 30
0.0
 10
21.1228968702
 20
5.6162031492
 30
0.0
 10
21.1679529438
 20
5.6307694494
 30
0.0
 10
21.2118444152
 20
5.6467386858
 30
0.0
 10
21.2544658088
 20
5.6640725969
 30
0.0
 10
21.295714708
 20
5.6827296776
 30
0.0
 10
21.3354919972
 20
5.7026652853
 30
0.0
 10
21.3737020931
 20
5.7238317554
 30
0.0
 10
21.4102531639
 20
5.7461785224
 30
0.0
 10
21.4450573376
 20
5.7696522499
 30
0.0
 10
21.4780308909
 20
5.794196956
 30
0.0
 10
21.5090944465
 20
5.8197541756
 30
0.0
 10
21.5381730702
 20
5.8462630008
 30
0.0
 10
21.5651966654
 20
5.873660563
 30
0.0
 10
21.5900992254
 20
5.9018809056
 30
0.0
 10
21.6091363184
 20
5.926159065
 30
0.0
 10
21.6232241891
 20
5.9459227614
 30
0.0
 10
21.6364150699
 20
5.9656955595
 30
0.0
 10
21.6515044427
 20
5.9908033935
 30
0.0
 10
21.6673699798
 20
6.021627399
 30
0.0
 10
21.680864052
 20
6.0529216892
 30
0.0
 10
21.6919521613
 20
6.0846100751
 30
0.0
 10
21.7006061295
 20
6.116615593
 30
0.0
 10
21.7068036812
 20
6.1488607485
 30
0.0
 10
21.7105286818
 20
6.1812639179
 30
0.0
 10
21.7113576606
 20
6.2029366251
 30
0.0
 10
21.7113576598
 20
6.2137500158
 30
0.0
  0
SPLINE
  5
657
100
AcDbEntity
  8
0
100
AcDbSpline
 62
9
  6
CONTINUOUS
 70
0
 71
3
 72
63
 73
59
 74
0
 42
0.0000001
 43
0.0000001
 44
0.0000000001
 40
0.0
 40
0.0
 40
0.0
 40
0.0
 40
0.0120898189
 40
0.0242208943
 40
0.0364334414
 40
0.0487663932
 40
0.06125623
 40
0.0739366778
 40
0.0868381497
 40
0.099987464
 40
0.1134076345
 40
0.1271177848
 40
0.141133149
 40
0.1554651453
 40
0.1701215034
 40
0.1851064299
 40
0.2004207986
 40
0.2160623552
 40
0.2320259294
 40
0.2483036474
 40
0.2648851415
 40
0.2817577559
 40
0.2989067446
 40
0.3163154634
 40
0.3339655541
 40
0.3518371224
 40
0.3881532673
 40
0.4250858392
 40
0.4624370959
 40
0.5
 40
0.5375629041
 40
0.5749141608
 40
0.6118467327
 40
0.6481628776
 40
0.6660344459
 40
0.6836845366
 40
0.7010932554
 40
0.7182422441
 40
0.7351148585
 40
0.7516963526
 40
0.7679740706
 40
0.7839376448
 40
0.7995792014
 40
0.8148935701
 40
0.8298784966
 40
0.8445348547
 40
0.858866851
 40
0.8728822152
 40
0.8865923655
 40
0.900012536
 40
0.9131618503
 40
0.9260633222
 40
0.93874377
 40
0.9512336068
 40
0.9635665586
 40
0.9757791057
 40
0.9879101811
 40
1.0
 40
1.0
 40
1.0
 40
1.0
 10
19.8432749412
 20
6.5415106595
 30
0.0
 10
19.8432749412
 20
6.5326699162
 30
0.0
 10
19.8439526902
 20
6.5149508526
 30
0.0
 10
19.8469981378
 20
6.4884588598
 30
0.0
 10
19.8520651249
 20
6.462096056
 30
0.0
 10
19.8591403632
 20
6.4359292052
 30
0.0
 10
19.8682057364
 20
6.4100215942
 30
0.0
 10
19.8792380708
 20
6.3844362996
 30
0.0
 10
19.8922095453
 20
6.3592350685
 30
0.0
 10
19.9070877232
 20
6.3344784846
 30
0.0
 10
19.9238357444
 20
6.310225817
 30
0.0
 10
19.9424124241
 20
6.2865349627
 30
0.0
 10
19.9627723676
 20
6.2634623688
 30
0.0
 10
19.9848660673
 20
6.2410629517
 30
0.0
 10
20.0086400024
 20
6.2193900066
 30
0.0
 10
20.0340367411
 20
6.1984951085
 30
0.0
 10
20.060995052
 20
6.1784280052
 30
0.0
 10
20.0894500279
 20
6.1592365091
 30
0.0
 10
20.1193332208
 20
6.1409663852
 30
0.0
 10
20.1505727873
 20
6.123661241
 30
0.0
 10
20.1830936503
 20
6.107362416
 30
0.0
 10
20.2168176547
 20
6.0921088828
 30
0.0
 10
20.2516637998
 20
6.0779371268
 30
0.0
 10
20.2875482263
 20
6.0648811317
 30
0.0
 10
20.3243851826
 20
6.0529719887
 30
0.0
 10
20.3749178911
 20
6.0385852234
 30
0.0
 10
20.439918981
 20
6.0236807203
 30
0.0
 10
20.5198282368
 20
6.0108522452
 30
0.0
 10
20.6013052314
 20
6.003105689
 30
0.0
 10
20.6835683383
 20
6.0005153487
 30
0.0
 10
20.7658314451
 20
6.003105689
 30
0.0
 10
20.8473084398
 20
6.0108522452
 30
0.0
 10
20.9272176955
 20
6.0236807203
 30
0.0
 10
20.9922187854
 20
6.0385852234
 30
0.0
 10
21.042751494
 20
6.0529719887
 30
0.0
 10
21.0795884502
 20
6.0648811317
 30
0.0
 10
21.1154728768
 20
6.0779371268
 30
0.0
 10
21.1503190218
 20
6.0921088828
 30
0.0
 10
21.1840430263
 20
6.107362416
 30
0.0
 10
21.2165638893
 20
6.123661241
 30
0.0
 10
21.2478034558
 20
6.1409663852
 30
0.0
 10
21.2776866487
 20
6.1592365091
 30
0.0
 10
21.3061416246
 20
6.1784280052
 30
0.0
 10
21.3330999354
 20
6.1984951085
 30
0.0
 10
21.3584966742
 20
6.2193900066
 30
0.0
 10
21.3822706092
 20
6.2410629517
 30
0.0
 10
21.404364309
 20
6.2634623688
 30
0.0
 10
21.4247242525
 20
6.2865349627
 30
0.0
 10
21.4433009322
 20
6.310225817
 30
0.0
 10
21.4600489534
 20
6.3344784846
 30
0.0
 10
21.4749271312
 20
6.3592350685
 30
0.0
 10
21.4878986058
 20
6.3844362996
 30
0.0
 10
21.4989309401
 20
6.4100215942
 30
0.0
 10
21.5079963134
 20
6.4359292052
 30
0.0
 10
21.5150715517
 20
6.462096056
 30
0.0
 10
21.5201385387
 20
6.4884588598
 30
0.0
 10
21.5231839863
 20
6.5149508526
 30
0.0
 10
21.5238617353
 20
6.5326699162
 30
0.0
 10
21.5238617353
 20
6.5415106595
 30
0.0
  0
SPLINE
  5
658
100
AcDbEntity
  8
0
100
AcDbSpline
 62
9
  6
CONTINUOUS
 70
0
 71
3
 72
21
 73
17
 74
0
 42
0.0000001
 43
0.0000001
 44
0.0000000001
 40
0.0
 40
0.0
 40
0.0
 40
0.0
 40
0.0579385458
 40
0.1160022785
 40
0.1743102769
 40
0.2329835076
 40
0.2921360421
 40
0.3518770459
 40
0.4123089542
 40
0.4735265969
 40
0.5356166191
 40
0.5986569085
 40
0.6627162862
 40
0.7278543692
 40
0.8615246992
 40
1.0
 40
1.0
 40
1.0
 40
1.0
 10
21.7113576598
 20
6.2137500158
 30
0.0
 10
21.7113576592
 20
6.2222981256
 30
0.0
 10
21.7108402526
 20
6.2394172977
 30
0.0
 10
21.7085142749
 20
6.2650440085
 30
0.0
 10
21.7046415423
 20
6.2905933759
 30
0.0
 10
21.6992284756
 20
6.3160249816
 30
0.0
 10
21.6922834005
 20
6.3413006137
 30
0.0
 10
21.6838173036
 20
6.3663817399
 30
0.0
 10
21.6738434287
 20
6.3912304295
 30
0.0
 10
21.6623772761
 20
6.4158091442
 30
0.0
 10
21.6494365396
 20
6.4400808796
 30
0.0
 10
21.635041222
 20
6.464009049
 30
0.0
 10
21.6192130922
 20
6.4875581706
 30
0.0
 10
21.5960341289
 20
6.5186686216
 30
0.0
 10
21.5635010891
 20
6.5564191664
 30
0.0
 10
21.5346935179
 20
6.584465765
 30
0.0
 10
21.519497005
 20
6.5981209216
 30
0.0
  0
SPLINE
  5
659
100
AcDbEntity
  8
0
100
AcDbSpline
 62
9
  6
CONTINUOUS
 70
0
 71
3
 72
15
 73
11
 74
0
 42
0.0000001
 43
0.0000001
 44
0.0000000001
 40
0.0
 40
0.0
 40
0.0
 40
0.0
 40
0.1215807576
 40
0.244525513
 40
0.3686413551
 40
0.4937347356
 40
0.619611647
 40
0.7460777875
 40
0.8729387157
 40
1.0
 40
1.0
 40
1.0
 40
1.0
 10
4.8919420083
 20
4.7764442225
 30
0.0
 10
4.9239344791
 20
4.7793492204
 30
0.0
 10
4.9883148359
 20
4.7847968514
 30
0.0
 10
5.0854630227
 20
4.7918596578
 30
0.0
 10
5.1836127718
 20
4.7978563209
 30
0.0
 10
5.2825978272
 20
4.8027794241
 30
0.0
 10
5.3822521547
 20
4.8066215846
 30
0.0
 10
5.4824097013
 20
4.809375429
 30
0.0
 10
5.582904224
 20
4.8110335989
 30
0.0
 10
5.6499961818
 20
4.8114035959
 30
0.0
 10
5.6835683383
 20
4.8114035959
 30
0.0
  0
SPLINE
  5
65A
100
AcDbEntity
  8
0
100
AcDbSpline
 62
7
  6
CONTINUOUS
 70
0
 71
3
 72
25
 73
21
 74
0
 42
0.0000001
 43
0.0000001
 44
0.0000000001
 40
0.0
 40
0.0
 40
0.0
 40
0.0
 40
0.0609756273
 40
0.1223239518
 40
0.1840144569
 40
0.2460147155
 40
0.3082865322
 40
0.3707891944
 40
0.4334808099
 40
0.4648842762
 40
0.4963194188
 40
0.5592671886
 40
0.6222891953
 40
0.6853497507
 40
0.7484124362
 40
0.8114411898
 40
0.8744018097
 40
0.9058471132
 40
0.9372643246
 40
1.0
 40
1.0
 40
1.0
 40
1.0
 10
4.8919420083
 20
4.7764442225
 30
0.0
 10
4.8944055903
 20
4.7366341362
 30
0.0
 10
4.8995312901
 20
4.6567818908
 30
0.0
 10
4.9077519018
 20
4.5366924686
 30
0.0
 10
4.9165028971
 20
4.4159685167
 30
0.0
 10
4.9257677992
 20
4.2946770806
 30
0.0
 10
4.9355396565
 20
4.1728924556
 30
0.0
 10
4.9458161978
 20
4.0506955447
 30
0.0
 10
4.9547974929
 20
3.948653799
 30
0.0
 10
4.9622491117
 20
3.8668789452
 30
0.0
 10
4.9698874926
 20
3.784953039
 30
0.0
 10
4.9797633024
 20
3.6824635041
 30
0.0
 10
4.9921168173
 20
3.5594306479
 30
0.0
 10
5.00493656
 20
3.4363699482
 30
0.0
 10
5.018196849
 20
3.3133515154
 30
0.0
 10
5.0318793514
 20
3.1904451193
 30
0.0
 10
5.0436260132
 20
3.0881336212
 30
0.0
 10
5.0532287867
 20
3.0063904811
 30
0.0
 10
5.062958613
 20
2.9248105632
 30
0.0
 10
5.0704207578
 20
2.8636754768
 30
0.0
 10
5.0754740309
 20
2.8229502412
 30
0.0
  0
SPLINE
  5
65B
100
AcDbEntity
  8
0
100
AcDbSpline
 62
9
  6
CONTINUOUS
 70
0
 71
3
 72
36
 73
32
 74
0
 42
0.0000001
 43
0.0000001
 44
0.0000000001
 40
0.0
 40
0.0
 40
0.0
 40
0.0
 40
0.1194138347
 40
0.2307767425
 40
0.3358968618
 40
0.4360777901
 40
0.5301735353
 40
0.6162831152
 40
0.6929351737
 40
0.7602072506
 40
0.818524165
 40
0.8682449547
 40
0.9096147951
 40
0.9272384019
 40
0.9428604911
 40
0.9565202562
 40
0.9682583665
 40
0.9781152456
 40
0.9861310922
 40
0.9923392597
 40
0.9947631357
 40
0.9967287231
 40
0.99753855
 40
0.9982324939
 40
0.9988101559
 40
0.9992711916
 40
0.9996153856
 40
0.999842922
 40
0.9999135048
 40
0.9999565958
 40
1.0
 40
1.0
 40
1.0
 40
1.0
 10
6.8562046696
 20
10.9335152905
 30
0.0
 10
6.856651308
 20
10.9324942866
 30
0.0
 10
6.8575314597
 20
10.9305285256
 30
0.0
 10
6.8588453515
 20
10.9276824177
 30
0.0
 10
6.8600930427
 20
10.9250034635
 30
0.0
 10
6.8612531802
 20
10.9224615768
 30
0.0
 10
6.8623364069
 20
10.9200796479
 30
0.0
 10
6.8633451286
 20
10.9179050193
 30
0.0
 10
6.8642870312
 20
10.9159757352
 30
0.0
 10
6.8651485646
 20
10.9142963087
 30
0.0
 10
6.8659221387
 20
10.912854584
 30
0.0
 10
6.866601658
 20
10.9116369675
 30
0.0
 10
6.8671098229
 20
10.9107587902
 30
0.0
 10
6.8674648484
 20
10.9101597435
 30
0.0
 10
6.8676901275
 20
10.9097844179
 30
0.0
 10
6.8678888915
 20
10.9094572448
 30
0.0
 10
6.8680611023
 20
10.9091768997
 30
0.0
 10
6.8682067017
 20
10.908942026
 30
0.0
 10
6.8683257053
 20
10.9087513874
 30
0.0
 10
6.8684079168
 20
10.9086195547
 30
0.0
 10
6.8684604344
 20
10.9085357499
 30
0.0
 10
6.8684863655
 20
10.9084947356
 30
0.0
 10
6.8685038564
 20
10.9084674922
 30
0.0
 10
6.8685144568
 20
10.9084512069
 30
0.0
 10
6.8685234137
 20
10.9084377658
 30
0.0
 10
6.8685307207
 20
10.9084270693
 30
0.0
 10
6.8685363889
 20
10.9084194107
 30
0.0
 10
6.8685401255
 20
10.9084144557
 30
0.0
 10
6.8685423732
 20
10.9084124959
 30
0.0
 10
6.8685435695
 20
10.9084111715
 30
0.0
 10
6.8685444416
 20
10.9084120654
 30
0.0
 10
6.8685444438
 20
10.9084124704
 30
0.0
  0
SPLINE
  5
65C
100
AcDbEntity
  8
0
100
AcDbSpline
 62
9
  6
CONTINUOUS
 70
0
 71
3
 72
30
 73
26
 74
0
 42
0.0000001
 43
0.0000001
 44
0.0000000001
 40
0.0
 40
0.0
 40
0.0
 40
0.0
 40
0.0270010787
 40
0.0540478165
 40
0.0811852042
 40
0.1084569168
 40
0.1359047045
 40
0.1635678432
 40
0.1914826537
 40
0.2196820975
 40
0.2481954527
 40
0.2770480697
 40
0.3062612041
 40
0.3358519299
 40
0.396193602
 40
0.4581476651
 40
0.5217035958
 40
0.5867923291
 40
0.6532926363
 40
0.7210381742
 40
0.78982496
 40
0.8245431589
 40
0.8594318355
 40
0.9295762159
 40
1.0
 40
1.0
 40
1.0
 40
1.0
 10
21.2235683209
 20
10.1406930653
 30
0.0
 10
21.2235683209
 20
10.1474623816
 30
0.0
 10
21.2231336552
 20
10.161016464
 30
0.0
 10
21.2211798241
 20
10.181289266
 30
0.0
 10
21.2179288091
 20
10.2014643154
 30
0.0
 10
21.2133886449
 20
10.2214915546
 30
0.0
 10
21.2075705622
 20
10.2413227402
 30
0.0
 10
21.2004889084
 20
10.2609097971
 30
0.0
 10
21.1921610927
 20
10.2802054185
 30
0.0
 10
21.1826075385
 20
10.2991630371
 30
0.0
 10
21.1718515641
 20
10.3177370132
 30
0.0
 10
21.1599195227
 20
10.3358825421
 30
0.0
 10
21.1468399902
 20
10.3535564834
 30
0.0
 10
21.1277929907
 20
10.3765820476
 30
0.0
 10
21.1012183487
 20
10.4039571181
 30
0.0
 10
21.0655394519
 20
10.4340344486
 30
0.0
 10
21.0262008669
 20
10.4612805881
 30
0.0
 10
20.983583863
 20
10.4854363245
 30
0.0
 10
20.9380962336
 20
10.5062751684
 30
0.0
 10
20.8901756649
 20
10.5236000876
 30
0.0
 10
20.848716951
 20
10.5349398667
 30
0.0
 10
20.81476739
 20
10.5421332069
 30
0.0
 10
20.7802299443
 20
10.5480713436
 30
0.0
 10
20.7364786407
 20
10.5530333014
 30
0.0
 10
20.7012239616
 20
10.5543570646
 30
0.0
 10
20.6835683383
 20
10.5543570646
 30
0.0
  0
SPLINE
  5
65D
100
AcDbEntity
  8
0
100
AcDbSpline
 62
9
  6
CONTINUOUS
 70
0
 71
3
 72
11
 73
7
 74
0
 42
0.0000001
 43
0.0000001
 44
0.0000000001
 40
0.0
 40
0.0
 40
0.0
 40
0.0
 40
0.2466609294
 40
0.4961813756
 40
0.7476112772
 40
1.0
 40
1.0
 40
1.0
 40
1.0
 10
5.0754740309
 20
2.8229502412
 30
0.0
 10
5.1254443483
 20
2.8249565733
 30
0.0
 10
5.2259863069
 20
2.8284616431
 30
0.0
 10
5.3775209017
 20
2.832205943
 30
0.0
 10
5.5302463636
 20
2.8344619628
 30
0.0
 10
5.6323964476
 20
2.8349655713
 30
0.0
 10
5.6835683383
 20
2.8349655713
 30
0.0
  0
SPLINE
  5
65E
100
AcDbEntity
  8
0
100
AcDbSpline
 62
7
  6
CONTINUOUS
 70
0
 71
3
 72
12
 73
8
 74
0
 42
0.0000001
 43
0.0000001
 44
0.0000000001
 40
0.0
 40
0.0
 40
0.0
 40
0.0
 40
0.2524678695
 40
0.3779915431
 40
0.5030468099
 40
0.7519617237
 40
1.0
 40
1.0
 40
1.0
 40
1.0
 10
4.5056160078
 20
11.0015953108
 30
0.0
 10
4.5029642972
 20
11.0299135841
 30
0.0
 10
4.4981975795
 20
11.0722435873
 30
0.0
 10
4.4901478676
 20
11.1283435526
 30
0.0
 10
4.4810027926
 20
11.1838704611
 30
0.0
 10
4.4674302968
 20
11.2526392202
 30
0.0
 10
4.4542167201
 20
11.307063637
 30
0.0
 10
4.447034052
 20
11.3340678573
 30
0.0
  0
SPLINE
  5
65F
100
AcDbEntity
  8
0
100
AcDbSpline
 62
9
  6
CONTINUOUS
 70
0
 71
3
 72
43
 73
39
 74
0
 42
0.0000001
 43
0.0000001
 44
0.0000000001
 40
0.0
 40
0.0
 40
0.0
 40
0.0
 40
0.0312556388
 40
0.0624358718
 40
0.0779998017
 40
0.0935466128
 40
0.1090769221
 40
0.1245915817
 40
0.1555791483
 40
0.1865309894
 40
0.2020016439
 40
0.2174715637
 40
0.2484153161
 40
0.263895436
 40
0.2793820532
 40
0.2948766068
 40
0.3103804955
 40
0.3258948458
 40
0.3414208964
 40
0.3569593375
 40
0.3725102346
 40
0.3880733185
 40
0.4036480327
 40
0.4348291464
 40
0.4660522583
 40
0.4973141403
 40
0.5286107999
 40
0.5599374975
 40
0.5912900821
 40
0.6226649737
 40
0.6540586988
 40
0.6854685619
 40
0.7483188118
 40
0.8112078648
 40
0.8426665614
 40
0.8741302877
 40
0.9370611971
 40
1.0
 40
1.0
 40
1.0
 40
1.0
 10
4.5070884623
 20
10.9852342038
 30
0.0
 10
4.5117700905
 20
10.9704228867
 30
0.0
 10
4.5216628224
 20
10.9410033447
 30
0.0
 10
4.5354868758
 20
10.9047744233
 30
0.0
 10
4.5474571603
 20
10.8762222216
 30
0.0
 10
4.5568961031
 20
10.8550488988
 30
0.0
 10
4.5668137884
 20
10.8341223728
 30
0.0
 10
4.580689832
 20
10.8065895455
 30
0.0
 10
4.5992957146
 20
10.7728711935
 30
0.0
 10
4.6196096387
 20
10.7401777772
 30
0.0
 10
4.6368686678
 20
10.7147124588
 30
0.0
 10
4.6547980137
 20
10.6897199733
 30
0.0
 10
4.6737209448
 20
10.6654470229
 30
0.0
 10
4.6935833289
 20
10.641944785
 30
0.0
 10
4.7089470005
 20
10.6247034693
 30
0.0
 10
4.7247616994
 20
10.6078591078
 30
0.0
 10
4.7410120195
 20
10.5914152295
 30
0.0
 10
4.757683664
 20
10.5753762379
 30
0.0
 10
4.7747568212
 20
10.559740111
 30
0.0
 10
4.7922112729
 20
10.5445033425
 30
0.0
 10
4.8100291059
 20
10.5296645398
 30
0.0
 10
4.8281962396
 20
10.5152264164
 30
0.0
 10
4.8528730994
 20
10.4965067532
 30
0.0
 10
4.8845214329
 20
10.4741163028
 30
0.0
 10
4.9236489652
 20
10.4488728952
 30
0.0
 10
4.963821297
 20
10.4252158329
 30
0.0
 10
5.0049269283
 20
10.4031140321
 30
0.0
 10
5.0468659412
 20
10.3825368531
 30
0.0
 10
5.089554932
 20
10.3634703148
 30
0.0
 10
5.1329148467
 20
10.345896142
 30
0.0
 10
5.1768734243
 20
10.329795339
 30
0.0
 10
5.2361998008
 20
10.3102675717
 30
0.0
 10
5.3115381605
 20
10.2894652251
 30
0.0
 10
5.3880470206
 20
10.2734029893
 30
0.0
 10
5.4497661179
 20
10.2633374275
 30
0.0
 10
5.5117785497
 20
10.2551120368
 30
0.0
 10
5.5897188651
 20
10.2482778429
 30
0.0
 10
5.6522886624
 20
10.2464650276
 30
0.0
 10
5.6835683383
 20
10.246463893
 30
0.0
  0
SPLINE
  5
660
100
AcDbEntity
  8
0
100
AcDbSpline
 62
9
  6
CONTINUOUS
 70
0
 71
3
 72
25
 73
21
 74
0
 42
0.0000001
 43
0.0000001
 44
0.0000000001
 40
0.0
 40
0.0
 40
0.0
 40
0.0
 40
0.0979938093
 40
0.1916503963
 40
0.2807304003
 40
0.3650530447
 40
0.4444564084
 40
0.5188047
 40
0.588003179
 40
0.6520018609
 40
0.7108051443
 40
0.7644907556
 40
0.8132294147
 40
0.8573172542
 40
0.8972183128
 40
0.933614024
 40
0.9508017074
 40
0.9674897115
 40
0.9838337571
 40
1.0
 40
1.0
 40
1.0
 40
1.0
 10
4.5056153775
 20
11.0015951839
 30
0.0
 10
4.5077435735
 20
11.0033624175
 30
0.0
 10
4.5118680816
 20
11.0068644455
 30
0.0
 10
4.5177828861
 20
11.0121399052
 30
0.0
 10
4.5232732342
 20
11.0173076621
 30
0.0
 10
4.5283228717
 20
11.022352224
 30
0.0
 10
4.5329174499
 20
11.0272589284
 30
0.0
 10
4.5370436702
 20
11.0320135509
 30
0.0
 10
4.5406897904
 20
11.0366022871
 30
0.0
 10
4.5438456342
 20
11.0410120567
 30
0.0
 10
4.5465024014
 20
11.0452307014
 30
0.0
 10
4.5486529214
 20
11.0492470117
 30
0.0
 10
4.5502912091
 20
11.0530510997
 30
0.0
 10
4.5514117274
 20
11.0566350996
 30
0.0
 10
4.55200923
 20
11.0599911925
 30
0.0
 10
4.5520648458
 20
11.0626438869
 30
0.0
 10
4.5518275197
 20
11.0646161175
 30
0.0
 10
4.5515200422
 20
11.0660025936
 30
0.0
 10
4.5510799726
 20
11.0673224273
 30
0.0
 10
4.5506974321
 20
11.0681589529
 30
0.0
 10
4.5504854472
 20
11.0685630899
 30
0.0
  0
SPLINE
  5
661
100
AcDbEntity
  8
0
100
AcDbSpline
 62
9
  6
CONTINUOUS
 70
0
 71
3
 72
41
 73
37
 74
0
 42
0.0000001
 43
0.0000001
 44
0.0000000001
 40
0.0
 40
0.0
 40
0.0
 40
0.0
 40
0.0629385857
 40
0.1258692816
 40
0.1573329077
 40
0.1887915015
 40
0.2516803521
 40
0.3145303882
 40
0.345940147
 40
0.377333765
 40
0.4087085539
 40
0.4400610513
 40
0.4713876622
 40
0.5026842693
 40
0.5339461126
 40
0.5651691234
 40
0.5963501287
 40
0.6119247949
 40
0.6274878395
 40
0.6430387016
 40
0.6585770847
 40
0.6741030301
 40
0.6896172428
 40
0.7051208969
 40
0.7206151745
 40
0.7515789697
 40
0.7825232695
 40
0.7979938168
 40
0.8134652038
 40
0.8444186306
 40
0.8599086551
 40
0.8754101901
 40
0.9064540074
 40
0.9375637775
 40
0.9687445357
 40
1.0
 40
1.0
 40
1.0
 40
1.0
 10
5.6835683383
 20
10.2464634485
 30
0.0
 10
5.7148466198
 20
10.2464646036
 30
0.0
 10
5.777413627
 20
10.2482773225
 30
0.0
 10
5.8553504887
 20
10.2551110317
 30
0.0
 10
5.9173601847
 20
10.2633358991
 30
0.0
 10
5.9790766103
 20
10.2734005987
 30
0.0
 10
6.0555822599
 20
10.2894611548
 30
0.0
 10
6.1309176462
 20
10.3102612239
 30
0.0
 10
6.1902416489
 20
10.3297873248
 30
0.0
 10
6.2341984293
 20
10.3458869786
 30
0.0
 10
6.2775567095
 20
10.3634596637
 30
0.0
 10
6.320244129
 20
10.3825246646
 30
0.0
 10
6.3621817144
 20
10.4031001417
 30
0.0
 10
6.4032858398
 20
10.425200501
 30
0.0
 10
6.443457162
 20
10.4488552708
 30
0.0
 10
6.4825846843
 20
10.4740948933
 30
0.0
 10
6.5142333184
 20
10.4964819698
 30
0.0
 10
6.5389096154
 20
10.5152001226
 30
0.0
 10
6.557075848
 20
10.5296377534
 30
0.0
 10
6.5748928772
 20
10.5444759207
 30
0.0
 10
6.5923471025
 20
10.5597113383
 30
0.0
 10
6.60942016
 20
10.5753459577
 30
0.0
 10
6.6260914914
 20
10.5913835155
 30
0.0
 10
6.6423421442
 20
10.607825415
 30
0.0
 10
6.6634227923
 20
10.6302748682
 30
0.0
 10
6.6886520314
 20
10.6593365733
 30
0.0
 10
6.7123078178
 20
10.6896782984
 30
0.0
 10
6.7302378986
 20
10.7146703229
 30
0.0
 10
6.7474977984
 20
10.7401348662
 30
0.0
 10
6.7637473092
 20
10.7662833801
 30
0.0
 10
6.7789717401
 20
10.7930427133
 30
0.0
 10
6.7935312585
 20
10.8202209981
 30
0.0
 10
6.8104754355
 20
10.8549124802
 30
0.0
 10
6.8288738797
 20
10.8975079086
 30
0.0
 10
6.8454563744
 20
10.9409529921
 30
0.0
 10
6.8553476894
 20
10.9703721656
 30
0.0
 10
6.8600302426
 20
10.9851824294
 30
0.0
  0
LINE
  5
662
100
AcDbEntity
  8
0
100
AcDbLine
 62
9
  6
CONTINUOUS
 10
5.6835683383
 20
10.2464634485
 11
5.6835684379
 21
10.3963800737
  0
SPLINE
  5
663
100
AcDbEntity
  8
0
100
AcDbSpline
 62
9
  6
CONTINUOUS
 70
0
 71
3
 72
31
 73
27
 74
0
 42
0.0000001
 43
0.0000001
 44
0.0000000001
 40
0.0
 40
0.0
 40
0.0
 40
0.0
 40
0.0625085321
 40
0.1250164404
 40
0.1562748753
 40
0.1875332079
 40
0.2187914393
 40
0.2500495929
 40
0.2813076355
 40
0.312565559
 40
0.3438233379
 40
0.375080898
 40
0.4375865853
 40
0.500090765
 40
0.5313464395
 40
0.5626014454
 40
0.6251000535
 40
0.6875936817
 40
0.7500808629
 40
0.7813263577
 40
0.8125698707
 40
0.8438116781
 40
0.8750522237
 40
0.906291443
 40
0.9375302543
 40
1.0
 40
1.0
 40
1.0
 40
1.0
 10
5.6835684379
 20
10.3963800737
 30
0.0
 10
5.7124009289
 20
10.3963818575
 30
0.0
 10
5.7700823664
 20
10.3983026478
 30
0.0
 10
5.841863455
 20
10.4054664339
 30
0.0
 10
5.8988998314
 20
10.4140427271
 30
0.0
 10
5.941443835
 20
10.4218954681
 30
0.0
 10
5.9837027225
 20
10.4311581335
 30
0.0
 10
6.0256305377
 20
10.4418195477
 30
0.0
 10
6.0671806964
 20
10.4538686431
 30
0.0
 10
6.1083069627
 20
10.4672925774
 30
0.0
 10
6.1489643029
 20
10.4820767744
 30
0.0
 10
6.2024816092
 20
10.5035799343
 30
0.0
 10
6.2679888283
 20
10.5337868775
 30
0.0
 10
6.331337447
 20
10.5682899183
 30
0.0
 10
6.3805398027
 20
10.5983790678
 30
0.0
 10
6.4287056673
 20
10.6300956601
 30
0.0
 10
6.4868789059
 20
10.6727399374
 30
0.0
 10
6.5530664693
 20
10.7284913659
 30
0.0
 10
6.6049356001
 20
10.7786042047
 30
0.0
 10
6.6442634917
 20
10.8207645986
 30
0.0
 10
6.6726357629
 20
10.8533988905
 30
0.0
 10
6.6998367405
 20
10.8870123431
 30
0.0
 10
6.7258249891
 20
10.921569488
 30
0.0
 10
6.7505583857
 20
10.9570353294
 30
0.0
 10
6.7818052597
 20
11.0054725164
 30
0.0
 10
6.8032673371
 20
11.0430480967
 30
0.0
 10
6.8166519527
 20
11.0685654098
 30
0.0
  0
SPLINE
  5
664
100
AcDbEntity
  8
0
100
AcDbSpline
 62
9
  6
CONTINUOUS
 70
0
 71
3
 72
25
 73
21
 74
0
 42
0.0000001
 43
0.0000001
 44
0.0000000001
 40
0.0
 40
0.0
 40
0.0
 40
0.0
 40
0.097992408
 40
0.1916474125
 40
0.280725744
 40
0.3650467051
 40
0.4444484554
 40
0.5187952855
 40
0.5879925343
 40
0.6519902969
 40
0.7107930515
 40
0.7644786028
 40
0.8132177468
 40
0.8573066843
 40
0.8972095013
 40
0.9336076339
 40
0.9507967528
 40
0.9674863191
 40
0.9838320269
 40
1.0
 40
1.0
 40
1.0
 40
1.0
 10
6.8615074282
 20
11.0016074211
 30
0.0
 10
6.8593797906
 20
11.0033744014
 30
0.0
 10
6.8552563765
 20
11.0068759203
 30
0.0
 10
6.8493431709
 20
11.0121506004
 30
0.0
 10
6.8438543449
 20
11.0173175768
 30
0.0
 10
6.8388061435
 20
11.0223613635
 30
0.0
 10
6.8342129079
 20
11.0272673044
 30
0.0
 10
6.8300879294
 20
11.0320211814
 30
0.0
 10
6.826442944
 20
11.0366091962
 30
0.0
 10
6.8232881221
 20
11.0410182745
 30
0.0
 10
6.8206322591
 20
11.0452362636
 30
0.0
 10
6.8184825217
 20
11.0492519593
 30
0.0
 10
6.8168448922
 20
11.0530554785
 30
0.0
 10
6.8157249052
 20
11.0566389588
 30
0.0
 10
6.8151278057
 20
11.0599945841
 30
0.0
 10
6.8150724205
 20
11.0626469109
 30
0.0
 10
6.8153098532
 20
11.0646188831
 30
0.0
 10
6.815617376
 20
11.0660051932
 30
0.0
 10
6.8160574568
 20
11.0673248775
 30
0.0
 10
6.8164399812
 20
11.0681613135
 30
0.0
 10
6.8166519527
 20
11.0685654098
 30
0.0
  0
SPLINE
  5
665
100
AcDbEntity
  8
0
100
AcDbSpline
 62
7
  6
CONTINUOUS
 70
0
 71
3
 72
39
 73
35
 74
0
 42
0.0000001
 43
0.0000001
 44
0.0000000001
 40
0.0
 40
0.0
 40
0.0
 40
0.0
 40
0.0311119713
 40
0.062225543
 40
0.0933420081
 40
0.1244626296
 40
0.1555886282
 40
0.1867211785
 40
0.2178613813
 40
0.2490102751
 40
0.2801688177
 40
0.3113378537
 40
0.3425181499
 40
0.3737103593
 40
0.4049150095
 40
0.4361325287
 40
0.4673632036
 40
0.4986072058
 40
0.5298645893
 40
0.5611352539
 40
0.5924189987
 40
0.6237154954
 40
0.6550242785
 40
0.6863447871
 40
0.7176763362
 40
0.7490181391
 40
0.7803693229
 40
0.8117289156
 40
0.8430958381
 40
0.8744690409
 40
0.9058473638
 40
0.9372290494
 40
0.9686146865
 40
1.0
 40
1.0
 40
1.0
 40
1.0
 10
4.9021161866
 20
2.6513699537
 30
0.0
 10
4.9022566872
 20
2.6387857008
 30
0.0
 10
4.903156632
 20
2.6136190649
 30
0.0
 10
4.9063604181
 20
2.5759831312
 30
0.0
 10
4.9114103087
 20
2.5385456993
 30
0.0
 10
4.9182943181
 20
2.5013968955
 30
0.0
 10
4.9269961569
 20
2.4646246584
 30
0.0
 10
4.9374951653
 20
2.428316439
 30
0.0
 10
4.9497663102
 20
2.3925584391
 30
0.0
 10
4.9637804385
 20
2.3574355996
 30
0.0
 10
4.9795043251
 20
2.3230313802
 30
0.0
 10
4.9969006071
 20
2.2894275083
 30
0.0
 10
5.0159278833
 20
2.2567037691
 30
0.0
 10
5.0365409489
 20
2.2249378834
 30
0.0
 10
5.0586909074
 20
2.1942053505
 30
0.0
 10
5.0823251155
 20
2.1645791617
 30
0.0
 10
5.1073873673
 20
2.1361296329
 30
0.0
 10
5.1338181372
 20
2.1089243354
 30
0.0
 10
5.1615546983
 20
2.0830279464
 30
0.0
 10
5.190531133
 20
2.0585019439
 30
0.0
 10
5.2206785706
 20
2.0354045285
 30
0.0
 10
5.2519254075
 20
2.0137905536
 30
0.0
 10
5.2841974764
 20
1.9937114288
 30
0.0
 10
5.3174180864
 20
1.9752147963
 30
0.0
 10
5.3515083058
 20
1.9583445278
 30
0.0
 10
5.3863871774
 20
1.9431406992
 30
0.0
 10
5.4219718928
 20
1.9296394965
 30
0.0
 10
5.4581779016
 20
1.9178729337
 30
0.0
 10
5.4949191996
 20
1.9078688779
 30
0.0
 10
5.5321085869
 20
1.8996511189
 30
0.0
 10
5.5696574947
 20
1.8932393532
 30
0.0
 10
5.6074775407
 20
1.8886483861
 30
0.0
 10
5.6454771163
 20
1.8858897017
 30
0.0
 10
5.670872732
 20
1.8852760354
 30
0.0
 10
5.6835683383
 20
1.8852760354
 30
0.0
  0
SPLINE
  5
666
100
AcDbEntity
  8
0
100
AcDbSpline
 62
7
  6
CONTINUOUS
 70
0
 71
3
 72
15
 73
11
 74
0
 42
0.0000001
 43
0.0000001
 44
0.0000000001
 40
0.0
 40
0.0
 40
0.0
 40
0.0
 40
0.1264463014
 40
0.2524363713
 40
0.3779470981
 40
0.5029879925
 40
0.6275756572
 40
0.7518448264
 40
0.8759708819
 40
1.0
 40
1.0
 40
1.0
 40
1.0
 10
6.8615071459
 20
11.0016074786
 30
0.0
 10
6.8628205828
 20
11.0156459156
 30
0.0
 10
6.8657031515
 20
11.0436485473
 30
0.0
 10
6.8708287589
 20
11.0854823578
 30
0.0
 10
6.8767687598
 20
11.1270503484
 30
0.0
 10
6.8835355751
 20
11.1683333351
 30
0.0
 10
6.8911280049
 20
11.209331763
 30
0.0
 10
6.8995715736
 20
11.2500595631
 30
0.0
 10
6.9088983696
 20
11.2905301266
 30
0.0
 10
6.9156875036
 20
11.3173580244
 30
0.0
 10
6.9192182301
 20
11.3307299617
 30
0.0
  0
SPLINE
  5
667
100
AcDbEntity
  8
0
100
AcDbSpline
 62
9
  6
CONTINUOUS
 70
0
 71
3
 72
30
 73
26
 74
0
 42
0.0000001
 43
0.0000001
 44
0.0000000001
 40
0.0
 40
0.0
 40
0.0
 40
0.0
 40
0.0270010787
 40
0.0540478165
 40
0.0811852042
 40
0.1084569168
 40
0.1359047045
 40
0.1635678432
 40
0.1914826537
 40
0.2196820975
 40
0.2481954527
 40
0.2770480697
 40
0.3062612041
 40
0.3358519299
 40
0.396193602
 40
0.4581476651
 40
0.5217035958
 40
0.5867923291
 40
0.6532926363
 40
0.7210381742
 40
0.78982496
 40
0.8245431589
 40
0.8594318355
 40
0.9295762159
 40
1.0
 40
1.0
 40
1.0
 40
1.0
 10
20.1435683557
 20
8.7361513903
 30
0.0
 10
20.1435683557
 20
8.7429207067
 30
0.0
 10
20.1440030214
 20
8.756474789
 30
0.0
 10
20.1459568525
 20
8.776747591
 30
0.0
 10
20.1492078674
 20
8.7969226405
 30
0.0
 10
20.1537480317
 20
8.8169498796
 30
0.0
 10
20.1595661144
 20
8.8367810652
 30
0.0
 10
20.1666477682
 20
8.8563681221
 30
0.0
 10
20.1749755839
 20
8.8756637435
 30
0.0
 10
20.1845291381
 20
8.8946213621
 30
0.0
 10
20.1952851124
 20
8.9131953382
 30
0.0
 10
20.2072171539
 20
8.9313408671
 30
0.0
 10
20.2202966863
 20
8.9490148084
 30
0.0
 10
20.2393436859
 20
8.9720403726
 30
0.0
 10
20.2659183278
 20
8.9994154432
 30
0.0
 10
20.3015972247
 20
9.0294927737
 30
0.0
 10
20.3409358097
 20
9.0567389132
 30
0.0
 10
20.3835528136
 20
9.0808946495
 30
0.0
 10
20.4290404429
 20
9.1017334935
 30
0.0
 10
20.4769610116
 20
9.1190584126
 30
0.0
 10
20.5184197255
 20
9.1303981918
 30
0.0
 10
20.5523692865
 20
9.1375915319
 30
0.0
 10
20.5869067322
 20
9.1435296686
 30
0.0
 10
20.6306580359
 20
9.1484916264
 30
0.0
 10
20.665912715
 20
9.1498153896
 30
0.0
 10
20.6835683383
 20
9.1498153896
 30
0.0
  0
SPLINE
  5
668
100
AcDbEntity
  8
0
100
AcDbSpline
 62
9
  6
CONTINUOUS
 70
0
 71
3
 72
26
 73
22
 74
0
 42
0.0000001
 43
0.0000001
 44
0.0000000001
 40
0.0
 40
0.0
 40
0.0
 40
0.0
 40
0.0626473312
 40
0.1253092758
 40
0.18798671
 40
0.2193330088
 40
0.2506799353
 40
0.3133612451
 40
0.3760240601
 40
0.4073482197
 40
0.4386632314
 40
0.5012548992
 40
0.5638080279
 40
0.6263308428
 40
0.6888200781
 40
0.7512606324
 40
0.7824589758
 40
0.8136356768
 40
0.8759017021
 40
0.9380336563
 40
1.0
 40
1.0
 40
1.0
 40
1.0
 10
5.6835683383
 20
9.4037635807
 30
0.0
 10
5.711261254
 20
9.4037635807
 30
0.0
 10
5.7666701161
 20
9.4055697543
 30
0.0
 10
5.8494322325
 20
9.4135961946
 30
0.0
 10
5.9178601584
 20
9.4246338143
 30
0.0
 10
5.9721047146
 20
9.4360218558
 30
0.0
 10
6.0259689349
 20
9.4490997029
 30
0.0
 10
6.0924857152
 20
9.4685851414
 30
0.0
 10
6.1576493465
 20
9.4921755231
 30
0.0
 10
6.2087949799
 20
9.5134584964
 30
0.0
 10
6.259217203
 20
9.5363260187
 30
0.0
 10
6.3208257518
 20
9.5678673821
 30
0.0
 10
6.3921448038
 20
9.6103477593
 30
0.0
 10
6.4606250738
 20
9.6571858231
 30
0.0
 10
6.5260525689
 20
9.7081148408
 30
0.0
 10
6.577876181
 20
9.7537629708
 30
0.0
 10
6.6175977209
 20
9.7920665444
 30
0.0
 10
6.6560995086
 20
9.8314880803
 30
0.0
 10
6.7019261386
 20
9.8828259706
 30
0.0
 10
6.7530406797
 20
9.947490667
 30
0.0
 10
6.7844314015
 20
9.9925271931
 30
0.0
 10
6.7994029204
 20
10.0154655713
 30
0.0
  0
SPLINE
  5
669
100
AcDbEntity
  8
0
100
AcDbSpline
 62
7
  6
CONTINUOUS
 70
0
 71
3
 72
17
 73
13
 74
0
 42
0.0000001
 43
0.0000001
 44
0.0000000001
 40
0.0
 40
0.0
 40
0.0
 40
0.0
 40
0.05673769
 40
0.1143969964
 40
0.172981483
 40
0.2324816222
 40
0.3540850196
 40
0.4789468668
 40
0.6066024145
 40
0.7364621081
 40
0.8678428857
 40
1.0
 40
1.0
 40
1.0
 40
1.0
 10
20.3641358861
 20
10.7323731414
 30
0.0
 10
20.3686571225
 20
10.7372923103
 30
0.0
 10
20.3780920831
 20
10.746922096
 30
0.0
 10
20.3932211935
 20
10.7605791431
 30
0.0
 10
20.4093884855
 20
10.7735183375
 30
0.0
 10
20.432412905
 20
10.7898664329
 30
0.0
 10
20.4635081531
 20
10.8082199995
 30
0.0
 10
20.5036595646
 20
10.826533065
 30
0.0
 10
20.5463603261
 20
10.8410491714
 30
0.0
 10
20.5910035806
 20
10.8515643137
 30
0.0
 10
20.636953217
 20
10.8579327566
 30
0.0
 10
20.6680058148
 20
10.8593531665
 30
0.0
 10
20.6835683383
 20
10.8593531665
 30
0.0
  0
SPLINE
  5
66A
100
AcDbEntity
  8
0
100
AcDbSpline
 62
7
  6
CONTINUOUS
 70
0
 71
3
 72
39
 73
35
 74
0
 42
0.0000001
 43
0.0000001
 44
0.0000000001
 40
0.0
 40
0.0
 40
0.0
 40
0.0
 40
0.0311119713
 40
0.062225543
 40
0.0933420081
 40
0.1244626296
 40
0.1555886282
 40
0.1867211785
 40
0.2178613813
 40
0.2490102751
 40
0.2801688177
 40
0.3113378537
 40
0.3425181499
 40
0.3737103593
 40
0.4049150095
 40
0.4361325287
 40
0.4673632036
 40
0.4986072058
 40
0.5298645893
 40
0.5611352539
 40
0.5924189987
 40
0.6237154954
 40
0.6550242785
 40
0.6863447871
 40
0.7176763362
 40
0.7490181391
 40
0.7803693229
 40
0.8117289156
 40
0.8430958381
 40
0.8744690409
 40
0.9058473638
 40
0.9372290494
 40
0.9686146865
 40
1.0
 40
1.0
 40
1.0
 40
1.0
 10
6.46502049
 20
2.6513699537
 30
0.0
 10
6.4648799894
 20
2.6387857008
 30
0.0
 10
6.4639800446
 20
2.6136190649
 30
0.0
 10
6.4607762585
 20
2.5759831312
 30
0.0
 10
6.4557263678
 20
2.5385456993
 30
0.0
 10
6.4488423584
 20
2.5013968955
 30
0.0
 10
6.4401405197
 20
2.4646246584
 30
0.0
 10
6.4296415113
 20
2.428316439
 30
0.0
 10
6.4173703664
 20
2.3925584391
 30
0.0
 10
6.403356238
 20
2.3574355996
 30
0.0
 10
6.3876323515
 20
2.3230313802
 30
0.0
 10
6.3702360695
 20
2.2894275083
 30
0.0
 10
6.3512087933
 20
2.2567037691
 30
0.0
 10
6.3305957277
 20
2.2249378834
 30
0.0
 10
6.3084457692
 20
2.1942053505
 30
0.0
 10
6.284811561
 20
2.1645791617
 30
0.0
 10
6.2597493093
 20
2.1361296329
 30
0.0
 10
6.2333185394
 20
2.1089243354
 30
0.0
 10
6.2055819783
 20
2.0830279464
 30
0.0
 10
6.1766055436
 20
2.0585019439
 30
0.0
 10
6.146458106
 20
2.0354045285
 30
0.0
 10
6.1152112691
 20
2.0137905536
 30
0.0
 10
6.0829392002
 20
1.9937114288
 30
0.0
 10
6.0497185901
 20
1.9752147963
 30
0.0
 10
6.0156283708
 20
1.9583445278
 30
0.0
 10
5.9807494992
 20
1.9431406992
 30
0.0
 10
5.9451647838
 20
1.9296394965
 30
0.0
 10
5.908958775
 20
1.9178729337
 30
0.0
 10
5.8722174769
 20
1.9078688779
 30
0.0
 10
5.8350280897
 20
1.8996511189
 30
0.0
 10
5.7974791818
 20
1.8932393532
 30
0.0
 10
5.7596591359
 20
1.8886483861
 30
0.0
 10
5.7216595603
 20
1.8858897017
 30
0.0
 10
5.6962639446
 20
1.8852760354
 30
0.0
 10
5.6835683383
 20
1.8852760354
 30
0.0
  0
SPLINE
  5
66B
100
AcDbEntity
  8
0
100
AcDbSpline
 62
9
  6
CONTINUOUS
 70
0
 71
3
 72
30
 73
26
 74
0
 42
0.0000001
 43
0.0000001
 44
0.0000000001
 40
0.0
 40
0.0
 40
0.0
 40
0.0
 40
0.0270010787
 40
0.0540478165
 40
0.0811852042
 40
0.1084569168
 40
0.1359047045
 40
0.1635678432
 40
0.1914826537
 40
0.2196820975
 40
0.2481954527
 40
0.2770480697
 40
0.3062612041
 40
0.3358519299
 40
0.396193602
 40
0.4581476651
 40
0.5217035958
 40
0.5867923291
 40
0.6532926363
 40
0.7210381742
 40
0.78982496
 40
0.8245431589
 40
0.8594318355
 40
0.9295762159
 40
1.0
 40
1.0
 40
1.0
 40
1.0
 10
20.1435683557
 20
10.1406930653
 30
0.0
 10
20.1435683557
 20
10.1474623816
 30
0.0
 10
20.1440030214
 20
10.161016464
 30
0.0
 10
20.1459568525
 20
10.181289266
 30
0.0
 10
20.1492078674
 20
10.2014643154
 30
0.0
 10
20.1537480317
 20
10.2214915546
 30
0.0
 10
20.1595661144
 20
10.2413227402
 30
0.0
 10
20.1666477682
 20
10.2609097971
 30
0.0
 10
20.1749755839
 20
10.2802054185
 30
0.0
 10
20.1845291381
 20
10.2991630371
 30
0.0
 10
20.1952851124
 20
10.3177370132
 30
0.0
 10
20.2072171539
 20
10.3358825421
 30
0.0
 10
20.2202966863
 20
10.3535564834
 30
0.0
 10
20.2393436859
 20
10.3765820476
 30
0.0
 10
20.2659183278
 20
10.4039571181
 30
0.0
 10
20.3015972247
 20
10.4340344486
 30
0.0
 10
20.3409358097
 20
10.4612805881
 30
0.0
 10
20.3835528136
 20
10.4854363245
 30
0.0
 10
20.4290404429
 20
10.5062751684
 30
0.0
 10
20.4769610116
 20
10.5236000876
 30
0.0
 10
20.5184197255
 20
10.5349398667
 30
0.0
 10
20.5523692865
 20
10.5421332069
 30
0.0
 10
20.5869067322
 20
10.5480713436
 30
0.0
 10
20.6306580359
 20
10.5530333014
 30
0.0
 10
20.665912715
 20
10.5543570646
 30
0.0
 10
20.6835683383
 20
10.5543570646
 30
0.0
  0
SPLINE
  5
66C
100
AcDbEntity
  8
0
100
AcDbSpline
 62
9
  6
CONTINUOUS
 70
0
 71
3
 72
15
 73
11
 74
0
 42
0.0000001
 43
0.0000001
 44
0.0000000001
 40
0.0
 40
0.0
 40
0.0
 40
0.0
 40
0.1270612843
 40
0.2539222125
 40
0.380388353
 40
0.5062652644
 40
0.6313586449
 40
0.755474487
 40
0.8784192424
 40
1.0
 40
1.0
 40
1.0
 40
1.0
 10
5.6835683383
 20
4.8114035959
 30
0.0
 10
5.7171404948
 20
4.8114035959
 30
0.0
 10
5.7842324526
 20
4.8110335989
 30
0.0
 10
5.8847269752
 20
4.809375429
 30
0.0
 10
5.9848845218
 20
4.8066215846
 30
0.0
 10
6.0845388494
 20
4.8027794241
 30
0.0
 10
6.1835239048
 20
4.7978563209
 30
0.0
 10
6.2816736538
 20
4.7918596578
 30
0.0
 10
6.3788218407
 20
4.7847968514
 30
0.0
 10
6.4432021974
 20
4.7793492204
 30
0.0
 10
6.4751946682
 20
4.7764442225
 30
0.0
  0
SPLINE
  5
66D
100
AcDbEntity
  8
0
100
AcDbSpline
 62
9
  6
CONTINUOUS
 70
0
 71
3
 72
49
 73
45
 74
0
 42
0.0000001
 43
0.0000001
 44
0.0000000001
 40
0.0
 40
0.0
 40
0.0
 40
0.0
 40
0.0303770475
 40
0.0598207795
 40
0.0883770156
 40
0.1161133513
 40
0.1297049062
 40
0.1431270101
 40
0.1563942639
 40
0.1695225143
 40
0.1825287809
 40
0.1954311498
 40
0.2082486334
 40
0.2210010267
 40
0.2337087384
 40
0.2463926013
 40
0.2590736772
 40
0.2717730556
 40
0.2845116499
 40
0.2973099992
 40
0.3101880754
 40
0.3231651158
 40
0.3362594654
 40
0.3494884317
 40
0.3628681843
 40
0.3764136622
 40
0.4040479993
 40
0.4324916592
 40
0.4618151572
 40
0.492067135
 40
0.5232753012
 40
0.5554477725
 40
0.5885746929
 40
0.6226298935
 40
0.6575725637
 40
0.6933489139
 40
0.7298937176
 40
0.7671318025
 40
0.804979479
 40
0.8433458617
 40
0.8821341691
 40
0.9212429754
 40
0.9605671586
 40
1.0
 40
1.0
 40
1.0
 40
1.0
 10
19.8476396959
 20
6.5981209435
 30
0.0
 10
19.8342013211
 20
6.5860456011
 30
0.0
 10
19.8085676789
 20
6.5613182205
 30
0.0
 10
19.7736045226
 20
6.522000257
 30
0.0
 10
19.7428974035
 20
6.4812182353
 30
0.0
 10
19.7208288326
 20
6.4459261802
 30
0.0
 10
19.7055080113
 20
6.4171819253
 30
0.0
 10
19.6952405549
 20
6.3955263786
 30
0.0
 10
19.6861328222
 20
6.3736563871
 30
0.0
 10
19.6781955011
 20
6.3515971847
 30
0.0
 10
19.6714382519
 20
6.3293748447
 30
0.0
 10
19.6658691572
 20
6.3070155574
 30
0.0
 10
19.6614950308
 20
6.2845457252
 30
0.0
 10
19.6583212225
 20
6.2619919316
 30
0.0
 10
19.6563515264
 20
6.2393809099
 30
0.0
 10
19.6555883923
 20
6.2167394687
 30
0.0
 10
19.6560327957
 20
6.1940944804
 30
0.0
 10
19.6576841099
 20
6.1714728185
 30
0.0
 10
19.6605403498
 20
6.1489013149
 30
0.0
 10
19.6645980821
 20
6.1264067333
 30
0.0
 10
19.6698522839
 20
6.1040156837
 30
0.0
 10
19.6762965908
 20
6.0817546341
 30
0.0
 10
19.6839232835
 20
6.0596498348
 30
0.0
 10
19.6927230009
 20
6.0377274038
 30
0.0
 10
19.7026854886
 20
6.0160126617
 30
0.0
 10
19.7176000226
 20
5.9871828772
 30
0.0
 10
19.7391702644
 20
5.9517645185
 30
0.0
 10
19.7693035676
 20
5.9108034521
 30
0.0
 10
19.8037156064
 20
5.8712802256
 30
0.0
 10
19.842240594
 20
5.8333787956
 30
0.0
 10
19.8846966165
 20
5.7972718507
 30
0.0
 10
19.9308838932
 20
5.7631249505
 30
0.0
 10
19.9805861771
 20
5.7310947925
 30
0.0
 10
20.0335712077
 20
5.7013287697
 30
0.0
 10
20.0895916265
 20
5.673964088
 30
0.0
 10
20.1483860715
 20
5.6491272926
 30
0.0
 10
20.2096802079
 20
5.6269334116
 30
0.0
 10
20.2731879803
 20
5.6074853679
 30
0.0
 10
20.3386129468
 20
5.5908735893
 30
0.0
 10
20.4056496416
 20
5.5771753189
 30
0.0
 10
20.473984848
 20
5.5664542994
 30
0.0
 10
20.543299705
 20
5.5587605854
 30
0.0
 10
20.6132687248
 20
5.5541298997
 30
0.0
 10
20.6601157862
 20
5.5530997421
 30
0.0
 10
20.6835683391
 20
5.5530997422
 30
0.0
  0
SPLINE
  5
66E
100
AcDbEntity
  8
0
100
AcDbSpline
 62
7
  6
CONTINUOUS
 70
0
 71
3
 72
25
 73
21
 74
0
 42
0.0000001
 43
0.0000001
 44
0.0000000001
 40
0.0
 40
0.0
 40
0.0
 40
0.0
 40
0.0627356754
 40
0.094152887
 40
0.1255981908
 40
0.1885588113
 40
0.2515875654
 40
0.314650251
 40
0.377710806
 40
0.4407328117
 40
0.5036805803
 40
0.5351157225
 40
0.5665191885
 40
0.6292108034
 40
0.6917134658
 40
0.7539852832
 40
0.8159855428
 40
0.8776760486
 40
0.9390243731
 40
1.0
 40
1.0
 40
1.0
 40
1.0
 10
6.2916626457
 20
2.8229502412
 30
0.0
 10
6.2967159188
 20
2.8636754768
 30
0.0
 10
6.3041780636
 20
2.9248105634
 30
0.0
 10
6.3139078899
 20
3.0063904816
 30
0.0
 10
6.3235106636
 20
3.0881336223
 30
0.0
 10
6.3352573253
 20
3.1904451213
 30
0.0
 10
6.3489398279
 20
3.3133515182
 30
0.0
 10
6.3622001172
 20
3.4363699512
 30
0.0
 10
6.3750198589
 20
3.5594306502
 30
0.0
 10
6.3873733739
 20
3.6824635047
 30
0.0
 10
6.3972491851
 20
3.7849530377
 30
0.0
 10
6.4048875656
 20
3.8668789427
 30
0.0
 10
6.4123391827
 20
3.9486537957
 30
0.0
 10
6.4213204779
 20
4.050695541
 30
0.0
 10
6.43159702
 20
4.172892452
 30
0.0
 10
6.4413688772
 20
4.2946770782
 30
0.0
 10
6.4506337793
 20
4.415968516
 30
0.0
 10
6.459384775
 20
4.536692469
 30
0.0
 10
6.4676053863
 20
4.6567818914
 30
0.0
 10
6.4727310863
 20
4.7366341364
 30
0.0
 10
6.4751946682
 20
4.7764442225
 30
0.0
  0
SPLINE
  5
66F
100
AcDbEntity
  8
0
100
AcDbSpline
 62
9
  6
CONTINUOUS
 70
0
 71
3
 72
11
 73
7
 74
0
 42
0.0000001
 43
0.0000001
 44
0.0000000001
 40
0.0
 40
0.0
 40
0.0
 40
0.0
 40
0.2523887228
 40
0.5038186244
 40
0.7533390706
 40
1.0
 40
1.0
 40
1.0
 40
1.0
 10
5.6835683383
 20
2.8349655713
 30
0.0
 10
5.734740229
 20
2.8349655713
 30
0.0
 10
5.836890313
 20
2.8344619628
 30
0.0
 10
5.9896157749
 20
2.832205943
 30
0.0
 10
6.1411503697
 20
2.8284616431
 30
0.0
 10
6.2416923282
 20
2.8249565733
 30
0.0
 10
6.2916626457
 20
2.8229502412
 30
0.0
  0
SPLINE
  5
670
100
AcDbEntity
  8
0
100
AcDbSpline
 62
7
  6
CONTINUOUS
 70
0
 71
3
 72
38
 73
34
 74
0
 42
0.0000001
 43
0.0000001
 44
0.0000000001
 40
0.0
 40
0.0
 40
0.0
 40
0.0
 40
0.0314072468
 40
0.0471124522
 40
0.062815406
 40
0.0942093423
 40
0.1255912072
 40
0.1412788692
 40
0.1569628189
 40
0.1883146276
 40
0.2196502098
 40
0.2509699646
 40
0.2822741991
 40
0.3135632598
 40
0.3448378946
 40
0.3760991411
 40
0.4385729621
 40
0.469799668
 40
0.501017052
 40
0.5322263832
 40
0.5634283231
 40
0.5946238282
 40
0.6258135164
 40
0.6881709611
 40
0.7505166063
 40
0.7816925498
 40
0.8128687587
 40
0.8440465664
 40
0.8752268168
 40
0.9064105617
 40
0.9375991338
 40
0.9687958379
 40
1.0
 40
1.0
 40
1.0
 40
1.0
 10
5.6835683383
 20
2.1768265784
 30
0.0
 10
5.6935648873
 20
2.1768265784
 30
0.0
 10
5.7085686182
 20
2.1774216802
 30
0.0
 10
5.7284700559
 20
2.1793714472
 30
0.0
 10
5.7482801687
 20
2.1820738655
 30
0.0
 10
5.7728261289
 20
2.1868294616
 30
0.0
 10
5.7969668725
 20
2.1933066816
 30
0.0
 10
5.8159781631
 20
2.1994417347
 30
0.0
 10
5.8347726136
 20
2.2061837781
 30
0.0
 10
5.8578475141
 20
2.215703008
 30
0.0
 10
5.8848099228
 20
2.2287117778
 30
0.0
 10
5.9110132924
 20
2.2431543638
 30
0.0
 10
5.9364367673
 20
2.2588980404
 30
0.0
 10
5.9610654793
 20
2.2758302149
 30
0.0
 10
5.9848943054
 20
2.2938469986
 30
0.0
 10
6.0155866339
 20
2.319182507
 30
0.0
 10
6.0447029043
 20
2.3463484556
 30
0.0
 10
6.0722329472
 20
2.375043465
 30
0.0
 10
6.0920996658
 20
2.3972756341
 30
0.0
 10
6.1111839069
 20
2.4201714229
 30
0.0
 10
6.1294845369
 20
2.4436893011
 30
0.0
 10
6.1469939222
 20
2.467794456
 30
0.0
 10
6.1692689947
 20
2.5006684825
 30
0.0
 10
6.1950887535
 20
2.5430835502
 30
0.0
 10
6.2180900904
 20
2.5870874593
 30
0.0
 10
6.2346909171
 20
2.6231458583
 30
0.0
 10
6.2462002417
 20
2.6506074008
 30
0.0
 10
6.2567165319
 20
2.6784660511
 30
0.0
 10
6.2661785582
 20
2.7067035486
 30
0.0
 10
6.2745167601
 20
2.7352974254
 30
0.0
 10
6.2816505223
 20
2.764222055
 30
0.0
 10
6.2874855153
 20
2.7934435216
 30
0.0
 10
6.2904396523
 20
2.8130939176
 30
0.0
 10
6.2916626457
 20
2.8229502412
 30
0.0
  0
SPLINE
  5
671
100
AcDbEntity
  8
0
100
AcDbSpline
 62
9
  6
CONTINUOUS
 70
0
 71
3
 72
14
 73
10
 74
0
 42
0.0000001
 43
0.0000001
 44
0.0000000001
 40
0.0
 40
0.0
 40
0.0
 40
0.0
 40
0.1141151648
 40
0.2297712828
 40
0.3477980629
 40
0.469002009
 40
0.5941471628
 40
0.7239634265
 40
1.0
 40
1.0
 40
1.0
 40
1.0
 10
6.3886324961
 20
2.7927814677
 30
0.0
 10
6.3886796775
 20
2.791034212
 30
0.0
 10
6.3886033757
 20
2.7875091642
 30
0.0
 10
6.3879756114
 20
2.7822113472
 30
0.0
 10
6.3868284966
 20
2.776889839
 30
0.0
 10
6.3851566472
 20
2.7715572739
 30
0.0
 10
6.3829532215
 20
2.7662254467
 30
0.0
 10
6.3792242827
 20
2.7589894367
 30
0.0
 10
6.3757071618
 20
2.7538251249
 30
0.0
 10
6.3730949842
 20
2.7505005556
 30
0.0
  0
SPLINE
  5
672
100
AcDbEntity
  8
0
100
AcDbSpline
 62
9
  6
CONTINUOUS
 70
0
 71
3
 72
15
 73
11
 74
0
 42
0.0000001
 43
0.0000001
 44
0.0000000001
 40
0.0
 40
0.0
 40
0.0
 40
0.0
 40
0.1194228895
 40
0.2389251393
 40
0.3592918615
 40
0.4812922486
 40
0.6056429404
 40
0.7330679271
 40
0.8642848398
 40
1.0
 40
1.0
 40
1.0
 40
1.0
 10
4.9784840639
 20
2.7920277357
 30
0.0
 10
4.9784348679
 20
2.79022185
 30
0.0
 10
4.978505211
 20
2.7866018863
 30
0.0
 10
4.9791279439
 20
2.7811945759
 30
0.0
 10
4.9802732172
 20
2.7758329411
 30
0.0
 10
4.9819460895
 20
2.7705349773
 30
0.0
 10
4.9841526104
 20
2.7653200713
 30
0.0
 10
4.9868983703
 20
2.7602090736
 30
0.0
 10
4.9901879406
 20
2.7552234308
 30
0.0
 10
4.9927008028
 20
2.7520551893
 30
0.0
 10
4.9940416924
 20
2.7505005556
 30
0.0
  0
SPLINE
  5
673
100
AcDbEntity
  8
0
100
AcDbSpline
 62
7
  6
CONTINUOUS
 70
0
 71
3
 72
23
 73
19
 74
0
 42
0.0000001
 43
0.0000001
 44
0.0000000001
 40
0.0
 40
0.0
 40
0.0
 40
0.0
 40
0.0555905741
 40
0.1128567155
 40
0.1717764145
 40
0.2322642056
 40
0.2941791744
 40
0.3573337106
 40
0.4215023499
 40
0.4864306567
 40
0.5518440407
 40
0.6174564077
 40
0.6829787905
 40
0.748127865
 40
0.8126345033
 40
0.8762522711
 40
0.9387659556
 40
1.0
 40
1.0
 40
1.0
 40
1.0
 10
21.018484049
 20
11.2202640739
 30
0.0
 10
21.0104284062
 20
11.2289797
 30
0.0
 10
20.9930612967
 20
11.2457612189
 30
0.0
 10
20.9641147018
 20
11.268375773
 30
0.0
 10
20.9321885362
 20
11.2885728787
 30
0.0
 10
20.8976270819
 20
11.3061300451
 30
0.0
 10
20.8607963495
 20
11.320857945
 30
0.0
 10
20.8220872155
 20
11.3325945974
 30
0.0
 10
20.7819098059
 20
11.3412093996
 30
0.0
 10
20.7406898618
 20
11.3466042189
 30
0.0
 10
20.6988641238
 20
11.3487143854
 30
0.0
 10
20.6568758164
 20
11.3475097821
 30
0.0
 10
20.6151699377
 20
11.3429950231
 30
0.0
 10
20.574188442
 20
11.3352092808
 30
0.0
 10
20.5343659988
 20
11.3242264166
 30
0.0
 10
20.496123729
 20
11.310152574
 30
0.0
 10
20.459871305
 20
11.2931295163
 30
0.0
 10
20.437024601
 20
11.2797741944
 30
0.0
 10
20.4260653927
 20
11.272646656
 30
0.0
  0
SPLINE
  5
674
100
AcDbEntity
  8
0
100
AcDbSpline
 62
7
  6
CONTINUOUS
 70
0
 71
3
 72
23
 73
19
 74
0
 42
0.0000001
 43
0.0000001
 44
0.0000000001
 40
0.0
 40
0.0
 40
0.0
 40
0.0
 40
0.05781609
 40
0.1173025329
 40
0.1783657104
 40
0.2408453323
 40
0.3045251454
 40
0.3691441627
 40
0.4344078924
 40
0.4999995255
 40
0.5655911766
 40
0.6308549598
 40
0.6954740642
 40
0.759153995
 40
0.8216337609
 40
0.8826971031
 40
0.9421837249
 40
1.0
 40
1.0
 40
1.0
 40
1.0
 10
21.0003007001
 20
10.8238028014
 30
0.0
 10
20.9905869745
 20
10.8328555671
 30
0.0
 10
20.9698181831
 20
10.8501136174
 30
0.0
 10
20.9356690652
 20
10.8728607649
 30
0.0
 10
20.8984740327
 20
10.8925877555
 30
0.0
 10
20.8586881582
 20
10.9090565579
 30
0.0
 10
20.8167903694
 20
10.9220734211
 30
0.0
 10
20.7732863975
 20
10.9314834249
 30
0.0
 10
20.7287006789
 20
10.9371747073
 30
0.0
 10
20.6835708109
 20
10.9390794948
 30
0.0
 10
20.6384409132
 20
10.9371751235
 30
0.0
 10
20.5938551055
 20
10.9314842523
 30
0.0
 10
20.5503509862
 20
10.9220746497
 30
0.0
 10
20.5084529938
 20
10.9090581734
 30
0.0
 10
20.4686668616
 20
10.8925897385
 30
0.0
 10
20.4314715204
 20
10.872863092
 30
0.0
 10
20.3973220465
 20
10.8501162611
 30
0.0
 10
20.376552986
 20
10.8328584049
 30
0.0
 10
20.3668391182
 20
10.8238057293
 30
0.0
  0
SPLINE
  5
675
100
AcDbEntity
  8
0
100
AcDbSpline
 62
9
  6
CONTINUOUS
 70
0
 71
3
 72
24
 73
20
 74
0
 42
0.0000001
 43
0.0000001
 44
0.0000000001
 40
0.0
 40
0.0
 40
0.0
 40
0.0
 40
0.208030709
 40
0.3026991968
 40
0.3911637733
 40
0.4734532033
 40
0.5496036516
 40
0.6196612654
 40
0.6836859303
 40
0.7417568651
 40
0.7685940825
 40
0.7939862556
 40
0.8405124122
 40
0.8815518917
 40
0.9174147567
 40
0.9485677043
 40
0.9757233989
 40
0.9881423588
 40
1.0
 40
1.0
 40
1.0
 40
1.0
 10
4.5677337562
 20
10.0154655713
 30
0.0
 10
4.5641204712
 20
10.0137940491
 30
0.0
 10
4.5588942578
 20
10.0112921364
 30
0.0
 10
4.5522309794
 20
10.0078797338
 30
0.0
 10
4.5477557397
 20
10.005476081
 30
0.0
 10
4.5436431556
 20
10.0031485048
 30
0.0
 10
4.5398928361
 20
10.0008986807
 30
0.0
 10
4.5365042874
 20
9.9987283377
 30
0.0
 10
4.5334770758
 20
9.9966391714
 30
0.0
 10
4.5311985911
 20
9.9949250038
 30
0.0
 10
4.5295614404
 20
9.9935921146
 30
0.0
 10
4.5281295211
 20
9.9923583872
 30
0.0
 10
4.5265552615
 20
9.9908743151
 30
0.0
 10
4.5249644725
 20
9.9891243055
 30
0.0
 10
4.5237295876
 20
9.9874599438
 30
0.0
 10
4.5228498402
 20
9.9858800867
 30
0.0
 10
4.5224022496
 20
9.9845916858
 30
0.0
 10
4.5222452682
 20
9.9836178488
 30
0.0
 10
4.5222295923
 20
9.9831519127
 30
0.0
 10
4.5222376814
 20
9.9829251316
 30
0.0
  0
SPLINE
  5
676
100
AcDbEntity
  8
0
100
AcDbSpline
 62
9
  6
CONTINUOUS
 70
0
 71
3
 72
65
 73
61
 74
0
 42
0.0000001
 43
0.0000001
 44
0.0000000001
 40
0.0
 40
0.0
 40
0.0
 40
0.0
 40
0.0087259619
 40
0.0178503735
 40
0.0273853397
 40
0.0373399544
 40
0.0477207095
 40
0.0585320713
 40
0.0697767831
 40
0.0814562855
 40
0.106117416
 40
0.1325141831
 40
0.1606360811
 40
0.1904737961
 40
0.2220267484
 40
0.2553137479
 40
0.2903865879
 40
0.3086257797
 40
0.3273610264
 40
0.3664544902
 40
0.3869080272
 40
0.3973897983
 40
0.408053127
 40
0.4189051804
 40
0.4299567193
 40
0.4412090666
 40
0.4526598688
 40
0.464299258
 40
0.4760999834
 40
0.4880205548
 40
0.5000065679
 40
0.5060038559
 40
0.5119929972
 40
0.5239136293
 40
0.5357137727
 40
0.547353059
 40
0.5700538944
 40
0.5811054533
 40
0.5919575794
 40
0.6026198346
 40
0.6131017974
 40
0.6335544739
 40
0.6533861693
 40
0.6726470846
 40
0.7096206293
 40
0.7446929931
 40
0.7779792555
 40
0.8095314664
 40
0.8393685148
 40
0.8674897627
 40
0.8938858652
 40
0.9185463233
 40
0.9302254972
 40
0.9414698801
 40
0.9522809093
 40
0.9626613289
 40
0.972615608
 40
0.982150245
 40
0.9912743393
 40
1.0
 40
1.0
 40
1.0
 40
1.0
 10
20.3255339717
 20
7.5056005687
 30
0.0
 10
20.3274334009
 20
7.5065392473
 30
0.0
 10
20.3313825275
 20
7.5083329789
 30
0.0
 10
20.337589797
 20
7.5107259261
 30
0.0
 10
20.3441998182
 20
7.5128754765
 30
0.0
 10
20.3512015297
 20
7.5147771412
 30
0.0
 10
20.358584475
 20
7.5164268304
 30
0.0
 10
20.3663381405
 20
7.5178208022
 30
0.0
 10
20.3744523138
 20
7.5189557275
 30
0.0
 10
20.3859475043
 20
7.520140779
 30
0.0
 10
20.4011718721
 20
7.5209218675
 30
0.0
 10
20.4204059528
 20
7.5207724809
 30
0.0
 10
20.440859709
 20
7.519544878
 30
0.0
 10
20.4624783606
 20
7.5172424309
 30
0.0
 10
20.485225262
 20
7.5138823323
 30
0.0
 10
20.509090436
 20
7.5095041719
 30
0.0
 10
20.5296581519
 20
7.5051244539
 30
0.0
 10
20.5467131145
 20
7.5012316789
 30
0.0
 10
20.5646904926
 20
7.4969950505
 30
0.0
 10
20.5831660398
 20
7.4925299753
 30
0.0
 10
20.5997306946
 20
7.4886907419
 30
0.0
 10
20.6095945152
 20
7.4865169327
 30
0.0
 10
20.6171974737
 20
7.4849181896
 30
0.0
 10
20.6249544311
 20
7.4833816001
 30
0.0
 10
20.6328756748
 20
7.4819428166
 30
0.0
 10
20.6409656064
 20
7.4806262091
 30
0.0
 10
20.6492240821
 20
7.4794674009
 30
0.0
 10
20.6576428525
 20
7.4785117915
 30
0.0
 10
20.6661998319
 20
7.477793392
 30
0.0
 10
20.6748596053
 20
7.4773411505
 30
0.0
 10
20.68212105
 20
7.4772199827
 30
0.0
 10
20.6879416984
 20
7.4772699482
 30
0.0
 10
20.6937448578
 20
7.4774177807
 30
0.0
 10
20.7009503449
 20
7.4777931502
 30
0.0
 10
20.7095069567
 20
7.4785139235
 30
0.0
 10
20.7206399979
 20
7.4797770541
 30
0.0
 10
20.7315382287
 20
7.4814490355
 30
0.0
 10
20.7421943946
 20
7.48338396
 30
0.0
 10
20.7499513452
 20
7.4849197538
 30
0.0
 10
20.7575537007
 20
7.4865203176
 30
0.0
 10
20.7674174065
 20
7.488692688
 30
0.0
 10
20.7794254002
 20
7.4914772408
 30
0.0
 10
20.7934891965
 20
7.4948300844
 30
0.0
 10
20.8114498498
 20
7.4991345419
 30
0.0
 10
20.8330387164
 20
7.5041795028
 30
0.0
 10
20.8580557582
 20
7.509505895
 30
0.0
 10
20.8819204975
 20
7.5138838434
 30
0.0
 10
20.9046669294
 20
7.5172435551
 30
0.0
 10
20.926285124
 20
7.519545585
 30
0.0
 10
20.9467384247
 20
7.5207727571
 30
0.0
 10
20.9659720266
 20
7.5209217212
 30
0.0
 10
20.9811959725
 20
7.5201402828
 30
0.0
 10
20.9926908093
 20
7.5189549473
 30
0.0
 10
21.0008047112
 20
7.5178198159
 30
0.0
 10
21.0085580948
 20
7.516425643
 30
0.0
 10
21.0159407466
 20
7.5147757568
 30
0.0
 10
21.0229421544
 20
7.5128739
 30
0.0
 10
21.0295518635
 20
7.5107241599
 30
0.0
 10
21.0357588147
 20
7.5083310259
 30
0.0
 10
21.0397077196
 20
7.5065371686
 30
0.0
 10
21.0416070366
 20
7.5055984279
 30
0.0
  0
SPLINE
  5
677
100
AcDbEntity
  8
0
100
AcDbSpline
 62
9
  6
CONTINUOUS
 70
0
 71
3
 72
23
 73
19
 74
0
 42
0.0000001
 43
0.0000001
 44
0.0000000001
 40
0.0
 40
0.0
 40
0.0
 40
0.0
 40
0.1050202196
 40
0.2040324822
 40
0.2970607349
 40
0.3841341081
 40
0.4652884394
 40
0.5405683706
 40
0.6100302853
 40
0.6737465054
 40
0.7318114077
 40
0.7843505217
 40
0.8315343211
 40
0.8735994183
 40
0.9108811848
 40
0.9438626369
 40
0.9732413302
 40
1.0
 40
1.0
 40
1.0
 40
1.0
 10
4.5816202932
 20
9.7910670143
 30
0.0
 10
4.5795472182
 20
9.7900470806
 30
0.0
 10
4.5755346703
 20
9.7880348181
 30
0.0
 10
4.5697441852
 20
9.7850043992
 30
0.0
 10
4.5643592196
 20
9.7820528904
 30
0.0
 10
4.5593794082
 20
9.7791821892
 30
0.0
 10
4.5548043304
 20
9.7763941794
 30
0.0
 10
4.5506335276
 20
9.773690737
 30
0.0
 10
4.5468664785
 20
9.7710737155
 30
0.0
 10
4.5435025777
 20
9.7685449228
 30
0.0
 10
4.5405411028
 20
9.7661060798
 30
0.0
 10
4.5379811808
 20
9.7637587297
 30
0.0
 10
4.5358217597
 20
9.7615041079
 30
0.0
 10
4.5340616735
 20
9.7593427778
 30
0.0
 10
4.5326998863
 20
9.7572744395
 30
0.0
 10
4.5317365927
 20
9.755296612
 30
0.0
 10
4.5311749213
 20
9.7534075066
 30
0.0
 10
4.5310718973
 20
9.7521644676
 30
0.0
 10
4.5310959407
 20
9.7515762819
 30
0.0
  0
SPLINE
  5
678
100
AcDbEntity
  8
0
100
AcDbSpline
 62
9
  6
CONTINUOUS
 70
0
 71
3
 72
15
 73
11
 74
0
 42
0.0000001
 43
0.0000001
 44
0.0000000001
 40
0.0
 40
0.0
 40
0.0
 40
0.0
 40
0.1353504763
 40
0.2664487977
 40
0.3938843753
 40
0.518297804
 40
0.6403764508
 40
0.7608469201
 40
0.8804644779
 40
1.0
 40
1.0
 40
1.0
 40
1.0
 10
4.8919420083
 20
4.7764442225
 30
0.0
 10
4.8890686639
 20
4.7716705857
 30
0.0
 10
4.8837050511
 20
4.7620924601
 30
0.0
 10
4.8767574625
 20
4.7474280607
 30
0.0
 10
4.8710463236
 20
4.7327194254
 30
0.0
 10
4.8665733117
 20
4.7179748972
 30
0.0
 10
4.8633395637
 20
4.7032025021
 30
0.0
 10
4.8613462032
 20
4.6884105364
 30
0.0
 10
4.8605938111
 20
4.6736093515
 30
0.0
 10
4.8609192655
 20
4.6637564621
 30
0.0
 10
4.8612858796
 20
4.6588494705
 30
0.0
  0
SPLINE
  5
679
100
AcDbEntity
  8
0
100
AcDbSpline
 62
9
  6
CONTINUOUS
 70
0
 71
3
 72
39
 73
35
 74
0
 42
0.0000001
 43
0.0000001
 44
0.0000000001
 40
0.0
 40
0.0
 40
0.0
 40
0.0
 40
0.0241788623
 40
0.048440094
 40
0.0728644445
 40
0.0975295111
 40
0.1225083701
 40
0.1478684279
 40
0.1736705231
 40
0.1999682862
 40
0.2133193627
 40
0.2268109608
 40
0.2542303595
 40
0.2822601657
 40
0.3109232147
 40
0.340234965
 40
0.3702038296
 40
0.4008315562
 40
0.4321136372
 40
0.4640397323
 40
0.4965940947
 40
0.52975599
 40
0.5635001071
 40
0.5977969551
 40
0.6326132462
 40
0.6679122651
 40
0.7036542244
 40
0.7397966073
 40
0.7762944982
 40
0.8131009076
 40
0.8501670713
 40
0.8874427948
 40
0.9248766451
 40
1.0
 40
1.0
 40
1.0
 40
1.0
 10
19.6435683383
 20
6.1886689913
 30
0.0
 10
19.6435683383
 20
6.1777271215
 30
0.0
 10
19.644407162
 20
6.1557969371
 30
0.0
 10
19.6481764334
 20
6.1230088014
 30
0.0
 10
19.6544476033
 20
6.0903805668
 30
0.0
 10
19.6632043965
 20
6.0579948036
 30
0.0
 10
19.6744242352
 20
6.0259299455
 30
0.0
 10
19.688078628
 20
5.9942638638
 30
0.0
 10
19.7041326564
 20
5.9630736542
 30
0.0
 10
19.7194013003
 20
5.9376675271
 30
0.0
 10
19.7327488963
 20
5.9176598187
 30
0.0
 10
19.7470041391
 20
5.8976613202
 30
0.0
 10
19.7662674035
 20
5.8730947246
 30
0.0
 10
19.7914658196
 20
5.8445391109
 30
0.0
 10
19.81881047
 20
5.8168160527
 30
0.0
 10
19.8482345634
 20
5.78999229
 30
0.0
 10
19.8796671706
 20
5.7641314386
 30
0.0
 10
19.913032467
 20
5.7392951298
 30
0.0
 10
19.9482501325
 20
5.7155425234
 30
0.0
 10
19.9852354489
 20
5.6929302663
 30
0.0
 10
20.0238995005
 20
5.6715123286
 30
0.0
 10
20.0641493643
 20
5.6513398765
 30
0.0
 10
20.1058883214
 20
5.632461141
 30
0.0
 10
20.1490160787
 20
5.6149212949
 30
0.0
 10
20.193429003
 20
5.5987623366
 30
0.0
 10
20.2390203654
 20
5.5840229819
 30
0.0
 10
20.2856805928
 20
5.5707385649
 30
0.0
 10
20.3332975385
 20
5.5589409466
 30
0.0
 10
20.3817567168
 20
5.5486584339
 30
0.0
 10
20.4309417097
 20
5.5399157028
 30
0.0
 10
20.4807339508
 20
5.5327337619
 30
0.0
 10
20.5310148921
 20
5.527129774
 30
0.0
 10
20.5986159598
 20
5.5217741617
 30
0.0
 10
20.6495721162
 20
5.5201698773
 30
0.0
 10
20.6835683383
 20
5.5201698773
 30
0.0
  0
ENDSEC
  0
SECTION
  2
OBJECTS
  0
DICTIONARY
  5
C
100
AcDbDictionary
280
0
281
1
  3
ACAD_GROUP
350
D
  3
ACAD_MLINESTYLE
350
17
  3
ACAD_LAYOUT
350
1A
  3
ACAD_PLOTSETTINGS
350
19
  3
ACAD_PLOTSTYLENAME
350
E
  0
DICTIONARY
  5
D
102
{ACAD_REACTORS
330
C
102
}
100
AcDbDictionary
280
0
281
1
  0
ACDBDICTIONARYWDFLT
  5
E
102
{ACAD_REACTORS
330
C
102
}
100
AcDbDictionary
281
1
  3
Normal
350
F
100
AcDbDictionaryWithDefault
340
F
  0
DICTIONARY
  5
17
102
{ACAD_REACTORS
330
C
102
}
100
AcDbDictionary
280
0
281
1
  3
Standard
350
18
  0
DICTIONARY
  5
19
102
{ACAD_REACTORS
330
C
102
}
100
AcDbDictionary
281
1
  0
DICTIONARY
  5
1A
102
{ACAD_REACTORS
330
C
102
}
100
AcDbDictionary
281
1
  3
Model
350
67A
  3
Layout1
350
67B
  0
ACDBPLACEHOLDER
  5
F
102
{ACAD_REACTORS
330
E
102
}
  0
MLINESTYLE
  5
18
102
{ACAD_REACTORS
330
17
102
}
100
AcDbMlineStyle
  2
STANDARD
 70
0
  3

 62
256
 51
90.0
 52
90.0
 71
2
 49
0.5
 62
256
  6
BYLAYER
 49
-0.5
 62
256
  6
BYLAYER
  0
LAYOUT
  5
67A
102
{ACAD_REACTORS
330
1A
102
}
100
AcDbPlotSettings
  1

  2
none_device
  4
ANSI_C_(22.00_x_17.00_Inches)
  6

 40
0.0
 41
0.0
 42
0.0
 43
0.0
 44
558.8
 45
431.8
 46
0.0
 47
0.0
 48
0.0
 49
0.0
140
0.0
141
0.0
142
1.0
143
1.0
 70
1024
 72
0
 73
0
 74
0
  7

 75
0
147
1.0
148
0.0
149
0.0
100
AcDbLayout
  1
Model
 70
0
 71
0
 10
0.0
 20
0.0
 11
22.0
 21
17.0
 12
0.0
 22
0.0
 32
0.0
 14
0.0
 24
0.0
 34
0.0
 15
0.0
 25
0.0
 35
0.0
146
0.0
 13
0.0
 23
0.0
 33
0.0
 16
1.0
 26
0.0
 36
0.0
 17
0.0
 27
1.0
 37
0.0
 76
0
330
205
345
0
346
0
  0
LAYOUT
  5
67B
102
{ACAD_REACTORS
330
1A
102
}
100
AcDbPlotSettings
  1

  2
none_device
  4
ANSI_C_(22.00_x_17.00_Inches)
  6

 40
0.0
 41
0.0
 42
0.0
 43
0.0
 44
558.8
 45
431.8
 46
0.0
 47
0.0
 48
0.0
 49
0.0
140
0.0
141
0.0
142
1.0
143
1.0
 70
0
 72
0
 73
0
 74
0
  7

 75
0
147
1.0
148
0.0
149
0.0
100
AcDbLayout
  1
Layout1
 70
0
 71
1
 10
0.0
 20
0.0
 11
22.0
 21
17.0
 12
0.0
 22
0.0
 32
0.0
 14
0.0
 24
0.0
 34
0.0
 15
0.0
 25
0.0
 35
0.0
146
0.0
 13
0.0
 23
0.0
 33
0.0
 16
1.0
 26
0.0
 36
0.0
 17
0.0
 27
1.0
 37
0.0
 76
0
330
206
345
0
346
0
  0
ENDSEC
  0
EOF
