999
DXF file: E:\BT Custom\CADOUTPUT\_RIGHT.dxf
999
Pro/ENGINEER 2018400 by Parametric Technology Corporation
  0
SECTION
  2
HEADER
  9
$ACADVER
  1
AC1018
  9
$DWGCODEPAGE
  3
ANSI_1252
  9
$EXTMAX
 10
22.0
 20
17.0
 30
0.0
  9
$EXTMIN
 10
0.0
 20
0.0
 30
0.0
  9
$LIMMIN
 10
0.0
 20
0.0
  9
$LIMMAX
 10
22.0
 20
17.0
  9
$VIEWCTR
 10
11.0
 20
8.5
  9
$VIEWSIZE
 40
17.0
  9
$CLAYER
  8
0
  9
$LTSCALE
 40
1.21
  9
$CELTYPE
  6
BYLAYER
  9
$DIMSCALE
 40
1.0
  9
$DIMASZ
 40
0.1
  9
$DIMEXO
 40
0.0625
  9
$DIMDLI
 40
0.836
  9
$DIMEXE
 40
0.125
  9
$DIMCEN
 40
0.198
  9
$DIMLFAC
 40
1.0
  9
$DIMBLK
  1
_FILLED
  9
$DIMALT
 70
1
  9
$DIMALTD
 70
2
  9
$DIMALTTD
 70
2
  9
$DIMALTF
 40
25.4
  9
$DIMTXT
 40
0.08
  9
$DIMTOL
 70
1
  9
$DIMLIM
 70
0
  9
$DIMTFAC
 40
1.0
  9
$DIMTP
 40
0.001
  9
$DIMTM
 40
0.001
  9
$DIMGAP
 40
0.09
  9
$DIMDSEP
 70
46
  9
$AUNITS
 70
0
  9
$PDMODE
 70
3
  9
$PDSIZE
 40
0.06
  9
$HANDSEED
  5
59E
  9
$TILEMODE
 70
1
  9
$MEASUREMENT
 70
0
  9
$INSUNITS
 70
1
  0
ENDSEC
  0
SECTION
  2
CLASSES
  0
CLASS
  1
ACDBDICTIONARYWDFLT
  2
AcDbDictionaryWithDefault
  3
AutoCAD 2000
 90
0
 91
1
280
0
281
0
  0
CLASS
  1
ACDBPLACEHOLDER
  2
AcDbPlaceHolder
  3
AutoCAD 2000
 90
0
 91
1
280
0
281
0
  0
CLASS
  1
LAYOUT
  2
AcDbLayout
  3
AutoCAD 2000
 90
0
 91
0
280
0
281
0
  0
ENDSEC
  0
SECTION
  2
TABLES
  0
TABLE
  2
VPORT
  5
8
100
AcDbSymbolTable
 70
2
  0
VPORT
  5
1F4
100
AcDbSymbolTableRecord
100
AcDbViewportTableRecord
  2
*ACTIVE
 70
0
 10
0.0
 20
0.0
 11
1.0
 21
1.0
 12
11.0
 22
8.5
 13
0.0
 23
0.0
 14
1.0
 24
1.0
 15
0.0
 25
0.0
 16
0.0
 26
0.0
 36
1.0
 17
0.0
 27
0.0
 37
0.0
 40
17.0
 41
1.2941176471
 42
50.0
 43
0.0
 44
0.0
 50
0.0
 51
0.0
 71
0
 72
100
 73
1
 74
1
 75
0
 76
0
 77
0
 78
0
  0
ENDTAB
  0
TABLE
  2
LTYPE
  5
5
100
AcDbSymbolTable
 70
6
  0
LTYPE
  5
14
100
AcDbSymbolTableRecord
100
AcDbLinetypeTableRecord
  2
BYBLOCK
 70
0
  3

 72
65
 73
0
 40
0.0
  0
LTYPE
  5
15
100
AcDbSymbolTableRecord
100
AcDbLinetypeTableRecord
  2
BYLAYER
 70
0
  3

 72
65
 73
0
 40
0.0
  0
LTYPE
  5
16
100
AcDbSymbolTableRecord
100
AcDbLinetypeTableRecord
  2
CONTINUOUS
 70
64
  3
Solid line
 72
65
 73
0
 40
0.0
  0
LTYPE
  5
1F5
100
AcDbSymbolTableRecord
100
AcDbLinetypeTableRecord
  2
CENTER
 70
64
  3
____ _ ____ _ ____ _ ____ _ ____ _ ____ _ ____
 72
65
 73
4
 40
0.6
 49
0.375
 74
0
 49
-0.075
 74
0
 49
0.075
 74
0
 49
-0.075
 74
0
  0
LTYPE
  5
1F6
100
AcDbSymbolTableRecord
100
AcDbLinetypeTableRecord
  2
HIDDEN
 70
64
  3
- - - - - - - - - - - - - - - - - - - -
 72
65
 73
2
 40
0.2
 49
0.1
 74
0
 49
-0.1
 74
0
  0
LTYPE
  5
1F7
100
AcDbSymbolTableRecord
100
AcDbLinetypeTableRecord
  2
PHANTOM
 70
64
  3
_____ _ _ _____ _ _ _____ _ _ _____
 72
65
 73
6
 40
0.8
 49
0.45
 74
0
 49
-0.05
 74
0
 49
0.1
 74
0
 49
-0.05
 74
0
 49
0.1
 74
0
 49
-0.05
 74
0
  0
LTYPE
  5
1F8
100
AcDbSymbolTableRecord
100
AcDbLinetypeTableRecord
  2
DOT
 70
64
  3
. . . . . . . . . . . . . . . . . . . .
 72
65
 73
2
 40
0.2
 49
0.1
 74
0
 49
-0.1
 74
0
  0
LTYPE
  5
1F9
100
AcDbSymbolTableRecord
100
AcDbLinetypeTableRecord
  2
DASHED
 70
64
  3
- - - - - - - - - - - - - - - - - - - -
 72
65
 73
2
 40
0.2
 49
0.1
 74
0
 49
-0.1
 74
0
  0
ENDTAB
  0
TABLE
  2
LAYER
  5
2
100
AcDbSymbolTable
 70
36
  0
LAYER
  5
10
100
AcDbSymbolTableRecord
100
AcDbLayerTableRecord
  2
0
 70
0
 62
7
  6
CONTINUOUS
370
-3
390
F
  0
LAYER
  5
1FA
100
AcDbSymbolTableRecord
100
AcDbLayerTableRecord
  2
DEFAULT_1
 70
0
 62
7
  6
CENTER
370
-3
390
F
  0
LAYER
  5
1FB
100
AcDbSymbolTableRecord
100
AcDbLayerTableRecord
  2
DEFAULT_2
 70
0
 62
8
  6
HIDDEN
370
-3
390
F
  0
LAYER
  5
1FC
100
AcDbSymbolTableRecord
100
AcDbLayerTableRecord
  2
DEFAULT_3
 70
0
 62
7
  6
PHANTOM
370
-3
390
F
  0
LAYER
  5
1FD
100
AcDbSymbolTableRecord
100
AcDbLayerTableRecord
  2
ALL_FEATURES
 70
0
 62
7
  6
CONTINUOUS
370
-3
390
F
  0
LAYER
  5
1FE
100
AcDbSymbolTableRecord
100
AcDbLayerTableRecord
  2
AXES_FEATURES
 70
0
 62
7
  6
CONTINUOUS
370
-3
390
F
  0
LAYER
  5
1FF
100
AcDbSymbolTableRecord
100
AcDbLayerTableRecord
  2
DEFAULT_COORDINATE_SYSTEM
 70
0
 62
7
  6
CONTINUOUS
370
-3
390
F
  0
LAYER
  5
200
100
AcDbSymbolTableRecord
100
AcDbLayerTableRecord
  2
DEFAULT_DATUM_AXES
 70
0
 62
7
  6
CONTINUOUS
370
-3
390
F
  0
LAYER
  5
201
100
AcDbSymbolTableRecord
100
AcDbLayerTableRecord
  2
DEFAULT_DATUM_PLANES
 70
0
 62
7
  6
CONTINUOUS
370
-3
390
F
  0
LAYER
  5
202
100
AcDbSymbolTableRecord
100
AcDbLayerTableRecord
  2
DIMENSIONS
 70
0
 62
7
  6
CONTINUOUS
370
-3
390
F
  0
ENDTAB
  0
TABLE
  2
STYLE
  5
3
100
AcDbSymbolTable
 70
1
  0
STYLE
  5
11
100
AcDbSymbolTableRecord
100
AcDbTextStyleTableRecord
  2
STANDARD
 70
0
 40
0.0
 41
0.8
 50
0.0
 71
0
 42
0.2
  3
txt
  4

  0
STYLE
  5
203
100
AcDbSymbolTableRecord
100
AcDbTextStyleTableRecord
  2
TEXTSTYLE_1
 70
0
 40
0.0
 41
0.8
 50
0.0
 71
0
 42
0.2
  3
gdt
  4

  0
ENDTAB
  0
TABLE
  2
VIEW
  5
6
100
AcDbSymbolTable
 70
0
  0
ENDTAB
  0
TABLE
  2
UCS
  5
7
100
AcDbSymbolTable
 70
0
  0
ENDTAB
  0
TABLE
  2
APPID
  5
9
100
AcDbSymbolTable
 70
1
  0
APPID
  5
204
100
AcDbSymbolTableRecord
100
AcDbRegAppTableRecord
  2
ACAD
 70
0
  0
ENDTAB
  0
TABLE
  2
BLOCK_RECORD
  5
1
100
AcDbSymbolTable
 70
0
  0
BLOCK_RECORD
  5
205
100
AcDbSymbolTableRecord
100
AcDbBlockTableRecord
  2
*Model_Space
  0
BLOCK_RECORD
  5
206
100
AcDbSymbolTableRecord
100
AcDbBlockTableRecord
  2
*Paper_Space
  0
BLOCK_RECORD
  5
207
100
AcDbSymbolTableRecord
100
AcDbBlockTableRecord
  2
_FILLED
  0
ENDTAB
  0
TABLE
  2
DIMSTYLE
  5
A
100
AcDbSymbolTable
 70
1
100
AcDbDimStyleTable
 71
0
  0
DIMSTYLE
105
208
100
AcDbSymbolTableRecord
100
AcDbDimStyleTableRecord
  2
STANDARD
 70
0
  3

  4

 40
1.0
 41
0.1
 42
0.0625
 43
0.38
 44
0.125
 45
0.0
 46
0.0
 47
0.001
 48
0.001
140
0.08
141
0.09
142
0.0
143
25.4
144
1.0
145
0.0
146
1.0
147
0.09
 71
1.0
 72
0.0
 73
1
 74
1
 75
0
 76
0
 77
0
 78
4
 79
1
170
1
171
2
172
0
173
0
174
0
175
0
176
0
177
0
178
0
270
2
179
3
271
3
272
3
273
2
274
2
275
0
280
0
281
0
282
0
283
1
284
4
285
0
286
0
287
3
288
0
340
11
278
46
341
207
342
207
343
207
344
207
  0
ENDTAB
  0
ENDSEC
  0
SECTION
  2
BLOCKS
  0
BLOCK
  5
20
100
AcDbEntity
  8
0
100
AcDbBlockBegin
  2
*Model_Space
 70
0
 10
0.0
 20
0.0
 30
0.0
  3
*Model_Space
  1

  0
ENDBLK
  5
21
100
AcDbEntity
  8
0
100
AcDbBlockEnd
  0
BLOCK
  5
1C
100
AcDbEntity
  8
0
100
AcDbBlockBegin
  2
*Paper_Space
 70
0
 10
0.0
 20
0.0
 30
0.0
  3
*Paper_Space
  1

  0
ENDBLK
  5
1D
100
AcDbEntity
  8
0
100
AcDbBlockEnd
  0
BLOCK
  5
209
100
AcDbEntity
  8
0
100
AcDbBlockBegin
  2
_FILLED
 70
64
 10
0.0
 20
0.0
  3
_FILLED
  1

  0
SOLID
  5
20A
100
AcDbEntity
  8
0
  6
BYBLOCK
 62
0
100
AcDbTrace
 10
0.0
 20
0.0
 11
-1.0
 21
0.2
 12
-1.0
 22
-0.2
 13
-1.0
 23
-0.2
  0
ENDBLK
  5
20B
100
AcDbEntity
  8
0
  6
BYBLOCK
 62
0
100
AcDbBlockEnd
  0
ENDSEC
  0
SECTION
  2
ENTITIES
  0
LINE
  5
20C
100
AcDbEntity
  8
0
100
AcDbLine
 62
7
  6
CONTINUOUS
 10
14.5848926102
 20
-1.2414233035
 11
14.8348926102
 21
-1.2724233035
  0
LINE
  5
20D
100
AcDbEntity
  8
0
100
AcDbLine
 62
7
  6
CONTINUOUS
 10
7.4061941526
 20
0.6900774327
 11
8.760308988
 21
0.4513104522
  0
LINE
  5
20E
100
AcDbEntity
  8
0
100
AcDbLine
 62
7
  6
CONTINUOUS
 10
9.0284345518
 20
0.7879502782
 11
9.0340441652
 21
0.7879639638
  0
LINE
  5
20F
100
AcDbEntity
  8
0
100
AcDbLine
 62
7
  6
CONTINUOUS
 10
9.0340440724
 20
0.7879639637
 11
9.1987186766
 21
0.785909984
  0
LINE
  5
210
100
AcDbEntity
  8
0
100
AcDbLine
 62
7
  6
CONTINUOUS
 10
9.1987186766
 20
0.785909984
 11
9.3644472313
 21
0.7790002914
  0
LWPOLYLINE
  5
211
100
AcDbEntity
  8
0
100
AcDbPolyline
 62
7
  6
CONTINUOUS
 90
4
 70
0
 10
9.3644472313
 20
0.7790002914
 10
9.5293192908
 20
0.7672372707
 10
9.6931905654
 20
0.7506472456
 10
9.8559153649
 20
0.729278951
  0
LINE
  5
212
100
AcDbEntity
  8
0
100
AcDbLine
 62
7
  6
CONTINUOUS
 10
9.8559151542
 20
0.729278985
 11
10.0154907987
 21
0.7035328932
  0
LINE
  5
213
100
AcDbEntity
  8
0
100
AcDbLine
 62
7
  6
CONTINUOUS
 10
10.0154907995
 20
0.703532893
 11
10.0348854714
 21
0.7000779812
  0
LWPOLYLINE
  5
214
100
AcDbEntity
  8
0
100
AcDbPolyline
 62
7
  6
CONTINUOUS
 90
15
 70
0
 10
10.0348926102
 20
0.7000766965
 10
10.2830044522
 20
0.6474971469
 10
10.5428623591
 20
0.5841585869
 10
10.8148643078
 20
0.5091908592
 10
11.0993981804
 20
0.4217332013
 10
11.3967462668
 20
0.3209843404
 10
11.7062682924
 20
0.2065503864
 10
12.0267796455
 20
0.0784439427
 10
12.3571320784
 20
-0.0630856013
 10
12.6968053059
 20
-0.2178410336
 10
13.0470694091
 20
-0.3863476669
 10
13.4095227829
 20
-0.5692845752
 10
13.7857803111
 20
-0.7673040695
 10
14.1775460148
 20
-0.981012671
 10
14.5848926102
 20
-1.2099233035
  0
LINE
  5
215
100
AcDbEntity
  8
0
100
AcDbLine
 62
7
  6
CONTINUOUS
 10
7.2083858367
 20
16.1450204935
 11
7.0789507695
 21
16.0155854262
  0
LINE
  5
216
100
AcDbEntity
  8
0
100
AcDbLine
 62
7
  6
CONTINUOUS
 10
6.8279197819
 20
15.4701864425
 11
6.8032277429
 21
15.4454944034
  0
LWPOLYLINE
  5
217
100
AcDbEntity
  8
0
100
AcDbPolyline
 62
7
  6
CONTINUOUS
 90
5
 70
0
 10
8.95703166
 20
0.7773189962
 10
8.9749420398
 20
0.7820131317
 10
8.9931598306
 20
0.7853664426
 10
9.0115869785
 20
0.7873588384
 10
9.0284350481
 20
0.7879778894
  0
LINE
  5
218
100
AcDbEntity
  8
0
100
AcDbLine
 62
7
  6
CONTINUOUS
 10
14.5848926102
 20
1.4465766965
 11
14.8348926102
 21
1.4775766965
  0
LINE
  5
219
100
AcDbEntity
  8
0
100
AcDbLine
 62
7
  6
CONTINUOUS
 10
6.8668117997
 20
15.4312944247
 11
6.8421197606
 21
15.4066023856
  0
LINE
  5
21A
100
AcDbEntity
  8
0
100
AcDbLine
 62
7
  6
CONTINUOUS
 10
7.5672936726
 20
16.1008774641
 11
7.5432602215
 21
16.076844013
  0
LINE
  5
21B
100
AcDbEntity
  8
0
100
AcDbLine
 62
7
  6
CONTINUOUS
 10
6.9808374262
 20
15.3172687982
 11
6.9561453872
 21
15.2925767591
  0
LINE
  5
21C
100
AcDbEntity
  8
0
100
AcDbLine
 62
7
  6
CONTINUOUS
 10
6.9527133638
 20
15.2578997064
 11
6.9423896174
 21
15.24757596
  0
LINE
  5
21D
100
AcDbEntity
  8
0
100
AcDbLine
 62
7
  6
CONTINUOUS
 10
7.0189503162
 20
15.1904017513
 11
7.0092570711
 21
15.1807085063
  0
LINE
  5
21E
100
AcDbEntity
  8
0
100
AcDbLine
 62
7
  6
CONTINUOUS
 10
7.0886030418
 20
15.1911880767
 11
7.0730685557
 21
15.1756535906
  0
LINE
  5
21F
100
AcDbEntity
  8
0
100
AcDbLine
 62
7
  6
CONTINUOUS
 10
7.1622260035
 20
15.1358802209
 11
7.1375339645
 21
15.1111881818
  0
LINE
  5
220
100
AcDbEntity
  8
0
100
AcDbLine
 62
7
  6
CONTINUOUS
 10
7.123957509
 20
15.0949692267
 11
7.1094769299
 21
15.0804886475
  0
LINE
  5
221
100
AcDbEntity
  8
0
100
AcDbLine
 62
7
  6
CONTINUOUS
 10
7.1481283171
 20
15.0612237504
 11
7.138435072
 21
15.0515305054
  0
LINE
  5
222
100
AcDbEntity
  8
0
100
AcDbLine
 62
7
  6
CONTINUOUS
 10
7.1183426963
 20
15.0033926463
 11
7.1135515095
 21
14.9986014594
  0
LINE
  5
223
100
AcDbEntity
  8
0
100
AcDbLine
 62
7
  6
CONTINUOUS
 10
7.2721480389
 20
15.0119559192
 11
7.254457133
 21
14.9942650133
  0
LINE
  5
224
100
AcDbEntity
  8
0
100
AcDbLine
 62
7
  6
CONTINUOUS
 10
7.2544436309
 20
14.9670993468
 11
7.2386549308
 21
14.9513106466
  0
LINE
  5
225
100
AcDbEntity
  8
0
100
AcDbLine
 62
7
  6
CONTINUOUS
 10
7.2174139174
 20
14.8407299198
 11
7.198685357
 21
14.8220013594
  0
LINE
  5
226
100
AcDbEntity
  8
0
100
AcDbLine
 62
7
  6
CONTINUOUS
 10
7.2348759746
 20
14.8228580148
 11
7.2163523381
 21
14.8043343783
  0
LINE
  5
227
100
AcDbEntity
  8
0
100
AcDbLine
 62
9
  6
CONTINUOUS
 10
10.0323442046
 20
1.9875651075
 11
10.0348926102
 21
1.9875762833
  0
LINE
  5
228
100
AcDbEntity
  8
0
100
AcDbLine
 62
7
  6
CONTINUOUS
 10
10.0348926102
 20
2.0500766965
 11
10.0374604297
 21
2.05007628
  0
LINE
  5
229
100
AcDbEntity
  8
0
100
AcDbLine
 62
7
  6
CONTINUOUS
 10
10.3223493358
 20
2.04623536
 11
10.0348926102
 21
2.0500766965
  0
LWPOLYLINE
  5
22A
100
AcDbEntity
  8
0
100
AcDbPolyline
 62
7
  6
CONTINUOUS
 90
12
 70
0
 10
14.5848926102
 20
1.4150766965
 10
14.1211833333
 20
1.5086606545
 10
13.6712194673
 20
1.5989888763
 10
13.2366469415
 20
1.6837203003
 10
12.8173224619
 20
1.7613218745
 10
12.4132553784
 20
1.8306277519
 10
12.0246062358
 20
1.8908030133
 10
11.6515626049
 20
1.9413338079
 10
11.2943658285
 20
1.9819934437
 10
10.9534513861
 20
2.0128060668
 10
10.6292830745
 20
2.0340502564
 10
10.3223493358
 20
2.04623536
  0
LINE
  5
22B
100
AcDbEntity
  8
0
100
AcDbLine
 62
7
  6
CONTINUOUS
 10
7.3509827928
 20
14.8987076645
 11
7.3211203529
 21
14.8688452245
  0
LINE
  5
22C
100
AcDbEntity
  8
0
100
AcDbLine
 62
7
  6
CONTINUOUS
 10
7.3986161998
 20
14.8994900246
 11
7.3739241607
 21
14.8747979855
  0
LINE
  5
22D
100
AcDbEntity
  8
0
100
AcDbLine
 62
7
  6
CONTINUOUS
 10
7.2888944032
 20
14.7675666988
 11
7.2710072104
 21
14.749679506
  0
LINE
  5
22E
100
AcDbEntity
  8
0
100
AcDbLine
 62
7
  6
CONTINUOUS
 10
7.4310334567
 20
14.7783186108
 11
7.4213402116
 21
14.7686253658
  0
LINE
  5
22F
100
AcDbEntity
  8
0
100
AcDbLine
 62
7
  6
CONTINUOUS
 10
7.3759312071
 20
14.6541637852
 11
7.3712270691
 21
14.6494596472
  0
LINE
  5
230
100
AcDbEntity
  8
0
100
AcDbLine
 62
7
  6
CONTINUOUS
 10
7.5113499567
 20
14.7783774444
 11
7.4908473293
 21
14.757874817
  0
LINE
  5
231
100
AcDbEntity
  8
0
100
AcDbLine
 62
7
  6
CONTINUOUS
 10
7.3859716638
 20
14.6421286559
 11
7.3822648621
 21
14.6384218542
  0
LINE
  5
232
100
AcDbEntity
  8
0
100
AcDbLine
 62
7
  6
CONTINUOUS
 10
7.5724536795
 20
14.6726928296
 11
7.5448632137
 21
14.6451023637
  0
LINE
  5
233
100
AcDbEntity
  8
0
100
AcDbLine
 62
7
  6
CONTINUOUS
 10
9.4419279646
 20
16.4976585835
 11
8.7772475903
 21
15.8329782091
  0
LINE
  5
234
100
AcDbEntity
  8
0
100
AcDbLine
 62
7
  6
CONTINUOUS
 10
9.4524168181
 20
16.48716973
 11
9.2049294446
 21
16.2396823566
  0
LINE
  5
235
100
AcDbEntity
  8
0
100
AcDbLine
 62
7
  6
CONTINUOUS
 10
7.6738984139
 20
14.6242078106
 11
7.6492063748
 21
14.5995157715
  0
LINE
  5
236
100
AcDbEntity
  8
0
100
AcDbLine
 62
7
  6
CONTINUOUS
 10
7.6547763175
 20
14.5545757501
 11
7.6450830724
 21
14.544882505
  0
LINE
  5
237
100
AcDbEntity
  8
0
100
AcDbLine
 62
7
  6
CONTINUOUS
 10
10.0447364956
 20
16.927225953
 11
9.8169577083
 21
16.6994471657
  0
LINE
  5
238
100
AcDbEntity
  8
0
100
AcDbLine
 62
7
  6
CONTINUOUS
 10
9.9658705651
 20
16.8293151883
 11
9.8264801254
 21
16.6899247486
  0
LINE
  5
239
100
AcDbEntity
  8
0
100
AcDbLine
 62
7
  6
CONTINUOUS
 10
11.0601936133
 20
17.8772756934
 11
10.282890745
 21
17.0999728252
  0
LINE
  5
23A
100
AcDbEntity
  8
0
100
AcDbLine
 62
7
  6
CONTINUOUS
 10
10.2520590072
 20
17.0691410874
 11
10.245604375
 21
17.0626864552
  0
LINE
  5
23B
100
AcDbEntity
  8
0
100
AcDbLine
 62
7
  6
CONTINUOUS
 10
10.2136001223
 20
17.0306822024
 11
10.1958268243
 21
17.0129089045
  0
LINE
  5
23C
100
AcDbEntity
  8
0
100
AcDbLine
 62
7
  6
CONTINUOUS
 10
10.1623603752
 20
16.9794424553
 11
10.1461793334
 21
16.9632614136
  0
LINE
  5
23D
100
AcDbEntity
  8
0
100
AcDbLine
 62
7
  6
CONTINUOUS
 10
10.1109905794
 20
16.9280726596
 11
10.0963706735
 21
16.9134527537
  0
LINE
  5
23E
100
AcDbEntity
  8
0
100
AcDbLine
 62
7
  6
CONTINUOUS
 10
9.5710022303
 20
16.3685843178
 11
9.3235148569
 21
16.1210969444
  0
LINE
  5
23F
100
AcDbEntity
  8
0
100
AcDbLine
 62
7
  6
CONTINUOUS
 10
10.276924509
 20
17.0624783963
 11
10.2895534361
 21
17.0751073234
  0
LINE
  5
240
100
AcDbEntity
  8
0
100
AcDbLine
 62
7
  6
CONTINUOUS
 10
10.2527025592
 20
17.036225763
 11
10.2402802984
 21
17.0238035022
  0
LINE
  5
241
100
AcDbEntity
  8
0
100
AcDbLine
 62
7
  6
CONTINUOUS
 10
10.203459497
 20
16.9844500646
 11
10.1910382001
 21
16.9720287677
  0
LINE
  5
242
100
AcDbEntity
  8
0
100
AcDbLine
 62
7
  6
CONTINUOUS
 10
10.1544413118
 20
16.9324487114
 11
10.1420212687
 21
16.9200286683
  0
LINE
  5
243
100
AcDbEntity
  8
0
100
AcDbLine
 62
7
  6
CONTINUOUS
 10
10.1051469307
 20
16.8807296804
 11
10.0981898495
 21
16.8737725991
  0
LINE
  5
244
100
AcDbEntity
  8
0
100
AcDbLine
 62
7
  6
CONTINUOUS
 10
7.6494365166
 20
14.3985504405
 11
7.6357863962
 21
14.3849003201
  0
LINE
  5
245
100
AcDbEntity
  8
0
100
AcDbLine
 62
7
  6
CONTINUOUS
 10
7.7899085193
 20
14.5063715789
 11
7.7661295433
 21
14.4825926029
  0
LINE
  5
246
100
AcDbEntity
  8
0
100
AcDbLine
 62
7
  6
CONTINUOUS
 10
10.0539933487
 20
16.7411924046
 11
9.9146029091
 21
16.6018019649
  0
LINE
  5
247
100
AcDbEntity
  8
0
100
AcDbLine
 62
7
  6
CONTINUOUS
 10
7.8194735895
 20
14.4206072705
 11
7.7944159482
 21
14.3955496292
  0
LINE
  5
248
100
AcDbEntity
  8
0
100
AcDbLine
 62
7
  6
CONTINUOUS
 10
7.7449421121
 20
14.2936163224
 11
7.736006255
 21
14.2846804614
  0
LWPOLYLINE
  5
249
100
AcDbEntity
  8
0
100
AcDbPolyline
 62
7
  6
CONTINUOUS
 90
14
 70
0
 10
7.3759289793
 20
14.6541647005
 10
7.3770741884
 20
14.6551680862
 10
7.3786420556
 20
14.6561775632
 10
7.3803010469
 20
14.6569040102
 10
7.3819696354
 20
14.6573445759
 10
7.3835353495
 20
14.6575227737
 10
7.3849168746
 20
14.6574981056
 10
7.3860897958
 20
14.6573404016
 10
7.3870877195
 20
14.6571007706
 10
7.3879073977
 20
14.6568227268
 10
7.3885498574
 20
14.6565450467
 10
7.3889918472
 20
14.6563160783
 10
7.3892420392
 20
14.656167498
 10
7.3893014028
 20
14.6561291635
  0
LWPOLYLINE
  5
24A
100
AcDbEntity
  8
0
100
AcDbPolyline
 62
7
  6
CONTINUOUS
 90
9
 70
0
 10
7.7449411312
 20
14.2936174636
 10
7.7461482756
 20
14.2946557601
 10
7.7478211199
 20
14.2956639607
 10
7.7495683062
 20
14.2963196917
 10
7.7511820433
 20
14.2966215127
 10
7.7524585853
 20
14.2966614628
 10
7.7533466151
 20
14.2965758616
 10
7.7539007717
 20
14.2964638687
 10
7.7541086639
 20
14.2964053894
  0
LINE
  5
24B
100
AcDbEntity
  8
0
100
AcDbLine
 62
7
  6
CONTINUOUS
 10
7.38737797
 20
14.6062444872
 11
7.3523138448
 21
14.5310492281
  0
LINE
  5
24C
100
AcDbEntity
  8
0
100
AcDbLine
 62
7
  6
CONTINUOUS
 10
10.8201236527
 20
16.5196855764
 11
10.820117638
 21
16.5196793917
  0
LINE
  5
24D
100
AcDbEntity
  8
0
100
AcDbLine
 62
7
  6
CONTINUOUS
 10
7.800592099
 20
14.2438434828
 11
7.7887176662
 21
14.2319690501
  0
LINE
  5
24E
100
AcDbEntity
  8
0
100
AcDbLine
 62
7
  6
CONTINUOUS
 10
7.9170726435
 20
14.317766607
 11
7.8946358069
 21
14.2953297705
  0
LINE
  5
24F
100
AcDbEntity
  8
0
100
AcDbLine
 62
7
  6
CONTINUOUS
 10
7.9693126177
 20
14.3287936067
 11
7.9446205786
 21
14.3041015676
  0
LINE
  5
250
100
AcDbEntity
  8
0
100
AcDbLine
 62
7
  6
CONTINUOUS
 10
7.8996460305
 20
14.1424576968
 11
7.888937525
 21
14.1317491913
  0
LINE
  5
251
100
AcDbEntity
  8
0
100
AcDbLine
 62
7
  6
CONTINUOUS
 10
7.9546983108
 20
14.0861181577
 11
7.9446334347
 21
14.0760532816
  0
LINE
  5
252
100
AcDbEntity
  8
0
100
AcDbLine
 62
7
  6
CONTINUOUS
 10
8.0862357863
 20
14.2118704382
 11
8.0615437472
 21
14.1871783991
  0
LINE
  5
253
100
AcDbEntity
  8
0
100
AcDbLine
 62
7
  6
CONTINUOUS
 10
8.0752087865
 20
14.1596304639
 11
8.05277195
 21
14.1371936274
  0
LINE
  5
254
100
AcDbEntity
  8
0
100
AcDbLine
 62
7
  6
CONTINUOUS
 10
8.0573712803
 20
13.9883514097
 11
8.0448532935
 21
13.9758334229
  0
LINE
  5
255
100
AcDbEntity
  8
0
100
AcDbLine
 62
7
  6
CONTINUOUS
 10
8.17804945
 20
14.0620314099
 11
8.1529918088
 21
14.0369737687
  0
LINE
  5
256
100
AcDbEntity
  8
0
100
AcDbLine
 62
7
  6
CONTINUOUS
 10
8.2638137585
 20
14.0324663398
 11
8.2400347825
 21
14.0086873638
  0
LINE
  5
257
100
AcDbEntity
  8
0
100
AcDbLine
 62
7
  6
CONTINUOUS
 10
10.6514774626
 20
16.3596500237
 11
10.6638971581
 21
16.3720697191
  0
LINE
  5
258
100
AcDbEntity
  8
0
100
AcDbLine
 62
7
  6
CONTINUOUS
 10
10.7033156199
 20
16.4088323448
 11
10.7157363753
 21
16.4212531002
  0
LINE
  5
259
100
AcDbEntity
  8
0
100
AcDbLine
 62
7
  6
CONTINUOUS
 10
10.7551237898
 20
16.4580372822
 11
10.7675455154
 21
16.4704590079
  0
LINE
  5
25A
100
AcDbEntity
  8
0
100
AcDbLine
 62
7
  6
CONTINUOUS
 10
10.8069739702
 20
16.5072050907
 11
10.8193967295
 21
16.5196278501
  0
LINE
  5
25B
100
AcDbEntity
  8
0
100
AcDbLine
 62
7
  6
CONTINUOUS
 10
10.820117638
 20
16.5196793917
 11
10.8325495029
 21
16.5321112566
  0
LINE
  5
25C
100
AcDbEntity
  8
0
100
AcDbLine
 62
7
  6
CONTINUOUS
 10
11.634717873
 20
17.3027514337
 11
10.8574150047
 21
16.5254485655
  0
LINE
  5
25D
100
AcDbEntity
  8
0
100
AcDbLine
 62
7
  6
CONTINUOUS
 10
10.8137716774
 20
16.4818052382
 11
10.7952556574
 21
16.4632892182
  0
LINE
  5
25E
100
AcDbEntity
  8
0
100
AcDbLine
 62
7
  6
CONTINUOUS
 10
10.7624887045
 20
16.4305222652
 11
10.7454985407
 21
16.4135321015
  0
LINE
  5
25F
100
AcDbEntity
  8
0
100
AcDbLine
 62
7
  6
CONTINUOUS
 10
10.7112285403
 20
16.379262101
 11
10.6957565604
 21
16.3637901212
  0
LINE
  5
260
100
AcDbEntity
  8
0
100
AcDbLine
 62
7
  6
CONTINUOUS
 10
10.6599532694
 20
16.3279868302
 11
10.6519644439
 21
16.3199980047
  0
LINE
  5
261
100
AcDbEntity
  8
0
100
AcDbLine
 62
7
  6
CONTINUOUS
 10
10.6846681326
 20
16.2872943161
 11
10.4568893452
 21
16.0595155287
  0
LINE
  5
262
100
AcDbEntity
  8
0
100
AcDbLine
 62
7
  6
CONTINUOUS
 10
8.3120179296
 20
13.8973341379
 11
8.3023246845
 21
13.8876408929
  0
LINE
  5
263
100
AcDbEntity
  8
0
100
AcDbLine
 62
7
  6
CONTINUOUS
 10
8.3816499901
 20
13.9164562343
 11
8.356957951
 21
13.8917641952
  0
LWPOLYLINE
  5
264
100
AcDbEntity
  8
0
100
AcDbPolyline
 62
7
  6
CONTINUOUS
 90
9
 70
0
 10
7.8996429183
 20
14.1424573493
 10
7.9008247797
 20
14.1434753229
 10
7.9024494452
 20
14.1444598095
 10
7.9041216571
 20
14.145097889
 10
7.9056409864
 20
14.1453974635
 10
7.906819036
 20
14.1454517328
 10
7.9076140648
 20
14.1453907418
 10
7.9080802208
 20
14.1453078537
 10
7.9082315441
 20
14.1452696312
  0
LWPOLYLINE
  5
265
100
AcDbEntity
  8
0
100
AcDbPolyline
 62
7
  6
CONTINUOUS
 90
9
 70
0
 10
8.0573707603
 20
13.9883503207
 10
8.0586199477
 20
13.9894180522
 10
8.0602135108
 20
13.9903719442
 10
8.0618246541
 20
13.9909859988
 10
8.0632821377
 20
13.9912813257
 10
8.0644177424
 20
13.9913441505
 10
8.0651852216
 20
13.991293251
 10
8.0656079861
 20
13.9912224705
 10
8.0657115165
 20
13.9911976245
  0
LINE
  5
266
100
AcDbEntity
  8
0
100
AcDbLine
 62
7
  6
CONTINUOUS
 10
8.3584399316
 20
13.6274891976
 11
8.2884914077
 21
13.5948716653
  0
LINE
  5
267
100
AcDbEntity
  8
0
100
AcDbLine
 62
7
  6
CONTINUOUS
 10
13.1708926102
 20
3.4825766965
 11
13.0808926102
 21
3.4825766965
  0
LINE
  5
268
100
AcDbEntity
  8
0
100
AcDbLine
 62
7
  6
CONTINUOUS
 10
14.0808926102
 20
3.6965766965
 11
13.9978926102
 21
3.6965766965
  0
LINE
  5
269
100
AcDbEntity
  8
0
100
AcDbLine
 62
7
  6
CONTINUOUS
 10
13.4068926102
 20
3.7555766965
 11
13.9858926102
 21
3.7555766965
  0
LINE
  5
26A
100
AcDbEntity
  8
0
100
AcDbLine
 62
7
  6
CONTINUOUS
 10
10.255100763
 20
15.6844857851
 11
9.5904203887
 21
15.0198054108
  0
LINE
  5
26B
100
AcDbEntity
  8
0
100
AcDbLine
 62
7
  6
CONTINUOUS
 10
8.4301350091
 20
13.8150114999
 11
8.4025445433
 21
13.7874210341
  0
LINE
  5
26C
100
AcDbEntity
  8
0
100
AcDbLine
 62
7
  6
CONTINUOUS
 10
8.3589797276
 20
13.6723486937
 11
8.3536588751
 21
13.6670278412
  0
LINE
  5
26D
100
AcDbEntity
  8
0
100
AcDbLine
 62
7
  6
CONTINUOUS
 10
8.5358196239
 20
13.7539077772
 11
8.5153169965
 21
13.7334051497
  0
LINE
  5
26E
100
AcDbEntity
  8
0
100
AcDbLine
 62
7
  6
CONTINUOUS
 10
8.5357607904
 20
13.6735912771
 11
8.5260675453
 21
13.6638980321
  0
LINE
  5
26F
100
AcDbEntity
  8
0
100
AcDbLine
 62
7
  6
CONTINUOUS
 10
8.4711477191
 20
13.5840769677
 11
8.4538787339
 21
13.5668079825
  0
LINE
  5
270
100
AcDbEntity
  8
0
100
AcDbLine
 62
7
  6
CONTINUOUS
 10
8.6569322041
 20
13.6411740203
 11
8.6322401651
 21
13.6164819812
  0
LINE
  5
271
100
AcDbEntity
  8
0
100
AcDbLine
 62
7
  6
CONTINUOUS
 10
8.5488900608
 20
13.508119826
 11
8.5307284756
 21
13.4899582407
  0
LINE
  5
272
100
AcDbEntity
  8
0
100
AcDbLine
 62
7
  6
CONTINUOUS
 10
8.6561498441
 20
13.5935406133
 11
8.6262874041
 21
13.5636781733
  0
LINE
  5
273
100
AcDbEntity
  8
0
100
AcDbLine
 62
7
  6
CONTINUOUS
 10
8.5910826701
 20
13.4668996913
 11
8.5724348476
 21
13.4482518688
  0
LINE
  5
274
100
AcDbEntity
  8
0
100
AcDbLine
 62
7
  6
CONTINUOUS
 10
8.7245415263
 20
13.4970014514
 11
8.7087528262
 21
13.4812127512
  0
LINE
  5
275
100
AcDbEntity
  8
0
100
AcDbLine
 62
7
  6
CONTINUOUS
 10
8.7693980987
 20
13.5147058594
 11
8.7517071928
 21
13.4970149535
  0
LINE
  5
276
100
AcDbEntity
  8
0
100
AcDbLine
 62
7
  6
CONTINUOUS
 10
8.7608348259
 20
13.3609005168
 11
8.756043639
 21
13.3561093299
  0
LINE
  5
277
100
AcDbEntity
  8
0
100
AcDbLine
 62
7
  6
CONTINUOUS
 10
8.81866593
 20
13.3906861375
 11
8.8089726849
 21
13.3809928925
  0
LINE
  5
278
100
AcDbEntity
  8
0
100
AcDbLine
 62
7
  6
CONTINUOUS
 10
8.8524114062
 20
13.3665153295
 11
8.8379308271
 21
13.3520347503
  0
LINE
  5
279
100
AcDbEntity
  8
0
100
AcDbLine
 62
7
  6
CONTINUOUS
 10
8.8933224004
 20
13.404783824
 11
8.8686303613
 21
13.3800917849
  0
LINE
  5
27A
100
AcDbEntity
  8
0
100
AcDbLine
 62
7
  6
CONTINUOUS
 10
8.5910823795
 20
13.4669002414
 11
8.5917168792
 21
13.4674902621
  0
LWPOLYLINE
  5
27B
100
AcDbEntity
  8
0
100
AcDbPolyline
 62
7
  6
CONTINUOUS
 90
13
 70
0
 10
8.5488908999
 20
13.5081199803
 10
8.5499888881
 20
13.5090881638
 10
8.5515329674
 20
13.5100984644
 10
8.5531658532
 20
13.5108327301
 10
8.5548008681
 20
13.5112859061
 10
8.5562996135
 20
13.5114807082
 10
8.5575548293
 20
13.5114874683
 10
8.5585401531
 20
13.5113903525
 10
8.5592824537
 20
13.5112525982
 10
8.5598169213
 20
13.5111150834
 10
8.5601767199
 20
13.5110005402
 10
8.5603871858
 20
13.510922711
 10
8.5604590776
 20
13.5108932542
  0
LWPOLYLINE
  5
27C
100
AcDbEntity
  8
0
100
AcDbPolyline
 62
7
  6
CONTINUOUS
 90
11
 70
0
 10
8.4711449497
 20
13.5840755911
 10
8.4723071122
 20
13.5850898191
 10
8.4738442529
 20
13.586070827
 10
8.4754416448
 20
13.5867638068
 10
8.4770057493
 20
13.587174615
 10
8.4783969908
 20
13.5873376047
 10
8.4795104213
 20
13.5873312515
 10
8.4803212679
 20
13.5872441303
 10
8.4808745908
 20
13.587137586
 10
8.4811854629
 20
13.587056009
 10
8.4812846394
 20
13.5870246454
  0
LWPOLYLINE
  5
27D
100
AcDbEntity
  8
0
100
AcDbPolyline
 62
7
  6
CONTINUOUS
 90
16
 70
0
 10
8.5917168792
 20
13.4674902621
 10
8.5929329155
 20
13.4684084527
 10
8.5942219084
 20
13.4691455933
 10
8.5955494677
 20
13.4696994033
 10
8.5968862609
 20
13.470076144
 10
8.5981849641
 20
13.4702849981
 10
8.5993978765
 20
13.4703480029
 10
8.6005174597
 20
13.4702937685
 10
8.6015252822
 20
13.470151074
 10
8.6024277275
 20
13.4699446286
 10
8.6031867456
 20
13.4697090073
 10
8.6037720641
 20
13.4694845222
 10
8.6041791773
 20
13.4693033977
 10
8.6044332939
 20
13.4691778512
 10
8.6045685232
 20
13.4691058727
 10
8.6046117973
 20
13.4690816504
  0
LINE
  5
27E
100
AcDbEntity
  8
0
100
AcDbLine
 62
7
  6
CONTINUOUS
 10
13.0738976407
 20
4.3817771998
 11
12.9378976407
 21
4.3502771998
  0
LINE
  5
27F
100
AcDbEntity
  8
0
100
AcDbLine
 62
7
  6
CONTINUOUS
 10
13.4068926102
 20
4.1095766965
 11
13.9858926102
 21
4.1095766965
  0
LINE
  5
280
100
AcDbEntity
  8
0
100
AcDbLine
 62
7
  6
CONTINUOUS
 10
14.0808926102
 20
4.1685766965
 11
13.9978926102
 21
4.1685766965
  0
LINE
  5
281
100
AcDbEntity
  8
0
100
AcDbLine
 62
7
  6
CONTINUOUS
 10
13.1708926102
 20
4.3825766965
 11
13.0808926102
 21
4.3825766965
  0
LINE
  5
282
100
AcDbEntity
  8
0
100
AcDbLine
 62
7
  6
CONTINUOUS
 10
13.0738976407
 20
3.4833761932
 11
12.9378976407
 21
3.5148761932
  0
LINE
  5
283
100
AcDbEntity
  8
0
100
AcDbLine
 62
7
  6
CONTINUOUS
 10
6.7974621283
 20
15.4315749786
 11
6.7974621283
 21
15.4200433932
  0
LINE
  5
284
100
AcDbEntity
  8
0
100
AcDbLine
 62
7
  6
CONTINUOUS
 10
6.8363541461
 20
15.392682116
 11
6.8363541461
 21
15.3811513389
  0
LINE
  5
285
100
AcDbEntity
  8
0
100
AcDbLine
 62
7
  6
CONTINUOUS
 10
6.9366240029
 20
15.2336560909
 11
6.9366240029
 21
15.2221248501
  0
LINE
  5
286
100
AcDbEntity
  8
0
100
AcDbLine
 62
7
  6
CONTINUOUS
 10
6.9503797726
 20
15.2786564895
 11
6.9503797726
 21
15.2671257124
  0
LINE
  5
287
100
AcDbEntity
  8
0
100
AcDbLine
 62
7
  6
CONTINUOUS
 10
7.0034914566
 20
15.1667886675
 11
7.0034914566
 21
15.1552573964
  0
LINE
  5
288
100
AcDbEntity
  8
0
100
AcDbLine
 62
7
  6
CONTINUOUS
 10
8.9486302563
 20
13.3311608623
 11
8.9330957701
 21
13.3156263762
  0
LINE
  5
289
100
AcDbEntity
  8
0
100
AcDbLine
 62
7
  6
CONTINUOUS
 10
8.9478439309
 20
13.2615081366
 11
8.9381506858
 21
13.2518148916
  0
LINE
  5
28A
100
AcDbEntity
  8
0
100
AcDbLine
 62
7
  6
CONTINUOUS
 10
9.0153418859
 20
13.1952711843
 11
9.0050181395
 21
13.1849474379
  0
LINE
  5
28B
100
AcDbEntity
  8
0
100
AcDbLine
 62
7
  6
CONTINUOUS
 10
9.0747109777
 20
13.2233952467
 11
9.0500189386
 21
13.1987032076
  0
LINE
  5
28C
100
AcDbEntity
  8
0
100
AcDbLine
 62
7
  6
CONTINUOUS
 10
9.8583196437
 20
13.8098514931
 11
9.8342861925
 21
13.7858180419
  0
LINE
  5
28D
100
AcDbEntity
  8
0
100
AcDbLine
 62
7
  6
CONTINUOUS
 10
9.1887366043
 20
13.1093696202
 11
9.1640445652
 21
13.0846775811
  0
LINE
  5
28E
100
AcDbEntity
  8
0
100
AcDbLine
 62
7
  6
CONTINUOUS
 10
9.3591239226
 20
12.9681265658
 11
9.3342660977
 21
12.943268741
  0
LINE
  5
28F
100
AcDbEntity
  8
0
100
AcDbLine
 62
7
  6
CONTINUOUS
 10
9.902462673
 20
13.4509436571
 11
9.7730276058
 21
13.3215085899
  0
LINE
  5
290
100
AcDbEntity
  8
0
100
AcDbLine
 62
7
  6
CONTINUOUS
 10
13.5058926102
 20
5.0525766965
 11
13.6058926102
 21
5.0525766965
  0
LINE
  5
291
100
AcDbEntity
  8
0
100
AcDbLine
 62
7
  6
CONTINUOUS
 10
7.1317683499
 20
15.0972679122
 11
7.1317683499
 21
15.0857371351
  0
LINE
  5
292
100
AcDbEntity
  8
0
100
AcDbLine
 62
7
  6
CONTINUOUS
 10
7.1326694575
 20
15.0376106666
 11
7.1326694575
 21
15.0260793955
  0
LINE
  5
293
100
AcDbEntity
  8
0
100
AcDbLine
 62
7
  6
CONTINUOUS
 10
7.1952259882
 20
14.8136496426
 11
7.1952259882
 21
14.795595421
  0
LINE
  5
294
100
AcDbEntity
  8
0
100
AcDbLine
 62
7
  6
CONTINUOUS
 10
7.2128929693
 20
14.7959826615
 11
7.2128929693
 21
14.7779283939
  0
LINE
  5
295
100
AcDbEntity
  8
0
100
AcDbLine
 62
7
  6
CONTINUOUS
 10
7.2675478416
 20
14.7413277892
 11
7.2675478416
 21
14.7232735216
  0
LINE
  5
296
100
AcDbEntity
  8
0
100
AcDbLine
 62
7
  6
CONTINUOUS
 10
7.3153547383
 20
14.8549253858
 11
7.3153547383
 21
14.8433941146
  0
LINE
  5
297
100
AcDbEntity
  8
0
100
AcDbLine
 62
7
  6
CONTINUOUS
 10
7.3681585462
 20
14.8608777159
 11
7.3681585462
 21
14.8493469388
  0
LINE
  5
298
100
AcDbEntity
  8
0
100
AcDbLine
 62
7
  6
CONTINUOUS
 10
7.3788054934
 20
14.6300701375
 11
7.3788054934
 21
14.6120158698
  0
LINE
  5
299
100
AcDbEntity
  8
0
100
AcDbLine
 62
7
  6
CONTINUOUS
 10
7.4104209561
 20
14.4464701144
 11
7.4104209561
 21
14.4349388372
  0
LINE
  5
29A
100
AcDbEntity
  8
0
100
AcDbLine
 62
7
  6
CONTINUOUS
 10
7.5390975991
 20
14.631182525
 11
7.5390975991
 21
14.6196512538
  0
LINE
  5
29B
100
AcDbEntity
  8
0
100
AcDbLine
 62
7
  6
CONTINUOUS
 10
7.588956337
 20
14.2679347312
 11
7.588956337
 21
14.2564034563
  0
LINE
  5
29C
100
AcDbEntity
  8
0
100
AcDbLine
 62
7
  6
CONTINUOUS
 10
7.6323270275
 20
14.3765486033
 11
7.6323270275
 21
14.3584943364
  0
LINE
  5
29D
100
AcDbEntity
  8
0
100
AcDbLine
 62
7
  6
CONTINUOUS
 10
7.6434407602
 20
14.5855955019
 11
7.6434407602
 21
14.5740647248
  0
LINE
  5
29E
100
AcDbEntity
  8
0
100
AcDbLine
 62
7
  6
CONTINUOUS
 10
7.7852582975
 20
14.2236173333
 11
7.7852582975
 21
14.2055630657
  0
LINE
  5
29F
100
AcDbEntity
  8
0
100
AcDbLine
 62
7
  6
CONTINUOUS
 10
7.7886503337
 20
14.3816297905
 11
7.7886503337
 21
14.3700985193
  0
LINE
  5
2A0
100
AcDbEntity
  8
0
100
AcDbLine
 62
7
  6
CONTINUOUS
 10
7.8414434939
 20
14.0154475766
 11
7.8414434939
 21
14.0039162994
  0
LINE
  5
2A1
100
AcDbEntity
  8
0
100
AcDbLine
 62
7
  6
CONTINUOUS
 10
12.8058926102
 20
5.5650766965
 11
12.8558926102
 21
5.5650766965
  0
LINE
  5
2A2
100
AcDbEntity
  8
0
100
AcDbLine
 62
7
  6
CONTINUOUS
 10
12.1858926102
 20
5.6025766965
 11
12.1173926102
 21
5.6025766965
  0
LINE
  5
2A3
100
AcDbEntity
  8
0
100
AcDbLine
 62
7
  6
CONTINUOUS
 10
11.7543926102
 20
5.6025766965
 11
11.6858926102
 21
5.6025766965
  0
LINE
  5
2A4
100
AcDbEntity
  8
0
100
AcDbLine
 62
7
  6
CONTINUOUS
 10
12.7058926102
 20
5.6650766965
 11
12.8058926102
 21
5.6650766965
  0
LINE
  5
2A5
100
AcDbEntity
  8
0
100
AcDbLine
 62
7
  6
CONTINUOUS
 10
12.6858926102
 20
5.7900766965
 11
12.2941457857
 21
5.7900766965
  0
LINE
  5
2A6
100
AcDbEntity
  8
0
100
AcDbLine
 62
7
  6
CONTINUOUS
 10
12.7058926102
 20
5.9025766965
 11
12.6858926102
 21
5.9025766965
  0
LINE
  5
2A7
100
AcDbEntity
  8
0
100
AcDbLine
 62
7
  6
CONTINUOUS
 10
7.9388549641
 20
14.2901812982
 11
7.9388549641
 21
14.2786505209
  0
LINE
  5
2A8
100
AcDbEntity
  8
0
100
AcDbLine
 62
7
  6
CONTINUOUS
 10
7.941174066
 20
14.0677015649
 11
7.941174066
 21
14.0496472972
  0
LINE
  5
2A9
100
AcDbEntity
  8
0
100
AcDbLine
 62
7
  6
CONTINUOUS
 10
8.0199788748
 20
13.8315141574
 11
8.0199788748
 21
13.8253809185
  0
LINE
  5
2AA
100
AcDbEntity
  8
0
100
AcDbLine
 62
7
  6
CONTINUOUS
 10
8.0470063355
 20
14.1232737886
 11
8.0470063355
 21
14.1117425175
  0
LINE
  5
2AB
100
AcDbEntity
  8
0
100
AcDbLine
 62
9
  6
CONTINUOUS
 10
8.0832536578
 20
0.7092105772
 11
8.0832536578
 21
0.5706935744
  0
LINE
  5
2AC
100
AcDbEntity
  8
0
100
AcDbLine
 62
7
  6
CONTINUOUS
 10
8.0832536578
 20
0.7092105772
 11
8.0832536578
 21
1.6949652669
  0
LINE
  5
2AD
100
AcDbEntity
  8
0
100
AcDbLine
 62
7
  6
CONTINUOUS
 10
8.2342691679
 20
13.9947670942
 11
8.2342691679
 21
13.9832363171
  0
LINE
  5
2AE
100
AcDbEntity
  8
0
100
AcDbLine
 62
7
  6
CONTINUOUS
 10
8.29655907
 20
13.8737210541
 11
8.29655907
 21
13.862189783
  0
LINE
  5
2AF
100
AcDbEntity
  8
0
100
AcDbLine
 62
7
  6
CONTINUOUS
 10
8.3501995064
 20
13.6586761245
 11
8.3501995064
 21
13.6406218568
  0
LINE
  5
2B0
100
AcDbEntity
  8
0
100
AcDbLine
 62
7
  6
CONTINUOUS
 10
8.509551382
 20
13.7194848801
 11
8.509551382
 21
13.707954103
  0
LINE
  5
2B1
100
AcDbEntity
  8
0
100
AcDbLine
 62
7
  6
CONTINUOUS
 10
8.5203019308
 20
13.6499781933
 11
8.5203019308
 21
13.6384469222
  0
LINE
  5
2B2
100
AcDbEntity
  8
0
100
AcDbLine
 62
7
  6
CONTINUOUS
 10
12.7058926102
 20
6.3025766965
 11
12.6858926102
 21
6.3025766965
  0
LINE
  5
2B3
100
AcDbEntity
  8
0
100
AcDbLine
 62
7
  6
CONTINUOUS
 10
12.6858926102
 20
6.4150766965
 11
12.2941457857
 21
6.4150766965
  0
LINE
  5
2B4
100
AcDbEntity
  8
0
100
AcDbLine
 62
7
  6
CONTINUOUS
 10
12.7058926102
 20
6.5400766965
 11
12.8058926102
 21
6.5400766965
  0
LINE
  5
2B5
100
AcDbEntity
  8
0
100
AcDbLine
 62
7
  6
CONTINUOUS
 10
12.1858926102
 20
6.6025766965
 11
11.6858926102
 21
6.6025766965
  0
LINE
  5
2B6
100
AcDbEntity
  8
0
100
AcDbLine
 62
7
  6
CONTINUOUS
 10
12.8058926102
 20
6.6400766965
 11
12.8558926102
 21
6.6400766965
  0
LINE
  5
2B7
100
AcDbEntity
  8
0
100
AcDbLine
 62
7
  6
CONTINUOUS
 10
8.7029872116
 20
13.4672929125
 11
8.7029872116
 21
13.4557616413
  0
LINE
  5
2B8
100
AcDbEntity
  8
0
100
AcDbLine
 62
7
  6
CONTINUOUS
 10
8.7459415783
 20
13.4830946839
 11
8.7459415783
 21
13.4715639067
  0
LINE
  5
2B9
100
AcDbEntity
  8
0
100
AcDbLine
 62
7
  6
CONTINUOUS
 10
8.8321652125
 20
13.3381149116
 11
8.8321652125
 21
13.3265836404
  0
LINE
  5
2BA
100
AcDbEntity
  8
0
100
AcDbLine
 62
7
  6
CONTINUOUS
 10
8.9273301556
 20
13.3017061066
 11
8.9273301556
 21
13.2901753294
  0
LINE
  5
2BB
100
AcDbEntity
  8
0
100
AcDbLine
 62
7
  6
CONTINUOUS
 10
9.0413557821
 20
13.18768048
 11
9.0413557821
 21
13.1761497029
  0
LINE
  5
2BC
100
AcDbEntity
  8
0
100
AcDbLine
 62
7
  6
CONTINUOUS
 10
7.5585945742
 20
1.5543587594
 11
7.4061983276
 21
0.6900766965
  0
LINE
  5
2BD
100
AcDbEntity
  8
0
100
AcDbLine
 62
7
  6
CONTINUOUS
 10
13.5058926102
 20
7.1525766965
 11
13.6058926102
 21
7.1525766965
  0
LINE
  5
2BE
100
AcDbEntity
  8
0
100
AcDbLine
 62
7
  6
CONTINUOUS
 10
13.4068926102
 20
4.1575766965
 11
13.1929065693
 21
4.373402956
  0
LINE
  5
2BF
100
AcDbEntity
  8
0
100
AcDbLine
 62
7
  6
CONTINUOUS
 10
9.7618937831
 20
16.5665110908
 11
9.7618937831
 21
16.4931949261
  0
LINE
  5
2C0
100
AcDbEntity
  8
0
100
AcDbLine
 62
9
  6
CONTINUOUS
 10
10.0348926102
 20
0.8552355438
 11
10.0348926102
 21
1.9875762833
  0
LINE
  5
2C1
100
AcDbEntity
  8
0
100
AcDbLine
 62
7
  6
CONTINUOUS
 10
10.1461280237
 20
16.962550439
 11
10.1461793334
 21
16.9632614136
  0
LINE
  5
2C2
100
AcDbEntity
  8
0
100
AcDbLine
 62
7
  6
CONTINUOUS
 10
10.0963197982
 20
16.9127487386
 11
10.0963706735
 21
16.9134527537
  0
LINE
  5
2C3
100
AcDbEntity
  8
0
100
AcDbLine
 62
7
  6
CONTINUOUS
 10
10.1957757646
 20
17.0122024476
 11
10.1958268243
 21
17.0129089045
  0
LINE
  5
2C4
100
AcDbEntity
  8
0
100
AcDbLine
 62
7
  6
CONTINUOUS
 10
10.245604375
 20
17.0626864552
 11
10.2455535089
 21
17.0619825714
  0
LWPOLYLINE
  5
2C5
100
AcDbEntity
  8
0
100
AcDbPolyline
 62
7
  6
CONTINUOUS
 90
10
 70
0
 10
7.2193820884
 20
14.8548260343
 10
7.2200840662
 20
14.8533261939
 10
7.2205879144
 20
14.85166066
 10
7.2208424524
 20
14.8499314865
 10
7.2208377184
 20
14.8481709826
 10
7.2205640744
 20
14.8463982144
 10
7.2200229875
 20
14.844682065
 10
7.2192336542
 20
14.8430800765
 10
7.2182211865
 20
14.8416248238
 10
7.2174132501
 20
14.8407306187
  0
LWPOLYLINE
  5
2C6
100
AcDbEntity
  8
0
100
AcDbPolyline
 62
7
  6
CONTINUOUS
 90
13
 70
0
 10
7.2917663538
 20
14.7785580472
 10
7.2917625574
 20
14.7785666669
 10
7.2918084891
 20
14.7784403548
 10
7.2918993797
 20
14.778149859
 10
7.2920190616
 20
14.7776742886
 10
7.29214248
 20
14.7769899639
 10
7.2922301019
 20
14.7760596445
 10
7.2922194817
 20
14.7748510947
 10
7.2920242272
 20
14.773382739
 10
7.2915709564
 20
14.7717672255
 10
7.2908371092
 20
14.7701506378
 10
7.2898315535
 20
14.7686257035
 10
7.2888956517
 20
14.7675680533
  0
LWPOLYLINE
  5
2C7
100
AcDbEntity
  8
0
100
AcDbPolyline
 62
7
  6
CONTINUOUS
 90
10
 70
0
 10
7.9575114483
 20
14.0948541085
 10
7.9574946037
 20
14.0949004426
 10
7.9575392135
 20
14.0947380974
 10
7.9576312478
 20
14.0942625722
 10
7.9577046259
 20
14.0934472705
 10
7.9576627591
 20
14.0922477376
 10
7.9573749656
 20
14.0907086954
 10
7.9567471724
 20
14.0890172959
 10
7.9557684846
 20
14.0873713779
 10
7.9546975746
 20
14.0861178344
  0
LWPOLYLINE
  5
2C8
100
AcDbEntity
  8
0
100
AcDbPolyline
 62
7
  6
CONTINUOUS
 90
10
 70
0
 10
7.803456979
 20
14.2521319678
 10
7.8034234857
 20
14.2522317941
 10
7.8034502199
 20
14.25212281
 10
7.8035239149
 20
14.2516956914
 10
7.8035787587
 20
14.2509247729
 10
7.8035210906
 20
14.2497875403
 10
7.8032319242
 20
14.2483276949
 10
7.8026233292
 20
14.246711446
 10
7.8016741843
 20
14.2451133679
 10
7.8005900844
 20
14.2438409235
  0
LWPOLYLINE
  5
2C9
100
AcDbEntity
  8
0
100
AcDbPolyline
 62
7
  6
CONTINUOUS
 90
10
 70
0
 10
7.652356121
 20
14.4068024022
 10
7.652315353
 20
14.406927339
 10
7.6523380068
 20
14.4068300208
 10
7.6524076621
 20
14.4064048265
 10
7.652456625
 20
14.4056275443
 10
7.652390463
 20
14.4044891292
 10
7.6520954699
 20
14.4030412854
 10
7.6514890698
 20
14.4014432234
 10
7.6505448913
 20
14.3998523313
 10
7.6494395585
 20
14.3985527784
  0
LINE
  5
2CA
100
AcDbEntity
  8
0
100
AcDbLine
 62
7
  6
CONTINUOUS
 10
10.6599532694
 20
16.3279868302
 11
10.6600074123
 21
16.3287357113
  0
LINE
  5
2CB
100
AcDbEntity
  8
0
100
AcDbLine
 62
7
  6
CONTINUOUS
 10
10.7112831212
 20
16.3800166282
 11
10.7112285403
 21
16.379262101
  0
LINE
  5
2CC
100
AcDbEntity
  8
0
100
AcDbLine
 62
7
  6
CONTINUOUS
 10
10.7625427389
 20
16.4312697277
 11
10.7624887045
 21
16.4305222652
  0
LINE
  5
2CD
100
AcDbEntity
  8
0
100
AcDbLine
 62
7
  6
CONTINUOUS
 10
10.8138258133
 20
16.4825540171
 11
10.8137716774
 21
16.4818052382
  0
LINE
  5
2CE
100
AcDbEntity
  8
0
100
AcDbLine
 62
7
  6
CONTINUOUS
 10
8.7831926113
 20
0.5810899294
 11
8.760308988
 21
0.4513104522
  0
LINE
  5
2CF
100
AcDbEntity
  8
0
100
AcDbLine
 62
7
  6
CONTINUOUS
 10
8.7838224787
 20
0.5845227781
 11
8.7831926113
 21
0.5810899294
  0
LINE
  5
2D0
100
AcDbEntity
  8
0
100
AcDbLine
 62
7
  6
CONTINUOUS
 10
8.783823599
 20
0.5845283569
 11
8.7831919204
 21
0.5810860111
  0
LINE
  5
2D1
100
AcDbEntity
  8
0
100
AcDbLine
 62
7
  6
CONTINUOUS
 10
8.7838236145
 20
0.5845286822
 11
8.7867000158
 21
0.5976893115
  0
LINE
  5
2D2
100
AcDbEntity
  8
0
100
AcDbLine
 62
7
  6
CONTINUOUS
 10
8.7838247363
 20
0.5845342678
 11
8.7866991762
 21
0.5976847591
  0
LINE
  5
2D3
100
AcDbEntity
  8
0
100
AcDbLine
 62
7
  6
CONTINUOUS
 10
12.2941457857
 20
6.4150766965
 11
12.1858926102
 21
6.6025766965
  0
LWPOLYLINE
  5
2D4
100
AcDbEntity
  8
0
100
AcDbPolyline
 62
7
  6
CONTINUOUS
 90
17
 70
0
 10
7.2373518589
 20
14.8355975067
 10
7.2373443079
 20
14.8356116416
 10
7.2373731953
 20
14.8355535452
 10
7.2374474895
 20
14.8353934471
 10
7.2375674196
 20
14.8351090451
 10
7.2377261578
 20
14.8346802491
 10
7.2379067935
 20
14.8340957502
 10
7.2380841282
 20
14.8333531225
 10
7.2382256059
 20
14.8324750089
 10
7.2383020564
 20
14.8314457404
 10
7.2382767674
 20
14.8302822867
 10
7.2381099179
 20
14.8289881582
 10
7.2377671955
 20
14.8276178077
 10
7.2372319939
 20
14.8262345752
 10
7.2364961178
 20
14.824883101
 10
7.2355604019
 20
14.82360298
 10
7.2348764928
 20
14.8228581409
  0
LWPOLYLINE
  5
2D5
100
AcDbEntity
  8
0
100
AcDbPolyline
 62
7
  6
CONTINUOUS
 90
15
 70
0
 10
8.7866991762
 20
0.5976847591
 10
8.791793829
 20
0.6154846416
 10
8.798181821
 20
0.6328529226
 10
8.8058288414
 20
0.6496971522
 10
8.8146933197
 20
0.6659261244
 10
8.8247276442
 20
0.6814527343
 10
8.8358781518
 20
0.6961935939
 10
8.8480854004
 20
0.7100693667
 10
8.8612844933
 20
0.7230051503
 10
8.8754053381
 20
0.7349307787
 10
8.8903724934
 20
0.7457808527
 10
8.9061053392
 20
0.7554951672
 10
8.9225189737
 20
0.7640195538
 10
8.9395246689
 20
0.7713061916
 10
8.9570302492
 20
0.7773138147
  0
LINE
  5
2D6
100
AcDbEntity
  8
0
100
AcDbLine
 62
7
  6
CONTINUOUS
 10
7.2187628904
 20
14.8558215914
 11
7.2186990059
 21
14.8559059583
  0
LINE
  5
2D7
100
AcDbEntity
  8
0
100
AcDbLine
 62
7
  6
CONTINUOUS
 10
7.2184820126
 20
14.8562059012
 11
7.2193820884
 21
14.8548260343
  0
LWPOLYLINE
  5
2D8
100
AcDbEntity
  8
0
100
AcDbPolyline
 62
7
  6
CONTINUOUS
 90
13
 70
0
 10
8.3612679543
 20
13.6846763757
 10
8.3613329567
 20
13.6845592504
 10
8.3614784397
 20
13.6842620274
 10
8.361680242
 20
13.6837731949
 10
8.3618995568
 20
13.6831059158
 10
8.3621034467
 20
13.6822467694
 10
8.3622494316
 20
13.6811836642
 10
8.3622800089
 20
13.6798627434
 10
8.3621101031
 20
13.678311204
 10
8.3616668642
 20
13.676628169
 10
8.3609264855
 20
13.6749553625
 10
8.3599067506
 20
13.6733969053
 10
8.3589788149
 20
13.6723471664
  0
LINE
  5
2D9
100
AcDbEntity
  8
0
100
AcDbLine
 62
7
  6
CONTINUOUS
 10
12.2130977469
 20
3.3405766965
 11
12.0596362969
 21
5.5025766965
  0
LINE
  5
2DA
100
AcDbEntity
  8
0
100
AcDbLine
 62
7
  6
CONTINUOUS
 10
12.2383842583
 20
3.2621225518
 11
12.1108926102
 21
5.5025766965
  0
LINE
  5
2DB
100
AcDbEntity
  8
0
100
AcDbLine
 62
7
  6
CONTINUOUS
 10
12.0298926102
 20
3.3405766965
 11
11.9358926102
 21
5.5025766965
  0
LINE
  5
2DC
100
AcDbEntity
  8
0
100
AcDbLine
 62
7
  6
CONTINUOUS
 10
12.080161672
 20
3.3405766965
 11
12.0596362969
 21
5.5025766965
  0
LINE
  5
2DD
100
AcDbEntity
  8
0
100
AcDbLine
 62
9
  6
CONTINUOUS
 10
11.647083317
 20
5.70743204
 11
11.647083317
 21
6.4977213531
  0
LINE
  5
2DE
100
AcDbEntity
  8
0
100
AcDbLine
 62
7
  6
CONTINUOUS
 10
11.6858926102
 20
6.6025766965
 11
11.6858926102
 21
5.6025766965
  0
LINE
  5
2DF
100
AcDbEntity
  8
0
100
AcDbLine
 62
7
  6
CONTINUOUS
 10
11.7608926102
 20
5.5025766943
 11
11.7608926102
 21
5.6048962704
  0
LINE
  5
2E0
100
AcDbEntity
  8
0
100
AcDbLine
 62
7
  6
CONTINUOUS
 10
12.1108926102
 20
5.5025766941
 11
12.1108926102
 21
5.6048962704
  0
LINE
  5
2E1
100
AcDbEntity
  8
0
100
AcDbLine
 62
7
  6
CONTINUOUS
 10
12.1858926102
 20
6.6025766965
 11
12.1858926102
 21
5.6025766965
  0
LINE
  5
2E2
100
AcDbEntity
  8
0
100
AcDbLine
 62
7
  6
CONTINUOUS
 10
11.7916235484
 20
3.3405766965
 11
11.8121489235
 21
5.5025766965
  0
LINE
  5
2E3
100
AcDbEntity
  8
0
100
AcDbLine
 62
7
  6
CONTINUOUS
 10
11.8418926102
 20
3.3405766965
 11
11.9358926102
 21
5.5025766965
  0
LINE
  5
2E4
100
AcDbEntity
  8
0
100
AcDbLine
 62
7
  6
CONTINUOUS
 10
11.6334009621
 20
3.2621225518
 11
11.7608926102
 21
5.5025766965
  0
LINE
  5
2E5
100
AcDbEntity
  8
0
100
AcDbLine
 62
7
  6
CONTINUOUS
 10
11.6586874735
 20
3.3405766965
 11
11.8121489235
 21
5.5025766965
  0
LINE
  5
2E6
100
AcDbEntity
  8
0
100
AcDbLine
 62
7
  6
CONTINUOUS
 10
7.4161902904
 20
14.4210165739
 11
7.5689008348
 21
14.2683060295
  0
LINE
  5
2E7
100
AcDbEntity
  8
0
100
AcDbLine
 62
7
  6
CONTINUOUS
 10
7.594722986
 20
14.2424838783
 11
7.7474389009
 21
14.0897679634
  0
LINE
  5
2E8
100
AcDbEntity
  8
0
100
AcDbLine
 62
7
  6
CONTINUOUS
 10
7.8472101559
 20
13.9899967084
 11
7.9999260449
 21
13.8372808194
  0
LINE
  5
2E9
100
AcDbEntity
  8
0
100
AcDbLine
 62
7
  6
CONTINUOUS
 10
8.0257481087
 20
13.8114587556
 11
8.1784588537
 21
13.6587480105
  0
LINE
  5
2EA
100
AcDbEntity
  8
0
100
AcDbLine
 62
9
  6
CONTINUOUS
 10
8.0138456359
 20
13.8315141574
 11
7.8414434939
 21
14.0039162994
  0
LINE
  5
2EB
100
AcDbEntity
  8
0
100
AcDbLine
 62
9
  6
CONTINUOUS
 10
7.7613584789
 20
14.0840013144
 11
7.588956337
 21
14.2564034563
  0
LINE
  5
2EC
100
AcDbEntity
  8
0
100
AcDbLine
 62
9
  6
CONTINUOUS
 10
7.582823098
 20
14.2625366952
 11
7.4104209561
 21
14.4349388372
  0
LINE
  5
2ED
100
AcDbEntity
  8
0
100
AcDbLine
 62
9
  6
CONTINUOUS
 10
7.768318394
 20
14.0840013144
 11
7.8414434939
 21
14.0108762145
  0
LINE
  5
2EE
100
AcDbEntity
  8
0
100
AcDbLine
 62
9
  6
CONTINUOUS
 10
8.2039122916
 20
13.6529787766
 11
7.8414434939
 21
14.0154475766
  0
LINE
  5
2EF
100
AcDbEntity
  8
0
100
AcDbLine
 62
9
  6
CONTINUOUS
 10
7.7728897538
 20
14.0840013144
 11
7.4104209561
 21
14.4464701144
  0
LINE
  5
2F0
100
AcDbEntity
  8
0
100
AcDbLine
 62
7
  6
CONTINUOUS
 10
7.356235297
 20
14.5088104169
 11
8.2662525965
 21
13.5987931175
  0
LINE
  5
2F1
100
AcDbEntity
  8
0
100
AcDbLine
 62
9
  6
CONTINUOUS
 10
8.2884914077
 20
13.5948716653
 11
7.3523138448
 21
14.5310492281
  0
LINE
  5
2F2
100
AcDbEntity
  8
0
100
AcDbLine
 62
9
  6
CONTINUOUS
 10
8.0199788748
 20
13.8253809185
 11
8.1923810167
 21
13.6529787766
  0
LINE
  5
2F3
100
AcDbEntity
  8
0
100
AcDbLine
 62
7
  6
CONTINUOUS
 10
6.6159396707
 20
15.722279955
 11
6.7151069057
 21
15.6121435827
  0
LINE
  5
2F4
100
AcDbEntity
  8
0
100
AcDbLine
 62
7
  6
CONTINUOUS
 10
9.8297567196
 20
13.7645085473
 11
9.9194481964
 21
13.5308542619
  0
LINE
  5
2F5
100
AcDbEntity
  8
0
100
AcDbLine
 62
7
  6
CONTINUOUS
 10
10.1048988156
 20
16.8806633468
 11
10.1049371628
 21
16.8805199125
  0
LINE
  5
2F6
100
AcDbEntity
  8
0
100
AcDbLine
 62
7
  6
CONTINUOUS
 10
10.0963197982
 20
16.9127487386
 11
10.1048988156
 21
16.8806633468
  0
LINE
  5
2F7
100
AcDbEntity
  8
0
100
AcDbLine
 62
7
  6
CONTINUOUS
 10
10.154194217
 20
16.932382651
 11
10.1542324064
 21
16.932239806
  0
LINE
  5
2F8
100
AcDbEntity
  8
0
100
AcDbLine
 62
7
  6
CONTINUOUS
 10
10.1461280234
 20
16.9625504387
 11
10.154194217
 21
16.932382651
  0
LINE
  5
2F9
100
AcDbEntity
  8
0
100
AcDbLine
 62
7
  6
CONTINUOUS
 10
10.2032138809
 20
16.984384397
 11
10.2032518424
 21
16.98424241
  0
LINE
  5
2FA
100
AcDbEntity
  8
0
100
AcDbLine
 62
7
  6
CONTINUOUS
 10
10.1957757646
 20
17.0122024477
 11
10.2032138809
 21
16.984384397
  0
LINE
  5
2FB
100
AcDbEntity
  8
0
100
AcDbLine
 62
7
  6
CONTINUOUS
 10
12.2941457857
 20
6.4150766965
 11
12.2941457857
 21
5.7900766965
  0
LINE
  5
2FC
100
AcDbEntity
  8
0
100
AcDbLine
 62
9
  6
CONTINUOUS
 10
12.5848926102
 20
17.6963266965
 11
12.5848926102
 21
18.5088266965
  0
LINE
  5
2FD
100
AcDbEntity
  8
0
100
AcDbLine
 62
7
  6
CONTINUOUS
 10
12.6858926102
 20
6.4150766965
 11
12.6858926102
 21
5.7900766965
  0
LINE
  5
2FE
100
AcDbEntity
  8
0
100
AcDbLine
 62
7
  6
CONTINUOUS
 10
12.7058926102
 20
6.5400766965
 11
12.7058926102
 21
5.6650766965
  0
LINE
  5
2FF
100
AcDbEntity
  8
0
100
AcDbLine
 62
7
  6
CONTINUOUS
 10
12.8058926102
 20
6.6400766965
 11
12.8058926102
 21
5.5650766965
  0
LINE
  5
300
100
AcDbEntity
  8
0
100
AcDbLine
 62
7
  6
CONTINUOUS
 10
12.8558926102
 20
6.7400766965
 11
12.8558926102
 21
5.4650766965
  0
LINE
  5
301
100
AcDbEntity
  8
0
100
AcDbLine
 62
7
  6
CONTINUOUS
 10
12.9138926102
 20
3.5450766965
 11
12.9138926102
 21
4.3200766965
  0
LINE
  5
302
100
AcDbEntity
  8
0
100
AcDbLine
 62
9
  6
CONTINUOUS
 10
12.9378976407
 20
3.5148761932
 11
12.9378976407
 21
4.3502771998
  0
LINE
  5
303
100
AcDbEntity
  8
0
100
AcDbLine
 62
7
  6
CONTINUOUS
 10
9.4797221345
 20
12.8584974911
 11
9.3695857623
 21
12.9576647261
  0
LINE
  5
304
100
AcDbEntity
  8
0
100
AcDbLine
 62
7
  6
CONTINUOUS
 10
7.3822648411
 20
14.6036642881
 11
7.3849313772
 21
14.600997752
  0
LINE
  5
305
100
AcDbEntity
  8
0
100
AcDbLine
 62
7
  6
CONTINUOUS
 10
7.635787518
 20
14.3501416113
 11
7.7012475461
 21
14.2846815831
  0
LINE
  5
306
100
AcDbEntity
  8
0
100
AcDbLine
 62
7
  6
CONTINUOUS
 10
7.7887184218
 20
14.1972107074
 11
7.8541791823
 21
14.1317499469
  0
LINE
  5
307
100
AcDbEntity
  8
0
100
AcDbLine
 62
7
  6
CONTINUOUS
 10
7.9446337609
 20
14.0412953683
 11
8.0100953802
 21
13.975833749
  0
LINE
  5
308
100
AcDbEntity
  8
0
100
AcDbLine
 62
7
  6
CONTINUOUS
 10
8.3536599471
 20
13.6322691821
 11
8.4256880983
 21
13.560241031
  0
LINE
  5
309
100
AcDbEntity
  8
0
100
AcDbLine
 62
7
  6
CONTINUOUS
 10
8.4305100401
 20
13.5554190891
 11
8.5376836818
 21
13.4482454475
  0
LINE
  5
30A
100
AcDbEntity
  8
0
100
AcDbLine
 62
7
  6
CONTINUOUS
 10
7.3364665027
 20
14.6494626265
 11
7.198684215
 21
14.7872449143
  0
LINE
  5
30B
100
AcDbEntity
  8
0
100
AcDbLine
 62
9
  6
CONTINUOUS
 10
7.213960503
 20
14.7768609124
 11
7.2151559183
 21
14.7756654449
  0
LINE
  5
30C
100
AcDbEntity
  8
0
100
AcDbLine
 62
9
  6
CONTINUOUS
 10
7.3788054934
 20
14.6120158698
 11
7.3864871804
 21
14.6043341828
  0
LINE
  5
30D
100
AcDbEntity
  8
0
100
AcDbLine
 62
9
  6
CONTINUOUS
 10
8.0184473091
 20
13.9723740541
 11
7.941174066
 21
14.0496472972
  0
LINE
  5
30E
100
AcDbEntity
  8
0
100
AcDbLine
 62
9
  6
CONTINUOUS
 10
7.8625315406
 20
14.1282898226
 11
7.7852582975
 21
14.2055630657
  0
LINE
  5
30F
100
AcDbEntity
  8
0
100
AcDbLine
 62
9
  6
CONTINUOUS
 10
7.7096002712
 20
14.2812210926
 11
7.6323270275
 21
14.3584943364
  0
LINE
  5
310
100
AcDbEntity
  8
0
100
AcDbLine
 62
9
  6
CONTINUOUS
 10
7.3448210847
 20
14.6460002785
 11
7.2151559183
 21
14.7756654449
  0
LINE
  5
311
100
AcDbEntity
  8
0
100
AcDbLine
 62
9
  6
CONTINUOUS
 10
7.2139605023
 20
14.7768608609
 11
7.1952259882
 21
14.795595421
  0
LINE
  5
312
100
AcDbEntity
  8
0
100
AcDbLine
 62
9
  6
CONTINUOUS
 10
7.38737797
 20
14.6062444872
 11
7.6323270275
 21
14.3612954295
  0
LINE
  5
313
100
AcDbEntity
  8
0
100
AcDbLine
 62
9
  6
CONTINUOUS
 10
7.7124013643
 20
14.2812210926
 11
7.7852582975
 21
14.2083641594
  0
LINE
  5
314
100
AcDbEntity
  8
0
100
AcDbLine
 62
9
  6
CONTINUOUS
 10
7.8653326344
 20
14.1282898226
 11
7.941174066
 21
14.052448391
  0
LINE
  5
315
100
AcDbEntity
  8
0
100
AcDbLine
 62
9
  6
CONTINUOUS
 10
8.0212484028
 20
13.9723740541
 11
8.3501995064
 21
13.6434229529
  0
LINE
  5
316
100
AcDbEntity
  8
0
100
AcDbLine
 62
9
  6
CONTINUOUS
 10
7.3788054934
 20
14.6300701375
 11
7.3907414271
 21
14.6181342038
  0
LINE
  5
317
100
AcDbEntity
  8
0
100
AcDbLine
 62
9
  6
CONTINUOUS
 10
8.5640831308
 20
13.4447925
 11
8.3501995064
 21
13.6586761245
  0
LINE
  5
318
100
AcDbEntity
  8
0
100
AcDbLine
 62
9
  6
CONTINUOUS
 10
8.0365015767
 20
13.9723740541
 11
7.941174066
 21
14.0677015649
  0
LINE
  5
319
100
AcDbEntity
  8
0
100
AcDbLine
 62
9
  6
CONTINUOUS
 10
7.8805858083
 20
14.1282898226
 11
7.7852582975
 21
14.2236173333
  0
LINE
  5
31A
100
AcDbEntity
  8
0
100
AcDbLine
 62
9
  6
CONTINUOUS
 10
7.7276545381
 20
14.2812210926
 11
7.6323270275
 21
14.3765486033
  0
LINE
  5
31B
100
AcDbEntity
  8
0
100
AcDbLine
 62
9
  6
CONTINUOUS
 10
7.3628753524
 20
14.6460002785
 11
7.1952259882
 21
14.8136496426
  0
LINE
  5
31C
100
AcDbEntity
  8
0
100
AcDbLine
 62
9
  6
CONTINUOUS
 10
8.5724348476
 20
13.4482518688
 11
8.3536588751
 21
13.6670278412
  0
LINE
  5
31D
100
AcDbEntity
  8
0
100
AcDbLine
 62
9
  6
CONTINUOUS
 10
8.0448532935
 20
13.9758334229
 11
7.9446334347
 21
14.0760532816
  0
LINE
  5
31E
100
AcDbEntity
  8
0
100
AcDbLine
 62
9
  6
CONTINUOUS
 10
7.888937525
 20
14.1317491913
 11
7.7887176662
 21
14.2319690501
  0
LINE
  5
31F
100
AcDbEntity
  8
0
100
AcDbLine
 62
9
  6
CONTINUOUS
 10
7.736006255
 20
14.2846804614
 11
7.6357863962
 21
14.3849003201
  0
LINE
  5
320
100
AcDbEntity
  8
0
100
AcDbLine
 62
9
  6
CONTINUOUS
 10
7.3902815794
 20
14.6304051369
 11
7.3822648621
 21
14.6384218542
  0
LINE
  5
321
100
AcDbEntity
  8
0
100
AcDbLine
 62
9
  6
CONTINUOUS
 10
7.3712270691
 20
14.6494596472
 11
7.198685357
 21
14.8220013594
  0
LINE
  5
322
100
AcDbEntity
  8
0
100
AcDbLine
 62
7
  6
CONTINUOUS
 10
7.3822025105
 20
14.6477706327
 11
7.6404296097
 21
14.3895435336
  0
LINE
  5
323
100
AcDbEntity
  8
0
100
AcDbLine
 62
7
  6
CONTINUOUS
 10
7.7406494684
 20
14.2893236748
 11
7.7933608797
 21
14.2366122635
  0
LINE
  5
324
100
AcDbEntity
  8
0
100
AcDbLine
 62
7
  6
CONTINUOUS
 10
7.8935807384
 20
14.1363924048
 11
7.9492766482
 21
14.0806964951
  0
LINE
  5
325
100
AcDbEntity
  8
0
100
AcDbLine
 62
7
  6
CONTINUOUS
 10
8.0494965069
 20
13.9804766363
 11
8.3583020886
 21
13.6716710547
  0
LINE
  5
326
100
AcDbEntity
  8
0
100
AcDbLine
 62
7
  6
CONTINUOUS
 10
7.1100008231
 20
15.0117345196
 11
8.7691766992
 21
13.3525586435
  0
LINE
  5
327
100
AcDbEntity
  8
0
100
AcDbLine
 62
7
  6
CONTINUOUS
 10
8.8429229021
 20
13.3005095403
 11
7.0579517199
 21
15.0854807226
  0
LINE
  5
328
100
AcDbEntity
  8
0
100
AcDbLine
 62
7
  6
CONTINUOUS
 10
6.9423836415
 20
15.2082118572
 11
7.0032453734
 21
15.1473501253
  0
LINE
  5
329
100
AcDbEntity
  8
0
100
AcDbLine
 62
7
  6
CONTINUOUS
 10
7.0092587228
 20
15.1413367758
 11
7.0701051994
 21
15.0804902993
  0
LINE
  5
32A
100
AcDbEntity
  8
0
100
AcDbLine
 62
7
  6
CONTINUOUS
 10
7.1384361745
 20
15.0121593242
 11
7.1992837496
 21
14.9513117491
  0
LINE
  5
32B
100
AcDbEntity
  8
0
100
AcDbLine
 62
7
  6
CONTINUOUS
 10
7.3211209979
 20
14.8294745008
 11
7.3819694879
 21
14.7686260108
  0
LINE
  5
32C
100
AcDbEntity
  8
0
100
AcDbLine
 62
7
  6
CONTINUOUS
 10
7.5448644449
 20
14.6057310537
 11
7.6057117624
 21
14.5448837363
  0
LINE
  5
32D
100
AcDbEntity
  8
0
100
AcDbLine
 62
7
  6
CONTINUOUS
 10
7.7944166594
 20
14.3561788392
 11
7.855265017
 21
14.2953304817
  0
LINE
  5
32E
100
AcDbEntity
  8
0
100
AcDbLine
 62
7
  6
CONTINUOUS
 10
8.052772684
 20
14.0978228147
 11
8.113620996
 21
14.0369745027
  0
LINE
  5
32F
100
AcDbEntity
  8
0
100
AcDbLine
 62
7
  6
CONTINUOUS
 10
8.3023259279
 20
13.8482695708
 11
8.3631732212
 21
13.7874222774
  0
LINE
  5
330
100
AcDbEntity
  8
0
100
AcDbLine
 62
7
  6
CONTINUOUS
 10
8.5260681446
 20
13.624527354
 11
8.586916726
 21
13.5636787726
  0
LINE
  5
331
100
AcDbEntity
  8
0
100
AcDbLine
 62
7
  6
CONTINUOUS
 10
8.7087538143
 20
13.4418416844
 11
8.7696016181
 21
13.3809938806
  0
LINE
  5
332
100
AcDbEntity
  8
0
100
AcDbLine
 62
7
  6
CONTINUOUS
 10
8.8379324828
 20
13.3126630159
 11
8.8987789514
 21
13.2518165473
  0
LINE
  5
333
100
AcDbEntity
  8
0
100
AcDbLine
 62
7
  6
CONTINUOUS
 10
8.904792423
 20
13.2458030757
 11
8.9656539185
 21
13.1849415801
  0
LINE
  5
334
100
AcDbEntity
  8
0
100
AcDbLine
 62
9
  6
CONTINUOUS
 10
8.8332995087
 20
13.3201237839
 11
8.7770617185
 21
13.3763615741
  0
LINE
  5
335
100
AcDbEntity
  8
0
100
AcDbLine
 62
9
  6
CONTINUOUS
 10
8.7041215078
 20
13.4493017849
 11
8.5943764377
 21
13.559046855
  0
LINE
  5
336
100
AcDbEntity
  8
0
100
AcDbLine
 62
9
  6
CONTINUOUS
 10
8.521436227
 20
13.6319870657
 11
8.3706335769
 21
13.7827897158
  0
LINE
  5
337
100
AcDbEntity
  8
0
100
AcDbLine
 62
9
  6
CONTINUOUS
 10
8.2976933662
 20
13.8557299265
 11
8.1210808424
 21
14.0323424503
  0
LINE
  5
338
100
AcDbEntity
  8
0
100
AcDbLine
 62
9
  6
CONTINUOUS
 10
8.0481406317
 20
14.105282661
 11
7.8627248406
 21
14.2906984521
  0
LINE
  5
339
100
AcDbEntity
  8
0
100
AcDbLine
 62
9
  6
CONTINUOUS
 10
7.7897846298
 20
14.3636386628
 11
7.613172106
 21
14.5402511866
  0
LINE
  5
33A
100
AcDbEntity
  8
0
100
AcDbLine
 62
9
  6
CONTINUOUS
 10
7.5402318953
 20
14.6131913974
 11
7.3894292452
 21
14.7639940474
  0
LINE
  5
33B
100
AcDbEntity
  8
0
100
AcDbLine
 62
9
  6
CONTINUOUS
 10
7.3164890345
 20
14.8369342582
 11
7.2067439644
 21
14.9466793283
  0
LINE
  5
33C
100
AcDbEntity
  8
0
100
AcDbLine
 62
9
  6
CONTINUOUS
 10
7.1338037537
 20
15.019619539
 11
7.0775659635
 21
15.0758573292
  0
LINE
  5
33D
100
AcDbEntity
  8
0
100
AcDbLine
 62
9
  6
CONTINUOUS
 10
8.7752009052
 20
13.3835484036
 11
8.783521575
 21
13.3752272779
  0
LINE
  5
33E
100
AcDbEntity
  8
0
100
AcDbLine
 62
9
  6
CONTINUOUS
 10
8.7752004964
 20
13.3835483565
 11
8.7029872116
 21
13.4557616413
  0
LINE
  5
33F
100
AcDbEntity
  8
0
100
AcDbLine
 62
9
  6
CONTINUOUS
 10
8.6008362942
 20
13.5579125588
 11
8.5203019308
 21
13.6384469222
  0
LINE
  5
340
100
AcDbEntity
  8
0
100
AcDbLine
 62
9
  6
CONTINUOUS
 10
8.3770934334
 20
13.7816554196
 11
8.29655907
 21
13.862189783
  0
LINE
  5
341
100
AcDbEntity
  8
0
100
AcDbLine
 62
9
  6
CONTINUOUS
 10
8.1275406989
 20
14.0312081541
 11
8.0470063355
 21
14.1117425175
  0
LINE
  5
342
100
AcDbEntity
  8
0
100
AcDbLine
 62
9
  6
CONTINUOUS
 10
7.869184697
 20
14.2895641559
 11
7.7886503337
 21
14.3700985193
  0
LINE
  5
343
100
AcDbEntity
  8
0
100
AcDbLine
 62
9
  6
CONTINUOUS
 10
7.6196319625
 20
14.5391168905
 11
7.5390975991
 21
14.6196512538
  0
LINE
  5
344
100
AcDbEntity
  8
0
100
AcDbLine
 62
9
  6
CONTINUOUS
 10
7.3958891017
 20
14.7628597512
 11
7.3153547383
 21
14.8433941146
  0
LINE
  5
345
100
AcDbEntity
  8
0
100
AcDbLine
 62
9
  6
CONTINUOUS
 10
7.2132038209
 20
14.9455450321
 11
7.1326694575
 21
15.0260793955
  0
LINE
  5
346
100
AcDbEntity
  8
0
100
AcDbLine
 62
9
  6
CONTINUOUS
 10
7.08402582
 20
15.074723033
 11
6.9366240029
 21
15.2221248501
  0
LINE
  5
347
100
AcDbEntity
  8
0
100
AcDbLine
 62
9
  6
CONTINUOUS
 10
8.7950528462
 20
13.3752272779
 11
8.7029872116
 21
13.4672929125
  0
LINE
  5
348
100
AcDbEntity
  8
0
100
AcDbLine
 62
9
  6
CONTINUOUS
 10
8.3886247045
 20
13.7816554196
 11
8.29655907
 21
13.8737210541
  0
LINE
  5
349
100
AcDbEntity
  8
0
100
AcDbLine
 62
9
  6
CONTINUOUS
 10
7.8807159682
 20
14.2895641559
 11
7.7886503337
 21
14.3816297905
  0
LINE
  5
34A
100
AcDbEntity
  8
0
100
AcDbLine
 62
9
  6
CONTINUOUS
 10
7.4074203729
 20
14.7628597512
 11
7.3153547383
 21
14.8549253858
  0
LINE
  5
34B
100
AcDbEntity
  8
0
100
AcDbLine
 62
9
  6
CONTINUOUS
 10
7.224735092
 20
14.9455450321
 11
7.1421819854
 21
15.0280981387
  0
LINE
  5
34C
100
AcDbEntity
  8
0
100
AcDbLine
 62
9
  6
CONTINUOUS
 10
7.0955570911
 20
15.074723033
 11
6.9366240029
 21
15.2336560909
  0
LINE
  5
34D
100
AcDbEntity
  8
0
100
AcDbLine
 62
9
  6
CONTINUOUS
 10
8.9910983008
 20
13.1791818234
 11
8.8321652125
 21
13.3381149116
  0
LINE
  5
34E
100
AcDbEntity
  8
0
100
AcDbLine
 62
9
  6
CONTINUOUS
 10
8.6123675653
 20
13.5579125588
 11
8.5203019308
 21
13.6499781933
  0
LINE
  5
34F
100
AcDbEntity
  8
0
100
AcDbLine
 62
9
  6
CONTINUOUS
 10
8.1390719699
 20
14.0312081541
 11
8.0470063355
 21
14.1232737886
  0
LINE
  5
350
100
AcDbEntity
  8
0
100
AcDbLine
 62
9
  6
CONTINUOUS
 10
7.6311632337
 20
14.5391168905
 11
7.5390975991
 21
14.631182525
  0
LINE
  5
351
100
AcDbEntity
  8
0
100
AcDbLine
 62
9
  6
CONTINUOUS
 10
7.1421820282
 20
15.0280985098
 11
7.1326694575
 21
15.0376106666
  0
LINE
  5
352
100
AcDbEntity
  8
0
100
AcDbLine
 62
9
  6
CONTINUOUS
 10
8.8343120265
 20
13.346963246
 11
8.8039011806
 21
13.3773740919
  0
LINE
  5
353
100
AcDbEntity
  8
0
100
AcDbLine
 62
9
  6
CONTINUOUS
 10
8.7051340255
 20
13.4761412469
 11
8.6212158997
 21
13.5600593727
  0
LINE
  5
354
100
AcDbEntity
  8
0
100
AcDbLine
 62
9
  6
CONTINUOUS
 10
8.5224487447
 20
13.6588265277
 11
8.3974730389
 21
13.7838022335
  0
LINE
  5
355
100
AcDbEntity
  8
0
100
AcDbLine
 62
9
  6
CONTINUOUS
 10
8.2987058839
 20
13.8825693885
 11
8.1479203044
 21
14.033354968
  0
LINE
  5
356
100
AcDbEntity
  8
0
100
AcDbLine
 62
9
  6
CONTINUOUS
 10
8.0491531494
 20
14.132122123
 11
7.8895643026
 21
14.2917109698
  0
LINE
  5
357
100
AcDbEntity
  8
0
100
AcDbLine
 62
9
  6
CONTINUOUS
 10
7.7907971476
 20
14.3904781249
 11
7.6400115681
 21
14.5412637044
  0
LINE
  5
358
100
AcDbEntity
  8
0
100
AcDbLine
 62
9
  6
CONTINUOUS
 10
7.541244413
 20
14.6400308594
 11
7.4162687073
 21
14.7650065652
  0
LINE
  5
359
100
AcDbEntity
  8
0
100
AcDbLine
 62
9
  6
CONTINUOUS
 10
7.3175015522
 20
14.8637737202
 11
7.2335834264
 21
14.947691846
  0
LINE
  5
35A
100
AcDbEntity
  8
0
100
AcDbLine
 62
9
  6
CONTINUOUS
 10
7.1348162714
 20
15.046459001
 11
7.1044054255
 21
15.0768698469
  0
LINE
  5
35B
100
AcDbEntity
  8
0
100
AcDbLine
 62
9
  6
CONTINUOUS
 10
9.0050181395
 20
13.1849474379
 11
8.8379308271
 21
13.3520347503
  0
LINE
  5
35C
100
AcDbEntity
  8
0
100
AcDbLine
 62
9
  6
CONTINUOUS
 10
8.8089726849
 20
13.3809928925
 11
8.7087528262
 21
13.4812127512
  0
LINE
  5
35D
100
AcDbEntity
  8
0
100
AcDbLine
 62
9
  6
CONTINUOUS
 10
8.6262874041
 20
13.5636781733
 11
8.5260675453
 21
13.6638980321
  0
LINE
  5
35E
100
AcDbEntity
  8
0
100
AcDbLine
 62
9
  6
CONTINUOUS
 10
8.4025445433
 20
13.7874210341
 11
8.3023246845
 21
13.8876408929
  0
LINE
  5
35F
100
AcDbEntity
  8
0
100
AcDbLine
 62
9
  6
CONTINUOUS
 10
8.1529918088
 20
14.0369737687
 11
8.05277195
 21
14.1371936274
  0
LINE
  5
360
100
AcDbEntity
  8
0
100
AcDbLine
 62
9
  6
CONTINUOUS
 10
7.8946358069
 20
14.2953297705
 11
7.7944159482
 21
14.3955496292
  0
LINE
  5
361
100
AcDbEntity
  8
0
100
AcDbLine
 62
9
  6
CONTINUOUS
 10
7.6450830724
 20
14.544882505
 11
7.5448632137
 21
14.6451023637
  0
LINE
  5
362
100
AcDbEntity
  8
0
100
AcDbLine
 62
9
  6
CONTINUOUS
 10
7.4213402116
 20
14.7686253658
 11
7.3211203529
 21
14.8688452245
  0
LINE
  5
363
100
AcDbEntity
  8
0
100
AcDbLine
 62
9
  6
CONTINUOUS
 10
7.2386549308
 20
14.9513106466
 11
7.138435072
 21
15.0515305054
  0
LINE
  5
364
100
AcDbEntity
  8
0
100
AcDbLine
 62
9
  6
CONTINUOUS
 10
7.1094769299
 20
15.0804886475
 11
6.9423896174
 21
15.24757596
  0
LINE
  5
365
100
AcDbEntity
  8
0
100
AcDbLine
 62
7
  6
CONTINUOUS
 10
7.1176092906
 20
15.0886210083
 11
7.1465674328
 21
15.0596628661
  0
LINE
  5
366
100
AcDbEntity
  8
0
100
AcDbLine
 62
7
  6
CONTINUOUS
 10
7.2467872915
 20
14.9594430074
 11
7.3292527136
 21
14.8769775853
  0
LINE
  5
367
100
AcDbEntity
  8
0
100
AcDbLine
 62
7
  6
CONTINUOUS
 10
7.4294725724
 20
14.7767577265
 11
7.5529955744
 21
14.6532347245
  0
LINE
  5
368
100
AcDbEntity
  8
0
100
AcDbLine
 62
7
  6
CONTINUOUS
 10
7.6532154332
 20
14.5530148657
 11
7.8025483089
 21
14.40368199
  0
LINE
  5
369
100
AcDbEntity
  8
0
100
AcDbLine
 62
7
  6
CONTINUOUS
 10
7.9027681677
 20
14.3034621312
 11
8.0609043107
 21
14.1453259881
  0
LINE
  5
36A
100
AcDbEntity
  8
0
100
AcDbLine
 62
7
  6
CONTINUOUS
 10
8.1611241695
 20
14.0451061294
 11
8.3104570453
 21
13.8957732536
  0
LINE
  5
36B
100
AcDbEntity
  8
0
100
AcDbLine
 62
7
  6
CONTINUOUS
 10
8.410676904
 20
13.7955533949
 11
8.5341999061
 21
13.6720303928
  0
LINE
  5
36C
100
AcDbEntity
  8
0
100
AcDbLine
 62
7
  6
CONTINUOUS
 10
8.6344197648
 20
13.5718105341
 11
8.7168851869
 21
13.489345112
  0
LINE
  5
36D
100
AcDbEntity
  8
0
100
AcDbLine
 62
7
  6
CONTINUOUS
 10
8.8171050457
 20
13.3891252532
 11
8.8460631878
 21
13.3601671111
  0
LINE
  5
36E
100
AcDbEntity
  8
0
100
AcDbLine
 62
7
  6
CONTINUOUS
 10
6.8032279636
 20
15.406124104
 11
6.9196766587
 21
15.2896754088
  0
LINE
  5
36F
100
AcDbEntity
  8
0
100
AcDbLine
 62
7
  6
CONTINUOUS
 10
6.9561489318
 20
15.2532031357
 11
7.0336949323
 21
15.1756571352
  0
LINE
  5
370
100
AcDbEntity
  8
0
100
AcDbLine
 62
7
  6
CONTINUOUS
 10
7.1375343333
 20
15.0718177343
 11
7.2150866854
 21
14.9942653821
  0
LINE
  5
371
100
AcDbEntity
  8
0
100
AcDbLine
 62
7
  6
CONTINUOUS
 10
7.3739246957
 20
14.8354273718
 11
7.4514767156
 21
14.7578753519
  0
LINE
  5
372
100
AcDbEntity
  8
0
100
AcDbLine
 62
7
  6
CONTINUOUS
 10
7.6492075868
 20
14.5601444808
 11
7.7267582526
 21
14.4825938149
  0
LINE
  5
373
100
AcDbEntity
  8
0
100
AcDbLine
 62
7
  6
CONTINUOUS
 10
7.9446218811
 20
14.2647301864
 11
8.0221723663
 21
14.1871797012
  0
LINE
  5
374
100
AcDbEntity
  8
0
100
AcDbLine
 62
7
  6
CONTINUOUS
 10
8.2400359287
 20
13.9693161389
 11
8.3175867261
 21
13.8917653414
  0
LINE
  5
375
100
AcDbEntity
  8
0
100
AcDbLine
 62
7
  6
CONTINUOUS
 10
8.5153175113
 20
13.6940345562
 11
8.5928695716
 21
13.616482496
  0
LINE
  5
376
100
AcDbEntity
  8
0
100
AcDbLine
 62
7
  6
CONTINUOUS
 10
8.7517075335
 20
13.457644534
 11
8.8292599419
 21
13.3800921257
  0
LINE
  5
377
100
AcDbEntity
  8
0
100
AcDbLine
 62
7
  6
CONTINUOUS
 10
8.9330991536
 20
13.2762529139
 11
9.0106454764
 21
13.1987065911
  0
LINE
  5
378
100
AcDbEntity
  8
0
100
AcDbLine
 62
7
  6
CONTINUOUS
 10
9.0471177608
 20
13.1622343068
 11
9.1246781223
 21
13.0846739452
  0
LINE
  5
379
100
AcDbEntity
  8
0
100
AcDbLine
 62
9
  6
CONTINUOUS
 10
9.1385935185
 20
13.0789119665
 11
9.0413557821
 21
13.1761497029
  0
LINE
  5
37A
100
AcDbEntity
  8
0
100
AcDbLine
 62
9
  6
CONTINUOUS
 10
9.0245678919
 20
13.1929375931
 11
8.9273301556
 21
13.2901753294
  0
LINE
  5
37B
100
AcDbEntity
  8
0
100
AcDbLine
 62
9
  6
CONTINUOUS
 10
8.8431793146
 20
13.3743261704
 11
8.7459415783
 21
13.4715639067
  0
LINE
  5
37C
100
AcDbEntity
  8
0
100
AcDbLine
 62
9
  6
CONTINUOUS
 10
8.6067891183
 20
13.6107163667
 11
8.509551382
 21
13.707954103
  0
LINE
  5
37D
100
AcDbEntity
  8
0
100
AcDbLine
 62
9
  6
CONTINUOUS
 10
8.3315069043
 20
13.8859985807
 11
8.2342691679
 21
13.9832363171
  0
LINE
  5
37E
100
AcDbEntity
  8
0
100
AcDbLine
 62
9
  6
CONTINUOUS
 10
8.0360927005
 20
14.1814127845
 11
7.9388549641
 21
14.2786505209
  0
LINE
  5
37F
100
AcDbEntity
  8
0
100
AcDbLine
 62
9
  6
CONTINUOUS
 10
7.7406784966
 20
14.4768269884
 11
7.6434407602
 21
14.5740647248
  0
LINE
  5
380
100
AcDbEntity
  8
0
100
AcDbLine
 62
9
  6
CONTINUOUS
 10
7.4653962826
 20
14.7521092024
 11
7.3681585462
 21
14.8493469388
  0
LINE
  5
381
100
AcDbEntity
  8
0
100
AcDbLine
 62
9
  6
CONTINUOUS
 10
7.2290060863
 20
14.9884993987
 11
7.1317683499
 21
15.0857371351
  0
LINE
  5
382
100
AcDbEntity
  8
0
100
AcDbLine
 62
9
  6
CONTINUOUS
 10
7.047617509
 20
15.169887976
 11
6.9503797726
 21
15.2671257124
  0
LINE
  5
383
100
AcDbEntity
  8
0
100
AcDbLine
 62
9
  6
CONTINUOUS
 10
6.9335918824
 20
15.2839136026
 11
6.7974621283
 21
15.4200433932
  0
LINE
  5
384
100
AcDbEntity
  8
0
100
AcDbLine
 62
9
  6
CONTINUOUS
 10
7.2405368634
 20
14.9884993987
 11
7.1476971299
 21
15.0813391322
  0
LINE
  5
385
100
AcDbEntity
  8
0
100
AcDbLine
 62
9
  6
CONTINUOUS
 10
7.0591482861
 20
15.169887976
 11
6.9576658814
 21
15.2713703807
  0
LINE
  5
386
100
AcDbEntity
  8
0
100
AcDbLine
 62
9
  6
CONTINUOUS
 10
6.7974621283
 20
15.431574627
 11
6.9451226596
 21
15.2839136026
  0
LINE
  5
387
100
AcDbEntity
  8
0
100
AcDbLine
 62
9
  6
CONTINUOUS
 10
9.1501242956
 20
13.0789119665
 11
9.0413557821
 21
13.18768048
  0
LINE
  5
388
100
AcDbEntity
  8
0
100
AcDbLine
 62
9
  6
CONTINUOUS
 10
9.0360986691
 20
13.1929375931
 11
8.9273301556
 21
13.3017061066
  0
LINE
  5
389
100
AcDbEntity
  8
0
100
AcDbLine
 62
9
  6
CONTINUOUS
 10
8.8547100917
 20
13.3743261704
 11
8.7459415783
 21
13.4830946839
  0
LINE
  5
38A
100
AcDbEntity
  8
0
100
AcDbLine
 62
9
  6
CONTINUOUS
 10
8.6183198955
 20
13.6107163667
 11
8.509551382
 21
13.7194848801
  0
LINE
  5
38B
100
AcDbEntity
  8
0
100
AcDbLine
 62
9
  6
CONTINUOUS
 10
8.3430376814
 20
13.8859985807
 11
8.2342691679
 21
13.9947670942
  0
LINE
  5
38C
100
AcDbEntity
  8
0
100
AcDbLine
 62
9
  6
CONTINUOUS
 10
8.0476234778
 20
14.1814127845
 11
7.9388549641
 21
14.2901812982
  0
LINE
  5
38D
100
AcDbEntity
  8
0
100
AcDbLine
 62
9
  6
CONTINUOUS
 10
7.7522092737
 20
14.4768269884
 11
7.6434407602
 21
14.5855955019
  0
LINE
  5
38E
100
AcDbEntity
  8
0
100
AcDbLine
 62
9
  6
CONTINUOUS
 10
7.4769270597
 20
14.7521092024
 11
7.3681585462
 21
14.8608777159
  0
LINE
  5
38F
100
AcDbEntity
  8
0
100
AcDbLine
 62
9
  6
CONTINUOUS
 10
7.1476972536
 20
15.0813398532
 11
7.1317683499
 21
15.0972679122
  0
LINE
  5
390
100
AcDbEntity
  8
0
100
AcDbLine
 62
9
  6
CONTINUOUS
 10
6.957665938
 20
15.2713711688
 11
6.9503797726
 21
15.2786564895
  0
LINE
  5
391
100
AcDbEntity
  8
0
100
AcDbLine
 62
9
  6
CONTINUOUS
 10
9.1640445652
 20
13.0846775811
 11
8.9330957701
 21
13.3156263762
  0
LINE
  5
392
100
AcDbEntity
  8
0
100
AcDbLine
 62
9
  6
CONTINUOUS
 10
8.8686303613
 20
13.3800917849
 11
8.7517071928
 21
13.4970149535
  0
LINE
  5
393
100
AcDbEntity
  8
0
100
AcDbLine
 62
9
  6
CONTINUOUS
 10
8.6322401651
 20
13.6164819812
 11
8.5153169965
 21
13.7334051497
  0
LINE
  5
394
100
AcDbEntity
  8
0
100
AcDbLine
 62
9
  6
CONTINUOUS
 10
8.356957951
 20
13.8917641952
 11
8.2400347825
 21
14.0086873638
  0
LINE
  5
395
100
AcDbEntity
  8
0
100
AcDbLine
 62
9
  6
CONTINUOUS
 10
8.0615437472
 20
14.1871783991
 11
7.9446205786
 21
14.3041015676
  0
LINE
  5
396
100
AcDbEntity
  8
0
100
AcDbLine
 62
9
  6
CONTINUOUS
 10
7.7661295433
 20
14.4825926029
 11
7.6492063748
 21
14.5995157715
  0
LINE
  5
397
100
AcDbEntity
  8
0
100
AcDbLine
 62
9
  6
CONTINUOUS
 10
7.4908473293
 20
14.757874817
 11
7.3739241607
 21
14.8747979855
  0
LINE
  5
398
100
AcDbEntity
  8
0
100
AcDbLine
 62
9
  6
CONTINUOUS
 10
7.254457133
 20
14.9942650133
 11
7.1375339645
 21
15.1111881818
  0
LINE
  5
399
100
AcDbEntity
  8
0
100
AcDbLine
 62
9
  6
CONTINUOUS
 10
7.0730685557
 20
15.1756535906
 11
6.8032277429
 21
15.4454944034
  0
LINE
  5
39A
100
AcDbEntity
  8
0
100
AcDbLine
 62
7
  6
CONTINUOUS
 10
6.7787274174
 20
15.519378807
 11
9.2749017674
 21
13.023204457
  0
LINE
  5
39B
100
AcDbEntity
  8
0
100
AcDbLine
 62
7
  6
CONTINUOUS
 10
6.7775254029
 20
15.5209253653
 11
9.2764606525
 21
13.0219901158
  0
LINE
  5
39C
100
AcDbEntity
  8
0
100
AcDbLine
 62
7
  6
CONTINUOUS
 10
9.3695857623
 20
12.9576647261
 11
6.7151069057
 21
15.6121435827
  0
LINE
  5
39D
100
AcDbEntity
  8
0
100
AcDbLine
 62
9
  6
CONTINUOUS
 10
9.4797221345
 20
12.8584974911
 11
6.6159396707
 21
15.722279955
  0
LINE
  5
39E
100
AcDbEntity
  8
0
100
AcDbLine
 62
7
  6
CONTINUOUS
 10
9.6456509822
 20
12.847738539
 11
6.6051807185
 21
15.8882088027
  0
LINE
  5
39F
100
AcDbEntity
  8
0
100
AcDbLine
 62
9
  6
CONTINUOUS
 10
6.6896082926
 20
15.9035456314
 11
9.660987811
 21
12.932166113
  0
LINE
  5
3A0
100
AcDbEntity
  8
0
100
AcDbLine
 62
9
  6
CONTINUOUS
 10
6.8126383913
 20
15.886784734
 11
9.6442269136
 21
13.0551962118
  0
LINE
  5
3A1
100
AcDbEntity
  8
0
100
AcDbLine
 62
9
  6
CONTINUOUS
 10
8.3501995064
 20
13.6406218568
 11
8.5460288593
 21
13.4447925
  0
LINE
  5
3A2
100
AcDbEntity
  8
0
100
AcDbLine
 62
7
  6
CONTINUOUS
 10
8.756043639
 20
13.3561093299
 11
7.1135515095
 21
14.9986014594
  0
LINE
  5
3A3
100
AcDbEntity
  8
0
100
AcDbLine
 62
9
  6
CONTINUOUS
 10
8.8321652125
 20
13.3265836404
 11
8.9795669976
 21
13.1791818234
  0
LINE
  5
3A4
100
AcDbEntity
  8
0
100
AcDbLine
 62
7
  6
CONTINUOUS
 10
9.2749017724
 20
13.0232044521
 11
9.2747768714
 21
13.0233321663
  0
LINE
  5
3A5
100
AcDbEntity
  8
0
100
AcDbLine
 62
7
  6
CONTINUOUS
 10
10.2895534361
 20
17.0751073234
 11
10.282890745
 21
17.0999728252
  0
LINE
  5
3A6
100
AcDbEntity
  8
0
100
AcDbLine
 62
7
  6
CONTINUOUS
 10
10.2524580788
 20
17.0361603972
 11
10.2524958652
 21
17.036019069
  0
LINE
  5
3A7
100
AcDbEntity
  8
0
100
AcDbLine
 62
7
  6
CONTINUOUS
 10
10.2455535089
 20
17.0619825714
 11
10.2524580788
 21
17.0361603972
  0
LINE
  5
3A8
100
AcDbEntity
  8
0
100
AcDbLine
 62
7
  6
CONTINUOUS
 10
10.6600074123
 20
16.3287357112
 11
10.651686665
 21
16.3598592261
  0
LINE
  5
3A9
100
AcDbEntity
  8
0
100
AcDbLine
 62
7
  6
CONTINUOUS
 10
10.7112831212
 20
16.3800166283
 11
10.7035237547
 21
16.4090404796
  0
LINE
  5
3AA
100
AcDbEntity
  8
0
100
AcDbLine
 62
7
  6
CONTINUOUS
 10
10.7625427389
 20
16.4312697277
 11
10.7553309649
 21
16.4582444574
  0
LINE
  5
3AB
100
AcDbEntity
  8
0
100
AcDbLine
 62
7
  6
CONTINUOUS
 10
10.8138258133
 20
16.482554017
 11
10.8071801154
 21
16.5074112359
  0
LINE
  5
3AC
100
AcDbEntity
  8
0
100
AcDbLine
 62
9
  6
CONTINUOUS
 10
13.0738976407
 20
3.4833761932
 11
13.0738976407
 21
4.3817771998
  0
LINE
  5
3AD
100
AcDbEntity
  8
0
100
AcDbLine
 62
9
  6
CONTINUOUS
 10
13.0808926102
 20
3.4825766965
 11
13.0808926102
 21
4.3825766965
  0
LINE
  5
3AE
100
AcDbEntity
  8
0
100
AcDbLine
 62
9
  6
CONTINUOUS
 10
13.1708926102
 20
3.4825766965
 11
13.1708926102
 21
4.3825766965
  0
LINE
  5
3AF
100
AcDbEntity
  8
0
100
AcDbLine
 62
9
  6
CONTINUOUS
 10
13.1929065693
 20
3.491750437
 11
13.1929065693
 21
4.373402956
  0
LINE
  5
3B0
100
AcDbEntity
  8
0
100
AcDbLine
 62
7
  6
CONTINUOUS
 10
13.4068926102
 20
3.7075773009
 11
13.4068926102
 21
4.1575760922
  0
LINE
  5
3B1
100
AcDbEntity
  8
0
100
AcDbLine
 62
7
  6
CONTINUOUS
 10
13.5058926102
 20
7.1525766965
 11
13.5058926102
 21
5.0525766965
  0
LINE
  5
3B2
100
AcDbEntity
  8
0
100
AcDbLine
 62
7
  6
CONTINUOUS
 10
13.6058926102
 20
4.9775766965
 11
13.6058926102
 21
7.2275766965
  0
LINE
  5
3B3
100
AcDbEntity
  8
0
100
AcDbLine
 62
9
  6
CONTINUOUS
 10
13.7503508929
 20
4.9670875881
 11
13.7503508929
 21
7.2380658049
  0
LINE
  5
3B4
100
AcDbEntity
  8
0
100
AcDbLine
 62
7
  6
CONTINUOUS
 10
12.2941457857
 20
5.7900766965
 11
12.1858926102
 21
5.6025766965
  0
LINE
  5
3B5
100
AcDbEntity
  8
0
100
AcDbLine
 62
9
  6
CONTINUOUS
 10
9.7730276058
 20
13.3215085899
 11
7.0789507695
 21
16.0155854262
  0
LINE
  5
3B6
100
AcDbEntity
  8
0
100
AcDbLine
 62
9
  6
CONTINUOUS
 10
9.902462673
 20
13.4509436571
 11
7.2083858367
 21
16.1450204935
  0
LINE
  5
3B7
100
AcDbEntity
  8
0
100
AcDbLine
 62
9
  6
CONTINUOUS
 10
9.9194481964
 20
13.5308542619
 11
7.2882964415
 21
16.1620060169
  0
LINE
  5
3B8
100
AcDbEntity
  8
0
100
AcDbLine
 62
9
  6
CONTINUOUS
 10
7.5219507269
 20
16.0723145401
 11
9.8297567196
 21
13.7645085473
  0
LINE
  5
3B9
100
AcDbEntity
  8
0
100
AcDbLine
 62
9
  6
CONTINUOUS
 10
7.5432602215
 20
16.076844013
 11
9.8342861925
 21
13.7858180419
  0
LINE
  5
3BA
100
AcDbEntity
  8
0
100
AcDbLine
 62
9
  6
CONTINUOUS
 10
9.8583196437
 20
13.8098514931
 11
7.5672936726
 21
16.1008774641
  0
LINE
  5
3BB
100
AcDbEntity
  8
0
100
AcDbLine
 62
9
  6
CONTINUOUS
 10
9.8610374085
 20
13.834752056
 11
7.5921942355
 21
16.1035952289
  0
LINE
  5
3BC
100
AcDbEntity
  8
0
100
AcDbLine
 62
7
  6
CONTINUOUS
 10
13.9808926102
 20
4.8400766965
 11
13.9808926102
 21
7.3650766965
  0
LINE
  5
3BD
100
AcDbEntity
  8
0
100
AcDbLine
 62
7
  6
CONTINUOUS
 10
13.9858926102
 20
3.7085766965
 11
13.9858926102
 21
4.1565763558
  0
LINE
  5
3BE
100
AcDbEntity
  8
0
100
AcDbLine
 62
9
  6
CONTINUOUS
 10
13.9978926102
 20
3.6965766965
 11
13.9978926102
 21
4.1685766965
  0
LINE
  5
3BF
100
AcDbEntity
  8
0
100
AcDbLine
 62
7
  6
CONTINUOUS
 10
14.0808926102
 20
8.8561548822
 11
14.0808926102
 21
3.3489985108
  0
LINE
  5
3C0
100
AcDbEntity
  8
0
100
AcDbLine
 62
9
  6
CONTINUOUS
 10
14.2088926102
 20
3.1307876037
 11
14.2088926102
 21
9.0743657894
  0
LINE
  5
3C1
100
AcDbEntity
  8
0
100
AcDbLine
 62
7
  6
CONTINUOUS
 10
14.336882775
 20
9.2957128269
 11
14.336882775
 21
2.9094405661
  0
LINE
  5
3C2
100
AcDbEntity
  8
0
100
AcDbLine
 62
7
  6
CONTINUOUS
 10
14.4180355079
 20
18.549561892
 11
14.4180355079
 21
17.655591501
  0
LINE
  5
3C3
100
AcDbEntity
  8
0
100
AcDbLine
 62
9
  6
CONTINUOUS
 10
14.4182233165
 20
17.652010126
 11
14.4182233165
 21
18.553143267
  0
LINE
  5
3C4
100
AcDbEntity
  8
0
100
AcDbLine
 62
9
  6
CONTINUOUS
 10
14.4608904151
 20
2.6935038907
 11
14.4608904151
 21
9.5116495024
  0
LINE
  5
3C5
100
AcDbEntity
  8
0
100
AcDbLine
 62
7
  6
CONTINUOUS
 10
14.4180355079
 20
18.5497916638
 11
14.4182233165
 21
18.553143267
  0
LINE
  5
3C6
100
AcDbEntity
  8
0
100
AcDbLine
 62
7
  6
CONTINUOUS
 10
9.5904201445
 20
15.0198056549
 11
8.7772478345
 21
15.832977965
  0
LINE
  5
3C7
100
AcDbEntity
  8
0
100
AcDbLine
 62
7
  6
CONTINUOUS
 10
14.4180355079
 20
17.6553617292
 11
14.4182233165
 21
17.652010126
  0
LINE
  5
3C8
100
AcDbEntity
  8
0
100
AcDbLine
 62
9
  6
CONTINUOUS
 10
14.5545470859
 20
16.949181484
 11
14.5545470859
 21
19.255971909
  0
LINE
  5
3C9
100
AcDbEntity
  8
0
100
AcDbLine
 62
7
  6
CONTINUOUS
 10
14.5848926102
 20
9.7275766965
 11
14.5848926102
 21
2.4775766965
  0
LINE
  5
3CA
100
AcDbEntity
  8
0
100
AcDbLine
 62
7
  6
CONTINUOUS
 10
14.5848926102
 20
1.4465766965
 11
14.5848926102
 21
-1.2414233035
  0
LINE
  5
3CB
100
AcDbEntity
  8
0
100
AcDbLine
 62
9
  6
CONTINUOUS
 10
14.602719363
 20
16.9125766965
 11
14.602719363
 21
19.2925766965
  0
LINE
  5
3CC
100
AcDbEntity
  8
0
100
AcDbLine
 62
7
  6
CONTINUOUS
 10
14.8348926102
 20
1.4775766965
 11
14.8348926102
 21
-1.2724233035
  0
LINE
  5
3CD
100
AcDbEntity
  8
0
100
AcDbLine
 62
7
  6
CONTINUOUS
 10
14.8348926102
 20
2.2275766965
 11
14.8348926102
 21
9.9775766965
  0
LINE
  5
3CE
100
AcDbEntity
  8
0
100
AcDbLine
 62
7
  6
CONTINUOUS
 10
14.8348926102
 20
16.9125767345
 11
14.8348926102
 21
19.2925766585
  0
LINE
  5
3CF
100
AcDbEntity
  8
0
100
AcDbLine
 62
7
  6
CONTINUOUS
 10
9.1501242956
 20
13.0789119665
 11
9.1385935185
 21
13.0789119665
  0
LINE
  5
3D0
100
AcDbEntity
  8
0
100
AcDbLine
 62
7
  6
CONTINUOUS
 10
8.9910983008
 20
13.1791818234
 11
8.9795669976
 21
13.1791818234
  0
LINE
  5
3D1
100
AcDbEntity
  8
0
100
AcDbLine
 62
7
  6
CONTINUOUS
 10
9.0360986691
 20
13.1929375931
 11
9.0245678919
 21
13.1929375931
  0
LINE
  5
3D2
100
AcDbEntity
  8
0
100
AcDbLine
 62
7
  6
CONTINUOUS
 10
8.9242308471
 20
13.246049277
 11
8.9126995759
 21
13.246049277
  0
LINE
  5
3D3
100
AcDbEntity
  8
0
100
AcDbLine
 62
7
  6
CONTINUOUS
 10
8.8547100917
 20
13.3743261704
 11
8.8431793146
 21
13.3743261704
  0
LINE
  5
3D4
100
AcDbEntity
  8
0
100
AcDbLine
 62
7
  6
CONTINUOUS
 10
8.7950528462
 20
13.3752272779
 11
8.783521575
 21
13.3752272779
  0
LINE
  5
3D5
100
AcDbEntity
  8
0
100
AcDbLine
 62
7
  6
CONTINUOUS
 10
8.5640831308
 20
13.4447925
 11
8.5460288593
 21
13.4447925
  0
LINE
  5
3D6
100
AcDbEntity
  8
0
100
AcDbLine
 62
7
  6
CONTINUOUS
 10
8.5223767589
 20
13.486498872
 11
8.5043224913
 21
13.486498872
  0
LINE
  5
3D7
100
AcDbEntity
  8
0
100
AcDbLine
 62
7
  6
CONTINUOUS
 10
9.3235148569
 20
16.1210969444
 11
9.2049294446
 21
16.2396823566
  0
LINE
  5
3D8
100
AcDbEntity
  8
0
100
AcDbLine
 62
7
  6
CONTINUOUS
 10
10.2551006491
 20
15.684485899
 11
9.4419280786
 21
16.4976584695
  0
LINE
  5
3D9
100
AcDbEntity
  8
0
100
AcDbLine
 62
9
  6
CONTINUOUS
 10
10.1706371137
 20
15.9244155235
 11
9.681857703
 21
16.4131949342
  0
LINE
  5
3DA
100
AcDbEntity
  8
0
100
AcDbLine
 62
7
  6
CONTINUOUS
 10
8.6123675653
 20
13.5579125588
 11
8.6008362942
 21
13.5579125588
  0
LINE
  5
3DB
100
AcDbEntity
  8
0
100
AcDbLine
 62
7
  6
CONTINUOUS
 10
8.4455270171
 20
13.5633486137
 11
8.4274727494
 21
13.5633486137
  0
LINE
  5
3DC
100
AcDbEntity
  8
0
100
AcDbLine
 62
7
  6
CONTINUOUS
 10
8.6183198955
 20
13.6107163667
 11
8.6067891183
 21
13.6107163667
  0
LINE
  5
3DD
100
AcDbEntity
  8
0
100
AcDbLine
 62
7
  6
CONTINUOUS
 10
8.2039122916
 20
13.6529787766
 11
8.1923810167
 21
13.6529787766
  0
LINE
  5
3DE
100
AcDbEntity
  8
0
100
AcDbLine
 62
7
  6
CONTINUOUS
 10
8.3886247045
 20
13.7816554196
 11
8.3770934334
 21
13.7816554196
  0
LINE
  5
3DF
100
AcDbEntity
  8
0
100
AcDbLine
 62
7
  6
CONTINUOUS
 10
8.0253769131
 20
13.8315141574
 11
8.0138456359
 21
13.8315141574
  0
LINE
  5
3E0
100
AcDbEntity
  8
0
100
AcDbLine
 62
7
  6
CONTINUOUS
 10
8.3430376814
 20
13.8859985807
 11
8.3315069043
 21
13.8859985807
  0
LINE
  5
3E1
100
AcDbEntity
  8
0
100
AcDbLine
 62
7
  6
CONTINUOUS
 10
8.0365015767
 20
13.9723740541
 11
8.0184473091
 21
13.9723740541
  0
LINE
  5
3E2
100
AcDbEntity
  8
0
100
AcDbLine
 62
7
  6
CONTINUOUS
 10
8.1390719699
 20
14.0312081541
 11
8.1275406989
 21
14.0312081541
  0
LINE
  5
3E3
100
AcDbEntity
  8
0
100
AcDbLine
 62
7
  6
CONTINUOUS
 10
7.7728897538
 20
14.0840013144
 11
7.7613584789
 21
14.0840013144
  0
LINE
  5
3E4
100
AcDbEntity
  8
0
100
AcDbLine
 62
7
  6
CONTINUOUS
 10
7.8805858083
 20
14.1282898226
 11
7.8625315406
 21
14.1282898226
  0
LINE
  5
3E5
100
AcDbEntity
  8
0
100
AcDbLine
 62
7
  6
CONTINUOUS
 10
8.0476234778
 20
14.1814127845
 11
8.0360927005
 21
14.1814127845
  0
LINE
  5
3E6
100
AcDbEntity
  8
0
100
AcDbLine
 62
7
  6
CONTINUOUS
 10
7.588956337
 20
14.2625366952
 11
7.582823098
 21
14.2625366952
  0
LINE
  5
3E7
100
AcDbEntity
  8
0
100
AcDbLine
 62
9
  6
CONTINUOUS
 10
10.2506371056
 20
16.0044516036
 11
9.7618937831
 21
16.4931949261
  0
LINE
  5
3E8
100
AcDbEntity
  8
0
100
AcDbLine
 62
9
  6
CONTINUOUS
 10
9.7618937831
 20
16.5665110908
 11
10.3239532704
 21
16.0044516036
  0
LINE
  5
3E9
100
AcDbEntity
  8
0
100
AcDbLine
 62
9
  6
CONTINUOUS
 10
9.8169577083
 20
16.6994471657
 11
9.8264801254
 21
16.6899247486
  0
LINE
  5
3EA
100
AcDbEntity
  8
0
100
AcDbLine
 62
9
  6
CONTINUOUS
 10
9.9146029091
 20
16.6018019649
 11
10.4568893452
 21
16.0595155287
  0
LINE
  5
3EB
100
AcDbEntity
  8
0
100
AcDbLine
 62
7
  6
CONTINUOUS
 10
9.9658705651
 20
16.8293151883
 11
10.0539933487
 21
16.7411924046
  0
LINE
  5
3EC
100
AcDbEntity
  8
0
100
AcDbLine
 62
7
  6
CONTINUOUS
 10
10.684668046
 20
16.2872944026
 11
10.0447365822
 21
16.9272258664
  0
LINE
  5
3ED
100
AcDbEntity
  8
0
100
AcDbLine
 62
7
  6
CONTINUOUS
 10
13.4068926102
 20
3.7075766965
 11
13.1929065693
 21
3.491750437
  0
LWPOLYLINE
  5
3EE
100
AcDbEntity
  8
0
100
AcDbPolyline
 62
7
  6
CONTINUOUS
 90
12
 70
0
 10
7.5991456196
 20
1.6023731556
 10
7.5934333813
 20
1.6000110533
 10
7.587982
 20
1.5970960008
 10
7.5828452486
 20
1.5936566704
 10
7.5780733822
 20
1.5897267074
 10
7.5737130879
 20
1.5853445584
 10
7.5698070263
 20
1.5805530956
 10
7.5663934132
 20
1.575399196
 10
7.5635056457
 20
1.5699332831
 10
7.5611719756
 20
1.5642088325
 10
7.5594152323
 20
1.5582818473
 10
7.5585930242
 20
1.5543589817
  0
LINE
  5
3EF
100
AcDbEntity
  8
0
100
AcDbLine
 62
7
  6
CONTINUOUS
 10
7.7276545381
 20
14.2812210926
 11
7.7096002712
 21
14.2812210926
  0
LINE
  5
3F0
100
AcDbEntity
  8
0
100
AcDbLine
 62
7
  6
CONTINUOUS
 10
7.8807159682
 20
14.2895641559
 11
7.869184697
 21
14.2895641559
  0
LINE
  5
3F1
100
AcDbEntity
  8
0
100
AcDbLine
 62
7
  6
CONTINUOUS
 10
7.7522092737
 20
14.4768269884
 11
7.7406784966
 21
14.4768269884
  0
LINE
  5
3F2
100
AcDbEntity
  8
0
100
AcDbLine
 62
7
  6
CONTINUOUS
 10
7.6311632337
 20
14.5391168905
 11
7.6196319625
 21
14.5391168905
  0
LINE
  5
3F3
100
AcDbEntity
  8
0
100
AcDbLine
 62
7
  6
CONTINUOUS
 10
7.3628753524
 20
14.6460002785
 11
7.3448210847
 21
14.6460002785
  0
LINE
  5
3F4
100
AcDbEntity
  8
0
100
AcDbLine
 62
7
  6
CONTINUOUS
 10
7.4769270597
 20
14.7521092024
 11
7.4653962826
 21
14.7521092024
  0
LINE
  5
3F5
100
AcDbEntity
  8
0
100
AcDbLine
 62
7
  6
CONTINUOUS
 10
7.4074203729
 20
14.7628597512
 11
7.3958891017
 21
14.7628597512
  0
LINE
  5
3F6
100
AcDbEntity
  8
0
100
AcDbLine
 62
7
  6
CONTINUOUS
 10
7.224735092
 20
14.9455450321
 11
7.2132038209
 21
14.9455450321
  0
LINE
  5
3F7
100
AcDbEntity
  8
0
100
AcDbLine
 62
7
  6
CONTINUOUS
 10
7.2405368634
 20
14.9884993987
 11
7.2290060863
 21
14.9884993987
  0
LINE
  5
3F8
100
AcDbEntity
  8
0
100
AcDbLine
 62
7
  6
CONTINUOUS
 10
7.5219507269
 20
16.0723145401
 11
7.2882964415
 21
16.1620060169
  0
LINE
  5
3F9
100
AcDbEntity
  8
0
100
AcDbLine
 62
7
  6
CONTINUOUS
 10
10.2520590072
 20
17.0691410874
 11
10.3424261057
 21
16.978773989
  0
LINE
  5
3FA
100
AcDbEntity
  8
0
100
AcDbLine
 62
7
  6
CONTINUOUS
 10
10.8198304795
 20
16.5195724259
 11
10.276924509
 21
17.0624783963
  0
LINE
  5
3FB
100
AcDbEntity
  8
0
100
AcDbLine
 62
7
  6
CONTINUOUS
 10
10.8325495029
 20
16.5321112566
 11
10.2895534361
 21
17.0751073234
  0
LINE
  5
3FC
100
AcDbEntity
  8
0
100
AcDbLine
 62
7
  6
CONTINUOUS
 10
10.8574150047
 20
16.5254485655
 11
10.282890745
 21
17.0999728252
  0
LINE
  5
3FD
100
AcDbEntity
  8
0
100
AcDbLine
 62
7
  6
CONTINUOUS
 10
7.0955570911
 20
15.074723033
 11
7.08402582
 21
15.074723033
  0
LINE
  5
3FE
100
AcDbEntity
  8
0
100
AcDbLine
 62
7
  6
CONTINUOUS
 10
7.0591482861
 20
15.169887976
 11
7.047617509
 21
15.169887976
  0
LINE
  5
3FF
100
AcDbEntity
  8
0
100
AcDbLine
 62
7
  6
CONTINUOUS
 10
6.9451226596
 20
15.2839136026
 11
6.9335918824
 21
15.2839136026
  0
LINE
  5
400
100
AcDbEntity
  8
0
100
AcDbLine
 62
9
  6
CONTINUOUS
 10
11.634717873
 20
17.3027514337
 11
11.0601936133
 21
17.8772756934
  0
LINE
  5
401
100
AcDbEntity
  8
0
100
AcDbLine
 62
7
  6
CONTINUOUS
 10
10.6950527725
 20
16.3637392601
 11
10.6957565604
 21
16.3637901212
  0
LINE
  5
402
100
AcDbEntity
  8
0
100
AcDbLine
 62
7
  6
CONTINUOUS
 10
10.744800549
 20
16.4134816387
 11
10.7454985407
 21
16.4135321015
  0
LINE
  5
403
100
AcDbEntity
  8
0
100
AcDbLine
 62
7
  6
CONTINUOUS
 10
10.7945504245
 20
16.4632382566
 11
10.7952556574
 21
16.4632892182
  0
LINE
  5
404
100
AcDbEntity
  8
0
100
AcDbLine
 62
7
  6
CONTINUOUS
 10
10.3239532704
 20
16.0044516036
 11
10.2506371056
 21
16.0044516036
  0
LINE
  5
405
100
AcDbEntity
  8
0
100
AcDbLine
 62
7
  6
CONTINUOUS
 10
10.6633257553
 20
16.3722224855
 11
10.6950527724
 21
16.3637392601
  0
LINE
  5
406
100
AcDbEntity
  8
0
100
AcDbLine
 62
7
  6
CONTINUOUS
 10
10.7151678523
 20
16.4214051021
 11
10.7448005487
 21
16.4134816384
  0
LINE
  5
407
100
AcDbEntity
  8
0
100
AcDbLine
 62
7
  6
CONTINUOUS
 10
10.7669796521
 20
16.4706102984
 11
10.7945504245
 21
16.4632382566
  0
LINE
  5
408
100
AcDbEntity
  8
0
100
AcDbLine
 62
7
  6
CONTINUOUS
 10
10.8188336664
 20
16.5197783894
 11
10.8196468135
 21
16.5195609881
  0
LINE
  5
409
100
AcDbEntity
  8
0
100
AcDbLine
 62
7
  6
CONTINUOUS
 10
10.8325495029
 20
16.5321112566
 11
10.8574150047
 21
16.5254485655
  0
LINE
  5
40A
100
AcDbEntity
  8
0
100
AcDbLine
 62
7
  6
CONTINUOUS
 10
10.1117331379
 20
16.928126267
 11
10.1109905794
 21
16.9280726596
  0
LINE
  5
40B
100
AcDbEntity
  8
0
100
AcDbLine
 62
7
  6
CONTINUOUS
 10
10.1631064505
 20
16.9794963977
 11
10.1623603752
 21
16.9794424553
  0
LINE
  5
40C
100
AcDbEntity
  8
0
100
AcDbLine
 62
7
  6
CONTINUOUS
 10
10.2143489372
 20
17.0307363381
 11
10.2136001223
 21
17.0306822024
  0
LINE
  5
40D
100
AcDbEntity
  8
0
100
AcDbLine
 62
7
  6
CONTINUOUS
 10
10.8198304795
 20
16.5195724259
 11
10.8196468135
 21
16.5195609881
  0
LINE
  5
40E
100
AcDbEntity
  8
0
100
AcDbLine
 62
7
  6
CONTINUOUS
 10
14.602719363
 20
16.9125766965
 11
14.8348926102
 21
16.9125766965
  0
LINE
  5
40F
100
AcDbEntity
  8
0
100
AcDbLine
 62
7
  6
CONTINUOUS
 10
10.1425916684
 20
16.919876188
 11
10.1117331376
 21
16.9281262667
  0
LINE
  5
410
100
AcDbEntity
  8
0
100
AcDbLine
 62
7
  6
CONTINUOUS
 10
10.1916051765
 20
16.9718772001
 11
10.1631064506
 21
16.9794963978
  0
LINE
  5
411
100
AcDbEntity
  8
0
100
AcDbLine
 62
7
  6
CONTINUOUS
 10
10.2408446414
 20
17.0236526367
 11
10.2143489372
 21
17.0307363381
  0
LINE
  5
412
100
AcDbEntity
  8
0
100
AcDbLine
 62
7
  6
CONTINUOUS
 10
10.2520590072
 20
17.0691410874
 11
10.276924509
 21
17.0624783963
  0
LINE
  5
413
100
AcDbEntity
  8
0
100
AcDbLine
 62
7
  6
CONTINUOUS
 10
14.4180355079
 20
17.6963266965
 11
12.5848926102
 21
17.6963266965
  0
LINE
  5
414
100
AcDbEntity
  8
0
100
AcDbLine
 62
7
  6
CONTINUOUS
 10
14.4180355079
 20
18.5088266965
 11
12.5848926102
 21
18.5088266965
  0
LINE
  5
415
100
AcDbEntity
  8
0
100
AcDbLine
 62
7
  6
CONTINUOUS
 10
14.602719363
 20
19.2925766965
 11
14.8348926102
 21
19.2925766965
  0
ARC
  5
416
100
AcDbEntity
  8
0
100
AcDbCircle
 62
7
  6
CONTINUOUS
 10
10.3422559348
 20
-6.0073887628
 40
8.0884583183
100
AcDbArc
 50
105.2151806385
 51
106.3240028189
  0
ARC
  5
417
100
AcDbEntity
  8
0
100
AcDbCircle
 62
7
  6
CONTINUOUS
 10
10.035658126
 20
-4.248384813
 40
6.2984615109
100
AcDbArc
 50
90.0069637358
 51
92.1012870503
  0
ARC
  5
418
100
AcDbEntity
  8
0
100
AcDbCircle
 62
7
  6
CONTINUOUS
 10
9.0471969639
 20
-4.7881721312
 40
5.5764162223
100
AcDbArc
 50
79.7980134222
 51
80.0003803942
  0
ARC
  5
419
100
AcDbEntity
  8
0
100
AcDbCircle
 62
9
  6
CONTINUOUS
 10
9.1286130911
 20
-4.5139412833
 40
5.4451264785
100
AcDbArc
 50
80.2062285397
 51
80.4191810241
  0
ARC
  5
41A
100
AcDbEntity
  8
0
100
AcDbCircle
 62
7
  6
CONTINUOUS
 10
11.9358926102
 20
3.3405766965
 40
0.3125
100
AcDbArc
 50
194.539847615
 51
345.460152385
  0
ARC
  5
41B
100
AcDbEntity
  8
0
100
AcDbCircle
 62
7
  6
CONTINUOUS
 10
9.0312744385
 20
0.5373397535
 40
0.2519100599
100
AcDbArc
 50
167.4227177574
 51
169.2033879987
  0
ARC
  5
41C
100
AcDbEntity
  8
0
100
AcDbCircle
 62
7
  6
CONTINUOUS
 10
9.0311239757
 20
0.537374931
 40
0.2517555511
100
AcDbArc
 50
165.7523497281
 51
167.4229721721
  0
ARC
  5
41D
100
AcDbEntity
  8
0
100
AcDbCircle
 62
7
  6
CONTINUOUS
 10
11.6760929572
 20
6.4900766965
 40
0.03
100
AcDbArc
 50
70.9043343386
 51
165.2369687319
  0
ARC
  5
41E
100
AcDbEntity
  8
0
100
AcDbCircle
 62
7
  6
CONTINUOUS
 10
11.6760929572
 20
5.7150766965
 40
0.03
100
AcDbArc
 50
194.7630312681
 51
289.0956656614
  0
ARC
  5
41F
100
AcDbEntity
  8
0
100
AcDbCircle
 62
7
  6
CONTINUOUS
 10
6.3970267925
 20
14.6864219711
 40
0.8357840233
100
AcDbArc
 50
35.7621895085
 51
35.8938228853
  0
ARC
  5
420
100
AcDbEntity
  8
0
100
AcDbCircle
 62
7
  6
CONTINUOUS
 10
7.1514533893
 20
15.097268757
 40
0.0196850394
100
AcDbArc
 50
135.0
 51
180.0024588136
  0
ARC
  5
421
100
AcDbEntity
  8
0
100
AcDbCircle
 62
7
  6
CONTINUOUS
 10
7.1514533893
 20
15.0857375279
 40
0.0196850394
100
AcDbArc
 50
180.0011432902
 51
225.0012648396
  0
ARC
  5
422
100
AcDbEntity
  8
0
100
AcDbCircle
 62
7
  6
CONTINUOUS
 10
7.1523544969
 20
15.0376110806
 40
0.0196850394
100
AcDbArc
 50
135.0
 51
180.001204796
  0
ARC
  5
423
100
AcDbEntity
  8
0
100
AcDbCircle
 62
7
  6
CONTINUOUS
 10
7.1523544969
 20
15.0260798515
 40
0.0196850394
100
AcDbArc
 50
180.0013272051
 51
225.004198029
  0
ARC
  5
424
100
AcDbEntity
  8
0
100
AcDbCircle
 62
7
  6
CONTINUOUS
 10
7.084026276
 20
15.0944080724
 40
0.0196850394
100
AcDbArc
 50
224.9940651183
 51
269.998672795
  0
ARC
  5
425
100
AcDbEntity
  8
0
100
AcDbCircle
 62
7
  6
CONTINUOUS
 10
7.095557505
 20
15.0944080724
 40
0.0196850394
100
AcDbArc
 50
269.9987952045
 51
315.0
  0
ARC
  5
426
100
AcDbEntity
  8
0
100
AcDbCircle
 62
7
  6
CONTINUOUS
 10
7.0644132658
 20
15.0899805612
 40
0.0078740157
100
AcDbArc
 50
155.0083034809
 51
214.8534612382
  0
ARC
  5
427
100
AcDbEntity
  8
0
100
AcDbCircle
 62
7
  6
CONTINUOUS
 10
7.4291193639
 20
14.4475587892
 40
0.2681739687
100
AcDbArc
 50
34.6444442475
 51
34.9346001285
  0
ARC
  5
428
100
AcDbEntity
  8
0
100
AcDbCircle
 62
9
  6
CONTINUOUS
 10
7.786532249
 20
14.3472396688
 40
0.0608907228
100
AcDbArc
 50
236.2791099104
 51
237.1449136809
  0
ARC
  5
429
100
AcDbEntity
  8
0
100
AcDbCircle
 62
9
  6
CONTINUOUS
 10
7.9376252815
 20
14.1959234703
 40
0.0592214846
100
AcDbArc
 50
238.5685743342
 51
239.8841658836
  0
ARC
  5
42A
100
AcDbEntity
  8
0
100
AcDbCircle
 62
9
  6
CONTINUOUS
 10
7.8537186471
 20
14.2800737291
 40
0.0581461158
100
AcDbArc
 50
209.0178483576
 51
210.3008416231
  0
ARC
  5
42B
100
AcDbEntity
  8
0
100
AcDbCircle
 62
9
  6
CONTINUOUS
 10
7.9335350935
 20
14.1889345721
 40
0.0511237568
100
AcDbArc
 50
239.9193416998
 51
240.2624041713
  0
ARC
  5
42C
100
AcDbEntity
  8
0
100
AcDbCircle
 62
9
  6
CONTINUOUS
 10
7.8452755159
 20
14.2754003086
 40
0.0484958708
100
AcDbArc
 50
207.9478722171
 51
209.028306352
  0
ARC
  5
42D
100
AcDbEntity
  8
0
100
AcDbCircle
 62
7
  6
CONTINUOUS
 10
7.7522101185
 20
14.4965120278
 40
0.0196850394
100
AcDbArc
 50
269.9975411861
 51
315.0
  0
ARC
  5
42E
100
AcDbEntity
  8
0
100
AcDbCircle
 62
7
  6
CONTINUOUS
 10
7.7406788894
 20
14.4965120278
 40
0.0196850394
100
AcDbArc
 50
224.9956172817
 51
269.9988567095
  0
ARC
  5
42F
100
AcDbEntity
  8
0
100
AcDbCircle
 62
7
  6
CONTINUOUS
 10
7.869185153
 20
14.3092491953
 40
0.0196850394
100
AcDbArc
 50
224.9972613017
 51
269.9986727883
  0
ARC
  5
430
100
AcDbEntity
  8
0
100
AcDbCircle
 62
7
  6
CONTINUOUS
 10
7.8807163821
 20
14.3092491953
 40
0.0196850394
100
AcDbArc
 50
269.9987952044
 51
315.0
  0
ARC
  5
431
100
AcDbEntity
  8
0
100
AcDbCircle
 62
7
  6
CONTINUOUS
 10
7.808335373
 20
14.3816302044
 40
0.0196850394
100
AcDbArc
 50
135.0
 51
180.0012047956
  0
ARC
  5
432
100
AcDbEntity
  8
0
100
AcDbCircle
 62
7
  6
CONTINUOUS
 10
7.808335373
 20
14.3700989753
 40
0.0196850394
100
AcDbArc
 50
180.0013272117
 51
225.0027386983
  0
ARC
  5
433
100
AcDbEntity
  8
0
100
AcDbCircle
 62
7
  6
CONTINUOUS
 10
7.8217584545
 20
14.0154484097
 40
0.0196850394
100
AcDbArc
 50
359.9975750786
 51
44.9960818716
  0
ARC
  5
434
100
AcDbEntity
  8
0
100
AcDbCircle
 62
7
  6
CONTINUOUS
 10
7.8611285333
 20
14.0039171807
 40
0.0196850394
100
AcDbArc
 50
180.0025651318
 51
225.0042592417
  0
ARC
  5
435
100
AcDbEntity
  8
0
100
AcDbCircle
 62
7
  6
CONTINUOUS
 10
7.7613593602
 20
14.1036863537
 40
0.0196850394
100
AcDbArc
 50
224.9957979524
 51
269.9974348102
  0
ARC
  5
436
100
AcDbEntity
  8
0
100
AcDbCircle
 62
7
  6
CONTINUOUS
 10
7.7728905893
 20
14.064316275
 40
0.0196850394
100
AcDbArc
 50
45.00392895
 51
90.0024317524
  0
ARC
  5
437
100
AcDbEntity
  8
0
100
AcDbCircle
 62
7
  6
CONTINUOUS
 10
7.5692712976
 20
14.2679355667
 40
0.0196850394
100
AcDbArc
 50
359.9975682479
 51
44.9960710504
  0
ARC
  5
438
100
AcDbEntity
  8
0
100
AcDbCircle
 62
7
  6
CONTINUOUS
 10
7.6086413763
 20
14.2564043376
 40
0.0196850394
100
AcDbArc
 50
180.0025651901
 51
225.0042020481
  0
ARC
  5
439
100
AcDbEntity
  8
0
100
AcDbCircle
 62
7
  6
CONTINUOUS
 10
7.5828239793
 20
14.2822217346
 40
0.0196850394
100
AcDbArc
 50
224.985816859
 51
269.9974348681
  0
ARC
  5
43A
100
AcDbEntity
  8
0
100
AcDbCircle
 62
7
  6
CONTINUOUS
 10
7.3907359167
 20
14.4464709475
 40
0.0196850394
100
AcDbArc
 50
359.9975750784
 51
44.9960818714
  0
ARC
  5
43B
100
AcDbEntity
  8
0
100
AcDbCircle
 62
7
  6
CONTINUOUS
 10
7.4301059955
 20
14.4349397185
 40
0.0196850394
100
AcDbArc
 50
180.0025651318
 51
225.0141831409
  0
ARC
  5
43C
100
AcDbEntity
  8
0
100
AcDbCircle
 62
7
  6
CONTINUOUS
 10
7.370154563
 20
14.5227300006
 40
0.0196850394
100
AcDbArc
 50
155.0000948195
 51
225.0001398038
  0
ARC
  5
43D
100
AcDbEntity
  8
0
100
AcDbCircle
 62
7
  6
CONTINUOUS
 10
7.8625315928
 20
14.1401008462
 40
0.0118110236
100
AcDbArc
 50
224.995165905
 51
269.999746835
  0
ARC
  5
43E
100
AcDbEntity
  8
0
100
AcDbCircle
 62
7
  6
CONTINUOUS
 10
7.8805858701
 20
14.1401008462
 40
0.0118110236
100
AcDbArc
 50
269.9997000112
 51
315.0
  0
ARC
  5
43F
100
AcDbEntity
  8
0
100
AcDbCircle
 62
7
  6
CONTINUOUS
 10
7.7970693211
 20
14.2236173952
 40
0.0118110236
100
AcDbArc
 50
135.0
 51
180.0002999888
  0
ARC
  5
440
100
AcDbEntity
  8
0
100
AcDbCircle
 62
7
  6
CONTINUOUS
 10
7.7970693211
 20
14.2055631179
 40
0.0118110236
100
AcDbArc
 50
180.0002531649
 51
225.0048340949
  0
ARC
  5
441
100
AcDbEntity
  8
0
100
AcDbCircle
 62
7
  6
CONTINUOUS
 10
7.7096003227
 20
14.2930321163
 40
0.0118110236
100
AcDbArc
 50
224.9932910336
 51
269.9997499651
  0
ARC
  5
442
100
AcDbEntity
  8
0
100
AcDbCircle
 62
7
  6
CONTINUOUS
 10
7.7276546001
 20
14.2930321163
 40
0.0118110236
100
AcDbArc
 50
269.9996996385
 51
315.0
  0
ARC
  5
443
100
AcDbEntity
  8
0
100
AcDbCircle
 62
7
  6
CONTINUOUS
 10
7.6441380511
 20
14.3765486652
 40
0.0118110236
100
AcDbArc
 50
135.0
 51
180.0003003629
  0
ARC
  5
444
100
AcDbEntity
  8
0
100
AcDbCircle
 62
7
  6
CONTINUOUS
 10
7.6441380511
 20
14.3584943879
 40
0.0118110236
100
AcDbArc
 50
180.0002500349
 51
225.0067089664
  0
ARC
  5
445
100
AcDbEntity
  8
0
100
AcDbCircle
 62
7
  6
CONTINUOUS
 10
7.2034262988
 20
14.712007314
 40
0.2419191306
100
AcDbArc
 50
43.7114637366
 51
44.9889439813
  0
ARC
  5
446
100
AcDbEntity
  8
0
100
AcDbCircle
 62
7
  6
CONTINUOUS
 10
7.3516965851
 20
14.6228830531
 40
0.0393700787
100
AcDbArc
 50
334.9999170495
 51
39.208519173
  0
ARC
  5
447
100
AcDbEntity
  8
0
100
AcDbCircle
 62
7
  6
CONTINUOUS
 10
7.6631257996
 20
14.5855963466
 40
0.0196850394
100
AcDbArc
 50
135.0
 51
180.0024588139
  0
ARC
  5
448
100
AcDbEntity
  8
0
100
AcDbCircle
 62
7
  6
CONTINUOUS
 10
7.6631257996
 20
14.5740651176
 40
0.0196850394
100
AcDbArc
 50
180.0011432895
 51
225.0043827168
  0
ARC
  5
449
100
AcDbEntity
  8
0
100
AcDbCircle
 62
7
  6
CONTINUOUS
 10
7.4769279045
 20
14.7717942418
 40
0.0196850394
100
AcDbArc
 50
269.9975411859
 51
315.0
  0
ARC
  5
44A
100
AcDbEntity
  8
0
100
AcDbCircle
 62
7
  6
CONTINUOUS
 10
7.3878435856
 20
14.8608785607
 40
0.0196850394
100
AcDbArc
 50
135.0
 51
180.0024588141
  0
ARC
  5
44B
100
AcDbEntity
  8
0
100
AcDbCircle
 62
7
  6
CONTINUOUS
 10
7.3878435856
 20
14.8493473316
 40
0.0196850394
100
AcDbArc
 50
180.00114329
 51
225.0021629974
  0
ARC
  5
44C
100
AcDbEntity
  8
0
100
AcDbCircle
 62
7
  6
CONTINUOUS
 10
7.4653966754
 20
14.7717942418
 40
0.0196850394
100
AcDbArc
 50
224.9978370026
 51
269.99885671
  0
ARC
  5
44D
100
AcDbEntity
  8
0
100
AcDbCircle
 62
7
  6
CONTINUOUS
 10
7.2405377082
 20
15.0081844381
 40
0.0196850394
100
AcDbArc
 50
269.9975411859
 51
315.0
  0
ARC
  5
44E
100
AcDbEntity
  8
0
100
AcDbCircle
 62
7
  6
CONTINUOUS
 10
7.2290064791
 20
15.0081844381
 40
0.0196850394
100
AcDbArc
 50
224.9987351605
 51
269.9988567098
  0
ARC
  5
44F
100
AcDbEntity
  8
0
100
AcDbCircle
 62
7
  6
CONTINUOUS
 10
7.224735506
 20
14.9652300715
 40
0.0196850394
100
AcDbArc
 50
269.9987952046
 51
315.0
  0
ARC
  5
450
100
AcDbEntity
  8
0
100
AcDbCircle
 62
7
  6
CONTINUOUS
 10
7.2132042769
 20
14.9652300715
 40
0.0196850394
100
AcDbArc
 50
224.995801971
 51
269.9986727949
  0
ARC
  5
451
100
AcDbEntity
  8
0
100
AcDbCircle
 62
7
  6
CONTINUOUS
 10
7.5587826385
 20
14.6311829389
 40
0.0196850394
100
AcDbArc
 50
135.0
 51
180.0012047948
  0
ARC
  5
452
100
AcDbEntity
  8
0
100
AcDbCircle
 62
7
  6
CONTINUOUS
 10
7.6311636476
 20
14.5588019298
 40
0.0196850394
100
AcDbArc
 50
269.9987952044
 51
315.0
  0
ARC
  5
453
100
AcDbEntity
  8
0
100
AcDbCircle
 62
7
  6
CONTINUOUS
 10
7.6196324185
 20
14.5588019298
 40
0.0196850394
100
AcDbArc
 50
224.9955585911
 51
269.998672795
  0
ARC
  5
454
100
AcDbEntity
  8
0
100
AcDbCircle
 62
7
  6
CONTINUOUS
 10
7.5587826385
 20
14.6196517098
 40
0.0196850394
100
AcDbArc
 50
180.0013272057
 51
225.0044414099
  0
ARC
  5
455
100
AcDbEntity
  8
0
100
AcDbCircle
 62
7
  6
CONTINUOUS
 10
7.3958895577
 20
14.7825447906
 40
0.0196850394
100
AcDbArc
 50
224.9974067548
 51
269.9986727948
  0
ARC
  5
456
100
AcDbEntity
  8
0
100
AcDbCircle
 62
7
  6
CONTINUOUS
 10
7.4074207868
 20
14.7825447906
 40
0.0196850394
100
AcDbArc
 50
269.9987952051
 51
315.0
  0
ARC
  5
457
100
AcDbEntity
  8
0
100
AcDbCircle
 62
7
  6
CONTINUOUS
 10
7.3350397777
 20
14.8549257997
 40
0.0196850394
100
AcDbArc
 50
135.0
 51
180.0012047956
  0
ARC
  5
458
100
AcDbEntity
  8
0
100
AcDbCircle
 62
7
  6
CONTINUOUS
 10
7.3350397777
 20
14.8433945706
 40
0.0196850394
100
AcDbArc
 50
180.0013272052
 51
225.0025932452
  0
ARC
  5
459
100
AcDbEntity
  8
0
100
AcDbCircle
 62
7
  6
CONTINUOUS
 10
7.390616517
 20
14.612015922
 40
0.0118110236
100
AcDbArc
 50
180.0002531639
 51
225.0000316395
  0
ARC
  5
45A
100
AcDbEntity
  8
0
100
AcDbCircle
 62
7
  6
CONTINUOUS
 10
7.390616517
 20
14.6300701993
 40
0.0118110236
100
AcDbArc
 50
135.0
 51
180.0002999894
  0
ARC
  5
45B
100
AcDbEntity
  8
0
100
AcDbCircle
 62
7
  6
CONTINUOUS
 10
7.224703993
 20
14.7959827234
 40
0.0118110236
100
AcDbArc
 50
135.0
 51
180.0002999879
  0
ARC
  5
45C
100
AcDbEntity
  8
0
100
AcDbCircle
 62
7
  6
CONTINUOUS
 10
7.224703993
 20
14.777928446
 40
0.0118110236
100
AcDbArc
 50
180.0002531652
 51
224.9682537453
  0
ARC
  5
45D
100
AcDbEntity
  8
0
100
AcDbCircle
 62
7
  6
CONTINUOUS
 10
7.2070370118
 20
14.7955954272
 40
0.0118110236
100
AcDbArc
 50
180.0002531643
 51
224.9941552452
  0
ARC
  5
45E
100
AcDbEntity
  8
0
100
AcDbCircle
 62
7
  6
CONTINUOUS
 10
7.2070370118
 20
14.8136497045
 40
0.0118110236
100
AcDbArc
 50
135.0
 51
180.0002999892
  0
ARC
  5
45F
100
AcDbEntity
  8
0
100
AcDbCircle
 62
7
  6
CONTINUOUS
 10
7.3448211369
 20
14.6578113021
 40
0.0118110236
100
AcDbArc
 50
224.981210055
 51
269.9997468346
  0
ARC
  5
460
100
AcDbEntity
  8
0
100
AcDbCircle
 62
7
  6
CONTINUOUS
 10
7.3628754142
 20
14.6578113021
 40
0.0118110236
100
AcDbArc
 50
269.9997000108
 51
315.0
  0
ARC
  5
461
100
AcDbEntity
  8
0
100
AcDbCircle
 62
7
  6
CONTINUOUS
 10
7.2793588653
 20
14.7413278511
 40
0.0118110236
100
AcDbArc
 50
135.0
 51
180.0002999885
  0
ARC
  5
462
100
AcDbEntity
  8
0
100
AcDbCircle
 62
7
  6
CONTINUOUS
 10
7.2793588653
 20
14.7232735737
 40
0.0118110236
100
AcDbArc
 50
180.0002531654
 51
225.018789945
  0
ARC
  5
463
100
AcDbEntity
  8
0
100
AcDbCircle
 62
7
  6
CONTINUOUS
 10
8.4414599814
 20
12.636254706
 40
0.8398911254
100
AcDbArc
 50
54.106470968
 51
54.2414654113
  0
ARC
  5
464
100
AcDbEntity
  8
0
100
AcDbCircle
 62
7
  6
CONTINUOUS
 10
8.205911992
 20
13.6729889065
 40
0.2665769204
100
AcDbArc
 50
55.0759971673
 51
55.3561828505
  0
ARC
  5
465
100
AcDbEntity
  8
0
100
AcDbCircle
 62
7
  6
CONTINUOUS
 10
8.4638424546
 20
13.4402484317
 40
0.2499396828
100
AcDbArc
 50
45.0315546593
 51
46.2679995612
  0
ARC
  5
466
100
AcDbEntity
  8
0
100
AcDbCircle
 62
9
  6
CONTINUOUS
 10
8.4041630098
 20
13.720469461
 40
0.0561799466
100
AcDbArc
 50
219.8384449098
 51
220.8122610715
  0
ARC
  5
467
100
AcDbEntity
  8
0
100
AcDbCircle
 62
7
  6
CONTINUOUS
 10
8.6183207402
 20
13.630401406
 40
0.0196850394
100
AcDbArc
 50
269.9975411864
 51
315.0
  0
ARC
  5
468
100
AcDbEntity
  8
0
100
AcDbCircle
 62
7
  6
CONTINUOUS
 10
8.5292364213
 20
13.7194857249
 40
0.0196850394
100
AcDbArc
 50
135.0
 51
180.0024588143
  0
ARC
  5
469
100
AcDbEntity
  8
0
100
AcDbCircle
 62
7
  6
CONTINUOUS
 10
8.5292364213
 20
13.7079544958
 40
0.0196850394
100
AcDbArc
 50
180.0011432902
 51
225.0020841976
  0
ARC
  5
46A
100
AcDbEntity
  8
0
100
AcDbCircle
 62
7
  6
CONTINUOUS
 10
8.6067895111
 20
13.630401406
 40
0.0196850394
100
AcDbArc
 50
224.9979158025
 51
269.9988567098
  0
ARC
  5
46B
100
AcDbEntity
  8
0
100
AcDbCircle
 62
7
  6
CONTINUOUS
 10
8.5399869702
 20
13.6499786073
 40
0.0196850394
100
AcDbArc
 50
135.0
 51
180.0012047959
  0
ARC
  5
46C
100
AcDbEntity
  8
0
100
AcDbCircle
 62
7
  6
CONTINUOUS
 10
8.6123679793
 20
13.5775975982
 40
0.0196850394
100
AcDbArc
 50
269.9987952047
 51
315.0
  0
ARC
  5
46D
100
AcDbEntity
  8
0
100
AcDbCircle
 62
7
  6
CONTINUOUS
 10
8.6008367502
 20
13.5775975982
 40
0.0196850394
100
AcDbArc
 50
224.9976016178
 51
269.998672795
  0
ARC
  5
46E
100
AcDbEntity
  8
0
100
AcDbCircle
 62
7
  6
CONTINUOUS
 10
8.5399869702
 20
13.6384473782
 40
0.0196850394
100
AcDbArc
 50
180.0013272051
 51
225.0023983822
  0
ARC
  5
46F
100
AcDbEntity
  8
0
100
AcDbCircle
 62
7
  6
CONTINUOUS
 10
8.3770938894
 20
13.801340459
 40
0.0196850394
100
AcDbArc
 50
224.9955109889
 51
269.998672795
  0
ARC
  5
470
100
AcDbEntity
  8
0
100
AcDbCircle
 62
7
  6
CONTINUOUS
 10
8.3886251185
 20
13.801340459
 40
0.0196850394
100
AcDbArc
 50
269.9987952045
 51
315.0
  0
ARC
  5
471
100
AcDbEntity
  8
0
100
AcDbCircle
 62
7
  6
CONTINUOUS
 10
8.722672251
 20
13.4672933264
 40
0.0196850394
100
AcDbArc
 50
135.0
 51
180.0012047956
  0
ARC
  5
472
100
AcDbEntity
  8
0
100
AcDbCircle
 62
7
  6
CONTINUOUS
 10
8.722672251
 20
13.4557620973
 40
0.0196850394
100
AcDbArc
 50
180.0013272053
 51
225.0037160661
  0
ARC
  5
473
100
AcDbEntity
  8
0
100
AcDbCircle
 62
7
  6
CONTINUOUS
 10
8.0253777462
 20
13.8118291181
 40
0.0196850394
100
AcDbArc
 50
45.0039181287
 51
90.0024249216
  0
ARC
  5
474
100
AcDbEntity
  8
0
100
AcDbCircle
 62
7
  6
CONTINUOUS
 10
8.192381898
 20
13.6726638159
 40
0.0196850394
100
AcDbArc
 50
224.9862269639
 51
269.9974348102
  0
ARC
  5
475
100
AcDbEntity
  8
0
100
AcDbCircle
 62
7
  6
CONTINUOUS
 10
8.2039131271
 20
13.6332937372
 40
0.0196850394
100
AcDbArc
 50
45.00392895
 51
90.0024317524
  0
ARC
  5
476
100
AcDbEntity
  8
0
100
AcDbCircle
 62
7
  6
CONTINUOUS
 10
8.2801721801
 20
13.6127123835
 40
0.0196850394
100
AcDbArc
 50
224.9998601962
 51
294.9999051805
  0
ARC
  5
477
100
AcDbEntity
  8
0
100
AcDbCircle
 62
7
  6
CONTINUOUS
 10
8.4274728017
 20
13.5751596374
 40
0.0118110236
100
AcDbArc
 50
224.9929414609
 51
269.9997466605
  0
ARC
  5
478
100
AcDbEntity
  8
0
100
AcDbCircle
 62
7
  6
CONTINUOUS
 10
8.445527079
 20
13.5751596374
 40
0.0118110236
100
AcDbArc
 50
269.9997000109
 51
315.0
  0
ARC
  5
479
100
AcDbEntity
  8
0
100
AcDbCircle
 62
7
  6
CONTINUOUS
 10
8.36201053
 20
13.6586761863
 40
0.0118110236
100
AcDbArc
 50
135.0
 51
180.0002999879
  0
ARC
  5
47A
100
AcDbEntity
  8
0
100
AcDbCircle
 62
7
  6
CONTINUOUS
 10
8.36201053
 20
13.640621909
 40
0.0118110236
100
AcDbArc
 50
180.0002533395
 51
225.0070585391
  0
ARC
  5
47B
100
AcDbEntity
  8
0
100
AcDbCircle
 62
7
  6
CONTINUOUS
 10
8.5460289154
 20
13.4566035236
 40
0.0118110236
100
AcDbArc
 50
225.0460487603
 51
269.9997468347
  0
ARC
  5
47C
100
AcDbEntity
  8
0
100
AcDbCircle
 62
7
  6
CONTINUOUS
 10
8.5640831927
 20
13.4566035236
 40
0.0118110236
100
AcDbArc
 50
269.9996999689
 51
315.0
  0
ARC
  5
47D
100
AcDbEntity
  8
0
100
AcDbCircle
 62
7
  6
CONTINUOUS
 10
8.5043225434
 20
13.4983098956
 40
0.0118110236
100
AcDbArc
 50
224.9908363981
 51
269.9997472495
  0
ARC
  5
47E
100
AcDbEntity
  8
0
100
AcDbCircle
 62
7
  6
CONTINUOUS
 10
8.5223768207
 20
13.4983098956
 40
0.0118110236
100
AcDbArc
 50
269.9997000847
 51
315.0
  0
ARC
  5
47F
100
AcDbEntity
  8
0
100
AcDbCircle
 62
7
  6
CONTINUOUS
 10
8.4388602717
 20
13.5637721673
 40
0.0118110236
100
AcDbArc
 50
182.2118776447
 51
225.0091636018
  0
ARC
  5
480
100
AcDbEntity
  8
0
100
AcDbCircle
 62
7
  6
CONTINUOUS
 10
8.434041354
 20
13.5685910851
 40
0.0118110236
100
AcDbArc
 50
224.9900045303
 51
241.7896842303
  0
ARC
  5
481
100
AcDbEntity
  8
0
100
AcDbCircle
 62
7
  6
CONTINUOUS
 10
9.4810821107
 20
13.0881569404
 40
0.5118110236
100
AcDbArc
 50
169.7373564444
 51
249.6710480593
  0
ARC
  5
482
100
AcDbEntity
  8
0
100
AcDbCircle
 62
7
  6
CONTINUOUS
 10
9.0751070636
 20
12.548253499
 40
0.4724409449
100
AcDbArc
 50
34.4249168973
 51
56.7360171921
  0
ARC
  5
483
100
AcDbEntity
  8
0
100
AcDbCircle
 62
9
  6
CONTINUOUS
 10
9.4807079693
 20
13.0877662115
 40
0.4449234915
100
AcDbArc
 50
169.6239513331
 51
249.6673525545
  0
ARC
  5
484
100
AcDbEntity
  8
0
100
AcDbCircle
 62
7
  6
CONTINUOUS
 10
9.3511454759
 20
12.737437322
 40
0.1377952756
100
AcDbArc
 50
249.6710480599
 51
34.4249168912
  0
ARC
  5
485
100
AcDbEntity
  8
0
100
AcDbCircle
 62
7
  6
CONTINUOUS
 10
9.1501251404
 20
13.0985970059
 40
0.0196850394
100
AcDbArc
 50
269.9975411861
 51
315.0
  0
ARC
  5
486
100
AcDbEntity
  8
0
100
AcDbCircle
 62
7
  6
CONTINUOUS
 10
9.0610408215
 20
13.1761500957
 40
0.0196850394
100
AcDbArc
 50
180.0011432895
 51
224.9843631221
  0
ARC
  5
487
100
AcDbEntity
  8
0
100
AcDbCircle
 62
7
  6
CONTINUOUS
 10
9.1385939113
 20
13.0985970059
 40
0.0196850394
100
AcDbArc
 50
225.0156368764
 51
269.9988567094
  0
ARC
  5
488
100
AcDbEntity
  8
0
100
AcDbCircle
 62
9
  6
CONTINUOUS
 10
9.2805709029
 20
13.0288743444
 40
0.0080179026
100
AcDbArc
 50
225.0039089866
 51
239.160553402
  0
ARC
  5
489
100
AcDbEntity
  8
0
100
AcDbCircle
 62
7
  6
CONTINUOUS
 10
9.0610408215
 20
13.1876813248
 40
0.0196850394
100
AcDbArc
 50
161.1249009772
 51
180.0024588139
  0
ARC
  5
48A
100
AcDbEntity
  8
0
100
AcDbCircle
 62
7
  6
CONTINUOUS
 10
9.0360995138
 20
13.2126226324
 40
0.0196850394
100
AcDbArc
 50
269.9975411858
 51
315.0
  0
ARC
  5
48B
100
AcDbEntity
  8
0
100
AcDbCircle
 62
7
  6
CONTINUOUS
 10
8.9470151949
 20
13.3017069513
 40
0.0196850394
100
AcDbArc
 50
135.0
 51
180.0024588142
  0
ARC
  5
48C
100
AcDbEntity
  8
0
100
AcDbCircle
 62
7
  6
CONTINUOUS
 10
8.9470151949
 20
13.2901757222
 40
0.0196850394
100
AcDbArc
 50
180.00114329
 51
225.0138384435
  0
ARC
  5
48D
100
AcDbEntity
  8
0
100
AcDbCircle
 62
7
  6
CONTINUOUS
 10
9.0245682847
 20
13.2126226324
 40
0.0196850394
100
AcDbArc
 50
224.9861615565
 51
269.99885671
  0
ARC
  5
48E
100
AcDbEntity
  8
0
100
AcDbCircle
 62
7
  6
CONTINUOUS
 10
8.8547109365
 20
13.3940112097
 40
0.0196850394
100
AcDbArc
 50
269.9975411859
 51
315.0
  0
ARC
  5
48F
100
AcDbEntity
  8
0
100
AcDbCircle
 62
7
  6
CONTINUOUS
 10
8.7656266176
 20
13.4830955286
 40
0.0196850394
100
AcDbArc
 50
135.0
 51
180.0024588136
  0
ARC
  5
490
100
AcDbEntity
  8
0
100
AcDbCircle
 62
7
  6
CONTINUOUS
 10
8.7656266176
 20
13.4715642995
 40
0.0196850394
100
AcDbArc
 50
180.0011432902
 51
225.0011603991
  0
ARC
  5
491
100
AcDbEntity
  8
0
100
AcDbCircle
 62
7
  6
CONTINUOUS
 10
8.8431797074
 20
13.3940112097
 40
0.0196850394
100
AcDbArc
 50
224.9988396009
 51
269.9988567098
  0
ARC
  5
492
100
AcDbEntity
  8
0
100
AcDbCircle
 62
7
  6
CONTINUOUS
 10
8.8518502519
 20
13.3381153255
 40
0.0196850394
100
AcDbArc
 50
135.0
 51
180.0012047948
  0
ARC
  5
493
100
AcDbEntity
  8
0
100
AcDbCircle
 62
7
  6
CONTINUOUS
 10
8.924231261
 20
13.2657343164
 40
0.0196850394
100
AcDbArc
 50
269.9987952044
 51
315.0
  0
ARC
  5
494
100
AcDbEntity
  8
0
100
AcDbCircle
 62
7
  6
CONTINUOUS
 10
8.9127000319
 20
13.2657343164
 40
0.0196850394
100
AcDbArc
 50
224.9940609216
 51
269.998672795
  0
ARC
  5
495
100
AcDbEntity
  8
0
100
AcDbCircle
 62
7
  6
CONTINUOUS
 10
8.8518502519
 20
13.3265840964
 40
0.0196850394
100
AcDbArc
 50
180.0013272057
 51
225.0059390794
  0
ARC
  5
496
100
AcDbEntity
  8
0
100
AcDbCircle
 62
7
  6
CONTINUOUS
 10
8.783522031
 20
13.3949123173
 40
0.0196850394
100
AcDbArc
 50
224.9962839339
 51
269.9986727947
  0
ARC
  5
497
100
AcDbEntity
  8
0
100
AcDbCircle
 62
7
  6
CONTINUOUS
 10
8.7950532601
 20
13.3949123173
 40
0.0196850394
100
AcDbArc
 50
269.9987952051
 51
315.0
  0
ARC
  5
498
100
AcDbEntity
  8
0
100
AcDbCircle
 62
7
  6
CONTINUOUS
 10
8.9795674856
 20
13.1988668627
 40
0.0196850394
100
AcDbArc
 50
225.0254592585
 51
269.9986727884
  0
ARC
  5
499
100
AcDbEntity
  8
0
100
AcDbCircle
 62
7
  6
CONTINUOUS
 10
8.9910987147
 20
13.1988668627
 40
0.0196850394
100
AcDbArc
 50
269.9987952044
 51
315.0
  0
ARC
  5
49A
100
AcDbEntity
  8
0
100
AcDbCircle
 62
7
  6
CONTINUOUS
 10
8.9187177056
 20
13.2597166427
 40
0.0196850394
100
AcDbArc
 50
212.4938308838
 51
224.9745407416
  0
ARC
  5
49B
100
AcDbEntity
  8
0
100
AcDbCircle
 62
7
  6
CONTINUOUS
 10
8.8474227408
 20
13.3069710863
 40
0.0078740157
100
AcDbArc
 50
235.1465387618
 51
294.9917022292
  0
ARC
  5
49C
100
AcDbEntity
  8
0
100
AcDbCircle
 62
9
  6
CONTINUOUS
 10
8.0066757606
 20
14.124313874
 40
0.0579532263
100
AcDbArc
 50
210.9312707834
 51
212.2214857305
  0
ARC
  5
49D
100
AcDbEntity
  8
0
100
AcDbCircle
 62
7
  6
CONTINUOUS
 10
8.3430385262
 20
13.9056836201
 40
0.0196850394
100
AcDbArc
 50
269.9975411863
 51
315.0
  0
ARC
  5
49E
100
AcDbEntity
  8
0
100
AcDbCircle
 62
7
  6
CONTINUOUS
 10
8.2539542073
 20
13.994767939
 40
0.0196850394
100
AcDbArc
 50
135.0
 51
180.0024588147
  0
ARC
  5
49F
100
AcDbEntity
  8
0
100
AcDbCircle
 62
7
  6
CONTINUOUS
 10
8.2539542073
 20
13.9832367099
 40
0.0196850394
100
AcDbArc
 50
180.0011432896
 51
225.0041213298
  0
ARC
  5
4A0
100
AcDbEntity
  8
0
100
AcDbCircle
 62
7
  6
CONTINUOUS
 10
8.3315072971
 20
13.9056836201
 40
0.0196850394
100
AcDbArc
 50
224.9958786689
 51
269.9988567094
  0
ARC
  5
4A1
100
AcDbEntity
  8
0
100
AcDbCircle
 62
7
  6
CONTINUOUS
 10
8.0476243223
 20
14.2010978239
 40
0.0196850394
100
AcDbArc
 50
269.9975417674
 51
315.0
  0
ARC
  5
4A2
100
AcDbEntity
  8
0
100
AcDbCircle
 62
7
  6
CONTINUOUS
 10
7.9585400035
 20
14.2901821428
 40
0.0196850394
100
AcDbArc
 50
135.0
 51
180.0024582326
  0
ARC
  5
4A3
100
AcDbEntity
  8
0
100
AcDbCircle
 62
7
  6
CONTINUOUS
 10
7.9585400035
 20
14.2786509137
 40
0.0196850394
100
AcDbArc
 50
180.0011432897
 51
225.0053597936
  0
ARC
  5
4A4
100
AcDbEntity
  8
0
100
AcDbCircle
 62
7
  6
CONTINUOUS
 10
8.0360930933
 20
14.2010978239
 40
0.0196850394
100
AcDbArc
 50
224.9946402063
 51
269.9988567103
  0
ARC
  5
4A5
100
AcDbEntity
  8
0
100
AcDbCircle
 62
7
  6
CONTINUOUS
 10
8.0666913748
 20
14.1232742026
 40
0.0196850394
100
AcDbArc
 50
135.0
 51
180.0012049649
  0
ARC
  5
4A6
100
AcDbEntity
  8
0
100
AcDbCircle
 62
7
  6
CONTINUOUS
 10
8.1390723839
 20
14.0508931935
 40
0.0196850394
100
AcDbArc
 50
269.9987950343
 51
315.0
  0
ARC
  5
4A7
100
AcDbEntity
  8
0
100
AcDbCircle
 62
7
  6
CONTINUOUS
 10
8.1275411548
 20
14.0508931935
 40
0.0196850394
100
AcDbArc
 50
224.9971640206
 51
269.9986727936
  0
ARC
  5
4A8
100
AcDbEntity
  8
0
100
AcDbCircle
 62
7
  6
CONTINUOUS
 10
8.0666913748
 20
14.1117429735
 40
0.0196850394
100
AcDbArc
 50
180.0013272064
 51
225.0028359794
  0
ARC
  5
4A9
100
AcDbEntity
  8
0
100
AcDbCircle
 62
7
  6
CONTINUOUS
 10
8.3162441094
 20
13.873721468
 40
0.0196850394
100
AcDbArc
 50
135.0
 51
180.0012047948
  0
ARC
  5
4AA
100
AcDbEntity
  8
0
100
AcDbCircle
 62
7
  6
CONTINUOUS
 10
8.3162441094
 20
13.862190239
 40
0.0196850394
100
AcDbArc
 50
180.0013272052
 51
225.0044890114
  0
ARC
  5
4AB
100
AcDbEntity
  8
0
100
AcDbCircle
 62
7
  6
CONTINUOUS
 10
8.0138465172
 20
13.8511991968
 40
0.0196850394
100
AcDbArc
 50
224.9957407583
 51
269.9974348682
  0
ARC
  5
4AC
100
AcDbEntity
  8
0
100
AcDbCircle
 62
7
  6
CONTINUOUS
 10
8.0396639141
 20
13.8253817998
 40
0.0196850394
100
AcDbArc
 50
180.0025651901
 51
225.0137730366
  0
ARC
  5
4AD
100
AcDbEntity
  8
0
100
AcDbCircle
 62
7
  6
CONTINUOUS
 10
8.0184473613
 20
13.9841850778
 40
0.0118110236
100
AcDbArc
 50
224.9977941936
 51
269.9997468357
  0
ARC
  5
4AE
100
AcDbEntity
  8
0
100
AcDbCircle
 62
7
  6
CONTINUOUS
 10
8.0365016386
 20
13.9841850778
 40
0.0118110236
100
AcDbArc
 50
269.9997000107
 51
315.0
  0
ARC
  5
4AF
100
AcDbEntity
  8
0
100
AcDbCircle
 62
7
  6
CONTINUOUS
 10
7.9529850896
 20
14.0677016267
 40
0.0118110236
100
AcDbArc
 50
135.0
 51
180.000299988
  0
ARC
  5
4B0
100
AcDbEntity
  8
0
100
AcDbCircle
 62
7
  6
CONTINUOUS
 10
7.9529850896
 20
14.0496473494
 40
0.0118110236
100
AcDbArc
 50
180.0002531656
 51
225.0022058083
  0
ARC
  5
4B1
100
AcDbEntity
  8
0
100
AcDbCircle
 62
7
  6
CONTINUOUS
 10
8.6142448282
 20
17.705285769
 40
1.9
100
AcDbArc
 50
237.4577510794
 51
275.4956073781
  0
ARC
  5
4B2
100
AcDbEntity
  8
0
100
AcDbCircle
 62
7
  6
CONTINUOUS
 10
6.7607527179
 20
16.3337834778
 40
0.45
100
AcDbArc
 50
276.6210152008
 51
315.0
  0
ARC
  5
4B3
100
AcDbEntity
  8
0
100
AcDbCircle
 62
7
  6
CONTINUOUS
 10
6.7838130172
 20
16.1351173694
 40
0.25
100
AcDbArc
 50
247.8632234306
 51
276.6210152008
  0
ARC
  5
4B4
100
AcDbEntity
  8
0
100
AcDbCircle
 62
7
  6
CONTINUOUS
 10
6.6594627807
 20
15.8294426752
 40
0.08
100
AcDbArc
 50
67.8632234306
 51
132.7285491583
  0
ARC
  5
4B5
100
AcDbEntity
  8
0
100
AcDbCircle
 62
7
  6
CONTINUOUS
 10
7.2614188453
 20
16.0919874849
 40
0.075
100
AcDbArc
 50
69.0
 51
135.0
  0
ARC
  5
4B6
100
AcDbEntity
  8
0
100
AcDbCircle
 62
7
  6
CONTINUOUS
 10
7.5291180859
 20
16.0909861486
 40
0.02
100
AcDbArc
 50
249.0
 51
315.0
  0
ARC
  5
4B7
100
AcDbEntity
  8
0
100
AcDbCircle
 62
7
  6
CONTINUOUS
 10
7.5814358083
 20
16.0867353285
 40
0.02
100
AcDbArc
 50
57.4577510794
 51
135.0
  0
ARC
  5
4B8
100
AcDbEntity
  8
0
100
AcDbCircle
 62
7
  6
CONTINUOUS
 10
6.8171471677
 20
15.4200437495
 40
0.0196850394
100
AcDbArc
 50
180.0010369649
 51
225.0009085171
  0
ARC
  5
4B9
100
AcDbEntity
  8
0
100
AcDbCircle
 62
7
  6
CONTINUOUS
 10
6.8171471677
 20
15.4315749786
 40
0.0196850394
100
AcDbArc
 50
135.0
 51
180.0010232871
  0
ARC
  5
4BA
100
AcDbEntity
  8
0
100
AcDbCircle
 62
7
  6
CONTINUOUS
 10
7.0591491309
 20
15.1895730154
 40
0.0196850394
100
AcDbArc
 50
269.9975411863
 51
315.0
  0
ARC
  5
4BB
100
AcDbEntity
  8
0
100
AcDbCircle
 62
7
  6
CONTINUOUS
 10
6.970064812
 20
15.2786573343
 40
0.0196850394
100
AcDbArc
 50
135.0
 51
180.0024588143
  0
ARC
  5
4BC
100
AcDbEntity
  8
0
100
AcDbCircle
 62
7
  6
CONTINUOUS
 10
6.970064812
 20
15.2671261052
 40
0.0196850394
100
AcDbArc
 50
180.0011432902
 51
225.0144914471
  0
ARC
  5
4BD
100
AcDbEntity
  8
0
100
AcDbCircle
 62
7
  6
CONTINUOUS
 10
7.0476179018
 20
15.1895730154
 40
0.0196850394
100
AcDbArc
 50
224.9855085529
 51
269.9988567098
  0
ARC
  5
4BE
100
AcDbEntity
  8
0
100
AcDbCircle
 62
7
  6
CONTINUOUS
 10
6.9451235043
 20
15.3035986419
 40
0.0196850394
100
AcDbArc
 50
269.9975411863
 51
288.8750990227
  0
ARC
  5
4BF
100
AcDbEntity
  8
0
100
AcDbCircle
 62
7
  6
CONTINUOUS
 10
6.8560391854
 20
15.3926829608
 40
0.0196850394
100
AcDbArc
 50
135.0
 51
180.0024588147
  0
ARC
  5
4C0
100
AcDbEntity
  8
0
100
AcDbCircle
 62
7
  6
CONTINUOUS
 10
6.8560391854
 20
15.3811517317
 40
0.0196850394
100
AcDbArc
 50
180.0011432896
 51
224.9836676955
  0
ARC
  5
4C1
100
AcDbEntity
  8
0
100
AcDbCircle
 62
7
  6
CONTINUOUS
 10
6.9335922752
 20
15.3035986419
 40
0.0196850394
100
AcDbArc
 50
225.0163323032
 51
269.9988567095
  0
ARC
  5
4C2
100
AcDbEntity
  8
0
100
AcDbCircle
 62
7
  6
CONTINUOUS
 10
6.9563090423
 20
15.2336565352
 40
0.0196850394
100
AcDbArc
 50
135.0
 51
180.0012049649
  0
ARC
  5
4C3
100
AcDbEntity
  8
0
100
AcDbCircle
 62
7
  6
CONTINUOUS
 10
7.0171588223
 20
15.1612755261
 40
0.0196850394
100
AcDbArc
 50
225.0260206937
 51
237.5061691155
  0
ARC
  5
4C4
100
AcDbEntity
  8
0
100
AcDbCircle
 62
7
  6
CONTINUOUS
 10
6.9563090423
 20
15.2221253061
 40
0.0196850394
100
AcDbArc
 50
180.0013272064
 51
224.9739793063
  0
ARC
  5
4C5
100
AcDbEntity
  8
0
100
AcDbCircle
 62
7
  6
CONTINUOUS
 10
7.0231764959
 20
15.1667890815
 40
0.0196850394
100
AcDbArc
 50
135.0
 51
180.0012047948
  0
ARC
  5
4C6
100
AcDbEntity
  8
0
100
AcDbCircle
 62
7
  6
CONTINUOUS
 10
7.0231764959
 20
15.1552578524
 40
0.0196850394
100
AcDbArc
 50
180.0013272052
 51
225.005934882
  0
ARC
  5
4C7
100
AcDbEntity
  8
0
100
AcDbCircle
 62
7
  6
CONTINUOUS
 10
6.7842951873
 20
15.5249465769
 40
0.0078740157
100
AcDbArc
 50
210.7100596427
 51
225.0
  0
ARC
  5
4C8
100
AcDbEntity
  8
0
100
AcDbCircle
 62
7
  6
CONTINUOUS
 10
11.4627279485
 20
14.8568026486
 40
1.9
100
AcDbArc
 50
174.5043926219
 51
212.5422489206
  0
ARC
  5
4C9
100
AcDbEntity
  8
0
100
AcDbCircle
 62
7
  6
CONTINUOUS
 10
10.0912256573
 20
13.0033105384
 40
0.45
100
AcDbArc
 50
135.0
 51
173.3789847992
  0
ARC
  5
4CA
100
AcDbEntity
  8
0
100
AcDbCircle
 62
7
  6
CONTINUOUS
 10
9.892559549
 20
13.0263708377
 40
0.25
100
AcDbArc
 50
173.3789847992
 51
202.1367765694
  0
ARC
  5
4CB
100
AcDbEntity
  8
0
100
AcDbCircle
 62
7
  6
CONTINUOUS
 10
9.5868848548
 20
12.9020206011
 40
0.08
100
AcDbArc
 50
317.2714508417
 51
22.1367765694
  0
ARC
  5
4CC
100
AcDbEntity
  8
0
100
AcDbCircle
 62
7
  6
CONTINUOUS
 10
9.8494296644
 20
13.5039766657
 40
0.075
100
AcDbArc
 50
315.0
 51
21.0
  0
ARC
  5
4CD
100
AcDbEntity
  8
0
100
AcDbCircle
 62
7
  6
CONTINUOUS
 10
9.8484283281
 20
13.7716759063
 40
0.02
100
AcDbArc
 50
135.0
 51
201.0
  0
ARC
  5
4CE
100
AcDbEntity
  8
0
100
AcDbCircle
 62
7
  6
CONTINUOUS
 10
9.8441775081
 20
13.8239936287
 40
0.02
100
AcDbArc
 50
315.0
 51
32.5422489206
  0
ARC
  5
4CF
100
AcDbEntity
  8
0
100
AcDbCircle
 62
7
  6
CONTINUOUS
 10
9.6046776979
 20
15.8472355183
 40
2.5590551181
100
AcDbArc
 50
222.3528405071
 51
227.6471594929
  0
ARC
  5
4D0
100
AcDbEntity
  8
0
100
AcDbCircle
 62
7
  6
CONTINUOUS
 10
12.5848926102
 20
16.3525766965
 40
2.15625
100
AcDbArc
 50
90.0
 51
135.0
  0
ARC
  5
4D1
100
AcDbEntity
  8
0
100
AcDbCircle
 62
7
  6
CONTINUOUS
 10
12.5848926102
 20
16.3525766965
 40
1.34375
100
AcDbArc
 50
90.0
 51
135.0
  0
ARC
  5
4D2
100
AcDbEntity
  8
0
100
AcDbCircle
 62
7
  6
CONTINUOUS
 10
9.6816371635
 20
15.9241949839
 40
0.489
100
AcDbArc
 50
343.8720486571
 51
0.0258404644
  0
ARC
  5
4D3
100
AcDbEntity
  8
0
100
AcDbCircle
 62
7
  6
CONTINUOUS
 10
9.6816371635
 20
15.9241949839
 40
0.489
100
AcDbArc
 50
89.9741595356
 51
106.1279513429
  0
ARC
  5
4D4
100
AcDbEntity
  8
0
100
AcDbCircle
 62
7
  6
CONTINUOUS
 10
10.3239532704
 20
16.1924516036
 40
0.188
100
AcDbArc
 50
270.0
 51
315.0
  0
ARC
  5
4D5
100
AcDbEntity
  8
0
100
AcDbCircle
 62
7
  6
CONTINUOUS
 10
9.9498937831
 20
16.5665110908
 40
0.188
100
AcDbArc
 50
135.0
 51
180.0
  0
ARC
  5
4D6
100
AcDbEntity
  8
0
100
AcDbCircle
 62
7
  6
CONTINUOUS
 10
10.2506371056
 20
15.9244516036
 40
0.08
100
AcDbArc
 50
90.0
 51
180.0258404644
  0
ARC
  5
4D7
100
AcDbEntity
  8
0
100
AcDbCircle
 62
7
  6
CONTINUOUS
 10
9.6818937831
 20
16.4931949261
 40
0.08
100
AcDbArc
 50
269.9741595356
 51
360.0
  0
ARC
  5
4D8
100
AcDbEntity
  8
0
100
AcDbCircle
 62
7
  6
CONTINUOUS
 10
13.1465626257
 20
6.1025766965
 40
1.5506700155
100
AcDbArc
 50
165.2369687319
 51
194.7630312681
  0
ARC
  5
4D9
100
AcDbEntity
  8
0
100
AcDbCircle
 62
7
  6
CONTINUOUS
 10
13.6058926102
 20
3.9775766965
 40
1.0
100
AcDbArc
 50
81.6940891949
 51
90.0
  0
ARC
  5
4DA
100
AcDbEntity
  8
0
100
AcDbCircle
 62
7
  6
CONTINUOUS
 10
12.8558926102
 20
4.7467054844
 40
0.7183712121
100
AcDbArc
 50
25.2003196522
 51
90.0
  0
ARC
  5
4DB
100
AcDbEntity
  8
0
100
AcDbCircle
 62
7
  6
CONTINUOUS
 10
13.6961790369
 20
4.5960210037
 40
0.375
100
AcDbArc
 50
40.6030912348
 51
81.6940891949
  0
ARC
  5
4DC
100
AcDbEntity
  8
0
100
AcDbCircle
 62
7
  6
CONTINUOUS
 10
14.5868937524
 20
2.9094405661
 40
0.2500109774
100
AcDbArc
 50
180.0
 51
239.7355898687
  0
ARC
  5
4DD
100
AcDbEntity
  8
0
100
AcDbCircle
 62
7
  6
CONTINUOUS
 10
14.8348926102
 20
2.4775766965
 40
0.25
100
AcDbArc
 50
180.0
 51
270.0
  0
ARC
  5
4DE
100
AcDbEntity
  8
0
100
AcDbCircle
 62
7
  6
CONTINUOUS
 10
14.3348926102
 20
2.4775766965
 40
0.25
100
AcDbArc
 50
0.0
 51
59.7355898687
  0
ARC
  5
4DF
100
AcDbEntity
  8
0
100
AcDbCircle
 62
7
  6
CONTINUOUS
 10
14.0868926102
 20
2.9125766965
 40
0.25
100
AcDbArc
 50
0.0695091455
 51
60.7907880662
  0
ARC
  5
4E0
100
AcDbEntity
  8
0
100
AcDbCircle
 62
7
  6
CONTINUOUS
 10
14.3308926102
 20
3.3489985108
 40
0.25
100
AcDbArc
 50
180.0
 51
240.7907880662
  0
ARC
  5
4E1
100
AcDbEntity
  8
0
100
AcDbCircle
 62
7
  6
CONTINUOUS
 10
14.0308926102
 20
4.8400766965
 40
0.05
100
AcDbArc
 50
180.0
 51
360.0
  0
ARC
  5
4E2
100
AcDbEntity
  8
0
100
AcDbCircle
 62
7
  6
CONTINUOUS
 10
12.9448926102
 20
3.5450766965
 40
0.031
100
AcDbArc
 50
180.0
 51
256.9592389661
  0
ARC
  5
4E3
100
AcDbEntity
  8
0
100
AcDbCircle
 62
7
  6
CONTINUOUS
 10
12.9448926102
 20
4.3200766965
 40
0.031
100
AcDbArc
 50
103.0407610339
 51
180.0
  0
ARC
  5
4E4
100
AcDbEntity
  8
0
100
AcDbCircle
 62
7
  6
CONTINUOUS
 10
13.0808926102
 20
3.5135766965
 40
0.031
100
AcDbArc
 50
256.9592389661
 51
270.0
  0
ARC
  5
4E5
100
AcDbEntity
  8
0
100
AcDbCircle
 62
7
  6
CONTINUOUS
 10
13.1708926102
 20
3.5135766965
 40
0.031
100
AcDbArc
 50
270.0
 51
315.2453073495
  0
ARC
  5
4E6
100
AcDbEntity
  8
0
100
AcDbCircle
 62
7
  6
CONTINUOUS
 10
13.0808926102
 20
4.3515766965
 40
0.031
100
AcDbArc
 50
90.0
 51
103.0407610339
  0
ARC
  5
4E7
100
AcDbEntity
  8
0
100
AcDbCircle
 62
7
  6
CONTINUOUS
 10
13.1708926102
 20
4.3515766965
 40
0.031
100
AcDbArc
 50
44.7546926505
 51
90.0
  0
ARC
  5
4E8
100
AcDbEntity
  8
0
100
AcDbCircle
 62
7
  6
CONTINUOUS
 10
13.9978926102
 20
3.7085766965
 40
0.012
100
AcDbArc
 50
180.0
 51
270.0
  0
ARC
  5
4E9
100
AcDbEntity
  8
0
100
AcDbCircle
 62
7
  6
CONTINUOUS
 10
13.9978926102
 20
4.1565766965
 40
0.012
100
AcDbArc
 50
90.0
 51
180.0
  0
ARC
  5
4EA
100
AcDbEntity
  8
0
100
AcDbCircle
 62
7
  6
CONTINUOUS
 10
12.9371484384
 20
19.179725822
 40
7.1691060897
100
AcDbArc
 50
219.137747149
 51
219.2089918143
  0
ARC
  5
4EB
100
AcDbEntity
  8
0
100
AcDbCircle
 62
7
  6
CONTINUOUS
 10
12.9371484384
 20
19.179725822
 40
7.1691060897
100
AcDbArc
 50
215.6769302766
 51
217.0935652828
  0
ARC
  5
4EC
100
AcDbEntity
  8
0
100
AcDbCircle
 62
7
  6
CONTINUOUS
 10
12.9371680015
 20
19.1797062589
 40
7.1691060897
100
AcDbArc
 50
232.7964824638
 51
234.3230697234
  0
ARC
  5
4ED
100
AcDbEntity
  8
0
100
AcDbCircle
 62
7
  6
CONTINUOUS
 10
12.9371734063
 20
19.1797507899
 40
7.1643816803
100
AcDbArc
 50
214.8532231336
 51
215.5750973652
  0
ARC
  5
4EE
100
AcDbEntity
  8
0
100
AcDbCircle
 62
7
  6
CONTINUOUS
 10
12.9371929694
 20
19.1797312267
 40
7.1643816803
100
AcDbArc
 50
234.4249026348
 51
235.1467768664
  0
ARC
  5
4EF
100
AcDbEntity
  8
0
100
AcDbCircle
 62
7
  6
CONTINUOUS
 10
12.9371734063
 20
19.1797507899
 40
7.1643816803
100
AcDbArc
 50
210.0673065852
 51
210.7102731828
  0
ARC
  5
4F0
100
AcDbEntity
  8
0
100
AcDbCircle
 62
7
  6
CONTINUOUS
 10
12.9367693826
 20
19.1794335306
 40
7.1632441833
100
AcDbArc
 50
239.2705208902
 51
239.9166489963
  0
ARC
  5
4F1
100
AcDbEntity
  8
0
100
AcDbCircle
 62
9
  6
CONTINUOUS
 10
12.9406917245
 20
19.1856709772
 40
7.1507436041
100
AcDbArc
 50
238.2880417734
 51
238.6171785401
  0
ARC
  5
4F2
100
AcDbEntity
  8
0
100
AcDbCircle
 62
9
  6
CONTINUOUS
 10
12.8068929571
 20
18.9586212835
 40
6.9265790662
100
AcDbArc
 50
239.2610109886
 51
240.0308013472
  0
ARC
  5
4F3
100
AcDbEntity
  8
0
100
AcDbCircle
 62
7
  6
CONTINUOUS
 10
18.890052026
 20
18.1547506087
 40
4.5
100
AcDbArc
 50
186.4144817261
 51
195.5395954904
  0
ARC
  5
4F4
100
AcDbEntity
  8
0
100
AcDbCircle
 62
7
  6
CONTINUOUS
 10
18.890052026
 20
18.0504027843
 40
4.5
100
AcDbArc
 50
164.4604045096
 51
173.5855182739
  0
ARC
  5
4F5
100
AcDbEntity
  8
0
100
AcDbCircle
 62
7
  6
CONTINUOUS
 10
13.6058926102
 20
8.2275766965
 40
1.0
100
AcDbArc
 50
270.0
 51
278.3059108051
  0
ARC
  5
4F6
100
AcDbEntity
  8
0
100
AcDbCircle
 62
7
  6
CONTINUOUS
 10
12.8558926102
 20
7.4584479086
 40
0.7183712121
100
AcDbArc
 50
270.0
 51
334.7996803478
  0
ARC
  5
4F7
100
AcDbEntity
  8
0
100
AcDbCircle
 62
7
  6
CONTINUOUS
 10
13.6961790369
 20
7.6091323893
 40
0.375
100
AcDbArc
 50
278.3059108051
 51
319.3969087652
  0
ARC
  5
4F8
100
AcDbEntity
  8
0
100
AcDbCircle
 62
7
  6
CONTINUOUS
 10
14.5868937524
 20
9.2957128269
 40
0.2500109774
100
AcDbArc
 50
120.2644101313
 51
180.0
  0
ARC
  5
4F9
100
AcDbEntity
  8
0
100
AcDbCircle
 62
7
  6
CONTINUOUS
 10
14.8348926102
 20
9.7275766965
 40
0.25
100
AcDbArc
 50
90.0
 51
180.0
  0
ARC
  5
4FA
100
AcDbEntity
  8
0
100
AcDbCircle
 62
7
  6
CONTINUOUS
 10
14.3348926102
 20
9.7275766965
 40
0.25
100
AcDbArc
 50
300.2644101313
 51
360.0
  0
ARC
  5
4FB
100
AcDbEntity
  8
0
100
AcDbCircle
 62
7
  6
CONTINUOUS
 10
14.0868926102
 20
9.2925766965
 40
0.25
100
AcDbArc
 50
299.2092119338
 51
359.9304908545
  0
ARC
  5
4FC
100
AcDbEntity
  8
0
100
AcDbCircle
 62
7
  6
CONTINUOUS
 10
14.3308926102
 20
8.8561548822
 40
0.25
100
AcDbArc
 50
119.2092119338
 51
180.0
  0
ARC
  5
4FD
100
AcDbEntity
  8
0
100
AcDbCircle
 62
7
  6
CONTINUOUS
 10
14.0308926102
 20
7.3650766965
 40
0.05
100
AcDbArc
 50
0.0
 51
180.0
  0
ARC
  5
4FE
100
AcDbEntity
  8
0
100
AcDbCircle
 62
7
  6
CONTINUOUS
 10
14.602719363
 20
19.2425766965
 40
0.05
100
AcDbArc
 50
90.0
 51
164.4604045096
  0
ARC
  5
4FF
100
AcDbEntity
  8
0
100
AcDbCircle
 62
7
  6
CONTINUOUS
 10
14.602719363
 20
16.9625766965
 40
0.05
100
AcDbArc
 50
195.5395954904
 51
270.0
  0
LINE
  5
500
100
AcDbEntity
  8
0
100
AcDbLine
 62
7
  6
CONTINUOUS
 10
10.0401621168
 20
0.6991268018
 11
10.0348921656
 21
0.7000767765
  0
SPLINE
  5
501
100
AcDbEntity
  8
0
100
AcDbSpline
 62
7
  6
CONTINUOUS
 70
0
 71
3
 72
27
 73
23
 74
0
 42
0.0000001
 43
0.0000001
 44
0.0000000001
 40
0.0
 40
0.0
 40
0.0
 40
0.0
 40
0.0625317859
 40
0.0938108888
 40
0.1250923217
 40
0.187651191
 40
0.2502206446
 40
0.2815157773
 40
0.3128125575
 40
0.3753949052
 40
0.4379775667
 40
0.500555103
 40
0.5631210061
 40
0.6256676194
 40
0.6881862063
 40
0.7194389947
 40
0.7506809273
 40
0.8131123438
 40
0.8754826709
 40
0.9066471941
 40
0.9377907349
 40
1.0
 40
1.0
 40
1.0
 40
1.0
 10
9.0285415298
 20
0.7880259589
 30
0.0
 10
9.0214496595
 20
0.7880076373
 30
0.0
 10
9.0108041964
 20
0.7875259938
 30
0.0
 10
8.9966987322
 20
0.7859783352
 30
0.0
 10
8.9826682229
 20
0.7838297978
 30
0.0
 10
8.9653192123
 20
0.7800233407
 30
0.0
 10
8.9483567285
 20
0.7747497569
 30
0.0
 10
8.9350958372
 20
0.7696752228
 30
0.0
 10
8.9220622897
 20
0.7640389055
 30
0.0
 10
8.9062386242
 20
0.7559567919
 30
0.0
 10
8.8881501369
 20
0.7446763091
 30
0.0
 10
8.8710898036
 20
0.7318959797
 30
0.0
 10
8.8551831696
 20
0.7177116796
 30
0.0
 10
8.8405462163
 20
0.7022307918
 30
0.0
 10
8.8294910693
 20
0.6883417576
 30
0.0
 10
8.8213837283
 20
0.6767059077
 30
0.0
 10
8.8137827101
 20
0.6647447898
 30
0.0
 10
8.8052483822
 20
0.6492154941
 30
0.0
 10
8.798061943
 20
0.6330281564
 30
0.0
 10
8.7931527195
 20
0.6197635211
 30
0.0
 10
8.7888128532
 20
0.6063219438
 30
0.0
 10
8.7861984842
 20
0.5960454427
 30
0.0
 10
8.7847477914
 20
0.5891408809
 30
0.0
  0
SPLINE
  5
502
100
AcDbEntity
  8
0
100
AcDbSpline
 62
7
  6
CONTINUOUS
 70
0
 71
3
 72
17
 73
13
 74
0
 42
0.0000001
 43
0.0000001
 44
0.0000000001
 40
0.0
 40
0.0
 40
0.0
 40
0.0
 40
0.1249920876
 40
0.24998419
 40
0.3749767503
 40
0.4999713546
 40
0.5624722418
 40
0.6249740843
 40
0.6874771183
 40
0.7499812762
 40
0.8749876354
 40
1.0
 40
1.0
 40
1.0
 40
1.0
 10
8.0687379721
 20
1.7549738676
 30
0.0
 10
8.1485018427
 20
1.7783340403
 30
0.0
 10
8.3087534356
 20
1.8226261242
 30
0.0
 10
8.5511173852
 20
1.8813861137
 30
0.0
 10
8.7953028508
 20
1.9320767614
 30
0.0
 10
9.0001383544
 20
1.9672745151
 30
0.0
 10
9.1646778553
 20
1.9910246003
 30
0.0
 10
9.2883928397
 20
2.0065895413
 30
0.0
 10
9.412377574
 20
2.0198582632
 30
0.0
 10
9.5779935609
 20
2.0344364673
 30
0.0
 10
9.7854965331
 20
2.0467345401
 30
0.0
 10
9.951764912
 20
2.0500763173
 30
0.0
 10
10.0348926102
 20
2.0500766407
 30
0.0
  0
SPLINE
  5
503
100
AcDbEntity
  8
0
100
AcDbSpline
 62
7
  6
CONTINUOUS
 70
0
 71
3
 72
23
 73
19
 74
0
 42
0.0000001
 43
0.0000001
 44
0.0000000001
 40
0.0
 40
0.0
 40
0.0
 40
0.0
 40
0.0398855044
 40
0.1502440761
 40
0.2257793308
 40
0.3112702792
 40
0.3568517665
 40
0.4037925276
 40
0.4516607731
 40
0.4999999999
 40
0.5483392268
 40
0.5962074723
 40
0.6431482334
 40
0.6887297207
 40
0.7742206692
 40
0.8497559239
 40
0.9601144956
 40
1.0
 40
1.0
 40
1.0
 40
1.0
 10
11.7543926102
 20
5.6025766965
 30
0.0
 10
11.7590312402
 20
5.6042606072
 30
0.0
 10
11.7765757317
 20
5.6104180054
 30
0.0
 10
11.8033286857
 20
5.6185511811
 30
0.0
 10
11.8359978909
 20
5.6263791471
 30
0.0
 10
11.8611732557
 20
5.6309355738
 30
0.0
 10
11.8830183898
 20
5.6337936138
 30
0.0
 10
11.9003167892
 20
5.6354350669
 30
0.0
 10
11.9180050902
 20
5.6364526012
 30
0.0
 10
11.9358926102
 20
5.6367974516
 30
0.0
 10
11.9537801302
 20
5.6364526012
 30
0.0
 10
11.9714684312
 20
5.6354350669
 30
0.0
 10
11.9887668306
 20
5.6337936138
 30
0.0
 10
12.0106119646
 20
5.6309355738
 30
0.0
 10
12.0357873294
 20
5.6263791471
 30
0.0
 10
12.0684565347
 20
5.6185511811
 30
0.0
 10
12.0952094887
 20
5.6104180054
 30
0.0
 10
12.1127539802
 20
5.6042606072
 30
0.0
 10
12.1173926102
 20
5.6025766965
 30
0.0
  0
LINE
  5
504
100
AcDbEntity
  8
0
100
AcDbLine
 62
7
  6
CONTINUOUS
 10
7.2382560822
 20
14.8305413702
 11
7.2354695846
 21
14.8341470572
  0
LINE
  5
505
100
AcDbEntity
  8
0
100
AcDbLine
 62
7
  6
CONTINUOUS
 10
7.2354695846
 20
14.8341470572
 11
7.2192493633
 21
14.8551831831
  0
LINE
  5
506
100
AcDbEntity
  8
0
100
AcDbLine
 62
7
  6
CONTINUOUS
 10
7.2192493633
 20
14.8551831831
 11
7.2187627861
 21
14.8558217291
  0
SPLINE
  5
507
100
AcDbEntity
  8
0
100
AcDbSpline
 62
7
  6
CONTINUOUS
 70
0
 71
3
 72
28
 73
24
 74
0
 42
0.0000001
 43
0.0000001
 44
0.0000000001
 40
0.0
 40
0.0
 40
0.0
 40
0.0
 40
0.0013885609
 40
0.0062321348
 40
0.0155566045
 40
0.0305362141
 40
0.0525357344
 40
0.0831382339
 40
0.1241557388
 40
0.1491455413
 40
0.1774182997
 40
0.2091748556
 40
0.2445323837
 40
0.3260345323
 40
0.4209363768
 40
0.526611029
 40
0.5824598269
 40
0.6398016622
 40
0.6983054169
 40
0.7576864789
 40
0.8177120503
 40
0.8781968336
 40
1.0
 40
1.0
 40
1.0
 40
1.0
 10
7.5991457254
 20
1.6023731933
 30
0.0
 10
7.598930463
 20
1.6022963332
 30
0.0
 10
7.6010478456
 20
1.6030517796
 30
0.0
 10
7.6021896527
 20
1.6034582966
 30
0.0
 10
7.6075655902
 20
1.605372982
 30
0.0
 10
7.6142946172
 20
1.6077628221
 30
0.0
 10
7.6249933386
 20
1.6115521331
 30
0.0
 10
7.6394350313
 20
1.6166422485
 30
0.0
 10
7.6544766274
 20
1.6219103618
 30
0.0
 10
7.6691270029
 20
1.6270120614
 30
0.0
 10
7.6823524227
 20
1.6315942101
 30
0.0
 10
7.6971970001
 20
1.6367095754
 30
0.0
 10
7.7203409357
 20
1.644637372
 30
0.0
 10
7.7533557924
 20
1.655823087
 30
0.0
 10
7.7974072214
 20
1.6705044891
 30
0.0
 10
7.8375291718
 20
1.6836183398
 30
0.0
 10
7.8718253408
 20
1.6946531756
 30
0.0
 10
7.8987585488
 20
1.7032200218
 30
0.0
 10
7.926275361
 20
1.711869791
 30
0.0
 10
7.9542435679
 20
1.7205561794
 30
0.0
 10
7.9825539188
 20
1.7292398064
 30
0.0
 10
8.0207300445
 20
1.7407983123
 30
0.0
 10
8.0494961431
 20
1.7493381717
 30
0.0
 10
8.0687380109
 20
1.7549736723
 30
0.0
  0
SPLINE
  5
508
100
AcDbEntity
  8
0
100
AcDbSpline
 62
7
  6
CONTINUOUS
 70
0
 71
3
 72
8
 73
4
 74
0
 42
0.0000001
 43
0.0000001
 44
0.0000000001
 40
0.0
 40
0.0
 40
0.0
 40
0.0
 40
1.0
 40
1.0
 40
1.0
 40
1.0
 10
7.2186989172
 20
14.8559060755
 30
0.0
 10
7.2186801946
 20
14.8559308786
 30
0.0
 10
7.218661472
 20
14.8559556818
 30
0.0
 10
7.2186427494
 20
14.855980485
 30
0.0
  0
SPLINE
  5
509
100
AcDbEntity
  8
0
100
AcDbSpline
 62
7
  6
CONTINUOUS
 70
0
 71
3
 72
22
 73
18
 74
0
 42
0.0000001
 43
0.0000001
 44
0.0000000001
 40
0.0
 40
0.0
 40
0.0
 40
0.0
 40
0.2080876796
 40
0.3946470588
 40
0.5579784787
 40
0.6304803213
 40
0.696669178
 40
0.7564251293
 40
0.8096679499
 40
0.856362962
 40
0.896552778
 40
0.9303948888
 40
0.9582598724
 40
0.9701865773
 40
0.980962263
 40
0.9908041122
 40
1.0
 40
1.0
 40
1.0
 40
1.0
 10
7.2459460854
 20
14.9892553563
 30
0.0
 10
7.2467751428
 20
14.9877926493
 30
0.0
 10
7.2483191792
 20
14.9850022929
 30
0.0
 10
7.2503981833
 20
14.9810012643
 30
0.0
 10
7.2518715419
 20
14.9779216837
 30
0.0
 10
7.252847361
 20
14.9756847215
 30
0.0
 10
7.2534485875
 20
14.9741980286
 30
0.0
 10
7.2539473162
 20
14.9728384949
 30
0.0
 10
7.2543423051
 20
14.9716096529
 30
0.0
 10
7.2546325767
 20
14.9705146505
 30
0.0
 10
7.2548177116
 20
14.9695557694
 30
0.0
 10
7.2548972699
 20
14.9687349917
 30
0.0
 10
7.2548745536
 20
14.968137053
 30
0.0
 10
7.2547929539
 20
14.9677357829
 30
0.0
 10
7.2547072281
 20
14.9674862199
 30
0.0
 10
7.2545934735
 20
14.9672725993
 30
0.0
 10
7.2544961695
 20
14.9671518881
 30
0.0
 10
7.2544436272
 20
14.967099352
 30
0.0
  0
SPLINE
  5
50A
100
AcDbEntity
  8
0
100
AcDbSpline
 62
7
  6
CONTINUOUS
 70
0
 71
3
 72
27
 73
23
 74
0
 42
0.0000001
 43
0.0000001
 44
0.0000000001
 40
0.0
 40
0.0
 40
0.0
 40
0.0
 40
0.0103263089
 40
0.0208904394
 40
0.0320559831
 40
0.0441310382
 40
0.0573575436
 40
0.0719175165
 40
0.0879418652
 40
0.1055239756
 40
0.1247292752
 40
0.1455999378
 40
0.1924243204
 40
0.2460830255
 40
0.3065105465
 40
0.37354245
 40
0.4469355564
 40
0.5263810873
 40
0.6115149939
 40
0.7019234181
 40
0.7971428415
 40
1.0
 40
1.0
 40
1.0
 40
1.0
 10
7.572453682
 20
14.6726928266
 30
0.0
 10
7.5725661812
 20
14.6728053179
 30
0.0
 10
7.5728171353
 20
14.6730108321
 30
0.0
 10
7.573255955
 20
14.6732436429
 30
0.0
 10
7.5737551015
 20
14.6734010426
 30
0.0
 10
7.5743127874
 20
14.6734837286
 30
0.0
 10
7.5749283337
 20
14.6734926675
 30
0.0
 10
7.5756013431
 20
14.6734283148
 30
0.0
 10
7.5763314575
 20
14.6732910381
 30
0.0
 10
7.5771181683
 20
14.6730809622
 30
0.0
 10
7.5779607992
 20
14.672798221
 30
0.0
 10
7.579206137
 20
14.6723053056
 30
0.0
 10
7.5808943755
 20
14.6714968307
 30
0.0
 10
7.5830550529
 20
14.6702788604
 30
0.0
 10
7.5854116446
 20
14.6687826241
 30
0.0
 10
7.5879522359
 20
14.6670147242
 30
0.0
 10
7.5906636852
 20
14.6649832874
 30
0.0
 10
7.593531529
 20
14.6626983802
 30
0.0
 10
7.5965401757
 20
14.6601717433
 30
0.0
 10
7.5996730074
 20
14.6574168386
 30
0.0
 10
7.6040860719
 20
14.653373205
 30
0.0
 10
7.6073836417
 20
14.6501752803
 30
0.0
 10
7.6095935756
 20
14.6479653464
 30
0.0
  0
SPLINE
  5
50B
100
AcDbEntity
  8
0
100
AcDbSpline
 62
7
  6
CONTINUOUS
 70
0
 71
3
 72
15
 73
11
 74
0
 42
0.0000001
 43
0.0000001
 44
0.0000000001
 40
0.0
 40
0.0
 40
0.0
 40
0.0
 40
0.3274536249
 40
0.4753195627
 40
0.6106121255
 40
0.7319394679
 40
0.8380175196
 40
0.9276965412
 40
0.9660735909
 40
1.0
 40
1.0
 40
1.0
 40
1.0
 10
6.9509518181
 20
15.3471500667
 30
0.0
 10
6.9534138406
 20
15.3430115791
 30
0.0
 10
6.9569497626
 20
15.3369815021
 30
0.0
 10
6.9613882215
 20
15.3291754828
 30
0.0
 10
6.9642750159
 20
15.3239745343
 30
0.0
 10
6.9668050744
 20
15.3192788169
 30
0.0
 10
6.9689508966
 20
15.3151386921
 30
0.0
 10
6.9704700828
 20
15.3120483005
 30
0.0
 10
6.9714672423
 20
15.3098848569
 30
0.0
 10
6.9718925328
 20
15.3089102055
 30
0.0
 10
6.9720855418
 20
15.3084501374
 30
0.0
  0
SPLINE
  5
50C
100
AcDbEntity
  8
0
100
AcDbSpline
 62
7
  6
CONTINUOUS
 70
0
 71
3
 72
24
 73
20
 74
0
 42
0.0000001
 43
0.0000001
 44
0.0000000001
 40
0.0
 40
0.0
 40
0.0
 40
0.0
 40
0.20759501
 40
0.3944881648
 40
0.4795412485
 40
0.558687997
 40
0.6317202157
 40
0.698449349
 40
0.7587134421
 40
0.8123839017
 40
0.8593754251
 40
0.8996707073
 40
0.9333553753
 40
0.9478041075
 40
0.9607305504
 40
0.9722323665
 40
0.9824548973
 40
0.991610511
 40
1.0
 40
1.0
 40
1.0
 40
1.0
 10
7.0776953595
 20
15.2204065253
 30
0.0
 10
7.0787323822
 20
15.2184695922
 30
0.0
 10
7.0806687446
 20
15.2147703644
 30
0.0
 10
7.0829164992
 20
15.2102193048
 30
0.0
 10
7.0844844377
 20
15.2068503724
 30
0.0
 10
7.0855041169
 20
15.2045558614
 30
0.0
 10
7.0864020023
 20
15.2024199204
 30
0.0
 10
7.0871752593
 20
15.2004489772
 30
0.0
 10
7.087821467
 20
15.1986490798
 30
0.0
 10
7.0883385809
 20
15.1970258627
 30
0.0
 10
7.0887251277
 20
15.1955842061
 30
0.0
 10
7.0889798798
 20
15.1943286239
 30
0.0
 10
7.0890876212
 20
15.1933968708
 30
0.0
 10
7.0890972175
 20
15.1927501724
 30
0.0
 10
7.0890699756
 20
15.1923390623
 30
0.0
 10
7.0890086696
 20
15.1919767092
 30
0.0
 10
7.0889127555
 20
15.1916630584
 30
0.0
 10
7.0887814661
 20
15.1913984336
 30
0.0
 10
7.0886658187
 20
15.191250872
 30
0.0
 10
7.088603033
 20
15.1911880899
 30
0.0
  0
SPLINE
  5
50D
100
AcDbEntity
  8
0
100
AcDbSpline
 62
7
  6
CONTINUOUS
 70
0
 71
3
 72
32
 73
28
 74
0
 42
0.0000001
 43
0.0000001
 44
0.0000000001
 40
0.0
 40
0.0
 40
0.0
 40
0.0
 40
0.2231975939
 40
0.3256304655
 40
0.4215971206
 40
0.5108474522
 40
0.5931519055
 40
0.6682992592
 40
0.7360973386
 40
0.7963742595
 40
0.8489795296
 40
0.8723648754
 40
0.893786395
 40
0.9132327489
 40
0.9306937113
 40
0.9461621475
 40
0.9596338193
 40
0.9711082797
 40
0.980592756
 40
0.9845945252
 40
0.9881077407
 40
0.9911395744
 40
0.9937015543
 40
0.9958131903
 40
0.9975099407
 40
0.9988608054
 40
1.0
 40
1.0
 40
1.0
 40
1.0
 10
10.3424261057
 20
16.978773989
 30
0.0
 10
10.3354146488
 20
16.9852742578
 30
0.0
 10
10.3251694895
 20
16.9947406134
 30
0.0
 10
10.3118590684
 20
17.0069468469
 30
0.0
 10
10.3027534148
 20
17.0152486043
 30
0.0
 10
10.2942583699
 20
17.0229402171
 30
0.0
 10
10.2863950535
 20
17.0300006793
 30
0.0
 10
10.2791829073
 20
17.0364107292
 30
0.0
 10
10.272639752
 20
17.0421528814
 30
0.0
 10
10.2667816429
 20
17.0472113293
 30
0.0
 10
10.2623239481
 20
17.0509802318
 30
0.0
 10
10.2591074945
 20
17.0536386572
 30
0.0
 10
10.2569707876
 20
17.0553737151
 30
0.0
 10
10.2550147627
 20
17.0569284943
 30
0.0
 10
10.253240561
 20
17.0583019361
 30
0.0
 10
10.2516492514
 20
17.0594931461
 30
0.0
 10
10.2502418028
 20
17.0605015558
 30
0.0
 10
10.2490189832
 20
17.0613265537
 30
0.0
 10
10.2481094996
 20
17.0618897858
 30
0.0
 10
10.2474726568
 20
17.0622432246
 30
0.0
 10
10.2470691178
 20
17.062446711
 30
0.0
 10
10.2467119604
 20
17.0626042244
 30
0.0
 10
10.2464009798
 20
17.0627159352
 30
0.0
 10
10.246135578
 20
17.062782246
 30
0.0
 10
10.2459143839
 20
17.0628030818
 30
0.0
 10
10.2457341751
 20
17.062777398
 30
0.0
 10
10.2456388916
 20
17.0627209514
 30
0.0
 10
10.245604387
 20
17.0626864431
 30
0.0
  0
SPLINE
  5
50E
100
AcDbEntity
  8
0
100
AcDbSpline
 62
7
  6
CONTINUOUS
 70
0
 71
3
 72
20
 73
16
 74
0
 42
0.0000001
 43
0.0000001
 44
0.0000000001
 40
0.0
 40
0.0
 40
0.0
 40
0.0
 40
0.1965389374
 40
0.3726332944
 40
0.5276754098
 40
0.5971948187
 40
0.6613540732
 40
0.7201804313
 40
0.773742141
 40
0.8221674966
 40
0.8656703745
 40
0.9045806523
 40
0.9394015849
 40
0.9708671586
 40
1.0
 40
1.0
 40
1.0
 40
1.0
 10
7.269185056
 20
15.0289168287
 30
0.0
 10
7.2696361631
 20
15.0278422488
 30
0.0
 10
7.2704598467
 20
15.0257912549
 30
0.0
 10
7.2715084646
 20
15.0228422648
 30
0.0
 10
7.2721905105
 20
15.0205648123
 30
0.0
 10
7.2725952703
 20
15.0189009278
 30
0.0
 10
7.2728206741
 20
15.0177815326
 30
0.0
 10
7.2729789007
 20
15.0167462153
 30
0.0
 10
7.2730695795
 20
15.0157963404
 30
0.0
 10
7.2730924109
 20
15.0149330999
 30
0.0
 10
7.2730471315
 20
15.0141574315
 30
0.0
 10
7.2729331794
 20
15.0134700457
 30
0.0
 10
7.2727495626
 20
15.0128714335
 30
0.0
 10
7.2724948467
 20
15.0123628331
 30
0.0
 10
7.2722701817
 20
15.0120780857
 30
0.0
 10
7.2721480303
 20
15.011955931
 30
0.0
  0
SPLINE
  5
50F
100
AcDbEntity
  8
0
100
AcDbSpline
 62
7
  6
CONTINUOUS
 70
0
 71
3
 72
29
 73
25
 74
0
 42
0.0000001
 43
0.0000001
 44
0.0000000001
 40
0.0
 40
0.0
 40
0.0
 40
0.0
 40
0.0089374502
 40
0.0185020573
 40
0.02915586
 40
0.041226334
 40
0.0549285887
 40
0.0703954036
 40
0.0877051092
 40
0.1068969184
 40
0.1279841618
 40
0.1509594257
 40
0.1758007366
 40
0.2024731714
 40
0.2611174623
 40
0.3264322538
 40
0.3978313546
 40
0.4746246415
 40
0.5560301649
 40
0.6411862892
 40
0.7291625232
 40
0.818975355
 40
0.9096009774
 40
1.0
 40
1.0
 40
1.0
 40
1.0
 10
8.0752087874
 20
14.1596304632
 30
0.0
 10
8.0753856908
 20
14.1598073737
 30
0.0
 10
8.0758040278
 20
14.1601244655
 30
0.0
 10
8.0765624343
 20
14.1604436338
 30
0.0
 10
8.0774542403
 20
14.1606187614
 30
0.0
 10
8.0784765691
 20
14.1606539005
 30
0.0
 10
8.0796286588
 20
14.1605512534
 30
0.0
 10
8.0809090859
 20
14.1603118004
 30
0.0
 10
8.0823156118
 20
14.1599360205
 30
0.0
 10
8.0838452999
 20
14.1594246599
 30
0.0
 10
8.0854945783
 20
14.1587786216
 30
0.0
 10
8.0872594549
 20
14.1579992602
 30
0.0
 10
8.0891355174
 20
14.1570882624
 30
0.0
 10
8.0918661497
 20
14.1556547441
 30
0.0
 10
8.095515485
 20
14.1535385872
 30
0.0
 10
8.1001251612
 20
14.1505940171
 30
0.0
 10
8.1050444893
 20
14.1471978309
 30
0.0
 10
8.1102196444
 20
14.1433851595
 30
0.0
 10
8.1155928644
 20
14.139196516
 30
0.0
 10
8.1211029377
 20
14.1346779416
 30
0.0
 10
8.1266860004
 20
14.129880393
 30
0.0
 10
8.1322763373
 20
14.1248591982
 30
0.0
 10
8.1378074782
 20
14.1196732719
 30
0.0
 10
8.1414298611
 20
14.1161290609
 30
0.0
 10
8.14321921
 20
14.114339712
 30
0.0
  0
SPLINE
  5
510
100
AcDbEntity
  8
0
100
AcDbSpline
 62
7
  6
CONTINUOUS
 70
0
 71
3
 72
15
 73
11
 74
0
 42
0.0000001
 43
0.0000001
 44
0.0000000001
 40
0.0
 40
0.0
 40
0.0
 40
0.0
 40
0.1687784908
 40
0.3232721021
 40
0.4639360262
 40
0.5914935662
 40
0.7070151674
 40
0.8120566068
 40
0.9087724682
 40
1.0
 40
1.0
 40
1.0
 40
1.0
 10
7.5123712014
 20
14.7857306834
 30
0.0
 10
7.5124454848
 20
14.7853049022
 30
0.0
 10
7.5125673964
 20
14.7844855619
 30
0.0
 10
7.5126691428
 20
14.7833009846
 30
0.0
 10
7.5126812145
 20
14.782217346
 30
0.0
 10
7.5126032587
 20
14.781236113
 30
0.0
 10
7.5124345399
 20
14.7803585211
 30
0.0
 10
7.512173945
 20
14.77958573
 30
0.0
 10
7.5118200631
 20
14.7789199548
 30
0.0
 10
7.5115151399
 20
14.7785426482
 30
0.0
 10
7.5113499516
 20
14.7783774509
 30
0.0
  0
LINE
  5
511
100
AcDbEntity
  8
0
100
AcDbLine
 62
7
  6
CONTINUOUS
 10
7.7906811435
 20
14.5074209756
 11
7.7899085191
 21
14.5063715791
  0
SPLINE
  5
512
100
AcDbEntity
  8
0
100
AcDbSpline
 62
7
  6
CONTINUOUS
 70
0
 71
3
 72
48
 73
44
 74
0
 42
0.0000001
 43
0.0000001
 44
0.0000000001
 40
0.0
 40
0.0
 40
0.0
 40
0.0
 40
0.0292401103
 40
0.0608104458
 40
0.0945288199
 40
0.130199599
 40
0.2065620036
 40
0.2881305659
 40
0.3730176818
 40
0.4592593737
 40
0.544860921
 40
0.6278431618
 40
0.6677491763
 40
0.7062885211
 40
0.7432384465
 40
0.7783854358
 40
0.8115265199
 40
0.8424704886
 40
0.8710389636
 40
0.8970675493
 40
0.9204068365
 40
0.9409233818
 40
0.9500860939
 40
0.9585009044
 40
0.9661560973
 40
0.9730413391
 40
0.9791474745
 40
0.9844670655
 40
0.9868300234
 40
0.9889943881
 40
0.9909598036
 40
0.9927261051
 40
0.994293521
 40
0.9956626771
 40
0.9968347987
 40
0.9978122993
 40
0.998599814
 40
0.9989251577
 40
0.9992072582
 40
0.9994492343
 40
0.9996560632
 40
0.9998356772
 40
1.0
 40
1.0
 40
1.0
 40
1.0
 10
10.1618448681
 20
16.8101175806
 30
0.0
 10
10.1666419733
 20
16.8057466735
 30
0.0
 10
10.1765990345
 20
16.7966351807
 30
0.0
 10
10.1920311481
 20
16.7824214904
 30
0.0
 10
10.208473651
 20
16.767198165
 30
0.0
 10
10.2321649632
 20
16.7451710959
 30
0.0
 10
10.2635592363
 20
16.71583215
 30
0.0
 10
10.3028570029
 20
16.6789522854
 30
0.0
 10
10.3437068761
 20
16.6405221787
 30
0.0
 10
10.3851902759
 20
16.6014591708
 30
0.0
 10
10.426374281
 20
16.5626949229
 30
0.0
 10
10.4600990171
 20
16.5310104723
 30
0.0
 10
10.4862440408
 20
16.5065132406
 30
0.0
 10
10.5049536634
 20
16.489023004
 30
0.0
 10
10.5229157327
 20
16.4722798434
 30
0.0
 10
10.5400297765
 20
16.4563841391
 30
0.0
 10
10.5562002183
 20
16.4414313117
 30
0.0
 10
10.5713369362
 20
16.4275112684
 30
0.0
 10
10.5853557868
 20
16.4147078818
 30
0.0
 10
10.5981790096
 20
16.4030983944
 30
0.0
 10
10.6097358272
 20
16.3927531834
 30
0.0
 10
10.6185614567
 20
16.3849697126
 30
0.0
 10
10.6249472667
 20
16.3794283124
 30
0.0
 10
10.6291999801
 20
16.3757843217
 30
0.0
 10
10.633093829
 20
16.3724985829
 30
0.0
 10
10.6366235526
 20
16.3695761323
 30
0.0
 10
10.639784466
 20
16.3670214998
 30
0.0
 10
10.6421939668
 20
16.3651343557
 30
0.0
 10
10.6439363768
 20
16.3638150357
 30
0.0
 10
10.645096168
 20
16.3629596828
 30
0.0
 10
10.6461610395
 20
16.3621989635
 30
0.0
 10
10.6471306666
 20
16.3615331611
 30
0.0
 10
10.6480047521
 20
16.3609624315
 30
0.0
 10
10.6487830368
 20
16.3604868821
 30
0.0
 10
10.649465403
 20
16.3601063285
 30
0.0
 10
10.6500517659
 20
16.3598207457
 30
0.0
 10
10.6504847439
 20
16.3596511955
 30
0.0
 10
10.650783525
 20
16.3595689079
 30
0.0
 10
10.6509693282
 20
16.359535121
 30
0.0
 10
10.6511317483
 20
16.3595251584
 30
0.0
 10
10.6512713447
 20
16.3595394331
 30
0.0
 10
10.6513883839
 20
16.359578984
 30
0.0
 10
10.6514516599
 20
16.3596242485
 30
0.0
 10
10.6514774495
 20
16.3596500367
 30
0.0
  0
SPLINE
  5
513
100
AcDbEntity
  8
0
100
AcDbSpline
 62
7
  6
CONTINUOUS
 70
0
 71
3
 72
32
 73
28
 74
0
 42
0.0000001
 43
0.0000001
 44
0.0000000001
 40
0.0
 40
0.0
 40
0.0
 40
0.0
 40
0.0017825555
 40
0.0038908656
 40
0.0064536376
 40
0.0095418364
 40
0.0131936195
 40
0.0174298853
 40
0.0222622991
 40
0.0276963404
 40
0.0403720827
 40
0.055446447
 40
0.0728817674
 40
0.0926250368
 40
0.114611847
 40
0.1387676618
 40
0.1650106183
 40
0.1932513702
 40
0.2553386896
 40
0.3242033682
 40
0.3989434924
 40
0.4785952674
 40
0.5621414482
 40
0.6485203993
 40
0.7366336969
 40
0.82535286
 40
1.0
 40
1.0
 40
1.0
 40
1.0
 10
8.8524114068
 20
13.3665153291
 30
0.0
 10
8.8524509115
 20
13.3665548301
 30
0.0
 10
8.8525553958
 20
13.3666231868
 30
0.0
 10
8.8527514289
 20
13.3666796514
 30
0.0
 10
8.8529947425
 20
13.366700578
 30
0.0
 10
8.8532865336
 20
13.366686661
 30
0.0
 10
8.8536274688
 20
13.3666382754
 30
0.0
 10
8.8540176385
 20
13.3665553224
 30
0.0
 10
8.8544568648
 20
13.3664378099
 30
0.0
 10
8.8551434325
 20
13.3662237499
 30
0.0
 10
8.8561200139
 20
13.3658644498
 30
0.0
 10
8.8574270197
 20
13.3653187047
 30
0.0
 10
8.8589175327
 20
13.3646398152
 30
0.0
 10
8.8605859112
 20
13.3638303329
 30
0.0
 10
8.8624259524
 20
13.3628931128
 30
0.0
 10
8.8644309352
 20
13.3618315967
 30
0.0
 10
8.8665936532
 20
13.3606496187
 30
0.0
 10
8.8697794344
 20
13.3588612604
 30
0.0
 10
8.8740928879
 20
13.3563536102
 30
0.0
 10
8.8796159372
 20
13.3530287615
 30
0.0
 10
8.8855639977
 20
13.3493437424
 30
0.0
 10
8.891859407
 20
13.3453466484
 30
0.0
 10
8.8984209118
 20
13.3410888801
 30
0.0
 10
8.9051642902
 20
13.3366248729
 30
0.0
 10
8.912002984
 20
13.3320116959
 30
0.0
 10
8.9210820963
 20
13.3257738527
 30
0.0
 10
8.9278259844
 20
13.3210139312
 30
0.0
 10
8.9322676191
 20
13.3178153896
 30
0.0
  0
SPLINE
  5
514
100
AcDbEntity
  8
0
100
AcDbSpline
 62
7
  6
CONTINUOUS
 70
0
 71
3
 72
24
 73
20
 74
0
 42
0.0000001
 43
0.0000001
 44
0.0000000001
 40
0.0
 40
0.0
 40
0.0
 40
0.0
 40
0.0108348698
 40
0.0217831184
 40
0.0331793844
 40
0.045321448
 40
0.058456466
 40
0.0727782426
 40
0.1055075712
 40
0.1443312975
 40
0.1896609078
 40
0.2416963346
 40
0.3005016943
 40
0.3660490767
 40
0.4382455843
 40
0.5169429278
 40
0.6019518074
 40
0.7899346387
 40
1.0
 40
1.0
 40
1.0
 40
1.0
 10
7.3509827988
 20
14.898707657
 30
0.0
 10
7.3510578136
 20
14.8987826788
 30
0.0
 10
7.3512225646
 20
14.8989203313
 30
0.0
 10
7.3515071515
 20
14.8990804822
 30
0.0
 10
7.351827082
 20
14.8991932986
 30
0.0
 10
7.3521813886
 20
14.8992589764
 30
0.0
 10
7.352569655
 20
14.8992779915
 30
0.0
 10
7.3531587685
 20
14.8992396941
 30
0.0
 10
7.3539848947
 20
14.8990619985
 30
0.0
 10
7.3550646316
 20
14.8986766834
 30
0.0
 10
7.3562737499
 20
14.8981105189
 30
0.0
 10
7.3576095184
 20
14.8973641865
 30
0.0
 10
7.3590687373
 20
14.8964389042
 30
0.0
 10
7.3606471174
 20
14.8953368277
 30
0.0
 10
7.362339761
 20
14.8940608361
 30
0.0
 10
7.3641413237
 20
14.8926146782
 30
0.0
 10
7.3667699519
 20
14.8903895628
 30
0.0
 10
7.3702734952
 20
14.8872098134
 30
0.0
 10
7.3730675154
 20
14.8844914066
 30
0.0
 10
7.3745219623
 20
14.8830369596
 30
0.0
  0
SPLINE
  5
515
100
AcDbEntity
  8
0
100
AcDbSpline
 62
9
  6
CONTINUOUS
 70
0
 71
3
 72
38
 73
34
 74
0
 42
0.0000001
 43
0.0000001
 44
0.0000000001
 40
0.0
 40
0.0
 40
0.0
 40
0.0
 40
0.0217520735
 40
0.0465977617
 40
0.0743628906
 40
0.1048538383
 40
0.1378534427
 40
0.1731270802
 40
0.2494795367
 40
0.3317600161
 40
0.4176796202
 40
0.5048844556
 40
0.5910195028
 40
0.6737838493
 40
0.7509794079
 40
0.820555701
 40
0.8518971949
 40
0.8806542904
 40
0.906632694
 40
0.9296565067
 40
0.9495709159
 40
0.9583206774
 40
0.9662471278
 40
0.9733387343
 40
0.9795874421
 40
0.9849885096
 40
0.9895428479
 40
0.993261505
 40
0.9961734197
 40
0.9973488133
 40
0.9983573104
 40
0.9992266107
 40
1.0
 40
1.0
 40
1.0
 40
1.0
 10
7.2953978025
 20
14.7627463397
 30
0.0
 10
7.2960944426
 20
14.762050637
 30
0.0
 10
7.2975654036
 20
14.7605388334
 30
0.0
 10
7.2998636899
 20
14.7580796869
 30
0.0
 10
7.3023889674
 20
14.7552919459
 30
0.0
 10
7.3051232012
 20
14.7521960175
 30
0.0
 10
7.3080466079
 20
14.7488141051
 30
0.0
 10
7.3122820847
 20
14.7438229319
 30
0.0
 10
7.3178782043
 20
14.7370614693
 30
0.0
 10
7.3248203283
 20
14.7284398399
 30
0.0
 10
7.3319640091
 20
14.7193509155
 30
0.0
 10
7.3391119936
 20
14.7100444214
 30
0.0
 10
7.3460711756
 20
14.7007738752
 30
0.0
 10
7.3526546911
 20
14.6917886897
 30
0.0
 10
7.3586871225
 20
14.6833298906
 30
0.0
 10
7.3632685662
 20
14.6766959684
 30
0.0
 10
7.3665307981
 20
14.6718166467
 30
0.0
 10
7.3686585871
 20
14.6685529015
 30
0.0
 10
7.3705395334
 20
14.665577993
 30
0.0
 10
7.3721605995
 20
14.6629128272
 30
0.0
 10
7.3733317435
 20
14.6608872098
 30
0.0
 10
7.3741256521
 20
14.6594336587
 30
0.0
 10
7.3746232714
 20
14.6584798076
 30
0.0
 10
7.3750484326
 20
14.6576161067
 30
0.0
 10
7.3754004989
 20
14.6568441671
 30
0.0
 10
7.375679021
 20
14.6561654681
 30
0.0
 10
7.3758839818
 20
14.6555809649
 30
0.0
 10
7.3760152447
 20
14.6550916137
 30
0.0
 10
7.3760678942
 20
14.6547404658
 30
0.0
 10
7.3760654191
 20
14.6545093041
 30
0.0
 10
7.376044561
 20
14.6543720738
 30
0.0
 10
7.3760041742
 20
14.6542581132
 30
0.0
 10
7.3759615914
 20
14.6541957114
 30
0.0
 10
7.375937524
 20
14.6541702929
 30
0.0
  0
SPLINE
  5
516
100
AcDbEntity
  8
0
100
AcDbSpline
 62
9
  6
CONTINUOUS
 70
0
 71
3
 72
17
 73
13
 74
0
 42
0.0000001
 43
0.0000001
 44
0.0000000001
 40
0.0
 40
0.0
 40
0.0
 40
0.0
 40
0.0628699528
 40
0.1243887177
 40
0.2431386653
 40
0.3552009493
 40
0.4643963066
 40
0.5835544582
 40
0.7137160051
 40
0.8534219455
 40
0.9260774503
 40
1.0
 40
1.0
 40
1.0
 40
1.0
 10
7.2972798127
 20
14.7774058157
 30
0.0
 10
7.2974782943
 20
14.777134021
 30
0.0
 10
7.2978427024
 20
14.776574837
 30
0.0
 10
7.2984347282
 20
14.7754136028
 30
0.0
 10
7.29893261
 20
14.7739186988
 30
0.0
 10
7.2991868659
 20
14.7721076991
 30
0.0
 10
7.2991400026
 20
14.7702784104
 30
0.0
 10
7.2987831183
 20
14.7683840314
 30
0.0
 10
7.2980626331
 20
14.766419749
 30
0.0
 10
7.2971413454
 20
14.7648228584
 30
0.0
 10
7.2962114226
 20
14.763602827
 30
0.0
 10
7.2956805806
 20
14.7630231898
 30
0.0
 10
7.2954006643
 20
14.762743476
 30
0.0
  0
SPLINE
  5
517
100
AcDbEntity
  8
0
100
AcDbSpline
 62
7
  6
CONTINUOUS
 70
0
 71
3
 72
28
 73
24
 74
0
 42
0.0000001
 43
0.0000001
 44
0.0000000001
 40
0.0
 40
0.0
 40
0.0
 40
0.0
 40
0.0096977144
 40
0.0197996148
 40
0.0307104683
 40
0.042750224
 40
0.0561517843
 40
0.0710773445
 40
0.0876358898
 40
0.1058973011
 40
0.1259043682
 40
0.147677574
 40
0.1712231658
 40
0.1965330349
 40
0.252363053
 40
0.314935974
 40
0.3839028338
 40
0.4588241702
 40
0.5391823375
 40
0.6243896858
 40
0.7137981535
 40
0.8067051884
 40
1.0
 40
1.0
 40
1.0
 40
1.0
 10
7.8194736001
 20
14.4206072593
 30
0.0
 10
7.8196218674
 20
14.4207555288
 30
0.0
 10
7.8199603668
 20
14.4210245316
 30
0.0
 10
7.8205620203
 20
14.4213160494
 30
0.0
 10
7.8212565741
 20
14.4214996453
 30
0.0
 10
7.822041453
 20
14.4215769961
 30
0.0
 10
7.8229157789
 20
14.4215497835
 30
0.0
 10
7.8238788149
 20
14.4214187049
 30
0.0
 10
7.8249295758
 20
14.4211841391
 30
0.0
 10
7.8260667214
 20
14.4208464082
 30
0.0
 10
7.8272885214
 20
14.420405829
 30
0.0
 10
7.828593019
 20
14.4198630008
 30
0.0
 10
7.8299779476
 20
14.4192186153
 30
0.0
 10
7.8319952546
 20
14.4181911558
 30
0.0
 10
7.8346954145
 20
14.4166497859
 30
0.0
 10
7.8381142487
 20
14.4144740524
 30
0.0
 10
7.8417838209
 20
14.4119302003
 30
0.0
 10
7.8456754025
 20
14.4090367374
 30
0.0
 10
7.8497579239
 20
14.4058153456
 30
0.0
 10
7.8539981225
 20
14.4022911511
 30
0.0
 10
7.8583609267
 20
14.3984924105
 30
0.0
 10
7.86437196
 20
14.3930305748
 30
0.0
 10
7.8688266067
 20
14.3887323153
 30
0.0
 10
7.8717818916
 20
14.3857770304
 30
0.0
  0
SPLINE
  5
518
100
AcDbEntity
  8
0
100
AcDbSpline
 62
7
  6
CONTINUOUS
 70
0
 71
3
 72
15
 73
11
 74
0
 42
0.0000001
 43
0.0000001
 44
0.0000000001
 40
0.0
 40
0.0
 40
0.0
 40
0.0
 40
0.1170842677
 40
0.2394286933
 40
0.3656133994
 40
0.4941371073
 40
0.6234366524
 40
0.7519140389
 40
0.8779607038
 40
1.0
 40
1.0
 40
1.0
 40
1.0
 10
8.3585244554
 20
13.8915585533
 30
0.0
 10
8.3604865868
 20
13.8901885845
 30
0.0
 10
8.3644623326
 20
13.8873343022
 30
0.0
 10
8.370430215
 20
13.8828360138
 30
0.0
 10
8.3764824938
 20
13.8780642649
 30
0.0
 10
8.3825437219
 20
13.8730770816
 30
0.0
 10
8.3885371538
 20
13.867936359
 30
0.0
 10
8.3943858044
 20
13.8627071129
 30
0.0
 10
8.4000138986
 20
13.857456428
 30
0.0
 10
8.4036437591
 20
13.8539151629
 30
0.0
 10
8.405407526
 20
13.852151396
 30
0.0
  0
SPLINE
  5
519
100
AcDbEntity
  8
0
100
AcDbSpline
 62
7
  6
CONTINUOUS
 70
0
 71
3
 72
15
 73
11
 74
0
 42
0.0000001
 43
0.0000001
 44
0.0000000001
 40
0.0
 40
0.0
 40
0.0
 40
0.0
 40
0.0339275073
 40
0.0723054873
 40
0.1619858937
 40
0.2680646742
 40
0.3893921736
 40
0.5246843338
 40
0.6725493592
 40
1.0
 40
1.0
 40
1.0
 40
1.0
 10
9.0658927409
 20
13.2146431845
 30
0.0
 10
9.0663528173
 20
13.2144501671
 30
0.0
 10
9.0673274826
 20
13.214024862
 30
0.0
 10
9.0694909435
 20
13.2130276807
 30
0.0
 10
9.0725813375
 20
13.2115084807
 30
0.0
 10
9.0767214439
 20
13.2093626575
 30
0.0
 10
9.0814171146
 20
13.2068326164
 30
0.0
 10
9.0866179909
 20
13.2039458567
 30
0.0
 10
9.0944238705
 20
13.1995074724
 30
0.0
 10
9.1004538339
 20
13.1959716163
 30
0.0
 10
9.10459224
 20
13.1935096422
 30
0.0
  0
SPLINE
  5
51A
100
AcDbEntity
  8
0
100
AcDbSpline
 62
7
  6
CONTINUOUS
 70
0
 71
3
 72
22
 73
18
 74
0
 42
0.0000001
 43
0.0000001
 44
0.0000000001
 40
0.0
 40
0.0
 40
0.0
 40
0.0
 40
0.0091960229
 40
0.0190380156
 40
0.0298139003
 40
0.0417407755
 40
0.0696059354
 40
0.1034483461
 40
0.1436382753
 40
0.1903334645
 40
0.2435763269
 40
0.3033323107
 40
0.3695211023
 40
0.4420228042
 40
0.6053537526
 40
0.7919126033
 40
1.0
 40
1.0
 40
1.0
 40
1.0
 10
8.7245415331
 20
13.4970014465
 30
0.0
 10
8.7245940683
 20
13.497053988
 30
0.0
 10
8.724714775
 20
13.4971512932
 30
0.0
 10
8.7249283922
 20
13.4972650472
 30
0.0
 10
8.7251779518
 20
13.4973507703
 30
0.0
 10
8.7255792131
 20
13.4974323699
 30
0.0
 10
8.7261771381
 20
13.4974550931
 30
0.0
 10
8.7269978952
 20
13.4973755378
 30
0.0
 10
8.7279567524
 20
13.4971904159
 30
0.0
 10
8.7290517242
 20
13.4969001564
 30
0.0
 10
8.7302805319
 20
13.496505186
 30
0.0
 10
8.7316400252
 20
13.4960064782
 30
0.0
 10
8.7331266728
 20
13.4954052773
 30
0.0
 10
8.7353635639
 20
13.4944294996
 30
0.0
 10
8.7384430452
 20
13.4929562022
 30
0.0
 10
8.7424439465
 20
13.4908772813
 30
0.0
 10
8.7452342149
 20
13.4893333052
 30
0.0
 10
8.7466968767
 20
13.4885042794
 30
0.0
  0
SPLINE
  5
51B
100
AcDbEntity
  8
0
100
AcDbSpline
 62
9
  6
CONTINUOUS
 70
0
 71
3
 72
19
 73
15
 74
0
 42
0.0000001
 43
0.0000001
 44
0.0000000001
 40
0.0
 40
0.0
 40
0.0
 40
0.0
 40
0.0106676834
 40
0.0231422564
 40
0.0534103441
 40
0.0905686709
 40
0.1343152649
 40
0.1842879769
 40
0.2400729224
 40
0.3671936767
 40
0.511525819
 40
0.6684320219
 40
0.8329605431
 40
1.0
 40
1.0
 40
1.0
 40
1.0
 10
7.2364655924
 20
14.8216785499
 30
0.0
 10
7.2366566306
 20
14.8214879048
 30
0.0
 10
7.2370647794
 20
14.8210680215
 30
0.0
 10
7.2379870179
 20
14.820080312
 30
0.0
 10
7.2393313597
 20
14.8185703086
 30
0.0
 10
7.2411639403
 20
14.8164365125
 30
0.0
 10
7.2432892618
 20
14.8138973253
 30
0.0
 10
7.2456896215
 20
14.8109740727
 30
0.0
 10
7.2493943556
 20
14.80639273
 30
0.0
 10
7.2545385476
 20
14.7999055657
 30
0.0
 10
7.2611969379
 20
14.7913546696
 30
0.0
 10
7.2683688766
 20
14.782004567
 30
0.0
 10
7.2758282318
 20
14.7721512352
 30
0.0
 10
7.2808517106
 20
14.7654329994
 30
0.0
 10
7.2833723376
 20
14.7620409264
 30
0.0
  0
SPLINE
  5
51C
100
AcDbEntity
  8
0
100
AcDbSpline
 62
9
  6
CONTINUOUS
 70
0
 71
3
 72
18
 73
14
 74
0
 42
0.0000001
 43
0.0000001
 44
0.0000000001
 40
0.0
 40
0.0
 40
0.0
 40
0.0
 40
0.0660386436
 40
0.1303706161
 40
0.2534471669
 40
0.3679482105
 40
0.4778801871
 40
0.5961027596
 40
0.72349333
 40
0.7903169016
 40
0.858905337
 40
0.9288991056
 40
1.0
 40
1.0
 40
1.0
 40
1.0
 10
7.2377327972
 20
14.8369528313
 30
0.0
 10
7.2379535541
 20
14.8366588783
 30
0.0
 10
7.238361465
 20
14.8360568757
 30
0.0
 10
7.2390358521
 20
14.8348156753
 30
0.0
 10
7.2396290199
 20
14.8332322713
 30
0.0
 10
7.2399851489
 20
14.8313220013
 30
0.0
 10
7.240026237
 20
14.8294069709
 30
0.0
 10
7.2397458842
 20
14.8274386105
 30
0.0
 10
7.2392048156
 20
14.8257749392
 30
0.0
 10
7.2385669039
 20
14.8244564733
 30
0.0
 10
7.237974339
 20
14.8234765039
 30
0.0
 10
7.2372777264
 20
14.8225377824
 30
0.0
 10
7.2367487006
 20
14.8219551806
 30
0.0
 10
7.2364687188
 20
14.8216754215
 30
0.0
  0
SPLINE
  5
51D
100
AcDbEntity
  8
0
100
AcDbSpline
 62
7
  6
CONTINUOUS
 70
0
 71
3
 72
24
 73
20
 74
0
 42
0.0000001
 43
0.0000001
 44
0.0000000001
 40
0.0
 40
0.0
 40
0.0
 40
0.0
 40
0.0083894921
 40
0.0175451048
 40
0.0277676391
 40
0.0392694605
 40
0.0521959038
 40
0.0666446411
 40
0.100329327
 40
0.1406246211
 40
0.1876161505
 40
0.241286617
 40
0.3015507245
 40
0.3682798913
 40
0.4413121112
 40
0.520458849
 40
0.6055119205
 40
0.7924050923
 40
1.0
 40
1.0
 40
1.0
 40
1.0
 10
8.9486302695
 20
13.3311608534
 30
0.0
 10
8.9486930516
 20
13.331223639
 30
0.0
 10
8.9488406132
 20
13.3313392864
 30
0.0
 10
8.9491052379
 20
13.3314705761
 30
0.0
 10
8.9494188888
 20
13.3315664901
 30
0.0
 10
8.949781242
 20
13.331627796
 30
0.0
 10
8.9501923521
 20
13.331655038
 30
0.0
 10
8.9508390506
 20
13.3316454417
 30
0.0
 10
8.9517708038
 20
13.3315377001
 30
0.0
 10
8.9530263861
 20
13.331282948
 30
0.0
 10
8.9544680427
 20
13.3308964013
 30
0.0
 10
8.9560912598
 20
13.3303792872
 30
0.0
 10
8.9578911574
 20
13.3297330796
 30
0.0
 10
8.9598621006
 20
13.3289598224
 30
0.0
 10
8.9619980415
 20
13.3280619372
 30
0.0
 10
8.9642925518
 20
13.3270422582
 30
0.0
 10
8.9676614835
 20
13.3254743201
 30
0.0
 10
8.9722125413
 20
13.3232265663
 30
0.0
 10
8.9759117676
 20
13.3212902049
 30
0.0
 10
8.9778486994
 20
13.3202531828
 30
0.0
  0
SPLINE
  5
51E
100
AcDbEntity
  8
0
100
AcDbSpline
 62
9
  6
CONTINUOUS
 70
0
 71
3
 72
36
 73
32
 74
0
 42
0.0000001
 43
0.0000001
 44
0.0000000001
 40
0.0
 40
0.0
 40
0.0
 40
0.0
 40
0.0019765143
 40
0.0031070121
 40
0.0043672869
 40
0.0073444254
 40
0.0110055609
 40
0.0153966462
 40
0.0205398961
 40
0.0264448774
 40
0.0331141759
 40
0.0487287426
 40
0.0673266213
 40
0.088814144
 40
0.1130727929
 40
0.1399639527
 40
0.1693318664
 40
0.2010056601
 40
0.2348005934
 40
0.307953177
 40
0.3870844969
 40
0.4703406262
 40
0.5557551549
 40
0.6412862571
 40
0.7248605781
 40
0.8044230694
 40
0.8779943199
 40
0.9119511348
 40
0.9437328541
 40
0.9731445193
 40
1.0
 40
1.0
 40
1.0
 40
1.0
 10
8.3589797822
 20
13.672348728
 30
0.0
 10
8.3590403965
 20
13.6724093324
 30
0.0
 10
8.3591595768
 20
13.6724816063
 30
0.0
 10
8.3593409921
 20
13.6725365971
 30
0.0
 10
8.359571596
 20
13.6725734375
 30
0.0
 10
8.3599161162
 20
13.6725691691
 30
0.0
 10
8.3603899257
 20
13.672498381
 30
0.0
 10
8.360946115
 20
13.6723610572
 30
0.0
 10
8.3615842666
 20
13.6721573183
 30
0.0
 10
8.3623038476
 20
13.6718872244
 30
0.0
 10
8.3634309472
 20
13.6714132999
 30
0.0
 10
8.3650313727
 20
13.670648446
 30
0.0
 10
8.3671670162
 20
13.6695190236
 30
0.0
 10
8.3695934535
 20
13.6681404116
 30
0.0
 10
8.3722956653
 20
13.6665211302
 30
0.0
 10
8.3752570102
 20
13.6646706941
 30
0.0
 10
8.3784594022
 20
13.6626001268
 30
0.0
 10
8.3818835287
 20
13.6603217879
 30
0.0
 10
8.3868500167
 20
13.6569344957
 30
0.0
 10
8.3934458668
 20
13.6522846073
 30
0.0
 10
8.401695912
 20
13.6462611718
 30
0.0
 10
8.410280912
 20
13.6397967311
 30
0.0
 10
8.4189958956
 20
13.6330453073
 30
0.0
 10
8.4276302693
 20
13.6261689125
 30
0.0
 10
8.4359722199
 20
13.6193343057
 30
0.0
 10
8.4438149169
 20
13.6127105023
 30
0.0
 10
8.4499249396
 20
13.607371526
 30
0.0
 10
8.4544114639
 20
13.6033254493
 30
0.0
 10
8.4574433959
 20
13.6005263462
 30
0.0
 10
8.4602133216
 20
13.597897947
 30
0.0
 10
8.4619556671
 20
13.5961893899
 30
0.0
 10
8.4627787271
 20
13.5953654152
 30
0.0
  0
SPLINE
  5
51F
100
AcDbEntity
  8
0
100
AcDbSpline
 62
9
  6
CONTINUOUS
 70
0
 71
3
 72
20
 73
16
 74
0
 42
0.0000001
 43
0.0000001
 44
0.0000000001
 40
0.0
 40
0.0
 40
0.0
 40
0.0
 40
0.1843203772
 40
0.3593360898
 40
0.5207820912
 40
0.6646581879
 40
0.7288569652
 40
0.7873397435
 40
0.8397308331
 40
0.8856919964
 40
0.924926543
 40
0.9571816318
 40
0.9822550963
 40
0.9920505199
 40
1.0
 40
1.0
 40
1.0
 40
1.0
 10
8.5443472012
 20
13.5035572196
 30
0.0
 10
8.547230339
 20
13.5013955654
 30
0.0
 10
8.5528439944
 20
13.4971719293
 30
0.0
 10
8.5609574867
 20
13.4910211005
 30
0.0
 10
8.5684170132
 20
13.4853165933
 30
0.0
 10
8.574133119
 20
13.4808988933
 30
0.0
 10
8.5782398458
 20
13.4776907574
 30
0.0
 10
8.5809286054
 20
13.4755728406
 30
0.0
 10
8.5833280245
 20
13.4736638572
 30
0.0
 10
8.5854226107
 20
13.4719762264
 30
0.0
 10
8.5871990431
 20
13.4705212392
 30
0.0
 10
8.5886456116
 20
13.4693082186
 30
0.0
 10
8.5896364774
 20
13.4684475355
 30
0.0
 10
8.590253558
 20
13.4678818249
 30
0.0
 10
8.5905035363
 20
13.4676411744
 30
0.0
 10
8.590613146
 20
13.4675309962
 30
0.0
  0
SPLINE
  5
520
100
AcDbEntity
  8
0
100
AcDbSpline
 62
7
  6
CONTINUOUS
 70
0
 71
3
 72
20
 73
16
 74
0
 42
0.0000001
 43
0.0000001
 44
0.0000000001
 40
0.0
 40
0.0
 40
0.0
 40
0.0
 40
0.0291328515
 40
0.0605984242
 40
0.0954193664
 40
0.1343296531
 40
0.1778325549
 40
0.2262579391
 40
0.2798196495
 40
0.3386460136
 40
0.4028052594
 40
0.4723246634
 40
0.6273667986
 40
0.8034611724
 40
1.0
 40
1.0
 40
1.0
 40
1.0
 10
8.7693981105
 20
13.5147058508
 30
0.0
 10
8.7695202653
 20
13.5148280021
 30
0.0
 10
8.7698050127
 20
13.515052667
 30
0.0
 10
8.7703136129
 20
13.5153073833
 30
0.0
 10
8.7709122251
 20
13.5154909997
 30
0.0
 10
8.7715996109
 20
13.515604952
 30
0.0
 10
8.7723752796
 20
13.5156502313
 30
0.0
 10
8.7732385201
 20
13.5156273998
 30
0.0
 10
8.774188395
 20
13.5155367214
 30
0.0
 10
8.7752237119
 20
13.5153784945
 30
0.0
 10
8.7763431068
 20
13.5151530909
 30
0.0
 10
8.778006991
 20
13.5147483312
 30
0.0
 10
8.780284443
 20
13.5140662855
 30
0.0
 10
8.7832334319
 20
13.513017668
 30
0.0
 10
8.7852844249
 20
13.512193985
 30
0.0
 10
8.7863590039
 20
13.5117428783
 30
0.0
  0
SPLINE
  5
521
100
AcDbEntity
  8
0
100
AcDbSpline
 62
9
  6
CONTINUOUS
 70
0
 71
3
 72
19
 73
15
 74
0
 42
0.0000001
 43
0.0000001
 44
0.0000000001
 40
0.0
 40
0.0
 40
0.0
 40
0.0
 40
0.1339794636
 40
0.2786361001
 40
0.4273729019
 40
0.5733468114
 40
0.7097287158
 40
0.7722674117
 40
0.8300115032
 40
0.882255665
 40
0.9283607619
 40
0.967764651
 40
0.9848053837
 40
1.0
 40
1.0
 40
1.0
 40
1.0
 10
8.4638904206
 20
13.5768560135
 30
0.0
 10
8.4676899694
 20
13.5741761519
 30
0.0
 10
8.4755440207
 20
13.5685349158
 30
0.0
 10
8.4874757004
 20
13.5597251463
 30
0.0
 10
8.4996329254
 20
13.5505218519
 30
0.0
 10
8.5114527653
 20
13.5413504559
 30
0.0
 10
8.5208130491
 20
13.5338903206
 30
0.0
 10
8.5277097755
 20
13.5282534748
 30
0.0
 10
8.5323102902
 20
13.5244215271
 30
0.0
 10
8.5364342485
 20
13.5209089662
 30
0.0
 10
8.5400308493
 20
13.5177595102
 30
0.0
 10
8.5426660433
 20
13.5153671235
 30
0.0
 10
8.5444711468
 20
13.513657497
 30
0.0
 10
8.545270322
 20
13.5128745918
 30
0.0
 10
8.5456427967
 20
13.5125013456
 30
0.0
  0
SPLINE
  5
522
100
AcDbEntity
  8
0
100
AcDbSpline
 62
9
  6
CONTINUOUS
 70
0
 71
3
 72
28
 73
24
 74
0
 42
0.0000001
 43
0.0000001
 44
0.0000000001
 40
0.0
 40
0.0
 40
0.0
 40
0.0
 40
0.007284129
 40
0.0152020425
 40
0.0242718291
 40
0.0348361898
 40
0.0471047523
 40
0.0611994643
 40
0.0771901269
 40
0.095110409
 40
0.1149725681
 40
0.136770571
 40
0.1604872008
 40
0.1860942557
 40
0.2428253926
 40
0.3065973755
 40
0.3769459639
 40
0.4533269405
 40
0.5351259026
 40
0.6216662258
 40
0.7122181212
 40
0.8060040831
 40
1.0
 40
1.0
 40
1.0
 40
1.0
 10
7.8005922207
 20
14.2438435875
 30
0.0
 10
7.8007079089
 20
14.243959265
 30
0.0
 10
7.8009905548
 20
14.2441621829
 30
0.0
 10
7.8015124903
 20
14.2443389996
 30
0.0
 10
7.8021321936
 20
14.2444005057
 30
0.0
 10
7.8028494073
 20
14.2443513398
 30
0.0
 10
7.8036651497
 20
14.2441932443
 30
0.0
 10
7.8045793605
 20
14.2439266998
 30
0.0
 10
7.8055910513
 20
14.2435518507
 30
0.0
 10
7.8066987007
 20
14.2430692018
 30
0.0
 10
7.8079002751
 20
14.2424793645
 30
0.0
 10
7.809193503
 20
14.2417833415
 30
0.0
 10
7.8105757994
 20
14.2409823418
 30
0.0
 10
7.8126040662
 20
14.2397329282
 30
0.0
 10
7.8153357158
 20
14.2379125075
 30
0.0
 10
7.8188163084
 20
14.2354094819
 30
0.0
 10
7.8225732974
 20
14.2325384566
 30
0.0
 10
7.8265746761
 20
14.2293231717
 30
0.0
 10
7.8307859479
 20
14.225790572
 30
0.0
 10
7.8351704906
 20
14.221970965
 30
0.0
 10
7.8396897865
 20
14.2178975221
 30
0.0
 10
7.8459120535
 20
14.2121103263
 30
0.0
 10
7.8505449638
 20
14.2076015388
 30
0.0
 10
7.8536247273
 20
14.2045194149
 30
0.0
  0
SPLINE
  5
523
100
AcDbEntity
  8
0
100
AcDbSpline
 62
7
  6
CONTINUOUS
 70
0
 71
3
 72
15
 73
11
 74
0
 42
0.0000001
 43
0.0000001
 44
0.0000000001
 40
0.0
 40
0.0
 40
0.0
 40
0.0
 40
0.0912275465
 40
0.1879434072
 40
0.2929848658
 40
0.4085064951
 40
0.5360640839
 40
0.6767280391
 40
0.8312215861
 40
1.0
 40
1.0
 40
1.0
 40
1.0
 10
8.5358196303
 20
13.7539077721
 30
0.0
 10
8.5359848275
 20
13.7540729604
 30
0.0
 10
8.5363621342
 20
13.7543778832
 30
0.0
 10
8.5370279091
 20
13.7547317654
 30
0.0
 10
8.5378007
 20
13.7549923601
 30
0.0
 10
8.5386782918
 20
13.7551610791
 30
0.0
 10
8.5396595247
 20
13.7552390349
 30
0.0
 10
8.5407431629
 20
13.7552269632
 30
0.0
 10
8.5419277394
 20
13.7551252172
 30
0.0
 10
8.542747079
 20
13.7550033057
 30
0.0
 10
8.5431728598
 20
13.7549290224
 30
0.0
  0
SPLINE
  5
524
100
AcDbEntity
  8
0
100
AcDbSpline
 62
9
  6
CONTINUOUS
 70
0
 71
3
 72
27
 73
23
 74
0
 42
0.0000001
 43
0.0000001
 44
0.0000000001
 40
0.0
 40
0.0
 40
0.0
 40
0.0
 40
0.0077501835
 40
0.0159689949
 40
0.0251292674
 40
0.0355740316
 40
0.0475308448
 40
0.0611447632
 40
0.0765080715
 40
0.093675282
 40
0.1126778153
 40
0.1335303136
 40
0.1807743703
 40
0.2353216578
 40
0.296971301
 40
0.3654410338
 40
0.4403826942
 40
0.5213910597
 40
0.6080107727
 40
0.6997414768
 40
0.796036816
 40
1.0
 40
1.0
 40
1.0
 40
1.0
 10
7.6494392229
 20
14.3985531197
 30
0.0
 10
7.6495308764
 20
14.3986442684
 30
0.0
 10
7.6497475159
 20
14.398806032
 30
0.0
 10
7.6501417358
 20
14.398959842
 30
0.0
 10
7.6506034559
 20
14.3990300194
 30
0.0
 10
7.6511316488
 20
14.3990193247
 30
0.0
 10
7.6517268353
 20
14.3989293265
 30
0.0
 10
7.6523892385
 20
14.3987605103
 30
0.0
 10
7.6531186001
 20
14.3985129723
 30
0.0
 10
7.6539143118
 20
14.3981869094
 30
0.0
 10
7.6547754829
 20
14.3977825685
 30
0.0
 10
7.6560639615
 20
14.3971109537
 30
0.0
 10
7.6578258701
 20
14.3960690856
 30
0.0
 10
7.6601007898
 20
14.3945658938
 30
0.0
 10
7.6626031826
 20
14.392769194
 30
0.0
 10
7.6653183572
 20
14.3906888265
 30
0.0
 10
7.6682302007
 20
14.3883364513
 30
0.0
 10
7.6713212066
 20
14.3857257931
 30
0.0
 10
7.6745725998
 20
14.38287235
 30
0.0
 10
7.6779644417
 20
14.3797934214
 30
0.0
 10
7.6827381135
 20
14.3753260958
 30
0.0
 10
7.6863204652
 20
14.3718256235
 30
0.0
 10
7.6887249232
 20
14.3694192191
 30
0.0
  0
SPLINE
  5
525
100
AcDbEntity
  8
0
100
AcDbSpline
 62
9
  6
CONTINUOUS
 70
0
 71
3
 72
30
 73
26
 74
0
 42
0.0000001
 43
0.0000001
 44
0.0000000001
 40
0.0
 40
0.0
 40
0.0
 40
0.0
 40
0.1037664959
 40
0.1935353294
 40
0.2692523242
 40
0.3309238453
 40
0.3565185835
 40
0.3786514116
 40
0.3973815884
 40
0.4128255139
 40
0.4252128287
 40
0.4350059283
 40
0.443140473
 40
0.4511722746
 40
0.4607094463
 40
0.4727645718
 40
0.4878448279
 40
0.5062024871
 40
0.5279674496
 40
0.5532092163
 40
0.6142509841
 40
0.6894756326
 40
0.7789040354
 40
0.8824722073
 40
1.0
 40
1.0
 40
1.0
 40
1.0
 10
8.5598194766
 20
13.5110739042
 30
0.0
 10
8.560164717
 20
13.5108695904
 30
0.0
 10
8.5608119921
 20
13.5104941525
 30
0.0
 10
8.5617249768
 20
13.5099938094
 30
0.0
 10
8.5625087518
 20
13.5095973136
 30
0.0
 10
8.5630839569
 20
13.5093389582
 30
0.0
 10
8.5634794451
 20
13.5091886976
 30
0.0
 10
8.5637240357
 20
13.5091095637
 30
0.0
 10
8.5639354262
 20
13.5090566875
 30
0.0
 10
8.564113859
 20
13.5090299375
 30
0.0
 10
8.5642600142
 20
13.5090294239
 30
0.0
 10
8.5643759254
 20
13.5090558579
 30
0.0
 10
8.5644610964
 20
13.5091157254
 30
0.0
 10
8.5645047882
 20
13.5092092886
 30
0.0
 10
8.5645077626
 20
13.5093257151
 30
0.0
 10
8.5644771618
 20
13.5094649053
 30
0.0
 10
8.5644134941
 20
13.5096293466
 30
0.0
 10
8.56431669
 20
13.5098198034
 30
0.0
 10
8.5641865185
 20
13.5100365786
 30
0.0
 10
8.5639530734
 20
13.5103831439
 30
0.0
 10
8.5635730282
 20
13.5108791727
 30
0.0
 10
8.5630100845
 20
13.5115460389
 30
0.0
 10
8.5623148158
 20
13.512315597
 30
0.0
 10
8.5614882781
 20
13.5131863667
 30
0.0
 10
8.5608881368
 20
13.5137950905
 30
0.0
 10
8.5605668464
 20
13.5141163751
 30
0.0
  0
LINE
  5
526
100
AcDbEntity
  8
0
100
AcDbLine
 62
9
  6
CONTINUOUS
 10
8.6060063586
 20
13.4686768629
 11
8.6033898683
 21
13.4710540744
  0
SPLINE
  5
527
100
AcDbEntity
  8
0
100
AcDbSpline
 62
9
  6
CONTINUOUS
 70
0
 71
3
 72
15
 73
11
 74
0
 42
0.0000001
 43
0.0000001
 44
0.0000000001
 40
0.0
 40
0.0
 40
0.0
 40
0.0
 40
0.0308659862
 40
0.0670986114
 40
0.1547769457
 40
0.2612281239
 40
0.38438888
 40
0.5222964855
 40
0.6727564266
 40
1.0
 40
1.0
 40
1.0
 40
1.0
 10
8.6033898683
 20
13.4710540744
 30
0.0
 10
8.6028940665
 20
13.4714838795
 30
0.0
 10
8.6018102956
 20
13.4724113409
 30
0.0
 10
8.5992932633
 20
13.47453052
 30
0.0
 10
8.5955179674
 20
13.477649836
 30
0.0
 10
8.5902873848
 20
13.4819087022
 30
0.0
 10
8.5842031305
 20
13.4868101248
 30
0.0
 10
8.5773676685
 20
13.4922702167
 30
0.0
 10
8.5671132902
 20
13.5004014492
 30
0.0
 10
8.5591277345
 20
13.5066753243
 30
0.0
 10
8.5536474696
 20
13.5109604686
 30
0.0
  0
LINE
  5
528
100
AcDbEntity
  8
0
100
AcDbLine
 62
9
  6
CONTINUOUS
 10
8.6028705948
 20
13.4702085788
 11
8.6043353155
 21
13.4692126103
  0
SPLINE
  5
529
100
AcDbEntity
  8
0
100
AcDbSpline
 62
9
  6
CONTINUOUS
 70
0
 71
3
 72
29
 73
25
 74
0
 42
0.0000001
 43
0.0000001
 44
0.0000000001
 40
0.0
 40
0.0
 40
0.0
 40
0.0
 40
0.1352749583
 40
0.2567917964
 40
0.3644831951
 40
0.4582926053
 40
0.5381734817
 40
0.6041065701
 40
0.6561240383
 40
0.6769517583
 40
0.6943651819
 40
0.7084295518
 40
0.719277383
 40
0.7327226575
 40
0.7382238962
 40
0.7454639831
 40
0.7554822445
 40
0.7686803889
 40
0.7852329345
 40
0.8052323591
 40
0.8287376551
 40
0.855789672
 40
0.9206483177
 40
1.0
 40
1.0
 40
1.0
 40
1.0
 10
8.6043353155
 20
13.4692126103
 30
0.0
 10
8.6044683737
 20
13.4691240663
 30
0.0
 10
8.6047215504
 20
13.4689568708
 30
0.0
 10
8.6050830415
 20
13.4687228267
 30
0.0
 10
8.6054057395
 20
13.4685190485
 30
0.0
 10
8.6056894143
 20
13.4683456622
 30
0.0
 10
8.605933819
 20
13.468202722
 30
0.0
 10
8.6061388153
 20
13.4680903274
 30
0.0
 10
8.6062856606
 20
13.4680172839
 30
0.0
 10
8.606383809
 20
13.4679752605
 30
0.0
 10
8.6064415776
 20
13.4679538083
 30
0.0
 10
8.6064902974
 20
13.4679399036
 30
0.0
 10
8.6065333071
 20
13.4679323827
 30
0.0
 10
8.6065754199
 20
13.4679354664
 30
0.0
 10
8.6065883505
 20
13.4679663703
 30
0.0
 10
8.6065839944
 20
13.4679935125
 30
0.0
 10
8.6065709884
 20
13.4680271101
 30
0.0
 10
8.6065480451
 20
13.4680682717
 30
0.0
 10
8.6065153912
 20
13.468117168
 30
0.0
 10
8.606472716
 20
13.4681739009
 30
0.0
 10
8.6064199968
 20
13.4682384928
 30
0.0
 10
8.6063306292
 20
13.4683415118
 30
0.0
 10
8.6061926066
 20
13.4684895498
 30
0.0
 10
8.6060728687
 20
13.4686107861
 30
0.0
 10
8.6060063586
 20
13.4686768629
 30
0.0
  0
SPLINE
  5
52A
100
AcDbEntity
  8
0
100
AcDbSpline
 62
9
  6
CONTINUOUS
 70
0
 71
3
 72
30
 73
26
 74
0
 42
0.0000001
 43
0.0000001
 44
0.0000000001
 40
0.0
 40
0.0
 40
0.0
 40
0.0
 40
0.0033162768
 40
0.0067542793
 40
0.0143442882
 40
0.0186567708
 40
0.0233760983
 40
0.0341592574
 40
0.0468848573
 40
0.0616439292
 40
0.0784774026
 40
0.0973925336
 40
0.1183760088
 40
0.1413974113
 40
0.1664146657
 40
0.1933745643
 40
0.2528645307
 40
0.3192834312
 40
0.3919360082
 40
0.4700330812
 40
0.5527037646
 40
0.639007006
 40
0.7279436979
 40
0.8184720782
 40
1.0
 40
1.0
 40
1.0
 40
1.0
 10
7.9546982096
 20
14.0861180515
 30
0.0
 10
7.9547646021
 20
14.0861844498
 30
0.0
 10
7.9549128901
 20
14.086307237
 30
0.0
 10
7.9552684645
 20
14.0865071905
 30
0.0
 10
7.9556944646
 20
14.0866219849
 30
0.0
 10
7.9561631997
 20
14.0866664727
 30
0.0
 10
7.9567251681
 20
14.0866646935
 30
0.0
 10
7.9575205253
 20
14.0865612674
 30
0.0
 10
7.9585738869
 20
14.086301391
 30
0.0
 10
7.9597641818
 20
14.0859006059
 30
0.0
 10
7.9610887179
 20
14.0853595547
 30
0.0
 10
7.9625444241
 20
14.0846792205
 30
0.0
 10
7.964127397
 20
14.0838610696
 30
0.0
 10
7.9658333936
 20
14.0829071349
 30
0.0
 10
7.9676577097
 20
14.0818198604
 30
0.0
 10
7.9703299734
 20
14.0801401567
 30
0.0
 10
7.9739209085
 20
14.0777216585
 30
0.0
 10
7.9784820394
 20
14.074433526
 30
0.0
 10
7.98337371
 20
14.0707067911
 30
0.0
 10
7.988539002
 20
14.0665829374
 30
0.0
 10
7.993917469
 20
14.0621089852
 30
0.0
 10
7.9994462097
 20
14.0573377426
 30
0.0
 10
8.0050596255
 20
14.0523257058
 30
0.0
 10
8.0125728418
 20
14.0453953616
 30
0.0
 10
8.0181096733
 20
14.0400373782
 30
0.0
 10
8.0217426009
 20
14.0364015413
 30
0.0
  0
SPLINE
  5
52B
100
AcDbEntity
  8
0
100
AcDbSpline
 62
9
  6
CONTINUOUS
 70
0
 71
3
 72
27
 73
23
 74
0
 42
0.0000001
 43
0.0000001
 44
0.0000000001
 40
0.0
 40
0.0
 40
0.0
 40
0.0
 40
0.1978371834
 40
0.2926026987
 40
0.3836241782
 40
0.4702105486
 40
0.551718676
 40
0.6275553956
 40
0.6971865396
 40
0.7601433096
 40
0.8160311044
 40
0.8645442476
 40
0.8859734908
 40
0.9054985542
 40
0.9231226804
 40
0.9388639791
 40
0.9527656347
 40
0.9649052451
 40
0.9754145908
 40
0.9845113568
 40
0.9925391968
 40
1.0
 40
1.0
 40
1.0
 40
1.0
 10
8.0217426009
 20
14.0364015413
 30
0.0
 10
8.0245928826
 20
14.033553082
 30
0.0
 10
8.0287534403
 20
14.0292843727
 30
0.0
 10
8.034082421
 20
14.0235694151
 30
0.0
 10
8.0378026444
 20
14.0194534903
 30
0.0
 10
8.0412750589
 20
14.0154785625
 30
0.0
 10
8.0444733409
 20
14.0116759301
 30
0.0
 10
8.0473732616
 20
14.0080748796
 30
0.0
 10
8.0499527291
 20
14.0047024954
 30
0.0
 10
8.0521931772
 20
14.0015842453
 30
0.0
 10
8.0540792607
 20
13.9987437643
 30
0.0
 10
8.0553957135
 20
13.9965429425
 30
0.0
 10
8.0562514322
 20
13.9949336294
 30
0.0
 10
8.0567701389
 20
13.9938587293
 30
0.0
 10
8.0571922985
 20
13.9928670721
 30
0.0
 10
8.0575173496
 20
13.9919601333
 30
0.0
 10
8.0577450503
 20
13.9911391131
 30
0.0
 10
8.0578751963
 20
13.9904046212
 30
0.0
 10
8.057907296
 20
13.9897565919
 30
0.0
 10
8.0578396842
 20
13.9891941711
 30
0.0
 10
8.0576682658
 20
13.9887181032
 30
0.0
 10
8.0574788333
 20
13.988458977
 30
0.0
 10
8.057371383
 20
13.9883515173
 30
0.0
  0
SPLINE
  5
52C
100
AcDbEntity
  8
0
100
AcDbSpline
 62
9
  6
CONTINUOUS
 70
0
 71
3
 72
18
 73
14
 74
0
 42
0.0000001
 43
0.0000001
 44
0.0000000001
 40
0.0
 40
0.0
 40
0.0
 40
0.0
 40
0.0232899084
 40
0.0527204734
 40
0.0881093485
 40
0.1288001602
 40
0.1738524016
 40
0.2220412088
 40
0.3299695598
 40
0.4631796377
 40
0.6224385591
 40
0.8039477882
 40
1.0
 40
1.0
 40
1.0
 40
1.0
 10
8.0312031095
 20
14.0434845725
 30
0.0
 10
8.0311107026
 20
14.0434925563
 30
0.0
 10
8.0308988049
 20
14.0434716983
 30
0.0
 10
8.0305613027
 20
14.043373566
 30
0.0
 10
8.0301727209
 20
14.0432117696
 30
0.0
 10
8.0297424188
 20
14.0429931272
 30
0.0
 10
8.0292804973
 20
14.0427260274
 30
0.0
 10
8.0286035884
 20
14.0422972097
 30
0.0
 10
8.0276616051
 20
14.0416325065
 30
0.0
 10
8.0264027749
 20
14.0406530538
 30
0.0
 10
8.0249597859
 20
14.0394354447
 30
0.0
 10
8.0233753461
 20
14.0379995969
 30
0.0
 10
8.0222946984
 20
14.0369536201
 30
0.0
 10
8.0217426536
 20
14.0364014888
 30
0.0
  0
SPLINE
  5
52D
100
AcDbEntity
  8
0
100
AcDbSpline
 62
7
  6
CONTINUOUS
 70
0
 71
3
 72
22
 73
18
 74
0
 42
0.0000001
 43
0.0000001
 44
0.0000000001
 40
0.0
 40
0.0
 40
0.0
 40
0.0
 40
0.0454616914
 40
0.0912728087
 40
0.1377804355
 40
0.1853588375
 40
0.2344028924
 40
0.2853403157
 40
0.3386384841
 40
0.3948082169
 40
0.4544027566
 40
0.5180049477
 40
0.5861917368
 40
0.6594564812
 40
0.7380636853
 40
0.8218210392
 40
1.0
 40
1.0
 40
1.0
 40
1.0
 10
9.8145337053
 20
16.5898555448
 30
0.0
 10
9.8133370542
 20
16.5910521959
 30
0.0
 10
9.8110538057
 20
16.5935774196
 30
0.0
 10
9.8080085107
 20
16.597714591
 30
0.0
 10
9.8053530714
 20
16.6022046827
 30
0.0
 10
9.8031093976
 20
16.6070470283
 30
0.0
 10
9.8013055437
 20
16.6122449657
 30
0.0
 10
9.7999771249
 20
16.6178036426
 30
0.0
 10
9.799168089
 20
16.6237294516
 30
0.0
 10
9.7989323168
 20
16.6300284743
 30
0.0
 10
9.7993348058
 20
16.6367038346
 30
0.0
 10
9.8004522316
 20
16.6437511776
 30
0.0
 10
9.8023717497
 20
16.651151313
 30
0.0
 10
9.8051852031
 20
16.6588579249
 30
0.0
 10
9.808977429
 20
16.6667834204
 30
0.0
 10
9.815530944
 20
16.6776506365
 30
0.0
 10
9.8217900656
 20
16.6852346888
 30
0.0
 10
9.8264801254
 20
16.6899247486
 30
0.0
  0
SPLINE
  5
52E
100
AcDbEntity
  8
0
100
AcDbSpline
 62
7
  6
CONTINUOUS
 70
0
 71
3
 72
22
 73
18
 74
0
 42
0.0000001
 43
0.0000001
 44
0.0000000001
 40
0.0
 40
0.0
 40
0.0
 40
0.0
 40
0.1781796248
 40
0.2619372031
 40
0.3405444824
 40
0.4138090654
 40
0.4819956572
 40
0.5455976882
 40
0.6051921592
 40
0.6613618151
 40
0.7146599134
 40
0.7655972948
 40
0.8146413082
 40
0.8622196613
 40
0.9087272262
 40
0.9545383035
 40
1.0
 40
1.0
 40
1.0
 40
1.0
 10
9.9146029091
 20
16.6018019649
 30
0.0
 10
9.9099128318
 20
16.5971118876
 30
0.0
 10
9.902328751
 20
16.5908527471
 30
0.0
 10
9.8914614979
 20
16.5842992238
 30
0.0
 10
9.883535994
 20
16.5805070034
 30
0.0
 10
9.8758293889
 20
16.5776935625
 30
0.0
 10
9.8684292703
 20
16.5757740568
 30
0.0
 10
9.8613819421
 20
16.5746566394
 30
0.0
 10
9.854706593
 20
16.5742541549
 30
0.0
 10
9.8484075784
 20
16.5744899301
 30
0.0
 10
9.842481777
 20
16.575298969
 30
0.0
 10
9.8369231064
 20
16.5766273899
 30
0.0
 10
9.8317251749
 20
16.578431245
 30
0.0
 10
9.8268828334
 20
16.5806749145
 30
0.0
 10
9.8223927486
 20
16.5833303543
 30
0.0
 10
9.818255579
 20
16.5863756454
 30
0.0
 10
9.8157303565
 20
16.5886588935
 30
0.0
 10
9.8145337053
 20
16.5898555448
 30
0.0
  0
SPLINE
  5
52F
100
AcDbEntity
  8
0
100
AcDbSpline
 62
9
  6
CONTINUOUS
 70
0
 71
3
 72
30
 73
26
 74
0
 42
0.0000001
 43
0.0000001
 44
0.0000000001
 40
0.0
 40
0.0
 40
0.0
 40
0.0
 40
0.1720435373
 40
0.3476245754
 40
0.4336573356
 40
0.5169165987
 40
0.59626715
 40
0.6706460956
 40
0.7390783836
 40
0.8006909953
 40
0.8287000029
 40
0.85473133
 40
0.8787120924
 40
0.9005810256
 40
0.9202884141
 40
0.9378013783
 40
0.9531072346
 40
0.9662243177
 40
0.977219985
 40
0.981969414
 40
0.9862576083
 40
0.9901302237
 40
0.9936505003
 40
0.9969040148
 40
1.0
 40
1.0
 40
1.0
 40
1.0
 10
7.6887249246
 20
14.3694192176
 30
0.0
 10
7.6926128282
 20
14.3655338714
 30
0.0
 10
7.7003172897
 20
14.3575310571
 30
0.0
 10
7.7095944772
 20
14.3472375658
 30
0.0
 10
7.7167631235
 20
14.3388697309
 30
0.0
 10
7.7218233144
 20
14.3327456137
 30
0.0
 10
7.7265333072
 20
14.3268168834
 30
0.0
 10
7.7308298591
 20
14.3211665618
 30
0.0
 10
7.7346548315
 20
14.3158719493
 30
0.0
 10
7.7374916746
 20
14.3116932959
 30
0.0
 10
7.739478915
 20
14.3085780008
 30
0.0
 10
7.740774232
 20
14.3064480793
 30
0.0
 10
7.7419184071
 20
14.3044566015
 30
0.0
 10
7.7429078558
 20
14.3026101988
 30
0.0
 10
7.7437395605
 20
14.3009149143
 30
0.0
 10
7.7444111782
 20
14.2993763238
 30
0.0
 10
7.7449211412
 20
14.2979989996
 30
0.0
 10
7.7452681727
 20
14.2967870349
 30
0.0
 10
7.7454291034
 20
14.2958760383
 30
0.0
 10
7.7454638355
 20
14.2952361761
 30
0.0
 10
7.7454466323
 20
14.2948233033
 30
0.0
 10
7.7453873941
 20
14.2944537951
 30
0.0
 10
7.7452854289
 20
14.2941277873
 30
0.0
 10
7.7451400132
 20
14.2938460365
 30
0.0
 10
7.7450119742
 20
14.29368649
 30
0.0
 10
7.744942175
 20
14.293616407
 30
0.0
  0
SPLINE
  5
530
100
AcDbEntity
  8
0
100
AcDbSpline
 62
9
  6
CONTINUOUS
 70
0
 71
3
 72
17
 73
13
 74
0
 42
0.0000001
 43
0.0000001
 44
0.0000000001
 40
0.0
 40
0.0
 40
0.0
 40
0.0
 40
0.0686898004
 40
0.1087667831
 40
0.1524889118
 40
0.1992823019
 40
0.2482164163
 40
0.3553923169
 40
0.485268725
 40
0.6388307073
 40
0.812725316
 40
1.0
 40
1.0
 40
1.0
 40
1.0
 10
7.6947102457
 20
14.3799753422
 30
0.0
 10
7.6948150462
 20
14.3797086685
 30
0.0
 10
7.6948614971
 20
14.3792408864
 30
0.0
 10
7.6947904763
 20
14.3786097767
 30
0.0
 10
7.6946699408
 20
14.3780770076
 30
0.0
 10
7.6944925704
 20
14.3775226147
 30
0.0
 10
7.6941805843
 20
14.3767352342
 30
0.0
 10
7.6936460795
 20
14.3756663948
 30
0.0
 10
7.6927946101
 20
14.374275387
 30
0.0
 10
7.6916796833
 20
14.3727253839
 30
0.0
 10
7.6903105825
 20
14.3710695636
 30
0.0
 10
7.6892784449
 20
14.3699704559
 30
0.0
 10
7.6887259952
 20
14.369418145
 30
0.0
  0
SPLINE
  5
531
100
AcDbEntity
  8
0
100
AcDbSpline
 62
9
  6
CONTINUOUS
 70
0
 71
3
 72
19
 73
15
 74
0
 42
0.0000001
 43
0.0000001
 44
0.0000000001
 40
0.0
 40
0.0
 40
0.0
 40
0.0
 40
0.1403450047
 40
0.2880516364
 40
0.4371500474
 40
0.5815482475
 40
0.7152340346
 40
0.7763529529
 40
0.8327813132
 40
0.8839145464
 40
0.9291966727
 40
0.9680630877
 40
0.984938391
 40
1.0
 40
1.0
 40
1.0
 40
1.0
 10
8.4732321674
 20
13.5857072157
 30
0.0
 10
8.4774549853
 20
13.5825288473
 30
0.0
 10
8.4860821814
 20
13.5759522307
 30
0.0
 10
8.4990734624
 20
13.5658400694
 30
0.0
 10
8.5120870933
 20
13.5555093027
 30
0.0
 10
8.5245881959
 20
13.5453833966
 30
0.0
 10
8.5344253098
 20
13.5372336482
 30
0.0
 10
8.5416487618
 20
13.5311231443
 30
0.0
 10
8.5464662584
 20
13.5269824475
 30
0.0
 10
8.5507961648
 20
13.5231897681
 30
0.0
 10
8.5545893328
 20
13.5197885757
 30
0.0
 10
8.5573829454
 20
13.5172055953
 30
0.0
 10
8.5593093535
 20
13.5153619757
 30
0.0
 10
8.5601665574
 20
13.5145182383
 30
0.0
 10
8.5605668464
 20
13.5141163751
 30
0.0
  0
SPLINE
  5
532
100
AcDbEntity
  8
0
100
AcDbSpline
 62
9
  6
CONTINUOUS
 70
0
 71
3
 72
18
 73
14
 74
0
 42
0.0000001
 43
0.0000001
 44
0.0000000001
 40
0.0
 40
0.0
 40
0.0
 40
0.0
 40
0.0642726629
 40
0.1270345053
 40
0.2476878736
 40
0.360812653
 40
0.4703114412
 40
0.5890331218
 40
0.7179563567
 40
0.785911753
 40
0.8558363302
 40
0.9273191895
 40
1.0
 40
1.0
 40
1.0
 40
1.0
 10
8.5605677449
 20
13.5141177104
 30
0.0
 10
8.560286385
 20
13.5143258408
 30
0.0
 10
8.5597087212
 20
13.5147090971
 30
0.0
 10
8.5585129693
 20
13.5153368228
 30
0.0
 10
8.556979809
 20
13.5158760653
 30
0.0
 10
8.5551257886
 20
13.5161744381
 30
0.0
 10
8.5532593124
 20
13.5161655901
 30
0.0
 10
8.551333028
 20
13.5158418248
 30
0.0
 10
8.5497013756
 20
13.5152730692
 30
0.0
 10
8.5484022864
 20
13.5146192269
 30
0.0
 10
8.5474323559
 20
13.5140171183
 30
0.0
 10
8.5465000663
 20
13.5133146845
 30
0.0
 10
8.545919177
 20
13.5127846487
 30
0.0
 10
8.5456394394
 20
13.5125047009
 30
0.0
  0
SPLINE
  5
533
100
AcDbEntity
  8
0
100
AcDbSpline
 62
9
  6
CONTINUOUS
 70
0
 71
3
 72
29
 73
25
 74
0
 42
0.0000001
 43
0.0000001
 44
0.0000000001
 40
0.0
 40
0.0
 40
0.0
 40
0.0
 40
0.1862811994
 40
0.2780650879
 40
0.3676332501
 40
0.4540420595
 40
0.5363927184
 40
0.613843979
 40
0.6856222747
 40
0.7510316473
 40
0.8094653535
 40
0.8359061059
 40
0.8604233804
 40
0.8829738547
 40
0.9035244779
 40
0.9220547445
 40
0.9385603837
 40
0.9530595565
 40
0.9656034784
 40
0.9762959632
 40
0.9853283388
 40
0.9930382215
 40
0.9965716869
 40
1.0
 40
1.0
 40
1.0
 40
1.0
 10
7.8536247288
 20
14.2045194134
 30
0.0
 10
7.8570818181
 20
14.2010644794
 30
0.0
 10
7.862162114
 20
14.1958260754
 30
0.0
 10
7.8687143561
 20
14.1887469716
 30
0.0
 10
7.8734032063
 20
14.1835148476
 30
0.0
 10
7.8778408335
 20
14.1783912426
 30
0.0
 10
7.8819802268
 20
14.1734312604
 30
0.0
 10
7.8857770904
 20
14.1686869782
 30
0.0
 10
7.8891925001
 20
14.1642085292
 30
0.0
 10
7.8921924892
 20
14.1600431035
 30
0.0
 10
7.89438979
 20
14.1567677099
 30
0.0
 10
7.8959090482
 20
14.1543323372
 30
0.0
 10
7.8968889111
 20
14.1526708475
 30
0.0
 10
7.897745557
 20
14.1511169047
 30
0.0
 10
7.8984770441
 20
14.1496743329
 30
0.0
 10
7.8990818294
 20
14.1483466211
 30
0.0
 10
7.8995587599
 20
14.1471368398
 30
0.0
 10
7.8999070683
 20
14.146047497
 30
0.0
 10
7.9001264466
 20
14.1450803923
 30
0.0
 10
7.9002162898
 20
14.144235824
 30
0.0
 10
7.9001757102
 20
14.1435131174
 30
0.0
 10
7.9000222604
 20
14.1429959108
 30
0.0
 10
7.8998275451
 20
14.1426620052
 30
0.0
 10
7.8997095133
 20
14.1425211895
 30
0.0
 10
7.8996459059
 20
14.1424575883
 30
0.0
  0
LINE
  5
534
100
AcDbEntity
  8
0
100
AcDbLine
 62
7
  6
CONTINUOUS
 10
8.2638137587
 20
14.0324663396
 11
8.2648631469
 21
14.0332389596
  0
SPLINE
  5
535
100
AcDbEntity
  8
0
100
AcDbSpline
 62
9
  6
CONTINUOUS
 70
0
 71
3
 72
19
 73
15
 74
0
 42
0.0000001
 43
0.0000001
 44
0.0000000001
 40
0.0
 40
0.0
 40
0.0
 40
0.0
 40
0.0086491231
 40
0.0192499492
 40
0.0461163474
 40
0.0798859625
 40
0.1196036538
 40
0.1641537364
 40
0.2121877309
 40
0.3205518074
 40
0.4550701705
 40
0.616453131
 40
0.8007503215
 40
1.0
 40
1.0
 40
1.0
 40
1.0
 10
7.8613303662
 20
14.2133552622
 30
0.0
 10
7.8613213486
 20
14.21332259
 30
0.0
 10
7.8612954412
 20
14.2132515111
 30
0.0
 10
7.8612186282
 20
14.2130878108
 30
0.0
 10
7.8610765877
 20
14.2128469266
 30
0.0
 10
7.860857101
 20
14.2125205599
 30
0.0
 10
7.8605838593
 20
14.2121471872
 30
0.0
 10
7.8602663651
 20
14.2117372704
 30
0.0
 10
7.8597717174
 20
14.2111244934
 30
0.0
 10
7.8590340636
 20
14.2102550795
 30
0.0
 10
7.8579821054
 20
14.2090704139
 30
0.0
 10
7.8567060336
 20
14.2076872527
 30
0.0
 10
7.8552317151
 20
14.2061422981
 30
0.0
 10
7.8541771414
 20
14.2050712317
 30
0.0
 10
7.8536250096
 20
14.2045191307
 30
0.0
  0
SPLINE
  5
536
100
AcDbEntity
  8
0
100
AcDbSpline
 62
9
  6
CONTINUOUS
 70
0
 71
3
 72
31
 73
27
 74
0
 42
0.0000001
 43
0.0000001
 44
0.0000000001
 40
0.0
 40
0.0
 40
0.0
 40
0.0
 40
0.1240166777
 40
0.2337902472
 40
0.329432815
 40
0.4108115019
 40
0.4779267915
 40
0.5061945932
 40
0.5309808673
 40
0.5523415189
 40
0.5703667666
 40
0.5852113355
 40
0.5971597599
 40
0.6067588093
 40
0.6150341527
 40
0.6235040834
 40
0.6335836813
 40
0.6461368952
 40
0.6616040791
 40
0.6802141479
 40
0.702095604
 40
0.7273233777
 40
0.7559433447
 40
0.8234661271
 40
0.904810276
 40
1.0
 40
1.0
 40
1.0
 40
1.0
 10
7.29727839
 20
14.7774048315
 30
0.0
 10
7.2968243005
 20
14.7778612096
 30
0.0
 10
7.295961859
 20
14.7787152232
 30
0.0
 10
7.2947242388
 20
14.7798956148
 30
0.0
 10
7.2936232865
 20
14.7808981441
 30
0.0
 10
7.2926599965
 20
14.7817220588
 30
0.0
 10
7.2919373917
 20
14.7822884769
 30
0.0
 10
7.2914270897
 20
14.7826475456
 30
0.0
 10
7.2911018594
 20
14.7828562795
 30
0.0
 10
7.2908117555
 20
14.783020504
 30
0.0
 10
7.2905566766
 20
14.7831404538
 30
0.0
 10
7.2903360942
 20
14.7832165262
 30
0.0
 10
7.2901488366
 20
14.7832488524
 30
0.0
 10
7.2899917948
 20
14.7832360941
 30
0.0
 10
7.2898666474
 20
14.7831697982
 30
0.0
 10
7.289785676
 20
14.7830510368
 30
0.0
 10
7.2897475484
 20
14.7828919695
 30
0.0
 10
7.2897450694
 20
14.7826932377
 30
0.0
 10
7.2897770561
 20
14.7824527286
 30
0.0
 10
7.2898433672
 20
14.7821695837
 30
0.0
 10
7.2899442475
 20
14.7818434636
 30
0.0
 10
7.2900798177
 20
14.781474309
 30
0.0
 10
7.2903207029
 20
14.7808919716
 30
0.0
 10
7.2907145538
 20
14.780058474
 30
0.0
 10
7.291302646
 20
14.7789360592
 30
0.0
 10
7.2917524231
 20
14.7781374407
 30
0.0
 10
7.2919994815
 20
14.777709482
 30
0.0
  0
SPLINE
  5
537
100
AcDbEntity
  8
0
100
AcDbSpline
 62
9
  6
CONTINUOUS
 70
0
 71
3
 72
54
 73
50
 74
0
 42
0.0000001
 43
0.0000001
 44
0.0000000001
 40
0.0
 40
0.0
 40
0.0
 40
0.0
 40
0.008299936
 40
0.0154921777
 40
0.0215608382
 40
0.0265380266
 40
0.0286264736
 40
0.0304516017
 40
0.0320186151
 40
0.0333372202
 40
0.0344255097
 40
0.0353154408
 40
0.0360641081
 40
0.0367633535
 40
0.0375229262
 40
0.0384310137
 40
0.0395409936
 40
0.0408821953
 40
0.0424709308
 40
0.0443167906
 40
0.046425674
 40
0.0488010988
 40
0.054358732
 40
0.0609981056
 40
0.0687174955
 40
0.0775061367
 40
0.0873404712
 40
0.0981951027
 40
0.1100447825
 40
0.122861958
 40
0.1512764306
 40
0.1831735727
 40
0.2182812446
 40
0.2563177817
 40
0.2969406262
 40
0.3397825906
 40
0.3844756748
 40
0.4306321807
 40
0.4778415717
 40
0.5256916829
 40
0.6216351895
 40
0.7150570241
 40
0.8026002087
 40
0.843182058
 40
0.8811484877
 40
0.9161367766
 40
0.9478130761
 40
0.975868836
 40
1.0
 40
1.0
 40
1.0
 40
1.0
 10
7.3885779657
 20
14.6565077423
 30
0.0
 10
7.3889091416
 20
14.6561995319
 30
0.0
 10
7.3895327082
 20
14.6556300002
 30
0.0
 10
7.3904216249
 20
14.6548609262
 30
0.0
 10
7.3911973184
 20
14.6542388239
 30
0.0
 10
7.3917781092
 20
14.6538192485
 30
0.0
 10
7.3921877416
 20
14.6535600162
 30
0.0
 10
7.3924481852
 20
14.6534133525
 30
0.0
 10
7.3926801669
 20
14.6533026774
 30
0.0
 10
7.3928839116
 20
14.6532278904
 30
0.0
 10
7.393060079
 20
14.6531887934
 30
0.0
 10
7.3932100758
 20
14.6531856681
 30
0.0
 10
7.3933352582
 20
14.6532217288
 30
0.0
 10
7.3934303916
 20
14.6533011628
 30
0.0
 10
7.3934898016
 20
14.6534187034
 30
0.0
 10
7.3935170999
 20
14.6535689277
 30
0.0
 10
7.3935153919
 20
14.6537527339
 30
0.0
 10
7.3934852178
 20
14.6539712663
 30
0.0
 10
7.393426575
 20
14.6542251447
 30
0.0
 10
7.3933393004
 20
14.6545145933
 30
0.0
 10
7.393223291
 20
14.6548396632
 30
0.0
 10
7.3930191955
 20
14.6553476625
 30
0.0
 10
7.3926875672
 20
14.6560698782
 30
0.0
 10
7.39219412
 20
14.6570370358
 30
0.0
 10
7.3915865588
 20
14.658143001
 30
0.0
 10
7.3908661377
 20
14.6593851447
 30
0.0
 10
7.3900348794
 20
14.6607602285
 30
0.0
 10
7.3890951137
 20
14.6622644366
 30
0.0
 10
7.3880492613
 20
14.6638938923
 30
0.0
 10
7.3864612953
 20
14.6663125411
 30
0.0
 10
7.3842283101
 20
14.6696146281
 30
0.0
 10
7.381257201
 20
14.6738836368
 30
0.0
 10
7.3779350464
 20
14.6785468829
 30
0.0
 10
7.3742897301
 20
14.6835635049
 30
0.0
 10
7.3703535223
 20
14.6888895887
 30
0.0
 10
7.366161783
 20
14.6944777545
 30
0.0
 10
7.3617511368
 20
14.7002785663
 30
0.0
 10
7.3571599948
 20
14.7062410107
 30
0.0
 10
7.3524290985
 20
14.7123128676
 30
0.0
 10
7.3459850363
 20
14.7204899395
 30
0.0
 10
7.3378990887
 20
14.7305799464
 30
0.0
 10
7.328330223
 20
14.7422529754
 30
0.0
 10
7.3205618274
 20
14.751498995
 30
0.0
 10
7.3146617939
 20
14.7583656544
 30
0.0
 10
7.3105904488
 20
14.7630264901
 30
0.0
 10
7.3067976373
 20
14.767285773
 30
0.0
 10
7.3033202072
 20
14.7711021807
 30
0.0
 10
7.3001934344
 20
14.7744368554
 30
0.0
 10
7.2982094927
 20
14.7764757901
 30
0.0
 10
7.29727839
 20
14.7774048315
 30
0.0
  0
SPLINE
  5
538
100
AcDbEntity
  8
0
100
AcDbSpline
 62
9
  6
CONTINUOUS
 70
0
 71
3
 72
19
 73
15
 74
0
 42
0.0000001
 43
0.0000001
 44
0.0000000001
 40
0.0
 40
0.0
 40
0.0
 40
0.0
 40
0.2232618342
 40
0.4180161445
 40
0.5838538733
 40
0.720659427
 40
0.7782196748
 40
0.8286218011
 40
0.8719832778
 40
0.9085041841
 40
0.938540437
 40
0.96276604
 40
0.9824760684
 40
1.0
 40
1.0
 40
1.0
 40
1.0
 10
8.5456427973
 20
13.512501345
 30
0.0
 10
8.5459380875
 20
13.5122065193
 30
0.0
 10
8.546486102
 20
13.5116495992
 30
0.0
 10
8.547232519
 20
13.5108533831
 30
0.0
 10
8.5478458707
 20
13.5101545738
 30
0.0
 10
8.5482670832
 20
13.5096288475
 30
0.0
 10
8.5485332376
 20
13.5092566271
 30
0.0
 10
8.5486872058
 20
13.5090192397
 30
0.0
 10
8.5488074354
 20
13.5088072724
 30
0.0
 10
8.5488940595
 20
13.5086206527
 30
0.0
 10
8.5489472788
 20
13.5084589572
 30
0.0
 10
8.5489670861
 20
13.5083211042
 30
0.0
 10
8.5489516606
 20
13.5082049947
 30
0.0
 10
8.5489136417
 20
13.5081435459
 30
0.0
 10
8.5488905499
 20
13.5081203194
 30
0.0
  0
SPLINE
  5
539
100
AcDbEntity
  8
0
100
AcDbSpline
 62
9
  6
CONTINUOUS
 70
0
 71
3
 72
41
 73
37
 74
0
 42
0.0000001
 43
0.0000001
 44
0.0000000001
 40
0.0
 40
0.0
 40
0.0
 40
0.0
 40
0.1041347724
 40
0.2086932489
 40
0.3117428268
 40
0.4114031947
 40
0.5058517346
 40
0.5933962251
 40
0.6725005776
 40
0.7084662256
 40
0.7418392927
 40
0.7724843983
 40
0.800283008
 40
0.8251372405
 40
0.8469714995
 40
0.8657343485
 40
0.873959753
 40
0.8814208089
 40
0.8881303175
 40
0.8941090941
 40
0.899390334
 40
0.9040246769
 40
0.9080900729
 40
0.9117041954
 40
0.9150345023
 40
0.9182939471
 40
0.9217092255
 40
0.9254789716
 40
0.9297511799
 40
0.9346264353
 40
0.9401714044
 40
0.9464310967
 40
0.9534361919
 40
0.9612049955
 40
0.9790581882
 40
1.0
 40
1.0
 40
1.0
 40
1.0
 10
8.0312009437
 20
14.0434822778
 30
0.0
 10
8.0285671463
 20
14.0461175089
 30
0.0
 10
8.0232405108
 20
14.051350598
 30
0.0
 10
8.0151519307
 20
14.0590310633
 30
0.0
 10
8.0070512096
 20
14.0664640095
 30
0.0
 10
7.9990902005
 20
14.0735117642
 30
0.0
 10
7.9914158045
 20
14.0800436876
 30
0.0
 10
7.9841699692
 20
14.0859410355
 30
0.0
 10
7.9784298627
 20
14.0903704066
 30
0.0
 10
7.9741443483
 20
14.0935079629
 30
0.0
 10
7.9712182508
 20
14.0955662304
 30
0.0
 10
7.9684899499
 20
14.0973965371
 30
0.0
 10
7.9659715914
 20
14.0989909766
 30
0.0
 10
7.9636743311
 20
14.1003431034
 30
0.0
 10
7.9616084584
 20
14.1014473017
 30
0.0
 10
7.960024654
 20
14.1021874405
 30
0.0
 10
7.9588787823
 20
14.1026424016
 30
0.0
 10
7.9581208406
 20
14.1029034418
 30
0.0
 10
7.9574266506
 20
14.1030996098
 30
0.0
 10
7.956796594
 20
14.1032308165
 30
0.0
 10
7.956230845
 20
14.1032970745
 30
0.0
 10
7.9557292296
 20
14.1032981297
 30
0.0
 10
7.9552913555
 20
14.1032331243
 30
0.0
 10
7.9549172598
 20
14.1031001147
 30
0.0
 10
7.9546093375
 20
14.1028962918
 30
0.0
 10
7.9543727141
 20
14.1026216828
 30
0.0
 10
7.9542103676
 20
14.1022808511
 30
0.0
 10
7.9541207055
 20
14.1018780768
 30
0.0
 10
7.9541008546
 20
14.1014145469
 30
0.0
 10
7.9541492743
 20
14.1008899061
 30
0.0
 10
7.9542654934
 20
14.1003037171
 30
0.0
 10
7.9544495961
 20
14.0996558073
 30
0.0
 10
7.9547017466
 20
14.0989463145
 30
0.0
 10
7.9551499976
 20
14.0978680079
 30
0.0
 10
7.9558905837
 20
14.0963738523
 30
0.0
 10
7.9565793781
 20
14.0951681463
 30
0.0
 10
7.9569643815
 20
14.0945253658
 30
0.0
  0
LINE
  5
53A
100
AcDbEntity
  8
0
100
AcDbLine
 62
9
  6
CONTINUOUS
 10
8.0642165731
 20
13.9912858295
 11
8.0663093079
 21
13.9901460577
  0
SPLINE
  5
53B
100
AcDbEntity
  8
0
100
AcDbSpline
 62
9
  6
CONTINUOUS
 70
0
 71
3
 72
41
 73
37
 74
0
 42
0.0000001
 43
0.0000001
 44
0.0000000001
 40
0.0
 40
0.0
 40
0.0
 40
0.0
 40
0.0224009343
 40
0.0418969847
 40
0.0585210725
 40
0.0657852569
 40
0.0723732068
 40
0.0783119793
 40
0.0836406674
 40
0.0884160137
 40
0.0927199042
 40
0.0966658029
 40
0.1004018688
 40
0.1041031796
 40
0.1079487797
 40
0.1120975184
 40
0.1166753893
 40
0.1217754127
 40
0.1274639141
 40
0.1337876731
 40
0.1407794261
 40
0.1568478381
 40
0.1757867705
 40
0.1976381826
 40
0.2223989204
 40
0.2500326474
 40
0.2804834266
 40
0.313680711
 40
0.3495372136
 40
0.387953989
 40
0.4720081312
 40
0.5648126226
 40
0.6652608536
 40
0.7721691414
 40
0.8842137445
 40
1.0
 40
1.0
 40
1.0
 40
1.0
 10
8.0663093079
 20
13.9901460577
 30
0.0
 10
8.0668311573
 20
13.9898777798
 30
0.0
 10
8.0678174315
 20
13.989395273
 30
0.0
 10
8.0692298916
 20
13.9887975884
 30
0.0
 10
8.0703073731
 20
13.9884310825
 30
0.0
 10
8.0710817184
 20
13.9882353042
 30
0.0
 10
8.0715917072
 20
13.9881400036
 30
0.0
 10
8.0720572377
 20
13.9880894852
 30
0.0
 10
8.0724782073
 20
13.9880839762
 30
0.0
 10
8.072854594
 20
13.9881238961
 30
0.0
 10
8.0731863204
 20
13.9882099496
 30
0.0
 10
8.0734728374
 20
13.9883432485
 30
0.0
 10
8.0737124631
 20
13.9885248362
 30
0.0
 10
8.0739029973
 20
13.9887540925
 30
0.0
 10
8.0740435219
 20
13.9890288114
 30
0.0
 10
8.0741347139
 20
13.989347029
 30
0.0
 10
8.0741777762
 20
13.9897078844
 30
0.0
 10
8.0741735692
 20
13.9901112571
 30
0.0
 10
8.0741225065
 20
13.9905572186
 30
0.0
 10
8.0740247723
 20
13.991045799
 30
0.0
 10
8.0738225628
 20
13.9917889347
 30
0.0
 10
8.0734422591
 20
13.9928232543
 30
0.0
 10
8.0728216059
 20
13.9941781266
 30
0.0
 10
8.0720171516
 20
13.9956959424
 30
0.0
 10
8.0710306565
 20
13.9973725272
 30
0.0
 10
8.0698645499
 20
13.999203078
 30
0.0
 10
8.0685220693
 20
14.0011819945
 30
0.0
 10
8.0670070289
 20
14.0033031304
 30
0.0
 10
8.0653240141
 20
14.0055599301
 30
0.0
 10
8.0627856805
 20
14.0088398529
 30
0.0
 10
8.0592280733
 20
14.0132159616
 30
0.0
 10
8.0545085228
 20
14.018738323
 30
0.0
 10
8.0492767103
 20
14.0246080663
 30
0.0
 10
8.0435960338
 20
14.0307508361
 30
0.0
 10
8.0375368224
 20
14.0370890435
 30
0.0
 10
8.0333466584
 20
14.0413388132
 30
0.0
 10
8.0312009437
 20
14.0434822778
 30
0.0
  0
SPLINE
  5
53C
100
AcDbEntity
  8
0
100
AcDbSpline
 62
7
  6
CONTINUOUS
 70
0
 71
3
 72
43
 73
39
 74
0
 42
0.0000001
 43
0.0000001
 44
0.0000000001
 40
0.0
 40
0.0
 40
0.0
 40
0.0
 40
0.0000164348
 40
0.0000656975
 40
0.0001477272
 40
0.0002624646
 40
0.0004098522
 40
0.0005898342
 40
0.0010473661
 40
0.00163465
 40
0.0023513034
 40
0.0031969721
 40
0.0041713311
 40
0.006504941
 40
0.0093501274
 40
0.0127053638
 40
0.0165697999
 40
0.020942857
 40
0.0258239929
 40
0.0312127212
 40
0.0371086241
 40
0.0504203833
 40
0.0657552151
 40
0.083106458
 40
0.1024662189
 40
0.1238236742
 40
0.147164394
 40
0.1997333037
 40
0.2600326362
 40
0.2930403169
 40
0.3279300289
 40
0.3646800451
 40
0.4032670286
 40
0.4858527649
 40
0.5754881259
 40
0.6719582862
 40
0.7750361053
 40
1.0
 40
1.0
 40
1.0
 40
1.0
 10
12.1108926102
 20
5.5025766941
 30
0.0
 10
12.1108926102
 20
5.5025764132
 30
0.0
 10
12.1108908439
 20
5.5025767185
 30
0.0
 10
12.110889018
 20
5.5025756803
 30
0.0
 10
12.1108845319
 20
5.5025751312
 30
0.0
 10
12.1108789281
 20
5.502573841
 30
0.0
 10
12.1108714519
 20
5.5025724332
 30
0.0
 10
12.1108583097
 20
5.502569875
 30
0.0
 10
12.1108377093
 20
5.502566075
 30
0.0
 10
12.1108080744
 20
5.5025608274
 30
0.0
 10
12.1107718434
 20
5.5025547398
 30
0.0
 10
12.1107290335
 20
5.5025479148
 30
0.0
 10
12.1106588406
 20
5.5025373395
 30
0.0
 10
12.1105546513
 20
5.502523082
 30
0.0
 10
12.1104098319
 20
5.5025057716
 30
0.0
 10
12.1102387052
 20
5.5024883378
 30
0.0
 10
12.110041315
 20
5.5024713281
 30
0.0
 10
12.1098177032
 20
5.5024551235
 30
0.0
 10
12.1095679042
 20
5.502440148
 30
0.0
 10
12.1092919543
 20
5.5024268124
 30
0.0
 10
12.1088718982
 20
5.5024110983
 30
0.0
 10
12.1082816679
 20
5.5023988052
 30
0.0
 10
12.107495568
 20
5.5023954174
 30
0.0
 10
12.1066061361
 20
5.5024024687
 30
0.0
 10
12.1056139162
 20
5.502420141
 30
0.0
 10
12.1045195153
 20
5.5024468458
 30
0.0
 10
12.102857857
 20
5.5024913171
 30
0.0
 10
12.1005309188
 20
5.502553069
 30
0.0
 10
12.0980379384
 20
5.5025834663
 30
0.0
 10
12.0958471124
 20
5.5025691997
 30
0.0
 10
12.0940589019
 20
5.5025441477
 30
0.0
 10
12.0921754616
 20
5.5025111153
 30
0.0
 10
12.0894770374
 20
5.5024642308
 30
0.0
 10
12.0858747554
 20
5.5024124943
 30
0.0
 10
12.0812829163
 20
5.5023895989
 30
0.0
 10
12.0763408699
 20
5.5024111101
 30
0.0
 10
12.0690866545
 20
5.5024948323
 30
0.0
 10
12.0634808728
 20
5.5025767224
 30
0.0
 10
12.0596363336
 20
5.5025766941
 30
0.0
  0
SPLINE
  5
53D
100
AcDbEntity
  8
0
100
AcDbSpline
 62
7
  6
CONTINUOUS
 70
0
 71
3
 72
27
 73
23
 74
0
 42
0.0000001
 43
0.0000001
 44
0.0000000001
 40
0.0
 40
0.0
 40
0.0
 40
0.0
 40
0.0502696057
 40
0.0762741415
 40
0.1028341497
 40
0.1575553061
 40
0.1856851723
 40
0.2143059652
 40
0.2581191764
 40
0.3029378329
 40
0.3487013029
 40
0.395347859
 40
0.4428131384
 40
0.4668327507
 40
0.4910331562
 40
0.539943618
 40
0.5894776821
 40
0.6395676504
 40
0.6901461737
 40
0.7924931137
 40
0.8959654863
 40
1.0
 40
1.0
 40
1.0
 40
1.0
 10
12.0596363336
 20
5.5025766941
 30
0.0
 10
12.0575627773
 20
5.5025766789
 30
0.0
 10
12.0544165889
 20
5.5025529344
 30
0.0
 10
12.0501750746
 20
5.5025068817
 30
0.0
 10
12.0457499317
 20
5.5024593502
 30
0.0
 10
12.0412370292
 20
5.502419346
 30
0.0
 10
12.0366389956
 20
5.5023993323
 30
0.0
 10
12.0324908627
 20
5.5023946201
 30
0.0
 10
12.0276543406
 20
5.5024071429
 30
0.0
 10
12.0221108249
 20
5.5024448144
 30
0.0
 10
12.0164505402
 20
5.5024949168
 30
0.0
 10
12.0106811002
 20
5.5025469076
 30
0.0
 10
12.0058083884
 20
5.5025753068
 30
0.0
 10
12.0018614846
 20
5.5025779226
 30
0.0
 10
11.9978549894
 20
5.5025655169
 30
0.0
 10
11.9927961598
 20
5.5025296189
 30
0.0
 10
11.9866695356
 20
5.5024766688
 30
0.0
 10
11.9804740479
 20
5.5024295855
 30
0.0
 10
11.9721000101
 20
5.5023891498
 30
0.0
 10
11.9615237937
 20
5.5024012446
 30
0.0
 10
11.9487431942
 20
5.502508134
 30
0.0
 10
11.9401839473
 20
5.5025767147
 30
0.0
 10
11.935892658
 20
5.5025766941
 30
0.0
  0
SPLINE
  5
53E
100
AcDbEntity
  8
0
100
AcDbSpline
 62
7
  6
CONTINUOUS
 70
0
 71
3
 72
27
 73
23
 74
0
 42
0.0000001
 43
0.0000001
 44
0.0000000001
 40
0.0
 40
0.0
 40
0.0
 40
0.0
 40
0.069387833
 40
0.1040346586
 40
0.1386173395
 40
0.2075070481
 40
0.2417747366
 40
0.2758974182
 40
0.3267638327
 40
0.3771869722
 40
0.4270991441
 40
0.4764328693
 40
0.5251204936
 40
0.5492012572
 40
0.5730959695
 40
0.6202955695
 40
0.6666547799
 40
0.7121101183
 40
0.7566003097
 40
0.8424448745
 40
0.92372602
 40
1.0
 40
1.0
 40
1.0
 40
1.0
 10
11.935892658
 20
5.5025766941
 30
0.0
 10
11.933030499
 20
5.5025766804
 30
0.0
 10
11.928739213
 20
5.5025538902
 30
0.0
 10
11.9230216229
 20
5.5025072845
 30
0.0
 10
11.917324576
 20
5.5024602834
 30
0.0
 10
11.9116431075
 20
5.50241985
 30
0.0
 10
11.9059805104
 20
5.5023994318
 30
0.0
 10
11.9010613188
 20
5.5023946154
 30
0.0
 10
11.8954757355
 20
5.5024067219
 30
0.0
 10
11.8892389608
 20
5.5024441044
 30
0.0
 10
11.8830655061
 20
5.5024940959
 30
0.0
 10
11.8769636633
 20
5.5025461861
 30
0.0
 10
11.8719271684
 20
5.5025751929
 30
0.0
 10
11.8679399307
 20
5.5025779509
 30
0.0
 10
11.8640140922
 20
5.5025657491
 30
0.0
 10
11.8591694004
 20
5.5025304041
 30
0.0
 10
11.8534354927
 20
5.5024774748
 30
0.0
 10
11.8478132904
 20
5.5024302139
 30
0.0
 10
11.8405622802
 20
5.5023899859
 30
0.0
 10
11.8318332208
 20
5.5023991384
 30
0.0
 10
11.8217938682
 20
5.502503571
 30
0.0
 10
11.815295152
 20
5.5025767098
 30
0.0
 10
11.8121489483
 20
5.5025766942
 30
0.0
  0
SPLINE
  5
53F
100
AcDbEntity
  8
0
100
AcDbSpline
 62
7
  6
CONTINUOUS
 70
0
 71
3
 72
43
 73
39
 74
0
 42
0.0000001
 43
0.0000001
 44
0.0000000001
 40
0.0
 40
0.0
 40
0.0
 40
0.0
 40
0.2249638808
 40
0.3280416965
 40
0.4245118529
 40
0.5141472112
 40
0.596732949
 40
0.6353199336
 40
0.6720699509
 40
0.7069596639
 40
0.7399673455
 40
0.8002666818
 40
0.8528355945
 40
0.8761763159
 40
0.8975337727
 40
0.9168935348
 40
0.9342447791
 40
0.9495796122
 40
0.9628913725
 40
0.9687872758
 40
0.9741760046
 40
0.9790571409
 40
0.9834301983
 40
0.9872946347
 40
0.9906498714
 40
0.9934950581
 40
0.9958286683
 40
0.9968030274
 40
0.9976486963
 40
0.9983653497
 40
0.9989526338
 40
0.9994101657
 40
0.9995901477
 40
0.9997375353
 40
0.9998522728
 40
0.9999343025
 40
0.9999835652
 40
1.0
 40
1.0
 40
1.0
 40
1.0
 10
11.8121489483
 20
5.5025766942
 30
0.0
 10
11.8083044047
 20
5.5025766751
 30
0.0
 10
11.8026986164
 20
5.5024948518
 30
0.0
 10
11.7954443928
 20
5.5024111097
 30
0.0
 10
11.7905023406
 20
5.5023895967
 30
0.0
 10
11.7859104961
 20
5.502412495
 30
0.0
 10
11.7823082098
 20
5.5024642299
 30
0.0
 10
11.7796097823
 20
5.502511115
 30
0.0
 10
11.7777263397
 20
5.5025441483
 30
0.0
 10
11.775938127
 20
5.502569201
 30
0.0
 10
11.7737472983
 20
5.5025834658
 30
0.0
 10
11.7712543148
 20
5.5025530676
 30
0.0
 10
11.7689273737
 20
5.502491318
 30
0.0
 10
11.7672657132
 20
5.5024468463
 30
0.0
 10
11.7661713109
 20
5.5024201411
 30
0.0
 10
11.7651790898
 20
5.5024024688
 30
0.0
 10
11.7642896567
 20
5.5023954174
 30
0.0
 10
11.7635035558
 20
5.502398805
 30
0.0
 10
11.7629133248
 20
5.5024110983
 30
0.0
 10
11.7624932682
 20
5.5024268123
 30
0.0
 10
11.7622173179
 20
5.502440148
 30
0.0
 10
11.7619675186
 20
5.5024551234
 30
0.0
 10
11.7617439065
 20
5.502471328
 30
0.0
 10
11.761546516
 20
5.5024883377
 30
0.0
 10
11.7613753891
 20
5.5025057715
 30
0.0
 10
11.7612305695
 20
5.502523082
 30
0.0
 10
11.7611263801
 20
5.5025373395
 30
0.0
 10
11.7610561871
 20
5.5025479148
 30
0.0
 10
11.7610133772
 20
5.5025547399
 30
0.0
 10
11.7609771461
 20
5.5025608276
 30
0.0
 10
11.7609475112
 20
5.5025660752
 30
0.0
 10
11.7609269107
 20
5.5025698752
 30
0.0
 10
11.7609137685
 20
5.5025724334
 30
0.0
 10
11.7609062924
 20
5.5025738412
 30
0.0
 10
11.7609006885
 20
5.5025751314
 30
0.0
 10
11.7608962024
 20
5.5025756805
 30
0.0
 10
11.7608943765
 20
5.5025767187
 30
0.0
 10
11.7608926102
 20
5.5025764134
 30
0.0
 10
11.7608926102
 20
5.5025766943
 30
0.0
  0
SPLINE
  5
540
100
AcDbEntity
  8
0
100
AcDbSpline
 62
9
  6
CONTINUOUS
 70
0
 71
3
 72
51
 73
47
 74
0
 42
0.0000001
 43
0.0000001
 44
0.0000000001
 40
0.0
 40
0.0
 40
0.0
 40
0.0
 40
0.0298058533
 40
0.0629497047
 40
0.099092675
 40
0.1378889979
 40
0.2220769135
 40
0.3127062834
 40
0.4068963259
 40
0.501630349
 40
0.5482512939
 40
0.5938823113
 40
0.6381681098
 40
0.6807662516
 40
0.7213372081
 40
0.7595532578
 40
0.7951118106
 40
0.8277261027
 40
0.8571495106
 40
0.883182449
 40
0.8948783125
 40
0.9056683061
 40
0.9155325603
 40
0.9244478952
 40
0.9323905047
 40
0.9393369747
 40
0.9452692102
 40
0.9501866702
 40
0.9541112327
 40
0.9557228734
 40
0.9571189441
 40
0.9583217373
 40
0.9593646464
 40
0.9602974791
 40
0.9611878623
 40
0.9621119741
 40
0.9631376915
 40
0.9643146837
 40
0.9656754996
 40
0.967240943
 40
0.9690248848
 40
0.9732814353
 40
0.9784909566
 40
0.9846677969
 40
0.9918244573
 40
1.0
 40
1.0
 40
1.0
 40
1.0
 10
8.476838279
 20
13.5978449425
 30
0.0
 10
8.4757367729
 20
13.5989501658
 30
0.0
 10
8.4733840044
 20
13.6012581057
 30
0.0
 10
8.4696241995
 20
13.6048326789
 30
0.0
 10
8.4654729685
 20
13.6086779375
 30
0.0
 10
8.4593000373
 20
13.6142722535
 30
0.0
 10
8.4509048254
 20
13.6216611565
 30
0.0
 10
8.440192054
 20
13.6308034748
 30
0.0
 10
8.4289284575
 20
13.6401486927
 30
0.0
 10
8.4193325692
 20
13.6478939276
 30
0.0
 10
8.4116530396
 20
13.653964538
 30
0.0
 10
8.4060142503
 20
13.6583576245
 30
0.0
 10
8.4005102886
 20
13.6625807902
 30
0.0
 10
8.3951847228
 20
13.6666009677
 30
0.0
 10
8.3900799718
 20
13.6703858743
 30
0.0
 10
8.3852370808
 20
13.6739047458
 30
0.0
 10
8.3806955517
 20
13.6771292069
 30
0.0
 10
8.3764916069
 20
13.6800333696
 30
0.0
 10
8.3726578885
 20
13.6825951567
 30
0.0
 10
8.3696979736
 20
13.6844925943
 30
0.0
 10
8.3675336451
 20
13.685822229
 30
0.0
 10
8.3660778196
 20
13.686687714
 30
0.0
 10
8.3647337282
 20
13.6874558854
 30
0.0
 10
8.3635047979
 20
13.6881245862
 30
0.0
 10
8.3623947939
 20
13.6886915019
 30
0.0
 10
8.3614076129
 20
13.6891543043
 30
0.0
 10
8.3605463978
 20
13.6895110583
 30
0.0
 10
8.3598137922
 20
13.6897607219
 30
0.0
 10
8.3592797061
 20
13.6898878444
 30
0.0
 10
8.3589184629
 20
13.6899274899
 30
0.0
 10
8.3586975118
 20
13.689928399
 30
0.0
 10
8.3585077912
 20
13.6899026091
 30
0.0
 10
8.358348772
 20
13.6898493821
 30
0.0
 10
8.358220928
 20
13.6897672329
 30
0.0
 10
8.3581267353
 20
13.6896555785
 30
0.0
 10
8.3580681109
 20
13.6895168156
 30
0.0
 10
8.358043885
 20
13.6893535903
 30
0.0
 10
8.3580521915
 20
13.6891663881
 30
0.0
 10
8.3580921292
 20
13.6889547837
 30
0.0
 10
8.3581634146
 20
13.6887183589
 30
0.0
 10
8.3583092763
 20
13.688347491
 30
0.0
 10
8.3585783474
 20
13.6878222179
 30
0.0
 10
8.3590084008
 20
13.6871247783
 30
0.0
 10
8.35956341
 20
13.6863278227
 30
0.0
 10
8.3602445092
 20
13.6854308429
 30
0.0
 10
8.3607508923
 20
13.6848078764
 30
0.0
 10
8.3610250219
 20
13.684479179
 30
0.0
  0
LINE
  5
541
100
AcDbEntity
  8
0
100
AcDbLine
 62
9
  6
CONTINUOUS
 10
8.4802551825
 20
13.5872299876
 11
8.4824555959
 21
13.5860692506
  0
SPLINE
  5
542
100
AcDbEntity
  8
0
100
AcDbSpline
 62
9
  6
CONTINUOUS
 70
0
 71
3
 72
31
 73
27
 74
0
 42
0.0000001
 43
0.0000001
 44
0.0000000001
 40
0.0
 40
0.0
 40
0.0
 40
0.0
 40
0.0668122798
 40
0.0955390971
 40
0.1211504487
 40
0.1436745399
 40
0.1631668404
 40
0.1797247231
 40
0.1935249297
 40
0.2048885572
 40
0.2143967628
 40
0.2230254125
 40
0.2320409028
 40
0.2425635224
 40
0.2553157602
 40
0.2707023349
 40
0.2889476415
 40
0.3101807774
 40
0.3344795811
 40
0.3924406763
 40
0.4630055509
 40
0.5461185911
 40
0.6416149051
 40
0.7492684949
 40
0.8688195239
 40
1.0
 40
1.0
 40
1.0
 40
1.0
 10
8.4824555959
 20
13.5860692506
 30
0.0
 10
8.4828816867
 20
13.585859334
 30
0.0
 10
8.4834968989
 20
13.5855704595
 30
0.0
 10
8.4842934822
 20
13.585242493
 30
0.0
 10
8.4848066522
 20
13.5850542229
 30
0.0
 10
8.4852658632
 20
13.5849109701
 30
0.0
 10
8.4856709191
 20
13.5848127085
 30
0.0
 10
8.4860218927
 20
13.5847593522
 30
0.0
 10
8.486319438
 20
13.5847509459
 30
0.0
 10
8.4865649639
 20
13.5847881984
 30
0.0
 10
8.4867599829
 20
13.5848751272
 30
0.0
 10
8.486897847
 20
13.5850178568
 30
0.0
 10
8.4869694057
 20
13.5852098111
 30
0.0
 10
8.4869792735
 20
13.5854416138
 30
0.0
 10
8.4869334009
 20
13.5857139237
 30
0.0
 10
8.4868329149
 20
13.5860287884
 30
0.0
 10
8.4866778279
 20
13.5863871772
 30
0.0
 10
8.4864679287
 20
13.5867894164
 30
0.0
 10
8.4860919049
 20
13.5874221682
 30
0.0
 10
8.4854754398
 20
13.5883180798
 30
0.0
 10
8.4845569289
 20
13.5895102871
 30
0.0
 10
8.483422087
 20
13.5908709938
 30
0.0
 10
8.4820739661
 20
13.5923958586
 30
0.0
 10
8.4805158991
 20
13.5940800523
 30
0.0
 10
8.4787518815
 20
13.5959186796
 30
0.0
 10
8.4774982942
 20
13.5971860484
 30
0.0
 10
8.476838279
 20
13.5978449425
 30
0.0
  0
SPLINE
  5
543
100
AcDbEntity
  8
0
100
AcDbSpline
 62
9
  6
CONTINUOUS
 70
0
 71
3
 72
41
 73
37
 74
0
 42
0.0000001
 43
0.0000001
 44
0.0000000001
 40
0.0
 40
0.0
 40
0.0
 40
0.0
 40
0.121078043
 40
0.2361587445
 40
0.3440059526
 40
0.4435264256
 40
0.5337117313
 40
0.6137360829
 40
0.6497003424
 40
0.6828294725
 40
0.7130227312
 40
0.7401871047
 40
0.7642581507
 40
0.7852405758
 40
0.8031816035
 40
0.8181851652
 40
0.8246453675
 40
0.8304562781
 40
0.8356714262
 40
0.8403662863
 40
0.8446452373
 40
0.848646066
 40
0.8525369454
 40
0.8565002773
 40
0.8607082641
 40
0.8653048412
 40
0.8704004085
 40
0.8760757871
 40
0.8823890652
 40
0.8893819113
 40
0.9055080983
 40
0.9246030397
 40
0.9467204493
 40
0.9589146127
 40
0.9718621985
 40
1.0
 40
1.0
 40
1.0
 40
1.0
 10
7.6947089856
 20
14.3799742359
 30
0.0
 10
7.6927731712
 20
14.3819149154
 30
0.0
 10
7.6889676735
 20
14.3856706044
 30
0.0
 10
7.6833377362
 20
14.3910522332
 30
0.0
 10
7.6779716481
 20
14.3960020192
 30
0.0
 10
7.6729297901
 20
14.4004702523
 30
0.0
 10
7.6682647889
 20
14.4044115553
 30
0.0
 10
7.6646139927
 20
14.4073213878
 30
0.0
 10
7.661914156
 20
14.4093484552
 30
0.0
 10
7.6600869594
 20
14.4106579478
 30
0.0
 10
7.658390546
 20
14.4118068003
 30
0.0
 10
7.6568309007
 20
14.4127903826
 30
0.0
 10
7.6554126691
 20
14.4136049232
 30
0.0
 10
7.654139491
 20
14.4142495468
 30
0.0
 10
7.6530135158
 20
14.4147241883
 30
0.0
 10
7.6521599493
 20
14.4149917456
 30
0.0
 10
7.6515533708
 20
14.4151105254
 30
0.0
 10
7.6511590721
 20
14.4151522259
 30
0.0
 10
7.6508023061
 20
14.4151510612
 30
0.0
 10
7.6504829685
 20
14.4151065707
 30
0.0
 10
7.650201211
 20
14.4150180031
 30
0.0
 10
7.6499579062
 20
14.4148844136
 30
0.0
 10
7.6497548218
 20
14.4147055412
 30
0.0
 10
7.6495934384
 20
14.4144826656
 30
0.0
 10
7.649473875
 20
14.414217632
 30
0.0
 10
7.6493953119
 20
14.4139115974
 30
0.0
 10
7.6493569182
 20
14.4135648895
 30
0.0
 10
7.6493582361
 20
14.4131774585
 30
0.0
 10
7.649399054
 20
14.4127491884
 30
0.0
 10
7.6495117878
 20
14.4120919759
 30
0.0
 10
7.6497621147
 20
14.4111676417
 30
0.0
 10
7.6502047983
 20
14.409946422
 30
0.0
 10
7.6506862374
 20
14.408836624
 30
0.0
 10
7.6511452973
 20
14.4078701576
 30
0.0
 10
7.6516857864
 20
14.4067917407
 30
0.0
 10
7.6521263518
 20
14.4059722933
 30
0.0
 10
7.6524359619
 20
14.4054155808
 30
0.0
  0
LINE
  5
544
100
AcDbEntity
  8
0
100
AcDbLine
 62
7
  6
CONTINUOUS
 10
12.2339198741
 20
3.3405766965
 11
12.2130977469
 21
3.3405766965
  0
LINE
  5
545
100
AcDbEntity
  8
0
100
AcDbLine
 62
7
  6
CONTINUOUS
 10
12.080161672
 20
3.3405766965
 11
12.0298926102
 21
3.3405766965
  0
LINE
  5
546
100
AcDbEntity
  8
0
100
AcDbLine
 62
7
  6
CONTINUOUS
 10
11.8418926102
 20
3.3405766965
 11
11.7916235484
 21
3.3405766965
  0
LINE
  5
547
100
AcDbEntity
  8
0
100
AcDbLine
 62
7
  6
CONTINUOUS
 10
11.6586874735
 20
3.3405766965
 11
11.6378653463
 21
3.3405766965
  0
LINE
  5
548
100
AcDbEntity
  8
0
100
AcDbLine
 62
9
  6
CONTINUOUS
 10
8.5906131462
 20
13.467530996
 11
8.5910828222
 21
13.4668998453
  0
SPLINE
  5
549
100
AcDbEntity
  8
0
100
AcDbSpline
 62
9
  6
CONTINUOUS
 70
0
 71
3
 72
42
 73
38
 74
0
 42
0.0000001
 43
0.0000001
 44
0.0000000001
 40
0.0
 40
0.0
 40
0.0
 40
0.0
 40
0.0202231238
 40
0.029118963
 40
0.037206066
 40
0.0444901472
 40
0.0509830947
 40
0.0567067033
 40
0.0616958817
 40
0.0660075358
 40
0.0697320363
 40
0.0730099736
 40
0.0760460904
 40
0.0790957711
 40
0.0824131374
 40
0.086201011
 40
0.0905965683
 40
0.0956828886
 40
0.1015098564
 40
0.1081060367
 40
0.1154871059
 40
0.1236613593
 40
0.132632777
 40
0.1529638537
 40
0.1764461273
 40
0.2029902702
 40
0.2324709453
 40
0.2647556519
 40
0.2997016982
 40
0.3371497795
 40
0.418807614
 40
0.5080815761
 40
0.6031261437
 40
0.7019396667
 40
0.8024544296
 40
0.9025382259
 40
1.0
 40
1.0
 40
1.0
 40
1.0
 10
7.7534980508
 20
14.2960886974
 30
0.0
 10
7.7541783738
 20
14.2956496139
 30
0.0
 10
7.7551716658
 20
14.2950375979
 30
0.0
 10
7.7564769913
 20
14.2943192146
 30
0.0
 10
7.7573456632
 20
14.2938833015
 30
0.0
 10
7.7581456848
 20
14.2935269607
 30
0.0
 10
7.7588764033
 20
14.2932503759
 30
0.0
 10
7.7595373568
 20
14.2930534723
 30
0.0
 10
7.7601285436
 20
14.2929362307
 30
0.0
 10
7.7606504809
 20
14.2928987775
 30
0.0
 10
7.7611041911
 20
14.2929421789
 30
0.0
 10
7.7614899219
 20
14.2930697867
 30
0.0
 10
7.7618031941
 20
14.2932861077
 30
0.0
 10
7.7620358296
 20
14.2935893798
 30
0.0
 10
7.7621856859
 20
14.29397192
 30
0.0
 10
7.7622565309
 20
14.2944296521
 30
0.0
 10
7.7622515859
 20
14.2949626218
 30
0.0
 10
7.7621724787
 20
14.2955715301
 30
0.0
 10
7.7620196175
 20
14.2962564593
 30
0.0
 10
7.7617933627
 20
14.2970169504
 30
0.0
 10
7.7614940105
 20
14.2978522034
 30
0.0
 10
7.761121892
 20
14.2987612802
 30
0.0
 10
7.7605026297
 20
14.3001283613
 30
0.0
 10
7.7595396399
 20
14.3020109375
 30
0.0
 10
7.7581466259
 20
14.3044601482
 30
0.0
 10
7.7564785639
 20
14.3071721116
 30
0.0
 10
7.7545445844
 20
14.3101325473
 30
0.0
 10
7.7523540879
 20
14.313325974
 30
0.0
 10
7.7499174155
 20
14.3167363832
 30
0.0
 10
7.7462482721
 20
14.3216947507
 30
0.0
 10
7.741135262
 20
14.3282891601
 30
0.0
 10
7.7344126957
 20
14.3365495259
 30
0.0
 10
7.7270775426
 20
14.345193821
 30
0.0
 10
7.7192865501
 20
14.354038795
 30
0.0
 10
7.7112054459
 20
14.3628946548
 30
0.0
 10
7.7030070639
 20
14.3715676631
 30
0.0
 10
7.6974697916
 20
14.3772164074
 30
0.0
 10
7.6947089856
 20
14.3799742359
 30
0.0
  0
SPLINE
  5
54A
100
AcDbEntity
  8
0
100
AcDbSpline
 62
7
  6
CONTINUOUS
 70
0
 71
3
 72
35
 73
31
 74
0
 42
0.0000001
 43
0.0000001
 44
0.0000000001
 40
0.0
 40
0.0
 40
0.0
 40
0.0
 40
0.0733915151
 40
0.109477977
 40
0.1449831789
 40
0.2137858426
 40
0.2469585175
 40
0.2792177914
 40
0.3105333074
 40
0.3409018141
 40
0.370349642
 40
0.3989348989
 40
0.426748262
 40
0.4539123347
 40
0.4805790145
 40
0.5069240344
 40
0.5331395134
 40
0.559424326
 40
0.5859736381
 40
0.612969188
 40
0.6405707399
 40
0.6689102168
 40
0.6980882173
 40
0.7281726308
 40
0.7591993359
 40
0.7911737798
 40
0.8578025983
 40
0.8923886762
 40
0.927694513
 40
1.0
 40
1.0
 40
1.0
 40
1.0
 10
11.7916235484
 20
3.3405766965
 30
0.0
 10
11.7907174026
 20
3.3351768803
 30
0.0
 10
11.7888696499
 20
3.3271920646
 30
0.0
 10
11.7854256328
 20
3.3169322264
 30
0.0
 10
11.7814434768
 20
3.3072386726
 30
0.0
 10
11.7765876516
 20
3.2981568762
 30
0.0
 10
11.7708924304
 20
3.2899095712
 30
0.0
 10
11.7663298775
 20
3.284306113
 30
0.0
 10
11.7614596783
 20
3.2792541833
 30
0.0
 10
11.7563175552
 20
3.2747918204
 30
0.0
 10
11.7509416171
 20
3.270953415
 30
0.0
 10
11.7453717382
 20
3.2677688661
 30
0.0
 10
11.7396495417
 20
3.2652635352
 30
0.0
 10
11.7338182599
 20
3.2634579349
 30
0.0
 10
11.7279226011
 20
3.2623673658
 30
0.0
 10
11.7220084531
 20
3.2620014784
 30
0.0
 10
11.7161224013
 20
3.262363841
 30
0.0
 10
11.7103110288
 20
3.2634516818
 30
0.0
 10
11.7046201307
 20
3.2652559007
 30
0.0
 10
11.6990940247
 20
3.2677613785
 30
0.0
 10
11.6937750491
 20
3.2709474484
 30
0.0
 10
11.6887033155
 20
3.2747883904
 30
0.0
 10
11.6839165643
 20
3.2792538915
 30
0.0
 10
11.6794502044
 20
3.2843091771
 30
0.0
 10
11.6753368144
 20
3.2899159666
 30
0.0
 10
11.6702961381
 20
3.2981802384
 30
0.0
 10
11.6661727966
 20
3.3072714496
 30
0.0
 10
11.6629778321
 20
3.3169485547
 30
0.0
 10
11.6603544553
 20
3.3272345346
 30
0.0
 10
11.6591568008
 20
3.3352028556
 30
0.0
 10
11.6586874735
 20
3.3405766965
 30
0.0
  0
SPLINE
  5
54B
100
AcDbEntity
  8
0
100
AcDbSpline
 62
7
  6
CONTINUOUS
 70
0
 71
3
 72
39
 73
35
 74
0
 42
0.0000001
 43
0.0000001
 44
0.0000000001
 40
0.0
 40
0.0
 40
0.0
 40
0.0
 40
0.0312239804
 40
0.0624509082
 40
0.0936800174
 40
0.1249128328
 40
0.1561493308
 40
0.1873899515
 40
0.2186348665
 40
0.2498840777
 40
0.2811374998
 40
0.3123949773
 40
0.3436561452
 40
0.3749206287
 40
0.4061879065
 40
0.4374573317
 40
0.4687282983
 40
0.5
 40
0.5312717017
 40
0.5625426683
 40
0.5938120935
 40
0.6250793713
 40
0.6563438548
 40
0.6876050227
 40
0.7188625002
 40
0.7501159223
 40
0.7813651335
 40
0.8126100485
 40
0.8438506692
 40
0.8750871672
 40
0.9063199826
 40
0.9375490918
 40
0.9687760196
 40
1.0
 40
1.0
 40
1.0
 40
1.0
 10
12.0298926102
 20
3.3405766965
 30
0.0
 10
12.0294015284
 20
3.3378547473
 30
0.0
 10
12.0281812524
 20
3.332450465
 30
0.0
 10
12.025652677
 20
3.3245361866
 30
0.0
 10
12.0224443591
 20
3.3168706883
 30
0.0
 10
12.0185808746
 20
3.3095128456
 30
0.0
 10
12.0140913427
 20
3.3025181257
 30
0.0
 10
12.0090098243
 20
3.2959395456
 30
0.0
 10
12.0033747719
 20
3.2898269
 30
0.0
 10
11.9972288711
 20
3.2842264608
 30
0.0
 10
11.9906186503
 20
3.2791806274
 30
0.0
 10
11.983594164
 20
3.2747275847
 30
0.0
 10
11.976208586
 20
3.2709010363
 30
0.0
 10
11.9685178278
 20
3.2677299395
 30
0.0
 10
11.9605801059
 20
3.2652382908
 30
0.0
 10
11.9524555024
 20
3.2634449487
 30
0.0
 10
11.9442055212
 20
3.262363484
 30
0.0
 10
11.9358926102
 20
3.2620020843
 30
0.0
 10
11.9275796992
 20
3.262363484
 30
0.0
 10
11.919329718
 20
3.2634449487
 30
0.0
 10
11.9112051145
 20
3.2652382908
 30
0.0
 10
11.9032673926
 20
3.2677299395
 30
0.0
 10
11.8955766344
 20
3.2709010363
 30
0.0
 10
11.8881910564
 20
3.2747275847
 30
0.0
 10
11.8811665701
 20
3.2791806274
 30
0.0
 10
11.8745563493
 20
3.2842264608
 30
0.0
 10
11.8684104485
 20
3.2898269
 30
0.0
 10
11.8627753961
 20
3.2959395456
 30
0.0
 10
11.8576938777
 20
3.3025181257
 30
0.0
 10
11.8532043458
 20
3.3095128456
 30
0.0
 10
11.8493408613
 20
3.3168706883
 30
0.0
 10
11.8461325434
 20
3.3245361866
 30
0.0
 10
11.843603968
 20
3.332450465
 30
0.0
 10
11.842383692
 20
3.3378547473
 30
0.0
 10
11.8418926102
 20
3.3405766965
 30
0.0
  0
SPLINE
  5
54C
100
AcDbEntity
  8
0
100
AcDbSpline
 62
7
  6
CONTINUOUS
 70
0
 71
3
 72
35
 73
31
 74
0
 42
0.0000001
 43
0.0000001
 44
0.0000000001
 40
0.0
 40
0.0
 40
0.0
 40
0.0
 40
0.072305487
 40
0.1076113238
 40
0.1421974017
 40
0.2088262202
 40
0.2408006641
 40
0.2718273692
 40
0.3019117827
 40
0.3310897832
 40
0.3594292601
 40
0.387030812
 40
0.4140263619
 40
0.440575674
 40
0.4668604866
 40
0.4930759656
 40
0.5194209855
 40
0.5460876653
 40
0.573251738
 40
0.6010651011
 40
0.629650358
 40
0.6590981859
 40
0.6894666926
 40
0.7207822086
 40
0.7530414825
 40
0.7862141574
 40
0.8550168211
 40
0.890522023
 40
0.9266084849
 40
1.0
 40
1.0
 40
1.0
 40
1.0
 10
12.2130977469
 20
3.3405766965
 30
0.0
 10
12.2126284196
 20
3.3352028556
 30
0.0
 10
12.2114307651
 20
3.3272345346
 30
0.0
 10
12.2088073883
 20
3.3169485547
 30
0.0
 10
12.2056124238
 20
3.3072714496
 30
0.0
 10
12.2014890823
 20
3.2981802384
 30
0.0
 10
12.196448406
 20
3.2899159666
 30
0.0
 10
12.192335016
 20
3.2843091771
 30
0.0
 10
12.1878686561
 20
3.2792538915
 30
0.0
 10
12.1830819049
 20
3.2747883904
 30
0.0
 10
12.1780101713
 20
3.2709474484
 30
0.0
 10
12.1726911958
 20
3.2677613785
 30
0.0
 10
12.1671650897
 20
3.2652559007
 30
0.0
 10
12.1614741916
 20
3.2634516818
 30
0.0
 10
12.1556628191
 20
3.262363841
 30
0.0
 10
12.1497767673
 20
3.2620014784
 30
0.0
 10
12.1438626194
 20
3.2623673658
 30
0.0
 10
12.1379669605
 20
3.2634579349
 30
0.0
 10
12.1321356787
 20
3.2652635352
 30
0.0
 10
12.1264134822
 20
3.2677688661
 30
0.0
 10
12.1208436033
 20
3.270953415
 30
0.0
 10
12.1154676652
 20
3.2747918204
 30
0.0
 10
12.1103255421
 20
3.2792541833
 30
0.0
 10
12.1054553429
 20
3.284306113
 30
0.0
 10
12.10089279
 20
3.2899095712
 30
0.0
 10
12.0951975688
 20
3.2981568762
 30
0.0
 10
12.0903417436
 20
3.3072386726
 30
0.0
 10
12.0863595876
 20
3.3169322264
 30
0.0
 10
12.0829155705
 20
3.3271920646
 30
0.0
 10
12.0810678178
 20
3.3351768803
 30
0.0
 10
12.080161672
 20
3.3405766965
 30
0.0
  0
SPLINE
  5
54D
100
AcDbEntity
  8
0
100
AcDbSpline
 62
9
  6
CONTINUOUS
 70
0
 71
3
 72
18
 73
14
 74
0
 42
0.0000001
 43
0.0000001
 44
0.0000000001
 40
0.0
 40
0.0
 40
0.0
 40
0.0
 40
0.0666239453
 40
0.1314775879
 40
0.2553635582
 40
0.3703302889
 40
0.4804134509
 40
0.5984745692
 40
0.725355114
 40
0.7917994049
 40
0.8599388618
 40
0.9294313754
 40
1.0
 40
1.0
 40
1.0
 40
1.0
 10
8.6060073103
 20
13.4686783022
 30
0.0
 10
8.605709031
 20
13.4689034068
 30
0.0
 10
8.6050986601
 20
13.4693198048
 30
0.0
 10
8.6038418203
 20
13.4700102428
 30
0.0
 10
8.6022411198
 20
13.4706219102
 30
0.0
 10
8.6003115507
 20
13.470997873
 30
0.0
 10
8.5983798787
 20
13.4710561168
 30
0.0
 10
8.5963971138
 20
13.4707906983
 30
0.0
 10
8.5947224296
 20
13.4702592023
 30
0.0
 10
8.5933972788
 20
13.4696267778
 30
0.0
 10
8.5924138531
 20
13.4690374929
 30
0.0
 10
8.5914729111
 20
13.4683428773
 30
0.0
 10
8.5908897123
 20
13.4678141923
 30
0.0
 10
8.5906099437
 20
13.4675341966
 30
0.0
  0
SPLINE
  5
54E
100
AcDbEntity
  8
0
100
AcDbSpline
 62
9
  6
CONTINUOUS
 70
0
 71
3
 72
30
 73
26
 74
0
 42
0.0000001
 43
0.0000001
 44
0.0000000001
 40
0.0
 40
0.0
 40
0.0
 40
0.0
 40
0.1008176838
 40
0.186162836
 40
0.2564286417
 40
0.2860237447
 40
0.3119600903
 40
0.3342707343
 40
0.3530101504
 40
0.36827383
 40
0.3802454973
 40
0.3960756664
 40
0.4028383964
 40
0.4111640613
 40
0.4221353533
 40
0.4362264518
 40
0.4536515843
 40
0.4745165405
 40
0.4988769626
 40
0.5267628922
 40
0.5931612349
 40
0.6737473963
 40
0.7684781337
 40
0.8772770812
 40
1.0
 40
1.0
 40
1.0
 40
1.0
 10
7.2377313564
 20
14.8369518651
 30
0.0
 10
7.2375902662
 20
14.8370943393
 30
0.0
 10
7.2373275158
 20
14.8373552499
 30
0.0
 10
7.2369570499
 20
14.8377058342
 30
0.0
 10
7.2366813352
 20
14.8379502679
 30
0.0
 10
7.2364877759
 20
14.8381088655
 30
0.0
 10
7.2363649377
 20
14.8382031075
 30
0.0
 10
7.2362557694
 20
14.8382797054
 30
0.0
 10
7.2361607582
 20
14.8383387108
 30
0.0
 10
7.236078396
 20
14.838380344
 30
0.0
 10
7.2359997992
 20
14.8384092198
 30
0.0
 10
7.2359206943
 20
14.8384141878
 30
0.0
 10
7.2358789222
 20
14.8383639685
 30
0.0
 10
7.2358683244
 20
14.8383121665
 30
0.0
 10
7.235870791
 20
14.838245546
 30
0.0
 10
7.2358865294
 20
14.8381622894
 30
0.0
 10
7.2359153352
 20
14.8380620891
 30
0.0
 10
7.235957429
 20
14.8379447404
 30
0.0
 10
7.2360128185
 20
14.8378102561
 30
0.0
 10
7.2361103033
 20
14.8375953253
 30
0.0
 10
7.2362672189
 20
14.8372847953
 30
0.0
 10
7.2364985153
 20
14.8368632995
 30
0.0
 10
7.2367824403
 20
14.8363746886
 30
0.0
 10
7.2371186262
 20
14.8358196697
 30
0.0
 10
7.237362736
 20
14.8354292183
 30
0.0
 10
7.237493224
 20
14.8352229477
 30
0.0
  0
SPLINE
  5
54F
100
AcDbEntity
  8
0
100
AcDbSpline
 62
9
  6
CONTINUOUS
 70
0
 71
3
 72
17
 73
13
 74
0
 42
0.0000001
 43
0.0000001
 44
0.0000000001
 40
0.0
 40
0.0
 40
0.0
 40
0.0
 40
0.1616199251
 40
0.3203975292
 40
0.4722443858
 40
0.6132019846
 40
0.7395538734
 40
0.8479585856
 40
0.8945346402
 40
0.9355942463
 40
0.9708414156
 40
1.0
 40
1.0
 40
1.0
 40
1.0
 10
7.2913363892
 20
14.7712379535
 30
0.0
 10
7.2886006982
 20
14.7747561468
 30
0.0
 10
7.2831611431
 20
14.7817180156
 30
0.0
 10
7.2750957407
 20
14.7919417537
 30
0.0
 10
7.2673343548
 20
14.8016794271
 30
0.0
 10
7.260079438
 20
14.8106771688
 30
0.0
 10
7.2535219862
 20
14.8186981759
 30
0.0
 10
7.2485602282
 20
14.8246618658
 30
0.0
 10
7.2450624179
 20
14.8287835477
 30
0.0
 10
7.2428493058
 20
14.831349529
 30
0.0
 10
7.2409269436
 20
14.8335318208
 30
0.0
 10
7.2397336914
 20
14.8348473841
 30
0.0
 10
7.2391861235
 20
14.8354361587
 30
0.0
  0
LINE
  5
550
100
AcDbEntity
  8
0
100
AcDbLine
 62
9
  6
CONTINUOUS
 10
7.2391861235
 20
14.8354361587
 11
7.2377313564
 21
14.8369518651
  0
SPLINE
  5
551
100
AcDbEntity
  8
0
100
AcDbSpline
 62
9
  6
CONTINUOUS
 70
0
 71
3
 72
26
 73
22
 74
0
 42
0.0000001
 43
0.0000001
 44
0.0000000001
 40
0.0
 40
0.0
 40
0.0
 40
0.0
 40
0.2200401269
 40
0.4137152399
 40
0.5003060425
 40
0.5799192713
 40
0.6524698778
 40
0.7178885314
 40
0.7761387855
 40
0.8272284974
 40
0.8501056519
 40
0.8712217122
 40
0.8905998257
 40
0.8996474219
 40
0.9082734573
 40
0.9386741297
 40
0.9515747536
 40
0.9630934735
 40
0.9827039909
 40
0.9914556275
 40
1.0
 40
1.0
 40
1.0
 40
1.0
 10
8.462778728
 20
13.5953654143
 30
0.0
 10
8.4635278638
 20
13.594617061
 30
0.0
 10
8.4649232766
 20
13.5931967974
 30
0.0
 10
8.4665674167
 20
13.5914374977
 30
0.0
 10
8.4677171761
 20
13.5901422873
 30
0.0
 10
8.4684631685
 20
13.5892683519
 30
0.0
 10
8.4691245383
 20
13.5884564738
 30
0.0
 10
8.4697003426
 20
13.5877078999
 30
0.0
 10
8.4701897862
 20
13.5870237918
 30
0.0
 10
8.4705371442
 20
13.5864903353
 30
0.0
 10
8.4707692131
 20
13.5860959065
 30
0.0
 10
8.4709147485
 20
13.5858278377
 30
0.0
 10
8.4710199695
 20
13.5856138172
 30
0.0
 10
8.4710926712
 20
13.5854509759
 30
0.0
 10
8.4711812135
 20
13.5852372889
 30
0.0
 10
8.4712620985
 20
13.5849997164
 30
0.0
 10
8.4713121334
 20
13.5847401165
 30
0.0
 10
8.4713289896
 20
13.5845288929
 30
0.0
 10
8.4713056186
 20
13.5843336391
 30
0.0
 10
8.4712291321
 20
13.5841718313
 30
0.0
 10
8.4711767583
 20
13.5841060246
 30
0.0
 10
8.4711476816
 20
13.5840769524
 30
0.0
  0
SPLINE
  5
552
100
AcDbEntity
  8
0
100
AcDbSpline
 62
9
  6
CONTINUOUS
 70
0
 71
3
 72
41
 73
37
 74
0
 42
0.0000001
 43
0.0000001
 44
0.0000000001
 40
0.0
 40
0.0
 40
0.0
 40
0.0
 40
0.1129731072
 40
0.2232087432
 40
0.3291618609
 40
0.4294128551
 40
0.5226596045
 40
0.6077446697
 40
0.6468536258
 40
0.6834671191
 40
0.7174365467
 40
0.7486603836
 40
0.7770720874
 40
0.802624675
 40
0.8252823557
 40
0.8450251232
 40
0.8618663793
 40
0.8692198065
 40
0.8758813975
 40
0.8818762026
 40
0.8872405022
 40
0.8920270724
 40
0.8963127039
 40
0.9002070203
 40
0.9038581901
 40
0.9074463498
 40
0.9111621199
 40
0.9151776343
 40
0.9196286596
 40
0.9246140064
 40
0.9302026887
 40
0.9364422472
 40
0.9433655536
 40
0.9593368602
 40
0.9782099274
 40
1.0
 40
1.0
 40
1.0
 40
1.0
 10
7.861329144
 20
14.2133540775
 30
0.0
 10
7.8590391824
 20
14.2156494612
 30
0.0
 10
7.8544766185
 20
14.2201467284
 30
0.0
 10
7.8476429369
 20
14.2266700149
 30
0.0
 10
7.840968273
 20
14.2328293025
 30
0.0
 10
7.8345474902
 20
14.2385427845
 30
0.0
 10
7.828466989
 20
14.2437352829
 30
0.0
 10
7.8236274097
 20
14.2476764993
 30
0.0
 10
7.8199839164
 20
14.2505096026
 30
0.0
 10
7.8174662422
 20
14.2523999281
 30
0.0
 10
7.8150954173
 20
14.2541080603
 30
0.0
 10
7.8128800024
 20
14.255628095
 30
0.0
 10
7.8108269358
 20
14.2569563371
 30
0.0
 10
7.8089421367
 20
14.2580900831
 30
0.0
 10
7.8072309677
 20
14.259027207
 30
0.0
 10
7.8056984407
 20
14.2597654622
 30
0.0
 10
7.8045257689
 20
14.2602337667
 30
0.0
 10
7.8036801635
 20
14.2604982449
 30
0.0
 10
7.8031223265
 20
14.260636451
 30
0.0
 10
7.8026119703
 20
14.2607237193
 30
0.0
 10
7.8021492012
 20
14.2607598787
 30
0.0
 10
7.8017340216
 20
14.2607445746
 30
0.0
 10
7.8013664208
 20
14.2606770157
 30
0.0
 10
7.8010468598
 20
14.2605557763
 30
0.0
 10
7.8007770098
 20
14.2603794785
 30
0.0
 10
7.8005596501
 20
14.2601481736
 30
0.0
 10
7.8003967528
 20
14.2598640316
 30
0.0
 10
7.800287768
 20
14.2595296901
 30
0.0
 10
7.8002311458
 20
14.2591463371
 30
0.0
 10
7.8002258002
 20
14.2587141372
 30
0.0
 10
7.8002711955
 20
14.2582330094
 30
0.0
 10
7.80036708
 20
14.2577029222
 30
0.0
 10
7.8005723757
 20
14.2568918288
 30
0.0
 10
7.8009668648
 20
14.2557576918
 30
0.0
 10
7.8016163753
 20
14.2542667059
 30
0.0
 10
7.8021424865
 20
14.2532243222
 30
0.0
 10
7.8024355074
 20
14.2526718429
 30
0.0
  0
SPLINE
  5
553
100
AcDbEntity
  8
0
100
AcDbSpline
 62
9
  6
CONTINUOUS
 70
0
 71
3
 72
18
 73
14
 74
0
 42
0.0000001
 43
0.0000001
 44
0.0000000001
 40
0.0
 40
0.0
 40
0.0
 40
0.0
 40
0.0594638757
 40
0.1179780154
 40
0.2321701401
 40
0.3417352349
 40
0.4502412492
 40
0.5704421316
 40
0.7034975847
 40
0.7744400046
 40
0.8478606909
 40
0.9232188152
 40
1.0
 40
1.0
 40
1.0
 40
1.0
 10
8.4768392642
 20
13.5978463223
 30
0.0
 10
8.476589003
 20
13.5980231257
 30
0.0
 10
8.4760713494
 20
13.5983451499
 30
0.0
 10
8.4749875978
 20
13.5988567497
 30
0.0
 10
8.4735786522
 20
13.5992609161
 30
0.0
 10
8.4718650732
 20
13.5994157201
 30
0.0
 10
8.470119828
 20
13.5992832018
 30
0.0
 10
8.4682985282
 20
13.5988523583
 30
0.0
 10
8.4667456684
 20
13.5982160841
 30
0.0
 10
8.465494042
 20
13.5975229903
 30
0.0
 10
8.4645489139
 20
13.5968973093
 30
0.0
 10
8.4636324866
 20
13.596180478
 30
0.0
 10
8.4630557777
 20
13.5956478966
 30
0.0
 10
8.4627761034
 20
13.5953680368
 30
0.0
  0
SPLINE
  5
554
100
AcDbEntity
  8
0
100
AcDbSpline
 62
9
  6
CONTINUOUS
 70
0
 71
3
 72
41
 73
37
 74
0
 42
0.0000001
 43
0.0000001
 44
0.0000000001
 40
0.0
 40
0.0
 40
0.0
 40
0.0
 40
0.0211342881
 40
0.039269445
 40
0.0472201278
 40
0.0544351025
 40
0.0609279145
 40
0.0667201641
 40
0.0718470946
 40
0.0763676377
 40
0.0803721544
 40
0.0839907317
 40
0.0873988228
 40
0.0908037119
 40
0.0944118978
 40
0.0983975835
 40
0.1028908012
 40
0.1079821713
 40
0.1137322267
 40
0.120181411
 40
0.1273563631
 40
0.1352712411
 40
0.1533416467
 40
0.1744094573
 40
0.1984504405
 40
0.2254162396
 40
0.2552363617
 40
0.2878182623
 40
0.3230438433
 40
0.4008826464
 40
0.4875477789
 40
0.5816341981
 40
0.6815873305
 40
0.7857964286
 40
0.8925366852
 40
1.0
 40
1.0
 40
1.0
 40
1.0
 10
7.9081762515
 20
14.144543496
 30
0.0
 10
7.9087868154
 20
14.1441947374
 30
0.0
 10
7.9099350315
 20
14.1435702298
 30
0.0
 10
7.9113578229
 20
14.142900555
 30
0.0
 10
7.91238867
 20
14.1424934972
 30
0.0
 10
7.9130716301
 20
14.1422625452
 30
0.0
 10
7.9136982193
 20
14.1420924324
 30
0.0
 10
7.9142679092
 20
14.1419835128
 30
0.0
 10
7.9147804482
 20
14.1419362961
 30
0.0
 10
7.9152359041
 20
14.1419512921
 30
0.0
 10
7.9156345474
 20
14.1420293708
 30
0.0
 10
7.9159758522
 20
14.1421725022
 30
0.0
 10
7.9162570884
 20
14.1423822839
 30
0.0
 10
7.9164744297
 20
14.1426572683
 30
0.0
 10
7.9166266695
 20
14.1429934108
 30
0.0
 10
7.916715486
 20
14.1433878732
 30
0.0
 10
7.9167427532
 20
14.1438400441
 30
0.0
 10
7.9167094086
 20
14.1443501748
 30
0.0
 10
7.9166158567
 20
14.1449185092
 30
0.0
 10
7.9164621495
 20
14.1455450302
 30
0.0
 10
7.9162483302
 20
14.1462293966
 30
0.0
 10
7.9158661432
 20
14.1472647435
 30
0.0
 10
7.9152297513
 20
14.1486966994
 30
0.0
 10
7.9142649169
 20
14.1505650491
 30
0.0
 10
7.9130702334
 20
14.1526449836
 30
0.0
 10
7.911649432
 20
14.1549286685
 30
0.0
 10
7.9100069149
 20
14.1574075376
 30
0.0
 10
7.9081485515
 20
14.1600718443
 30
0.0
 10
7.9052961094
 20
14.1639894178
 30
0.0
 10
7.901240923
 20
14.1692552773
 30
0.0
 10
7.8958081189
 20
14.1759274383
 30
0.0
 10
7.8897479762
 20
14.1830343951
 30
0.0
 10
7.8831625227
 20
14.1904578197
 30
0.0
 10
7.8761597784
 20
14.1980715715
 30
0.0
 10
7.8688565693
 20
14.2057462817
 30
0.0
 10
7.8638586011
 20
14.2108271982
 30
0.0
 10
7.861329144
 20
14.2133540775
 30
0.0
  0
SPLINE
  5
555
100
AcDbEntity
  8
0
100
AcDbSpline
 62
9
  6
CONTINUOUS
 70
0
 71
3
 72
18
 73
14
 74
0
 42
0.0000001
 43
0.0000001
 44
0.0000000001
 40
0.0
 40
0.0
 40
0.0
 40
0.0
 40
0.0177060702
 40
0.0375009243
 40
0.0617054588
 40
0.0916285418
 40
0.1279611603
 40
0.1710840879
 40
0.2784810494
 40
0.4148370321
 40
0.5805143664
 40
0.7755826203
 40
1.0
 40
1.0
 40
1.0
 40
1.0
 10
7.2348763011
 20
14.8228583039
 30
0.0
 10
7.2348848441
 20
14.8228667541
 30
0.0
 10
7.2349072513
 20
14.8228807046
 30
0.0
 10
7.2349495321
 20
14.8228866413
 30
0.0
 10
7.2349996058
 20
14.822879748
 30
0.0
 10
7.2350581912
 20
14.8228607302
 30
0.0
 10
7.2351257066
 20
14.8228296042
 30
0.0
 10
7.235236137
 20
14.8227670666
 30
0.0
 10
7.2353960792
 20
14.8226554725
 30
0.0
 10
7.2356128076
 20
14.8224814618
 30
0.0
 10
7.2358659703
 20
14.822258338
 30
0.0
 10
7.2361553554
 20
14.8219863251
 30
0.0
 10
7.2363580762
 20
14.8217864184
 30
0.0
 10
7.2364655921
 20
14.8216785502
 30
0.0
  0
LINE
  5
556
100
AcDbEntity
  8
0
100
AcDbLine
 62
9
  6
CONTINUOUS
 10
9.2665243684
 20
13.005193276
 11
9.2764606674
 21
13.0219902041
  0
LINE
  5
557
100
AcDbEntity
  8
0
100
AcDbLine
 62
7
  6
CONTINUOUS
 10
9.3577313529
 20
12.9695397653
 11
9.346822152
 21
12.9581605454
  0
SPLINE
  5
558
100
AcDbEntity
  8
0
100
AcDbSpline
 62
9
  6
CONTINUOUS
 70
0
 71
3
 72
17
 73
13
 74
0
 42
0.0000001
 43
0.0000001
 44
0.0000000001
 40
0.0
 40
0.0
 40
0.0
 40
0.0
 40
0.1249605335
 40
0.2499257054
 40
0.3748894168
 40
0.4998537303
 40
0.6248194216
 40
0.7497876556
 40
0.8123429441
 40
0.8748923299
 40
0.9374520763
 40
1.0
 40
1.0
 40
1.0
 40
1.0
 10
9.2562199172
 20
13.0418690658
 30
0.0
 10
9.2554021673
 20
13.0403232311
 30
0.0
 10
9.2540608852
 20
13.0370660357
 30
0.0
 10
9.2530016395
 20
13.0318971434
 30
0.0
 10
9.2529382478
 20
13.0266186854
 30
0.0
 10
9.2538767022
 20
13.0214242133
 30
0.0
 10
9.2557822667
 20
13.0165023733
 30
0.0
 10
9.2581189069
 20
13.0127721077
 30
0.0
 10
9.2603781804
 20
13.0100937527
 30
0.0
 10
9.2622580408
 20
13.00825358
 30
0.0
 10
9.2643049764
 20
13.0066022627
 30
0.0
 10
9.2657702203
 20
13.0056376307
 30
0.0
 10
9.2665248935
 20
13.0051941163
 30
0.0
  0
LINE
  5
559
100
AcDbEntity
  8
0
100
AcDbLine
 62
7
  6
CONTINUOUS
 10
9.3468286635
 20
12.958166881
 11
9.2838668917
 21
12.8951822412
  0
SPLINE
  5
55A
100
AcDbEntity
  8
0
100
AcDbSpline
 62
9
  6
CONTINUOUS
 70
0
 71
3
 72
15
 73
11
 74
0
 42
0.0000001
 43
0.0000001
 44
0.0000000001
 40
0.0
 40
0.0
 40
0.0
 40
0.0
 40
0.1249987931
 40
0.2499998989
 40
0.3749994324
 40
0.4999996606
 40
0.6250002125
 40
0.7499995608
 40
0.8750010944
 40
1.0
 40
1.0
 40
1.0
 40
1.0
 10
9.2838668917
 20
12.8951822412
 30
0.0
 10
9.2900691811
 20
12.8914681249
 30
0.0
 10
9.3022698692
 20
12.8836931214
 30
0.0
 10
9.3199043545
 20
12.8710505283
 30
0.0
 10
9.3368352801
 20
12.8574793061
 30
0.0
 10
9.3530156916
 20
12.8430217916
 30
0.0
 10
9.3684000037
 20
12.8277199372
 30
0.0
 10
9.38294508
 20
12.8116178928
 30
0.0
 10
9.3966078389
 20
12.7947617497
 30
0.0
 10
9.4051037353
 20
12.7830520669
 30
0.0
 10
9.4091882335
 20
12.7770871677
 30
0.0
  0
SPLINE
  5
55B
100
AcDbEntity
  8
0
100
AcDbSpline
 62
9
  6
CONTINUOUS
 70
0
 71
3
 72
27
 73
23
 74
0
 42
0.0000001
 43
0.0000001
 44
0.0000000001
 40
0.0
 40
0.0
 40
0.0
 40
0.0
 40
0.0312675687
 40
0.0625375432
 40
0.0938053576
 40
0.1250743411
 40
0.187563437
 40
0.2500519006
 40
0.3125396628
 40
0.3750272002
 40
0.4375145031
 40
0.5000016736
 40
0.5624887526
 40
0.6249757916
 40
0.6874629177
 40
0.7499501633
 40
0.8124380534
 40
0.8749265758
 40
0.906195293
 40
0.9374628604
 40
0.9687326169
 40
1.0
 40
1.0
 40
1.0
 40
1.0
 10
9.4091882335
 20
12.7770871677
 30
0.0
 10
9.4102470584
 20
12.7755525379
 30
0.0
 10
9.4122382077
 20
12.772393765
 30
0.0
 10
9.4148347591
 20
12.7674331749
 30
0.0
 10
9.4170288925
 20
12.7622810822
 30
0.0
 10
9.4194012888
 20
12.7552067853
 30
0.0
 10
9.4213135463
 20
12.7460457447
 30
0.0
 10
9.4218604659
 20
12.7348351411
 30
0.0
 10
9.4206288654
 20
12.7236775927
 30
0.0
 10
9.4176617041
 20
12.7128521825
 30
0.0
 10
9.413025529
 20
12.7026296781
 30
0.0
 10
9.4068442738
 20
12.6932602344
 30
0.0
 10
9.3992623684
 20
12.6849832328
 30
0.0
 10
9.3904768107
 20
12.6779970551
 30
0.0
 10
9.3807000402
 20
12.6724828252
 30
0.0
 10
9.3701784671
 20
12.6685710204
 30
0.0
 10
9.3591723044
 20
12.6663712633
 30
0.0
 10
9.3498214636
 20
12.6659949106
 30
0.0
 10
9.3423824636
 20
12.6665730631
 30
0.0
 10
9.3368511909
 20
12.6674464603
 30
0.0
 10
9.331407656
 20
12.6687568143
 30
0.0
 10
9.3278591083
 20
12.6699187744
 30
0.0
 10
9.3261128406
 20
12.6705720024
 30
0.0
  0
SPLINE
  5
55C
100
AcDbEntity
  8
0
100
AcDbSpline
 62
7
  6
CONTINUOUS
 70
0
 71
3
 72
66
 73
62
 74
0
 42
0.0000001
 43
0.0000001
 44
0.0000000001
 40
0.0
 40
0.0
 40
0.0
 40
0.0
 40
0.0001743643
 40
0.0003763997
 40
0.0006246552
 40
0.0009293324
 40
0.001295936
 40
0.0017275924
 40
0.0022261668
 40
0.002792818
 40
0.0041330077
 40
0.0057519023
 40
0.0076509153
 40
0.0098303538
 40
0.0122899814
 40
0.0150289889
 40
0.0180462674
 40
0.021340488
 40
0.0287528039
 40
0.0372504781
 40
0.0468149088
 40
0.0574246956
 40
0.0690558642
 40
0.0816819758
 40
0.0952741536
 40
0.1098012352
 40
0.1415246461
 40
0.176560546
 40
0.2145863904
 40
0.2552517282
 40
0.2981817028
 40
0.3429803611
 40
0.3892345085
 40
0.4365174254
 40
0.484392877
 40
0.5324191692
 40
0.5801531494
 40
0.6271544671
 40
0.6729894293
 40
0.717235286
 40
0.7594838629
 40
0.7993456269
 40
0.8364530861
 40
0.8704643977
 40
0.9010665239
 40
0.9279782717
 40
0.9399718595
 40
0.950953346
 40
0.960897806
 40
0.9697829171
 40
0.9775890877
 40
0.9842996088
 40
0.98723968
 40
0.9899011579
 40
0.9922829829
 40
0.9943844998
 40
0.9962056129
 40
0.9977468478
 40
0.9990100916
 40
0.9995387941
 40
1.0
 40
1.0
 40
1.0
 40
1.0
 10
10.8137716774
 20
16.4818052382
 30
0.0
 10
10.8137382615
 20
16.4817718222
 30
0.0
 10
10.8136489245
 20
16.481715974
 30
0.0
 10
10.8134802752
 20
16.4816837986
 30
0.0
 10
10.8132747294
 20
16.4816936999
 30
0.0
 10
10.8130300209
 20
16.481744248
 30
0.0
 10
10.8127448985
 20
16.4818352654
 30
0.0
 10
10.8124187985
 20
16.4819670254
 30
0.0
 10
10.8120514981
 20
16.4821396637
 30
0.0
 10
10.8114737115
 20
16.482441938
 30
0.0
 10
10.8106505368
 20
16.4829282941
 30
0.0
 10
10.8095461818
 20
16.4836456368
 30
0.0
 10
10.8082774748
 20
16.4845261602
 30
0.0
 10
10.8068450205
 20
16.4855694266
 30
0.0
 10
10.8052495903
 20
16.4867750534
 30
0.0
 10
10.8034920131
 20
16.4881423456
 30
0.0
 10
10.8015732046
 20
16.4896704884
 30
0.0
 10
10.7986857125
 20
16.4920151589
 30
0.0
 10
10.7946854521
 20
16.4953453556
 30
0.0
 10
10.7894299457
 20
16.4998230122
 30
0.0
 10
10.7835593321
 20
16.5049144701
 30
0.0
 10
10.7770863571
 20
16.5106072203
 30
0.0
 10
10.7700251879
 20
16.516887421
 30
0.0
 10
10.7623912995
 20
16.5237397754
 30
0.0
 10
10.754201458
 20
16.5311476136
 30
0.0
 10
10.7422080707
 20
16.5420660733
 30
0.0
 10
10.725978899
 20
16.5569647646
 30
0.0
 10
10.7051343277
 20
16.576253061
 30
0.0
 10
10.6825740134
 20
16.5972552433
 30
0.0
 10
10.6584992441
 20
16.619770418
 30
0.0
 10
10.6331253328
 20
16.6435837278
 30
0.0
 10
10.6066794883
 20
16.668468234
 30
0.0
 10
10.5793988092
 20
16.6941870662
 30
0.0
 10
10.5515280683
 20
16.7204956245
 30
0.0
 10
10.5233174787
 20
16.747143849
 30
0.0
 10
10.4950203883
 20
16.7738785283
 30
0.0
 10
10.4668909307
 20
16.8004456622
 30
0.0
 10
10.4391817132
 20
16.8265927853
 30
0.0
 10
10.4121414478
 20
16.8520713408
 30
0.0
 10
10.3860127119
 20
16.876638944
 30
0.0
 10
10.3610296613
 20
16.9000616717
 30
0.0
 10
10.3374159417
 20
16.9221162111
 30
0.0
 10
10.3153825725
 20
16.9425919493
 30
0.0
 10
10.2951261561
 20
16.9612930637
 30
0.0
 10
10.2768268168
 20
16.9780400508
 30
0.0
 10
10.2628549692
 20
16.9906763968
 30
0.0
 10
10.2527679287
 20
16.9996797427
 30
0.0
 10
10.246080857
 20
17.005586259
 30
0.0
 10
10.2399911993
 20
17.0108963066
 30
0.0
 10
10.2345122446
 20
17.0155969699
 30
0.0
 10
10.2296558469
 20
17.0196767062
 30
0.0
 10
10.2259915393
 20
17.0226700114
 30
0.0
 10
10.2233751993
 20
17.0247412521
 30
0.0
 10
10.2216625771
 20
17.026063676
 30
0.0
 10
10.2201123557
 20
17.0272242537
 30
0.0
 10
10.2187253281
 20
17.0282223096
 30
0.0
 10
10.2175022362
 20
17.0290575549
 30
0.0
 10
10.2164436483
 20
17.0297295798
 30
0.0
 10
10.2156584867
 20
17.0301777319
 30
0.0
 10
10.2151111012
 20
17.0304487885
 30
0.0
 10
10.2148649364
 20
17.0305559354
 30
0.0
 10
10.2147486389
 20
17.0306017567
 30
0.0
  0
LINE
  5
55D
100
AcDbEntity
  8
0
100
AcDbLine
 62
7
  6
CONTINUOUS
 10
10.2147486389
 20
17.0306017567
 11
10.2143489586
 21
17.0307363167
  0
SPLINE
  5
55E
100
AcDbEntity
  8
0
100
AcDbSpline
 62
7
  6
CONTINUOUS
 70
0
 71
3
 72
66
 73
62
 74
0
 42
0.0000001
 43
0.0000001
 44
0.0000000001
 40
0.0
 40
0.0
 40
0.0
 40
0.0
 40
0.0001695959
 40
0.0003675356
 40
0.0006124778
 40
0.0009144714
 40
0.0012788591
 40
0.001708647
 40
0.0022056169
 40
0.0027708694
 40
0.0041087316
 40
0.0057257491
 40
0.0076232122
 40
0.0098013508
 40
0.0122598775
 40
0.0149979474
 40
0.0180144257
 40
0.0213079641
 40
0.0287192166
 40
0.0372161576
 40
0.0467801295
 40
0.0573896926
 40
0.0690208437
 40
0.0816471215
 40
0.0952396318
 40
0.1097671973
 40
0.1414919828
 40
0.1765297296
 40
0.2145578252
 40
0.2552257554
 40
0.2981586086
 40
0.3429603752
 40
0.3892178087
 40
0.4365041354
 40
0.4843830692
 40
0.5324128621
 40
0.5801503101
 40
0.6271550088
 40
0.672993212
 40
0.7172421162
 40
0.7594934913
 40
0.799357748
 40
0.8364673344
 40
0.8704803409
 40
0.9010836562
 40
0.9279959931
 40
0.9399896112
 40
0.9509709258
 40
0.9609149847
 40
0.9697994293
 40
0.9776046175
 40
0.984313766
 40
0.9872529679
 40
0.9899134284
 40
0.992294059
 40
0.9943941641
 40
0.9962135892
 40
0.9977527699
 40
0.9990134466
 40
0.999540593
 40
1.0
 40
1.0
 40
1.0
 40
1.0
 10
10.1958268243
 20
17.0129089045
 30
0.0
 10
10.1958593233
 20
17.0129414034
 30
0.0
 10
10.1959471016
 20
17.0129953624
 30
0.0
 10
10.1961129485
 20
17.0130244254
 30
0.0
 10
10.1963155339
 20
17.0130116374
 30
0.0
 10
10.1965573228
 20
17.0129582808
 30
0.0
 10
10.196839564
 20
17.0128644885
 30
0.0
 10
10.1971628129
 20
17.0127299552
 30
0.0
 10
10.1975272792
 20
17.0125545405
 30
0.0
 10
10.198101231
 20
17.0122482502
 30
0.0
 10
10.1989196041
 20
17.0117570331
 30
0.0
 10
10.2000183373
 20
17.0110341928
 30
0.0
 10
10.2012814334
 20
17.0101481436
 30
0.0
 10
10.2027082838
 20
17.0090993291
 30
0.0
 10
10.2042981124
 20
17.0078881412
 30
0.0
 10
10.2060500893
 20
17.0065152783
 30
0.0
 10
10.2079632976
 20
17.0049815579
 30
0.0
 10
10.21084308
 20
17.0026290823
 30
0.0
 10
10.2148337871
 20
16.9992892834
 30
0.0
 10
10.2200781436
 20
16.9948005391
 30
0.0
 10
10.2259376004
 20
16.9896979709
 30
0.0
 10
10.2323994122
 20
16.9839940924
 30
0.0
 10
10.2394494129
 20
16.9777027514
 30
0.0
 10
10.2470721284
 20
16.9708392474
 30
0.0
 10
10.2552507924
 20
16.9634202518
 30
0.0
 10
10.2672288593
 20
16.9524864146
 30
0.0
 10
10.2834390418
 20
16.9375687087
 30
0.0
 10
10.3042613468
 20
16.9182582044
 30
0.0
 10
10.3267993598
 20
16.8972337687
 30
0.0
 10
10.3508517923
 20
16.8746962968
 30
0.0
 10
10.3762033315
 20
16.8508606483
 30
0.0
 10
10.402626767
 20
16.8259537611
 30
0.0
 10
10.429884998
 20
16.8002125042
 30
0.0
 10
10.457733249
 20
16.7738814747
 30
0.0
 10
10.4859213034
 20
16.7472107295
 30
0.0
 10
10.5141958153
 20
16.7204534819
 30
0.0
 10
10.5423026541
 20
16.6938637361
 30
0.0
 10
10.5699892154
 20
16.6676939612
 30
0.0
 10
10.5970067905
 20
16.642192718
 30
0.0
 10
10.6231128051
 20
16.6176023963
 30
0.0
 10
10.6480731073
 20
16.5941569248
 30
0.0
 10
10.6716640564
 20
16.5720796239
 30
0.0
 10
10.693674638
 20
16.5515811156
 30
0.0
 10
10.7139082593
 20
16.5328572384
 30
0.0
 10
10.7321848028
 20
16.5160875095
 30
0.0
 10
10.7461370681
 20
16.5034315201
 30
0.0
 10
10.7562082363
 20
16.4944121882
 30
0.0
 10
10.7628838134
 20
16.4884941991
 30
0.0
 10
10.7689619772
 20
16.4831726904
 30
0.0
 10
10.7744294404
 20
16.4784605862
 30
0.0
 10
10.7792743502
 20
16.4743694364
 30
0.0
 10
10.7829287921
 20
16.4713662078
 30
0.0
 10
10.7855371581
 20
16.4692868696
 30
0.0
 10
10.7872440034
 20
16.4679587007
 30
0.0
 10
10.7887884462
 20
16.4667923892
 30
0.0
 10
10.7901696919
 20
16.4657886147
 30
0.0
 10
10.7913869922
 20
16.4649476768
 30
0.0
 10
10.7924397745
 20
16.4642699926
 30
0.0
 10
10.7932199736
 20
16.4638168206
 30
0.0
 10
10.7937634056
 20
16.4635416027
 30
0.0
 10
10.7940076098
 20
16.4634323496
 30
0.0
 10
10.7941229402
 20
16.4633854562
 30
0.0
  0
LINE
  5
55F
100
AcDbEntity
  8
0
100
AcDbLine
 62
7
  6
CONTINUOUS
 10
10.7941229402
 20
16.4633854562
 11
10.7945504014
 21
16.4632382797
  0
SPLINE
  5
560
100
AcDbEntity
  8
0
100
AcDbSpline
 62
7
  6
CONTINUOUS
 70
0
 71
3
 72
66
 73
62
 74
0
 42
0.0000001
 43
0.0000001
 44
0.0000000001
 40
0.0
 40
0.0
 40
0.0
 40
0.0
 40
0.0001742133
 40
0.0003761176
 40
0.000624266
 40
0.0009288557
 40
0.0012953866
 40
0.0017269814
 40
0.0022255025
 40
0.0027921072
 40
0.0041322191
 40
0.0057510507
 40
0.0076500117
 40
0.0098294067
 40
0.0122889976
 40
0.0150279742
 40
0.0180452266
 40
0.0213394255
 40
0.0287517099
 40
0.0372493659
 40
0.0468137886
 40
0.0574235764
 40
0.0690547555
 40
0.0816808871
 40
0.0952730927
 40
0.109800207
 40
0.1415237031
 40
0.1765597156
 40
0.2145856871
 40
0.2552511793
 40
0.2981813123
 40
0.3429801547
 40
0.3892344819
 40
0.4365175977
 40
0.4843932391
 40
0.5324197269
 40
0.5801538946
 40
0.6271553893
 40
0.6729905219
 40
0.7172365247
 40
0.7594852377
 40
0.7993471023
 40
0.8364546437
 40
0.8704659941
 40
0.9010681286
 40
0.9279798343
 40
0.9399733831
 40
0.9509548175
 40
0.9608992092
 40
0.9697842331
 40
0.9775902954
 40
0.9843006836
 40
0.9872406767
 40
0.989902067
 40
0.9922837932
 40
0.9943851976
 40
0.996206181
 40
0.9977472636
 40
0.9990103235
 40
0.9995389174
 40
1.0
 40
1.0
 40
1.0
 40
1.0
 10
10.7624887045
 20
16.4305222652
 30
0.0
 10
10.7624553176
 20
16.4304888784
 30
0.0
 10
10.7623660306
 20
16.4304330899
 30
0.0
 10
10.7621974705
 20
16.4304010137
 30
0.0
 10
10.7619920198
 20
16.4304110082
 30
0.0
 10
10.761747406
 20
16.4304616476
 30
0.0
 10
10.7614623779
 20
16.4305527559
 30
0.0
 10
10.7611363719
 20
16.4306846074
 30
0.0
 10
10.7607691658
 20
16.430857338
 30
0.0
 10
10.7601915076
 20
16.4311597468
 30
0.0
 10
10.7593684957
 20
16.4316462677
 30
0.0
 10
10.7582643341
 20
16.4323637997
 30
0.0
 10
10.7569958228
 20
16.433244516
 30
0.0
 10
10.7555635669
 20
16.434287979
 30
0.0
 10
10.7539683378
 20
16.4354938054
 30
0.0
 10
10.7522109645
 20
16.4368613006
 30
0.0
 10
10.7502923626
 20
16.4383896493
 30
0.0
 10
10.7474051588
 20
16.440734612
 30
0.0
 10
10.743405263
 20
16.4440651763
 30
0.0
 10
10.7381501928
 20
16.4485432686
 30
0.0
 10
10.7322800268
 20
16.4536351743
 30
0.0
 10
10.7258075107
 20
16.4593283842
 30
0.0
 10
10.7187468112
 20
16.4656090565
 30
0.0
 10
10.7111134031
 20
16.4724618949
 30
0.0
 10
10.7029240529
 20
16.4798702286
 30
0.0
 10
10.6909313544
 20
16.4907893864
 30
0.0
 10
10.6747030646
 20
16.5056889721
 30
0.0
 10
10.6538595694
 20
16.5249783575
 30
0.0
 10
10.6313003731
 20
16.5459816775
 30
0.0
 10
10.6072267664
 20
16.5684980352
 30
0.0
 10
10.5818540585
 20
16.5923125768
 30
0.0
 10
10.5554094626
 20
16.6171983589
 30
0.0
 10
10.5281300727
 20
16.6429185152
 30
0.0
 10
10.5002606669
 20
16.6692284409
 30
0.0
 10
10.4720514545
 20
16.6958780792
 30
0.0
 10
10.4437557869
 20
16.7226142148
 30
0.0
 10
10.4156277968
 20
16.7491828496
 30
0.0
 10
10.3879200886
 20
16.7753315134
 30
0.0
 10
10.3608813688
 20
16.8008116409
 30
0.0
 10
10.3347542067
 20
16.8253808422
 30
0.0
 10
10.3097727555
 20
16.8488051838
 30
0.0
 10
10.286160651
 20
16.8708613487
 30
0.0
 10
10.2641289108
 20
16.891338713
 30
0.0
 10
10.2438741271
 20
16.9100414494
 30
0.0
 10
10.2255764211
 20
16.9267900439
 30
0.0
 10
10.2116059685
 20
16.9394277652
 30
0.0
 10
10.2015200514
 20
16.9484322163
 30
0.0
 10
10.1948337895
 20
16.9543395184
 30
0.0
 10
10.1887449367
 20
16.9596503431
 30
0.0
 10
10.1832667812
 20
16.9643517735
 30
0.0
 10
10.1784111759
 20
16.968432266
 30
0.0
 10
10.1747475418
 20
16.9714262209
 30
0.0
 10
10.1721317412
 20
16.9734979859
 30
0.0
 10
10.170419508
 20
16.9748207786
 30
0.0
 10
10.1688696734
 20
16.9759817215
 30
0.0
 10
10.1674830304
 20
16.9769801386
 30
0.0
 10
10.1662603213
 20
16.9778157406
 30
0.0
 10
10.1652021145
 20
16.978488117
 30
0.0
 10
10.164417276
 20
16.9789365787
 30
0.0
 10
10.1638701463
 20
16.97920789
 30
0.0
 10
10.1636241079
 20
16.9793151651
 30
0.0
 10
10.1635078726
 20
16.9793610515
 30
0.0
  0
LINE
  5
561
100
AcDbEntity
  8
0
100
AcDbLine
 62
7
  6
CONTINUOUS
 10
10.1635078726
 20
16.9793610515
 11
10.1631064721
 21
16.9794963763
  0
SPLINE
  5
562
100
AcDbEntity
  8
0
100
AcDbSpline
 62
7
  6
CONTINUOUS
 70
0
 71
3
 72
66
 73
62
 74
0
 42
0.0000001
 43
0.0000001
 44
0.0000000001
 40
0.0
 40
0.0
 40
0.0
 40
0.0
 40
0.0001700427
 40
0.00036835
 40
0.0006135771
 40
0.0009157917
 40
0.0012803542
 40
0.0017102833
 40
0.0022073692
 40
0.0027727184
 40
0.0041107306
 40
0.0057278577
 40
0.0076254022
 40
0.0098036014
 40
0.0122621729
 40
0.0150002755
 40
0.0180167769
 40
0.0213103309
 40
0.0287215976
 40
0.0372185376
 40
0.0467824977
 40
0.0573920425
 40
0.0690231736
 40
0.0816494332
 40
0.0952419273
 40
0.1097694779
 40
0.141494249
 40
0.1765320126
 40
0.2145601478
 40
0.2552281607
 40
0.2981611167
 40
0.3429630303
 40
0.3892206241
 40
0.4365071464
 40
0.4843862798
 40
0.5324162888
 40
0.5801539499
 40
0.6271588532
 40
0.6729972511
 40
0.7172463171
 40
0.7594978307
 40
0.7993621723
 40
0.8364717998
 40
0.8704847754
 40
0.9010879906
 40
0.9280001318
 40
0.9399936132
 40
0.9509747618
 40
0.9609186194
 40
0.9698028217
 40
0.9776077197
 40
0.9843165191
 40
0.9872555182
 40
0.9899157531
 40
0.9922961306
 40
0.9943959484
 40
0.9962150428
 40
0.9977538351
 40
0.999014042
 40
0.99954091
 40
1.0
 40
1.0
 40
1.0
 40
1.0
 10
10.1461793334
 20
16.9632614136
 30
0.0
 10
10.1462119178
 20
16.9632939979
 30
0.0
 10
10.146299836
 20
16.9633481331
 30
0.0
 10
10.1464659361
 20
16.9633774776
 30
0.0
 10
10.146668777
 20
16.9633649373
 30
0.0
 10
10.1469108059
 20
16.9633118116
 30
0.0
 10
10.1471932724
 20
16.9632182376
 30
0.0
 10
10.1475167332
 20
16.9630839131
 30
0.0
 10
10.1478813994
 20
16.9629086978
 30
0.0
 10
10.1484556052
 20
16.9626026833
 30
0.0
 10
10.1492742693
 20
16.9621117717
 30
0.0
 10
10.1503733053
 20
16.9613892392
 30
0.0
 10
10.1516366636
 20
16.9605034628
 30
0.0
 10
10.1530637361
 20
16.9594548859
 30
0.0
 10
10.1546537479
 20
16.9582439
 30
0.0
 10
10.1564058696
 20
16.9568712035
 30
0.0
 10
10.158319185
 20
16.9553376141
 30
0.0
 10
10.1611990616
 20
16.9529852735
 30
0.0
 10
10.1651897872
 20
16.9496455422
 30
0.0
 10
10.1704340288
 20
16.9451567395
 30
0.0
 10
10.1762932341
 20
16.9400539807
 30
0.0
 10
10.1827546621
 20
16.9343497822
 30
0.0
 10
10.1898041517
 20
16.9280579944
 30
0.0
 10
10.1974262331
 20
16.9211939196
 30
0.0
 10
10.2056041441
 20
16.9137742332
 30
0.0
 10
10.2175810198
 20
16.9028392844
 30
0.0
 10
10.2337894336
 20
16.8879198976
 30
0.0
 10
10.2546092667
 20
16.8686070148
 30
0.0
 10
10.2771444381
 20
16.8475798065
 30
0.0
 10
10.3011936889
 20
16.8250392006
 30
0.0
 10
10.3265417423
 20
16.8012000831
 30
0.0
 10
10.3529614151
 20
16.7762894276
 30
0.0
 10
10.3802156424
 20
16.7505441303
 30
0.0
 10
10.4080596742
 20
16.7242088257
 30
0.0
 10
10.4362433286
 20
16.6975336007
 30
0.0
 10
10.4645132812
 20
16.6707717001
 30
0.0
 10
10.4926154265
 20
16.6441771535
 30
0.0
 10
10.5202971829
 20
16.618002458
 30
0.0
 10
10.547309864
 20
16.5924962031
 30
0.0
 10
10.5734109212
 20
16.5679008045
 30
0.0
 10
10.5983662228
 20
16.544450222
 30
0.0
 10
10.6219521551
 20
16.5223678011
 30
0.0
 10
10.6439577241
 20
16.5018641956
 30
0.0
 10
10.6641863652
 20
16.4831352703
 30
0.0
 10
10.6824579828
 20
16.4663605735
 30
0.0
 10
10.6964060846
 20
16.4537003769
 30
0.0
 10
10.7064739353
 20
16.4446776924
 30
0.0
 10
10.7131471394
 20
16.4387573319
 30
0.0
 10
10.7192229627
 20
16.4334334918
 30
0.0
 10
10.7246881209
 20
16.428719101
 30
0.0
 10
10.7295307653
 20
16.4246257133
 30
0.0
 10
10.7331832968
 20
16.4216205787
 30
0.0
 10
10.7357901436
 20
16.4195397138
 30
0.0
 10
10.7374959006
 20
16.4182104743
 30
0.0
 10
10.7390392669
 20
16.4170431075
 30
0.0
 10
10.740419448
 20
16.4160382939
 30
0.0
 10
10.7416356953
 20
16.4151963351
 30
0.0
 10
10.7426874356
 20
16.4145176499
 30
0.0
 10
10.7434667551
 20
16.4140636025
 30
0.0
 10
10.7440094934
 20
16.413787668
 30
0.0
 10
10.7442533557
 20
16.4136780549
 30
0.0
 10
10.7443685179
 20
16.4136309791
 30
0.0
  0
LINE
  5
563
100
AcDbEntity
  8
0
100
AcDbLine
 62
7
  6
CONTINUOUS
 10
10.7443685179
 20
16.4136309791
 11
10.7448005253
 21
16.4134816618
  0
SPLINE
  5
564
100
AcDbEntity
  8
0
100
AcDbSpline
 62
7
  6
CONTINUOUS
 70
0
 71
3
 72
66
 73
62
 74
0
 42
0.0000001
 43
0.0000001
 44
0.0000000001
 40
0.0
 40
0.0
 40
0.0
 40
0.0
 40
0.0001693102
 40
0.0003670042
 40
0.0006117472
 40
0.0009135791
 40
0.0012778326
 40
0.001707507
 40
0.0022043789
 40
0.0027695455
 40
0.0041072636
 40
0.0057241637
 40
0.0076215287
 40
0.0097995841
 40
0.0122580394
 40
0.0149960476
 40
0.0180124724
 40
0.0213059645
 40
0.0287171424
 40
0.0372140289
 40
0.0467779631
 40
0.0573875028
 40
0.0690186434
 40
0.0816449222
 40
0.0952374439
 40
0.1097650305
 40
0.1414898835
 40
0.1765277278
 40
0.2145559465
 40
0.2552240204
 40
0.2981570355
 40
0.3429589765
 40
0.3892165946
 40
0.4365031114
 40
0.4843822381
 40
0.5324122226
 40
0.5801498587
 40
0.6271547383
 40
0.6729931127
 40
0.7172421759
 40
0.7594936948
 40
0.7993580782
 40
0.8364677718
 40
0.8704808627
 40
0.9010842385
 40
0.9279966079
 40
0.9399902309
 40
0.9509715419
 40
0.9609155879
 40
0.9698000091
 40
0.9776051619
 40
0.9843142608
 40
0.9872534313
 40
0.9899138552
 40
0.9922944431
 40
0.9943944981
 40
0.9962138637
 40
0.9977529729
 40
0.999013561
 40
0.9995406541
 40
1.0
 40
1.0
 40
1.0
 40
1.0
 10
10.0963706735
 20
16.9134527537
 30
0.0
 10
10.0964031175
 20
16.9134851977
 30
0.0
 10
10.0964908026
 20
16.9135390432
 30
0.0
 10
10.0966564805
 20
16.9135679183
 30
0.0
 10
10.0968588864
 20
16.9135549557
 30
0.0
 10
10.0971004976
 20
16.913501428
 30
0.0
 10
10.0973825626
 20
16.9134074659
 30
0.0
 10
10.0977056363
 20
16.9132727619
 30
0.0
 10
10.0980699275
 20
16.9130971754
 30
0.0
 10
10.098643641
 20
16.9127906355
 30
0.0
 10
10.0994617136
 20
16.9122991139
 30
0.0
 10
10.1005600921
 20
16.9115759259
 30
0.0
 10
10.1018228313
 20
16.9106895241
 30
0.0
 10
10.1032493221
 20
16.9096403527
 30
0.0
 10
10.1048387885
 20
16.908428804
 30
0.0
 10
10.1065904006
 20
16.9070555769
 30
0.0
 10
10.1085032415
 20
16.9055214891
 30
0.0
 10
10.1113825145
 20
16.9031684959
 30
0.0
 10
10.115372584
 20
16.899828053
 30
0.0
 10
10.1206161882
 20
16.8953385559
 30
0.0
 10
10.1264748846
 20
16.8902352249
 30
0.0
 10
10.1329359285
 20
16.8845305747
 30
0.0
 10
10.1399851551
 20
16.8782384546
 30
0.0
 10
10.1476070908
 20
16.8713741648
 30
0.0
 10
10.1557849706
 20
16.8639543778
 30
0.0
 10
10.1677619575
 20
16.8530194441
 30
0.0
 10
10.1839707943
 20
16.8381003732
 30
0.0
 10
10.2047915174
 20
16.8187882686
 30
0.0
 10
10.2273279483
 20
16.7977622305
 30
0.0
 10
10.251378805
 20
16.7752231608
 30
0.0
 10
10.2767287806
 20
16.751385927
 30
0.0
 10
10.3031506711
 20
16.7264774738
 30
0.0
 10
10.3304073817
 20
16.7007346776
 30
0.0
 10
10.358254143
 20
16.6744021424
 30
0.0
 10
10.3864407448
 20
16.6477299326
 30
0.0
 10
10.4147138426
 20
16.6209712632
 30
0.0
 10
10.4428193055
 20
16.5943801383
 30
0.0
 10
10.4705045293
 20
16.5682090271
 30
0.0
 10
10.4975208052
 20
16.5427064907
 30
0.0
 10
10.5236255593
 20
16.5181149188
 30
0.0
 10
10.5485846399
 20
16.4946682401
 30
0.0
 10
10.5721744067
 20
16.4725897751
 30
0.0
 10
10.5941838456
 20
16.4520901456
 30
0.0
 10
10.6144163645
 20
16.4333651905
 30
0.0
 10
10.6326918464
 20
16.4165944269
 30
0.0
 10
10.6466432348
 20
16.4039375795
 30
0.0
 10
10.6567137153
 20
16.3949175728
 30
0.0
 10
10.663388805
 20
16.3889991096
 30
0.0
 10
10.6694664921
 20
16.3836771374
 30
0.0
 10
10.6749334891
 20
16.3789645807
 30
0.0
 10
10.6797779437
 20
16.3748729895
 30
0.0
 10
10.6834320035
 20
16.3718693856
 30
0.0
 10
10.6860400666
 20
16.369789747
 30
0.0
 10
10.6877466953
 20
16.3684613672
 30
0.0
 10
10.6892909241
 20
16.3672948479
 30
0.0
 10
10.6906719585
 20
16.3662908685
 30
0.0
 10
10.6918890499
 20
16.365449729
 30
0.0
 10
10.6929416255
 20
16.3647718468
 30
0.0
 10
10.6937216501
 20
16.3643185013
 30
0.0
 10
10.6942649445
 20
16.364043141
 30
0.0
 10
10.6945090808
 20
16.3639338162
 30
0.0
 10
10.6946243778
 20
16.3638868865
 30
0.0
  0
LINE
  5
565
100
AcDbEntity
  8
0
100
AcDbLine
 62
7
  6
CONTINUOUS
 10
10.6946243778
 20
16.3638868865
 11
10.6950527493
 21
16.3637392833
  0
SPLINE
  5
566
100
AcDbEntity
  8
0
100
AcDbSpline
 62
7
  6
CONTINUOUS
 70
0
 71
3
 72
66
 73
62
 74
0
 42
0.0000001
 43
0.0000001
 44
0.0000000001
 40
0.0
 40
0.0
 40
0.0
 40
0.0
 40
0.0001750263
 40
0.0003776377
 40
0.0006263653
 40
0.0009314294
 40
0.001298356
 40
0.0017302878
 40
0.0022291012
 40
0.002795963
 40
0.004136509
 40
0.0057556976
 40
0.0076549596
 40
0.0098346126
 40
0.0122944274
 40
0.0150335997
 40
0.0180510242
 40
0.0213453745
 40
0.0287579092
 40
0.0372557571
 40
0.0468203243
 40
0.0574302157
 40
0.0690614613
 40
0.0816876249
 40
0.0952798327
 40
0.109806924
 40
0.1415303011
 40
0.1765661061
 40
0.2145918059
 40
0.2552569586
 40
0.2981867175
 40
0.342985138
 40
0.3892390344
 40
0.4365216948
 40
0.4843968922
 40
0.532422939
 40
0.5801566887
 40
0.6271577954
 40
0.6729925698
 40
0.7172382641
 40
0.7594867045
 40
0.7993483565
 40
0.8364557248
 40
0.8704669605
 40
0.9010690167
 40
0.9279806866
 40
0.9399742261
 40
0.9509556538
 40
0.9609000398
 40
0.9697850558
 40
0.9775911015
 40
0.9843014559
 40
0.9872414223
 40
0.9899027765
 40
0.9922844547
 40
0.9943857951
 40
0.9962066926
 40
0.9977476587
 40
0.999010557
 40
0.9995390454
 40
1.0
 40
1.0
 40
1.0
 40
1.0
 10
10.7112285403
 20
16.379262101
 30
0.0
 10
10.7111949972
 20
16.379228558
 30
0.0
 10
10.7111054417
 20
16.3791724485
 30
0.0
 10
10.7109364029
 20
16.3791398398
 30
0.0
 10
10.7107304417
 20
16.3791493333
 30
0.0
 10
10.7104853194
 20
16.3791994816
 30
0.0
 10
10.7101997852
 20
16.3792901007
 30
0.0
 10
10.7098732746
 20
16.3794214597
 30
0.0
 10
10.7095055629
 20
16.3795936935
 30
0.0
 10
10.7089272155
 20
16.3798953789
 30
0.0
 10
10.7081033311
 20
16.380381013
 30
0.0
 10
10.7069981345
 20
16.3810975277
 30
0.0
 10
10.705728577
 20
16.3819772076
 30
0.0
 10
10.7042952632
 20
16.3830196165
 30
0.0
 10
10.7026989642
 20
16.3842243733
 30
0.0
 10
10.7009405091
 20
16.3855907841
 30
0.0
 10
10.6990208139
 20
16.3871180345
 30
0.0
 10
10.6961320893
 20
16.3894614435
 30
0.0
 10
10.6921302801
 20
16.392790063
 30
0.0
 10
10.6868729382
 20
16.3972658659
 30
0.0
 10
10.6810004627
 20
16.4023554371
 30
0.0
 10
10.6745256028
 20
16.4080462717
 30
0.0
 10
10.6674625289
 20
16.4143245317
 30
0.0
 10
10.6598267194
 20
16.4211749244
 30
0.0
 10
10.6516349435
 20
16.4285807831
 30
0.0
 10
10.6396388916
 20
16.4394964971
 30
0.0
 10
10.6234064008
 20
16.4543917677
 30
0.0
 10
10.6025579375
 20
16.4736760597
 30
0.0
 10
10.5799937489
 20
16.4946742476
 30
0.0
 10
10.5559151467
 20
16.5171854657
 30
0.0
 10
10.5305374676
 20
16.5409948855
 30
0.0
 10
10.5040879436
 20
16.5658755962
 30
0.0
 10
10.4768036967
 20
16.5915907553
 30
0.0
 10
10.4489295231
 20
16.6178957909
 30
0.0
 10
10.4207156592
 20
16.6445406702
 30
0.0
 10
10.3924154763
 20
16.671272209
 30
0.0
 10
10.3642831319
 20
16.6978364338
 30
0.0
 10
10.3365712579
 20
16.7239809052
 30
0.0
 10
10.3095285906
 20
16.7494570922
 30
0.0
 10
10.2833977327
 20
16.7740226347
 30
0.0
 10
10.2584128656
 20
16.7974436337
 30
0.0
 10
10.2347976609
 20
16.8194967996
 30
0.0
 10
10.2127631649
 20
16.839971542
 30
0.0
 10
10.1925060061
 20
16.8586720589
 30
0.0
 10
10.1742063366
 20
16.8754188671
 30
0.0
 10
10.1602345759
 20
16.8880554362
 30
0.0
 10
10.1501478649
 20
16.8970592262
 30
0.0
 10
10.143461156
 20
16.9029661787
 30
0.0
 10
10.1373719865
 20
16.9082767825
 30
0.0
 10
10.1318936487
 20
16.9129781234
 30
0.0
 10
10.1270380003
 20
16.9170586603
 30
0.0
 10
10.1233744488
 20
16.920052773
 30
0.0
 10
10.1207587966
 20
16.9221247488
 30
0.0
 10
10.1190467107
 20
16.9234477259
 30
0.0
 10
10.117497062
 20
16.9246088887
 30
0.0
 10
10.116110644
 20
16.9256075614
 30
0.0
 10
10.1148882003
 20
16.9264434539
 30
0.0
 10
10.1138303002
 20
16.9271161553
 30
0.0
 10
10.1130457564
 20
16.9275649385
 30
0.0
 10
10.1124988827
 20
16.92783654
 30
0.0
 10
10.1122529779
 20
16.9279439691
 30
0.0
 10
10.1121368101
 20
16.927989936
 30
0.0
  0
LINE
  5
567
100
AcDbEntity
  8
0
100
AcDbLine
 62
7
  6
CONTINUOUS
 10
10.1121368101
 20
16.927989936
 11
10.1117331592
 21
16.9281262451
  0
SPLINE
  5
568
100
AcDbEntity
  8
0
100
AcDbSpline
 62
7
  6
CONTINUOUS
 70
0
 71
3
 72
35
 73
31
 74
0
 42
0.0000001
 43
0.0000001
 44
0.0000000001
 40
0.0
 40
0.0
 40
0.0
 40
0.0
 40
0.2188913241
 40
0.3202583627
 40
0.4157294847
 40
0.5049482996
 40
0.5875829881
 40
0.6633264169
 40
0.7318979213
 40
0.7930445082
 40
0.8465423829
 40
0.8703617188
 40
0.8921991008
 40
0.912035903
 40
0.929855717
 40
0.9456449223
 40
0.9593932503
 40
0.9710943889
 40
0.9761773183
 40
0.9807491934
 40
0.9848117491
 40
0.9883681992
 40
0.9914237774
 40
0.9939872621
 40
0.9960743526
 40
0.9977153752
 40
0.9983878617
 40
0.9989779364
 40
0.9995059481
 40
1.0
 40
1.0
 40
1.0
 40
1.0
 10
10.5250594168
 20
16.4469030318
 30
0.0
 10
10.5346724778
 20
16.4379267354
 30
0.0
 10
10.5487544786
 20
16.4248119486
 30
0.0
 10
10.5670856665
 20
16.4078428244
 30
0.0
 10
10.5797267142
 20
16.3961965562
 30
0.0
 10
10.5915708862
 20
16.3853465852
 30
0.0
 10
10.6025756756
 20
16.3753352768
 30
0.0
 10
10.6127017065
 20
16.3662017836
 30
0.0
 10
10.6219128021
 20
16.3579818629
 30
0.0
 10
10.6301762543
 20
16.3507079071
 30
0.0
 10
10.6364698631
 20
16.3452661997
 30
0.0
 10
10.6410136693
 20
16.3414126148
 30
0.0
 10
10.6440337601
 20
16.3388895833
 30
0.0
 10
10.6467976041
 20
16.3366222945
 30
0.0
 10
10.6493028292
 20
16.3346130191
 30
0.0
 10
10.6515472452
 20
16.3328636354
 30
0.0
 10
10.6535289388
 20
16.3313758523
 30
0.0
 10
10.6550224599
 20
16.3303099168
 30
0.0
 10
10.6560869427
 20
16.3295932032
 30
0.0
 10
10.6567805419
 20
16.3291477814
 30
0.0
 10
10.6574074494
 20
16.3287686931
 30
0.0
 10
10.6579676105
 20
16.3284559075
 30
0.0
 10
10.6584609598
 20
16.3282093209
 30
0.0
 10
10.6588878079
 20
16.3280285353
 30
0.0
 10
10.659248356
 20
16.3279132887
 30
0.0
 10
10.6595108176
 20
16.3278681064
 30
0.0
 10
10.6596858108
 20
16.3278715725
 30
0.0
 10
10.6597922286
 20
16.3278911405
 30
0.0
 10
10.6598825827
 20
16.3279283055
 30
0.0
 10
10.6599322778
 20
16.3279658398
 30
0.0
 10
10.6599532692
 20
16.3279868303
 30
0.0
  0
SPLINE
  5
569
100
AcDbEntity
  8
0
100
AcDbSpline
 62
9
  6
CONTINUOUS
 70
0
 71
3
 72
24
 73
20
 74
0
 42
0.0000001
 43
0.0000001
 44
0.0000000001
 40
0.0
 40
0.0
 40
0.0
 40
0.0
 40
0.0624973624
 40
0.1250111276
 40
0.1875360098
 40
0.2188010462
 40
0.2500670573
 40
0.3125991353
 40
0.3751281876
 40
0.4063906895
 40
0.4376514312
 40
0.5001661293
 40
0.5626717936
 40
0.6251683935
 40
0.7501282128
 40
0.8126024297
 40
0.8750716401
 40
0.9375370064
 40
1.0
 40
1.0
 40
1.0
 40
1.0
 10
14.5848926102
 20
-0.8255009538
 30
0.0
 10
14.4936516162
 20
-0.7825259236
 30
0.0
 10
14.3112647217
 20
-0.6963120536
 30
0.0
 10
14.037673406
 20
-0.5669420504
 30
0.0
 10
13.8093740666
 20
-0.4596926737
 30
0.0
 10
13.6263797809
 20
-0.3746034887
 30
0.0
 10
13.4430956367
 20
-0.2901128286
 30
0.0
 10
13.2133698339
 20
-0.1858557629
 30
0.0
 10
12.982568064
 20
-0.0840095643
 30
0.0
 10
12.7971619493
 20
-0.004324269
 30
0.0
 10
12.6112218731
 20
0.0740472512
 30
0.0
 10
12.3777122699
 20
0.1693530931
 30
0.0
 10
12.0955780739
 20
0.2788167898
 30
0.0
 10
11.7167185692
 20
0.417349868
 30
0.0
 10
11.3334454585
 20
0.5435300968
 30
0.0
 10
10.9457352523
 20
0.6546625613
 30
0.0
 10
10.6527415531
 20
0.7298066493
 30
0.0
 10
10.3576224254
 20
0.7960364869
 30
0.0
 10
10.1595349796
 20
0.8337676378
 30
0.0
 10
10.0602024766
 20
0.8509036155
 30
0.0
  0
LINE
  5
56A
100
AcDbEntity
  8
0
100
AcDbLine
 62
9
  6
CONTINUOUS
 10
7.2174139162
 20
14.8407299123
 11
7.2323766894
 21
14.8204320009
  0
SPLINE
  5
56B
100
AcDbEntity
  8
0
100
AcDbSpline
 62
9
  6
CONTINUOUS
 70
0
 71
3
 72
27
 73
23
 74
0
 42
0.0000001
 43
0.0000001
 44
0.0000000001
 40
0.0
 40
0.0
 40
0.0
 40
0.0
 40
0.0312490405
 40
0.0624948591
 40
0.0937379412
 40
0.1093585796
 40
0.1249786762
 40
0.1562175739
 40
0.1874552903
 40
0.2186924005
 40
0.2499294202
 40
0.281166713
 40
0.312404535
 40
0.3748830471
 40
0.4373668846
 40
0.4998567393
 40
0.6248533275
 40
0.7498737325
 40
0.8123963783
 40
0.8749251418
 40
0.9374597754
 40
1.0
 40
1.0
 40
1.0
 40
1.0
 10
14.5848926102
 20
-0.8255009538
 30
0.0
 10
14.5380665808
 20
-0.8079334887
 30
0.0
 10
14.4444864156
 20
-0.7726213757
 30
0.0
 10
14.3043050384
 20
-0.7191753303
 30
0.0
 10
14.187630662
 20
-0.6742867102
 30
0.0
 10
14.0943679526
 20
-0.6381941087
 30
0.0
 10
14.0011553804
 20
-0.6019907049
 30
0.0
 10
13.8847164336
 20
-0.5565516044
 30
0.0
 10
13.7450778603
 20
-0.5018096805
 30
0.0
 10
13.605494746
 20
-0.446934777
 30
0.0
 10
13.4659332497
 20
-0.392006808
 30
0.0
 10
13.3263571655
 20
-0.3371127598
 30
0.0
 10
13.14018244
 20
-0.2640892626
 30
0.0
 10
12.9072353339
 20
-0.1733574209
 30
0.0
 10
12.6270497172
 20
-0.0661007377
 30
0.0
 10
12.2522194296
 20
0.0737555228
 30
0.0
 10
11.7807156895
 20
0.240781929
 30
0.0
 10
11.3038806638
 20
0.3923506002
 30
0.0
 10
10.9187004222
 20
0.5011920184
 30
0.0
 10
10.6278630547
 20
0.5758155623
 30
0.0
 10
10.3350940099
 20
0.6426003472
 30
0.0
 10
10.13866219
 20
0.6813418241
 30
0.0
 10
10.0401616287
 20
0.6991268946
 30
0.0
  0
LINE
  5
56C
100
AcDbEntity
  8
0
100
AcDbLine
 62
9
  6
CONTINUOUS
 10
10.0602024767
 20
0.8509036155
 11
10.0548420422
 21
0.8518300775
  0
SPLINE
  5
56D
100
AcDbEntity
  8
0
100
AcDbSpline
 62
7
  6
CONTINUOUS
 70
0
 71
3
 72
40
 73
36
 74
0
 42
0.0000001
 43
0.0000001
 44
0.0000000001
 40
0.0
 40
0.0
 40
0.0
 40
0.0
 40
0.096239905
 40
0.191704015
 40
0.2855326817
 40
0.3768742915
 40
0.4648840665
 40
0.5487297119
 40
0.6275970184
 40
0.7006979196
 40
0.7672780396
 40
0.7978988374
 40
0.8266275929
 40
0.8533841081
 40
0.8780935252
 40
0.9006846741
 40
0.9210919786
 40
0.939254098
 40
0.9551198249
 40
0.9621770653
 40
0.9686425781
 40
0.9745101518
 40
0.9797735806
 40
0.9844273522
 40
0.988471812
 40
0.9919103118
 40
0.994746287
 40
0.9959393015
 40
0.9969815006
 40
0.9978713075
 40
0.9986072056
 40
0.9991878178
 40
0.9996121171
 40
0.9998802606
 40
1.0
 40
1.0
 40
1.0
 40
1.0
 10
9.2839033324
 20
12.8951956563
 30
0.0
 10
9.2854822946
 20
12.8967758018
 30
0.0
 10
9.2886337264
 20
12.8999171312
 30
0.0
 10
9.2933458702
 20
12.9045775758
 30
0.0
 10
9.2979950169
 20
12.9091399642
 30
0.0
 10
9.3025377443
 20
12.913563698
 30
0.0
 10
9.3069305888
 20
12.9178091493
 30
0.0
 10
9.3111302366
 20
12.9218378031
 30
0.0
 10
9.3150939164
 20
12.9256125037
 30
0.0
 10
9.3187798374
 20
12.9290977129
 30
0.0
 10
9.3216615797
 20
12.9318034269
 30
0.0
 10
9.3237979152
 20
12.9337983588
 30
0.0
 10
9.3252611076
 20
12.935159797
 30
0.0
 10
9.32662617
 20
12.9364252697
 30
0.0
 10
9.3278889837
 20
12.9375914867
 30
0.0
 10
9.3290456764
 20
12.938655392
 30
0.0
 10
9.3300926221
 20
12.9396141261
 30
0.0
 10
9.3310265406
 20
12.9404651376
 30
0.0
 10
9.331733262
 20
12.9411054131
 30
0.0
 10
9.3322400574
 20
12.9415619975
 30
0.0
 10
9.3325750627
 20
12.9418625541
 30
0.0
 10
9.332879741
 20
12.9421345635
 30
0.0
 10
9.3331537643
 20
12.9423777642
 30
0.0
 10
9.3333969201
 20
12.9425919917
 30
0.0
 10
9.3336091445
 20
12.9427772488
 30
0.0
 10
9.3337905202
 20
12.9429336752
 30
0.0
 10
9.3339226926
 20
12.9430458168
 30
0.0
 10
9.3340131743
 20
12.9431210943
 30
0.0
 10
9.3340693201
 20
12.9431670454
 30
0.0
 10
9.3341176286
 20
12.9432057123
 30
0.0
 10
9.3341581967
 20
12.9432371942
 30
0.0
 10
9.3341904249
 20
12.9432609776
 30
0.0
 10
9.3342154736
 20
12.943278192
 30
0.0
 10
9.3342306304
 20
12.9432865682
 30
0.0
 10
9.3342406738
 20
12.9432909644
 30
0.0
 10
9.3342429981
 20
12.9432894405
 30
0.0
  0
LINE
  5
56E
100
AcDbEntity
  8
0
100
AcDbLine
 62
9
  6
CONTINUOUS
 10
9.4091881164
 20
12.7770870876
 11
9.4648082009
 21
12.8153364399
  0
LINE
  5
56F
100
AcDbEntity
  8
0
100
AcDbLine
 62
9
  6
CONTINUOUS
 10
9.0401214922
 20
13.1934006611
 11
9.0418757389
 21
13.1920294495
  0
SPLINE
  5
570
100
AcDbEntity
  8
0
100
AcDbSpline
 62
9
  6
CONTINUOUS
 70
0
 71
3
 72
41
 73
37
 74
0
 42
0.0000001
 43
0.0000001
 44
0.0000000001
 40
0.0
 40
0.0
 40
0.0
 40
0.0
 40
0.0982583616
 40
0.1955037187
 40
0.2908089924
 40
0.3832655978
 40
0.4719921101
 40
0.556142667
 40
0.6349150342
 40
0.7075582547
 40
0.7733798102
 40
0.8035334776
 40
0.8317522306
 40
0.8579679976
 40
0.8821190788
 40
0.9041470582
 40
0.9240002763
 40
0.9416305356
 40
0.9569967188
 40
0.9638187195
 40
0.9700613268
 40
0.9757210019
 40
0.9807942106
 40
0.9852776591
 40
0.9891690018
 40
0.9924661446
 40
0.995167027
 40
0.9962932777
 40
0.9972699074
 40
0.9980968761
 40
0.9987741768
 40
0.9993018729
 40
0.9996802099
 40
0.9999100878
 40
0.9999707557
 40
1.0
 40
1.0
 40
1.0
 40
1.0
 10
9.3261129972
 20
12.6705724251
 30
0.0
 10
9.3253575076
 20
12.6685330565
 30
0.0
 10
9.3238550357
 20
12.6644750781
 30
0.0
 10
9.3216222922
 20
12.6584380931
 30
0.0
 10
9.3194362778
 20
12.6525207408
 30
0.0
 10
9.3173178314
 20
12.646779435
 30
0.0
 10
9.3152871466
 20
12.6412689117
 30
0.0
 10
9.3133635795
 20
12.6360417072
 30
0.0
 10
9.3115654615
 20
12.6311476577
 30
0.0
 10
9.3099099291
 20
12.6266334232
 30
0.0
 10
9.3086273811
 20
12.6231285912
 30
0.0
 10
9.3076844877
 20
12.6205465071
 30
0.0
 10
9.3070431705
 20
12.6187875335
 30
0.0
 10
9.306448306
 20
12.6171530374
 30
0.0
 10
9.3059013162
 20
12.6156469344
 30
0.0
 10
9.3054034981
 20
12.6142727995
 30
0.0
 10
9.3049560386
 20
12.6130339297
 30
0.0
 10
9.3045599964
 20
12.611933262
 30
0.0
 10
9.3042628823
 20
12.6111035293
 30
0.0
 10
9.3040517046
 20
12.610510747
 30
0.0
 10
9.3039131143
 20
12.6101201714
 30
0.0
 10
9.3037879997
 20
12.609765886
 30
0.0
 10
9.3036764358
 20
12.6094481089
 30
0.0
 10
9.3035784884
 20
12.6091670336
 30
0.0
 10
9.3034942069
 20
12.6089228264
 30
0.0
 10
9.3034236362
 20
12.6087156266
 30
0.0
 10
9.3033736399
 20
12.6085660763
 30
0.0
 10
9.3033406457
 20
12.6084649983
 30
0.0
 10
9.303320891
 20
12.6084032368
 30
0.0
 10
9.3033045832
 20
12.6083507881
 30
0.0
 10
9.303291712
 20
12.6083077324
 30
0.0
 10
9.3032822693
 20
12.6082738801
 30
0.0
 10
9.3032761846
 20
12.6082497096
 30
0.0
 10
9.3032734529
 20
12.608234745
 30
0.0
 10
9.3032730546
 20
12.60822805
 30
0.0
 10
9.3032737274
 20
12.6082257311
 30
0.0
 10
9.3032743344
 20
12.6082255064
 30
0.0
  0
SPLINE
  5
571
100
AcDbEntity
  8
0
100
AcDbSpline
 62
9
  6
CONTINUOUS
 70
0
 71
3
 72
37
 73
33
 74
0
 42
0.0000001
 43
0.0000001
 44
0.0000000001
 40
0.0
 40
0.0
 40
0.0
 40
0.0
 40
0.0980977456
 40
0.1951745672
 40
0.2903099807
 40
0.3825983392
 40
0.4711631678
 40
0.5551627843
 40
0.6337993425
 40
0.706326199
 40
0.7720552412
 40
0.8303636449
 40
0.8565600571
 40
0.8807004165
 40
0.9027283142
 40
0.9225921783
 40
0.9402461636
 40
0.9556503139
 40
0.9687707513
 40
0.9744662014
 40
0.9795817229
 40
0.9841152498
 40
0.9880659263
 40
0.9914344422
 40
0.9942232417
 40
0.996438406
 40
0.997335443
 40
0.9980963076
 40
0.998726983
 40
0.9992381201
 40
0.9996498487
 40
1.0
 40
1.0
 40
1.0
 40
1.0
 10
10.0548420422
 20
0.8518300775
 30
0.0
 10
10.0540514876
 20
0.8468813042
 30
0.0
 10
10.0524918676
 20
0.8370331364
 30
0.0
 10
10.0502119689
 20
0.8223783362
 30
0.0
 10
10.0480180372
 20
0.8080105718
 30
0.0
 10
10.0459308988
 20
0.7940664536
 30
0.0
 10
10.0439703607
 20
0.7806786836
 30
0.0
 10
10.0421549916
 20
0.7679745969
 30
0.0
 10
10.0405019587
 20
0.7560750549
 30
0.0
 10
10.0390267968
 20
0.7450932573
 30
0.0
 10
10.0377433759
 20
0.7351336756
 30
0.0
 10
10.0368127606
 20
0.7275152197
 30
0.0
 10
10.0361768327
 20
0.7220013941
 30
0.0
 10
10.035772071
 20
0.7183267056
 30
0.0
 10
10.0354230261
 20
0.7149714036
 30
0.0
 10
10.035130481
 20
0.711943457
 30
0.0
 10
10.0348949807
 20
0.7092500558
 30
0.0
 10
10.034716988
 20
0.706897597
 30
0.0
 10
10.0346120266
 20
0.7051524305
 30
0.0
 10
10.0345598589
 20
0.7039309292
 30
0.0
 10
10.0345372362
 20
0.7031473215
 30
0.0
 10
10.0345291407
 20
0.7024525535
 30
0.0
 10
10.0345355301
 20
0.7018470114
 30
0.0
 10
10.0345562012
 20
0.7013309145
 30
0.0
 10
10.0345910786
 20
0.7009045047
 30
0.0
 10
10.0346338211
 20
0.7006056707
 30
0.0
 10
10.0346779504
 20
0.7004126644
 30
0.0
 10
10.0347122488
 20
0.7003007507
 30
0.0
 10
10.0347500827
 20
0.7002109529
 30
0.0
 10
10.0347917729
 20
0.70014292
 30
0.0
 10
10.0348382061
 20
0.7000961085
 30
0.0
 10
10.0348750472
 20
0.7000798572
 30
0.0
 10
10.0348926525
 20
0.7000766889
 30
0.0
  0
SPLINE
  5
572
100
AcDbEntity
  8
0
100
AcDbSpline
 62
9
  6
CONTINUOUS
 70
0
 71
3
 72
14
 73
10
 74
0
 42
0.0000001
 43
0.0000001
 44
0.0000000001
 40
0.0
 40
0.0
 40
0.0
 40
0.0
 40
0.1249956368
 40
0.2499946812
 40
0.3749926069
 40
0.4999924449
 40
0.6249942275
 40
0.749998221
 40
1.0
 40
1.0
 40
1.0
 40
1.0
 10
10.0348925968
 20
0.8552355459
 30
0.0
 10
9.9933466608
 20
0.8622490866
 30
0.0
 10
9.910074285
 20
0.8752359573
 30
0.0
 10
9.7847266786
 20
0.8916301356
 30
0.0
 10
9.6590170635
 20
0.9049847842
 30
0.0
 10
9.533026244
 20
0.9153550014
 30
0.0
 10
9.4068265295
 20
0.9228054365
 30
0.0
 10
9.2383847456
 20
0.9289390161
 30
0.0
 10
9.1119270568
 20
0.929377529
 30
0.0
 10
9.0276684491
 20
0.9279276922
 30
0.0
  0
SPLINE
  5
573
100
AcDbEntity
  8
0
100
AcDbSpline
 62
9
  6
CONTINUOUS
 70
0
 71
3
 72
37
 73
33
 74
0
 42
0.0000001
 43
0.0000001
 44
0.0000000001
 40
0.0
 40
0.0
 40
0.0
 40
0.0
 40
0.0980442364
 40
0.1950826622
 40
0.2901930844
 40
0.38246808
 40
0.4710293389
 40
0.555033332
 40
0.6336803868
 40
0.7062220892
 40
0.7719686443
 40
0.8302956637
 40
0.8565013543
 40
0.8806507361
 40
0.9026872769
 40
0.9225592363
 40
0.9402206756
 40
0.9556314913
 40
0.9687577388
 40
0.9744557283
 40
0.979573545
 40
0.9841091187
 40
0.9880615615
 40
0.991431562
 40
0.9942215666
 40
0.9964376429
 40
0.9973350136
 40
0.9980961294
 40
0.9987269721
 40
0.9992381909
 40
0.9996499168
 40
1.0
 40
1.0
 40
1.0
 40
1.0
 10
10.0348925968
 20
0.8552355459
 30
0.0
 10
10.0341203836
 20
0.8502906464
 30
0.0
 10
10.0325971453
 20
0.8404494987
 30
0.0
 10
10.0303712017
 20
0.8258042852
 30
0.0
 10
10.0282298651
 20
0.8114441508
 30
0.0
 10
10.0261935077
 20
0.7975059385
 30
0.0
 10
10.0242815025
 20
0.7841225892
 30
0.0
 10
10.0225120004
 20
0.7714216796
 30
0.0
 10
10.0209017725
 20
0.7595243102
 30
0.0
 10
10.0194659822
 20
0.748543912
 30
0.0
 10
10.0182181561
 20
0.7385851756
 30
0.0
 10
10.0173146944
 20
0.7309672198
 30
0.0
 10
10.0166983658
 20
0.7254536821
 30
0.0
 10
10.0163066385
 20
0.7217791333
 30
0.0
 10
10.0159694717
 20
0.718423972
 30
0.0
 10
10.0156876227
 20
0.7153961828
 30
0.0
 10
10.015461611
 20
0.712702973
 30
0.0
 10
10.015291879
 20
0.7103507512
 30
0.0
 10
10.0151930186
 20
0.7086058434
 30
0.0
 10
10.0151451006
 20
0.7073845902
 30
0.0
 10
10.0151251934
 20
0.7066011766
 30
0.0
 10
10.0151194932
 20
0.7059066217
 30
0.0
 10
10.0151279571
 20
0.7053013127
 30
0.0
 10
10.015150381
 20
0.7047854696
 30
0.0
 10
10.0151866881
 20
0.7043593337
 30
0.0
 10
10.0152304127
 20
0.7040607567
 30
0.0
 10
10.0152751606
 20
0.7038679749
 30
0.0
 10
10.0153098082
 20
0.7037562254
 30
0.0
 10
10.0153479113
 20
0.7036665974
 30
0.0
 10
10.0153897913
 20
0.7035987408
 30
0.0
 10
10.0154363363
 20
0.7035521127
 30
0.0
 10
10.0154731997
 20
0.7035359972
 30
0.0
 10
10.0154907987
 20
0.7035328933
 30
0.0
  0
LINE
  5
574
100
AcDbEntity
  8
0
100
AcDbLine
 62
9
  6
CONTINUOUS
 10
9.0276265265
 20
0.9279269189
 11
9.0220268051
 21
0.9278419953
  0
SPLINE
  5
575
100
AcDbEntity
  8
0
100
AcDbSpline
 62
9
  6
CONTINUOUS
 70
0
 71
3
 72
19
 73
15
 74
0
 42
0.0000001
 43
0.0000001
 44
0.0000000001
 40
0.0
 40
0.0
 40
0.0
 40
0.0
 40
0.0174161524
 40
0.0371096618
 40
0.0614064779
 40
0.0915786316
 40
0.1282757209
 40
0.1718444502
 40
0.2224749921
 40
0.2802596429
 40
0.4174190494
 40
0.5833506585
 40
0.7777536695
 40
1.0
 40
1.0
 40
1.0
 40
1.0
 10
7.2888956841
 20
14.7675679567
 30
0.0
 10
7.2889300143
 20
14.7676019265
 30
0.0
 10
7.2890212785
 20
14.7676576323
 30
0.0
 10
7.2891935592
 20
14.7676791838
 30
0.0
 10
7.2893984148
 20
14.767648567
 30
0.0
 10
7.2896390229
 20
14.767568375
 30
0.0
 10
7.2899169237
 20
14.7674386308
 30
0.0
 10
7.2902326607
 20
14.7672589947
 30
0.0
 10
7.2905862496
 20
14.7670293086
 30
0.0
 10
7.2911402437
 20
14.76663298
 30
0.0
 10
7.2919218747
 20
14.7660070521
 30
0.0
 10
7.292959398
 20
14.7650973891
 30
0.0
 10
7.2941386717
 20
14.7639928478
 30
0.0
 10
7.2949623707
 20
14.7631824924
 30
0.0
 10
7.2953978018
 20
14.7627463404
 30
0.0
  0
SPLINE
  5
576
100
AcDbEntity
  8
0
100
AcDbSpline
 62
9
  6
CONTINUOUS
 70
0
 71
3
 72
39
 73
35
 74
0
 42
0.0000001
 43
0.0000001
 44
0.0000000001
 40
0.0
 40
0.0
 40
0.0
 40
0.0
 40
0.096492165
 40
0.1445845766
 40
0.1924104448
 40
0.2398514601
 40
0.2867860386
 40
0.3786605459
 40
0.4671038158
 40
0.5512196663
 40
0.6301562562
 40
0.7031144729
 40
0.7693562721
 40
0.8282124256
 40
0.8546823617
 40
0.8790900302
 40
0.9013740383
 40
0.9214791099
 40
0.9393557974
 40
0.9549607018
 40
0.9682579292
 40
0.9740318372
 40
0.9792188861
 40
0.983817375
 40
0.9878262207
 40
0.9912457401
 40
0.9940790027
 40
0.9963330685
 40
0.997247778
 40
0.9980254006
 40
0.9986724445
 40
0.999200327
 40
0.9996300999
 40
1.0
 40
1.0
 40
1.0
 40
1.0
 10
9.0276265265
 20
0.9279269189
 30
0.0
 10
9.0277070118
 20
0.9234145655
 30
0.0
 10
9.027833082
 20
0.9166533199
 30
0.0
 10
9.0280045254
 20
0.9076556516
 30
0.0
 10
9.0281420503
 20
0.900951947
 30
0.0
 10
9.0282914617
 20
0.8943026639
 30
0.0
 10
9.0285008187
 20
0.8855940045
 30
0.0
 10
9.0287814462
 20
0.874968783
 30
0.0
 10
9.0291517266
 20
0.862606376
 30
0.0
 10
9.0295483117
 20
0.8508502321
 30
0.0
 10
9.0299673031
 20
0.8398196071
 30
0.0
 10
9.03040402
 20
0.8296263607
 30
0.0
 10
9.0308537258
 20
0.8203738687
 30
0.0
 10
9.0312476393
 20
0.8132956935
 30
0.0
 10
9.0315693097
 20
0.8081733648
 30
0.0
 10
9.0318022388
 20
0.8047594131
 30
0.0
 10
9.0320347984
 20
0.8016438794
 30
0.0
 10
9.0322663306
 20
0.798834659
 30
0.0
 10
9.0324960885
 20
0.7963388385
 30
0.0
 10
9.0327233937
 20
0.7941627091
 30
0.0
 10
9.03291798
 20
0.7925524547
 30
0.0
 10
9.0330745809
 20
0.7914286939
 30
0.0
 10
9.0331854441
 20
0.7907094207
 30
0.0
 10
9.0332951826
 20
0.7900735925
 30
0.0
 10
9.0334036829
 20
0.7895215853
 30
0.0
 10
9.0335107282
 20
0.7890535966
 30
0.0
 10
9.0336161937
 20
0.7886698373
 30
0.0
 10
9.0337075734
 20
0.7884039679
 30
0.0
 10
9.0337823291
 20
0.7882350707
 30
0.0
 10
9.0338340512
 20
0.788138498
 30
0.0
 10
9.0338854406
 20
0.7880627217
 30
0.0
 10
9.0339368652
 20
0.7880074807
 30
0.0
 10
9.0339892191
 20
0.7879725536
 30
0.0
 10
9.0340268539
 20
0.7879639716
 30
0.0
 10
9.0340441547
 20
0.7879639984
 30
0.0
  0
SPLINE
  5
577
100
AcDbEntity
  8
0
100
AcDbSpline
 62
9
  6
CONTINUOUS
 70
0
 71
3
 72
28
 73
24
 74
0
 42
0.0000001
 43
0.0000001
 44
0.0000000001
 40
0.0
 40
0.0
 40
0.0
 40
0.0
 40
0.0312384448
 40
0.0468610102
 40
0.0624835339
 40
0.093727158
 40
0.1249733501
 40
0.1562220665
 40
0.1874731321
 40
0.218726511
 40
0.2499820856
 40
0.3124852781
 40
0.3749957221
 40
0.4375119996
 40
0.5000324633
 40
0.5625550493
 40
0.6250772924
 40
0.6875962418
 40
0.750108414
 40
0.8126098121
 40
0.8750959431
 40
0.937560746
 40
1.0
 40
1.0
 40
1.0
 40
1.0
 10
9.0219376754
 20
0.9278392269
 30
0.0
 10
9.0164258221
 20
0.9277399336
 30
0.0
 10
9.0081591019
 20
0.9274208825
 30
0.0
 10
8.997159077
 20
0.9266459567
 30
0.0
 10
8.9861772455
 20
0.9256340076
 30
0.0
 10
8.9724941411
 20
0.9239262909
 30
0.0
 10
8.9561755362
 20
0.9211859044
 30
0.0
 10
8.9399857189
 20
0.9177583144
 30
0.0
 10
8.9239554598
 20
0.9136438856
 30
0.0
 10
8.9081133607
 20
0.9088505794
 30
0.0
 10
8.8872834807
 20
0.9015665214
 30
0.0
 10
8.8618537385
 20
0.8908027796
 30
0.0
 10
8.8325564552
 20
0.875326945
 30
0.0
 10
8.8046893701
 20
0.8573949785
 30
0.0
 10
8.7784641525
 20
0.8371341438
 30
0.0
 10
8.7540804692
 20
0.8146888458
 30
0.0
 10
8.7317272385
 20
0.790220811
 30
0.0
 10
8.7115784943
 20
0.7639097186
 30
0.0
 10
8.6937951329
 20
0.7359494103
 30
0.0
 10
8.6785229011
 20
0.7065485261
 30
0.0
 10
8.6658901741
 20
0.6759284444
 30
0.0
 10
8.6560111298
 20
0.6443260757
 30
0.0
 10
8.6513216358
 20
0.6227530227
 30
0.0
 10
8.6494653444
 20
0.6118916545
 30
0.0
  0
SPLINE
  5
578
100
AcDbEntity
  8
0
100
AcDbSpline
 62
9
  6
CONTINUOUS
 70
0
 71
3
 72
41
 73
37
 74
0
 42
0.0000001
 43
0.0000001
 44
0.0000000001
 40
0.0
 40
0.0
 40
0.0
 40
0.0
 40
0.0482509822
 40
0.0964909356
 40
0.1445827023
 40
0.1924078997
 40
0.2398483282
 40
0.2867823793
 40
0.3330906375
 40
0.378655992
 40
0.4670985902
 40
0.5512139971
 40
0.6301503454
 40
0.7031084745
 40
0.7693502938
 40
0.8282065421
 40
0.8546765482
 40
0.8790843041
 40
0.9013684163
 40
0.9214736173
 40
0.939350463
 40
0.9549555707
 40
0.9682530586
 40
0.9740271282
 40
0.9792143633
 40
0.9838130734
 40
0.9878221894
 40
0.99124204
 40
0.9940757085
 40
0.9963302796
 40
0.9972452927
 40
0.9980232628
 40
0.9986707126
 40
0.9991990804
 40
0.9996294362
 40
1.0
 40
1.0
 40
1.0
 40
1.0
 10
9.0219376754
 20
0.9278392269
 30
0.0
 10
9.0219842471
 20
0.9255845078
 30
0.0
 10
9.022077065
 20
0.9210755783
 30
0.0
 10
9.0222110799
 20
0.914319263
 30
0.0
 10
9.022338461
 20
0.9075827248
 30
0.0
 10
9.0224746187
 20
0.9008837298
 30
0.0
 10
9.0226259343
 20
0.8942391843
 30
0.0
 10
9.0227862094
 20
0.8876657731
 30
0.0
 10
9.0229544256
 20
0.8811802269
 30
0.0
 10
9.0231881074
 20
0.872755674
 30
0.0
 10
9.02349822
 20
0.8625655106
 30
0.0
 10
9.0239008812
 20
0.8508177968
 30
0.0
 10
9.0243260428
 20
0.8397951025
 30
0.0
 10
9.0247686712
 20
0.8296092057
 30
0.0
 10
9.0252238196
 20
0.8203634089
 30
0.0
 10
9.0256219098
 20
0.8132903815
 30
0.0
 10
9.0259466127
 20
0.8081717979
 30
0.0
 10
9.0261815726
 20
0.8047603512
 30
0.0
 10
9.0264160005
 20
0.8016471147
 30
0.0
 10
9.0266492399
 20
0.7988399781
 30
0.0
 10
9.0268805458
 20
0.7963460225
 30
0.0
 10
9.0271092434
 20
0.7941715348
 30
0.0
 10
9.0273049041
 20
0.7925625134
 30
0.0
 10
9.0274622892
 20
0.7914396277
 30
0.0
 10
9.0275736739
 20
0.7907209185
 30
0.0
 10
9.0276838958
 20
0.7900855957
 30
0.0
 10
9.0277928427
 20
0.7895340345
 30
0.0
 10
9.0279002986
 20
0.7890664325
 30
0.0
 10
9.0280061316
 20
0.7886829998
 30
0.0
 10
9.0280977925
 20
0.7884173719
 30
0.0
 10
9.0281727447
 20
0.7882486425
 30
0.0
 10
9.0282245918
 20
0.7881521665
 30
0.0
 10
9.028276093
 20
0.7880764724
 30
0.0
 10
9.0283276171
 20
0.7880213003
 30
0.0
 10
9.0283800566
 20
0.7879864347
 30
0.0
 10
9.0284177293
 20
0.7879778868
 30
0.0
 10
9.0284350491
 20
0.7879779243
 30
0.0
  0
LINE
  5
579
100
AcDbEntity
  8
0
100
AcDbLine
 62
9
  6
CONTINUOUS
 10
8.6494653274
 20
0.611891547
 11
8.6472798626
 21
0.5991053946
  0
SPLINE
  5
57A
100
AcDbEntity
  8
0
100
AcDbSpline
 62
9
  6
CONTINUOUS
 70
0
 71
3
 72
31
 73
27
 74
0
 42
0.0000001
 43
0.0000001
 44
0.0000000001
 40
0.0
 40
0.0
 40
0.0
 40
0.0
 40
0.1896390022
 40
0.3741304597
 40
0.4620166337
 40
0.5457570846
 40
0.6244761486
 40
0.6973526249
 40
0.7636293841
 40
0.8226227891
 40
0.8491976585
 40
0.8737336738
 40
0.8961711328
 40
0.9164568725
 40
0.9345458485
 40
0.9504023683
 40
0.9640021925
 40
0.9753382543
 40
0.9801629994
 40
0.9844327813
 40
0.9881592954
 40
0.9913614994
 40
0.9940709629
 40
0.9963421174
 40
0.9982682194
 40
1.0
 40
1.0
 40
1.0
 40
1.0
 10
8.6494653274
 20
0.611891547
 30
0.0
 10
8.6580908738
 20
0.6105503426
 30
0.0
 10
8.675088553
 20
0.6077788314
 30
0.0
 10
8.6960263995
 20
0.6040469929
 30
0.0
 10
8.7121274254
 20
0.6009694311
 30
0.0
 10
8.723426356
 20
0.5987043275
 30
0.0
 10
8.7340260796
 20
0.5964690104
 30
0.0
 10
8.7438149773
 20
0.5942873815
 30
0.0
 10
8.752689963
 20
0.5921827975
 30
0.0
 10
8.7594637102
 20
0.5904575383
 30
0.0
 10
8.7643535772
 20
0.5891246384
 30
0.0
 10
8.7676084201
 20
0.5881928868
 30
0.0
 10
8.7705719097
 20
0.5872964098
 30
0.0
 10
8.77323635
 20
0.586437659
 30
0.0
 10
8.7755948687
 20
0.5856190674
 30
0.0
 10
8.7776416828
 20
0.5848431265
 30
0.0
 10
8.7793716973
 20
0.5841120146
 30
0.0
 10
8.7806056347
 20
0.5835144472
 30
0.0
 10
8.7814257346
 20
0.5830535714
 30
0.0
 10
8.7819254358
 20
0.582739008
 30
0.0
 10
8.7823436217
 20
0.5824368508
 30
0.0
 10
8.7826804398
 20
0.5821470085
 30
0.0
 10
8.782936255
 20
0.5818689768
 30
0.0
 10
8.7831113164
 20
0.5816011788
 30
0.0
 10
8.7832041995
 20
0.5813409006
 30
0.0
 10
8.7832064537
 20
0.5811684333
 30
0.0
 10
8.7831926113
 20
0.5810899294
 30
0.0
  0
LINE
  5
57B
100
AcDbEntity
  8
0
100
AcDbLine
 62
9
  6
CONTINUOUS
 10
8.6472798626
 20
0.5991053946
 11
8.6265645689
 21
0.4748932018
  0
SPLINE
  5
57C
100
AcDbEntity
  8
0
100
AcDbSpline
 62
9
  6
CONTINUOUS
 70
0
 71
3
 72
31
 73
27
 74
0
 42
0.0000001
 43
0.0000001
 44
0.0000000001
 40
0.0
 40
0.0
 40
0.0
 40
0.0
 40
0.1895233726
 40
0.3739365591
 40
0.4617959429
 40
0.5455168526
 40
0.6242229326
 40
0.6970923627
 40
0.7633675235
 40
0.8223644958
 40
0.8489431049
 40
0.8734842142
 40
0.8959282233
 40
0.9162221362
 40
0.9343211719
 40
0.9501900481
 40
0.963805173
 40
0.9751605342
 40
0.9799969922
 40
0.9842802719
 40
0.988022537
 40
0.9912433845
 40
0.9939752274
 40
0.9962734535
 40
0.998231868
 40
1.0
 40
1.0
 40
1.0
 40
1.0
 10
8.6472798626
 20
0.5991053946
 30
0.0
 10
8.6558991455
 20
0.5977711112
 30
0.0
 10
8.6728856985
 20
0.595010283
 30
0.0
 10
8.693809599
 20
0.591284633
 30
0.0
 10
8.7099011091
 20
0.5882070851
 30
0.0
 10
8.7211941743
 20
0.5859395311
 30
0.0
 10
8.731788596
 20
0.5836994651
 30
0.0
 10
8.7415726611
 20
0.5815108781
 30
0.0
 10
8.750443196
 20
0.5793972394
 30
0.0
 10
8.7572132325
 20
0.5776625489
 30
0.0
 10
8.7621001689
 20
0.5763210006
 30
0.0
 10
8.7653530417
 20
0.5753825227
 30
0.0
 10
8.7683146056
 20
0.5744789036
 30
0.0
 10
8.7709771625
 20
0.5736126171
 30
0.0
 10
8.773333841
 20
0.572786121
 30
0.0
 10
8.7753788673
 20
0.5720019292
 30
0.0
 10
8.7771071541
 20
0.5712622433
 30
0.0
 10
8.7783394364
 20
0.570657014
 30
0.0
 10
8.7791580775
 20
0.5701898057
 30
0.0
 10
8.7796569149
 20
0.5698705871
 30
0.0
 10
8.7800742524
 20
0.5695636933
 30
0.0
 10
8.7804102313
 20
0.5692690196
 30
0.0
 10
8.7806651852
 20
0.5689860457
 30
0.0
 10
8.7808392926
 20
0.5687132005
 30
0.0
 10
8.7809310088
 20
0.5684479289
 30
0.0
 10
8.7809325381
 20
0.5682724171
 30
0.0
 10
8.7809184083
 20
0.5681922831
 30
0.0
  0
SPLINE
  5
57D
100
AcDbEntity
  8
0
100
AcDbSpline
 62
9
  6
CONTINUOUS
 70
0
 71
3
 72
51
 73
47
 74
0
 42
0.0000001
 43
0.0000001
 44
0.0000000001
 40
0.0
 40
0.0
 40
0.0
 40
0.0
 40
0.000559205
 40
0.0010139379
 40
0.0020244306
 40
0.002711884
 40
0.0035442821
 40
0.0056729912
 40
0.0069882621
 40
0.0084878253
 40
0.0120375618
 40
0.0162666601
 40
0.0210980263
 40
0.0264632182
 40
0.0323216171
 40
0.0386904136
 40
0.0455940335
 40
0.0530473102
 40
0.0610593977
 40
0.0787602605
 40
0.0986518646
 40
0.1206810605
 40
0.144799753
 40
0.1709586831
 40
0.1990995334
 40
0.2291567694
 40
0.2947384072
 40
0.3670951198
 40
0.4455511692
 40
0.4868378381
 40
0.5293694066
 40
0.5730470976
 40
0.6177687706
 40
0.6634233078
 40
0.7099009332
 40
0.7334178326
 40
0.7571048567
 40
0.7809510032
 40
0.8049434653
 40
0.8532727231
 40
0.8775685011
 40
0.8897450871
 40
0.9019414319
 40
0.9263920055
 40
0.9509033633
 40
1.0
 40
1.0
 40
1.0
 40
1.0
 10
8.0687380109
 20
1.7549736723
 30
0.0
 10
8.0687269559
 20
1.7549704353
 30
0.0
 10
8.0687070942
 20
1.7549627615
 30
0.0
 10
8.0686765661
 20
1.7549320277
 30
0.0
 10
8.0686731076
 20
1.7548842551
 30
0.0
 10
8.0686772984
 20
1.7548330093
 30
0.0
 10
8.0686863029
 20
1.7547581163
 30
0.0
 10
8.068694748
 20
1.7546704909
 30
0.0
 10
8.0686957801
 20
1.7545685426
 30
0.0
 10
8.0686880119
 20
1.7544376026
 30
0.0
 10
8.0686640722
 20
1.7542478731
 30
0.0
 10
8.0686280101
 20
1.7539906678
 30
0.0
 10
8.068593222
 20
1.7536954922
 30
0.0
 10
8.0685705283
 20
1.753365325
 30
0.0
 10
8.0685719161
 20
1.7530026536
 30
0.0
 10
8.0685953438
 20
1.7526091475
 30
0.0
 10
8.0686365209
 20
1.752184143
 30
0.0
 10
8.0686918925
 20
1.7517266784
 30
0.0
 10
8.0687821984
 20
1.7510494734
 30
0.0
 10
8.068914813
 20
1.7501194373
 30
0.0
 10
8.0691073719
 20
1.7489064083
 30
0.0
 10
8.0693446646
 20
1.747566845
 30
0.0
 10
8.0696249672
 20
1.7461039675
 30
0.0
 10
8.0699448896
 20
1.7445205919
 30
0.0
 10
8.0703030787
 20
1.7428202104
 30
0.0
 10
8.0708475804
 20
1.7403292532
 30
0.0
 10
8.0716216593
 20
1.73695628
 30
0.0
 10
8.0726641827
 20
1.7326223133
 30
0.0
 10
8.0736223837
 20
1.728782949
 30
0.0
 10
8.0744512091
 20
1.7255446176
 30
0.0
 10
8.0751119326
 20
1.7230027789
 30
0.0
 10
8.0757972337
 20
1.7203942317
 30
0.0
 10
8.0765043404
 20
1.7177249063
 30
0.0
 10
8.0772384455
 20
1.7150030727
 30
0.0
 10
8.0778770296
 20
1.7127079749
 30
0.0
 10
8.0783948128
 20
1.7108489797
 30
0.0
 10
8.0787838594
 20
1.7094380651
 30
0.0
 10
8.0791685846
 20
1.7080157972
 30
0.0
 10
8.079672088
 20
1.7060999069
 30
0.0
 10
8.0801834861
 20
1.7041762869
 30
0.0
 10
8.080681547
 20
1.7025017486
 30
0.0
 10
8.0809875758
 20
1.701547025
 30
0.0
 10
8.0813103228
 20
1.7005944571
 30
0.0
 10
8.0817372362
 20
1.6994090826
 30
0.0
 10
8.0824385887
 20
1.6975150168
 30
0.0
 10
8.08295012
 20
1.6960868095
 30
0.0
 10
8.0832534882
 20
1.695122034
 30
0.0
  0
SPLINE
  5
57E
100
AcDbEntity
  8
0
100
AcDbSpline
 62
9
  6
CONTINUOUS
 70
0
 71
3
 72
18
 73
14
 74
0
 42
0.0000001
 43
0.0000001
 44
0.0000000001
 40
0.0
 40
0.0
 40
0.0
 40
0.0
 40
0.1249916637
 40
0.2499836115
 40
0.374976
 40
0.4374750603
 40
0.4999746985
 40
0.5624751444
 40
0.6249765034
 40
0.6874789996
 40
0.7499826147
 40
0.8749882026
 40
1.0
 40
1.0
 40
1.0
 40
1.0
 10
8.0832536579
 20
1.6949652669
 30
0.0
 10
8.162430311
 20
1.7176960868
 30
0.0
 10
8.321449862
 20
1.7608786281
 30
0.0
 10
8.5618256195
 20
1.8183999385
 30
0.0
 10
8.7635732559
 20
1.8599436887
 30
0.0
 10
8.9257274162
 20
1.8891390388
 30
0.0
 10
9.0477022556
 20
1.9089699701
 30
0.0
 10
9.1700031513
 20
1.9266892841
 30
0.0
 10
9.2925994887
 20
1.942250412
 30
0.0
 10
9.4154585762
 20
1.9556040242
 30
0.0
 10
9.5795682884
 20
1.9704120016
 30
0.0
 10
9.7851849097
 20
1.98321495
 30
0.0
 10
9.9499568376
 20
1.98719024
 30
0.0
 10
10.0323442049
 20
1.9875651075
 30
0.0
  0
SPLINE
  5
57F
100
AcDbEntity
  8
0
100
AcDbSpline
 62
9
  6
CONTINUOUS
 70
0
 71
3
 72
32
 73
28
 74
0
 42
0.0000001
 43
0.0000001
 44
0.0000000001
 40
0.0
 40
0.0
 40
0.0
 40
0.0
 40
0.0010411572
 40
0.0023843635
 40
0.0041846392
 40
0.0065065797
 40
0.0093792742
 40
0.0128167578
 40
0.0214079091
 40
0.0265671058
 40
0.0323020328
 40
0.0386108822
 40
0.0454909695
 40
0.0609523554
 40
0.0786568007
 40
0.098564445
 40
0.1206316244
 40
0.1710319077
 40
0.2293846213
 40
0.2951352634
 40
0.367655735
 40
0.4462512345
 40
0.5301677347
 40
0.6185989898
 40
0.7106965397
 40
0.805571635
 40
1.0
 40
1.0
 40
1.0
 40
1.0
 10
10.0348926102
 20
2.0500766965
 30
0.0
 10
10.0348708423
 20
2.0500766965
 30
0.0
 10
10.034821073
 20
2.0500591507
 30
0.0
 10
10.0347586297
 20
2.0499959832
 30
0.0
 10
10.0346973204
 20
2.0498990749
 30
0.0
 10
10.0346363011
 20
2.0497658333
 30
0.0
 10
10.0345750866
 20
2.04959593
 30
0.0
 10
10.0344868083
 20
2.0492970158
 30
0.0
 10
10.0344075813
 20
2.0489461821
 30
0.0
 10
10.0343308977
 20
2.0485460922
 30
0.0
 10
10.0342703971
 20
2.048191516
 30
0.0
 10
10.0342101684
 20
2.0478004678
 30
0.0
 10
10.0341271032
 20
2.0472072351
 30
0.0
 10
10.0340257639
 20
2.0463760714
 30
0.0
 10
10.0339101646
 20
2.0452724451
 30
0.0
 10
10.0337966838
 20
2.0440298478
 30
0.0
 10
10.0336417345
 20
2.0421047228
 30
0.0
 10
10.0334594868
 20
2.0393755736
 30
0.0
 10
10.0332618023
 20
2.0357324564
 30
0.0
 10
10.0330790198
 20
2.0316255765
 30
0.0
 10
10.0329130384
 20
2.0270944636
 30
0.0
 10
10.0327656341
 20
2.0221827289
 30
0.0
 10
10.0326383129
 20
2.0169376807
 30
0.0
 10
10.0325323678
 20
2.0114098138
 30
0.0
 10
10.0324488569
 20
2.0056524226
 30
0.0
 10
10.0323679136
 20
1.9976787178
 30
0.0
 10
10.0323441739
 20
1.9916300967
 30
0.0
 10
10.0323442046
 20
1.9875651075
 30
0.0
  0
SPLINE
  5
580
100
AcDbEntity
  8
0
100
AcDbSpline
 62
9
  6
CONTINUOUS
 70
0
 71
3
 72
22
 73
18
 74
0
 42
0.0000001
 43
0.0000001
 44
0.0000000001
 40
0.0
 40
0.0
 40
0.0
 40
0.0
 40
0.0624834024
 40
0.1249667844
 40
0.1874510306
 40
0.2499365379
 40
0.3124238734
 40
0.3749134842
 40
0.437405775
 40
0.4999011305
 40
0.6248954265
 40
0.6874019213
 40
0.7499127594
 40
0.8124280703
 40
0.8749478323
 40
0.9374721189
 40
1.0
 40
1.0
 40
1.0
 40
1.0
 10
10.0374604297
 20
2.0500762305
 30
0.0
 10
10.1350766979
 20
2.050044322
 30
0.0
 10
10.3303250956
 20
2.0463625884
 30
0.0
 10
10.6228016529
 20
2.0305400647
 30
0.0
 10
10.914587679
 20
2.0049509613
 30
0.0
 10
11.2054182682
 20
1.9701509482
 30
0.0
 10
11.4950886603
 20
1.9267166645
 30
0.0
 10
11.7834379796
 20
1.8752072246
 30
0.0
 10
12.0703509923
 20
1.8161731055
 30
0.0
 10
12.4508738545
 20
1.7281504013
 30
0.0
 10
12.8283079871
 20
1.6271991979
 30
0.0
 10
13.2025464426
 20
1.5153318791
 30
0.0
 10
13.4817319258
 20
1.4264466022
 30
0.0
 10
13.7594657301
 20
1.3330746483
 30
0.0
 10
14.0358435726
 20
1.2357044991
 30
0.0
 10
14.3109893334
 20
1.1348560802
 30
0.0
 10
14.4936933529
 20
1.0656572533
 30
0.0
 10
14.5848926102
 20
1.0306543468
 30
0.0
  0
SPLINE
  5
581
100
AcDbEntity
  8
0
100
AcDbSpline
 62
9
  6
CONTINUOUS
 70
0
 71
3
 72
25
 73
21
 74
0
 42
0.0000001
 43
0.0000001
 44
0.0000000001
 40
0.0
 40
0.0
 40
0.0
 40
0.0
 40
0.0624674648
 40
0.1249387774
 40
0.1561771642
 40
0.1874166976
 40
0.2186574035
 40
0.2498993352
 40
0.3123855802
 40
0.3748772863
 40
0.4373744339
 40
0.4998768035
 40
0.5623839326
 40
0.6248951452
 40
0.6874096623
 40
0.7499265861
 40
0.8124449259
 40
0.8749637108
 40
0.9374824283
 40
1.0
 40
1.0
 40
1.0
 40
1.0
 10
10.0348926103
 20
1.9875762833
 30
0.0
 10
10.1322059365
 20
1.987987275
 30
0.0
 10
10.3268687651
 20
1.9852807935
 30
0.0
 10
10.5699304402
 20
1.973543708
 30
0.0
 10
10.7640748038
 20
1.9594174851
 30
0.0
 10
10.9095089999
 20
1.9465247021
 30
0.0
 10
11.0547338838
 20
1.9314071834
 30
0.0
 10
11.2480551076
 20
1.9083856588
 30
0.0
 10
11.4890731733
 20
1.8744200879
 30
0.0
 10
11.7771096379
 20
1.8259444791
 30
0.0
 10
12.0638742252
 20
1.7703226412
 30
0.0
 10
12.349301398
 20
1.7081089691
 30
0.0
 10
12.6333571695
 20
1.6398274789
 30
0.0
 10
12.9160306513
 20
1.5659695332
 30
0.0
 10
13.1973346178
 20
1.4870094486
 30
0.0
 10
13.4773003573
 20
1.4033979149
 30
0.0
 10
13.7559765863
 20
1.3155691872
 30
0.0
 10
14.0334304139
 20
1.2239491744
 30
0.0
 10
14.3097491447
 20
1.1289706623
 30
0.0
 10
14.493278886
 20
1.0637024387
 30
0.0
 10
14.5848926102
 20
1.0306543468
 30
0.0
  0
SPLINE
  5
582
100
AcDbEntity
  8
0
100
AcDbSpline
 62
9
  6
CONTINUOUS
 70
0
 71
3
 72
32
 73
28
 74
0
 42
0.0000001
 43
0.0000001
 44
0.0000000001
 40
0.0
 40
0.0
 40
0.0
 40
0.0
 40
0.0010408939
 40
0.002383875
 40
0.004183949
 40
0.0065056933
 40
0.0093781861
 40
0.0128154563
 40
0.0214061336
 40
0.0265650663
 40
0.0322997106
 40
0.0386082585
 40
0.0454880259
 40
0.0609487195
 40
0.0786524077
 40
0.0985592396
 40
0.120625562
 40
0.1710240504
 40
0.229374961
 40
0.2951239294
 40
0.3676430093
 40
0.4462375643
 40
0.5301537413
 40
0.6185854744
 40
0.7106844852
 40
0.8055622051
 40
1.0
 40
1.0
 40
1.0
 40
1.0
 10
10.0374604297
 20
2.0500762305
 30
0.0
 10
10.0374386711
 20
2.0500762374
 30
0.0
 10
10.0373889157
 20
2.0500587093
 30
0.0
 10
10.0373264817
 20
2.0499955752
 30
0.0
 10
10.037265169
 20
2.0498987084
 30
0.0
 10
10.0372041342
 20
2.0497655159
 30
0.0
 10
10.0371428922
 20
2.0495956697
 30
0.0
 10
10.0370545562
 20
2.0492968486
 30
0.0
 10
10.0369752509
 20
2.0489461175
 30
0.0
 10
10.0368984716
 20
2.04854614
 30
0.0
 10
10.0368378828
 20
2.0481916605
 30
0.0
 10
10.0367775539
 20
2.0478007167
 30
0.0
 10
10.0366943327
 20
2.047207639
 30
0.0
 10
10.0365927681
 20
2.0463766873
 30
0.0
 10
10.0364768609
 20
2.0452733354
 30
0.0
 10
10.0363630256
 20
2.04403104
 30
0.0
 10
10.0362075173
 20
2.0421063706
 30
0.0
 10
10.0360244593
 20
2.0393778472
 30
0.0
 10
10.0358256714
 20
2.0357355376
 30
0.0
 10
10.0356416252
 20
2.0316295337
 30
0.0
 10
10.0354742315
 20
2.0270993479
 30
0.0
 10
10.0353252796
 20
2.0221885729
 30
0.0
 10
10.0351962899
 20
2.0169444973
 30
0.0
 10
10.0350885713
 20
2.0114175953
 30
0.0
 10
10.0350031987
 20
2.0056611403
 30
0.0
 10
10.0349196573
 20
1.9976885705
 30
0.0
 10
10.034893927
 20
1.9916407605
 30
0.0
 10
10.0348926103
 20
1.9875762833
 30
0.0
  0
SPLINE
  5
583
100
AcDbEntity
  8
0
100
AcDbSpline
 62
7
  6
CONTINUOUS
 70
0
 71
3
 72
27
 73
23
 74
0
 42
0.0000001
 43
0.0000001
 44
0.0000000001
 40
0.0
 40
0.0
 40
0.0
 40
0.0
 40
0.2028571429
 40
0.2980765732
 40
0.3884850017
 40
0.4736189118
 40
0.5530644446
 40
0.6264575427
 40
0.6934894486
 40
0.7539169772
 40
0.8075756756
 40
0.8544000504
 40
0.8752707268
 40
0.8944760285
 40
0.9120581314
 40
0.9280824962
 40
0.942642461
 40
0.9558689677
 40
0.9679440309
 40
0.9791095639
 40
0.9896736945
 40
1.0
 40
1.0
 40
1.0
 40
1.0
 10
8.405407526
 20
13.852151396
 30
0.0
 10
8.4076174597
 20
13.8499414623
 30
0.0
 10
8.4108153843
 20
13.8466438927
 30
0.0
 10
8.4148590178
 20
13.8422308282
 30
0.0
 10
8.4176139227
 20
13.8390979963
 30
0.0
 10
8.4201405597
 20
13.8360893495
 30
0.0
 10
8.4224254669
 20
13.8332215058
 30
0.0
 10
8.4244569036
 20
13.8305100564
 30
0.0
 10
8.4262248036
 20
13.8279694652
 30
0.0
 10
8.4277210401
 20
13.8256128735
 30
0.0
 10
8.4289390103
 20
13.8234521962
 30
0.0
 10
8.4297474847
 20
13.8217639575
 30
0.0
 10
8.4302404007
 20
13.8205186198
 30
0.0
 10
8.430523142
 20
13.8196759888
 30
0.0
 10
8.4307332171
 20
13.8188892776
 30
0.0
 10
8.430870495
 20
13.8181591635
 30
0.0
 10
8.4309348469
 20
13.8174861537
 30
0.0
 10
8.4309259076
 20
13.8168706076
 30
0.0
 10
8.4308432232
 20
13.8163129214
 30
0.0
 10
8.4306858214
 20
13.8158137754
 30
0.0
 10
8.4304530116
 20
13.8153749557
 30
0.0
 10
8.430247498
 20
13.8151240011
 30
0.0
 10
8.4301350066
 20
13.8150115021
 30
0.0
  0
SPLINE
  5
584
100
AcDbEntity
  8
0
100
AcDbSpline
 62
7
  6
CONTINUOUS
 70
0
 71
3
 72
29
 73
25
 74
0
 42
0.0000001
 43
0.0000001
 44
0.0000000001
 40
0.0
 40
0.0
 40
0.0
 40
0.0
 40
0.0903989739
 40
0.1810245372
 40
0.2708373223
 40
0.3588135149
 40
0.443969598
 40
0.5253750879
 40
0.6021683514
 40
0.6735674402
 40
0.7388822375
 40
0.7975265385
 40
0.8241989647
 40
0.8490402858
 40
0.8720155406
 40
0.8931027961
 40
0.9122946079
 40
0.9296043416
 40
0.9450711826
 40
0.9587734828
 40
0.970844002
 40
0.981497853
 40
0.9910625049
 40
1.0
 40
1.0
 40
1.0
 40
1.0
 10
7.8717818916
 20
14.3857770304
 30
0.0
 10
7.8735712395
 20
14.3839876824
 30
0.0
 10
7.8771154484
 20
14.3803653018
 30
0.0
 10
7.8823013718
 20
14.3748341641
 30
0.0
 10
7.8873225641
 20
14.3692438304
 30
0.0
 10
7.8921201105
 20
14.3636607707
 30
0.0
 10
7.8966386832
 20
14.3581507002
 30
0.0
 10
7.9008273254
 20
14.3527774828
 30
0.0
 10
7.9046399962
 20
14.3476023296
 30
0.0
 10
7.9080361827
 20
14.3426830028
 30
0.0
 10
7.9109807535
 20
14.338073327
 30
0.0
 10
7.9130969119
 20
14.3344239922
 30
0.0
 10
7.9145304304
 20
14.3316933597
 30
0.0
 10
7.9154414298
 20
14.3298172982
 30
0.0
 10
7.9162207912
 20
14.3280524213
 30
0.0
 10
7.9168668317
 20
14.3264031435
 30
0.0
 10
7.9173781928
 20
14.3248734543
 30
0.0
 10
7.9177539757
 20
14.3234669276
 30
0.0
 10
7.9179934299
 20
14.3221864979
 30
0.0
 10
7.91809608
 20
14.3210344052
 30
0.0
 10
7.918060942
 20
14.3200120724
 30
0.0
 10
7.9178858158
 20
14.3191202621
 30
0.0
 10
7.9175666469
 20
14.3183618518
 30
0.0
 10
7.9172495542
 20
14.317943512
 30
0.0
 10
7.9170726426
 20
14.317766608
 30
0.0
  0
SPLINE
  5
585
100
AcDbEntity
  8
0
100
AcDbSpline
 62
9
  6
CONTINUOUS
 70
0
 71
3
 72
49
 73
45
 74
0
 42
0.0000001
 43
0.0000001
 44
0.0000000001
 40
0.0
 40
0.0
 40
0.0
 40
0.0
 40
0.0000189158
 40
0.0000795606
 40
0.0001838583
 40
0.0003337329
 40
0.0005311091
 40
0.000777912
 40
0.0014275001
 40
0.002297906
 40
0.003404677
 40
0.0047649664
 40
0.0063969909
 40
0.0083189883
 40
0.0105491977
 40
0.0160100797
 40
0.022941699
 40
0.0315120867
 40
0.0419022258
 40
0.0543024238
 40
0.0689190942
 40
0.0859687294
 40
0.1056699707
 40
0.1282207138
 40
0.1538250939
 40
0.1826817685
 40
0.2149317162
 40
0.2506181223
 40
0.2897390509
 40
0.3105800174
 40
0.332254212
 40
0.3779517205
 40
0.426534928
 40
0.4518215334
 40
0.4777168221
 40
0.5311218754
 40
0.5863578048
 40
0.6430825755
 40
0.7009866359
 40
0.7597934234
 40
0.8192682216
 40
0.8792207512
 40
0.9395067125
 40
1.0
 40
1.0
 40
1.0
 40
1.0
 10
7.5585926708
 20
1.5543588595
 30
0.0
 10
7.5585894583
 20
1.5543576714
 30
0.0
 10
7.558620131
 20
1.5543657826
 30
0.0
 10
7.5586357124
 20
1.5543685345
 30
0.0
 10
7.5587011219
 20
1.5543847126
 30
0.0
 10
7.5587760285
 20
1.5544026073
 30
0.0
 10
7.5588823529
 20
1.5544286633
 30
0.0
 10
7.5590737426
 20
1.5544757833
 30
0.0
 10
7.559384756
 20
1.5545534696
 30
0.0
 10
7.559845549
 20
1.5546701777
 30
0.0
 10
7.560431016
 20
1.5548204453
 30
0.0
 10
7.5611493979
 20
1.5550069527
 30
0.0
 10
7.5620101612
 20
1.5552326856
 30
0.0
 10
7.5630226855
 20
1.5555006033
 30
0.0
 10
7.5647045601
 20
1.5559492487
 30
0.0
 10
7.5672609378
 20
1.5566390091
 30
0.0
 10
7.5709232984
 20
1.5576367655
 30
0.0
 10
7.5754445985
 20
1.5588773059
 30
0.0
 10
7.5809194009
 20
1.5603850292
 30
0.0
 10
7.5874490794
 20
1.5621858121
 30
0.0
 10
7.5951418724
 20
1.5643048333
 30
0.0
 10
7.6041111842
 20
1.566767821
 30
0.0
 10
7.6144693571
 20
1.5695985097
 30
0.0
 10
7.6263281672
 20
1.5728141059
 30
0.0
 10
7.6397949224
 20
1.5764342662
 30
0.0
 10
7.6549667395
 20
1.5804767377
 30
0.0
 10
7.6719120439
 20
1.5849536622
 30
0.0
 10
7.6906640795
 20
1.5898681083
 30
0.0
 10
7.7074255895
 20
1.5942287049
 30
0.0
 10
7.721733343
 20
1.5979437016
 30
0.0
 10
7.7371931448
 20
1.6019602146
 30
0.0
 10
7.757513506
 20
1.6072454116
 30
0.0
 10
7.7784634774
 20
1.612708499
 30
0.0
 10
7.7959381921
 20
1.6172882818
 30
0.0
 10
7.8142522114
 20
1.6221095281
 30
0.0
 10
7.8377999028
 20
1.6283519402
 30
0.0
 10
7.8667265052
 20
1.6360891259
 30
0.0
 10
7.8964241267
 20
1.6440962639
 30
0.0
 10
7.9267314624
 20
1.6523255988
 30
0.0
 10
7.9575077966
 20
1.6607278502
 30
0.0
 10
7.9886352267
 20
1.6692523967
 30
0.0
 10
8.0200199502
 20
1.6778514626
 30
0.0
 10
8.0515852194
 20
1.6864894821
 30
0.0
 10
8.0726841074
 20
1.6922457016
 30
0.0
 10
8.0832534882
 20
1.695122034
 30
0.0
  0
SPLINE
  5
586
100
AcDbEntity
  8
0
100
AcDbSpline
 62
7
  6
CONTINUOUS
 70
0
 71
3
 72
32
 73
28
 74
0
 42
0.0000001
 43
0.0000001
 44
0.0000000001
 40
0.0
 40
0.0
 40
0.0
 40
0.0
 40
0.174594191
 40
0.2632985845
 40
0.3514037063
 40
0.4377801984
 40
0.5213287128
 40
0.6009865952
 40
0.6757355757
 40
0.7446108245
 40
0.8067094041
 40
0.8349557748
 40
0.8612041623
 40
0.8853651994
 40
0.9073568913
 40
0.9271046006
 40
0.9445439143
 40
0.9596216509
 40
0.972300176
 40
0.977735325
 40
0.9825687121
 40
0.9868057213
 40
0.9904580308
 40
0.9935465872
 40
0.9961094896
 40
0.9982176959
 40
1.0
 40
1.0
 40
1.0
 40
1.0
 10
7.0752234592
 20
15.1748728026
 30
0.0
 10
7.0784233213
 20
15.170429978
 30
0.0
 10
7.0831853684
 20
15.1636839167
 30
0.0
 10
7.089426211
 20
15.1546014565
 30
0.0
 10
7.0940421407
 20
15.1477594035
 30
0.0
 10
7.0985090904
 20
15.1410122647
 30
0.0
 10
7.1027699028
 20
15.1344467232
 30
0.0
 10
7.1067700542
 20
15.1281471292
 30
0.0
 10
7.1104580568
 20
15.1221948657
 30
0.0
 10
7.1137857308
 20
15.116667723
 30
0.0
 10
7.1162955906
 20
15.1123509759
 30
0.0
 10
7.1180855784
 20
15.1091627063
 30
0.0
 10
7.1192686608
 20
15.1069982669
 30
0.0
 10
7.1203311899
 20
15.1049916756
 30
0.0
 10
7.1212693238
 20
15.1031501495
 30
0.0
 10
7.1220796137
 20
15.1014804194
 30
0.0
 10
7.122759203
 20
15.0999887012
 30
0.0
 10
7.1233055297
 20
15.0986806408
 30
0.0
 10
7.1236652392
 20
15.0977032792
 30
0.0
 10
7.1238795607
 20
15.0970161657
 30
0.0
 10
7.1239972308
 20
15.0965765978
 30
0.0
 10
7.1240803085
 20
15.0961861297
 30
0.0
 10
7.1241287858
 20
15.0958449401
 30
0.0
 10
7.1241427678
 20
15.0955529389
 30
0.0
 10
7.1241218759
 20
15.0953094581
 30
0.0
 10
7.1240654115
 20
15.0951132997
 30
0.0
 10
7.1239970273
 20
15.0950087524
 30
0.0
 10
7.1239575082
 20
15.0949692279
 30
0.0
  0
SPLINE
  5
587
100
AcDbEntity
  8
0
100
AcDbSpline
 62
7
  6
CONTINUOUS
 70
0
 71
3
 72
68
 73
64
 74
0
 42
0.0000001
 43
0.0000001
 44
0.0000000001
 40
0.0
 40
0.0
 40
0.0
 40
0.0
 40
0.0001853664
 40
0.0003974164
 40
0.0006546382
 40
0.0009675895
 40
0.0013421235
 40
0.0017816223
 40
0.0022881458
 40
0.0028629808
 40
0.0042205246
 40
0.0058584192
 40
0.0077783842
 40
0.0099808386
 40
0.012465602
 40
0.0152319755
 40
0.0182788102
 40
0.0216047869
 40
0.029087226
 40
0.0376636431
 40
0.0473150916
 40
0.0580198043
 40
0.0697533837
 40
0.0824888414
 40
0.0961967441
 40
0.1108453677
 40
0.1428266878
 40
0.1781356603
 40
0.2164438816
 40
0.2573947453
 40
0.3006070055
 40
0.3456782835
 40
0.392188937
 40
0.4397059282
 40
0.4877869621
 40
0.5359845196
 40
0.5838501646
 40
0.6309386002
 40
0.6768119381
 40
0.7210437249
 40
0.763222907
 40
0.8029577972
 40
0.8398795217
 40
0.8736458276
 40
0.889246715
 40
0.9039440071
 40
0.917703781
 40
0.9304942953
 40
0.9422861912
 40
0.9530525514
 40
0.9627689349
 40
0.9714135421
 40
0.9789674728
 40
0.9854148979
 40
0.9882197102
 40
0.990743704
 40
0.9929860603
 40
0.9949464878
 40
0.9966254084
 40
0.9980241928
 40
0.9991462986
 40
0.9996059349
 40
1.0
 40
1.0
 40
1.0
 40
1.0
 10
10.1051469324
 20
16.8807296787
 30
0.0
 10
10.1051799522
 20
16.8807627024
 30
0.0
 10
10.1052666386
 20
16.8808185213
 30
0.0
 10
10.1054299236
 20
16.8808543238
 30
0.0
 10
10.1056281124
 20
16.880850292
 30
0.0
 10
10.1058629839
 20
16.8808079748
 30
0.0
 10
10.1061356993
 20
16.8807276312
 30
0.0
 10
10.106446804
 20
16.8806090661
 30
0.0
 10
10.1067965296
 20
16.8804521549
 30
0.0
 10
10.1073455238
 20
16.8801758775
 30
0.0
 10
10.1081264752
 20
16.8797284609
 30
0.0
 10
10.1091726962
 20
16.8790655264
 30
0.0
 10
10.1103730395
 20
16.878249573
 30
0.0
 10
10.1117269462
 20
16.8772810231
 30
0.0
 10
10.1132336968
 20
16.8761602316
 30
0.0
 10
10.1148924917
 20
16.8748878457
 30
0.0
 10
10.1167024734
 20
16.8734646464
 30
0.0
 10
10.1194247454
 20
16.8712797488
 30
0.0
 10
10.1231938621
 20
16.8681739633
 30
0.0
 10
10.1281428559
 20
16.8639949977
 30
0.0
 10
10.1336682568
 20
16.8592408829
 30
0.0
 10
10.1397579642
 20
16.8539234823
 30
0.0
 10
10.1463985317
 20
16.8480559183
 30
0.0
 10
10.1535752777
 20
16.8416527023
 30
0.0
 10
10.1612723008
 20
16.8347296412
 30
0.0
 10
10.1725398019
 20
16.8245258777
 30
0.0
 10
10.1877801592
 20
16.8106020622
 30
0.0
 10
10.2073460703
 20
16.7925760959
 30
0.0
 10
10.2285118911
 20
16.7729519229
 30
0.0
 10
10.2510871925
 20
16.7519195844
 30
0.0
 10
10.2748684146
 20
16.7296821917
 30
0.0
 10
10.2996408945
 20
16.7064541378
 30
0.0
 10
10.3251807973
 20
16.6824590367
 30
0.0
 10
10.3512572185
 20
16.6579276176
 30
0.0
 10
10.3776343131
 20
16.6330955772
 30
0.0
 10
10.404073505
 20
16.6082013549
 30
0.0
 10
10.4303356863
 20
16.583483925
 30
0.0
 10
10.4561834578
 20
16.5591805465
 30
0.0
 10
10.4813833185
 20
16.5355245616
 30
0.0
 10
10.5057078347
 20
16.5127432088
 30
0.0
 10
10.5289377615
 20
16.491055502
 30
0.0
 10
10.5508640105
 20
16.4706701576
 30
0.0
 10
10.5712897131
 20
16.4517837217
 30
0.0
 10
10.5873039744
 20
16.4370823398
 30
0.0
 10
10.5992340397
 20
16.4262116611
 30
0.0
 10
10.6074597261
 20
16.418759116
 30
0.0
 10
10.6151839329
 20
16.411807662
 30
0.0
 10
10.6223895862
 20
16.4053743151
 30
0.0
 10
10.629060793
 20
16.3994748391
 30
0.0
 10
10.6351828907
 20
16.3941237104
 30
0.0
 10
10.6407424748
 20
16.3893341083
 30
0.0
 10
10.645727366
 20
16.3851177235
 30
0.0
 10
10.6501267937
 20
16.3814850047
 30
0.0
 10
10.6534341445
 20
16.378840953
 30
0.0
 10
10.6557844408
 20
16.3770302661
 30
0.0
 10
10.6573120349
 20
16.375887893
 30
0.0
 10
10.658687208
 20
16.3748972888
 30
0.0
 10
10.6599092654
 20
16.3740590015
 30
0.0
 10
10.6609776087
 20
16.3733730684
 30
0.0
 10
10.6618917884
 20
16.3728397862
 30
0.0
 10
10.6625633649
 20
16.3725015474
 30
0.0
 10
10.6630249901
 20
16.3723146598
 30
0.0
 10
10.6632298456
 20
16.3722481261
 30
0.0
 10
10.6633257553
 20
16.3722224856
 30
0.0
  0
LINE
  5
588
100
AcDbEntity
  8
0
100
AcDbLine
 62
7
  6
CONTINUOUS
 10
10.1425916805
 20
16.9198761759
 11
10.1437842076
 21
16.9193759994
  0
SPLINE
  5
589
100
AcDbEntity
  8
0
100
AcDbSpline
 62
7
  6
CONTINUOUS
 70
0
 71
3
 72
64
 73
60
 74
0
 42
0.0000001
 43
0.0000001
 44
0.0000000001
 40
0.0
 40
0.0
 40
0.0
 40
0.0
 40
0.001319802
 40
0.0029125375
 40
0.004779936
 40
0.0069226014
 40
0.0093403047
 40
0.012032446
 40
0.0182356892
 40
0.025521214
 40
0.0338741535
 40
0.0432766922
 40
0.0537082969
 40
0.0651458107
 40
0.0775636891
 40
0.1052269101
 40
0.1364488352
 40
0.170947523
 40
0.2084108711
 40
0.2484998108
 40
0.2908513216
 40
0.3350818779
 40
0.380790903
 40
0.4275644977
 40
0.4749791276
 40
0.5226055849
 40
0.5700128012
 40
0.6167717998
 40
0.6624596504
 40
0.7066631485
 40
0.7489828154
 40
0.7890362542
 40
0.826461875
 40
0.8609220647
 40
0.8921063214
 40
0.9063811523
 40
0.9197343411
 40
0.9321360072
 40
0.9435585247
 40
0.9539765168
 40
0.9633670049
 40
0.9717096434
 40
0.9789867628
 40
0.9822210309
 40
0.9851837134
 40
0.9878734912
 40
0.9902893618
 40
0.9924307608
 40
0.9942974762
 40
0.9958900729
 40
0.9972102995
 40
0.9977694345
 40
0.9982622343
 40
0.9986899988
 40
0.9990547524
 40
0.9993598089
 40
0.9996108959
 40
0.9998183127
 40
1.0
 40
1.0
 40
1.0
 40
1.0
 10
10.1437842076
 20
16.9193759994
 30
0.0
 10
10.1440802043
 20
16.9192223292
 30
0.0
 10
10.1447204441
 20
16.9188583021
 30
0.0
 10
10.145742517
 20
16.9182142254
 30
0.0
 10
10.14691528
 20
16.9174206725
 30
0.0
 10
10.148238109
 20
16.9164779339
 30
0.0
 10
10.1497103933
 20
16.9153864055
 30
0.0
 10
10.1519811204
 20
16.9136494865
 30
0.0
 10
10.1551818732
 20
16.9111045614
 30
0.0
 10
10.1594451312
 20
16.9075989618
 30
0.0
 10
10.1642832154
 20
16.9035203185
 30
0.0
 10
10.1696858948
 20
16.8988785342
 30
0.0
 10
10.1756415791
 20
16.8936846745
 30
0.0
 10
10.1821375449
 20
16.8879512932
 30
0.0
 10
10.191855872
 20
16.8792888093
 30
0.0
 10
10.2052313929
 20
16.8672160741
 30
0.0
 10
10.222658653
 20
16.8513053973
 30
0.0
 10
10.241839826
 20
16.8336432385
 30
0.0
 10
10.2626075202
 20
16.8143964538
 30
0.0
 10
10.2847799157
 20
16.7937461975
 30
0.0
 10
10.3081626354
 20
16.7718864855
 30
0.0
 10
10.3325503925
 20
16.7490223153
 30
0.0
 10
10.3577288738
 20
16.7253677846
 30
0.0
 10
10.3834766591
 20
16.7011441432
 30
0.0
 10
10.4095672369
 20
16.6765777561
 30
0.0
 10
10.4357710423
 20
16.6518980573
 30
0.0
 10
10.4618575427
 20
16.6273354532
 30
0.0
 10
10.4875973234
 20
16.603119229
 30
0.0
 10
10.5127641462
 20
16.5794754762
 30
0.0
 10
10.5371370216
 20
16.5566250184
 30
0.0
 10
10.5605021573
 20
16.5347814284
 30
0.0
 10
10.582654932
 20
16.5141490645
 30
0.0
 10
10.6034016547
 20
16.4949211811
 30
0.0
 10
10.6225614277
 20
16.4772782866
 30
0.0
 10
10.6374754385
 20
16.4636611039
 30
0.0
 10
10.6484949978
 20
16.4536891893
 30
0.0
 10
10.6560185149
 20
16.4469276942
 30
0.0
 10
10.6630313641
 20
16.4406763767
 30
0.0
 10
10.6695185364
 20
16.4349501478
 30
0.0
 10
10.6754661732
 20
16.4297626971
 30
0.0
 10
10.6808615929
 20
16.4251263963
 30
0.0
 10
10.6856934011
 20
16.4210524081
 30
0.0
 10
10.6893729755
 20
16.4180255974
 30
0.0
 10
10.6920304385
 20
16.4158969308
 30
0.0
 10
10.6937972195
 20
16.4145107065
 30
0.0
 10
10.6954164451
 20
16.4132716664
 30
0.0
 10
10.6968873052
 20
16.4121805375
 30
0.0
 10
10.6982090381
 20
16.4112379075
 30
0.0
 10
10.6993809946
 20
16.4104441136
 30
0.0
 10
10.7004026385
 20
16.4097995283
 30
0.0
 10
10.7011653934
 20
16.4093648554
 30
0.0
 10
10.7017017156
 20
16.4090967779
 30
0.0
 10
10.7020434753
 20
16.4089446894
 30
0.0
 10
10.7023475907
 20
16.4088299704
 30
0.0
 10
10.7026142964
 20
16.408752502
 30
0.0
 10
10.7028441208
 20
16.4087121088
 30
0.0
 10
10.7030381901
 20
16.40870906
 30
0.0
 10
10.7031981789
 20
16.408744909
 30
0.0
 10
10.7032831464
 20
16.4087998894
 30
0.0
 10
10.7033156088
 20
16.408832356
 30
0.0
  0
LINE
  5
58A
100
AcDbEntity
  8
0
100
AcDbLine
 62
7
  6
CONTINUOUS
 10
10.1916051795
 20
16.9718771971
 11
10.1918084503
 21
16.9718152525
  0
SPLINE
  5
58B
100
AcDbEntity
  8
0
100
AcDbSpline
 62
7
  6
CONTINUOUS
 70
0
 71
3
 72
67
 73
63
 74
0
 42
0.0000001
 43
0.0000001
 44
0.0000000001
 40
0.0
 40
0.0
 40
0.0
 40
0.0
 40
0.0004378683
 40
0.0009425043
 40
0.0021564785
 40
0.0036480041
 40
0.0054196372
 40
0.007472268
 40
0.009806022
 40
0.0124204167
 40
0.0153144797
 40
0.0219365087
 40
0.0296592266
 40
0.0384662165
 40
0.0483380731
 40
0.059252531
 40
0.0711847336
 40
0.0841073984
 40
0.0979908426
 40
0.1285097483
 40
0.1624597749
 40
0.1995269238
 40
0.2393681387
 40
0.2816145343
 40
0.3258748583
 40
0.3717392637
 40
0.4187829922
 40
0.4665704822
 40
0.5146593205
 40
0.5626043723
 40
0.6099619928
 40
0.6562939809
 40
0.701171872
 40
0.7441806846
 40
0.7849229748
 40
0.8230224281
 40
0.8581273908
 40
0.8899142919
 40
0.9044707518
 40
0.918090633
 40
0.9307427127
 40
0.9423980421
 40
0.9530301631
 40
0.9626151163
 40
0.9711315197
 40
0.9785608243
 40
0.9818629334
 40
0.9848877215
 40
0.9876338957
 40
0.9901003978
 40
0.9922864707
 40
0.9941919739
 40
0.9958173643
 40
0.9971642495
 40
0.9977344428
 40
0.9982367788
 40
0.998672519
 40
0.9990436612
 40
0.999353536
 40
0.9996079257
 40
0.9998172856
 40
1.0
 40
1.0
 40
1.0
 40
1.0
 10
10.1918084503
 20
16.9718152525
 30
0.0
 10
10.1919139505
 20
16.9717795361
 30
0.0
 10
10.1921378563
 20
16.9716932094
 30
0.0
 10
10.1926377034
 20
16.9714667838
 30
0.0
 10
10.1933576568
 20
16.9710797767
 30
0.0
 10
10.1943309293
 20
16.9704878914
 30
0.0
 10
10.1954592751
 20
16.9697422554
 30
0.0
 10
10.1967421901
 20
16.968843224
 30
0.0
 10
10.1981790102
 20
16.9677909866
 30
0.0
 10
10.1997689991
 20
16.9665861491
 30
0.0
 10
10.2022035437
 20
16.9646901543
 30
0.0
 10
10.2056180129
 20
16.9619382668
 30
0.0
 10
10.2101479676
 20
16.9581748179
 30
0.0
 10
10.2152653849
 20
16.9538255395
 30
0.0
 10
10.2209591651
 20
16.9489012275
 30
0.0
 10
10.2272168076
 20
16.9434139363
 30
0.0
 10
10.2340245742
 20
16.9373771823
 30
0.0
 10
10.2413674994
 20
16.9308057965
 30
0.0
 10
10.2521963278
 20
16.9210400134
 30
0.0
 10
10.2669314472
 20
16.907619301
 30
0.0
 10
10.2859459936
 20
16.8901396341
 30
0.0
 10
10.3066396305
 20
16.8709828491
 30
0.0
 10
10.3288272789
 20
16.8503335742
 30
0.0
 10
10.3523100262
 20
16.8283902137
 30
0.0
 10
10.3768770917
 20
16.8053632465
 30
0.0
 10
10.402307708
 20
16.781473196
 30
0.0
 10
10.4283731888
 20
16.7569485636
 30
0.0
 10
10.454839018
 20
16.7320237072
 30
0.0
 10
10.4814670328
 20
16.7069366518
 30
0.0
 10
10.5080176226
 20
16.6819268759
 30
0.0
 10
10.5342519311
 20
16.6572330999
 30
0.0
 10
10.5599340885
 20
16.6330910464
 30
0.0
 10
10.5848333554
 20
16.6097312811
 30
0.0
 10
10.6087262813
 20
16.5873770332
 30
0.0
 10
10.6313987441
 20
16.5662421589
 30
0.0
 10
10.6526478834
 20
16.5465290686
 30
0.0
 10
10.6722840837
 20
16.5284269953
 30
0.0
 10
10.6875752275
 20
16.5144473068
 30
0.0
 10
10.6988775095
 20
16.5042045317
 30
0.0
 10
10.7065965591
 20
16.4972562498
 30
0.0
 10
10.713792785
 20
16.4908303043
 30
0.0
 10
10.7204504096
 20
16.4849423812
 30
0.0
 10
10.7265548732
 20
16.4796068648
 30
0.0
 10
10.7320928517
 20
16.4748367593
 30
0.0
 10
10.7370523586
 20
16.4706438187
 30
0.0
 10
10.7408289595
 20
16.4675275331
 30
0.0
 10
10.7435562586
 20
16.4653351315
 30
0.0
 10
10.7453693509
 20
16.463907013
 30
0.0
 10
10.7470308243
 20
16.4626301359
 30
0.0
 10
10.748539819
 20
16.4615052597
 30
0.0
 10
10.7498955602
 20
16.4605330319
 30
0.0
 10
10.7510973351
 20
16.4597137977
 30
0.0
 10
10.7521445802
 20
16.4590479552
 30
0.0
 10
10.7529261362
 20
16.458598308
 30
0.0
 10
10.7534754258
 20
16.4583204107
 30
0.0
 10
10.7538252377
 20
16.4581624535
 30
0.0
 10
10.754136333
 20
16.4580429215
 30
0.0
 10
10.7544089416
 20
16.4579617032
 30
0.0
 10
10.7546436046
 20
16.4579185948
 30
0.0
 10
10.7548414935
 20
16.4579138376
 30
0.0
 10
10.7550044399
 20
16.4579489559
 30
0.0
 10
10.7550909214
 20
16.4580044212
 30
0.0
 10
10.755123788
 20
16.4580372839
 30
0.0
  0
LINE
  5
58C
100
AcDbEntity
  8
0
100
AcDbLine
 62
7
  6
CONTINUOUS
 10
10.2408446555
 20
17.0236526226
 11
10.2417373982
 21
17.0233016744
  0
SPLINE
  5
58D
100
AcDbEntity
  8
0
100
AcDbSpline
 62
7
  6
CONTINUOUS
 70
0
 71
3
 72
64
 73
60
 74
0
 42
0.0000001
 43
0.0000001
 44
0.0000000001
 40
0.0
 40
0.0
 40
0.0
 40
0.0
 40
0.0012103619
 40
0.0026942836
 40
0.0044541771
 40
0.0064910116
 40
0.0088047815
 40
0.0113950408
 40
0.0174010686
 40
0.0244986344
 40
0.0326733157
 40
0.0419076322
 40
0.0521813264
 40
0.0634714655
 40
0.0757526716
 40
0.1031751302
 40
0.1342001282
 40
0.1685456717
 40
0.2058989866
 40
0.245919831
 40
0.2882434304
 40
0.3324840643
 40
0.3782384921
 40
0.42508974
 40
0.4726108804
 40
0.5203689653
 40
0.5679289839
 40
0.6148578079
 40
0.6607282375
 40
0.7051227376
 40
0.7476375071
 40
0.787885854
 40
0.8255020859
 40
0.8601445756
 40
0.8914991392
 40
0.9058535152
 40
0.9192820164
 40
0.9317543325
 40
0.9432424763
 40
0.9537207891
 40
0.9631659854
 40
0.9715573719
 40
0.9788770608
 40
0.9821302509
 40
0.9851102046
 40
0.9878155572
 40
0.9902453657
 40
0.9923989443
 40
0.9942760703
 40
0.9958773232
 40
0.997204298
 40
0.9977660808
 40
0.9982610471
 40
0.9986904634
 40
0.9990563129
 40
0.9993618626
 40
0.999612812
 40
0.9998194896
 40
1.0
 40
1.0
 40
1.0
 40
1.0
 10
10.2417373982
 20
17.0233016744
 30
0.0
 10
10.2420158128
 20
17.0231674787
 30
0.0
 10
10.242621657
 20
17.0228400549
 30
0.0
 10
10.2435927066
 20
17.0222473879
 30
0.0
 10
10.2447171766
 20
17.0215027397
 30
0.0
 10
10.245994462
 20
17.0206063231
 30
0.0
 10
10.2474239909
 20
17.0195584311
 30
0.0
 10
10.2496438191
 20
17.0178749394
 30
0.0
 10
10.2527876343
 20
17.015389167
 30
0.0
 10
10.2569906443
 20
17.0119455062
 30
0.0
 10
10.2617799154
 20
17.0079175202
 30
0.0
 10
10.2671452498
 20
17.0033150551
 30
0.0
 10
10.273075043
 20
16.998149129
 30
0.0
 10
10.2795565381
 20
16.9924323127
 30
0.0
 10
10.2892786368
 20
16.9837698699
 30
0.0
 10
10.302686346
 20
16.9716691069
 30
0.0
 10
10.3201842739
 20
16.9556918295
 30
0.0
 10
10.3394782054
 20
16.9379210927
 30
0.0
 10
10.3603986351
 20
16.9185258488
 30
0.0
 10
10.3827611678
 20
16.8976897946
 30
0.0
 10
10.4063684556
 20
16.875609909
 30
0.0
 10
10.4310118566
 20
16.8524945342
 30
0.0
 10
10.4564733729
 20
16.8285614499
 30
0.0
 10
10.482527609
 20
16.8040358787
 30
0.0
 10
10.5089438305
 20
16.7791484067
 30
0.0
 10
10.5354880625
 20
16.7541328786
 30
0.0
 10
10.5619252144
 20
16.7292242578
 30
0.0
 10
10.5880212307
 20
16.7046564705
 30
0.0
 10
10.613545196
 20
16.6806602859
 30
0.0
 10
10.6382714683
 20
16.65746118
 30
0.0
 10
10.6619816735
 20
16.6352773053
 30
0.0
 10
10.6844667496
 20
16.6143174642
 30
0.0
 10
10.7055287316
 20
16.5947791771
 30
0.0
 10
10.7249827014
 20
16.5768469797
 30
0.0
 10
10.7401270195
 20
16.5630036602
 30
0.0
 10
10.7513175382
 20
16.552864185
 30
0.0
 10
10.7589582822
 20
16.5459879715
 30
0.0
 10
10.7660805018
 20
16.539629801
 30
0.0
 10
10.7726688401
 20
16.5338049329
 30
0.0
 10
10.7787091244
 20
16.5285273671
 30
0.0
 10
10.7841883755
 20
16.5238097687
 30
0.0
 10
10.7890949331
 20
16.5196635727
 30
0.0
 10
10.7928310623
 20
16.5165824064
 30
0.0
 10
10.7955290763
 20
16.5144149723
 30
0.0
 10
10.7973226412
 20
16.5130032478
 30
0.0
 10
10.7989662303
 20
16.5117411406
 30
0.0
 10
10.8004589971
 20
16.510629382
 30
0.0
 10
10.8018001782
 20
16.5096685883
 30
0.0
 10
10.8029891044
 20
16.5088591125
 30
0.0
 10
10.804025208
 20
16.5082013208
 30
0.0
 10
10.8047985022
 20
16.5077572287
 30
0.0
 10
10.8053420317
 20
16.5074828911
 30
0.0
 10
10.8056882094
 20
16.5073270167
 30
0.0
 10
10.8059961136
 20
16.5072091299
 30
0.0
 10
10.8062659699
 20
16.5071291131
 30
0.0
 10
10.8064983109
 20
16.5070867812
 30
0.0
 10
10.8066942889
 20
16.5070823943
 30
0.0
 10
10.8068556922
 20
16.5071174635
 30
0.0
 10
10.8069413623
 20
16.5071725122
 30
0.0
 10
10.8069739566
 20
16.5072051042
 30
0.0
  0
SPLINE
  5
58E
100
AcDbEntity
  8
0
100
AcDbSpline
 62
7
  6
CONTINUOUS
 70
0
 71
3
 72
24
 73
20
 74
0
 42
0.0000001
 43
0.0000001
 44
0.0000000001
 40
0.0
 40
0.0
 40
0.0
 40
0.0
 40
0.2100653568
 40
0.3980481809
 40
0.4830570683
 40
0.5617544065
 40
0.6339509109
 40
0.6994983083
 40
0.7583036496
 40
0.8103390927
 40
0.855668689
 40
0.8944924226
 40
0.9272217529
 40
0.9415435365
 40
0.9546785393
 40
0.9668206062
 40
0.9782168799
 40
0.9891651283
 40
1.0
 40
1.0
 40
1.0
 40
1.0
 10
8.6404791392
 20
13.6170797828
 30
0.0
 10
8.6419335861
 20
13.6156253359
 30
0.0
 10
8.6446519929
 20
13.6128313157
 30
0.0
 10
8.6478317422
 20
13.6093277725
 30
0.0
 10
8.6500568577
 20
13.6066991443
 30
0.0
 10
8.6515030156
 20
13.6048975816
 30
0.0
 10
8.6527790071
 20
13.6032049379
 30
0.0
 10
8.6538810839
 20
13.6016265581
 30
0.0
 10
8.6548063658
 20
13.6001673387
 30
0.0
 10
8.6555526987
 20
13.5988315707
 30
0.0
 10
8.6561188626
 20
13.597622452
 30
0.0
 10
8.6565041783
 20
13.5965427153
 30
0.0
 10
8.6566818733
 20
13.595716589
 30
0.0
 10
8.6567201717
 20
13.5951274756
 30
0.0
 10
8.6567011555
 20
13.5947392092
 30
0.0
 10
8.6566354779
 20
13.5943849027
 30
0.0
 10
8.6565226623
 20
13.5940649718
 30
0.0
 10
8.6563625111
 20
13.5937803848
 30
0.0
 10
8.6562248579
 20
13.5936156344
 30
0.0
 10
8.6561498362
 20
13.5935406195
 30
0.0
  0
SPLINE
  5
58F
100
AcDbEntity
  8
0
100
AcDbSpline
 62
7
  6
CONTINUOUS
 70
0
 71
3
 72
64
 73
60
 74
0
 42
0.0000001
 43
0.0000001
 44
0.0000000001
 40
0.0
 40
0.0
 40
0.0
 40
0.0
 40
0.0001826903
 40
0.0003913521
 40
0.0006440769
 40
0.0009512434
 40
0.0013186075
 40
0.0017494932
 40
0.002245927
 40
0.0028092083
 40
0.0041393111
 40
0.0057438797
 40
0.0076246125
 40
0.0097820916
 40
0.0122160668
 40
0.0149259177
 40
0.0179106507
 40
0.0211688884
 40
0.0284995423
 40
0.0369028875
 40
0.0463608805
 40
0.05685274
 40
0.0683550323
 40
0.0808419102
 40
0.0942852289
 40
0.1086545352
 40
0.1400385999
 40
0.1747090788
 40
0.2123505017
 40
0.2526202058
 40
0.2951514291
 40
0.3395567857
 40
0.3854317939
 40
0.4323586541
 40
0.4799099795
 40
0.5276528626
 40
0.5751526546
 40
0.6219771043
 40
0.6677002053
 40
0.7119060896
 40
0.7541929339
 40
0.794176451
 40
0.8314936215
 40
0.8658058711
 40
0.8968023008
 40
0.9242026846
 40
0.9364758453
 40
0.9477602289
 40
0.9580306608
 40
0.9672643897
 40
0.9754413512
 40
0.9825442517
 40
0.9885588292
 40
0.9911546099
 40
0.9934747574
 40
0.9955188379
 40
0.9972868557
 40
0.9987797811
 40
1.0
 40
1.0
 40
1.0
 40
1.0
 10
10.1544413254
 20
16.9324486979
 30
0.0
 10
10.154473982
 20
16.9324813565
 30
0.0
 10
10.1545595172
 20
16.9325366364
 30
0.0
 10
10.1547205888
 20
16.9325725416
 30
0.0
 10
10.1549160058
 20
16.9325692437
 30
0.0
 10
10.155147469
 20
16.932528295
 30
0.0
 10
10.1554161152
 20
16.9324499713
 30
0.0
 10
10.1557224733
 20
16.932334095
 30
0.0
 10
10.1560667758
 20
16.9321805494
 30
0.0
 10
10.1566071297
 20
16.9319099827
 30
0.0
 10
10.1573756537
 20
16.9314714022
 30
0.0
 10
10.1584050653
 20
16.9308211725
 30
0.0
 10
10.1595859725
 20
16.9300205537
 30
0.0
 10
10.160917815
 20
16.9290699226
 30
0.0
 10
10.1623999306
 20
16.9279696357
 30
0.0
 10
10.1640315427
 20
16.9267203002
 30
0.0
 10
10.1658118154
 20
16.9253226554
 30
0.0
 10
10.1684894813
 20
16.9231766362
 30
0.0
 10
10.1721968879
 20
16.9201254685
 30
0.0
 10
10.1770650333
 20
16.9160191274
 30
0.0
 10
10.1825006403
 20
16.9113465644
 30
0.0
 10
10.1884920823
 20
16.9061191747
 30
0.0
 10
10.1950264272
 20
16.9003495784
 30
0.0
 10
10.2020895504
 20
16.8940517284
 30
0.0
 10
10.2096661556
 20
16.8872408205
 30
0.0
 10
10.2207613143
 20
16.8771981895
 30
0.0
 10
10.2357744938
 20
16.863487697
 30
0.0
 10
10.2550572878
 20
16.8457284527
 30
0.0
 10
10.2759305141
 20
16.826380463
 30
0.0
 10
10.2982104793
 20
16.8056270274
 30
0.0
 10
10.3217006869
 20
16.7836641988
 30
0.0
 10
10.3461937151
 20
16.7606991319
 30
0.0
 10
10.3714730709
 20
16.736948097
 30
0.0
 10
10.3973151559
 20
16.7126345228
 30
0.0
 10
10.4234913136
 20
16.6879869174
 30
0.0
 10
10.4497698902
 20
16.6632368027
 30
0.0
 10
10.4759183667
 20
16.6386165695
 30
0.0
 10
10.501705453
 20
16.6143573759
 30
0.0
 10
10.5269032007
 20
16.5906870211
 30
0.0
 10
10.5512890761
 20
16.5678278664
 30
0.0
 10
10.5746479597
 20
16.5459948117
 30
0.0
 10
10.5967741123
 20
16.5253933005
 30
0.0
 10
10.6174730178
 20
16.506217479
 30
0.0
 10
10.6365630644
 20
16.488648269
 30
0.0
 10
10.6538773807
 20
16.4728519916
 30
0.0
 10
10.6671458059
 20
16.4608880053
 30
0.0
 10
10.6767684093
 20
16.4523228295
 30
0.0
 10
10.6831849898
 20
16.446669297
 30
0.0
 10
10.689056658
 20
16.4415598051
 30
0.0
 10
10.6943708855
 20
16.4370066993
 30
0.0
 10
10.6991162823
 20
16.433020793
 30
0.0
 10
10.7032828453
 20
16.4296117423
 30
0.0
 10
10.7064009221
 20
16.427149981
 30
0.0
 10
10.7086039385
 20
16.425481769
 30
0.0
 10
10.7100238534
 20
16.4244424891
 30
0.0
 10
10.7112934951
 20
16.4235527137
 30
0.0
 10
10.7124123049
 20
16.4228127345
 30
0.0
 10
10.7133796919
 20
16.4222227589
 30
0.0
 10
10.7139836346
 20
16.4218962656
 30
0.0
 10
10.7142614049
 20
16.4217620965
 30
0.0
  0
LINE
  5
590
100
AcDbEntity
  8
0
100
AcDbLine
 62
7
  6
CONTINUOUS
 10
10.7142614049
 20
16.4217620965
 11
10.7151678379
 21
16.4214051165
  0
SPLINE
  5
591
100
AcDbEntity
  8
0
100
AcDbSpline
 62
7
  6
CONTINUOUS
 70
0
 71
3
 72
69
 73
65
 74
0
 42
0.0000001
 43
0.0000001
 44
0.0000000001
 40
0.0
 40
0.0
 40
0.0
 40
0.0
 40
0.0001836137
 40
0.0003941436
 40
0.0006501291
 40
0.0009620881
 40
0.0013358252
 40
0.0017746848
 40
0.0022806815
 40
0.0028550751
 40
0.0042119603
 40
0.0058494611
 40
0.0077692013
 40
0.009971587
 40
0.0124564449
 40
0.0152230113
 40
0.0182701602
 40
0.0215965728
 40
0.0290801518
 40
0.0376580829
 40
0.0473114009
 40
0.0580182927
 40
0.0697543381
 40
0.0824925737
 40
0.0962035323
 40
0.1108554484
 40
0.1428440676
 40
0.1781611808
 40
0.2164782174
 40
0.2574384348
 40
0.3006603819
 40
0.3457415267
 40
0.392261986
 40
0.4397885466
 40
0.487878665
 40
0.5360846112
 40
0.5839577229
 40
0.6310524395
 40
0.6769306894
 40
0.7211657205
 40
0.7633463406
 40
0.8030805716
 40
0.8399994303
 40
0.8737604314
 40
0.8893577237
 40
0.9040507677
 40
0.9178056231
 40
0.9305905347
 40
0.9423761326
 40
0.9531354984
 40
0.9628441829
 40
0.9714803615
 40
0.9790251253
 40
0.9854626408
 40
0.9882622128
 40
0.9907807692
 40
0.9930174763
 40
0.9949720473
 40
0.9966448848
 40
0.998037344
 40
0.9986294867
 40
0.9991531212
 40
0.9996093748
 40
1.0
 40
1.0
 40
1.0
 40
1.0
 10
10.2034594971
 20
16.9844500646
 30
0.0
 10
10.2034925331
 20
16.9844830999
 30
0.0
 10
10.2035795476
 20
16.9845388231
 30
0.0
 10
10.2037435212
 20
16.9845739091
 30
0.0
 10
10.2039426971
 20
16.9845688178
 30
0.0
 10
10.2041789385
 20
16.984525079
 30
0.0
 10
10.2044534259
 20
16.9844429342
 30
0.0
 10
10.2047667053
 20
16.9843221735
 30
0.0
 10
10.2051190067
 20
16.9841626782
 30
0.0
 10
10.2056722606
 20
16.9838821664
 30
0.0
 10
10.2064595021
 20
16.9834284675
 30
0.0
 10
10.2075144271
 20
16.9827568172
 30
0.0
 10
10.2087250598
 20
16.9819305808
 30
0.0
 10
10.2100908282
 20
16.9809501791
 30
0.0
 10
10.2116109999
 20
16.9798159715
 30
0.0
 10
10.2132847758
 20
16.9785286208
 30
0.0
 10
10.2151112819
 20
16.9770889109
 30
0.0
 10
10.2178586616
 20
16.974878929
 30
0.0
 10
10.2216629408
 20
16.9717380153
 30
0.0
 10
10.2266585954
 20
16.9675124265
 30
0.0
 10
10.232236552
 20
16.9627057976
 30
0.0
 10
10.238384583
 20
16.9573301201
 30
0.0
 10
10.2450891073
 20
16.9513986524
 30
0.0
 10
10.2523352943
 20
16.9449260512
 30
0.0
 10
10.2601070794
 20
16.9379282884
 30
0.0
 10
10.2714843852
 20
16.9276148114
 30
0.0
 10
10.2868738614
 20
16.9135419987
 30
0.0
 10
10.3066319375
 20
16.8953240268
 30
0.0
 10
10.3280062207
 20
16.8754915671
 30
0.0
 10
10.3508043007
 20
16.8542366442
 30
0.0
 10
10.374820504
 20
16.8317644806
 30
0.0
 10
10.3998379252
 20
16.8082917132
 30
0.0
 10
10.4256303982
 20
16.7840442857
 30
0.0
 10
10.4519646002
 20
16.7592553459
 30
0.0
 10
10.4786022231
 20
16.7341630531
 30
0.0
 10
10.5053021911
 20
16.7090083456
 30
0.0
 10
10.5318228886
 20
16.6840327049
 30
0.0
 10
10.5579244309
 20
16.6594758753
 30
0.0
 10
10.583370857
 20
16.6355736575
 30
0.0
 10
10.6079323576
 20
16.6125556661
 30
0.0
 10
10.6313873736
 20
16.5906432267
 30
0.0
 10
10.6535246405
 20
16.5700472326
 30
0.0
 10
10.6741452175
 20
16.5509662987
 30
0.0
 10
10.6903109363
 20
16.5361138155
 30
0.0
 10
10.702352693
 20
16.5251317509
 30
0.0
 10
10.7106545289
 20
16.5176032623
 30
0.0
 10
10.7184495381
 20
16.5105812134
 30
0.0
 10
10.7257204705
 20
16.5040827955
 30
0.0
 10
10.7324512737
 20
16.4981239327
 30
0.0
 10
10.7386271387
 20
16.4927192465
 30
0.0
 10
10.7442345253
 20
16.4878820498
 30
0.0
 10
10.7492611318
 20
16.4836241524
 30
0.0
 10
10.7536960823
 20
16.4799561083
 30
0.0
 10
10.7570291593
 20
16.4772865405
 30
0.0
 10
10.7593969041
 20
16.4754586209
 30
0.0
 10
10.7609351603
 20
16.4743056803
 30
0.0
 10
10.7623193899
 20
16.4733061404
 30
0.0
 10
10.763548891
 20
16.4724604277
 30
0.0
 10
10.7646230527
 20
16.4717689486
 30
0.0
 10
10.7654264713
 20
16.4712982782
 30
0.0
 10
10.7659928033
 20
16.4710037527
 30
0.0
 10
10.7663551192
 20
16.470833909
 30
0.0
 10
10.7666784271
 20
16.4707027661
 30
0.0
 10
10.7668836318
 20
16.4706359691
 30
0.0
 10
10.7669796521
 20
16.4706102985
 30
0.0
  0
SPLINE
  5
592
100
AcDbEntity
  8
0
100
AcDbSpline
 62
7
  6
CONTINUOUS
 70
0
 71
3
 72
66
 73
62
 74
0
 42
0.0000001
 43
0.0000001
 44
0.0000000001
 40
0.0
 40
0.0
 40
0.0
 40
0.0
 40
0.000180502
 40
0.0003870346
 40
0.0006376483
 40
0.000942642
 40
0.0013077036
 40
0.0017361082
 40
0.0022298493
 40
0.0027902031
 40
0.0041136907
 40
0.0057105662
 40
0.0075824843
 40
0.0097300041
 40
0.0121528649
 40
0.0148504413
 40
0.0178217419
 40
0.0210653942
 40
0.0283634529
 40
0.0367297341
 40
0.04614634
 40
0.0565926593
 40
0.0680454433
 40
0.0804790657
 40
0.093865634
 40
0.1081749708
 40
0.1394305555
 40
0.1739632931
 40
0.2114605103
 40
0.2515824792
 40
0.29396566
 40
0.3382258564
 40
0.3839620195
 40
0.4307596159
 40
0.4781946604
 40
0.5258374106
 40
0.5732563445
 40
0.6200220939
 40
0.6657112876
 40
0.7099104689
 40
0.7522197907
 40
0.7922567123
 40
0.829659414
 40
0.864090233
 40
0.8952386037
 40
0.9094930597
 40
0.9228242937
 40
0.9352023791
 40
0.946599848
 40
0.9569910945
 40
0.9663531215
 40
0.9746675555
 40
0.9819109725
 40
0.9851260499
 40
0.9880740382
 40
0.9907581871
 40
0.9931671096
 40
0.9952789461
 40
0.997080858
 40
0.9986261713
 40
1.0
 40
1.0
 40
1.0
 40
1.0
 10
10.252702573
 20
17.0362257493
 30
0.0
 10
10.2527351507
 20
17.0362583289
 30
0.0
 10
10.2528206997
 20
17.0363133897
 30
0.0
 10
10.2529818616
 20
17.0363486459
 30
0.0
 10
10.2531775034
 20
17.03634454
 30
0.0
 10
10.2534093855
 20
17.0363026087
 30
0.0
 10
10.2536786538
 20
17.0362231163
 30
0.0
 10
10.2539858387
 20
17.0361058764
 30
0.0
 10
10.2543311706
 20
17.0359507696
 30
0.0
 10
10.2548733094
 20
17.0356776924
 30
0.0
 10
10.2556445457
 20
17.0352354904
 30
0.0
 10
10.2566778072
 20
17.0345803572
 30
0.0
 10
10.2578633608
 20
17.0337740384
 30
0.0
 10
10.2592006438
 20
17.0328169128
 30
0.0
 10
10.2606889905
 20
17.031709339
 30
0.0
 10
10.2623276226
 20
17.0304519263
 30
0.0
 10
10.2641157019
 20
17.029045416
 30
0.0
 10
10.2668053292
 20
17.0268859685
 30
0.0
 10
10.2705296436
 20
17.0238160771
 30
0.0
 10
10.2754204374
 20
17.0196849714
 30
0.0
 10
10.2808818035
 20
17.0149845278
 30
0.0
 10
10.2869021027
 20
17.0097261552
 30
0.0
 10
10.2934683887
 20
17.0039224889
 30
0.0
 10
10.3005665242
 20
16.9975874949
 30
0.0
 10
10.3081812045
 20
16.9907363792
 30
0.0
 10
10.3193331967
 20
16.9806340133
 30
0.0
 10
10.3344249864
 20
16.9668413246
 30
0.0
 10
10.3538111371
 20
16.9489745025
 30
0.0
 10
10.374799607
 20
16.9295070554
 30
0.0
 10
10.3972065519
 20
16.9086224391
 30
0.0
 10
10.4208352694
 20
16.8865169163
 30
0.0
 10
10.4454781152
 20
16.8633978698
 30
0.0
 10
10.4709182917
 20
16.839481877
 30
0.0
 10
10.4969318659
 20
16.8149927059
 30
0.0
 10
10.5232897482
 20
16.7901593006
 30
0.0
 10
10.5497597982
 20
16.7652136734
 30
0.0
 10
10.5761089078
 20
16.7403888076
 30
0.0
 10
10.6021051146
 20
16.7159165372
 30
0.0
 10
10.6275197019
 20
16.6920254338
 30
0.0
 10
10.6521292581
 20
16.6689387428
 30
0.0
 10
10.6757176958
 20
16.6468723322
 30
0.0
 10
10.6980781959
 20
16.6260327579
 30
0.0
 10
10.7190150369
 20
16.6066153005
 30
0.0
 10
10.7383454373
 20
16.5888023527
 30
0.0
 10
10.753388733
 20
16.5750564937
 30
0.0
 10
10.7645007587
 20
16.5649926741
 30
0.0
 10
10.7720849159
 20
16.5581708885
 30
0.0
 10
10.7791523962
 20
16.5518652521
 30
0.0
 10
10.7856880741
 20
16.5460909059
 30
0.0
 10
10.7916779398
 20
16.540861702
 30
0.0
 10
10.7971090965
 20
16.5361893464
 30
0.0
 10
10.8019706714
 20
16.5320873568
 30
0.0
 10
10.8056695627
 20
16.5290408418
 30
0.0
 10
10.8083381026
 20
16.5268985649
 30
0.0
 10
10.8101141378
 20
16.5255036849
 30
0.0
 10
10.8117461359
 20
16.5242588652
 30
0.0
 10
10.8132252679
 20
16.5231658871
 30
0.0
 10
10.8145381587
 20
16.5222272693
 30
0.0
 10
10.8156833544
 20
16.5214332395
 30
0.0
 10
10.8166970724
 20
16.5207809777
 30
0.0
 10
10.8173505174
 20
16.5204207207
 30
0.0
 10
10.817665855
 20
16.5202673195
 30
0.0
  0
LINE
  5
593
100
AcDbEntity
  8
0
100
AcDbLine
 62
7
  6
CONTINUOUS
 10
10.817665855
 20
16.5202673195
 11
10.8191386504
 21
16.5196967585
  0
SPLINE
  5
594
100
AcDbEntity
  8
0
100
AcDbSpline
 62
7
  6
CONTINUOUS
 70
0
 71
3
 72
43
 73
39
 74
0
 42
0.0000001
 43
0.0000001
 44
0.0000000001
 40
0.0
 40
0.0
 40
0.0
 40
0.0
 40
0.0001757967
 40
0.00039619
 40
0.0009753784
 40
0.001742918
 40
0.0027005503
 40
0.0038489088
 40
0.0051881711
 40
0.0067182249
 40
0.0084386771
 40
0.0124487221
 40
0.0172133212
 40
0.0227259725
 40
0.0289790669
 40
0.0359639225
 40
0.0436707899
 40
0.052089066
 40
0.0612070652
 40
0.0710123765
 40
0.0814915135
 40
0.1044136245
 40
0.1298496321
 40
0.1576633342
 40
0.1877068631
 40
0.2198216417
 40
0.2538393032
 40
0.2895825684
 40
0.3268663183
 40
0.365498589
 40
0.4460125628
 40
0.5294910258
 40
0.6142580364
 40
0.6986292391
 40
0.7809452122
 40
0.8596034234
 40
0.9330885071
 40
1.0
 40
1.0
 40
1.0
 40
1.0
 10
10.8196468024
 20
16.5195609617
 30
0.0
 10
10.8196093061
 20
16.5195709888
 30
0.0
 10
10.8195267328
 20
16.5196006559
 30
0.0
 10
10.8193313769
 20
16.5196915727
 30
0.0
 10
10.8190323255
 20
16.5198667882
 30
0.0
 10
10.8186090611
 20
16.5201491754
 30
0.0
 10
10.8180951146
 20
16.5205214218
 30
0.0
 10
10.8174906799
 20
16.5209833073
 30
0.0
 10
10.8167960334
 20
16.5215350423
 30
0.0
 10
10.8160114469
 20
16.5221764336
 30
0.0
 10
10.8147816101
 20
16.5232047003
 30
0.0
 10
10.8130242516
 20
16.5247151677
 30
0.0
 10
10.8106560133
 20
16.5267989993
 30
0.0
 10
10.8079367269
 20
16.5292333537
 30
0.0
 10
10.8048701747
 20
16.5320145918
 30
0.0
 10
10.8014606278
 20
16.5351386764
 30
0.0
 10
10.797712736
 20
16.5386010514
 30
0.0
 10
10.793631596
 20
16.5423967095
 30
0.0
 10
10.7892226869
 20
16.5465202167
 30
0.0
 10
10.7844919239
 20
16.5509656926
 30
0.0
 10
10.7775533219
 20
16.5575122838
 30
0.0
 10
10.7681282961
 20
16.5664523225
 30
0.0
 10
10.7559567011
 20
16.5780580191
 30
0.0
 10
10.7426732054
 20
16.5907759978
 30
0.0
 10
10.7283470315
 20
16.6045371494
 30
0.0
 10
10.7130524191
 20
16.6192673721
 30
0.0
 10
10.6968681602
 20
16.63488795
 30
0.0
 10
10.6798771772
 20
16.6513160241
 30
0.0
 10
10.6621660559
 20
16.6684650404
 30
0.0
 10
10.6373676315
 20
16.6925046652
 30
0.0
 10
10.6052682886
 20
16.7236662285
 30
0.0
 10
10.5658819084
 20
16.7619449833
 30
0.0
 10
10.5258949246
 20
16.8008276879
 30
0.0
 10
10.4860912738
 20
16.8395307642
 30
0.0
 10
10.447243453
 20
16.8772821182
 30
0.0
 10
10.4100976225
 20
16.9133360746
 30
0.0
 10
10.3753595656
 20
16.9469873991
 30
0.0
 10
10.3530638252
 20
16.9685227359
 30
0.0
 10
10.3424261057
 20
16.978773989
 30
0.0
  0
SPLINE
  5
595
100
AcDbEntity
  8
0
100
AcDbSpline
 62
7
  6
CONTINUOUS
 70
0
 71
3
 72
28
 73
24
 74
0
 42
0.0000001
 43
0.0000001
 44
0.0000000001
 40
0.0
 40
0.0
 40
0.0
 40
0.0
 40
0.1932948011
 40
0.2862018501
 40
0.3756103178
 40
0.4608176712
 40
0.5411758354
 40
0.6160971691
 40
0.6850640269
 40
0.7476369464
 40
0.8034669704
 40
0.8287768524
 40
0.8523224428
 40
0.8740956515
 40
0.8941027219
 40
0.9123641202
 40
0.9289226703
 40
0.9438482102
 40
0.9572497761
 40
0.9692895157
 40
0.9802003754
 40
0.9903022765
 40
1.0
 40
1.0
 40
1.0
 40
1.0
 10
8.1432192099
 20
14.114339712
 30
0.0
 10
8.1461744947
 20
14.1113844273
 30
0.0
 10
8.1504727543
 20
14.1069297805
 30
0.0
 10
8.1559345901
 20
14.1009187473
 30
0.0
 10
8.1597333308
 20
14.0965559427
 30
0.0
 10
8.1632575255
 20
14.0923157441
 30
0.0
 10
8.1664789172
 20
14.0882332227
 30
0.0
 10
8.1693723799
 20
14.0843416411
 30
0.0
 10
8.1719162319
 20
14.0806720691
 30
0.0
 10
8.1740919654
 20
14.0772532348
 30
0.0
 10
8.1756333352
 20
14.0745530745
 30
0.0
 10
8.1766607954
 20
14.0725357674
 30
0.0
 10
8.1773051807
 20
14.0711508384
 30
0.0
 10
8.1778480088
 20
14.0698463406
 30
0.0
 10
8.1782885886
 20
14.0686245409
 30
0.0
 10
8.1786263183
 20
14.0674873952
 30
0.0
 10
8.1788608855
 20
14.0664366351
 30
0.0
 10
8.1789919619
 20
14.0654735991
 30
0.0
 10
8.179019177
 20
14.0645992738
 30
0.0
 10
8.1789418236
 20
14.0638143953
 30
0.0
 10
8.17875823
 20
14.0631198412
 30
0.0
 10
8.1784667112
 20
14.0625181876
 30
0.0
 10
8.178197708
 20
14.0621796885
 30
0.0
 10
8.1780494388
 20
14.0620314207
 30
0.0
  0
LINE
  5
596
100
AcDbEntity
  8
0
100
AcDbLine
 62
9
  6
CONTINUOUS
 10
10.8201173973
 20
16.5196792067
 11
10.8199301395
 21
16.5195841905
  0
LINE
  5
597
100
AcDbEntity
  8
0
100
AcDbLine
 62
9
  6
CONTINUOUS
 10
10.8199301395
 20
16.5195841905
 11
10.8198304795
 21
16.5195724259
  0
SPLINE
  5
598
100
AcDbEntity
  8
0
100
AcDbSpline
 62
7
  6
CONTINUOUS
 70
0
 71
3
 72
15
 73
11
 74
0
 42
0.0000001
 43
0.0000001
 44
0.0000000001
 40
0.0
 40
0.0
 40
0.0
 40
0.0
 40
0.1220268518
 40
0.2480584
 40
0.3765212026
 40
0.5058099235
 40
0.634329673
 40
0.7605201994
 40
0.8828828434
 40
1.0
 40
1.0
 40
1.0
 40
1.0
 10
7.6095935755
 20
14.6479653464
 30
0.0
 10
7.6113556213
 20
14.6462033006
 30
0.0
 10
7.6148934413
 20
14.6425770582
 30
0.0
 10
7.6201391277
 20
14.6369546785
 30
0.0
 10
7.6253635442
 20
14.6311120184
 30
0.0
 10
7.6304997939
 20
14.6251246325
 30
0.0
 10
7.6354830378
 20
14.6190692846
 30
0.0
 10
7.6402515424
 20
14.6130225044
 30
0.0
 10
7.6447474251
 20
14.6070595333
 30
0.0
 10
7.6476005076
 20
14.603086909
 30
0.0
 10
7.6489700503
 20
14.6011262116
 30
0.0
  0
ELLIPSE
  5
599
100
AcDbEntity
  8
0
100
AcDbEllipse
 62
7
  6
CONTINUOUS
 10
6.6414175365
 20
15.8043263633
 30
0.0
 11
0.0104875583
 21
-0.0990569532
 31
0.0
 40
0.5588552877
 41
-2.6343512294
 42
-0.6564492919
  0
ELLIPSE
  5
59A
100
AcDbEntity
  8
0
100
AcDbEllipse
 62
7
  6
CONTINUOUS
 10
9.5617685428
 20
12.883975357
 30
0.0
 11
0.0990569532
 21
-0.0104875583
 31
0.0
 40
0.5588552877
 41
-2.4851433616
 42
-0.5072414241
  0
ELLIPSE
  5
59B
100
AcDbEntity
  8
0
100
AcDbEllipse
 62
7
  6
CONTINUOUS
 10
9.9687225166
 20
16.2112803371
 30
0.0
 11
-0.0
 21
0.6181264952
 31
0.0
 40
0.2679491924
 41
-0.5408188012
 42
0.0172200256
  0
ENDSEC
  0
SECTION
  2
OBJECTS
  0
DICTIONARY
  5
C
100
AcDbDictionary
280
0
281
1
  3
ACAD_GROUP
350
D
  3
ACAD_MLINESTYLE
350
17
  3
ACAD_LAYOUT
350
1A
  3
ACAD_PLOTSETTINGS
350
19
  3
ACAD_PLOTSTYLENAME
350
E
  0
DICTIONARY
  5
D
102
{ACAD_REACTORS
330
C
102
}
100
AcDbDictionary
280
0
281
1
  0
ACDBDICTIONARYWDFLT
  5
E
102
{ACAD_REACTORS
330
C
102
}
100
AcDbDictionary
281
1
  3
Normal
350
F
100
AcDbDictionaryWithDefault
340
F
  0
DICTIONARY
  5
17
102
{ACAD_REACTORS
330
C
102
}
100
AcDbDictionary
280
0
281
1
  3
Standard
350
18
  0
DICTIONARY
  5
19
102
{ACAD_REACTORS
330
C
102
}
100
AcDbDictionary
281
1
  0
DICTIONARY
  5
1A
102
{ACAD_REACTORS
330
C
102
}
100
AcDbDictionary
281
1
  3
Model
350
59C
  3
Layout1
350
59D
  0
ACDBPLACEHOLDER
  5
F
102
{ACAD_REACTORS
330
E
102
}
  0
MLINESTYLE
  5
18
102
{ACAD_REACTORS
330
17
102
}
100
AcDbMlineStyle
  2
STANDARD
 70
0
  3

 62
256
 51
90.0
 52
90.0
 71
2
 49
0.5
 62
256
  6
BYLAYER
 49
-0.5
 62
256
  6
BYLAYER
  0
LAYOUT
  5
59C
102
{ACAD_REACTORS
330
1A
102
}
100
AcDbPlotSettings
  1

  2
none_device
  4
ANSI_C_(22.00_x_17.00_Inches)
  6

 40
0.0
 41
0.0
 42
0.0
 43
0.0
 44
558.8
 45
431.8
 46
0.0
 47
0.0
 48
0.0
 49
0.0
140
0.0
141
0.0
142
1.0
143
1.0
 70
1024
 72
0
 73
0
 74
0
  7

 75
0
147
1.0
148
0.0
149
0.0
100
AcDbLayout
  1
Model
 70
0
 71
0
 10
0.0
 20
0.0
 11
22.0
 21
17.0
 12
0.0
 22
0.0
 32
0.0
 14
0.0
 24
0.0
 34
0.0
 15
0.0
 25
0.0
 35
0.0
146
0.0
 13
0.0
 23
0.0
 33
0.0
 16
1.0
 26
0.0
 36
0.0
 17
0.0
 27
1.0
 37
0.0
 76
0
330
205
345
0
346
0
  0
LAYOUT
  5
59D
102
{ACAD_REACTORS
330
1A
102
}
100
AcDbPlotSettings
  1

  2
none_device
  4
ANSI_C_(22.00_x_17.00_Inches)
  6

 40
0.0
 41
0.0
 42
0.0
 43
0.0
 44
558.8
 45
431.8
 46
0.0
 47
0.0
 48
0.0
 49
0.0
140
0.0
141
0.0
142
1.0
143
1.0
 70
0
 72
0
 73
0
 74
0
  7

 75
0
147
1.0
148
0.0
149
0.0
100
AcDbLayout
  1
Layout1
 70
0
 71
1
 10
0.0
 20
0.0
 11
22.0
 21
17.0
 12
0.0
 22
0.0
 32
0.0
 14
0.0
 24
0.0
 34
0.0
 15
0.0
 25
0.0
 35
0.0
146
0.0
 13
0.0
 23
0.0
 33
0.0
 16
1.0
 26
0.0
 36
0.0
 17
0.0
 27
1.0
 37
0.0
 76
0
330
206
345
0
346
0
  0
ENDSEC
  0
EOF
