999
DXF file: 3-1663tr_TOP.dxf
999
Pro/ENGINEER 2013150 by Parametric Technology Corporation
  0
SECTION
  2
HEADER
  9
$ACADVER
  1
AC1021
  9
$DWGCODEPAGE
  3
ANSI_1252
  9
$EXTMAX
 10
11.0
 20
8.5
 30
0.0
  9
$EXTMIN
 10
0.0
 20
0.0
 30
0.0
  9
$LIMMIN
 10
0.0
 20
0.0
  9
$LIMMAX
 10
11.0
 20
8.5
  9
$VIEWCTR
 10
5.5
 20
4.25
  9
$VIEWSIZE
 40
8.5
  9
$CLAYER
  8
0
  9
$LTSCALE
 40
0.605
  9
$CELTYPE
  6
BYLAYER
  9
$DIMSCALE
 40
1.0
  9
$DIMASZ
 40
0.1
  9
$DIMEXO
 40
0.0625
  9
$DIMDLI
 40
0.418
  9
$DIMEXE
 40
0.125
  9
$DIMCEN
 40
0.099
  9
$DIMLFAC
 40
1.0
  9
$DIMBLK
  1
_FILLED
  9
$DIMTXT
 40
0.08
  9
$DIMTOL
 70
1
  9
$DIMLIM
 70
0
  9
$DIMTFAC
 40
1.0
  9
$DIMTP
 40
0.001
  9
$DIMTM
 40
0.001
  9
$DIMGAP
 40
0.09
  9
$DIMDSEP
 70
46
  9
$PDMODE
 70
3
  9
$PDSIZE
 40
0.06
  9
$HANDSEED
  5
292
  9
$TILEMODE
 70
1
  9
$MEASUREMENT
 70
0
  9
$INSUNITS
 70
1
  0
ENDSEC
  0
SECTION
  2
CLASSES
  0
CLASS
  1
ACDBDICTIONARYWDFLT
  2
AcDbDictionaryWithDefault
  3
AutoCAD 2000
 90
0
 91
1
280
0
281
0
  0
CLASS
  1
ACDBPLACEHOLDER
  2
AcDbPlaceHolder
  3
AutoCAD 2000
 90
0
 91
1
280
0
281
0
  0
CLASS
  1
LAYOUT
  2
AcDbLayout
  3
AutoCAD 2000
 90
0
 91
0
280
0
281
0
  0
ENDSEC
  0
SECTION
  2
TABLES
  0
TABLE
  2
VPORT
  5
8
100
AcDbSymbolTable
 70
2
  0
VPORT
  5
1F4
100
AcDbSymbolTableRecord
100
AcDbViewportTableRecord
  2
*ACTIVE
 70
0
 10
0.0
 20
0.0
 11
1.0
 21
1.0
 12
5.5
 22
4.25
 13
0.0
 23
0.0
 14
1.0
 24
1.0
 15
0.0
 25
0.0
 16
0.0
 26
0.0
 36
1.0
 17
0.0
 27
0.0
 37
0.0
 40
8.5
 41
1.2941176471
 42
50.0
 43
0.0
 44
0.0
 50
0.0
 51
0.0
 71
0
 72
100
 73
1
 74
1
 75
0
 76
0
 77
0
 78
0
  0
ENDTAB
  0
TABLE
  2
LTYPE
  5
5
100
AcDbSymbolTable
 70
6
  0
LTYPE
  5
14
100
AcDbSymbolTableRecord
100
AcDbLinetypeTableRecord
  2
BYBLOCK
 70
0
  3

 72
65
 73
0
 40
0.0
  0
LTYPE
  5
15
100
AcDbSymbolTableRecord
100
AcDbLinetypeTableRecord
  2
BYLAYER
 70
0
  3

 72
65
 73
0
 40
0.0
  0
LTYPE
  5
16
100
AcDbSymbolTableRecord
100
AcDbLinetypeTableRecord
  2
CONTINUOUS
 70
64
  3
Solid line
 72
65
 73
0
 40
0.0
  0
LTYPE
  5
1F5
100
AcDbSymbolTableRecord
100
AcDbLinetypeTableRecord
  2
CENTER
 70
64
  3
____ _ ____ _ ____ _ ____ _ ____ _ ____ _ ____
 72
65
 73
4
 40
0.6
 49
0.375
 74
0
 49
-0.075
 74
0
 49
0.075
 74
0
 49
-0.075
 74
0
  0
LTYPE
  5
1F6
100
AcDbSymbolTableRecord
100
AcDbLinetypeTableRecord
  2
HIDDEN
 70
64
  3
- - - - - - - - - - - - - - - - - - - -
 72
65
 73
2
 40
0.2
 49
0.1
 74
0
 49
-0.1
 74
0
  0
LTYPE
  5
1F7
100
AcDbSymbolTableRecord
100
AcDbLinetypeTableRecord
  2
PHANTOM
 70
64
  3
_____ _ _ _____ _ _ _____ _ _ _____
 72
65
 73
6
 40
0.8
 49
0.45
 74
0
 49
-0.05
 74
0
 49
0.1
 74
0
 49
-0.05
 74
0
 49
0.1
 74
0
 49
-0.05
 74
0
  0
LTYPE
  5
1F8
100
AcDbSymbolTableRecord
100
AcDbLinetypeTableRecord
  2
DOT
 70
64
  3
. . . . . . . . . . . . . . . . . . . .
 72
65
 73
2
 40
0.2
 49
0.1
 74
0
 49
-0.1
 74
0
  0
LTYPE
  5
1F9
100
AcDbSymbolTableRecord
100
AcDbLinetypeTableRecord
  2
DASHED
 70
64
  3
- - - - - - - - - - - - - - - - - - - -
 72
65
 73
2
 40
0.2
 49
0.1
 74
0
 49
-0.1
 74
0
  0
ENDTAB
  0
TABLE
  2
LAYER
  5
2
100
AcDbSymbolTable
 70
36
  0
LAYER
  5
10
100
AcDbSymbolTableRecord
100
AcDbLayerTableRecord
  2
0
 70
0
 62
7
  6
CONTINUOUS
370
-3
390
F
  0
LAYER
  5
1FA
100
AcDbSymbolTableRecord
100
AcDbLayerTableRecord
  2
DEFAULT_1
 70
0
 62
7
  6
CENTER
370
-3
390
F
  0
LAYER
  5
1FB
100
AcDbSymbolTableRecord
100
AcDbLayerTableRecord
  2
DEFAULT_2
 70
0
 62
8
  6
HIDDEN
370
-3
390
F
  0
LAYER
  5
1FC
100
AcDbSymbolTableRecord
100
AcDbLayerTableRecord
  2
DEFAULT_3
 70
0
 62
7
  6
PHANTOM
370
-3
390
F
  0
LAYER
  5
1FD
100
AcDbSymbolTableRecord
100
AcDbLayerTableRecord
  2
ALL_ASSEMBLY_MEMBERS
 70
0
 62
7
  6
CONTINUOUS
370
-3
390
F
  0
LAYER
  5
1FE
100
AcDbSymbolTableRecord
100
AcDbLayerTableRecord
  2
ALL_FEATURES
 70
0
 62
7
  6
CONTINUOUS
370
-3
390
F
  0
LAYER
  5
1FF
100
AcDbSymbolTableRecord
100
AcDbLayerTableRecord
  2
AXES_FEATURES
 70
0
 62
7
  6
CONTINUOUS
370
-3
390
F
  0
LAYER
  5
200
100
AcDbSymbolTableRecord
100
AcDbLayerTableRecord
  2
CHAMFER_FEATURES
 70
0
 62
7
  6
CONTINUOUS
370
-3
390
F
  0
LAYER
  5
201
100
AcDbSymbolTableRecord
100
AcDbLayerTableRecord
  2
COORDINATE_SYSTEMS
 70
0
 62
7
  6
CONTINUOUS
370
-3
390
F
  0
LAYER
  5
202
100
AcDbSymbolTableRecord
100
AcDbLayerTableRecord
  2
CUT_FEATURES
 70
0
 62
7
  6
CONTINUOUS
370
-3
390
F
  0
LAYER
  5
203
100
AcDbSymbolTableRecord
100
AcDbLayerTableRecord
  2
DATUM_CURVES
 70
0
 62
7
  6
CONTINUOUS
370
-3
390
F
  0
LAYER
  5
204
100
AcDbSymbolTableRecord
100
AcDbLayerTableRecord
  2
DATUM_PLANES
 70
0
 62
7
  6
CONTINUOUS
370
-3
390
F
  0
LAYER
  5
205
100
AcDbSymbolTableRecord
100
AcDbLayerTableRecord
  2
DATUM_POINTS
 70
0
 62
7
  6
CONTINUOUS
370
-3
390
F
  0
LAYER
  5
206
100
AcDbSymbolTableRecord
100
AcDbLayerTableRecord
  2
DEFAULT_COORDINATE_SYSTEM
 70
0
 62
7
  6
CONTINUOUS
370
-3
390
F
  0
LAYER
  5
207
100
AcDbSymbolTableRecord
100
AcDbLayerTableRecord
  2
DEFAULT_DATUM_AXES
 70
0
 62
7
  6
CONTINUOUS
370
-3
390
F
  0
LAYER
  5
208
100
AcDbSymbolTableRecord
100
AcDbLayerTableRecord
  2
DEFAULT_DATUM_CURVES
 70
0
 62
7
  6
CONTINUOUS
370
-3
390
F
  0
LAYER
  5
209
100
AcDbSymbolTableRecord
100
AcDbLayerTableRecord
  2
DEFAULT_DATUM_PLANES
 70
0
 62
7
  6
CONTINUOUS
370
-3
390
F
  0
LAYER
  5
20A
100
AcDbSymbolTableRecord
100
AcDbLayerTableRecord
  2
DEFAULT_SURFACES
 70
0
 62
7
  6
CONTINUOUS
370
-3
390
F
  0
LAYER
  5
20B
100
AcDbSymbolTableRecord
100
AcDbLayerTableRecord
  2
DIMENSIONS
 70
0
 62
7
  6
CONTINUOUS
370
-3
390
F
  0
LAYER
  5
20C
100
AcDbSymbolTableRecord
100
AcDbLayerTableRecord
  2
HOLE_FEATURES
 70
0
 62
7
  6
CONTINUOUS
370
-3
390
F
  0
LAYER
  5
20D
100
AcDbSymbolTableRecord
100
AcDbLayerTableRecord
  2
IMPORT_FEATURE
 70
0
 62
7
  6
CONTINUOUS
370
-3
390
F
  0
LAYER
  5
20E
100
AcDbSymbolTableRecord
100
AcDbLayerTableRecord
  2
INTFCLR_1
 70
0
 62
7
  6
CONTINUOUS
370
-3
390
F
  0
LAYER
  5
20F
100
AcDbSymbolTableRecord
100
AcDbLayerTableRecord
  2
NOTES
 70
0
 62
7
  6
CONTINUOUS
370
-3
390
F
  0
LAYER
  5
210
100
AcDbSymbolTableRecord
100
AcDbLayerTableRecord
  2
PART_REFERENCE_DIMENSIONS
 70
0
 62
7
  6
CONTINUOUS
370
-3
390
F
  0
LAYER
  5
211
100
AcDbSymbolTableRecord
100
AcDbLayerTableRecord
  2
PLATED_SURFACE_AREA
 70
0
 62
7
  6
CONTINUOUS
370
-3
390
F
  0
LAYER
  5
212
100
AcDbSymbolTableRecord
100
AcDbLayerTableRecord
  2
POINTS
 70
0
 62
7
  6
CONTINUOUS
370
-3
390
F
  0
LAYER
  5
213
100
AcDbSymbolTableRecord
100
AcDbLayerTableRecord
  2
PROTRUSION
 70
0
 62
7
  6
CONTINUOUS
370
-3
390
F
  0
LAYER
  5
214
100
AcDbSymbolTableRecord
100
AcDbLayerTableRecord
  2
PROTRUSION_FEATURES
 70
0
 62
7
  6
CONTINUOUS
370
-3
390
F
  0
LAYER
  5
215
100
AcDbSymbolTableRecord
100
AcDbLayerTableRecord
  2
QUILT
 70
0
 62
7
  6
CONTINUOUS
370
-3
390
F
  0
LAYER
  5
216
100
AcDbSymbolTableRecord
100
AcDbLayerTableRecord
  2
QUILTS
 70
0
 62
7
  6
CONTINUOUS
370
-3
390
F
  0
LAYER
  5
217
100
AcDbSymbolTableRecord
100
AcDbLayerTableRecord
  2
REFERENCE_DIMENSIONS
 70
0
 62
7
  6
CONTINUOUS
370
-3
390
F
  0
LAYER
  5
218
100
AcDbSymbolTableRecord
100
AcDbLayerTableRecord
  2
ROUND_FEATURES
 70
0
 62
7
  6
CONTINUOUS
370
-3
390
F
  0
LAYER
  5
219
100
AcDbSymbolTableRecord
100
AcDbLayerTableRecord
  2
SHELL_FEATURES
 70
0
 62
7
  6
CONTINUOUS
370
-3
390
F
  0
LAYER
  5
21A
100
AcDbSymbolTableRecord
100
AcDbLayerTableRecord
  2
SIZE_REF
 70
0
 62
7
  6
CONTINUOUS
370
-3
390
F
  0
LAYER
  5
21B
100
AcDbSymbolTableRecord
100
AcDbLayerTableRecord
  2
SURFACE_FEATURES
 70
0
 62
7
  6
CONTINUOUS
370
-3
390
F
  0
LAYER
  5
21C
100
AcDbSymbolTableRecord
100
AcDbLayerTableRecord
  2
XSEC_DATUMS
 70
0
 62
7
  6
CONTINUOUS
370
-3
390
F
  0
ENDTAB
  0
TABLE
  2
STYLE
  5
3
100
AcDbSymbolTable
 70
1
  0
STYLE
  5
11
100
AcDbSymbolTableRecord
100
AcDbTextStyleTableRecord
  2
STANDARD
 70
0
 40
0.0
 41
0.8
 50
0.0
 71
0
 42
0.2
  3
txt
  4

  0
STYLE
  5
21D
100
AcDbSymbolTableRecord
100
AcDbTextStyleTableRecord
  2
TEXTSTYLE_1
 70
0
 40
0.0
 41
0.8
 50
0.0
 71
0
 42
0.2
  3
gdt
  4

  0
ENDTAB
  0
TABLE
  2
VIEW
  5
6
100
AcDbSymbolTable
 70
0
  0
ENDTAB
  0
TABLE
  2
UCS
  5
7
100
AcDbSymbolTable
 70
0
  0
ENDTAB
  0
TABLE
  2
APPID
  5
9
100
AcDbSymbolTable
 70
1
  0
APPID
  5
21E
100
AcDbSymbolTableRecord
100
AcDbRegAppTableRecord
  2
ACAD
 70
0
  0
ENDTAB
  0
TABLE
  2
BLOCK_RECORD
  5
1
100
AcDbSymbolTable
 70
0
  0
BLOCK_RECORD
  5
21F
100
AcDbSymbolTableRecord
100
AcDbBlockTableRecord
  2
*Model_Space
  0
BLOCK_RECORD
  5
220
100
AcDbSymbolTableRecord
100
AcDbBlockTableRecord
  2
*Paper_Space
  0
ENDTAB
  0
TABLE
  2
DIMSTYLE
  5
A
100
AcDbSymbolTable
 70
1
100
AcDbDimStyleTable
 71
0
  0
DIMSTYLE
105
221
100
AcDbSymbolTableRecord
100
AcDbDimStyleTableRecord
  2
STANDARD
 70
0
  3

  4

 40
1.0
 41
0.1
 42
0.0625
 43
0.38
 44
0.125
 45
0.0
 46
0.0
 47
0.001
 48
0.001
140
0.08
141
0.09
142
0.0
143
25.4
144
1.0
145
0.0
146
1.0
147
0.09
 71
1.0
 72
0.0
 73
1
 74
1
 75
0
 76
0
 77
0
 78
4
170
0
171
2
172
0
173
0
174
0
175
0
176
0
177
0
178
0
270
2
271
3
272
3
273
2
274
2
275
0
280
0
281
0
282
0
283
1
284
4
285
0
286
0
287
3
288
0
340
11
278
46
  0
ENDTAB
  0
ENDSEC
  0
SECTION
  2
BLOCKS
  0
BLOCK
  5
20
100
AcDbEntity
  8
0
100
AcDbBlockBegin
  2
*Model_Space
 70
0
 10
0.0
 20
0.0
 30
0.0
  3
*Model_Space
  1

  0
ENDBLK
  5
21
100
AcDbEntity
  8
0
100
AcDbBlockEnd
  0
BLOCK
  5
1C
100
AcDbEntity
  8
0
100
AcDbBlockBegin
  2
*Paper_Space
 70
0
 10
0.0
 20
0.0
 30
0.0
  3
*Paper_Space
  1

  0
ENDBLK
  5
1D
100
AcDbEntity
  8
0
100
AcDbBlockEnd
  0
ENDSEC
  0
SECTION
  2
ENTITIES
  0
LINE
  5
222
100
AcDbEntity
  8
0
100
AcDbLine
 62
7
  6
CONTINUOUS
 10
0.0
 20
0.0
 11
0.0
 21
8.5
  0
LINE
  5
223
100
AcDbEntity
  8
0
100
AcDbLine
 62
7
  6
CONTINUOUS
 10
0.0
 20
0.0
 11
11.0
 21
0.0
  0
LINE
  5
224
100
AcDbEntity
  8
0
100
AcDbLine
 62
7
  6
CONTINUOUS
 10
0.0
 20
8.5
 11
11.0
 21
8.5
  0
LINE
  5
225
100
AcDbEntity
  8
0
100
AcDbLine
 62
7
  6
CONTINUOUS
 10
11.0
 20
0.0
 11
11.0
 21
8.5
  0
LINE
  5
226
100
AcDbEntity
  8
ALL_FEATURES
100
AcDbLine
 62
7
  6
CONTINUOUS
 10
1.4894891749
 20
4.8800966936
 11
1.4894891749
 21
4.7488466936
  0
LINE
  5
227
100
AcDbEntity
  8
ALL_ASSEMBLY_MEMBERS
100
AcDbLine
 62
9
  6
CONTINUOUS
 10
3.8506056825
 20
2.106674763
 11
4.4433226674
 21
2.106674763
  0
LINE
  5
228
100
AcDbEntity
  8
ALL_ASSEMBLY_MEMBERS
100
AcDbLine
 62
7
  6
CONTINUOUS
 10
3.7719672295
 20
2.124531733
 11
4.5219611203
 21
2.124531733
  0
LINE
  5
229
100
AcDbEntity
  8
ALL_ASSEMBLY_MEMBERS
100
AcDbLine
 62
9
  6
CONTINUOUS
 10
3.8506056825
 20
2.381924763
 11
4.4433226674
 21
2.381924763
  0
LINE
  5
22A
100
AcDbEntity
  8
ALL_ASSEMBLY_MEMBERS
100
AcDbLine
 62
7
  6
CONTINUOUS
 10
3.7719672295
 20
2.399781733
 11
4.5219611203
 21
2.399781733
  0
LINE
  5
22B
100
AcDbEntity
  8
ALL_FEATURES
100
AcDbLine
 62
7
  6
CONTINUOUS
 10
3.1348466817
 20
4.6044893478
 11
3.1358492178
 21
4.5662040394
  0
LINE
  5
22C
100
AcDbEntity
  8
0
100
AcDbLine
 62
7
  6
CONTINUOUS
 10
3.1358492178
 20
4.5662040394
 11
3.1348466817
 21
4.6044893478
  0
LINE
  5
22D
100
AcDbEntity
  8
ALL_ASSEMBLY_MEMBERS
100
AcDbLine
 62
7
  6
CONTINUOUS
 10
3.7719641749
 20
2.774781733
 11
4.5219641749
 21
2.774781733
  0
LINE
  5
22E
100
AcDbEntity
  8
ALL_ASSEMBLY_MEMBERS
100
AcDbLine
 62
7
  6
CONTINUOUS
 10
3.9125891749
 20
2.8559716146
 11
4.3813391749
 21
2.8559716146
  0
LINE
  5
22F
100
AcDbEntity
  8
ALL_FEATURES
100
AcDbLine
 62
7
  6
CONTINUOUS
 10
3.5267141749
 20
3.3342023887
 11
3.5267141749
 21
3.7475966936
  0
LINE
  5
230
100
AcDbEntity
  8
0
100
AcDbLine
 62
7
  6
CONTINUOUS
 10
3.5268866749
 20
4.6190966936
 11
3.5268866749
 21
3.7475966936
  0
LINE
  5
231
100
AcDbEntity
  8
ALL_FEATURES
100
AcDbLine
 62
7
  6
CONTINUOUS
 10
3.9125891749
 20
2.912031733
 11
3.8844687631
 21
2.912031733
  0
LINE
  5
232
100
AcDbEntity
  8
ALL_FEATURES
100
AcDbLine
 62
7
  6
CONTINUOUS
 10
4.3813391749
 20
2.912031733
 11
4.4094595868
 21
2.912031733
  0
LINE
  5
233
100
AcDbEntity
  8
0
100
AcDbLine
 62
9
  6
CONTINUOUS
 10
3.9125891749
 20
2.9215756472
 11
3.8531216024
 21
2.9215756526
  0
LINE
  5
234
100
AcDbEntity
  8
0
100
AcDbLine
 62
9
  6
CONTINUOUS
 10
4.4408067474
 20
2.9215756526
 11
4.3813391749
 21
2.9215756526
  0
LINE
  5
235
100
AcDbEntity
  8
0
100
AcDbLine
 62
9
  6
CONTINUOUS
 10
4.4541333005
 20
2.9373883222
 11
4.3813391749
 21
2.9373883218
  0
LINE
  5
236
100
AcDbEntity
  8
0
100
AcDbLine
 62
9
  6
CONTINUOUS
 10
3.9125891749
 20
2.937388321
 11
3.8397950493
 21
2.9373883222
  0
LINE
  5
237
100
AcDbEntity
  8
ALL_ASSEMBLY_MEMBERS
100
AcDbLine
 62
7
  6
CONTINUOUS
 10
4.5219641749
 20
2.774781733
 11
4.3813391749
 21
2.8559716146
  0
LINE
  5
238
100
AcDbEntity
  8
0
100
AcDbLine
 62
7
  6
CONTINUOUS
 10
3.5629631925
 20
3.2691760216
 11
3.5549495596
 21
3.2755673246
  0
LINE
  5
239
100
AcDbEntity
  8
0
100
AcDbLine
 62
7
  6
CONTINUOUS
 10
3.578905532
 20
3.243423792
 11
3.5811443046
 21
3.2329761863
  0
LINE
  5
23A
100
AcDbEntity
  8
0
100
AcDbLine
 62
7
  6
CONTINUOUS
 10
3.6613391749
 20
3.6350966936
 11
3.6613391749
 21
3.4983753481
  0
LINE
  5
23B
100
AcDbEntity
  8
ALL_FEATURES
100
AcDbLine
 62
7
  6
CONTINUOUS
 10
3.6613391749
 20
3.4983753481
 11
3.6613391749
 21
3.6350966936
  0
LINE
  5
23C
100
AcDbEntity
  8
ALL_ASSEMBLY_MEMBERS
100
AcDbLine
 62
7
  6
CONTINUOUS
 10
3.9125919212
 20
3.149781733
 11
4.3813364287
 21
3.149781733
  0
LINE
  5
23D
100
AcDbEntity
  8
0
100
AcDbLine
 62
7
  6
CONTINUOUS
 10
4.3893223281
 20
3.187281733
 11
3.9046060217
 21
3.187281733
  0
LINE
  5
23E
100
AcDbEntity
  8
0
100
AcDbLine
 62
9
  6
CONTINUOUS
 10
3.6095743484
 20
3.1937246044
 11
3.8860562607
 21
3.1937246036
  0
LINE
  5
23F
100
AcDbEntity
  8
0
100
AcDbLine
 62
9
  6
CONTINUOUS
 10
4.407872086
 20
3.1937246012
 11
4.6843540015
 21
3.1937246044
  0
LINE
  5
240
100
AcDbEntity
  8
0
100
AcDbLine
 62
9
  6
CONTINUOUS
 10
4.4168900123
 20
3.2054486103
 11
3.8770383376
 21
3.2054486103
  0
LINE
  5
241
100
AcDbEntity
  8
0
100
AcDbLine
 62
9
  6
CONTINUOUS
 10
3.5811443046
 20
3.2329761863
 11
3.8642305773
 21
3.2329761856
  0
LINE
  5
242
100
AcDbEntity
  8
0
100
AcDbLine
 62
9
  6
CONTINUOUS
 10
4.4296977714
 20
3.2329761835
 11
4.7127840453
 21
3.2329761863
  0
LINE
  5
243
100
AcDbEntity
  8
0
100
AcDbLine
 62
9
  6
CONTINUOUS
 10
4.7150228179
 20
3.243423792
 11
4.4350332723
 21
3.2434237889
  0
LINE
  5
244
100
AcDbEntity
  8
0
100
AcDbLine
 62
9
  6
CONTINUOUS
 10
3.8588950768
 20
3.2434237908
 11
3.578905532
 21
3.243423792
  0
LINE
  5
245
100
AcDbEntity
  8
0
100
AcDbLine
 62
9
  6
CONTINUOUS
 10
4.7309651574
 20
3.2691760216
 11
4.4492543111
 21
3.2691760138
  0
LINE
  5
246
100
AcDbEntity
  8
0
100
AcDbLine
 62
9
  6
CONTINUOUS
 10
3.8446740366
 20
3.2691760181
 11
3.5629631925
 21
3.2691760216
  0
LINE
  5
247
100
AcDbEntity
  8
0
100
AcDbLine
 62
9
  6
CONTINUOUS
 10
4.7389787903
 20
3.2755673246
 11
4.4530811128
 21
3.2755673246
  0
LINE
  5
248
100
AcDbEntity
  8
0
100
AcDbLine
 62
9
  6
CONTINUOUS
 10
3.8408472368
 20
3.2755673246
 11
3.5549495596
 21
3.2755673246
  0
LINE
  5
249
100
AcDbEntity
  8
ALL_ASSEMBLY_MEMBERS
100
AcDbLine
 62
7
  6
CONTINUOUS
 10
3.7719641749
 20
2.124531733
 11
3.7719641749
 21
2.774781733
  0
LINE
  5
24A
100
AcDbEntity
  8
ALL_ASSEMBLY_MEMBERS
100
AcDbLine
 62
7
  6
CONTINUOUS
 10
3.9125891749
 20
2.8559716146
 11
3.9125891749
 21
3.149781733
  0
LINE
  5
24B
100
AcDbEntity
  8
0
100
AcDbLine
 62
9
  6
CONTINUOUS
 10
3.5267141749
 20
3.3342023887
 11
3.8000236869
 21
3.3342023887
  0
LINE
  5
24C
100
AcDbEntity
  8
0
100
AcDbLine
 62
9
  6
CONTINUOUS
 10
4.4939046619
 20
3.3342023884
 11
4.7672141749
 21
3.3342023887
  0
LINE
  5
24D
100
AcDbEntity
  8
0
100
AcDbLine
 62
9
  6
CONTINUOUS
 10
3.6920519708
 20
3.4378473087
 11
4.6018763791
 21
3.4378473087
  0
LINE
  5
24E
100
AcDbEntity
  8
0
100
AcDbLine
 62
9
  6
CONTINUOUS
 10
3.6613391749
 20
3.4983753481
 11
4.6325891749
 21
3.4983753481
  0
LINE
  5
24F
100
AcDbEntity
  8
0
100
AcDbLine
 62
7
  6
CONTINUOUS
 10
4.0082141749
 20
3.187281733
 11
4.0082141749
 21
3.149781733
  0
LINE
  5
250
100
AcDbEntity
  8
0
100
AcDbLine
 62
7
  6
CONTINUOUS
 10
4.6545416749
 20
3.6350966936
 11
3.6393866749
 21
3.6350966936
  0
LINE
  5
251
100
AcDbEntity
  8
0
100
AcDbLine
 62
7
  6
CONTINUOUS
 10
4.2857141749
 20
3.187281733
 11
4.2857141749
 21
3.149781733
  0
LINE
  5
252
100
AcDbEntity
  8
ALL_ASSEMBLY_MEMBERS
100
AcDbLine
 62
7
  6
CONTINUOUS
 10
4.3813391749
 20
2.8559716146
 11
4.3813391749
 21
3.149781733
  0
LINE
  5
253
100
AcDbEntity
  8
0
100
AcDbLine
 62
9
  6
CONTINUOUS
 10
4.7670416749
 20
3.7475966936
 11
3.5268866749
 21
3.7475966936
  0
LINE
  5
254
100
AcDbEntity
  8
ALL_ASSEMBLY_MEMBERS
100
AcDbLine
 62
7
  6
CONTINUOUS
 10
4.5219641749
 20
2.124531733
 11
4.5219641749
 21
2.774781733
  0
LINE
  5
255
100
AcDbEntity
  8
ALL_FEATURES
100
AcDbLine
 62
7
  6
CONTINUOUS
 10
4.6325891749
 20
3.4983753481
 11
4.6325891749
 21
3.6350966936
  0
LINE
  5
256
100
AcDbEntity
  8
0
100
AcDbLine
 62
7
  6
CONTINUOUS
 10
4.7670416749
 20
4.6190966936
 11
4.7670416749
 21
3.7475966936
  0
LINE
  5
257
100
AcDbEntity
  8
ALL_FEATURES
100
AcDbLine
 62
7
  6
CONTINUOUS
 10
4.7672141749
 20
3.3342023887
 11
4.7672141749
 21
3.7475966936
  0
LINE
  5
258
100
AcDbEntity
  8
ALL_ASSEMBLY_MEMBERS
100
AcDbLine
 62
7
  6
CONTINUOUS
 10
3.7719641749
 20
2.774781733
 11
3.9125891749
 21
2.8559716146
  0
LINE
  5
259
100
AcDbEntity
  8
0
100
AcDbLine
 62
7
  6
CONTINUOUS
 10
4.7150228179
 20
3.243423792
 11
4.7127840453
 21
3.2329761863
  0
LINE
  5
25A
100
AcDbEntity
  8
0
100
AcDbLine
 62
7
  6
CONTINUOUS
 10
4.7389787903
 20
3.2755673246
 11
4.7309651574
 21
3.2691760216
  0
LINE
  5
25B
100
AcDbEntity
  8
ALL_FEATURES
100
AcDbLine
 62
7
  6
CONTINUOUS
 10
5.1430842722
 20
4.5515966936
 11
4.7670416749
 21
4.5515966936
  0
LINE
  5
25C
100
AcDbEntity
  8
ALL_FEATURES
100
AcDbLine
 62
7
  6
CONTINUOUS
 10
3.5268866749
 20
4.5515966936
 11
3.1508440777
 21
4.5515966936
  0
LINE
  5
25D
100
AcDbEntity
  8
ALL_FEATURES
100
AcDbLine
 62
9
  6
CONTINUOUS
 10
5.158079132
 20
4.5662040394
 11
4.7670416749
 21
4.5662040394
  0
LINE
  5
25E
100
AcDbEntity
  8
ALL_FEATURES
100
AcDbLine
 62
9
  6
CONTINUOUS
 10
3.5268866749
 20
4.5662040394
 11
3.1358492178
 21
4.5662040394
  0
LINE
  5
25F
100
AcDbEntity
  8
0
100
AcDbLine
 62
7
  6
CONTINUOUS
 10
5.158079132
 20
4.5662040394
 11
5.1590816681
 21
4.6044893478
  0
LINE
  5
260
100
AcDbEntity
  8
ALL_FEATURES
100
AcDbLine
 62
9
  6
CONTINUOUS
 10
5.1590816681
 20
4.6044893478
 11
4.7670416749
 21
4.6044893478
  0
LINE
  5
261
100
AcDbEntity
  8
ALL_FEATURES
100
AcDbLine
 62
9
  6
CONTINUOUS
 10
3.5268866749
 20
4.6044893478
 11
3.1348466817
 21
4.6044893478
  0
LINE
  5
262
100
AcDbEntity
  8
ALL_FEATURES
100
AcDbLine
 62
7
  6
CONTINUOUS
 10
1.7222141749
 20
4.6190966936
 11
6.5717141749
 21
4.6190966936
  0
LINE
  5
263
100
AcDbEntity
  8
ALL_FEATURES
100
AcDbLine
 62
9
  6
CONTINUOUS
 10
1.6868767492
 20
4.6306068355
 11
6.6070516007
 21
4.6306068355
  0
LINE
  5
264
100
AcDbEntity
  8
ALL_FEATURES
100
AcDbLine
 62
9
  6
CONTINUOUS
 10
1.5412458668
 20
4.689415659
 11
6.7526824831
 21
4.689415659
  0
LINE
  5
265
100
AcDbEntity
  8
ALL_FEATURES
100
AcDbLine
 62
9
  6
CONTINUOUS
 10
1.4894891749
 20
4.7488466936
 11
6.8044391749
 21
4.7488466936
  0
LINE
  5
266
100
AcDbEntity
  8
ALL_FEATURES
100
AcDbLine
 62
7
  6
CONTINUOUS
 10
1.4894891749
 20
4.8800966936
 11
6.8044391749
 21
4.8800966936
  0
LINE
  5
267
100
AcDbEntity
  8
ALL_FEATURES
100
AcDbLine
 62
7
  6
CONTINUOUS
 10
6.8044391749
 20
4.8800966936
 11
6.8044391749
 21
4.7488466936
  0
ARC
  5
268
100
AcDbEntity
  8
0
100
AcDbCircle
 62
7
  6
CONTINUOUS
 10
3.3257141749
 20
2.70723312
 40
0.56325
100
AcDbArc
 50
24.1181733655
 51
59.7371069019
  0
ARC
  5
269
100
AcDbEntity
  8
0
100
AcDbCircle
 62
7
  6
CONTINUOUS
 10
3.3594550679
 20
2.983281733
 40
0.56325
100
AcDbArc
 50
23.2308920706
 51
53.8077823306
  0
ARC
  5
26A
100
AcDbEntity
  8
0
100
AcDbCircle
 62
7
  6
CONTINUOUS
 10
3.6017141749
 20
3.3342023887
 40
0.075
100
AcDbArc
 50
180.0
 51
231.4257570771
  0
ARC
  5
26B
100
AcDbEntity
  8
0
100
AcDbCircle
 62
7
  6
CONTINUOUS
 10
3.5349044233
 20
3.2339949831
 40
0.045
100
AcDbArc
 50
12.094757077
 51
51.425757077
  0
ARC
  5
26C
100
AcDbEntity
  8
ALL_ASSEMBLY_MEMBERS
100
AcDbCircle
 62
7
  6
CONTINUOUS
 10
3.8563391749
 20
2.1284319932
 40
0.0225
100
AcDbArc
 50
189.9911557833
 51
255.2369687319
  0
ARC
  5
26D
100
AcDbEntity
  8
ALL_ASSEMBLY_MEMBERS
100
AcDbCircle
 62
7
  6
CONTINUOUS
 10
3.8563391749
 20
2.4036819932
 40
0.0225
100
AcDbArc
 50
189.9911557833
 51
255.2369687319
  0
ARC
  5
26E
100
AcDbEntity
  8
0
100
AcDbCircle
 62
7
  6
CONTINUOUS
 10
3.6398124495
 20
3.2455479316
 40
0.06
100
AcDbArc
 50
192.094757077
 51
239.7371069019
  0
ARC
  5
26F
100
AcDbEntity
  8
ALL_FEATURES
100
AcDbCircle
 62
7
  6
CONTINUOUS
 10
3.8844641749
 20
2.968268756
 40
0.0562370231
100
AcDbArc
 50
236.128659452
 51
270.0
  0
ARC
  5
270
100
AcDbEntity
  8
0
100
AcDbCircle
 62
7
  6
CONTINUOUS
 10
3.8740214724
 20
2.9527115713
 40
0.0375
100
AcDbArc
 50
204.1181733656
 51
236.1286594521
  0
ARC
  5
271
100
AcDbEntity
  8
0
100
AcDbCircle
 62
7
  6
CONTINUOUS
 10
3.9046060217
 20
3.217281733
 40
0.03
100
AcDbArc
 50
203.2308920706
 51
270.0
  0
ARC
  5
272
100
AcDbEntity
  8
ALL_FEATURES
100
AcDbCircle
 62
7
  6
CONTINUOUS
 10
1.4969380856
 20
4.3699738482
 40
0.3225
100
AcDbArc
 50
53.916964529
 51
82.1032437574
  0
ARC
  5
273
100
AcDbEntity
  8
0
100
AcDbCircle
 62
7
  6
CONTINUOUS
 10
3.7363391749
 20
3.4983753481
 40
0.075
100
AcDbArc
 50
180.0
 51
233.8077823306
  0
ARC
  5
274
100
AcDbEntity
  8
ALL_FEATURES
100
AcDbCircle
 62
7
  6
CONTINUOUS
 10
1.7222141749
 20
4.6790966936
 40
0.06
100
AcDbArc
 50
233.916964529
 51
270.0
  0
ARC
  5
275
100
AcDbEntity
  8
ALL_FEATURES
100
AcDbCircle
 62
7
  6
CONTINUOUS
 10
1.5494891749
 20
4.7488466936
 40
0.06
100
AcDbArc
 50
180.0
 51
262.1032437574
  0
ARC
  5
276
100
AcDbEntity
  8
ALL_FEATURES
100
AcDbCircle
 62
7
  6
CONTINUOUS
 10
3.1508440777
 20
4.5665966936
 40
0.015
100
AcDbArc
 50
181.5
 51
270.0
  0
ARC
  5
277
100
AcDbEntity
  8
ALL_FEATURES
100
AcDbCircle
 62
7
  6
CONTINUOUS
 10
3.1198518219
 20
4.6040966936
 40
0.015
100
AcDbArc
 50
1.5
 51
90.0
  0
ARC
  5
278
100
AcDbEntity
  8
ALL_ASSEMBLY_MEMBERS
100
AcDbCircle
 62
7
  6
CONTINUOUS
 10
4.1469641749
 20
3.2312842446
 40
1.1630025116
100
AcDbArc
 50
255.2369687319
 51
284.7630312681
  0
ARC
  5
279
100
AcDbEntity
  8
0
100
AcDbCircle
 62
7
  6
CONTINUOUS
 10
4.934473282
 20
2.983281733
 40
0.56325
100
AcDbArc
 50
126.1922176694
 51
156.7691079294
  0
ARC
  5
27A
100
AcDbEntity
  8
0
100
AcDbCircle
 62
7
  6
CONTINUOUS
 10
4.9682141749
 20
2.70723312
 40
0.56325
100
AcDbArc
 50
120.2628930981
 51
155.8818266345
  0
ARC
  5
27B
100
AcDbEntity
  8
0
100
AcDbCircle
 62
7
  6
CONTINUOUS
 10
4.6922141749
 20
3.3342023887
 40
0.075
100
AcDbArc
 50
308.5742429229
 51
360.0
  0
ARC
  5
27C
100
AcDbEntity
  8
0
100
AcDbCircle
 62
7
  6
CONTINUOUS
 10
4.6541159004
 20
3.2455479316
 40
0.06
100
AcDbArc
 50
300.2628930981
 51
347.905242923
  0
ARC
  5
27D
100
AcDbEntity
  8
ALL_FEATURES
100
AcDbCircle
 62
7
  6
CONTINUOUS
 10
4.4094641749
 20
2.968268756
 40
0.0562370231
100
AcDbArc
 50
270.0
 51
303.871340548
  0
ARC
  5
27E
100
AcDbEntity
  8
0
100
AcDbCircle
 62
7
  6
CONTINUOUS
 10
4.7590239266
 20
3.2339949831
 40
0.045
100
AcDbArc
 50
128.574242923
 51
167.905242923
  0
ARC
  5
27F
100
AcDbEntity
  8
0
100
AcDbCircle
 62
7
  6
CONTINUOUS
 10
4.4199068775
 20
2.9527115713
 40
0.0375
100
AcDbArc
 50
303.871340548
 51
335.8818266344
  0
ARC
  5
280
100
AcDbEntity
  8
0
100
AcDbCircle
 62
7
  6
CONTINUOUS
 10
4.3893223281
 20
3.217281733
 40
0.03
100
AcDbArc
 50
270.0
 51
336.7691079294
  0
ARC
  5
281
100
AcDbEntity
  8
ALL_ASSEMBLY_MEMBERS
100
AcDbCircle
 62
7
  6
CONTINUOUS
 10
4.4375891749
 20
2.1284319932
 40
0.0225
100
AcDbArc
 50
284.7630312681
 51
350.0088442167
  0
ARC
  5
282
100
AcDbEntity
  8
ALL_ASSEMBLY_MEMBERS
100
AcDbCircle
 62
7
  6
CONTINUOUS
 10
4.4375891749
 20
2.4036819932
 40
0.0225
100
AcDbArc
 50
284.7630312681
 51
350.0088442167
  0
ARC
  5
283
100
AcDbEntity
  8
ALL_ASSEMBLY_MEMBERS
100
AcDbCircle
 62
7
  6
CONTINUOUS
 10
4.1469641749
 20
3.5065342446
 40
1.1630025116
100
AcDbArc
 50
255.2369687319
 51
284.7630312681
  0
ARC
  5
284
100
AcDbEntity
  8
ALL_FEATURES
100
AcDbCircle
 62
7
  6
CONTINUOUS
 10
6.7969902643
 20
4.3699738482
 40
0.3225
100
AcDbArc
 50
97.8967562426
 51
126.083035471
  0
ARC
  5
285
100
AcDbEntity
  8
0
100
AcDbCircle
 62
7
  6
CONTINUOUS
 10
4.5575891749
 20
3.4983753481
 40
0.075
100
AcDbArc
 50
306.1922176694
 51
360.0
  0
ARC
  5
286
100
AcDbEntity
  8
0
100
AcDbCircle
 62
7
  6
CONTINUOUS
 10
4.6545460358
 20
3.7044641721
 40
0.0693674786
100
AcDbArc
 50
269.9963980156
 51
274.1689072229
  0
ARC
  5
287
100
AcDbEntity
  8
0
100
AcDbCircle
 62
7
  6
CONTINUOUS
 10
4.6976741965
 20
3.7475923327
 40
0.0693674786
100
AcDbArc
 50
355.8310920192
 51
0.0036019849
  0
ARC
  5
288
100
AcDbEntity
  8
0
100
AcDbCircle
 62
7
  6
CONTINUOUS
 10
4.6977385492
 20
3.7475899925
 40
0.069303126
100
AcDbArc
 50
355.8291539348
 51
0.0055400693
  0
ARC
  5
289
100
AcDbEntity
  8
0
100
AcDbCircle
 62
7
  6
CONTINUOUS
 10
4.654548376
 20
3.7043998193
 40
0.069303126
100
AcDbArc
 50
269.9944599293
 51
274.1708453092
  0
ARC
  5
28A
100
AcDbEntity
  8
ALL_FEATURES
100
AcDbCircle
 62
7
  6
CONTINUOUS
 10
6.5717141749
 20
4.6790966936
 40
0.06
100
AcDbArc
 50
270.0
 51
306.083035471
  0
ARC
  5
28B
100
AcDbEntity
  8
ALL_FEATURES
100
AcDbCircle
 62
7
  6
CONTINUOUS
 10
6.7444391749
 20
4.7488466936
 40
0.06
100
AcDbArc
 50
277.8967562426
 51
360.0
  0
ARC
  5
28C
100
AcDbEntity
  8
ALL_FEATURES
100
AcDbCircle
 62
7
  6
CONTINUOUS
 10
5.1430842722
 20
4.5665966936
 40
0.015
100
AcDbArc
 50
270.0
 51
358.5
  0
ARC
  5
28D
100
AcDbEntity
  8
ALL_FEATURES
100
AcDbCircle
 62
7
  6
CONTINUOUS
 10
5.174076528
 20
4.6040966936
 40
0.015
100
AcDbArc
 50
90.0
 51
178.5
  0
SPLINE
  5
28E
100
AcDbEntity
  8
0
100
AcDbSpline
 62
7
  6
CONTINUOUS
 70
0
 71
3
 72
35
 73
31
 74
0
 42
0.0000001
 43
0.0000001
 44
0.0000000001
 40
0.0
 40
0.0
 40
0.0
 40
0.0
 40
0.0198798482
 40
0.0389061
 40
0.0572349263
 40
0.0750085906
 40
0.1093037191
 40
0.1423092093
 40
0.1743589853
 40
0.2056530689
 40
0.2363464043
 40
0.2665723801
 40
0.3259971954
 40
0.3844687642
 40
0.4423690724
 40
0.5
 40
0.5576309276
 40
0.6155312358
 40
0.6740028046
 40
0.7334276199
 40
0.7636535957
 40
0.7943469311
 40
0.8256410147
 40
0.8576907907
 40
0.8906962809
 40
0.9249914094
 40
0.9427650737
 40
0.9610939
 40
0.9801201518
 40
1.0
 40
1.0
 40
1.0
 40
1.0
 10
3.6393866749
 20
3.6350966936
 30
0.0
 10
3.638242667
 20
3.6350966936
 30
0.0
 10
3.6360033526
 20
3.6351516994
 30
0.0
 10
3.6327173872
 20
3.6353928212
 30
0.0
 10
3.6295662669
 20
3.6357690183
 30
0.0
 10
3.625566003
 20
3.6364138995
 30
0.0
 10
3.6207758612
 20
3.6374446015
 30
0.0
 10
3.61527221
 20
3.6390045754
 30
0.0
 10
3.6100267538
 20
3.6408090563
 30
0.0
 10
3.6050067529
 20
3.6428360783
 30
0.0
 10
3.6001877268
 20
3.6450626633
 30
0.0
 10
3.5940358963
 20
3.6482468225
 30
0.0
 10
3.5867047223
 20
3.6526139263
 30
0.0
 10
3.5784240005
 20
3.6584403253
 30
0.0
 10
3.5706532508
 20
3.6647680868
 30
0.0
 10
3.5633711151
 20
3.6715811338
 30
0.0
 10
3.5565580681
 20
3.6788632694
 30
0.0
 10
3.5502303066
 20
3.6866340192
 30
0.0
 10
3.5444039076
 20
3.694914741
 30
0.0
 10
3.5400368038
 20
3.702245915
 30
0.0
 10
3.5368526446
 20
3.7083977455
 30
0.0
 10
3.5346260597
 20
3.7132167716
 30
0.0
 10
3.5325990377
 20
3.7182367724
 30
0.0
 10
3.5307945568
 20
3.7234822287
 30
0.0
 10
3.5292345828
 20
3.7289858799
 30
0.0
 10
3.5282038808
 20
3.7337760217
 30
0.0
 10
3.5275589996
 20
3.7377762856
 30
0.0
 10
3.5271828026
 20
3.7409274059
 30
0.0
 10
3.5269416807
 20
3.7442133712
 30
0.0
 10
3.5268866749
 20
3.7464526857
 30
0.0
 10
3.5268866749
 20
3.7475966936
 30
0.0
  0
SPLINE
  5
28F
100
AcDbEntity
  8
0
100
AcDbSpline
 62
7
  6
CONTINUOUS
 70
0
 71
3
 72
39
 73
35
 74
0
 42
0.0000001
 43
0.0000001
 44
0.0000000001
 40
0.0
 40
0.0
 40
0.0
 40
0.0
 40
0.0189207966
 40
0.0372305348
 40
0.0550542325
 40
0.0724822351
 40
0.1063471836
 40
0.1228752505
 40
0.1391807571
 40
0.171207758
 40
0.2025842549
 40
0.2334432417
 40
0.2638984405
 40
0.2940325334
 40
0.3239014194
 40
0.3830310758
 40
0.4416392352
 40
0.5000000007
 40
0.5583607662
 40
0.6169689255
 40
0.6760985819
 40
0.7059674678
 40
0.7361015607
 40
0.7665567595
 40
0.7974157462
 40
0.828792243
 40
0.8608192437
 40
0.8771247503
 40
0.8936528172
 40
0.9275177655
 40
0.944945768
 40
0.9627694655
 40
0.9810792036
 40
1.0
 40
1.0
 40
1.0
 40
1.0
 10
4.6595888415
 20
3.6352802346
 30
0.0
 10
4.6606112857
 20
3.6353547643
 30
0.0
 10
4.6626201824
 20
3.6355459231
 30
0.0
 10
4.6655760068
 20
3.6359523436
 30
0.0
 10
4.668435133
 20
3.6364530442
 30
0.0
 10
4.6721013653
 20
3.6372188275
 30
0.0
 10
4.6756614195
 20
3.6381399091
 30
0.0
 10
4.6791187724
 20
3.6391928085
 30
0.0
 10
4.6824532223
 20
3.6403035968
 30
0.0
 10
4.686497358
 20
3.6418246011
 30
0.0
 10
4.6911867581
 20
3.6438525133
 30
0.0
 10
4.6957033008
 20
3.6460520811
 30
0.0
 10
4.7000673008
 20
3.6484010319
 30
0.0
 10
4.7042941282
 20
3.6508843084
 30
0.0
 10
4.7097361177
 20
3.6543577425
 30
0.0
 10
4.7162438322
 20
3.6590183465
 30
0.0
 10
4.7236185146
 20
3.6650828487
 30
0.0
 10
4.7305501032
 20
3.6715882648
 30
0.0
 10
4.7370555193
 20
3.6785198534
 30
0.0
 10
4.7431200217
 20
3.6858945358
 30
0.0
 10
4.7477806256
 20
3.6924022502
 30
0.0
 10
4.7512540597
 20
3.6978442397
 30
0.0
 10
4.7537373363
 20
3.7020710671
 30
0.0
 10
4.7560862871
 20
3.7064350671
 30
0.0
 10
4.758285855
 20
3.7109516098
 30
0.0
 10
4.7603137672
 20
3.7156410098
 30
0.0
 10
4.7618347714
 20
3.7196851455
 30
0.0
 10
4.7629455598
 20
3.7230195954
 30
0.0
 10
4.7639984593
 20
3.7264769483
 30
0.0
 10
4.7649195408
 20
3.7300370025
 30
0.0
 10
4.7656853242
 20
3.7337032347
 30
0.0
 10
4.7661860248
 20
3.7365623609
 30
0.0
 10
4.7665924453
 20
3.7395181852
 30
0.0
 10
4.7667836042
 20
3.7415270819
 30
0.0
 10
4.7668581338
 20
3.7425495261
 30
0.0
  0
ENDSEC
  0
SECTION
  2
OBJECTS
  0
DICTIONARY
  5
C
100
AcDbDictionary
280
0
281
1
  3
ACAD_GROUP
350
D
  3
ACAD_MLINESTYLE
350
17
  3
ACAD_LAYOUT
350
1A
  3
ACAD_PLOTSETTINGS
350
19
  3
ACAD_PLOTSTYLENAME
350
E
  0
DICTIONARY
  5
D
102
{ACAD_REACTORS
330
C
102
}
100
AcDbDictionary
280
0
281
1
  0
ACDBDICTIONARYWDFLT
  5
E
102
{ACAD_REACTORS
330
C
102
}
100
AcDbDictionary
281
1
  3
Normal
350
F
100
AcDbDictionaryWithDefault
340
F
  0
DICTIONARY
  5
17
102
{ACAD_REACTORS
330
C
102
}
100
AcDbDictionary
280
0
281
1
  3
Standard
350
18
  0
DICTIONARY
  5
19
102
{ACAD_REACTORS
330
C
102
}
100
AcDbDictionary
281
1
  0
DICTIONARY
  5
1A
102
{ACAD_REACTORS
330
C
102
}
100
AcDbDictionary
281
1
  3
Model
350
290
  3
Layout1
350
291
  0
ACDBPLACEHOLDER
  5
F
102
{ACAD_REACTORS
330
E
102
}
  0
MLINESTYLE
  5
18
102
{ACAD_REACTORS
330
17
102
}
100
AcDbMlineStyle
  2
STANDARD
 70
0
  3

 62
256
 51
90.0
 52
90.0
 71
2
 49
0.5
 62
256
  6
BYLAYER
 49
-0.5
 62
256
  6
BYLAYER
  0
LAYOUT
  5
290
102
{ACAD_REACTORS
330
1A
102
}
100
AcDbPlotSettings
  1

  2
none_device
  4
ANSI_A_(11.00_x_8.50_Inches)
  6

 40
0.0
 41
0.0
 42
0.0
 43
0.0
 44
279.4
 45
215.9
 46
0.0
 47
0.0
 48
0.0
 49
0.0
140
0.0
141
0.0
142
1.0
143
1.0
 70
1024
 72
0
 73
0
 74
0
  7

 75
0
147
1.0
148
0.0
149
0.0
100
AcDbLayout
  1
Model
 70
0
 71
0
 10
0.0
 20
0.0
 11
11.0
 21
8.5
 12
0.0
 22
0.0
 32
0.0
 14
0.0
 24
0.0
 34
0.0
 15
0.0
 25
0.0
 35
0.0
146
0.0
 13
0.0
 23
0.0
 33
0.0
 16
1.0
 26
0.0
 36
0.0
 17
0.0
 27
1.0
 37
0.0
 76
0
330
21F
345
0
346
0
  0
LAYOUT
  5
291
102
{ACAD_REACTORS
330
1A
102
}
100
AcDbPlotSettings
  1

  2
none_device
  4
ANSI_A_(11.00_x_8.50_Inches)
  6

 40
0.0
 41
0.0
 42
0.0
 43
0.0
 44
279.4
 45
215.9
 46
0.0
 47
0.0
 48
0.0
 49
0.0
140
0.0
141
0.0
142
1.0
143
1.0
 70
0
 72
0
 73
0
 74
0
  7

 75
0
147
1.0
148
0.0
149
0.0
100
AcDbLayout
  1
Layout1
 70
0
 71
1
 10
0.0
 20
0.0
 11
11.0
 21
8.5
 12
0.0
 22
0.0
 32
0.0
 14
0.0
 24
0.0
 34
0.0
 15
0.0
 25
0.0
 35
0.0
146
0.0
 13
0.0
 23
0.0
 33
0.0
 16
1.0
 26
0.0
 36
0.0
 17
0.0
 27
1.0
 37
0.0
 76
0
330
220
345
0
346
0
  0
ENDSEC
  0
EOF
