999
DXF file: 3-1663ts_FRONT.dxf
999
Pro/ENGINEER 2013150 by Parametric Technology Corporation
  0
SECTION
  2
HEADER
  9
$ACADVER
  1
AC1021
  9
$DWGCODEPAGE
  3
ANSI_1252
  9
$EXTMAX
 10
11.0
 20
8.5
 30
0.0
  9
$EXTMIN
 10
0.0
 20
0.0
 30
0.0
  9
$LIMMIN
 10
0.0
 20
0.0
  9
$LIMMAX
 10
11.0
 20
8.5
  9
$VIEWCTR
 10
5.5
 20
4.25
  9
$VIEWSIZE
 40
8.5
  9
$CLAYER
  8
0
  9
$LTSCALE
 40
0.605
  9
$CELTYPE
  6
BYLAYER
  9
$DIMSCALE
 40
1.0
  9
$DIMASZ
 40
0.1
  9
$DIMEXO
 40
0.0625
  9
$DIMDLI
 40
0.418
  9
$DIMEXE
 40
0.125
  9
$DIMCEN
 40
0.099
  9
$DIMLFAC
 40
1.0
  9
$DIMBLK
  1
_FILLED
  9
$DIMTXT
 40
0.08
  9
$DIMTOL
 70
1
  9
$DIMLIM
 70
0
  9
$DIMTFAC
 40
1.0
  9
$DIMTP
 40
0.001
  9
$DIMTM
 40
0.001
  9
$DIMGAP
 40
0.09
  9
$DIMDSEP
 70
46
  9
$PDMODE
 70
3
  9
$PDSIZE
 40
0.06
  9
$HANDSEED
  5
481
  9
$TILEMODE
 70
1
  9
$MEASUREMENT
 70
0
  9
$INSUNITS
 70
1
  0
ENDSEC
  0
SECTION
  2
CLASSES
  0
CLASS
  1
ACDBDICTIONARYWDFLT
  2
AcDbDictionaryWithDefault
  3
AutoCAD 2000
 90
0
 91
1
280
0
281
0
  0
CLASS
  1
ACDBPLACEHOLDER
  2
AcDbPlaceHolder
  3
AutoCAD 2000
 90
0
 91
1
280
0
281
0
  0
CLASS
  1
LAYOUT
  2
AcDbLayout
  3
AutoCAD 2000
 90
0
 91
0
280
0
281
0
  0
ENDSEC
  0
SECTION
  2
TABLES
  0
TABLE
  2
VPORT
  5
8
100
AcDbSymbolTable
 70
2
  0
VPORT
  5
1F4
100
AcDbSymbolTableRecord
100
AcDbViewportTableRecord
  2
*ACTIVE
 70
0
 10
0.0
 20
0.0
 11
1.0
 21
1.0
 12
5.5
 22
4.25
 13
0.0
 23
0.0
 14
1.0
 24
1.0
 15
0.0
 25
0.0
 16
0.0
 26
0.0
 36
1.0
 17
0.0
 27
0.0
 37
0.0
 40
8.5
 41
1.2941176471
 42
50.0
 43
0.0
 44
0.0
 50
0.0
 51
0.0
 71
0
 72
100
 73
1
 74
1
 75
0
 76
0
 77
0
 78
0
  0
ENDTAB
  0
TABLE
  2
LTYPE
  5
5
100
AcDbSymbolTable
 70
6
  0
LTYPE
  5
14
100
AcDbSymbolTableRecord
100
AcDbLinetypeTableRecord
  2
BYBLOCK
 70
0
  3

 72
65
 73
0
 40
0.0
  0
LTYPE
  5
15
100
AcDbSymbolTableRecord
100
AcDbLinetypeTableRecord
  2
BYLAYER
 70
0
  3

 72
65
 73
0
 40
0.0
  0
LTYPE
  5
16
100
AcDbSymbolTableRecord
100
AcDbLinetypeTableRecord
  2
CONTINUOUS
 70
64
  3
Solid line
 72
65
 73
0
 40
0.0
  0
LTYPE
  5
1F5
100
AcDbSymbolTableRecord
100
AcDbLinetypeTableRecord
  2
CENTER
 70
64
  3
____ _ ____ _ ____ _ ____ _ ____ _ ____ _ ____
 72
65
 73
4
 40
0.6
 49
0.375
 74
0
 49
-0.075
 74
0
 49
0.075
 74
0
 49
-0.075
 74
0
  0
LTYPE
  5
1F6
100
AcDbSymbolTableRecord
100
AcDbLinetypeTableRecord
  2
HIDDEN
 70
64
  3
- - - - - - - - - - - - - - - - - - - -
 72
65
 73
2
 40
0.2
 49
0.1
 74
0
 49
-0.1
 74
0
  0
LTYPE
  5
1F7
100
AcDbSymbolTableRecord
100
AcDbLinetypeTableRecord
  2
PHANTOM
 70
64
  3
_____ _ _ _____ _ _ _____ _ _ _____
 72
65
 73
6
 40
0.8
 49
0.45
 74
0
 49
-0.05
 74
0
 49
0.1
 74
0
 49
-0.05
 74
0
 49
0.1
 74
0
 49
-0.05
 74
0
  0
LTYPE
  5
1F8
100
AcDbSymbolTableRecord
100
AcDbLinetypeTableRecord
  2
DOT
 70
64
  3
. . . . . . . . . . . . . . . . . . . .
 72
65
 73
2
 40
0.2
 49
0.1
 74
0
 49
-0.1
 74
0
  0
LTYPE
  5
1F9
100
AcDbSymbolTableRecord
100
AcDbLinetypeTableRecord
  2
DASHED
 70
64
  3
- - - - - - - - - - - - - - - - - - - -
 72
65
 73
2
 40
0.2
 49
0.1
 74
0
 49
-0.1
 74
0
  0
ENDTAB
  0
TABLE
  2
LAYER
  5
2
100
AcDbSymbolTable
 70
36
  0
LAYER
  5
10
100
AcDbSymbolTableRecord
100
AcDbLayerTableRecord
  2
0
 70
0
 62
7
  6
CONTINUOUS
370
-3
390
F
  0
LAYER
  5
1FA
100
AcDbSymbolTableRecord
100
AcDbLayerTableRecord
  2
DEFAULT_1
 70
0
 62
7
  6
CENTER
370
-3
390
F
  0
LAYER
  5
1FB
100
AcDbSymbolTableRecord
100
AcDbLayerTableRecord
  2
DEFAULT_2
 70
0
 62
8
  6
HIDDEN
370
-3
390
F
  0
LAYER
  5
1FC
100
AcDbSymbolTableRecord
100
AcDbLayerTableRecord
  2
DEFAULT_3
 70
0
 62
7
  6
PHANTOM
370
-3
390
F
  0
LAYER
  5
1FD
100
AcDbSymbolTableRecord
100
AcDbLayerTableRecord
  2
ALL_ASSEMBLY_MEMBERS
 70
0
 62
7
  6
CONTINUOUS
370
-3
390
F
  0
LAYER
  5
1FE
100
AcDbSymbolTableRecord
100
AcDbLayerTableRecord
  2
ALL_FEATURES
 70
0
 62
7
  6
CONTINUOUS
370
-3
390
F
  0
LAYER
  5
1FF
100
AcDbSymbolTableRecord
100
AcDbLayerTableRecord
  2
AXES_FEATURES
 70
0
 62
7
  6
CONTINUOUS
370
-3
390
F
  0
LAYER
  5
200
100
AcDbSymbolTableRecord
100
AcDbLayerTableRecord
  2
CHAMFER_FEATURES
 70
0
 62
7
  6
CONTINUOUS
370
-3
390
F
  0
LAYER
  5
201
100
AcDbSymbolTableRecord
100
AcDbLayerTableRecord
  2
COSMETIC_SKETCHES
 70
0
 62
7
  6
CONTINUOUS
370
-3
390
F
  0
LAYER
  5
202
100
AcDbSymbolTableRecord
100
AcDbLayerTableRecord
  2
CUT_FEATURES
 70
0
 62
7
  6
CONTINUOUS
370
-3
390
F
  0
LAYER
  5
203
100
AcDbSymbolTableRecord
100
AcDbLayerTableRecord
  2
DATUM_CURVES
 70
0
 62
7
  6
CONTINUOUS
370
-3
390
F
  0
LAYER
  5
204
100
AcDbSymbolTableRecord
100
AcDbLayerTableRecord
  2
DATUM_PLANES
 70
0
 62
7
  6
CONTINUOUS
370
-3
390
F
  0
LAYER
  5
205
100
AcDbSymbolTableRecord
100
AcDbLayerTableRecord
  2
DATUM_POINTS
 70
0
 62
7
  6
CONTINUOUS
370
-3
390
F
  0
LAYER
  5
206
100
AcDbSymbolTableRecord
100
AcDbLayerTableRecord
  2
DEFAULT_COORDINATE_SYSTEM
 70
0
 62
7
  6
CONTINUOUS
370
-3
390
F
  0
LAYER
  5
207
100
AcDbSymbolTableRecord
100
AcDbLayerTableRecord
  2
DEFAULT_DATUM_AXES
 70
0
 62
7
  6
CONTINUOUS
370
-3
390
F
  0
LAYER
  5
208
100
AcDbSymbolTableRecord
100
AcDbLayerTableRecord
  2
DEFAULT_DATUM_CURVES
 70
0
 62
7
  6
CONTINUOUS
370
-3
390
F
  0
LAYER
  5
209
100
AcDbSymbolTableRecord
100
AcDbLayerTableRecord
  2
DEFAULT_DATUM_PLANES
 70
0
 62
7
  6
CONTINUOUS
370
-3
390
F
  0
LAYER
  5
20A
100
AcDbSymbolTableRecord
100
AcDbLayerTableRecord
  2
DEFAULT_SURFACES
 70
0
 62
7
  6
CONTINUOUS
370
-3
390
F
  0
LAYER
  5
20B
100
AcDbSymbolTableRecord
100
AcDbLayerTableRecord
  2
DIMENSIONS
 70
0
 62
7
  6
CONTINUOUS
370
-3
390
F
  0
LAYER
  5
20C
100
AcDbSymbolTableRecord
100
AcDbLayerTableRecord
  2
HOLE_FEATURES
 70
0
 62
7
  6
CONTINUOUS
370
-3
390
F
  0
LAYER
  5
20D
100
AcDbSymbolTableRecord
100
AcDbLayerTableRecord
  2
HOLE_PATTERN
 70
0
 62
7
  6
CONTINUOUS
370
-3
390
F
  0
LAYER
  5
20E
100
AcDbSymbolTableRecord
100
AcDbLayerTableRecord
  2
INTFCLR_1
 70
0
 62
7
  6
CONTINUOUS
370
-3
390
F
  0
LAYER
  5
20F
100
AcDbSymbolTableRecord
100
AcDbLayerTableRecord
  2
NOTES
 70
0
 62
7
  6
CONTINUOUS
370
-3
390
F
  0
LAYER
  5
210
100
AcDbSymbolTableRecord
100
AcDbLayerTableRecord
  2
PART_REFERENCE_DIMENSIONS
 70
0
 62
7
  6
CONTINUOUS
370
-3
390
F
  0
LAYER
  5
211
100
AcDbSymbolTableRecord
100
AcDbLayerTableRecord
  2
PLATED_SURFACE_AREA
 70
0
 62
7
  6
CONTINUOUS
370
-3
390
F
  0
LAYER
  5
212
100
AcDbSymbolTableRecord
100
AcDbLayerTableRecord
  2
POINTS
 70
0
 62
7
  6
CONTINUOUS
370
-3
390
F
  0
LAYER
  5
213
100
AcDbSymbolTableRecord
100
AcDbLayerTableRecord
  2
PROTRUSION
 70
0
 62
7
  6
CONTINUOUS
370
-3
390
F
  0
LAYER
  5
214
100
AcDbSymbolTableRecord
100
AcDbLayerTableRecord
  2
PROTRUSION_FEATURES
 70
0
 62
7
  6
CONTINUOUS
370
-3
390
F
  0
LAYER
  5
215
100
AcDbSymbolTableRecord
100
AcDbLayerTableRecord
  2
QUILT
 70
0
 62
7
  6
CONTINUOUS
370
-3
390
F
  0
LAYER
  5
216
100
AcDbSymbolTableRecord
100
AcDbLayerTableRecord
  2
QUILTS
 70
0
 62
7
  6
CONTINUOUS
370
-3
390
F
  0
LAYER
  5
217
100
AcDbSymbolTableRecord
100
AcDbLayerTableRecord
  2
REFERENCE_DIMENSIONS
 70
0
 62
7
  6
CONTINUOUS
370
-3
390
F
  0
LAYER
  5
218
100
AcDbSymbolTableRecord
100
AcDbLayerTableRecord
  2
ROUND_FEATURES
 70
0
 62
7
  6
CONTINUOUS
370
-3
390
F
  0
LAYER
  5
219
100
AcDbSymbolTableRecord
100
AcDbLayerTableRecord
  2
SATIN_DIRECTION
 70
0
 62
7
  6
CONTINUOUS
370
-3
390
F
  0
LAYER
  5
21A
100
AcDbSymbolTableRecord
100
AcDbLayerTableRecord
  2
SHELL_FEATURES
 70
0
 62
7
  6
CONTINUOUS
370
-3
390
F
  0
LAYER
  5
21B
100
AcDbSymbolTableRecord
100
AcDbLayerTableRecord
  2
SIZE_REF
 70
0
 62
7
  6
CONTINUOUS
370
-3
390
F
  0
LAYER
  5
21C
100
AcDbSymbolTableRecord
100
AcDbLayerTableRecord
  2
SURFACE_FEATURES
 70
0
 62
7
  6
CONTINUOUS
370
-3
390
F
  0
LAYER
  5
21D
100
AcDbSymbolTableRecord
100
AcDbLayerTableRecord
  2
XSEC_DATUMS
 70
0
 62
7
  6
CONTINUOUS
370
-3
390
F
  0
ENDTAB
  0
TABLE
  2
STYLE
  5
3
100
AcDbSymbolTable
 70
1
  0
STYLE
  5
11
100
AcDbSymbolTableRecord
100
AcDbTextStyleTableRecord
  2
STANDARD
 70
0
 40
0.0
 41
0.8
 50
0.0
 71
0
 42
0.2
  3
txt
  4

  0
STYLE
  5
21E
100
AcDbSymbolTableRecord
100
AcDbTextStyleTableRecord
  2
TEXTSTYLE_1
 70
0
 40
0.0
 41
0.8
 50
0.0
 71
0
 42
0.2
  3
gdt
  4

  0
ENDTAB
  0
TABLE
  2
VIEW
  5
6
100
AcDbSymbolTable
 70
0
  0
ENDTAB
  0
TABLE
  2
UCS
  5
7
100
AcDbSymbolTable
 70
0
  0
ENDTAB
  0
TABLE
  2
APPID
  5
9
100
AcDbSymbolTable
 70
1
  0
APPID
  5
21F
100
AcDbSymbolTableRecord
100
AcDbRegAppTableRecord
  2
ACAD
 70
0
  0
ENDTAB
  0
TABLE
  2
BLOCK_RECORD
  5
1
100
AcDbSymbolTable
 70
0
  0
BLOCK_RECORD
  5
220
100
AcDbSymbolTableRecord
100
AcDbBlockTableRecord
  2
*Model_Space
  0
BLOCK_RECORD
  5
221
100
AcDbSymbolTableRecord
100
AcDbBlockTableRecord
  2
*Paper_Space
  0
ENDTAB
  0
TABLE
  2
DIMSTYLE
  5
A
100
AcDbSymbolTable
 70
1
100
AcDbDimStyleTable
 71
0
  0
DIMSTYLE
105
222
100
AcDbSymbolTableRecord
100
AcDbDimStyleTableRecord
  2
STANDARD
 70
0
  3

  4

 40
1.0
 41
0.1
 42
0.0625
 43
0.38
 44
0.125
 45
0.0
 46
0.0
 47
0.001
 48
0.001
140
0.08
141
0.09
142
0.0
143
25.4
144
1.0
145
0.0
146
1.0
147
0.09
 71
1.0
 72
0.0
 73
1
 74
1
 75
0
 76
0
 77
0
 78
4
170
0
171
2
172
0
173
0
174
0
175
0
176
0
177
0
178
0
270
2
271
3
272
3
273
2
274
2
275
0
280
0
281
0
282
0
283
1
284
4
285
0
286
0
287
3
288
0
340
11
278
46
  0
ENDTAB
  0
ENDSEC
  0
SECTION
  2
BLOCKS
  0
BLOCK
  5
20
100
AcDbEntity
  8
0
100
AcDbBlockBegin
  2
*Model_Space
 70
0
 10
0.0
 20
0.0
 30
0.0
  3
*Model_Space
  1

  0
ENDBLK
  5
21
100
AcDbEntity
  8
0
100
AcDbBlockEnd
  0
BLOCK
  5
1C
100
AcDbEntity
  8
0
100
AcDbBlockBegin
  2
*Paper_Space
 70
0
 10
0.0
 20
0.0
 30
0.0
  3
*Paper_Space
  1

  0
ENDBLK
  5
1D
100
AcDbEntity
  8
0
100
AcDbBlockEnd
  0
ENDSEC
  0
SECTION
  2
ENTITIES
  0
LINE
  5
223
100
AcDbEntity
  8
0
100
AcDbLine
 62
7
  6
CONTINUOUS
 10
0.0
 20
0.0
 11
0.0
 21
8.5
  0
LINE
  5
224
100
AcDbEntity
  8
0
100
AcDbLine
 62
7
  6
CONTINUOUS
 10
0.0
 20
0.0
 11
11.0
 21
0.0
  0
LINE
  5
225
100
AcDbEntity
  8
0
100
AcDbLine
 62
7
  6
CONTINUOUS
 10
0.0
 20
8.5
 11
11.0
 21
8.5
  0
LINE
  5
226
100
AcDbEntity
  8
0
100
AcDbLine
 62
7
  6
CONTINUOUS
 10
11.0
 20
0.0
 11
11.0
 21
8.5
  0
LINE
  5
227
100
AcDbEntity
  8
ALL_FEATURES
100
AcDbLine
 62
7
  6
CONTINUOUS
 10
3.5344672767
 20
1.3635235732
 11
6.2794672767
 21
1.3635235732
  0
LINE
  5
228
100
AcDbEntity
  8
ALL_FEATURES
100
AcDbLine
 62
7
  6
CONTINUOUS
 10
3.5344672767
 20
1.4572735732
 11
6.2794672767
 21
1.4572735732
  0
LINE
  5
229
100
AcDbEntity
  8
ALL_FEATURES
100
AcDbLine
 62
7
  6
CONTINUOUS
 10
3.1594672767
 20
1.7385235732
 11
3.1894672767
 21
1.7385235732
  0
LINE
  5
22A
100
AcDbEntity
  8
ALL_FEATURES
100
AcDbLine
 62
7
  6
CONTINUOUS
 10
6.6244672767
 20
1.7385235732
 11
6.6544672767
 21
1.7385235732
  0
LINE
  5
22B
100
AcDbEntity
  8
ALL_FEATURES
100
AcDbLine
 62
7
  6
CONTINUOUS
 10
3.1594672767
 20
1.8322735732
 11
3.1894672767
 21
1.8322735732
  0
LINE
  5
22C
100
AcDbEntity
  8
ALL_FEATURES
100
AcDbLine
 62
7
  6
CONTINUOUS
 10
6.6244672767
 20
1.8322735732
 11
6.6544672767
 21
1.8322735732
  0
LINE
  5
22D
100
AcDbEntity
  8
ALL_ASSEMBLY_MEMBERS
100
AcDbLine
 62
7
  6
CONTINUOUS
 10
5.0858308769
 20
2.2447735732
 11
5.0732176978
 21
2.2447735732
  0
LINE
  5
22E
100
AcDbEntity
  8
ALL_ASSEMBLY_MEMBERS
100
AcDbLine
 62
7
  6
CONTINUOUS
 10
4.9936681849
 20
2.2447735732
 11
4.9632172767
 21
2.2447735732
  0
LINE
  5
22F
100
AcDbEntity
  8
ALL_ASSEMBLY_MEMBERS
100
AcDbLine
 62
7
  6
CONTINUOUS
 10
4.8507172767
 20
2.2447735732
 11
4.8202663685
 21
2.2447735732
  0
LINE
  5
230
100
AcDbEntity
  8
ALL_ASSEMBLY_MEMBERS
100
AcDbLine
 62
7
  6
CONTINUOUS
 10
4.7281036764
 20
2.2447735732
 11
4.7407168556
 21
2.2447735732
  0
LINE
  5
231
100
AcDbEntity
  8
ALL_FEATURES
100
AcDbLine
 62
7
  6
CONTINUOUS
 10
2.8444672767
 20
6.8610235732
 11
2.8444672767
 21
2.0535235732
  0
LINE
  5
232
100
AcDbEntity
  8
ALL_FEATURES
100
AcDbLine
 62
7
  6
CONTINUOUS
 10
2.9382172767
 20
6.8610235732
 11
2.9382172767
 21
2.0535235732
  0
LINE
  5
233
100
AcDbEntity
  8
ALL_FEATURES
100
AcDbLine
 62
7
  6
CONTINUOUS
 10
3.2194672767
 20
7.2360235732
 11
3.2194672767
 21
7.2060235732
  0
LINE
  5
234
100
AcDbEntity
  8
ALL_FEATURES
100
AcDbLine
 62
7
  6
CONTINUOUS
 10
3.2194672767
 20
1.7085235732
 11
3.2194672767
 21
1.6785235732
  0
LINE
  5
235
100
AcDbEntity
  8
ALL_FEATURES
100
AcDbLine
 62
7
  6
CONTINUOUS
 10
3.3132172767
 20
7.2360235732
 11
3.3132172767
 21
7.2060235732
  0
LINE
  5
236
100
AcDbEntity
  8
ALL_FEATURES
100
AcDbLine
 62
7
  6
CONTINUOUS
 10
3.3132172767
 20
1.7085235732
 11
3.3132172767
 21
1.6785235732
  0
LINE
  5
237
100
AcDbEntity
  8
0
100
AcDbLine
 62
7
  6
CONTINUOUS
 10
4.0250133486
 20
3.4478442
 11
4.0210543468
 21
3.4491305577
  0
LINE
  5
238
100
AcDbEntity
  8
0
100
AcDbLine
 62
7
  6
CONTINUOUS
 10
4.1435398644
 20
3.4102306453
 11
4.1383626938
 21
3.41191281
  0
LINE
  5
239
100
AcDbEntity
  8
0
100
AcDbLine
 62
7
  6
CONTINUOUS
 10
4.1283134765
 20
3.4372923814
 11
4.0364444224
 21
3.4671424466
  0
LINE
  5
23A
100
AcDbEntity
  8
0
100
AcDbLine
 62
9
  6
CONTINUOUS
 10
5.7350518843
 20
3.4907519573
 11
5.7348947229
 21
3.490709846
  0
LINE
  5
23B
100
AcDbEntity
  8
0
100
AcDbLine
 62
7
  6
CONTINUOUS
 10
5.7791729498
 20
3.5459010181
 11
5.779014859
 21
3.5458586578
  0
LINE
  5
23C
100
AcDbEntity
  8
0
100
AcDbLine
 62
9
  6
CONTINUOUS
 10
5.6474431257
 20
3.513367311
 11
5.647285023
 21
3.5133249475
  0
LINE
  5
23D
100
AcDbEntity
  8
0
100
AcDbLine
 62
9
  6
CONTINUOUS
 10
5.6509963886
 20
3.5243855117
 11
5.6508382161
 21
3.5243431295
  0
LINE
  5
23E
100
AcDbEntity
  8
0
100
AcDbLine
 62
9
  6
CONTINUOUS
 10
5.6515071268
 20
3.534903886
 11
5.6513489423
 21
3.5348615006
  0
LINE
  5
23F
100
AcDbEntity
  8
0
100
AcDbLine
 62
9
  6
CONTINUOUS
 10
5.6784091773
 20
3.5758642562
 11
5.6782513515
 21
3.5758219669
  0
LINE
  5
240
100
AcDbEntity
  8
0
100
AcDbLine
 62
9
  6
CONTINUOUS
 10
5.7182697636
 20
3.6057124905
 11
5.7181123656
 21
3.6056703158
  0
LINE
  5
241
100
AcDbEntity
  8
0
100
AcDbLine
 62
7
  6
CONTINUOUS
 10
5.6982657225
 20
3.6177284328
 11
5.6981089147
 21
3.6176864163
  0
LINE
  5
242
100
AcDbEntity
  8
0
100
AcDbLine
 62
9
  6
CONTINUOUS
 10
5.6218686643
 20
3.6187002792
 11
5.6217129968
 21
3.6186585682
  0
LINE
  5
243
100
AcDbEntity
  8
0
100
AcDbLine
 62
9
  6
CONTINUOUS
 10
5.739222291
 20
3.6627175642
 11
5.7390668828
 21
3.6626759227
  0
LINE
  5
244
100
AcDbEntity
  8
0
100
AcDbLine
 62
9
  6
CONTINUOUS
 10
5.6571026182
 20
3.6480361762
 11
5.6569479241
 21
3.647994726
  0
LINE
  5
245
100
AcDbEntity
  8
0
100
AcDbLine
 62
7
  6
CONTINUOUS
 10
4.1604780808
 20
3.2575534201
 11
4.0484328946
 21
3.2477507365
  0
LINE
  5
246
100
AcDbEntity
  8
0
100
AcDbLine
 62
7
  6
CONTINUOUS
 10
4.0467987244
 20
3.2664293871
 11
4.1588439107
 21
3.2762320707
  0
LINE
  5
247
100
AcDbEntity
  8
0
100
AcDbLine
 62
7
  6
CONTINUOUS
 10
5.7548680256
 20
3.1732461697
 11
5.6441035653
 21
3.1927769326
  0
LINE
  5
248
100
AcDbEntity
  8
0
100
AcDbLine
 62
7
  6
CONTINUOUS
 10
5.6473594686
 20
3.2112420779
 11
5.758123929
 21
3.1917113151
  0
LINE
  5
249
100
AcDbEntity
  8
0
100
AcDbLine
 62
7
  6
CONTINUOUS
 10
4.1340855065
 20
3.4550616937
 11
4.0131840199
 21
3.494344968
  0
LINE
  5
24A
100
AcDbEntity
  8
0
100
AcDbLine
 62
7
  6
CONTINUOUS
 10
4.1623070731
 20
3.4680063337
 11
4.1571299357
 21
3.4696884876
  0
LINE
  5
24B
100
AcDbEntity
  8
0
100
AcDbLine
 62
7
  6
CONTINUOUS
 10
4.0586582585
 20
3.5514131738
 11
4.0546992848
 21
3.5526995224
  0
LINE
  5
24C
100
AcDbEntity
  8
0
100
AcDbLine
 62
7
  6
CONTINUOUS
 10
4.1771838507
 20
3.5137999239
 11
4.1720067291
 21
3.5154820727
  0
LINE
  5
24D
100
AcDbEntity
  8
0
100
AcDbLine
 62
7
  6
CONTINUOUS
 10
4.1619589748
 20
3.5408611735
 11
4.0700905192
 21
3.5707110442
  0
LINE
  5
24E
100
AcDbEntity
  8
0
100
AcDbLine
 62
7
  6
CONTINUOUS
 10
4.0468312888
 20
3.5979131754
 11
4.1677321752
 21
3.5586300961
  0
LINE
  5
24F
100
AcDbEntity
  8
0
100
AcDbLine
 62
7
  6
CONTINUOUS
 10
4.1907778648
 20
3.5732564757
 11
4.1959549805
 21
3.5715743289
  0
LINE
  5
250
100
AcDbEntity
  8
0
100
AcDbLine
 62
7
  6
CONTINUOUS
 10
4.0748662727
 20
3.6758022637
 11
4.0867930122
 21
3.6644078679
  0
LINE
  5
251
100
AcDbEntity
  8
0
100
AcDbLine
 62
7
  6
CONTINUOUS
 10
5.779014859
 20
3.5458586578
 11
5.7627350251
 21
3.548932517
  0
LINE
  5
252
100
AcDbEntity
  8
0
100
AcDbLine
 62
9
  6
CONTINUOUS
 10
5.5123181285
 20
2.8680972288
 11
5.5121842573
 21
2.8681909665
  0
LINE
  5
253
100
AcDbEntity
  8
0
100
AcDbLine
 62
9
  6
CONTINUOUS
 10
5.5230426354
 20
2.8724575768
 11
5.5229086228
 21
2.8725514135
  0
LINE
  5
254
100
AcDbEntity
  8
0
100
AcDbLine
 62
9
  6
CONTINUOUS
 10
5.531428557
 20
2.8788273512
 11
5.531294451
 21
2.8789212531
  0
LINE
  5
255
100
AcDbEntity
  8
0
100
AcDbLine
 62
7
  6
CONTINUOUS
 10
4.0753611393
 20
3.6773253064
 11
4.0748662727
 21
3.6758022637
  0
LINE
  5
256
100
AcDbEntity
  8
0
100
AcDbLine
 62
7
  6
CONTINUOUS
 10
4.4480219877
 20
3.925736666
 11
4.3803339379
 21
4.015561742
  0
LINE
  5
257
100
AcDbEntity
  8
0
100
AcDbLine
 62
7
  6
CONTINUOUS
 10
4.3953083537
 20
4.0268457737
 11
4.4629964035
 21
3.9370206977
  0
LINE
  5
258
100
AcDbEntity
  8
0
100
AcDbLine
 62
9
  6
CONTINUOUS
 10
4.7625922767
 20
4.0500235732
 11
5.0513422767
 21
4.0500235732
  0
LINE
  5
259
100
AcDbEntity
  8
0
100
AcDbLine
 62
7
  6
CONTINUOUS
 10
4.7700922767
 20
4.0575235732
 11
5.0438422767
 21
4.0575235732
  0
LINE
  5
25A
100
AcDbEntity
  8
ALL_ASSEMBLY_MEMBERS
100
AcDbLine
 62
7
  6
CONTINUOUS
 10
4.9632172767
 20
2.2447735732
 11
4.9069672767
 21
2.8822735732
  0
LINE
  5
25B
100
AcDbEntity
  8
ALL_ASSEMBLY_MEMBERS
100
AcDbLine
 62
7
  6
CONTINUOUS
 10
5.0891440808
 20
2.2004129821
 11
5.0382172767
 21
2.8822735732
  0
LINE
  5
25C
100
AcDbEntity
  8
ALL_ASSEMBLY_MEMBERS
100
AcDbLine
 62
7
  6
CONTINUOUS
 10
4.8202663685
 20
2.2447735732
 11
4.8141595116
 21
2.8822735732
  0
LINE
  5
25D
100
AcDbEntity
  8
ALL_ASSEMBLY_MEMBERS
100
AcDbLine
 62
7
  6
CONTINUOUS
 10
4.8202663685
 20
4.6072735732
 11
4.8141595116
 21
5.2447735732
  0
LINE
  5
25E
100
AcDbEntity
  8
0
100
AcDbLine
 62
7
  6
CONTINUOUS
 10
4.7518427223
 20
4.2067755305
 11
4.7518427223
 21
4.2109382684
  0
LINE
  5
25F
100
AcDbEntity
  8
0
100
AcDbLine
 62
7
  6
CONTINUOUS
 10
4.7526968137
 20
4.0824269855
 11
4.7526968137
 21
4.0878705798
  0
LINE
  5
260
100
AcDbEntity
  8
0
100
AcDbLine
 62
7
  6
CONTINUOUS
 10
4.7625922767
 20
3.935443116
 11
4.7625922767
 21
4.0500235732
  0
LINE
  5
261
100
AcDbEntity
  8
0
100
AcDbLine
 62
7
  6
CONTINUOUS
 10
4.7737288416
 20
4.1052705643
 11
4.7737288416
 21
4.2018673367
  0
LINE
  5
262
100
AcDbEntity
  8
ALL_ASSEMBLY_MEMBERS
100
AcDbLine
 62
7
  6
CONTINUOUS
 10
4.7757172767
 20
5.3435468659
 11
4.7757172767
 21
5.2447735725
  0
LINE
  5
263
100
AcDbEntity
  8
ALL_ASSEMBLY_MEMBERS
100
AcDbLine
 62
7
  6
CONTINUOUS
 10
4.7757172767
 20
2.9810468659
 11
4.7757172767
 21
2.8822735725
  0
LINE
  5
264
100
AcDbEntity
  8
0
100
AcDbLine
 62
7
  6
CONTINUOUS
 10
4.7924121172
 20
4.105271974
 11
4.7924121172
 21
4.232395245
  0
LINE
  5
265
100
AcDbEntity
  8
0
100
AcDbLine
 62
9
  6
CONTINUOUS
 10
4.7970243722
 20
4.0910858808
 11
4.7970243722
 21
4.0909258911
  0
LINE
  5
266
100
AcDbEntity
  8
0
100
AcDbLine
 62
7
  6
CONTINUOUS
 10
4.8134441451
 20
4.0824317017
 11
4.8134441451
 21
4.0878752629
  0
LINE
  5
267
100
AcDbEntity
  8
0
100
AcDbLine
 62
9
  6
CONTINUOUS
 10
4.8525188808
 20
4.2090226947
 11
4.8525188808
 21
4.2088597325
  0
LINE
  5
268
100
AcDbEntity
  8
0
100
AcDbLine
 62
9
  6
CONTINUOUS
 10
4.9258253951
 20
4.210920772
 11
4.9258253951
 21
4.2107571009
  0
LINE
  5
269
100
AcDbEntity
  8
ALL_ASSEMBLY_MEMBERS
100
AcDbLine
 62
7
  6
CONTINUOUS
 10
4.7247904726
 20
4.5629129821
 11
4.7757172767
 21
5.2447735732
  0
LINE
  5
26A
100
AcDbEntity
  8
ALL_ASSEMBLY_MEMBERS
100
AcDbLine
 62
7
  6
CONTINUOUS
 10
4.7247904726
 20
2.2004129821
 11
4.7757172767
 21
2.8822735732
  0
LINE
  5
26B
100
AcDbEntity
  8
ALL_ASSEMBLY_MEMBERS
100
AcDbLine
 62
7
  6
CONTINUOUS
 10
4.8507172767
 20
4.6072735732
 11
4.9069672767
 21
5.2447735732
  0
LINE
  5
26C
100
AcDbEntity
  8
ALL_ASSEMBLY_MEMBERS
100
AcDbLine
 62
7
  6
CONTINUOUS
 10
4.7407168556
 20
4.6072735732
 11
4.8141595116
 21
5.2447735732
  0
LINE
  5
26D
100
AcDbEntity
  8
ALL_ASSEMBLY_MEMBERS
100
AcDbLine
 62
7
  6
CONTINUOUS
 10
5.0732176978
 20
2.2447735732
 11
4.9997750417
 21
2.8822735732
  0
LINE
  5
26E
100
AcDbEntity
  8
ALL_ASSEMBLY_MEMBERS
100
AcDbLine
 62
7
  6
CONTINUOUS
 10
4.9632172767
 20
4.6072735732
 11
4.9069672767
 21
5.2447735732
  0
LINE
  5
26F
100
AcDbEntity
  8
ALL_ASSEMBLY_MEMBERS
100
AcDbLine
 62
7
  6
CONTINUOUS
 10
5.0891440808
 20
4.5629129821
 11
5.0382172767
 21
5.2447735732
  0
LINE
  5
270
100
AcDbEntity
  8
0
100
AcDbLine
 62
9
  6
CONTINUOUS
 10
4.9614156817
 20
4.2090226947
 11
4.9614156817
 21
4.2088597325
  0
LINE
  5
271
100
AcDbEntity
  8
0
100
AcDbLine
 62
9
  6
CONTINUOUS
 10
5.0347222049
 20
4.2109164632
 11
5.0347222049
 21
4.2107571009
  0
LINE
  5
272
100
AcDbEntity
  8
ALL_ASSEMBLY_MEMBERS
100
AcDbLine
 62
7
  6
CONTINUOUS
 10
5.0382172767
 20
5.3435468659
 11
5.0382172767
 21
5.2447735725
  0
LINE
  5
273
100
AcDbEntity
  8
ALL_ASSEMBLY_MEMBERS
100
AcDbLine
 62
7
  6
CONTINUOUS
 10
5.0382172767
 20
2.9810468659
 11
5.0382172767
 21
2.8822735725
  0
LINE
  5
274
100
AcDbEntity
  8
0
100
AcDbLine
 62
7
  6
CONTINUOUS
 10
5.0513422767
 20
3.9354432089
 11
5.0513422767
 21
4.0500235732
  0
LINE
  5
275
100
AcDbEntity
  8
ALL_ASSEMBLY_MEMBERS
100
AcDbLine
 62
7
  6
CONTINUOUS
 10
4.9936681849
 20
4.6072735732
 11
4.9997750417
 21
5.2447735732
  0
LINE
  5
276
100
AcDbEntity
  8
ALL_ASSEMBLY_MEMBERS
100
AcDbLine
 62
7
  6
CONTINUOUS
 10
4.9936681849
 20
2.2447735732
 11
4.9997750417
 21
2.8822735732
  0
LINE
  5
277
100
AcDbEntity
  8
ALL_ASSEMBLY_MEMBERS
100
AcDbLine
 62
7
  6
CONTINUOUS
 10
4.8507172767
 20
2.2447735732
 11
4.9069672767
 21
2.8822735732
  0
LINE
  5
278
100
AcDbEntity
  8
ALL_ASSEMBLY_MEMBERS
100
AcDbLine
 62
7
  6
CONTINUOUS
 10
4.7407168556
 20
2.2447735732
 11
4.8141595116
 21
2.8822735732
  0
LINE
  5
279
100
AcDbEntity
  8
ALL_ASSEMBLY_MEMBERS
100
AcDbLine
 62
7
  6
CONTINUOUS
 10
5.0858308769
 20
4.6072735732
 11
5.0732176978
 21
4.6072735732
  0
LINE
  5
27A
100
AcDbEntity
  8
ALL_ASSEMBLY_MEMBERS
100
AcDbLine
 62
7
  6
CONTINUOUS
 10
4.9936681849
 20
4.6072735732
 11
4.9632172767
 21
4.6072735732
  0
LINE
  5
27B
100
AcDbEntity
  8
ALL_ASSEMBLY_MEMBERS
100
AcDbLine
 62
7
  6
CONTINUOUS
 10
4.8507172767
 20
4.6072735732
 11
4.8202663685
 21
4.6072735732
  0
LINE
  5
27C
100
AcDbEntity
  8
ALL_ASSEMBLY_MEMBERS
100
AcDbLine
 62
7
  6
CONTINUOUS
 10
4.7281036764
 20
4.6072735732
 11
4.7407168556
 21
4.6072735732
  0
LINE
  5
27D
100
AcDbEntity
  8
ALL_ASSEMBLY_MEMBERS
100
AcDbLine
 62
7
  6
CONTINUOUS
 10
5.0732176978
 20
4.6072735732
 11
4.9997750417
 21
5.2447735732
  0
LINE
  5
27E
100
AcDbEntity
  8
0
100
AcDbLine
 62
7
  6
CONTINUOUS
 10
5.3819797222
 20
3.9129562726
 11
5.4542760892
 21
3.9991157276
  0
LINE
  5
27F
100
AcDbEntity
  8
0
100
AcDbLine
 62
7
  6
CONTINUOUS
 10
5.4686394225
 20
3.9870634599
 11
5.3963430555
 21
3.9009040049
  0
LINE
  5
280
100
AcDbEntity
  8
0
100
AcDbLine
 62
7
  6
CONTINUOUS
 10
5.7916979103
 20
3.4985248658
 11
5.779014859
 21
3.5458586578
  0
LINE
  5
281
100
AcDbEntity
  8
0
100
AcDbLine
 62
9
  6
CONTINUOUS
 10
4.1842847784
 20
3.036942618
 11
4.1844236439
 21
3.037022792
  0
LINE
  5
282
100
AcDbEntity
  8
0
100
AcDbLine
 62
9
  6
CONTINUOUS
 10
4.2072657568
 20
3.0016694844
 11
4.2074065047
 21
3.0017507453
  0
LINE
  5
283
100
AcDbEntity
  8
0
100
AcDbLine
 62
9
  6
CONTINUOUS
 10
4.1360875765
 20
2.8896406984
 11
4.1362294023
 21
2.8897225815
  0
LINE
  5
284
100
AcDbEntity
  8
0
100
AcDbLine
 62
9
  6
CONTINUOUS
 10
4.1400474008
 20
2.8603678336
 11
4.1401890817
 21
2.8604496332
  0
LINE
  5
285
100
AcDbEntity
  8
0
100
AcDbLine
 62
7
  6
CONTINUOUS
 10
4.2942098447
 20
2.8932822365
 11
4.2911594438
 21
2.8915210867
  0
LINE
  5
286
100
AcDbEntity
  8
0
100
AcDbLine
 62
7
  6
CONTINUOUS
 10
4.3078232446
 20
2.8697061405
 11
4.3031089795
 21
2.8669843583
  0
LINE
  5
287
100
AcDbEntity
  8
0
100
AcDbLine
 62
7
  6
CONTINUOUS
 10
4.2985590727
 20
2.8400717745
 11
4.1884670257
 21
2.7765101015
  0
LINE
  5
288
100
AcDbEntity
  8
0
100
AcDbLine
 62
7
  6
CONTINUOUS
 10
4.3079020033
 20
2.8238923296
 11
4.224246686
 21
2.7755939096
  0
LINE
  5
289
100
AcDbEntity
  8
0
100
AcDbLine
 62
7
  6
CONTINUOUS
 10
4.3382012347
 20
2.8170999051
 11
4.3334869394
 21
2.8143781054
  0
LINE
  5
28A
100
AcDbEntity
  8
0
100
AcDbLine
 62
7
  6
CONTINUOUS
 10
4.2309391968
 20
2.7541859188
 11
4.2273341574
 21
2.7521045484
  0
LINE
  5
28B
100
AcDbEntity
  8
ALL_FEATURES
100
AcDbLine
 62
7
  6
CONTINUOUS
 10
6.5007172767
 20
1.6785235732
 11
6.5007172767
 21
1.7085235732
  0
LINE
  5
28C
100
AcDbEntity
  8
ALL_FEATURES
100
AcDbLine
 62
7
  6
CONTINUOUS
 10
6.5007172767
 20
7.2060235732
 11
6.5007172767
 21
7.2360235732
  0
LINE
  5
28D
100
AcDbEntity
  8
ALL_FEATURES
100
AcDbLine
 62
7
  6
CONTINUOUS
 10
6.5944672767
 20
1.6785235732
 11
6.5944672767
 21
1.7085235732
  0
LINE
  5
28E
100
AcDbEntity
  8
ALL_FEATURES
100
AcDbLine
 62
7
  6
CONTINUOUS
 10
6.5944672767
 20
7.2060235732
 11
6.5944672767
 21
7.2360235732
  0
LINE
  5
28F
100
AcDbEntity
  8
ALL_FEATURES
100
AcDbLine
 62
7
  6
CONTINUOUS
 10
6.8757172767
 20
2.0535235732
 11
6.8757172767
 21
6.8610235732
  0
LINE
  5
290
100
AcDbEntity
  8
ALL_FEATURES
100
AcDbLine
 62
7
  6
CONTINUOUS
 10
6.9694672767
 20
2.0535235732
 11
6.9694672767
 21
6.8610235732
  0
LINE
  5
291
100
AcDbEntity
  8
ALL_FEATURES
100
AcDbLine
 62
7
  6
CONTINUOUS
 10
6.6544672767
 20
7.0822735732
 11
6.6244672767
 21
7.0822735732
  0
LINE
  5
292
100
AcDbEntity
  8
ALL_FEATURES
100
AcDbLine
 62
7
  6
CONTINUOUS
 10
3.1894672767
 20
7.0822735732
 11
3.1594672767
 21
7.0822735732
  0
LINE
  5
293
100
AcDbEntity
  8
ALL_FEATURES
100
AcDbLine
 62
7
  6
CONTINUOUS
 10
6.6544672767
 20
7.1760235732
 11
6.6244672767
 21
7.1760235732
  0
LINE
  5
294
100
AcDbEntity
  8
ALL_FEATURES
100
AcDbLine
 62
7
  6
CONTINUOUS
 10
3.1894672767
 20
7.1760235732
 11
3.1594672767
 21
7.1760235732
  0
LINE
  5
295
100
AcDbEntity
  8
ALL_FEATURES
100
AcDbLine
 62
7
  6
CONTINUOUS
 10
6.2794672767
 20
7.4572735732
 11
3.5344672767
 21
7.4572735732
  0
LINE
  5
296
100
AcDbEntity
  8
ALL_FEATURES
100
AcDbLine
 62
7
  6
CONTINUOUS
 10
6.2794672767
 20
7.5510235732
 11
3.5344672767
 21
7.5510235732
  0
ARC
  5
297
100
AcDbEntity
  8
0
100
AcDbCircle
 62
7
  6
CONTINUOUS
 10
3.4489075784
 20
-0.9939383808
 40
3.9755491318
100
AcDbArc
 50
78.2363721803
 51
78.404997662
  0
ARC
  5
298
100
AcDbEntity
  8
0
100
AcDbCircle
 62
7
  6
CONTINUOUS
 10
3.8686352447
 20
1.3807928157
 40
1.5746139861
100
AcDbArc
 50
75.4070310106
 51
76.0415308946
  0
ARC
  5
299
100
AcDbEntity
  8
0
100
AcDbCircle
 62
7
  6
CONTINUOUS
 10
3.9954875311
 20
1.8946556727
 40
1.0453240063
100
AcDbArc
 50
76.1879158122
 51
76.7730431885
  0
ARC
  5
29A
100
AcDbEntity
  8
0
100
AcDbCircle
 62
7
  6
CONTINUOUS
 10
4.0744434164
 20
2.2338911858
 40
0.6970225541
100
AcDbArc
 50
76.7106683111
 51
77.9135613767
  0
ARC
  5
29B
100
AcDbEntity
  8
0
100
AcDbCircle
 62
7
  6
CONTINUOUS
 10
3.7824200578
 20
2.2416459199
 40
0.681077579
100
AcDbArc
 50
48.8111220309
 51
49.2669839164
  0
ARC
  5
29C
100
AcDbEntity
  8
ALL_FEATURES
100
AcDbCircle
 62
7
  6
CONTINUOUS
 10
3.5344672767
 20
1.6785235732
 40
0.315
100
AcDbArc
 50
180.0
 51
270.0
  0
ARC
  5
29D
100
AcDbEntity
  8
ALL_FEATURES
100
AcDbCircle
 62
7
  6
CONTINUOUS
 10
3.1594672767
 20
2.0535235732
 40
0.315
100
AcDbArc
 50
180.0
 51
270.0
  0
ARC
  5
29E
100
AcDbEntity
  8
ALL_FEATURES
100
AcDbCircle
 62
7
  6
CONTINUOUS
 10
3.5344672767
 20
1.6785235732
 40
0.22125
100
AcDbArc
 50
180.0
 51
270.0
  0
ARC
  5
29F
100
AcDbEntity
  8
ALL_FEATURES
100
AcDbCircle
 62
7
  6
CONTINUOUS
 10
3.1594672767
 20
2.0535235732
 40
0.22125
100
AcDbArc
 50
180.0
 51
270.0
  0
ARC
  5
2A0
100
AcDbEntity
  8
ALL_FEATURES
100
AcDbCircle
 62
7
  6
CONTINUOUS
 10
3.1894672767
 20
1.7085235732
 40
0.12375
100
AcDbArc
 50
0.0
 51
90.0
  0
ARC
  5
2A1
100
AcDbEntity
  8
0
100
AcDbCircle
 62
7
  6
CONTINUOUS
 10
4.1815970787
 20
2.8971303658
 40
0.0603007897
100
AcDbArc
 50
272.7152769447
 51
276.6712426468
  0
ARC
  5
2A2
100
AcDbEntity
  8
0
100
AcDbCircle
 62
7
  6
CONTINUOUS
 10
4.1721791257
 20
3.0044232431
 40
0.0524598276
100
AcDbArc
 50
29.9932192111
 51
31.3446056354
  0
ARC
  5
2A3
100
AcDbEntity
  8
0
100
AcDbCircle
 62
7
  6
CONTINUOUS
 10
4.1819824907
 20
2.8873465095
 40
0.0506048386
100
AcDbArc
 50
243.7957263773
 51
250.1153650342
  0
ARC
  5
2A4
100
AcDbEntity
  8
0
100
AcDbCircle
 62
7
  6
CONTINUOUS
 10
4.1810966988
 20
2.8849054963
 40
0.0480080781
100
AcDbArc
 50
250.1186172723
 51
254.8021951329
  0
ARC
  5
2A5
100
AcDbEntity
  8
0
100
AcDbCircle
 62
7
  6
CONTINUOUS
 10
4.1939964988
 20
2.8794182116
 40
0.039808946
100
AcDbArc
 50
209.9801220797
 51
213.2024451921
  0
ARC
  5
2A6
100
AcDbEntity
  8
0
100
AcDbCircle
 62
7
  6
CONTINUOUS
 10
4.1182043727
 20
2.9716852129
 40
0.0365053823
100
AcDbArc
 50
235.5438047656
 51
240.358482324
  0
ARC
  5
2A7
100
AcDbEntity
  8
ALL_FEATURES
100
AcDbCircle
 62
7
  6
CONTINUOUS
 10
3.1894672767
 20
1.7085235732
 40
0.03
100
AcDbArc
 50
0.0
 51
90.0
  0
ARC
  5
2A8
100
AcDbEntity
  8
0
100
AcDbCircle
 62
7
  6
CONTINUOUS
 10
4.1847400752
 20
2.8714744978
 40
0.027521378
100
AcDbArc
 50
243.4704595619
 51
248.5740886575
  0
ARC
  5
2A9
100
AcDbEntity
  8
0
100
AcDbCircle
 62
7
  6
CONTINUOUS
 10
4.1149015661
 20
2.9714415105
 40
0.0258597518
100
AcDbArc
 50
209.9461151753
 51
215.4058400454
  0
ARC
  5
2AA
100
AcDbEntity
  8
ALL_FEATURES
100
AcDbCircle
 62
7
  6
CONTINUOUS
 10
3.1594672767
 20
6.8610235732
 40
0.315
100
AcDbArc
 50
90.0
 51
180.0
  0
ARC
  5
2AB
100
AcDbEntity
  8
ALL_FEATURES
100
AcDbCircle
 62
7
  6
CONTINUOUS
 10
3.5344672767
 20
7.2360235732
 40
0.315
100
AcDbArc
 50
90.0
 51
180.0
  0
ARC
  5
2AC
100
AcDbEntity
  8
ALL_FEATURES
100
AcDbCircle
 62
7
  6
CONTINUOUS
 10
3.1594672767
 20
6.8610235732
 40
0.22125
100
AcDbArc
 50
90.0
 51
180.0
  0
ARC
  5
2AD
100
AcDbEntity
  8
ALL_FEATURES
100
AcDbCircle
 62
7
  6
CONTINUOUS
 10
3.5344672767
 20
7.2360235732
 40
0.22125
100
AcDbArc
 50
90.0
 51
180.0
  0
ARC
  5
2AE
100
AcDbEntity
  8
ALL_FEATURES
100
AcDbCircle
 62
7
  6
CONTINUOUS
 10
3.1894672767
 20
7.2060235732
 40
0.12375
100
AcDbArc
 50
270.0
 51
360.0
  0
ARC
  5
2AF
100
AcDbEntity
  8
0
100
AcDbCircle
 62
7
  6
CONTINUOUS
 10
4.1339568297
 20
3.6518765354
 40
0.0861280315
100
AcDbArc
 50
340.8079799316
 51
342.0073550418
  0
ARC
  5
2B0
100
AcDbEntity
  8
0
100
AcDbCircle
 62
7
  6
CONTINUOUS
 10
3.9398527845
 20
3.4529347161
 40
0.0850361139
100
AcDbArc
 50
2.2914118957
 51
3.2812564878
  0
ARC
  5
2B1
100
AcDbEntity
  8
0
100
AcDbCircle
 62
7
  6
CONTINUOUS
 10
4.7303719832
 20
4.2893314224
 40
0.0850257014
100
AcDbArc
 50
290.2910746694
 51
291.2810319575
  0
ARC
  5
2B2
100
AcDbEntity
  8
0
100
AcDbCircle
 62
7
  6
CONTINUOUS
 10
3.9764018736
 20
3.5566565584
 40
0.0821285802
100
AcDbArc
 50
2.2650071885
 51
3.2898682506
  0
ARC
  5
2B3
100
AcDbEntity
  8
0
100
AcDbCircle
 62
7
  6
CONTINUOUS
 10
4.1430084349
 20
3.6489886684
 40
0.0766270528
100
AcDbArc
 50
341.9704508173
 51
345.9428907652
  0
ARC
  5
2B4
100
AcDbEntity
  8
0
100
AcDbCircle
 62
7
  6
CONTINUOUS
 10
4.1490937536
 20
3.6474668989
 40
0.0703543435
100
AcDbArc
 50
345.9413779279
 51
350.1934501263
  0
ARC
  5
2B5
100
AcDbEntity
  8
0
100
AcDbCircle
 62
7
  6
CONTINUOUS
 10
4.1581110248
 20
3.6449197817
 40
0.0614486622
100
AcDbArc
 50
21.935481056
 51
25.357907606
  0
ARC
  5
2B6
100
AcDbEntity
  8
0
100
AcDbCircle
 62
7
  6
CONTINUOUS
 10
4.8747905646
 20
4.1795878508
 40
0.0598858089
100
AcDbArc
 50
31.5477114136
 51
35.9919043275
  0
ARC
  5
2B7
100
AcDbEntity
  8
0
100
AcDbCircle
 62
7
  6
CONTINUOUS
 10
4.1624821481
 20
3.6463214399
 40
0.0568568867
100
AcDbArc
 50
4.7816929004
 51
10.0365962137
  0
ARC
  5
2B8
100
AcDbEntity
  8
0
100
AcDbCircle
 62
7
  6
CONTINUOUS
 10
4.8890355863
 20
4.1325391678
 40
0.0524529079
100
AcDbArc
 50
269.9964204419
 51
271.4202367579
  0
ARC
  5
2B9
100
AcDbEntity
  8
0
100
AcDbCircle
 62
7
  6
CONTINUOUS
 10
4.8890299956
 20
4.1201670104
 40
0.0400807504
100
AcDbArc
 50
262.7833844503
 51
270.0033074648
  0
ARC
  5
2BA
100
AcDbEntity
  8
0
100
AcDbCircle
 62
7
  6
CONTINUOUS
 10
4.1757336555
 20
3.6442054706
 40
0.0371883248
100
AcDbArc
 50
35.1023521017
 51
53.6383749994
  0
ARC
  5
2BB
100
AcDbEntity
  8
0
100
AcDbCircle
 62
7
  6
CONTINUOUS
 10
4.8879836756
 20
4.195079033
 40
0.0371609946
100
AcDbArc
 50
115.5805645709
 51
125.0673308781
  0
ARC
  5
2BC
100
AcDbEntity
  8
0
100
AcDbCircle
 62
7
  6
CONTINUOUS
 10
4.891205442
 20
4.1951946472
 40
0.0370617777
100
AcDbArc
 50
64.8312675305
 51
69.2022843165
  0
ARC
  5
2BD
100
AcDbEntity
  8
0
100
AcDbCircle
 62
7
  6
CONTINUOUS
 10
4.1762556148
 20
3.6445825346
 40
0.0365444708
100
AcDbArc
 50
32.9002699997
 51
35.0892779202
  0
ARC
  5
2BE
100
AcDbEntity
  8
ALL_FEATURES
100
AcDbCircle
 62
7
  6
CONTINUOUS
 10
3.1894672767
 20
7.2060235732
 40
0.03
100
AcDbArc
 50
270.0
 51
360.0
  0
ARC
  5
2BF
100
AcDbEntity
  8
0
100
AcDbCircle
 62
7
  6
CONTINUOUS
 10
4.8891151794
 20
4.1986381958
 40
0.0258619631
100
AcDbArc
 50
89.9492111543
 51
95.4079636796
  0
ARC
  5
2C0
100
AcDbEntity
  8
0
100
AcDbCircle
 62
7
  6
CONTINUOUS
 10
4.1873518729
 20
3.6500235589
 40
0.0244209353
100
AcDbArc
 50
336.4677566331
 51
342.0142185393
  0
ARC
  5
2C1
100
AcDbEntity
  8
0
100
AcDbCircle
 62
7
  6
CONTINUOUS
 10
4.8891459814
 20
4.2013391929
 40
0.0231609572
100
AcDbArc
 50
83.8676267028
 51
90.019486588
  0
ARC
  5
2C2
100
AcDbEntity
  8
0
100
AcDbCircle
 62
7
  6
CONTINUOUS
 10
4.8901255489
 20
4.1107343126
 40
0.0227496288
100
AcDbArc
 50
269.9324031822
 51
276.069370755
  0
ARC
  5
2C3
100
AcDbEntity
  8
0
100
AcDbCircle
 62
7
  6
CONTINUOUS
 10
4.7700922767
 20
4.0500235732
 40
0.0075
100
AcDbArc
 50
90.0
 51
180.0
  0
ARC
  5
2C4
100
AcDbEntity
  8
ALL_FEATURES
100
AcDbCircle
 62
7
  6
CONTINUOUS
 10
6.2794672767
 20
1.6785235732
 40
0.315
100
AcDbArc
 50
270.0
 51
360.0
  0
ARC
  5
2C5
100
AcDbEntity
  8
ALL_FEATURES
100
AcDbCircle
 62
7
  6
CONTINUOUS
 10
6.6544672767
 20
2.0535235732
 40
0.315
100
AcDbArc
 50
270.0
 51
360.0
  0
ARC
  5
2C6
100
AcDbEntity
  8
ALL_FEATURES
100
AcDbCircle
 62
7
  6
CONTINUOUS
 10
6.2794672767
 20
1.6785235732
 40
0.22125
100
AcDbArc
 50
270.0
 51
360.0
  0
ARC
  5
2C7
100
AcDbEntity
  8
ALL_FEATURES
100
AcDbCircle
 62
7
  6
CONTINUOUS
 10
6.6544672767
 20
2.0535235732
 40
0.22125
100
AcDbArc
 50
270.0
 51
360.0
  0
ARC
  5
2C8
100
AcDbEntity
  8
ALL_ASSEMBLY_MEMBERS
100
AcDbCircle
 62
7
  6
CONTINUOUS
 10
4.9069672767
 20
2.2447735732
 40
0.1875
100
AcDbArc
 50
193.685355721
 51
346.314644279
  0
ARC
  5
2C9
100
AcDbEntity
  8
ALL_FEATURES
100
AcDbCircle
 62
7
  6
CONTINUOUS
 10
6.6244672767
 20
1.7085235732
 40
0.12375
100
AcDbArc
 50
90.0
 51
180.0
  0
ARC
  5
2CA
100
AcDbEntity
  8
0
100
AcDbCircle
 62
7
  6
CONTINUOUS
 10
5.5643818902
 20
2.8338109294
 40
0.0766165769
100
AcDbArc
 50
144.9716795398
 51
148.9503296564
  0
ARC
  5
2CB
100
AcDbEntity
  8
0
100
AcDbCircle
 62
7
  6
CONTINUOUS
 10
5.5503832835
 20
2.8420159268
 40
0.0606891873
100
AcDbArc
 50
178.2828628362
 51
188.3740260285
  0
ARC
  5
2CC
100
AcDbEntity
  8
0
100
AcDbCircle
 62
7
  6
CONTINUOUS
 10
5.5497832395
 20
2.8412954214
 40
0.0601793001
100
AcDbArc
 50
157.7722697134
 51
167.6765324365
  0
ARC
  5
2CD
100
AcDbEntity
  8
0
100
AcDbCircle
 62
7
  6
CONTINUOUS
 10
5.5462075811
 20
2.8421079991
 40
0.0565126106
100
AcDbArc
 50
167.707657635
 51
178.2493093328
  0
ARC
  5
2CE
100
AcDbEntity
  8
0
100
AcDbCircle
 62
7
  6
CONTINUOUS
 10
5.5415523649
 20
2.8388261089
 40
0.0513303471
100
AcDbArc
 50
208.4809078543
 51
214.0502515834
  0
ARC
  5
2CF
100
AcDbEntity
  8
ALL_FEATURES
100
AcDbCircle
 62
7
  6
CONTINUOUS
 10
6.6244672767
 20
1.7085235732
 40
0.03
100
AcDbArc
 50
90.0
 51
180.0
  0
ARC
  5
2D0
100
AcDbEntity
  8
0
100
AcDbCircle
 62
7
  6
CONTINUOUS
 10
4.9069672767
 20
3.3322735732
 40
1.012875
100
AcDbArc
 50
279.7899352951
 51
260.2100647049
  0
ARC
  5
2D1
100
AcDbEntity
  8
0
100
AcDbCircle
 62
7
  6
CONTINUOUS
 10
4.9069672767
 20
3.3322735732
 40
0.952875
100
AcDbArc
 50
280.1374219936
 51
259.8625780064
  0
ARC
  5
2D2
100
AcDbEntity
  8
0
100
AcDbCircle
 62
7
  6
CONTINUOUS
 10
4.9069672767
 20
3.3322735732
 40
0.7125
100
AcDbArc
 50
101.6919089867
 51
257.8738669621
  0
ARC
  5
2D3
100
AcDbEntity
  8
0
100
AcDbCircle
 62
7
  6
CONTINUOUS
 10
4.9069672767
 20
3.3322735732
 40
0.7125
100
AcDbArc
 50
282.1261330379
 51
78.3080910133
  0
ARC
  5
2D4
100
AcDbEntity
  8
0
100
AcDbCircle
 62
7
  6
CONTINUOUS
 10
4.9069672767
 20
3.3322735732
 40
0.627375
100
AcDbArc
 50
283.1995349102
 51
76.6939832715
  0
ARC
  5
2D5
100
AcDbEntity
  8
0
100
AcDbCircle
 62
7
  6
CONTINUOUS
 10
4.9069672767
 20
3.3322735732
 40
0.627375
100
AcDbArc
 50
103.3060167285
 51
256.8004650898
  0
ARC
  5
2D6
100
AcDbEntity
  8
0
100
AcDbCircle
 62
7
  6
CONTINUOUS
 10
4.9069672767
 20
3.3322735732
 40
0.62025
100
AcDbArc
 50
283.3042596443
 51
256.6957351385
  0
ARC
  5
2D7
100
AcDbEntity
  8
0
100
AcDbCircle
 62
9
  6
CONTINUOUS
 10
4.9069672767
 20
3.3322735732
 40
0.5920146153
100
AcDbArc
 50
283.7383018407
 51
256.2616981294
  0
ARC
  5
2D8
100
AcDbEntity
  8
0
100
AcDbCircle
 62
9
  6
CONTINUOUS
 10
4.9069672767
 20
3.3322735732
 40
0.5840009741
100
AcDbArc
 50
283.8709099471
 51
256.1284189199
  0
ARC
  5
2D9
100
AcDbEntity
  8
0
100
AcDbCircle
 62
9
  6
CONTINUOUS
 10
4.9069672767
 20
3.3322735732
 40
0.5680586424
100
AcDbArc
 50
284.1425217164
 51
255.8566706529
  0
ARC
  5
2DA
100
AcDbEntity
  8
0
100
AcDbCircle
 62
9
  6
CONTINUOUS
 10
4.9069672767
 20
3.3322735732
 40
0.5658198696
100
AcDbArc
 50
284.1818391084
 51
255.8166409348
  0
ARC
  5
2DB
100
AcDbEntity
  8
0
100
AcDbCircle
 62
9
  6
CONTINUOUS
 10
4.9069672767
 20
3.3322735732
 40
0.5373898192
100
AcDbArc
 50
284.7104826697
 51
255.2868678215
  0
CIRCLE
  5
2DC
100
AcDbEntity
  8
ALL_ASSEMBLY_MEMBERS
100
AcDbCircle
 62
7
  6
CONTINUOUS
 10
4.9069672767
 20
3.3322735732
 40
0.375
  0
CIRCLE
  5
2DD
100
AcDbEntity
  8
ALL_ASSEMBLY_MEMBERS
100
AcDbCircle
 62
7
  6
CONTINUOUS
 10
4.9069672767
 20
3.3322735732
 40
0.31875
  0
CIRCLE
  5
2DE
100
AcDbEntity
  8
ALL_ASSEMBLY_MEMBERS
100
AcDbCircle
 62
7
  6
CONTINUOUS
 10
4.9069672767
 20
3.3322735732
 40
0.313125
  0
CIRCLE
  5
2DF
100
AcDbEntity
  8
ALL_ASSEMBLY_MEMBERS
100
AcDbCircle
 62
9
  6
CONTINUOUS
 10
4.9069672767
 20
3.3322735732
 40
0.2963584924
  0
ARC
  5
2E0
100
AcDbEntity
  8
ALL_ASSEMBLY_MEMBERS
100
AcDbCircle
 62
7
  6
CONTINUOUS
 10
4.9069672767
 20
4.6072735732
 40
0.1875
100
AcDbArc
 50
193.685355721
 51
346.314644279
  0
ARC
  5
2E1
100
AcDbEntity
  8
0
100
AcDbCircle
 62
7
  6
CONTINUOUS
 10
4.9979348096
 20
4.1325457376
 40
0.0524620361
100
AcDbArc
 50
269.9929526705
 51
271.3437028126
  0
ARC
  5
2E2
100
AcDbEntity
  8
0
100
AcDbCircle
 62
7
  6
CONTINUOUS
 10
4.9986855738
 20
4.187297431
 40
0.0450990471
100
AcDbArc
 50
83.6123667791
 51
90.0132617249
  0
ARC
  5
2E3
100
AcDbEntity
  8
0
100
AcDbCircle
 62
7
  6
CONTINUOUS
 10
4.9979283326
 20
4.1202292971
 40
0.0401455952
100
AcDbArc
 50
262.9295875985
 51
270.000034588
  0
ARC
  5
2E4
100
AcDbEntity
  8
0
100
AcDbCircle
 62
7
  6
CONTINUOUS
 10
4.9968781053
 20
4.1950790166
 40
0.0371589819
100
AcDbArc
 50
115.5864870825
 51
125.0764292739
  0
ARC
  5
2E5
100
AcDbEntity
  8
0
100
AcDbCircle
 62
7
  6
CONTINUOUS
 10
4.9980102483
 20
4.1986388539
 40
0.0258591811
100
AcDbArc
 50
89.9458923157
 51
95.4057750423
  0
ARC
  5
2E6
100
AcDbEntity
  8
0
100
AcDbCircle
 62
7
  6
CONTINUOUS
 10
5.0438422767
 20
4.0500235732
 40
0.0075
100
AcDbArc
 50
0.0
 51
90.0
  0
ARC
  5
2E7
100
AcDbEntity
  8
0
100
AcDbCircle
 62
7
  6
CONTINUOUS
 10
5.7756230308
 20
3.7106029074
 40
0.1208710932
100
AcDbArc
 50
230.2082985594
 51
232.7334180965
  0
ARC
  5
2E8
100
AcDbEntity
  8
0
100
AcDbCircle
 62
7
  6
CONTINUOUS
 10
5.6867947452
 20
3.6177235735
 40
0.0793244262
100
AcDbArc
 50
194.9819835114
 51
197.194860473
  0
ARC
  5
2E9
100
AcDbEntity
  8
0
100
AcDbCircle
 62
7
  6
CONTINUOUS
 10
5.6288018334
 20
3.5663217838
 40
0.0730433808
100
AcDbArc
 50
48.7093621078
 51
53.0819266951
  0
ARC
  5
2EA
100
AcDbEntity
  8
0
100
AcDbCircle
 62
7
  6
CONTINUOUS
 10
5.6790461728
 20
3.6153258707
 40
0.0712133626
100
AcDbArc
 50
197.1949522407
 51
199.6337477259
  0
ARC
  5
2EB
100
AcDbEntity
  8
0
100
AcDbCircle
 62
7
  6
CONTINUOUS
 10
5.691136116
 20
3.6183735341
 40
0.0686266579
100
AcDbArc
 50
14.9891559644
 51
16.9091342447
  0
ARC
  5
2EC
100
AcDbEntity
  8
0
100
AcDbCircle
 62
7
  6
CONTINUOUS
 10
5.6922412619
 20
3.5263009885
 40
0.0613316793
100
AcDbArc
 50
233.312621454
 51
238.3591826109
  0
ARC
  5
2ED
100
AcDbEntity
  8
0
100
AcDbCircle
 62
7
  6
CONTINUOUS
 10
5.6920570172
 20
3.5248404482
 40
0.0601800144
100
AcDbArc
 50
207.7724568746
 51
217.68496911
  0
ARC
  5
2EE
100
AcDbEntity
  8
0
100
AcDbCircle
 62
7
  6
CONTINUOUS
 10
5.6893989811
 20
3.5228462729
 40
0.0568574285
100
AcDbArc
 50
217.7320804046
 51
222.9718367349
  0
ARC
  5
2EF
100
AcDbEntity
  8
0
100
AcDbCircle
 62
7
  6
CONTINUOUS
 10
5.6512989403
 20
3.6016365698
 40
0.0401272194
100
AcDbArc
 50
215.7974103124
 51
222.9251082447
  0
ARC
  5
2F0
100
AcDbEntity
  8
0
100
AcDbCircle
 62
7
  6
CONTINUOUS
 10
5.7192427845
 20
3.6310131204
 40
0.0376447071
100
AcDbArc
 50
34.4258141387
 51
41.7086251441
  0
ARC
  5
2F1
100
AcDbEntity
  8
0
100
AcDbCircle
 62
7
  6
CONTINUOUS
 10
5.6770946638
 20
3.5171787664
 40
0.0369640327
100
AcDbArc
 50
252.9452970106
 51
266.680197556
  0
ARC
  5
2F2
100
AcDbEntity
  8
0
100
AcDbCircle
 62
7
  6
CONTINUOUS
 10
5.6770149205
 20
3.5170642176
 40
0.0368311583
100
AcDbArc
 50
245.9080559826
 51
253.0116311605
  0
ARC
  5
2F3
100
AcDbEntity
  8
0
100
AcDbCircle
 62
7
  6
CONTINUOUS
 10
5.6523331488
 20
3.6044448179
 40
0.0347015918
100
AcDbArc
 50
190.4167016685
 51
195.0304392999
  0
ARC
  5
2F4
100
AcDbEntity
  8
0
100
AcDbCircle
 62
7
  6
CONTINUOUS
 10
5.7234352262
 20
3.6275732305
 40
0.0271485261
100
AcDbArc
 50
14.9874500157
 51
21.2884589419
  0
ARC
  5
2F5
100
AcDbEntity
  8
0
100
AcDbCircle
 62
7
  6
CONTINUOUS
 10
5.7259809566
 20
3.6279114032
 40
0.0248302014
100
AcDbArc
 50
49.9430790589
 51
57.1449569745
  0
ARC
  5
2F6
100
AcDbEntity
  8
0
100
AcDbCircle
 62
7
  6
CONTINUOUS
 10
5.7293270159
 20
3.6270143049
 40
0.0213714631
100
AcDbArc
 50
330.7380291488
 51
336.2285169961
  0
ARC
  5
2F7
100
AcDbEntity
  8
0
100
AcDbCircle
 62
7
  6
CONTINUOUS
 10
4.9069672767
 20
5.6947735732
 40
0.6200775
100
AcDbArc
 50
283.3067918946
 51
256.6932081054
  0
ARC
  5
2F8
100
AcDbEntity
  8
0
100
AcDbCircle
 62
9
  6
CONTINUOUS
 10
4.9069672767
 20
5.6947735732
 40
0.5075775
100
AcDbArc
 50
285.3319334984
 51
254.6680665019
  0
ARC
  5
2F9
100
AcDbEntity
  8
0
100
AcDbCircle
 62
7
  6
CONTINUOUS
 10
4.9069672767
 20
5.6947735732
 40
0.50325
100
AcDbArc
 50
285.4302896746
 51
254.5697103254
  0
ARC
  5
2FA
100
AcDbEntity
  8
ALL_FEATURES
100
AcDbCircle
 62
7
  6
CONTINUOUS
 10
4.9069672767
 20
5.6947735732
 40
0.4886988938
100
AcDbArc
 50
285.7670753213
 51
254.2329246787
  0
ARC
  5
2FB
100
AcDbEntity
  8
0
100
AcDbCircle
 62
7
  6
CONTINUOUS
 10
4.9069672767
 20
5.6947735732
 40
0.485625
100
AcDbArc
 50
285.8397064085
 51
254.1602935977
  0
ARC
  5
2FC
100
AcDbEntity
  8
0
100
AcDbCircle
 62
9
  6
CONTINUOUS
 10
4.9069672767
 20
5.6947735732
 40
0.4549122041
100
AcDbArc
 50
286.7717731123
 51
253.2282141413
  0
CIRCLE
  5
2FD
100
AcDbEntity
  8
ALL_ASSEMBLY_MEMBERS
100
AcDbCircle
 62
7
  6
CONTINUOUS
 10
4.9069672767
 20
5.6947735732
 40
0.375
  0
CIRCLE
  5
2FE
100
AcDbEntity
  8
ALL_ASSEMBLY_MEMBERS
100
AcDbCircle
 62
7
  6
CONTINUOUS
 10
4.9069672767
 20
5.6947735732
 40
0.31875
  0
CIRCLE
  5
2FF
100
AcDbEntity
  8
ALL_ASSEMBLY_MEMBERS
100
AcDbCircle
 62
7
  6
CONTINUOUS
 10
4.9069672767
 20
5.6947735732
 40
0.313125
  0
CIRCLE
  5
300
100
AcDbEntity
  8
ALL_ASSEMBLY_MEMBERS
100
AcDbCircle
 62
9
  6
CONTINUOUS
 10
4.9069672767
 20
5.6947735732
 40
0.2963584924
  0
ARC
  5
301
100
AcDbEntity
  8
ALL_FEATURES
100
AcDbCircle
 62
7
  6
CONTINUOUS
 10
6.2794672767
 20
7.2360235732
 40
0.315
100
AcDbArc
 50
0.0
 51
90.0
  0
ARC
  5
302
100
AcDbEntity
  8
ALL_FEATURES
100
AcDbCircle
 62
7
  6
CONTINUOUS
 10
6.6544672767
 20
6.8610235732
 40
0.315
100
AcDbArc
 50
0.0
 51
90.0
  0
ARC
  5
303
100
AcDbEntity
  8
ALL_FEATURES
100
AcDbCircle
 62
7
  6
CONTINUOUS
 10
6.2794672767
 20
7.2360235732
 40
0.22125
100
AcDbArc
 50
0.0
 51
90.0
  0
ARC
  5
304
100
AcDbEntity
  8
ALL_FEATURES
100
AcDbCircle
 62
7
  6
CONTINUOUS
 10
6.6544672767
 20
6.8610235732
 40
0.22125
100
AcDbArc
 50
0.0
 51
90.0
  0
ARC
  5
305
100
AcDbEntity
  8
ALL_FEATURES
100
AcDbCircle
 62
7
  6
CONTINUOUS
 10
6.6244672767
 20
7.2060235732
 40
0.12375
100
AcDbArc
 50
180.0
 51
270.0
  0
ARC
  5
306
100
AcDbEntity
  8
ALL_FEATURES
100
AcDbCircle
 62
7
  6
CONTINUOUS
 10
6.6244672767
 20
7.2060235732
 40
0.03
100
AcDbArc
 50
180.0
 51
270.0
  0
LINE
  5
307
100
AcDbEntity
  8
ALL_ASSEMBLY_MEMBERS
100
AcDbLine
 62
7
  6
CONTINUOUS
 10
4.8141595018
 20
5.2447735726
 11
4.7757172767
 21
5.2447735726
  0
SPLINE
  5
308
100
AcDbEntity
  8
ALL_ASSEMBLY_MEMBERS
100
AcDbSpline
 62
7
  6
CONTINUOUS
 70
0
 71
3
 72
34
 73
30
 74
0
 42
0.0000001
 43
0.0000001
 44
0.0000000001
 40
0.0
 40
0.0
 40
0.0
 40
0.0
 40
0.0370063583
 40
0.0736954835
 40
0.1454513186
 40
0.2143974138
 40
0.2476613292
 40
0.2800344013
 40
0.3114863547
 40
0.3420194553
 40
0.371659096
 40
0.4004597447
 40
0.4285069402
 40
0.4559110336
 40
0.482812539
 40
0.5093723997
 40
0.5357675439
 40
0.5621836757
 40
0.588804211
 40
0.6158047139
 40
0.6433404545
 40
0.6715461721
 40
0.7302965198
 40
0.7610356904
 40
0.7926938356
 40
0.8586660537
 40
0.9279912208
 40
0.9637347504
 40
1.0
 40
1.0
 40
1.0
 40
1.0
 10
4.8202663685
 20
4.6072735732
 30
0.0
 10
4.8199228581
 20
4.6057174326
 30
0.0
 10
4.8191457784
 20
4.6026380334
 30
0.0
 10
4.8172489128
 20
4.5966655172
 30
0.0
 10
4.8142676577
 20
4.589608788
 30
0.0
 10
4.8104543852
 20
4.5831300273
 30
0.0
 10
4.8069813955
 20
4.578484424
 30
0.0
 10
4.8042272213
 20
4.5753329381
 30
0.0
 10
4.8013103668
 20
4.572497292
 30
0.0
 10
4.7982522231
 20
4.5699960476
 30
0.0
 10
4.7950733178
 20
4.5678470819
 30
0.0
 10
4.791794885
 20
4.5660669564
 30
0.0
 10
4.7884406476
 20
4.5646666679
 30
0.0
 10
4.7850330372
 20
4.5636587068
 30
0.0
 10
4.7815966304
 20
4.5630502873
 30
0.0
 10
4.7781559664
 20
4.5628451837
 30
0.0
 10
4.7747359385
 20
4.5630478063
 30
0.0
 10
4.7713614502
 20
4.563654263
 30
0.0
 10
4.7680569071
 20
4.5646611469
 30
0.0
 10
4.7648467209
 20
4.5660613621
 30
0.0
 10
4.7617523427
 20
4.567842569
 30
0.0
 10
4.757759584
 20
4.5707478482
 30
0.0
 10
4.7541389534
 20
4.5743471705
 30
0.0
 10
4.7509585413
 20
4.5784879656
 30
0.0
 10
4.7479692415
 20
4.583145367
 30
0.0
 10
4.7448337741
 20
4.5896483488
 30
0.0
 10
4.7426070355
 20
4.596694241
 30
0.0
 10
4.7413454085
 20
4.6026514678
 30
0.0
 10
4.7408954582
 20
4.6057221303
 30
0.0
 10
4.7407168556
 20
4.6072735732
 30
0.0
  0
SPLINE
  5
309
100
AcDbEntity
  8
ALL_ASSEMBLY_MEMBERS
100
AcDbSpline
 62
7
  6
CONTINUOUS
 70
0
 71
3
 72
19
 73
15
 74
0
 42
0.0000001
 43
0.0000001
 44
0.0000000001
 40
0.0
 40
0.0
 40
0.0
 40
0.0
 40
0.1250567347
 40
0.1876831156
 40
0.2502713112
 40
0.312835551
 40
0.3753921489
 40
0.5003786038
 40
0.6253112799
 40
0.6878013465
 40
0.7502757446
 40
0.8127532161
 40
0.8752502405
 40
1.0
 40
1.0
 40
1.0
 40
1.0
 10
4.9069672767
 20
4.5629129821
 30
0.0
 10
4.9037486104
 20
4.5629129821
 30
0.0
 10
4.8989055552
 20
4.5633190754
 30
0.0
 10
4.8925985263
 20
4.5646524489
 30
0.0
 10
4.887964413
 20
4.5660457437
 30
0.0
 10
4.8834642766
 20
4.5678190326
 30
0.0
 10
4.8776877479
 20
4.5706738002
 30
0.0
 10
4.8709444508
 20
4.5751293677
 30
0.0
 10
4.8650406017
 20
4.5806468462
 30
0.0
 10
4.860922439
 20
4.5855955285
 30
0.0
 10
4.8581546148
 20
4.5895538978
 30
0.0
 10
4.8557266873
 20
4.5937299879
 30
0.0
 10
4.8529721463
 20
4.5995427333
 30
0.0
 10
4.8514591745
 20
4.6041496971
 30
0.0
 10
4.8507172767
 20
4.6072735732
 30
0.0
  0
SPLINE
  5
30A
100
AcDbEntity
  8
ALL_ASSEMBLY_MEMBERS
100
AcDbSpline
 62
7
  6
CONTINUOUS
 70
0
 71
3
 72
19
 73
15
 74
0
 42
0.0000001
 43
0.0000001
 44
0.0000000001
 40
0.0
 40
0.0
 40
0.0
 40
0.0
 40
0.1247497595
 40
0.1872467839
 40
0.2497242554
 40
0.3121986535
 40
0.3746887201
 40
0.4996213962
 40
0.6246078511
 40
0.687164449
 40
0.7497286888
 40
0.8123168844
 40
0.8749432653
 40
1.0
 40
1.0
 40
1.0
 40
1.0
 10
4.9632172767
 20
4.6072735732
 30
0.0
 10
4.9624753789
 20
4.6041496971
 30
0.0
 10
4.9609624071
 20
4.5995427333
 30
0.0
 10
4.9582078661
 20
4.5937299879
 30
0.0
 10
4.9557799385
 20
4.5895538978
 30
0.0
 10
4.9530121143
 20
4.5855955285
 30
0.0
 10
4.9488939516
 20
4.5806468462
 30
0.0
 10
4.9429901025
 20
4.5751293677
 30
0.0
 10
4.9362468055
 20
4.5706738002
 30
0.0
 10
4.9304702768
 20
4.5678190326
 30
0.0
 10
4.9259701404
 20
4.5660457437
 30
0.0
 10
4.9213360271
 20
4.5646524489
 30
0.0
 10
4.9150289982
 20
4.5633190754
 30
0.0
 10
4.9101859429
 20
4.5629129821
 30
0.0
 10
4.9069672767
 20
4.5629129821
 30
0.0
  0
SPLINE
  5
30B
100
AcDbEntity
  8
ALL_ASSEMBLY_MEMBERS
100
AcDbSpline
 62
7
  6
CONTINUOUS
 70
0
 71
3
 72
34
 73
30
 74
0
 42
0.0000001
 43
0.0000001
 44
0.0000000001
 40
0.0
 40
0.0
 40
0.0
 40
0.0
 40
0.0362652496
 40
0.0720087792
 40
0.1413339463
 40
0.2073061644
 40
0.2389643096
 40
0.2697034802
 40
0.3284538279
 40
0.3566595455
 40
0.3841952861
 40
0.411195789
 40
0.4378163243
 40
0.4642324561
 40
0.4906276003
 40
0.517187461
 40
0.5440889664
 40
0.5714930598
 40
0.5995402553
 40
0.628340904
 40
0.6579805447
 40
0.6885136453
 40
0.7199655987
 40
0.7523386708
 40
0.7856025862
 40
0.8545486814
 40
0.9263045165
 40
0.9629936417
 40
1.0
 40
1.0
 40
1.0
 40
1.0
 10
5.0732176978
 20
4.6072735732
 30
0.0
 10
5.0730390952
 20
4.6057221303
 30
0.0
 10
5.0725891449
 20
4.6026514678
 30
0.0
 10
5.0713275178
 20
4.596694241
 30
0.0
 10
5.0691007793
 20
4.5896483488
 30
0.0
 10
5.0659653118
 20
4.583145367
 30
0.0
 10
5.0629760121
 20
4.5784879656
 30
0.0
 10
5.0597955999
 20
4.5743471705
 30
0.0
 10
5.0561749694
 20
4.5707478482
 30
0.0
 10
5.0521822107
 20
4.567842569
 30
0.0
 10
5.0490878324
 20
4.5660613621
 30
0.0
 10
5.0458776462
 20
4.5646611469
 30
0.0
 10
5.0425731032
 20
4.563654263
 30
0.0
 10
5.0391986148
 20
4.5630478063
 30
0.0
 10
5.0357785869
 20
4.5628451837
 30
0.0
 10
5.0323379229
 20
4.5630502873
 30
0.0
 10
5.0289015162
 20
4.5636587068
 30
0.0
 10
5.0254939057
 20
4.5646666679
 30
0.0
 10
5.0221396683
 20
4.5660669564
 30
0.0
 10
5.0188612355
 20
4.5678470819
 30
0.0
 10
5.0156823303
 20
4.5699960476
 30
0.0
 10
5.0126241865
 20
4.572497292
 30
0.0
 10
5.009707332
 20
4.5753329381
 30
0.0
 10
5.0069531578
 20
4.578484424
 30
0.0
 10
5.0034801682
 20
4.5831300273
 30
0.0
 10
4.9996668957
 20
4.589608788
 30
0.0
 10
4.9966856405
 20
4.5966655172
 30
0.0
 10
4.9947887749
 20
4.6026380334
 30
0.0
 10
4.9940116953
 20
4.6057174326
 30
0.0
 10
4.9936681849
 20
4.6072735732
 30
0.0
  0
LINE
  5
30C
100
AcDbEntity
  8
ALL_ASSEMBLY_MEMBERS
100
AcDbLine
 62
7
  6
CONTINUOUS
 10
5.0382172767
 20
5.2447735726
 11
4.9997750296
 21
5.2447735726
  0
LINE
  5
30D
100
AcDbEntity
  8
ALL_ASSEMBLY_MEMBERS
100
AcDbLine
 62
7
  6
CONTINUOUS
 10
4.9997750296
 20
5.2447735726
 11
4.9069672767
 21
5.2447735728
  0
LINE
  5
30E
100
AcDbEntity
  8
ALL_ASSEMBLY_MEMBERS
100
AcDbLine
 62
7
  6
CONTINUOUS
 10
4.9069672767
 20
5.2447735728
 11
4.8141595018
 21
5.2447735726
  0
LINE
  5
30F
100
AcDbEntity
  8
ALL_ASSEMBLY_MEMBERS
100
AcDbLine
 62
7
  6
CONTINUOUS
 10
4.8141595018
 20
2.8822735726
 11
4.7757172767
 21
2.8822735726
  0
SPLINE
  5
310
100
AcDbEntity
  8
ALL_ASSEMBLY_MEMBERS
100
AcDbSpline
 62
7
  6
CONTINUOUS
 70
0
 71
3
 72
34
 73
30
 74
0
 42
0.0000001
 43
0.0000001
 44
0.0000000001
 40
0.0
 40
0.0
 40
0.0
 40
0.0
 40
0.0370063583
 40
0.0736954835
 40
0.1454513186
 40
0.2143974138
 40
0.2476613292
 40
0.2800344013
 40
0.3114863547
 40
0.3420194553
 40
0.371659096
 40
0.4004597447
 40
0.4285069402
 40
0.4559110336
 40
0.482812539
 40
0.5093723997
 40
0.5357675439
 40
0.5621836757
 40
0.588804211
 40
0.6158047139
 40
0.6433404545
 40
0.6715461721
 40
0.7302965198
 40
0.7610356904
 40
0.7926938356
 40
0.8586660537
 40
0.9279912208
 40
0.9637347504
 40
1.0
 40
1.0
 40
1.0
 40
1.0
 10
4.8202663685
 20
2.2447735732
 30
0.0
 10
4.8199228581
 20
2.2432174326
 30
0.0
 10
4.8191457784
 20
2.2401380334
 30
0.0
 10
4.8172489128
 20
2.2341655172
 30
0.0
 10
4.8142676577
 20
2.227108788
 30
0.0
 10
4.8104543852
 20
2.2206300273
 30
0.0
 10
4.8069813955
 20
2.215984424
 30
0.0
 10
4.8042272213
 20
2.2128329381
 30
0.0
 10
4.8013103668
 20
2.209997292
 30
0.0
 10
4.7982522231
 20
2.2074960476
 30
0.0
 10
4.7950733178
 20
2.2053470819
 30
0.0
 10
4.791794885
 20
2.2035669564
 30
0.0
 10
4.7884406476
 20
2.2021666679
 30
0.0
 10
4.7850330372
 20
2.2011587068
 30
0.0
 10
4.7815966304
 20
2.2005502873
 30
0.0
 10
4.7781559664
 20
2.2003451837
 30
0.0
 10
4.7747359385
 20
2.2005478063
 30
0.0
 10
4.7713614502
 20
2.201154263
 30
0.0
 10
4.7680569071
 20
2.2021611469
 30
0.0
 10
4.7648467209
 20
2.2035613621
 30
0.0
 10
4.7617523427
 20
2.205342569
 30
0.0
 10
4.757759584
 20
2.2082478482
 30
0.0
 10
4.7541389534
 20
2.2118471705
 30
0.0
 10
4.7509585413
 20
2.2159879656
 30
0.0
 10
4.7479692415
 20
2.220645367
 30
0.0
 10
4.7448337741
 20
2.2271483488
 30
0.0
 10
4.7426070355
 20
2.234194241
 30
0.0
 10
4.7413454085
 20
2.2401514678
 30
0.0
 10
4.7408954582
 20
2.2432221303
 30
0.0
 10
4.7407168556
 20
2.2447735732
 30
0.0
  0
SPLINE
  5
311
100
AcDbEntity
  8
ALL_ASSEMBLY_MEMBERS
100
AcDbSpline
 62
7
  6
CONTINUOUS
 70
0
 71
3
 72
19
 73
15
 74
0
 42
0.0000001
 43
0.0000001
 44
0.0000000001
 40
0.0
 40
0.0
 40
0.0
 40
0.0
 40
0.1250567347
 40
0.1876831156
 40
0.2502713112
 40
0.312835551
 40
0.3753921489
 40
0.5003786038
 40
0.6253112799
 40
0.6878013465
 40
0.7502757446
 40
0.8127532161
 40
0.8752502405
 40
1.0
 40
1.0
 40
1.0
 40
1.0
 10
4.9069672767
 20
2.2004129821
 30
0.0
 10
4.9037486104
 20
2.2004129821
 30
0.0
 10
4.8989055552
 20
2.2008190754
 30
0.0
 10
4.8925985263
 20
2.2021524489
 30
0.0
 10
4.887964413
 20
2.2035457437
 30
0.0
 10
4.8834642766
 20
2.2053190326
 30
0.0
 10
4.8776877479
 20
2.2081738002
 30
0.0
 10
4.8709444508
 20
2.2126293677
 30
0.0
 10
4.8650406017
 20
2.2181468462
 30
0.0
 10
4.860922439
 20
2.2230955285
 30
0.0
 10
4.8581546148
 20
2.2270538978
 30
0.0
 10
4.8557266873
 20
2.2312299879
 30
0.0
 10
4.8529721463
 20
2.2370427333
 30
0.0
 10
4.8514591745
 20
2.2416496971
 30
0.0
 10
4.8507172767
 20
2.2447735732
 30
0.0
  0
SPLINE
  5
312
100
AcDbEntity
  8
ALL_ASSEMBLY_MEMBERS
100
AcDbSpline
 62
7
  6
CONTINUOUS
 70
0
 71
3
 72
19
 73
15
 74
0
 42
0.0000001
 43
0.0000001
 44
0.0000000001
 40
0.0
 40
0.0
 40
0.0
 40
0.0
 40
0.1247497595
 40
0.1872467839
 40
0.2497242554
 40
0.3121986535
 40
0.3746887201
 40
0.4996213962
 40
0.6246078511
 40
0.687164449
 40
0.7497286888
 40
0.8123168844
 40
0.8749432653
 40
1.0
 40
1.0
 40
1.0
 40
1.0
 10
4.9632172767
 20
2.2447735732
 30
0.0
 10
4.9624753789
 20
2.2416496971
 30
0.0
 10
4.9609624071
 20
2.2370427333
 30
0.0
 10
4.9582078661
 20
2.2312299879
 30
0.0
 10
4.9557799385
 20
2.2270538978
 30
0.0
 10
4.9530121143
 20
2.2230955285
 30
0.0
 10
4.9488939516
 20
2.2181468462
 30
0.0
 10
4.9429901025
 20
2.2126293677
 30
0.0
 10
4.9362468055
 20
2.2081738002
 30
0.0
 10
4.9304702768
 20
2.2053190326
 30
0.0
 10
4.9259701404
 20
2.2035457437
 30
0.0
 10
4.9213360271
 20
2.2021524489
 30
0.0
 10
4.9150289982
 20
2.2008190754
 30
0.0
 10
4.9101859429
 20
2.2004129821
 30
0.0
 10
4.9069672767
 20
2.2004129821
 30
0.0
  0
SPLINE
  5
313
100
AcDbEntity
  8
ALL_ASSEMBLY_MEMBERS
100
AcDbSpline
 62
7
  6
CONTINUOUS
 70
0
 71
3
 72
34
 73
30
 74
0
 42
0.0000001
 43
0.0000001
 44
0.0000000001
 40
0.0
 40
0.0
 40
0.0
 40
0.0
 40
0.0362652496
 40
0.0720087792
 40
0.1413339463
 40
0.2073061644
 40
0.2389643096
 40
0.2697034802
 40
0.3284538279
 40
0.3566595455
 40
0.3841952861
 40
0.411195789
 40
0.4378163243
 40
0.4642324561
 40
0.4906276003
 40
0.517187461
 40
0.5440889664
 40
0.5714930598
 40
0.5995402553
 40
0.628340904
 40
0.6579805447
 40
0.6885136453
 40
0.7199655987
 40
0.7523386708
 40
0.7856025862
 40
0.8545486814
 40
0.9263045165
 40
0.9629936417
 40
1.0
 40
1.0
 40
1.0
 40
1.0
 10
5.0732176978
 20
2.2447735732
 30
0.0
 10
5.0730390952
 20
2.2432221303
 30
0.0
 10
5.0725891449
 20
2.2401514678
 30
0.0
 10
5.0713275178
 20
2.234194241
 30
0.0
 10
5.0691007793
 20
2.2271483488
 30
0.0
 10
5.0659653118
 20
2.220645367
 30
0.0
 10
5.0629760121
 20
2.2159879656
 30
0.0
 10
5.0597955999
 20
2.2118471705
 30
0.0
 10
5.0561749694
 20
2.2082478482
 30
0.0
 10
5.0521822107
 20
2.205342569
 30
0.0
 10
5.0490878324
 20
2.2035613621
 30
0.0
 10
5.0458776462
 20
2.2021611469
 30
0.0
 10
5.0425731032
 20
2.201154263
 30
0.0
 10
5.0391986148
 20
2.2005478063
 30
0.0
 10
5.0357785869
 20
2.2003451837
 30
0.0
 10
5.0323379229
 20
2.2005502873
 30
0.0
 10
5.0289015162
 20
2.2011587068
 30
0.0
 10
5.0254939057
 20
2.2021666679
 30
0.0
 10
5.0221396683
 20
2.2035669564
 30
0.0
 10
5.0188612355
 20
2.2053470819
 30
0.0
 10
5.0156823303
 20
2.2074960476
 30
0.0
 10
5.0126241865
 20
2.209997292
 30
0.0
 10
5.009707332
 20
2.2128329381
 30
0.0
 10
5.0069531578
 20
2.215984424
 30
0.0
 10
5.0034801682
 20
2.2206300273
 30
0.0
 10
4.9996668957
 20
2.227108788
 30
0.0
 10
4.9966856405
 20
2.2341655172
 30
0.0
 10
4.9947887749
 20
2.2401380334
 30
0.0
 10
4.9940116953
 20
2.2432174326
 30
0.0
 10
4.9936681849
 20
2.2447735732
 30
0.0
  0
LINE
  5
314
100
AcDbEntity
  8
ALL_ASSEMBLY_MEMBERS
100
AcDbLine
 62
7
  6
CONTINUOUS
 10
5.0382172767
 20
2.8822735726
 11
4.9997750296
 21
2.8822735726
  0
LINE
  5
315
100
AcDbEntity
  8
ALL_ASSEMBLY_MEMBERS
100
AcDbLine
 62
7
  6
CONTINUOUS
 10
4.9997750296
 20
2.8822735726
 11
4.9069672767
 21
2.8822735728
  0
LINE
  5
316
100
AcDbEntity
  8
ALL_ASSEMBLY_MEMBERS
100
AcDbLine
 62
7
  6
CONTINUOUS
 10
4.9069672767
 20
2.8822735728
 11
4.8141595018
 21
2.8822735726
  0
SPLINE
  5
317
100
AcDbEntity
  8
0
100
AcDbSpline
 62
7
  6
CONTINUOUS
 70
0
 71
3
 72
9
 73
5
 74
0
 42
0.0000001
 43
0.0000001
 44
0.0000000001
 40
0.0
 40
0.0
 40
0.0
 40
0.0
 40
0.7498483498
 40
1.0
 40
1.0
 40
1.0
 40
1.0
 10
4.926420427
 20
4.1030220029
 30
0.0
 10
4.9255710011
 20
4.1014794358
 30
0.0
 10
4.9243512687
 20
4.0994673716
 30
0.0
 10
4.9230048808
 20
4.097542857
 30
0.0
 10
4.9226598577
 20
4.097067382
 30
0.0
  0
SPLINE
  5
318
100
AcDbEntity
  8
0
100
AcDbSpline
 62
7
  6
CONTINUOUS
 70
0
 71
3
 72
9
 73
5
 74
0
 42
0.0000001
 43
0.0000001
 44
0.0000000001
 40
0.0
 40
0.0
 40
0.0
 40
0.0
 40
0.4999867936
 40
1.0
 40
1.0
 40
1.0
 40
1.0
 10
4.9226598577
 20
4.097067382
 30
0.0
 10
4.9215323436
 20
4.0955135592
 30
0.0
 10
4.919098784
 20
4.0925303771
 30
0.0
 10
4.9162925133
 20
4.0898880271
 30
0.0
 10
4.9148001076
 20
4.0886802323
 30
0.0
  0
SPLINE
  5
319
100
AcDbEntity
  8
0
100
AcDbSpline
 62
7
  6
CONTINUOUS
 70
0
 71
3
 72
9
 73
5
 74
0
 42
0.0000001
 43
0.0000001
 44
0.0000000001
 40
0.0
 40
0.0
 40
0.0
 40
0.0
 40
0.2503922044
 40
1.0
 40
1.0
 40
1.0
 40
1.0
 10
4.9148001076
 20
4.0886802323
 30
0.0
 10
4.914200045
 20
4.0881946053
 30
0.0
 10
4.9117458982
 20
4.0863277434
 30
0.0
 10
4.9090642129
 20
4.0847578986
 30
0.0
 10
4.9069672767
 20
4.0837864773
 30
0.0
  0
SPLINE
  5
31A
100
AcDbEntity
  8
0
100
AcDbSpline
 62
7
  6
CONTINUOUS
 70
0
 71
3
 72
11
 73
7
 74
0
 42
0.0000001
 43
0.0000001
 44
0.0000000001
 40
0.0
 40
0.0
 40
0.0
 40
0.0
 40
0.270070949
 40
0.5241975358
 40
0.7660998929
 40
1.0
 40
1.0
 40
1.0
 40
1.0
 10
4.9391025082
 20
4.1574696273
 30
0.0
 10
4.9391025054
 20
4.1523859585
 30
0.0
 10
4.9386185247
 20
4.1425083704
 30
0.0
 10
4.9362594775
 20
4.1282466633
 30
0.0
 10
4.9322961159
 20
4.1150502587
 30
0.0
 10
4.9285441566
 20
4.1068786169
 30
0.0
 10
4.9264204252
 20
4.1030218711
 30
0.0
  0
SPLINE
  5
31B
100
AcDbEntity
  8
0
100
AcDbSpline
 62
7
  6
CONTINUOUS
 70
0
 71
3
 72
12
 73
8
 74
0
 42
0.0000001
 43
0.0000001
 44
0.0000000001
 40
0.0
 40
0.0
 40
0.0
 40
0.0
 40
0.1250645191
 40
0.2501451046
 40
0.5000465681
 40
0.7499999568
 40
1.0
 40
1.0
 40
1.0
 40
1.0
 10
4.9626720728
 20
4.1010959403
 30
0.0
 10
4.9613616591
 20
4.1030536961
 30
0.0
 10
4.9589373529
 20
4.1071051083
 30
0.0
 10
4.9548953732
 20
4.1156260435
 30
0.0
 10
4.951306538
 20
4.1269002053
 30
0.0
 10
4.9490336119
 20
4.1408781454
 30
0.0
 10
4.9486042872
 20
4.1503052705
 30
0.0
 10
4.9486042872
 20
4.1550145246
 30
0.0
  0
SPLINE
  5
31C
100
AcDbEntity
  8
0
100
AcDbSpline
 62
7
  6
CONTINUOUS
 70
0
 71
3
 72
9
 73
5
 74
0
 42
0.0000001
 43
0.0000001
 44
0.0000000001
 40
0.0
 40
0.0
 40
0.0
 40
0.0
 40
0.2503557688
 40
1.0
 40
1.0
 40
1.0
 40
1.0
 10
4.9929868507
 20
4.0803889837
 30
0.0
 10
4.9922083778
 20
4.0804858095
 30
0.0
 10
4.9891114209
 20
4.0809647087
 30
0.0
 10
4.9860701922
 20
4.0818223042
 30
0.0
 10
4.9838853652
 20
4.0826849281
 30
0.0
  0
SPLINE
  5
31D
100
AcDbEntity
  8
0
100
AcDbSpline
 62
7
  6
CONTINUOUS
 70
0
 71
3
 72
9
 73
5
 74
0
 42
0.0000001
 43
0.0000001
 44
0.0000000001
 40
0.0
 40
0.0
 40
0.0
 40
0.0
 40
0.2501395616
 40
1.0
 40
1.0
 40
1.0
 40
1.0
 10
4.9838853652
 20
4.0826849281
 30
0.0
 10
4.9831587734
 20
4.0829718045
 30
0.0
 10
4.9802930286
 20
4.0842164723
 30
0.0
 10
4.977592001
 20
4.0858297678
 30
0.0
 10
4.9756881794
 20
4.0871933655
 30
0.0
  0
SPLINE
  5
31E
100
AcDbEntity
  8
0
100
AcDbSpline
 62
7
  6
CONTINUOUS
 70
0
 71
3
 72
9
 73
5
 74
0
 42
0.0000001
 43
0.0000001
 44
0.0000000001
 40
0.0
 40
0.0
 40
0.0
 40
0.0
 40
0.5004454543
 40
1.0
 40
1.0
 40
1.0
 40
1.0
 10
4.9756881794
 20
4.0871933655
 30
0.0
 10
4.9737630782
 20
4.0885722046
 30
0.0
 10
4.97014478
 20
4.0916572075
 30
0.0
 10
4.9670174988
 20
4.0952266304
 30
0.0
 10
4.9655632294
 20
4.0970900589
 30
0.0
  0
LINE
  5
31F
100
AcDbEntity
  8
0
100
AcDbLine
 62
7
  6
CONTINUOUS
 10
4.9655632294
 20
4.0970900589
 11
4.9626720728
 21
4.1010959403
  0
SPLINE
  5
320
100
AcDbEntity
  8
0
100
AcDbSpline
 62
7
  6
CONTINUOUS
 70
0
 71
3
 72
9
 73
5
 74
0
 42
0.0000001
 43
0.0000001
 44
0.0000000001
 40
0.0
 40
0.0
 40
0.0
 40
0.0
 40
0.7498408641
 40
1.0
 40
1.0
 40
1.0
 40
1.0
 10
5.035317057
 20
4.1030167692
 30
0.0
 10
5.03446487
 20
4.1014692345
 30
0.0
 10
5.0332409342
 20
4.0994507731
 30
0.0
 10
5.0318894021
 20
4.0975205731
 30
0.0
 10
5.0315430184
 20
4.0970437139
 30
0.0
  0
SPLINE
  5
321
100
AcDbEntity
  8
0
100
AcDbSpline
 62
7
  6
CONTINUOUS
 70
0
 71
3
 72
9
 73
5
 74
0
 42
0.0000001
 43
0.0000001
 44
0.0000000001
 40
0.0
 40
0.0
 40
0.0
 40
0.0
 40
0.5000572727
 40
1.0
 40
1.0
 40
1.0
 40
1.0
 10
5.0315430184
 20
4.0970437139
 30
0.0
 10
5.0304012055
 20
4.0954718038
 30
0.0
 10
5.0279346338
 20
4.0924562734
 30
0.0
 10
5.0250866924
 20
4.0897909643
 30
0.0
 10
5.0235718759
 20
4.0885751354
 30
0.0
  0
SPLINE
  5
322
100
AcDbEntity
  8
0
100
AcDbSpline
 62
7
  6
CONTINUOUS
 70
0
 71
3
 72
9
 73
5
 74
0
 42
0.0000001
 43
0.0000001
 44
0.0000000001
 40
0.0
 40
0.0
 40
0.0
 40
0.0
 40
0.2502064002
 40
1.0
 40
1.0
 40
1.0
 40
1.0
 10
5.0235718759
 20
4.0885751354
 30
0.0
 10
5.0229733482
 20
4.0880947424
 30
0.0
 10
5.0205243375
 20
4.0862469192
 30
0.0
 10
5.01785034
 20
4.0846955983
 30
0.0
 10
5.0157606589
 20
4.0837350293
 30
0.0
  0
SPLINE
  5
323
100
AcDbEntity
  8
0
100
AcDbSpline
 62
7
  6
CONTINUOUS
 70
0
 71
3
 72
9
 73
5
 74
0
 42
0.0000001
 43
0.0000001
 44
0.0000000001
 40
0.0
 40
0.0
 40
0.0
 40
0.0
 40
0.499979557
 40
1.0
 40
1.0
 40
1.0
 40
1.0
 10
5.0157606589
 20
4.0837350293
 30
0.0
 10
5.0131744253
 20
4.0825462088
 30
0.0
 10
5.0077071667
 20
4.0807714822
 30
0.0
 10
5.0020108675
 20
4.0801650692
 30
0.0
 10
4.9991650385
 20
4.0800981279
 30
0.0
  0
SPLINE
  5
324
100
AcDbEntity
  8
0
100
AcDbSpline
 62
7
  6
CONTINUOUS
 70
0
 71
3
 72
11
 73
7
 74
0
 42
0.0000001
 43
0.0000001
 44
0.0000000001
 40
0.0
 40
0.0
 40
0.0
 40
0.0
 40
0.249805003
 40
0.4998646891
 40
0.7502275112
 40
1.0
 40
1.0
 40
1.0
 40
1.0
 10
5.0479993098
 20
4.1574642392
 30
0.0
 10
5.0479993098
 20
4.1527622
 30
0.0
 10
5.0475755296
 20
4.1433455625
 30
0.0
 10
5.0454141349
 20
4.1293569368
 30
0.0
 10
5.0414736596
 20
4.1157546976
 30
0.0
 10
5.0375848937
 20
4.1071350618
 30
0.0
 10
5.035317057
 20
4.1030167692
 30
0.0
  0
LINE
  5
325
100
AcDbEntity
  8
0
100
AcDbLine
 62
7
  6
CONTINUOUS
 10
5.3819797222
 20
3.9129562726
 11
5.3963430555
 21
3.9009040049
  0
SPLINE
  5
326
100
AcDbEntity
  8
0
100
AcDbSpline
 62
7
  6
CONTINUOUS
 70
0
 71
3
 72
14
 73
10
 74
0
 42
0.0000001
 43
0.0000001
 44
0.0000000001
 40
0.0
 40
0.0
 40
0.0
 40
0.0
 40
0.2496081755
 40
0.3746465198
 40
0.4997644365
 40
0.6248543935
 40
0.7499305317
 40
0.8750814968
 40
1.0
 40
1.0
 40
1.0
 40
1.0
 10
5.612131653
 20
3.6300666395
 30
0.0
 10
5.6131669004
 20
3.6323782347
 30
0.0
 10
5.6150221558
 20
3.6357328919
 30
0.0
 10
5.6181761834
 20
3.6397161973
 30
0.0
 10
5.6208871826
 20
3.6424035356
 30
0.0
 10
5.6239011779
 20
3.6447468154
 30
0.0
 10
5.627187714
 20
3.6466907423
 30
0.0
 10
5.6306764994
 20
3.6482324316
 30
0.0
 10
5.6330974383
 20
3.6490093416
 30
0.0
 10
5.634321821
 20
3.6493374139
 30
0.0
  0
SPLINE
  5
327
100
AcDbEntity
  8
0
100
AcDbSpline
 62
7
  6
CONTINUOUS
 70
0
 71
3
 72
9
 73
5
 74
0
 42
0.0000001
 43
0.0000001
 44
0.0000000001
 40
0.0
 40
0.0
 40
0.0
 40
0.0
 40
0.4998637169
 40
1.0
 40
1.0
 40
1.0
 40
1.0
 10
5.6101667812
 20
3.5972169957
 30
0.0
 10
5.6095195219
 20
3.5996321472
 30
0.0
 10
5.6085011413
 20
3.6045439618
 30
0.0
 10
5.6081660635
 20
3.6095562313
 30
0.0
 10
5.6081954863
 20
3.6120578018
 30
0.0
  0
SPLINE
  5
328
100
AcDbEntity
  8
0
100
AcDbSpline
 62
7
  6
CONTINUOUS
 70
0
 71
3
 72
10
 73
6
 74
0
 42
0.0000001
 43
0.0000001
 44
0.0000000001
 40
0.0
 40
0.0
 40
0.0
 40
0.0
 40
0.2501437322
 40
0.5003580179
 40
1.0
 40
1.0
 40
1.0
 40
1.0
 10
5.6081954863
 20
3.6120578018
 30
0.0
 10
5.6082136723
 20
3.6136040022
 30
0.0
 10
5.6083982976
 20
3.6166981117
 30
0.0
 10
5.6093986916
 20
3.6228058115
 30
0.0
 10
5.6108692332
 20
3.6272477928
 30
0.0
 10
5.612131653
 20
3.6300666395
 30
0.0
  0
SPLINE
  5
329
100
AcDbEntity
  8
0
100
AcDbSpline
 62
7
  6
CONTINUOUS
 70
0
 71
3
 72
9
 73
5
 74
0
 42
0.0000001
 43
0.0000001
 44
0.0000000001
 40
0.0
 40
0.0
 40
0.0
 40
0.0
 40
0.7496226315
 40
1.0
 40
1.0
 40
1.0
 40
1.0
 10
5.6294550189
 20
3.5681203423
 30
0.0
 10
5.6273759861
 20
3.5693997867
 30
0.0
 10
5.6247703063
 20
3.5714037219
 30
0.0
 10
5.6224721074
 20
3.5737119595
 30
0.0
 10
5.6219160037
 20
3.5743082553
 30
0.0
  0
SPLINE
  5
32A
100
AcDbEntity
  8
0
100
AcDbSpline
 62
7
  6
CONTINUOUS
 70
0
 71
3
 72
9
 73
5
 74
0
 42
0.0000001
 43
0.0000001
 44
0.0000000001
 40
0.0
 40
0.0
 40
0.0
 40
0.0
 40
0.4999464302
 40
1.0
 40
1.0
 40
1.0
 40
1.0
 10
5.6187521436
 20
3.5781653159
 30
0.0
 10
5.6172967854
 20
3.5801781877
 30
0.0
 10
5.6147365863
 20
3.5844648422
 30
0.0
 10
5.61280882
 20
3.589058054
 30
0.0
 10
5.6119731761
 20
3.5913977257
 30
0.0
  0
SPLINE
  5
32B
100
AcDbEntity
  8
0
100
AcDbSpline
 62
7
  6
CONTINUOUS
 70
0
 71
3
 72
11
 73
7
 74
0
 42
0.0000001
 43
0.0000001
 44
0.0000000001
 40
0.0
 40
0.0
 40
0.0
 40
0.0
 40
0.249986484
 40
0.4999570833
 40
0.7499532457
 40
1.0
 40
1.0
 40
1.0
 40
1.0
 10
5.658786182
 20
3.5638230576
 30
0.0
 10
5.6563326135
 20
3.5631656259
 30
0.0
 10
5.6512949081
 20
3.5622733722
 30
0.0
 10
5.6436179022
 20
3.5625316432
 30
0.0
 10
5.6361901878
 20
3.5644905696
 30
0.0
 10
5.6316188372
 20
3.5667887205
 30
0.0
 10
5.6294550189
 20
3.5681203423
 30
0.0
  0
SPLINE
  5
32C
100
AcDbEntity
  8
0
100
AcDbSpline
 62
7
  6
CONTINUOUS
 70
0
 71
3
 72
16
 73
12
 74
0
 42
0.0000001
 43
0.0000001
 44
0.0000000001
 40
0.0
 40
0.0
 40
0.0
 40
0.0
 40
0.1249532793
 40
0.250260153
 40
0.3128489388
 40
0.3753851012
 40
0.5004973239
 40
0.6255268472
 40
0.7503316482
 40
0.875215979
 40
1.0
 40
1.0
 40
1.0
 40
1.0
 10
5.7374870236
 20
3.5888898812
 30
0.0
 10
5.7358797857
 20
3.5884592231
 30
0.0
 10
5.7325853041
 20
3.5878573838
 30
0.0
 10
5.728400261
 20
3.5877747552
 30
0.0
 10
5.7250810873
 20
3.5881338659
 30
0.0
 10
5.7218065107
 20
3.5887689903
 30
0.0
 10
5.7178221659
 20
3.5900309887
 30
0.0
 10
5.7132911478
 20
3.5921567073
 30
0.0
 10
5.7090347604
 20
3.5947783917
 30
0.0
 10
5.7050469538
 20
3.5977814944
 30
0.0
 10
5.7025440235
 20
3.5999742835
 30
0.0
 10
5.7013293027
 20
3.6011081431
 30
0.0
  0
SPLINE
  5
32D
100
AcDbEntity
  8
0
100
AcDbSpline
 62
7
  6
CONTINUOUS
 70
0
 71
3
 72
9
 73
5
 74
0
 42
0.0000001
 43
0.0000001
 44
0.0000000001
 40
0.0
 40
0.0
 40
0.0
 40
0.0
 40
0.2501120929
 40
1.0
 40
1.0
 40
1.0
 40
1.0
 10
5.7013293027
 20
3.6011081431
 30
0.0
 10
5.7007583254
 20
3.6016411117
 30
0.0
 10
5.6985071445
 20
3.6038059688
 30
0.0
 10
5.6963758092
 20
3.6060936682
 30
0.0
 10
5.6948337644
 20
3.6078561019
 30
0.0
  0
SPLINE
  5
32E
100
AcDbEntity
  8
0
100
AcDbSpline
 62
7
  6
CONTINUOUS
 70
0
 71
3
 72
9
 73
5
 74
0
 42
0.0000001
 43
0.0000001
 44
0.0000000001
 40
0.0
 40
0.0
 40
0.0
 40
0.0
 40
0.4999944305
 40
1.0
 40
1.0
 40
1.0
 40
1.0
 10
5.6960890727
 20
3.6575982781
 30
0.0
 10
5.6982517412
 20
3.6597054528
 30
0.0
 10
5.7031422203
 20
3.6633821833
 30
0.0
 10
5.7088170395
 20
3.6656509604
 30
0.0
 10
5.711733708
 20
3.6664324793
 30
0.0
  0
SPLINE
  5
32F
100
AcDbEntity
  8
0
100
AcDbSpline
 62
7
  6
CONTINUOUS
 70
0
 71
3
 72
13
 73
9
 74
0
 42
0.0000001
 43
0.0000001
 44
0.0000000001
 40
0.0
 40
0.0
 40
0.0
 40
0.0
 40
0.2500100126
 40
0.5000062709
 40
0.6250129748
 40
0.750020228
 40
0.8750138708
 40
1.0
 40
1.0
 40
1.0
 40
1.0
 10
5.6807853296
 20
3.6301763724
 30
0.0
 10
5.6817923036
 20
3.6326061292
 30
0.0
 10
5.6838744573
 20
3.6374375344
 30
0.0
 10
5.6867133385
 20
3.643371993
 30
0.0
 10
5.6892052866
 20
3.6480055405
 30
0.0
 10
5.6912229827
 20
3.65139828
 30
0.0
 10
5.6934483672
 20
3.6546576322
 30
0.0
 10
5.6951473086
 20
3.6566806796
 30
0.0
 10
5.6960890727
 20
3.6575982781
 30
0.0
  0
SPLINE
  5
330
100
AcDbEntity
  8
0
100
AcDbSpline
 62
7
  6
CONTINUOUS
 70
0
 71
3
 72
15
 73
11
 74
0
 42
0.0000001
 43
0.0000001
 44
0.0000000001
 40
0.0
 40
0.0
 40
0.0
 40
0.0
 40
0.1249918881
 40
0.1876539703
 40
0.2501927842
 40
0.3751677042
 40
0.5001490752
 40
0.6251370252
 40
0.7501035765
 40
1.0
 40
1.0
 40
1.0
 40
1.0
 10
5.714289012
 20
3.5025666599
 30
0.0
 10
5.7153810867
 20
3.5046167972
 30
0.0
 10
5.7166711736
 20
3.507886196
 30
0.0
 10
5.7178764335
 20
3.5123772122
 30
0.0
 10
5.7188034213
 20
3.5169364068
 30
0.0
 10
5.7195060896
 20
3.5227095911
 30
0.0
 10
5.7198421314
 20
3.5296736238
 30
0.0
 10
5.7197823412
 20
3.5366442935
 30
0.0
 10
5.7192926461
 20
3.545922657
 30
0.0
 10
5.7185557146
 20
3.5528557292
 30
0.0
 10
5.7179519963
 20
3.5574604228
 30
0.0
  0
SPLINE
  5
331
100
AcDbEntity
  8
0
100
AcDbSpline
 62
7
  6
CONTINUOUS
 70
0
 71
3
 72
9
 73
5
 74
0
 42
0.0000001
 43
0.0000001
 44
0.0000000001
 40
0.0
 40
0.0
 40
0.0
 40
0.0
 40
0.4999582829
 40
1.0
 40
1.0
 40
1.0
 40
1.0
 10
5.688288239
 20
3.4817585746
 30
0.0
 10
5.6937729923
 20
3.4832282099
 30
0.0
 10
5.7043819373
 20
3.4883085689
 30
0.0
 10
5.7116189912
 20
3.4975542655
 30
0.0
 10
5.714289012
 20
3.5025666599
 30
0.0
  0
SPLINE
  5
332
100
AcDbEntity
  8
0
100
AcDbSpline
 62
7
  6
CONTINUOUS
 70
0
 71
3
 72
13
 73
9
 74
0
 42
0.0000001
 43
0.0000001
 44
0.0000000001
 40
0.0
 40
0.0
 40
0.0
 40
0.0
 40
0.2498584163
 40
0.4995321704
 40
0.6246594129
 40
0.7497964441
 40
0.8749452152
 40
1.0
 40
1.0
 40
1.0
 40
1.0
 10
5.6314060481
 20
3.532391549
 30
0.0
 10
5.6316153138
 20
3.5335101081
 30
0.0
 10
5.6321855794
 20
3.5357233606
 30
0.0
 10
5.6334783428
 20
3.5382994147
 30
0.0
 10
5.6349543532
 20
3.540047373
 30
0.0
 10
5.6362823237
 20
3.5411400013
 30
0.0
 10
5.6377852683
 20
3.5419729702
 30
0.0
 10
5.6388670291
 20
3.5423487089
 30
0.0
 10
5.6394171769
 20
3.5424961205
 30
0.0
  0
SPLINE
  5
333
100
AcDbEntity
  8
0
100
AcDbSpline
 62
7
  6
CONTINUOUS
 70
0
 71
3
 72
10
 73
6
 74
0
 42
0.0000001
 43
0.0000001
 44
0.0000000001
 40
0.0
 40
0.0
 40
0.0
 40
0.0
 40
0.2933073079
 40
0.5554689595
 40
1.0
 40
1.0
 40
1.0
 40
1.0
 10
5.6331582344
 20
3.5114183894
 30
0.0
 10
5.6326221694
 20
3.5134189875
 30
0.0
 10
5.6317356984
 20
3.5172473422
 30
0.0
 10
5.6307570518
 20
3.5242394476
 30
0.0
 10
5.6308287851
 20
3.5293060529
 30
0.0
 10
5.6314060462
 20
3.5323915489
 30
0.0
  0
SPLINE
  5
334
100
AcDbEntity
  8
0
100
AcDbSpline
 62
7
  6
CONTINUOUS
 70
0
 71
3
 72
8
 73
4
 74
0
 42
0.0000001
 43
0.0000001
 44
0.0000000001
 40
0.0
 40
0.0
 40
0.0
 40
0.0
 40
1.0
 40
1.0
 40
1.0
 40
1.0
 10
5.6555987414
 20
3.4771186688
 30
0.0
 10
5.6528025584
 20
3.4792029738
 30
0.0
 10
5.6501751422
 20
3.4815390498
 30
0.0
 10
5.647797035
 20
3.4840900443
 30
0.0
  0
SPLINE
  5
335
100
AcDbEntity
  8
0
100
AcDbSpline
 62
7
  6
CONTINUOUS
 70
0
 71
3
 72
9
 73
5
 74
0
 42
0.0000001
 43
0.0000001
 44
0.0000000001
 40
0.0
 40
0.0
 40
0.0
 40
0.0
 40
0.2503057244
 40
1.0
 40
1.0
 40
1.0
 40
1.0
 10
5.6388094351
 20
3.4967988873
 30
0.0
 10
5.6381984208
 20
3.4979569186
 30
0.0
 10
5.6359042043
 20
3.5026604351
 30
0.0
 10
5.6341731238
 20
3.5076303609
 30
0.0
 10
5.6331581679
 20
3.5114183716
 30
0.0
  0
SPLINE
  5
336
100
AcDbEntity
  8
0
100
AcDbSpline
 62
7
  6
CONTINUOUS
 70
0
 71
3
 72
15
 73
11
 74
0
 42
0.0000001
 43
0.0000001
 44
0.0000000001
 40
0.0
 40
0.0
 40
0.0
 40
0.0
 40
0.1248719209
 40
0.2499354666
 40
0.3749712724
 40
0.5000198244
 40
0.6250775845
 40
0.7501022412
 40
0.8751338305
 40
1.0
 40
1.0
 40
1.0
 40
1.0
 10
5.7031297946
 20
3.4676087995
 30
0.0
 10
5.701326868
 20
3.4671257067
 30
0.0
 10
5.697672513
 20
3.4663199239
 30
0.0
 10
5.6920994638
 20
3.4656429198
 30
0.0
 10
5.6864809834
 20
3.4655589738
 30
0.0
 10
5.6808887007
 20
3.4661052028
 30
0.0
 10
5.6753890609
 20
3.4672544496
 30
0.0
 10
5.6700489937
 20
3.4689994639
 30
0.0
 10
5.6649204536
 20
3.4712797438
 30
0.0
 10
5.6616560591
 20
3.4731068309
 30
0.0
 10
5.6600671205
 20
3.4740860529
 30
0.0
  0
LINE
  5
337
100
AcDbEntity
  8
0
100
AcDbLine
 62
7
  6
CONTINUOUS
 10
5.7419586523
 20
3.54333484
 11
5.7609264627
 21
3.5393539728
  0
LINE
  5
338
100
AcDbEntity
  8
0
100
AcDbLine
 62
7
  6
CONTINUOUS
 10
5.7609264627
 20
3.5393539728
 11
5.7731939266
 21
3.4935667383
  0
LINE
  5
339
100
AcDbEntity
  8
0
100
AcDbLine
 62
7
  6
CONTINUOUS
 10
5.7731939266
 20
3.4935667383
 11
5.7943414152
 21
3.489285689
  0
LINE
  5
33A
100
AcDbEntity
  8
0
100
AcDbLine
 62
7
  6
CONTINUOUS
 10
5.6473594686
 20
3.2112420779
 11
5.6441035653
 21
3.1927769326
  0
LINE
  5
33B
100
AcDbEntity
  8
0
100
AcDbLine
 62
7
  6
CONTINUOUS
 10
5.6759377924
 20
2.9264798176
 11
5.6722120892
 21
2.9241359741
  0
LINE
  5
33C
100
AcDbEntity
  8
0
100
AcDbLine
 62
7
  6
CONTINUOUS
 10
5.6772944275
 20
2.9067850375
 11
5.6771147817
 21
2.908860145
  0
SPLINE
  5
33D
100
AcDbEntity
  8
0
100
AcDbSpline
 62
7
  6
CONTINUOUS
 70
0
 71
3
 72
12
 73
8
 74
0
 42
0.0000001
 43
0.0000001
 44
0.0000000001
 40
0.0
 40
0.0
 40
0.0
 40
0.0
 40
0.1251310956
 40
0.2501195604
 40
0.5000732932
 40
0.7500367327
 40
1.0
 40
1.0
 40
1.0
 40
1.0
 10
5.6771147817
 20
2.908860145
 30
0.0
 10
5.6770208013
 20
2.9095242761
 30
0.0
 10
5.6767765336
 20
2.9108439675
 30
0.0
 10
5.6761379671
 20
2.9134482251
 30
0.0
 10
5.6751367312
 20
2.9166478436
 30
0.0
 10
5.6737464891
 20
2.9204202216
 30
0.0
 10
5.6727337468
 20
2.9229017996
 30
0.0
 10
5.6722120892
 20
2.9241359741
 30
0.0
  0
SPLINE
  5
33E
100
AcDbEntity
  8
0
100
AcDbSpline
 62
7
  6
CONTINUOUS
 70
0
 71
3
 72
13
 73
9
 74
0
 42
0.0000001
 43
0.0000001
 44
0.0000000001
 40
0.0
 40
0.0
 40
0.0
 40
0.0
 40
0.2499074822
 40
0.4998137666
 40
0.6247924539
 40
0.7497406909
 40
0.8750038079
 40
1.0
 40
1.0
 40
1.0
 40
1.0
 10
5.6700797745
 20
2.8905696173
 30
0.0
 10
5.670938933
 20
2.8917967299
 30
0.0
 10
5.6725989792
 20
2.894292339
 30
0.0
 10
5.6744641988
 20
2.8975459973
 30
0.0
 10
5.6757425528
 20
2.9002574719
 30
0.0
 10
5.676555471
 20
2.9023576033
 30
0.0
 10
5.6771489737
 20
2.9045311456
 30
0.0
 10
5.6773124686
 20
2.9060360078
 30
0.0
 10
5.6772944275
 20
2.9067850375
 30
0.0
  0
LINE
  5
33F
100
AcDbEntity
  8
0
100
AcDbLine
 62
7
  6
CONTINUOUS
 10
5.670079852
 20
2.8905697281
 11
5.6452191119
 21
2.855062693
  0
LINE
  5
340
100
AcDbEntity
  8
0
100
AcDbLine
 62
7
  6
CONTINUOUS
 10
5.5646788846
 20
2.9637206198
 11
5.555983918
 21
2.9513017868
  0
LINE
  5
341
100
AcDbEntity
  8
0
100
AcDbLine
 62
7
  6
CONTINUOUS
 10
5.555983918
 20
2.9513017868
 11
5.632857741
 21
2.8487662843
  0
LINE
  5
342
100
AcDbEntity
  8
0
100
AcDbLine
 62
7
  6
CONTINUOUS
 10
5.632857741
 20
2.8487662843
 11
5.6342837883
 21
2.8468641946
  0
LINE
  5
343
100
AcDbEntity
  8
0
100
AcDbLine
 62
7
  6
CONTINUOUS
 10
5.6342837883
 20
2.8468641946
 11
5.6491649347
 21
2.8270154204
  0
SPLINE
  5
344
100
AcDbEntity
  8
0
100
AcDbSpline
 62
7
  6
CONTINUOUS
 70
0
 71
3
 72
15
 73
11
 74
0
 42
0.0000001
 43
0.0000001
 44
0.0000000001
 40
0.0
 40
0.0
 40
0.0
 40
0.0
 40
0.1249921185
 40
0.1876542857
 40
0.2501931595
 40
0.3751681336
 40
0.5001494998
 40
0.6251373956
 40
0.7501038515
 40
1.0
 40
1.0
 40
1.0
 40
1.0
 10
5.547011899
 20
2.8099479318
 30
0.0
 10
5.5492843787
 20
2.8104291467
 30
0.0
 10
5.5526181531
 20
2.811542399
 30
0.0
 10
5.556833224
 20
2.8135058669
 30
0.0
 10
5.5609216532
 20
2.8157263239
 30
0.0
 10
5.5657958724
 20
2.8188989481
 30
0.0
 10
5.5713466806
 20
2.8231178815
 30
0.0
 10
5.5766481385
 20
2.827644305
 30
0.0
 10
5.5834410713
 20
2.8339833974
 30
0.0
 10
5.5882784725
 20
2.839004374
 30
0.0
 10
5.5914178437
 20
2.8424266637
 30
0.0
  0
SPLINE
  5
345
100
AcDbEntity
  8
0
100
AcDbSpline
 62
7
  6
CONTINUOUS
 70
0
 71
3
 72
9
 73
5
 74
0
 42
0.0000001
 43
0.0000001
 44
0.0000000001
 40
0.0
 40
0.0
 40
0.0
 40
0.0
 40
0.4999512892
 40
1.0
 40
1.0
 40
1.0
 40
1.0
 10
5.5143588629
 20
2.8164905597
 30
0.0
 10
5.5190101552
 20
2.8132336898
 30
0.0
 10
5.5297212593
 20
2.8083723234
 30
0.0
 10
5.541455818
 20
2.8087713893
 30
0.0
 10
5.547011899
 20
2.8099479318
 30
0.0
  0
SPLINE
  5
346
100
AcDbEntity
  8
0
100
AcDbSpline
 62
7
  6
CONTINUOUS
 70
0
 71
3
 72
13
 73
9
 74
0
 42
0.0000001
 43
0.0000001
 44
0.0000000001
 40
0.0
 40
0.0
 40
0.0
 40
0.0
 40
0.2498585642
 40
0.4995326306
 40
0.6246599834
 40
0.7497970171
 40
0.8749456045
 40
1.0
 40
1.0
 40
1.0
 40
1.0
 10
5.5165832937
 20
2.8926107563
 30
0.0
 10
5.5175746821
 20
2.8931694395
 30
0.0
 10
5.519636709
 20
2.8941552301
 30
0.0
 10
5.5224410695
 20
2.8948207583
 30
0.0
 10
5.5247288548
 20
2.8948136273
 30
0.0
 10
5.5264194651
 20
2.8944986669
 30
0.0
 10
5.5280236339
 20
2.8938827646
 30
0.0
 10
5.5290068103
 20
2.8932956071
 30
0.0
 10
5.5294733628
 20
2.8929689236
 30
0.0
  0
SPLINE
  5
347
100
AcDbEntity
  8
0
100
AcDbSpline
 62
7
  6
CONTINUOUS
 70
0
 71
3
 72
11
 73
7
 74
0
 42
0.0000001
 43
0.0000001
 44
0.0000000001
 40
0.0
 40
0.0
 40
0.0
 40
0.0
 40
0.2500035186
 40
0.5000049516
 40
0.7500037597
 40
1.0
 40
1.0
 40
1.0
 40
1.0
 10
5.5016429938
 20
2.8777874088
 30
0.0
 10
5.5026565373
 20
2.8792348377
 30
0.0
 10
5.5047691675
 20
2.8820714216
 30
0.0
 10
5.5082548637
 20
2.8860744319
 30
0.0
 10
5.5121327336
 20
2.8897041384
 30
0.0
 10
5.5150439388
 20
2.8917432741
 30
0.0
 10
5.5165832937
 20
2.8926107563
 30
0.0
  0
SPLINE
  5
348
100
AcDbEntity
  8
0
100
AcDbSpline
 62
7
  6
CONTINUOUS
 70
0
 71
3
 72
9
 73
5
 74
0
 42
0.0000001
 43
0.0000001
 44
0.0000000001
 40
0.0
 40
0.0
 40
0.0
 40
0.0
 40
0.2501177982
 40
1.0
 40
1.0
 40
1.0
 40
1.0
 10
5.4940760071
 20
2.8640605796
 30
0.0
 10
5.4944028258
 20
2.8648621191
 30
0.0
 10
5.4957765844
 20
2.8680392086
 30
0.0
 10
5.4974054504
 20
2.8711042854
 30
0.0
 10
5.4987428991
 20
2.8733283017
 30
0.0
  0
SPLINE
  5
349
100
AcDbEntity
  8
0
100
AcDbSpline
 62
7
  6
CONTINUOUS
 70
0
 71
3
 72
9
 73
5
 74
0
 42
0.0000001
 43
0.0000001
 44
0.0000000001
 40
0.0
 40
0.0
 40
0.0
 40
0.0
 40
0.2497170048
 40
1.0
 40
1.0
 40
1.0
 40
1.0
 10
5.5130593334
 20
2.7960260704
 30
0.0
 10
5.5123718994
 20
2.7965074169
 30
0.0
 10
5.5096582764
 20
2.7984900727
 30
0.0
 10
5.5071085054
 20
2.8006996647
 30
0.0
 10
5.5053224307
 20
2.8024793965
 30
0.0
  0
SPLINE
  5
34A
100
AcDbEntity
  8
0
100
AcDbSpline
 62
7
  6
CONTINUOUS
 70
0
 71
3
 72
9
 73
5
 74
0
 42
0.0000001
 43
0.0000001
 44
0.0000000001
 40
0.0
 40
0.0
 40
0.0
 40
0.0
 40
0.5000121318
 40
1.0
 40
1.0
 40
1.0
 40
1.0
 10
5.5053224307
 20
2.8024793965
 30
0.0
 10
5.5041550637
 20
2.8036426179
 30
0.0
 10
5.5019249339
 20
2.8060770359
 30
0.0
 10
5.4999456051
 20
2.8087199691
 30
0.0
 10
5.4990227695
 20
2.8100852312
 30
0.0
  0
SPLINE
  5
34B
100
AcDbEntity
  8
0
100
AcDbSpline
 62
7
  6
CONTINUOUS
 70
0
 71
3
 72
9
 73
5
 74
0
 42
0.0000001
 43
0.0000001
 44
0.0000000001
 40
0.0
 40
0.0
 40
0.0
 40
0.0
 40
0.5000504492
 40
1.0
 40
1.0
 40
1.0
 40
1.0
 10
5.4964342184
 20
2.814348417
 30
0.0
 10
5.4956499423
 20
2.8157938538
 30
0.0
 10
5.4942190523
 20
2.8187613776
 30
0.0
 10
5.4930792064
 20
2.8218517462
 30
0.0
 10
5.4925784263
 20
2.8234177936
 30
0.0
  0
SPLINE
  5
34C
100
AcDbEntity
  8
0
100
AcDbSpline
 62
7
  6
CONTINUOUS
 70
0
 71
3
 72
9
 73
5
 74
0
 42
0.0000001
 43
0.0000001
 44
0.0000000001
 40
0.0
 40
0.0
 40
0.0
 40
0.0
 40
0.2503068786
 40
1.0
 40
1.0
 40
1.0
 40
1.0
 10
5.4925784263
 20
2.8234177936
 30
0.0
 10
5.4923238076
 20
2.8242140412
 30
0.0
 10
5.4913775954
 20
2.8274176178
 30
0.0
 10
5.4907049654
 20
2.8307002584
 30
0.0
 10
5.4903411368
 20
2.8331774846
 30
0.0
  0
LINE
  5
34D
100
AcDbEntity
  8
0
100
AcDbLine
 62
7
  6
CONTINUOUS
 10
5.596028054
 20
2.8149568513
 11
5.6051707458
 21
2.7978678557
  0
LINE
  5
34E
100
AcDbEntity
  8
0
100
AcDbLine
 62
7
  6
CONTINUOUS
 10
5.6051707458
 20
2.7978678557
 11
5.5779807218
 21
2.7590392051
  0
LINE
  5
34F
100
AcDbEntity
  8
0
100
AcDbLine
 62
7
  6
CONTINUOUS
 10
5.5779807218
 20
2.7590392051
 11
5.5882945359
 21
2.7400875224
  0
SPLINE
  5
350
100
AcDbEntity
  8
0
100
AcDbSpline
 62
7
  6
CONTINUOUS
 70
0
 71
3
 72
13
 73
9
 74
0
 42
0.0000001
 43
0.0000001
 44
0.0000000001
 40
0.0
 40
0.0
 40
0.0
 40
0.0
 40
0.2497577368
 40
0.3748558925
 40
0.499981485
 40
0.6250963345
 40
0.7502157512
 40
1.0
 40
1.0
 40
1.0
 40
1.0
 10
5.7394517252
 20
3.6487699098
 30
0.0
 10
5.7382707272
 20
3.649532985
 30
0.0
 10
5.7363917788
 20
3.6505302889
 30
0.0
 10
5.7337262268
 20
3.6514485825
 30
0.0
 10
5.7316595806
 20
3.6519103539
 30
0.0
 10
5.7295541225
 20
3.6521399026
 30
0.0
 10
5.7267344692
 20
3.6521212275
 30
0.0
 10
5.7246353531
 20
3.6517629094
 30
0.0
 10
5.7232770472
 20
3.6513989524
 30
0.0
  0
SPLINE
  5
351
100
AcDbEntity
  8
0
100
AcDbSpline
 62
7
  6
CONTINUOUS
 70
0
 71
3
 72
9
 73
5
 74
0
 42
0.0000001
 43
0.0000001
 44
0.0000000001
 40
0.0
 40
0.0
 40
0.0
 40
0.0
 40
0.4997931398
 40
1.0
 40
1.0
 40
1.0
 40
1.0
 10
5.7487312557
 20
3.6374298708
 30
0.0
 10
5.748018845
 20
3.6392533558
 30
0.0
 10
5.7461732367
 20
3.6427614414
 30
0.0
 10
5.7434599157
 20
3.6456554647
 30
0.0
 10
5.7419603911
 20
3.6469165755
 30
0.0
  0
SPLINE
  5
352
100
AcDbEntity
  8
0
100
AcDbSpline
 62
7
  6
CONTINUOUS
 70
0
 71
3
 72
11
 73
7
 74
0
 42
0.0000001
 43
0.0000001
 44
0.0000000001
 40
0.0
 40
0.0
 40
0.0
 40
0.0
 40
0.2502074219
 40
0.5001776003
 40
0.750178219
 40
1.0
 40
1.0
 40
1.0
 40
1.0
 10
5.7488853327
 20
3.6183996849
 30
0.0
 10
5.7494407041
 20
3.6196604612
 30
0.0
 10
5.7503107032
 20
3.6222961689
 30
0.0
 10
5.7508038872
 20
3.6264213039
 30
0.0
 10
5.7505738334
 20
3.6305609475
 30
0.0
 10
5.7500162989
 20
3.6332653731
 30
0.0
 10
5.7496602271
 20
3.6345940419
 30
0.0
  0
SPLINE
  5
353
100
AcDbEntity
  8
0
100
AcDbSpline
 62
7
  6
CONTINUOUS
 70
0
 71
3
 72
12
 73
8
 74
0
 42
0.0000001
 43
0.0000001
 44
0.0000000001
 40
0.0
 40
0.0
 40
0.0
 40
0.0
 40
0.2498000967
 40
0.4997287526
 40
0.6248550313
 40
0.7500594443
 40
1.0
 40
1.0
 40
1.0
 40
1.0
 10
5.7339860783
 20
3.6060783671
 30
0.0
 10
5.7354303855
 20
3.6064653681
 30
0.0
 10
5.7382680932
 20
3.6074619781
 30
0.0
 10
5.7415237006
 20
3.6093583238
 30
0.0
 10
5.7438444757
 20
3.6112595885
 30
0.0
 10
5.7459392047
 20
3.613406061
 30
0.0
 10
5.7472399351
 20
3.6152627377
 30
0.0
 10
5.7479713499
 20
3.6165678585
 30
0.0
  0
SPLINE
  5
354
100
AcDbEntity
  8
0
100
AcDbSpline
 62
7
  6
CONTINUOUS
 70
0
 71
3
 72
9
 73
5
 74
0
 42
0.0000001
 43
0.0000001
 44
0.0000000001
 40
0.0
 40
0.0
 40
0.0
 40
0.0
 40
0.4999908831
 40
1.0
 40
1.0
 40
1.0
 40
1.0
 10
5.6649299078
 20
3.593570874
 30
0.0
 10
5.6673510933
 20
3.597979852
 30
0.0
 10
5.6717197509
 20
3.6070616184
 30
0.0
 10
5.6753408198
 20
3.6164563944
 30
0.0
 10
5.6770016194
 20
3.6212045326
 30
0.0
  0
SPLINE
  5
355
100
AcDbEntity
  8
0
100
AcDbSpline
 62
7
  6
CONTINUOUS
 70
0
 71
3
 72
9
 73
5
 74
0
 42
0.0000001
 43
0.0000001
 44
0.0000000001
 40
0.0
 40
0.0
 40
0.0
 40
0.0
 40
0.4999250699
 40
1.0
 40
1.0
 40
1.0
 40
1.0
 10
5.6474499252
 20
3.578912034
 30
0.0
 10
5.6512039067
 20
3.5799179103
 30
0.0
 10
5.6583613296
 20
3.5837285644
 30
0.0
 10
5.6630586406
 20
3.5901632972
 30
0.0
 10
5.6649299078
 20
3.593570874
 30
0.0
  0
SPLINE
  5
356
100
AcDbEntity
  8
0
100
AcDbSpline
 62
7
  6
CONTINUOUS
 70
0
 71
3
 72
9
 73
5
 74
0
 42
0.0000001
 43
0.0000001
 44
0.0000000001
 40
0.0
 40
0.0
 40
0.0
 40
0.0
 40
0.7498422215
 40
1.0
 40
1.0
 40
1.0
 40
1.0
 10
5.6726769797
 20
3.6247196179
 30
0.0
 10
5.6705375026
 20
3.6263224016
 30
0.0
 10
5.6675472564
 20
3.6282942294
 30
0.0
 10
5.6643727829
 20
3.6299202708
 30
0.0
 10
5.6635670773
 20
3.6303026405
 30
0.0
  0
SPLINE
  5
357
100
AcDbEntity
  8
0
100
AcDbSpline
 62
7
  6
CONTINUOUS
 70
0
 71
3
 72
12
 73
8
 74
0
 42
0.0000001
 43
0.0000001
 44
0.0000000001
 40
0.0
 40
0.0
 40
0.0
 40
0.0
 40
0.2498982808
 40
0.4998058585
 40
0.6249239391
 40
0.7500903835
 40
1.0
 40
1.0
 40
1.0
 40
1.0
 10
5.6635670773
 20
3.6303026405
 30
0.0
 10
5.6617687652
 20
3.6311560788
 30
0.0
 10
5.6580506006
 20
3.6326253674
 30
0.0
 10
5.6531546476
 20
3.6336682545
 30
0.0
 10
5.6491744989
 20
3.6339493946
 30
0.0
 10
5.6451869348
 20
3.6338408735
 30
0.0
 10
5.6422205577
 20
3.6333273534
 30
0.0
 10
5.6402977483
 20
3.6328121381
 30
0.0
  0
SPLINE
  5
358
100
AcDbEntity
  8
0
100
AcDbSpline
 62
7
  6
CONTINUOUS
 70
0
 71
3
 72
13
 73
9
 74
0
 42
0.0000001
 43
0.0000001
 44
0.0000000001
 40
0.0
 40
0.0
 40
0.0
 40
0.0
 40
0.0927677232
 40
0.1940789972
 40
0.3043684614
 40
0.4239729147
 40
0.6920814084
 40
1.0
 40
1.0
 40
1.0
 40
1.0
 10
4.9766825421
 20
4.2082750891
 30
0.0
 10
4.9761242472
 20
4.2068657232
 30
0.0
 10
4.9750863667
 20
4.2038648266
 30
0.0
 10
4.9737961313
 20
4.1990581685
 30
0.0
 10
4.9727053835
 20
4.19375414
 30
0.0
 10
4.9714703897
 20
4.1857077137
 30
0.0
 10
4.9704926222
 20
4.1743706118
 30
0.0
 10
4.9702768938
 20
4.1649554058
 30
0.0
 10
4.9702768937
 20
4.1599237082
 30
0.0
  0
SPLINE
  5
359
100
AcDbEntity
  8
0
100
AcDbSpline
 62
7
  6
CONTINUOUS
 70
0
 71
3
 72
8
 73
4
 74
0
 42
0.0000001
 43
0.0000001
 44
0.0000000001
 40
0.0
 40
0.0
 40
0.0
 40
0.0
 40
1.0
 40
1.0
 40
1.0
 40
1.0
 10
4.9955740895
 20
4.2243830256
 30
0.0
 10
4.9940151874
 20
4.2242340128
 30
0.0
 10
4.992459361
 20
4.2239323843
 30
0.0
 10
4.9909698932
 20
4.2234487871
 30
0.0
  0
SPLINE
  5
35A
100
AcDbEntity
  8
0
100
AcDbSpline
 62
7
  6
CONTINUOUS
 70
0
 71
3
 72
10
 73
6
 74
0
 42
0.0000001
 43
0.0000001
 44
0.0000000001
 40
0.0
 40
0.0
 40
0.0
 40
0.0
 40
0.4997328351
 40
0.7497860967
 40
1.0
 40
1.0
 40
1.0
 40
1.0
 10
4.9909698932
 20
4.2234487871
 30
0.0
 10
4.9891279012
 20
4.2228507331
 30
0.0
 10
4.9864774335
 20
4.2215249908
 30
0.0
 10
4.9834794247
 20
4.219055151
 30
0.0
 10
4.9821641936
 20
4.2176213321
 30
0.0
 10
4.9815515197
 20
4.2168697396
 30
0.0
  0
SPLINE
  5
35B
100
AcDbEntity
  8
0
100
AcDbSpline
 62
7
  6
CONTINUOUS
 70
0
 71
3
 72
9
 73
5
 74
0
 42
0.0000001
 43
0.0000001
 44
0.0000000001
 40
0.0
 40
0.0
 40
0.0
 40
0.0
 40
0.5004238426
 40
1.0
 40
1.0
 40
1.0
 40
1.0
 10
4.9815515197
 20
4.2168697396
 30
0.0
 10
4.980507351
 20
4.2155888146
 30
0.0
 10
4.9786745755
 20
4.2128169657
 30
0.0
 10
4.9772901512
 20
4.2098087743
 30
0.0
 10
4.9766825423
 20
4.2082749478
 30
0.0
  0
SPLINE
  5
35C
100
AcDbEntity
  8
0
100
AcDbSpline
 62
7
  6
CONTINUOUS
 70
0
 71
3
 72
9
 73
5
 74
0
 42
0.0000001
 43
0.0000001
 44
0.0000000001
 40
0.0
 40
0.0
 40
0.0
 40
0.0
 40
0.4999531922
 40
1.0
 40
1.0
 40
1.0
 40
1.0
 10
5.0196006588
 20
4.2065652957
 30
0.0
 10
5.0190170182
 20
4.2081213425
 30
0.0
 10
5.0177044949
 20
4.2111820396
 30
0.0
 10
5.0160143642
 20
4.2140614982
 30
0.0
 10
5.0150527758
 20
4.2154173375
 30
0.0
  0
SPLINE
  5
35D
100
AcDbEntity
  8
0
100
AcDbSpline
 62
7
  6
CONTINUOUS
 70
0
 71
3
 72
13
 73
9
 74
0
 42
0.0000001
 43
0.0000001
 44
0.0000000001
 40
0.0
 40
0.0
 40
0.0
 40
0.0
 40
0.2498465583
 40
0.3749410994
 40
0.5000973972
 40
0.6251851586
 40
0.7502989088
 40
1.0
 40
1.0
 40
1.0
 40
1.0
 10
5.0150527758
 20
4.2154173375
 30
0.0
 10
5.0140849005
 20
4.2167820412
 30
0.0
 10
5.0124447356
 20
4.2187134461
 30
0.0
 10
5.009863752
 20
4.2208583929
 30
0.0
 10
5.007735306
 20
4.2222092908
 30
0.0
 10
5.0054438099
 20
4.2232618024
 30
0.0
 10
5.0022331999
 20
4.2242377998
 30
0.0
 10
4.9997067752
 20
4.2244979424
 30
0.0
 10
4.9980346686
 20
4.2244980234
 30
0.0
  0
SPLINE
  5
35E
100
AcDbEntity
  8
0
100
AcDbSpline
 62
7
  6
CONTINUOUS
 70
0
 71
3
 72
12
 73
8
 74
0
 42
0.0000001
 43
0.0000001
 44
0.0000000001
 40
0.0
 40
0.0
 40
0.0
 40
0.0
 40
0.2499984462
 40
0.4999830813
 40
0.749940014
 40
0.8749768498
 40
1.0
 40
1.0
 40
1.0
 40
1.0
 10
5.0263267115
 20
4.1572524319
 30
0.0
 10
5.0263267115
 20
4.1614196832
 30
0.0
 10
5.0261506282
 20
4.169756057
 30
0.0
 10
5.0251898462
 20
4.1822269433
 30
0.0
 10
5.0235932353
 20
4.1925401099
 30
0.0
 10
5.0216149236
 20
4.200641773
 30
0.0
 10
5.0203325441
 20
4.2046140135
 30
0.0
 10
5.0196006588
 20
4.2065652957
 30
0.0
  0
SPLINE
  5
35F
100
AcDbEntity
  8
0
100
AcDbSpline
 62
7
  6
CONTINUOUS
 70
0
 71
3
 72
13
 73
9
 74
0
 42
0.0000001
 43
0.0000001
 44
0.0000000001
 40
0.0
 40
0.0
 40
0.0
 40
0.0
 40
0.092767667
 40
0.1940789051
 40
0.30436835
 40
0.4239727987
 40
0.6920813232
 40
1.0
 40
1.0
 40
1.0
 40
1.0
 10
4.8677857634
 20
4.2082757625
 30
0.0
 10
4.8672274673
 20
4.2068663967
 30
0.0
 10
4.866189584
 20
4.2038654999
 30
0.0
 10
4.8648993439
 20
4.1990588406
 30
0.0
 10
4.8638085909
 20
4.1937548096
 30
0.0
 10
4.8625735898
 20
4.1857083774
 30
0.0
 10
4.8615958146
 20
4.1743712647
 30
0.0
 10
4.8613800839
 20
4.1649560489
 30
0.0
 10
4.8613800839
 20
4.1599243457
 30
0.0
  0
SPLINE
  5
360
100
AcDbEntity
  8
0
100
AcDbSpline
 62
7
  6
CONTINUOUS
 70
0
 71
3
 72
8
 73
4
 74
0
 42
0.0000001
 43
0.0000001
 44
0.0000000001
 40
0.0
 40
0.0
 40
0.0
 40
0.0
 40
1.0
 40
1.0
 40
1.0
 40
1.0
 10
4.886677775
 20
4.2243850441
 30
0.0
 10
4.8851186678
 20
4.2242359517
 30
0.0
 10
4.8835626408
 20
4.2239342166
 30
0.0
 10
4.8820729984
 20
4.2234504716
 30
0.0
  0
SPLINE
  5
361
100
AcDbEntity
  8
0
100
AcDbSpline
 62
7
  6
CONTINUOUS
 70
0
 71
3
 72
10
 73
6
 74
0
 42
0.0000001
 43
0.0000001
 44
0.0000000001
 40
0.0
 40
0.0
 40
0.0
 40
0.0
 40
0.4997315799
 40
0.7497854714
 40
1.0
 40
1.0
 40
1.0
 40
1.0
 10
4.8820729984
 20
4.2234504716
 30
0.0
 10
4.8802309576
 20
4.222852289
 30
0.0
 10
4.8775804458
 20
4.221526334
 30
0.0
 10
4.8745824158
 20
4.2190562356
 30
0.0
 10
4.8732671781
 20
4.2176222932
 30
0.0
 10
4.8726545019
 20
4.2168706407
 30
0.0
  0
SPLINE
  5
362
100
AcDbEntity
  8
0
100
AcDbSpline
 62
7
  6
CONTINUOUS
 70
0
 71
3
 72
9
 73
5
 74
0
 42
0.0000001
 43
0.0000001
 44
0.0000000001
 40
0.0
 40
0.0
 40
0.0
 40
0.0
 40
0.5004251432
 40
1.0
 40
1.0
 40
1.0
 40
1.0
 10
4.8726545019
 20
4.2168706407
 30
0.0
 10
4.8716103945
 20
4.2155896935
 30
0.0
 10
4.8697777203
 20
4.2128178453
 30
0.0
 10
4.8683933497
 20
4.2098096875
 30
0.0
 10
4.8677857637
 20
4.2082758842
 30
0.0
  0
SPLINE
  5
363
100
AcDbEntity
  8
0
100
AcDbSpline
 62
7
  6
CONTINUOUS
 70
0
 71
3
 72
9
 73
5
 74
0
 42
0.0000001
 43
0.0000001
 44
0.0000000001
 40
0.0
 40
0.0
 40
0.0
 40
0.0
 40
0.2503277221
 40
1.0
 40
1.0
 40
1.0
 40
1.0
 10
4.891620171
 20
4.2243676172
 30
0.0
 10
4.8920117119
 20
4.2243251036
 30
0.0
 10
4.8935707609
 20
4.2241135324
 30
0.0
 10
4.895107881
 20
4.2237256284
 30
0.0
 10
4.8962174907
 20
4.2233257502
 30
0.0
  0
SPLINE
  5
364
100
AcDbEntity
  8
0
100
AcDbSpline
 62
7
  6
CONTINUOUS
 70
0
 71
3
 72
9
 73
5
 74
0
 42
0.0000001
 43
0.0000001
 44
0.0000000001
 40
0.0
 40
0.0
 40
0.0
 40
0.0
 40
0.7496666334
 40
1.0
 40
1.0
 40
1.0
 40
1.0
 10
4.8962174907
 20
4.2233257502
 30
0.0
 10
4.8972964879
 20
4.2229369041
 30
0.0
 10
4.8986901943
 20
4.2222775595
 30
0.0
 10
4.8999866321
 20
4.2214648525
 30
0.0
 10
4.9003051204
 20
4.2212521432
 30
0.0
  0
SPLINE
  5
365
100
AcDbEntity
  8
0
100
AcDbSpline
 62
7
  6
CONTINUOUS
 70
0
 71
3
 72
9
 73
5
 74
0
 42
0.0000001
 43
0.0000001
 44
0.0000000001
 40
0.0
 40
0.0
 40
0.0
 40
0.0
 40
0.5001400465
 40
1.0
 40
1.0
 40
1.0
 40
1.0
 10
4.9003051204
 20
4.2212521432
 30
0.0
 10
4.9013191799
 20
4.2205748817
 30
0.0
 10
4.9032232471
 20
4.2190272026
 30
0.0
 10
4.9048336069
 20
4.2171830286
 30
0.0
 10
4.9055725983
 20
4.2162138916
 30
0.0
  0
SPLINE
  5
366
100
AcDbEntity
  8
0
100
AcDbSpline
 62
7
  6
CONTINUOUS
 70
0
 71
3
 72
9
 73
5
 74
0
 42
0.0000001
 43
0.0000001
 44
0.0000000001
 40
0.0
 40
0.0
 40
0.0
 40
0.0
 40
0.2503759301
 40
1.0
 40
1.0
 40
1.0
 40
1.0
 10
4.9055725983
 20
4.2162138916
 30
0.0
 10
4.9058399803
 20
4.2158632382
 30
0.0
 10
4.9068737783
 20
4.2144367911
 30
0.0
 10
4.9077807497
 20
4.2129203729
 30
0.0
 10
4.9083978039
 20
4.2117531957
 30
0.0
  0
LINE
  5
367
100
AcDbEntity
  8
0
100
AcDbLine
 62
7
  6
CONTINUOUS
 10
4.9083978039
 20
4.2117531957
 11
4.9107039478
 21
4.2065685122
  0
SPLINE
  5
368
100
AcDbEntity
  8
0
100
AcDbSpline
 62
7
  6
CONTINUOUS
 70
0
 71
3
 72
11
 73
7
 74
0
 42
0.0000001
 43
0.0000001
 44
0.0000000001
 40
0.0
 40
0.0
 40
0.0
 40
0.0
 40
0.2971063421
 40
0.5616775089
 40
0.7952366178
 40
1.0
 40
1.0
 40
1.0
 40
1.0
 10
4.9174299017
 20
4.1572564636
 30
0.0
 10
4.9174299017
 20
4.1622083266
 30
0.0
 10
4.9171958922
 20
4.1715729404
 30
0.0
 10
4.9159901548
 20
4.1847846193
 30
0.0
 10
4.9139504349
 20
4.1963361879
 30
0.0
 10
4.9119025071
 20
4.2033730974
 30
0.0
 10
4.9107039512
 20
4.2065684955
 30
0.0
  0
SPLINE
  5
369
100
AcDbEntity
  8
0
100
AcDbSpline
 62
7
  6
CONTINUOUS
 70
0
 71
3
 72
13
 73
9
 74
0
 42
0.0000001
 43
0.0000001
 44
0.0000000001
 40
0.0
 40
0.0
 40
0.0
 40
0.0
 40
0.0927677131
 40
0.1940789793
 40
0.3043684382
 40
0.4239728894
 40
0.6920813886
 40
1.0
 40
1.0
 40
1.0
 40
1.0
 10
4.1172198463
 20
2.9481526862
 30
0.0
 10
4.1187195406
 20
2.9483738713
 30
0.0
 10
4.121837334
 20
2.9489754883
 30
0.0
 10
4.1266451406
 20
2.9502614404
 30
0.0
 10
4.1317839389
 20
2.9519688392
 30
0.0
 10
4.1393698472
 20
2.9549225166
 30
0.0
 10
4.1496769519
 20
2.9597442971
 30
0.0
 10
4.1579386259
 20
2.9642650749
 30
0.0
 10
4.1622962052
 20
2.9667809244
 30
0.0
  0
SPLINE
  5
36A
100
AcDbEntity
  8
0
100
AcDbSpline
 62
7
  6
CONTINUOUS
 70
0
 71
3
 72
10
 73
6
 74
0
 42
0.0000001
 43
0.0000001
 44
0.0000000001
 40
0.0
 40
0.0
 40
0.0
 40
0.0
 40
0.2503488813
 40
0.5006248327
 40
1.0
 40
1.0
 40
1.0
 40
1.0
 10
4.0938240907
 20
2.9564592947
 30
0.0
 10
4.0943865558
 20
2.9556695903
 30
0.0
 10
4.0956071033
 20
2.9541541372
 30
0.0
 10
4.0984411951
 20
2.9515012425
 30
0.0
 10
4.1010017872
 20
2.9500148037
 30
0.0
 10
4.102799546
 20
2.9493019042
 30
0.0
  0
SPLINE
  5
36B
100
AcDbEntity
  8
0
100
AcDbSpline
 62
7
  6
CONTINUOUS
 70
0
 71
3
 72
9
 73
5
 74
0
 42
0.0000001
 43
0.0000001
 44
0.0000000001
 40
0.0
 40
0.0
 40
0.0
 40
0.0
 40
0.499948229
 40
1.0
 40
1.0
 40
1.0
 40
1.0
 10
4.102799546
 20
2.9493019042
 30
0.0
 10
4.105059576
 20
2.9484056916
 30
0.0
 10
4.1099320215
 20
2.9474697289
 30
0.0
 10
4.1148142356
 20
2.9477979524
 30
0.0
 10
4.1172199578
 20
2.9481527508
 30
0.0
  0
SPLINE
  5
36C
100
AcDbEntity
  8
0
100
AcDbSpline
 62
7
  6
CONTINUOUS
 70
0
 71
3
 72
11
 73
7
 74
0
 42
0.0000001
 43
0.0000001
 44
0.0000000001
 40
0.0
 40
0.0
 40
0.0
 40
0.0
 40
0.2500085127
 40
0.4376111515
 40
0.625253428
 40
1.0
 40
1.0
 40
1.0
 40
1.0
 10
4.0972413832
 20
2.9861756979
 30
0.0
 10
4.0964405859
 20
2.9852021758
 30
0.0
 10
4.0950976937
 20
2.9834479939
 30
0.0
 10
4.0933815915
 20
2.9807995066
 30
0.0
 10
4.0915804857
 20
2.9774729536
 30
0.0
 10
4.090590915
 20
2.9747817191
 30
0.0
 10
4.0901750384
 20
2.9729385502
 30
0.0
  0
SPLINE
  5
36D
100
AcDbEntity
  8
0
100
AcDbSpline
 62
7
  6
CONTINUOUS
 70
0
 71
3
 72
11
 73
7
 74
0
 42
0.0000001
 43
0.0000001
 44
0.0000000001
 40
0.0
 40
0.0
 40
0.0
 40
0.0
 40
0.2500503331
 40
0.5000389227
 40
0.7500673005
 40
1.0
 40
1.0
 40
1.0
 40
1.0
 10
4.0901750384
 20
2.9729385502
 30
0.0
 10
4.0899010923
 20
2.9717244191
 30
0.0
 10
4.0895658055
 20
2.9692410216
 30
0.0
 10
4.0898022403
 20
2.9654897395
 30
0.0
 10
4.0907881384
 20
2.9618649563
 30
0.0
 10
4.0918722282
 20
2.9596101239
 30
0.0
 10
4.0924942139
 20
2.9585327023
 30
0.0
  0
SPLINE
  5
36E
100
AcDbEntity
  8
0
100
AcDbSpline
 62
7
  6
CONTINUOUS
 70
0
 71
3
 72
12
 73
8
 74
0
 42
0.0000001
 43
0.0000001
 44
0.0000000001
 40
0.0
 40
0.0
 40
0.0
 40
0.0
 40
0.2499985372
 40
0.4999832133
 40
0.7499401213
 40
0.8749769159
 40
1.0
 40
1.0
 40
1.0
 40
1.0
 10
4.1365844885
 20
3.0166570127
 30
0.0
 10
4.1329755474
 20
3.0145733896
 30
0.0
 10
4.1258440867
 20
3.0102527162
 30
0.0
 10
4.1155243879
 20
3.003185222
 30
0.0
 10
4.1073912423
 20
2.9966459435
 30
0.0
 10
4.101364163
 20
2.9908818547
 30
0.0
 10
4.0985652967
 20
2.9877851677
 30
0.0
 10
4.0972413832
 20
2.9861756979
 30
0.0
  0
LINE
  5
36F
100
AcDbEntity
  8
0
100
AcDbLine
 62
7
  6
CONTINUOUS
 10
4.7598580076
 20
4.2095821638
 11
4.7518427223
 21
4.2067755305
  0
SPLINE
  5
370
100
AcDbEntity
  8
0
100
AcDbSpline
 62
7
  6
CONTINUOUS
 70
0
 71
3
 72
9
 73
5
 74
0
 42
0.0000001
 43
0.0000001
 44
0.0000000001
 40
0.0
 40
0.0
 40
0.0
 40
0.0
 40
0.4999834407
 40
1.0
 40
1.0
 40
1.0
 40
1.0
 10
4.7674306478
 20
4.2113664352
 30
0.0
 10
4.7663718328
 20
4.2113663561
 30
0.0
 10
4.7642514558
 20
4.2111112074
 30
0.0
 10
4.7622178848
 20
4.2104884405
 30
0.0
 10
4.7612314467
 20
4.2101035019
 30
0.0
  0
SPLINE
  5
371
100
AcDbEntity
  8
0
100
AcDbSpline
 62
7
  6
CONTINUOUS
 70
0
 71
3
 72
12
 73
8
 74
0
 42
0.0000001
 43
0.0000001
 44
0.0000000001
 40
0.0
 40
0.0
 40
0.0
 40
0.0
 40
0.2498838032
 40
0.3751399943
 40
0.5004440003
 40
0.75013596
 40
1.0
 40
1.0
 40
1.0
 40
1.0
 10
4.7737288415
 20
4.2018673875
 30
0.0
 10
4.7737288415
 20
4.2029349492
 30
0.0
 10
4.7736353231
 20
4.2045416273
 30
0.0
 10
4.773217905
 20
4.206645828
 30
0.0
 10
4.7724937164
 20
4.2086563952
 30
0.0
 10
4.7707411386
 20
4.2108957264
 30
0.0
 10
4.7684981251
 20
4.211366515
 30
0.0
 10
4.7674306478
 20
4.2113664352
 30
0.0
  0
LINE
  5
372
100
AcDbEntity
  8
0
100
AcDbLine
 62
7
  6
CONTINUOUS
 10
4.7526968137
 20
4.0824269855
 11
4.7628073321
 21
4.082427926
  0
LINE
  5
373
100
AcDbEntity
  8
0
100
AcDbLine
 62
7
  6
CONTINUOUS
 10
4.7628073321
 20
4.082427926
 11
4.7729234651
 21
4.0824288054
  0
LINE
  5
374
100
AcDbEntity
  8
0
100
AcDbLine
 62
7
  6
CONTINUOUS
 10
4.7729234651
 20
4.0824288054
 11
4.8033055527
 21
4.0824310718
  0
LINE
  5
375
100
AcDbEntity
  8
0
100
AcDbLine
 62
7
  6
CONTINUOUS
 10
4.8033055527
 20
4.0824310718
 11
4.8134441451
 21
4.0824317017
  0
SPLINE
  5
376
100
AcDbEntity
  8
0
100
AcDbSpline
 62
7
  6
CONTINUOUS
 70
0
 71
3
 72
12
 73
8
 74
0
 42
0.0000001
 43
0.0000001
 44
0.0000000001
 40
0.0
 40
0.0
 40
0.0
 40
0.0
 40
0.1250626417
 40
0.2501418234
 40
0.5000422255
 40
0.7499968128
 40
1.0
 40
1.0
 40
1.0
 40
1.0
 10
4.8537753128
 20
4.1010959644
 30
0.0
 10
4.8524648952
 20
4.1030536375
 30
0.0
 10
4.8500405757
 20
4.107104898
 30
0.0
 10
4.8459985752
 20
4.1156255965
 30
0.0
 10
4.8424097306
 20
4.1268995712
 30
0.0
 10
4.8401368073
 20
4.1408773861
 30
0.0
 10
4.8397074864
 20
4.1503044688
 30
0.0
 10
4.8397074864
 20
4.1550137199
 30
0.0
  0
SPLINE
  5
377
100
AcDbEntity
  8
0
100
AcDbSpline
 62
7
  6
CONTINUOUS
 70
0
 71
3
 72
9
 73
5
 74
0
 42
0.0000001
 43
0.0000001
 44
0.0000000001
 40
0.0
 40
0.0
 40
0.0
 40
0.0
 40
0.2503756454
 40
1.0
 40
1.0
 40
1.0
 40
1.0
 10
4.8839950142
 20
4.0804037672
 30
0.0
 10
4.88320948
 20
4.0805034874
 30
0.0
 10
4.8800850529
 20
4.0809956636
 30
0.0
 10
4.8770184811
 20
4.0818734324
 30
0.0
 10
4.8748175702
 20
4.0827546298
 30
0.0
  0
SPLINE
  5
378
100
AcDbEntity
  8
0
100
AcDbSpline
 62
7
  6
CONTINUOUS
 70
0
 71
3
 72
9
 73
5
 74
0
 42
0.0000001
 43
0.0000001
 44
0.0000000001
 40
0.0
 40
0.0
 40
0.0
 40
0.0
 40
0.2501611756
 40
1.0
 40
1.0
 40
1.0
 40
1.0
 10
4.8748175702
 20
4.0827546298
 30
0.0
 10
4.8741020571
 20
4.0830411059
 30
0.0
 10
4.871280241
 20
4.0842812337
 30
0.0
 10
4.8686201921
 20
4.0858793822
 30
0.0
 10
4.8667440185
 20
4.0872273585
 30
0.0
  0
SPLINE
  5
379
100
AcDbEntity
  8
0
100
AcDbSpline
 62
7
  6
CONTINUOUS
 70
0
 71
3
 72
9
 73
5
 74
0
 42
0.0000001
 43
0.0000001
 44
0.0000000001
 40
0.0
 40
0.0
 40
0.0
 40
0.0
 40
0.5004070138
 40
1.0
 40
1.0
 40
1.0
 40
1.0
 10
4.8667440185
 20
4.0872273585
 30
0.0
 10
4.8648311928
 20
4.0886016682
 30
0.0
 10
4.8612351946
 20
4.0916738544
 30
0.0
 10
4.8581241261
 20
4.0952241101
 30
0.0
 10
4.8566767467
 20
4.0970774012
 30
0.0
  0
LINE
  5
37A
100
AcDbEntity
  8
0
100
AcDbLine
 62
7
  6
CONTINUOUS
 10
4.8566767467
 20
4.0970774012
 11
4.8537753128
 21
4.1010959644
  0
SPLINE
  5
37B
100
AcDbEntity
  8
0
100
AcDbSpline
 62
7
  6
CONTINUOUS
 70
0
 71
3
 72
9
 73
5
 74
0
 42
0.0000001
 43
0.0000001
 44
0.0000000001
 40
0.0
 40
0.0
 40
0.0
 40
0.0
 40
0.4999142604
 40
1.0
 40
1.0
 40
1.0
 40
1.0
 10
4.9069672767
 20
4.0837864773
 30
0.0
 10
4.9043778939
 20
4.0825869265
 30
0.0
 10
4.8989006431
 20
4.0807914515
 30
0.0
 10
4.8931894812
 20
4.0801733422
 30
0.0
 10
4.8903356458
 20
4.0801023736
 30
0.0
  0
LINE
  5
37C
100
AcDbEntity
  8
0
100
AcDbLine
 62
7
  6
CONTINUOUS
 10
4.4480219877
 20
3.925736666
 11
4.4629964035
 21
3.9370206977
  0
LINE
  5
37D
100
AcDbEntity
  8
0
100
AcDbLine
 62
7
  6
CONTINUOUS
 10
4.0248209034
 20
3.4563346319
 11
4.0250133486
 21
3.4478442
  0
SPLINE
  5
37E
100
AcDbEntity
  8
0
100
AcDbSpline
 62
7
  6
CONTINUOUS
 70
0
 71
3
 72
9
 73
5
 74
0
 42
0.0000001
 43
0.0000001
 44
0.0000000001
 40
0.0
 40
0.0
 40
0.0
 40
0.0
 40
0.4999832617
 40
1.0
 40
1.0
 40
1.0
 40
1.0
 10
4.0254640543
 20
3.464088016
 30
0.0
 10
4.025136942
 20
3.4630809983
 30
0.0
 10
4.0247243475
 20
3.4609855628
 30
0.0
 10
4.0246882136
 20
3.4588590752
 30
0.0
 10
4.0247494897
 20
3.4578019647
 30
0.0
  0
SPLINE
  5
37F
100
AcDbEntity
  8
0
100
AcDbSpline
 62
7
  6
CONTINUOUS
 70
0
 71
3
 72
12
 73
8
 74
0
 42
0.0000001
 43
0.0000001
 44
0.0000000001
 40
0.0
 40
0.0
 40
0.0
 40
0.0
 40
0.2498841114
 40
0.3751404098
 40
0.5004443899
 40
0.7501361424
 40
1.0
 40
1.0
 40
1.0
 40
1.0
 10
4.0364443617
 20
3.4671424663
 30
0.0
 10
4.0354290613
 20
3.4674723574
 30
0.0
 10
4.033872138
 20
3.4678799023
 30
0.0
 10
4.0317419601
 20
3.4681331486
 30
0.0
 10
4.029606036
 20
3.4680657158
 30
0.0
 10
4.0269347644
 20
3.4670909557
 30
0.0
 10
4.0257938388
 20
3.4651032601
 30
0.0
 10
4.0254640543
 20
3.464088016
 30
0.0
  0
LINE
  5
380
100
AcDbEntity
  8
0
100
AcDbLine
 62
7
  6
CONTINUOUS
 10
4.1435398644
 20
3.4102306453
 11
4.1466633114
 21
3.4198468166
  0
LINE
  5
381
100
AcDbEntity
  8
0
100
AcDbLine
 62
7
  6
CONTINUOUS
 10
4.1466633114
 20
3.4198468166
 11
4.1482234455
 21
3.4246499351
  0
LINE
  5
382
100
AcDbEntity
  8
0
100
AcDbLine
 62
7
  6
CONTINUOUS
 10
4.1482234455
 20
3.4246499351
 11
4.1572343519
 21
3.4523904527
  0
LINE
  5
383
100
AcDbEntity
  8
0
100
AcDbLine
 62
7
  6
CONTINUOUS
 10
4.1572343519
 20
3.4523904527
 11
4.1591747821
 21
3.4583639425
  0
LINE
  5
384
100
AcDbEntity
  8
0
100
AcDbLine
 62
7
  6
CONTINUOUS
 10
4.1591747821
 20
3.4583639425
 11
4.1623070731
 21
3.4680063337
  0
LINE
  5
385
100
AcDbEntity
  8
0
100
AcDbLine
 62
7
  6
CONTINUOUS
 10
4.0584662883
 20
3.5599024062
 11
4.0586581248
 21
3.5514132173
  0
SPLINE
  5
386
100
AcDbEntity
  8
0
100
AcDbSpline
 62
7
  6
CONTINUOUS
 70
0
 71
3
 72
9
 73
5
 74
0
 42
0.0000001
 43
0.0000001
 44
0.0000000001
 40
0.0
 40
0.0
 40
0.0
 40
0.0
 40
0.4999858375
 40
1.0
 40
1.0
 40
1.0
 40
1.0
 10
4.0591095631
 20
3.567655812
 30
0.0
 10
4.0587823901
 20
3.5666488061
 30
0.0
 10
4.0583698854
 20
3.5645533313
 30
0.0
 10
4.0583337781
 20
3.5624268561
 30
0.0
 10
4.058394998
 20
3.5613697458
 30
0.0
  0
SPLINE
  5
387
100
AcDbEntity
  8
0
100
AcDbSpline
 62
7
  6
CONTINUOUS
 70
0
 71
3
 72
12
 73
8
 74
0
 42
0.0000001
 43
0.0000001
 44
0.0000000001
 40
0.0
 40
0.0
 40
0.0
 40
0.0
 40
0.2498801125
 40
0.3751351918
 40
0.5004395337
 40
0.7501344809
 40
1.0
 40
1.0
 40
1.0
 40
1.0
 10
4.0700905215
 20
3.5707110434
 30
0.0
 10
4.0690751468
 20
3.5710409587
 30
0.0
 10
4.0675181058
 20
3.5714485321
 30
0.0
 10
4.0653877524
 20
3.5717017724
 30
0.0
 10
4.0632516348
 20
3.5716342563
 30
0.0
 10
4.0605800973
 20
3.5706591838
 30
0.0
 10
4.0594394381
 20
3.5686711341
 30
0.0
 10
4.0591095631
 20
3.567655812
 30
0.0
  0
LINE
  5
388
100
AcDbEntity
  8
0
100
AcDbLine
 62
7
  6
CONTINUOUS
 10
4.1771838507
 20
3.5137999239
 11
4.1803110786
 21
3.5234255351
  0
LINE
  5
389
100
AcDbEntity
  8
0
100
AcDbLine
 62
7
  6
CONTINUOUS
 10
4.1803110786
 20
3.5234255351
 11
4.1818682356
 21
3.5282183882
  0
LINE
  5
38A
100
AcDbEntity
  8
0
100
AcDbLine
 62
7
  6
CONTINUOUS
 10
4.1818682356
 20
3.5282183882
 11
4.190881009
 21
3.5559582392
  0
LINE
  5
38B
100
AcDbEntity
  8
0
100
AcDbLine
 62
7
  6
CONTINUOUS
 10
4.190881009
 20
3.5559582392
 11
4.1928251648
 21
3.5619418052
  0
LINE
  5
38C
100
AcDbEntity
  8
0
100
AcDbLine
 62
7
  6
CONTINUOUS
 10
4.1928251648
 20
3.5619418052
 11
4.1959549805
 21
3.5715743289
  0
SPLINE
  5
38D
100
AcDbEntity
  8
0
100
AcDbSpline
 62
7
  6
CONTINUOUS
 70
0
 71
3
 72
15
 73
11
 74
0
 42
0.0000001
 43
0.0000001
 44
0.0000000001
 40
0.0
 40
0.0
 40
0.0
 40
0.0
 40
0.1249926183
 40
0.18765498
 40
0.2501939842
 40
0.3751690599
 40
0.5001504121
 40
0.625138192
 40
0.7501044408
 40
1.0
 40
1.0
 40
1.0
 40
1.0
 10
4.1526522906
 20
3.6768823518
 30
0.0
 10
4.1506197752
 20
3.6757577705
 30
0.0
 10
4.1477571214
 20
3.6737184681
 30
0.0
 10
4.1443002411
 20
3.6706084435
 30
0.0
 10
4.1410395976
 20
3.6672896987
 30
0.0
 10
4.1373058601
 20
3.6628306658
 30
0.0
 10
4.1332309886
 20
3.6571732345
 30
0.0
 10
4.129484468
 20
3.6512946545
 30
0.0
 10
4.1248415745
 20
3.6432465686
 30
0.0
 10
4.1216834181
 20
3.6370307227
 30
0.0
 10
4.1196817234
 20
3.6328401448
 30
0.0
  0
SPLINE
  5
38E
100
AcDbEntity
  8
0
100
AcDbSpline
 62
7
  6
CONTINUOUS
 70
0
 71
3
 72
9
 73
5
 74
0
 42
0.0000001
 43
0.0000001
 44
0.0000000001
 40
0.0
 40
0.0
 40
0.0
 40
0.0
 40
0.4999370779
 40
1.0
 40
1.0
 40
1.0
 40
1.0
 10
4.1857918359
 20
3.6801724291
 30
0.0
 10
4.1803916561
 20
3.6819270539
 30
0.0
 10
4.1687271411
 20
3.6834444349
 30
0.0
 10
4.1576218404
 20
3.6796319805
 30
0.0
 10
4.1526522906
 20
3.6768823518
 30
0.0
  0
SPLINE
  5
38F
100
AcDbEntity
  8
0
100
AcDbSpline
 62
7
  6
CONTINUOUS
 70
0
 71
3
 72
13
 73
9
 74
0
 42
0.0000001
 43
0.0000001
 44
0.0000000001
 40
0.0
 40
0.0
 40
0.0
 40
0.0
 40
0.2498587441
 40
0.4995334032
 40
0.6246609989
 40
0.7497980785
 40
0.8749463432
 40
1.0
 40
1.0
 40
1.0
 40
1.0
 10
4.2059188382
 20
3.606728309
 30
0.0
 10
4.205134092
 20
3.605904192
 30
0.0
 10
4.2034503407
 20
3.6043586184
 30
0.0
 10
4.2009630619
 20
3.6029022784
 30
0.0
 10
4.1987731348
 20
3.6022402278
 30
0.0
 10
4.1970643
 20
3.6020471461
 30
0.0
 10
4.1953501481
 20
3.6021671261
 30
0.0
 10
4.1942382616
 20
3.6024411751
 30
0.0
 10
4.1936965823
 20
3.6026171774
 30
0.0
  0
SPLINE
  5
390
100
AcDbEntity
  8
0
100
AcDbSpline
 62
7
  6
CONTINUOUS
 70
0
 71
3
 72
11
 73
7
 74
0
 42
0.0000001
 43
0.0000001
 44
0.0000000001
 40
0.0
 40
0.0
 40
0.0
 40
0.0
 40
0.249998248
 40
0.4999776589
 40
0.7499958729
 40
1.0
 40
1.0
 40
1.0
 40
1.0
 10
4.2152980516
 20
3.6235632271
 30
0.0
 10
4.2147662495
 20
3.6220362519
 30
0.0
 10
4.2136127146
 20
3.6190124753
 30
0.0
 10
4.2115464344
 20
3.6146170983
 30
0.0
 10
4.2090553393
 20
3.6104442033
 30
0.0
 10
4.2070338947
 20
3.607899308
 30
0.0
 10
4.2059188382
 20
3.606728309
 30
0.0
  0
SPLINE
  5
391
100
AcDbEntity
  8
0
100
AcDbSpline
 62
7
  6
CONTINUOUS
 70
0
 71
3
 72
9
 73
5
 74
0
 42
0.0000001
 43
0.0000001
 44
0.0000000001
 40
0.0
 40
0.0
 40
0.0
 40
0.0
 40
0.7498385743
 40
1.0
 40
1.0
 40
1.0
 40
1.0
 10
4.2151111172
 20
3.6678746843
 30
0.0
 10
4.2162436225
 20
3.6650619634
 30
0.0
 10
4.2174778936
 20
3.6611882246
 30
0.0
 10
4.2182922987
 20
3.6572263452
 30
0.0
 10
4.2184689333
 20
3.6562302968
 30
0.0
  0
SPLINE
  5
392
100
AcDbEntity
  8
0
100
AcDbSpline
 62
7
  6
CONTINUOUS
 70
0
 71
3
 72
9
 73
5
 74
0
 42
0.0000001
 43
0.0000001
 44
0.0000000001
 40
0.0
 40
0.0
 40
0.0
 40
0.0
 40
0.5000379986
 40
1.0
 40
1.0
 40
1.0
 40
1.0
 10
4.2191411469
 20
3.6510609982
 30
0.0
 10
4.2193590069
 20
3.648465677
 30
0.0
 10
4.2194463391
 20
3.6432405471
 30
0.0
 10
4.2188622337
 20
3.6380502424
 30
0.0
 10
4.21842011
 20
3.6354839961
 30
0.0
  0
SPLINE
  5
393
100
AcDbEntity
  8
0
100
AcDbSpline
 62
7
  6
CONTINUOUS
 70
0
 71
3
 72
11
 73
7
 74
0
 42
0.0000001
 43
0.0000001
 44
0.0000000001
 40
0.0
 40
0.0
 40
0.0
 40
0.0
 40
0.2497632794
 40
0.4998700869
 40
0.7499115708
 40
1.0
 40
1.0
 40
1.0
 40
1.0
 10
4.181051668
 20
3.7001225528
 30
0.0
 10
4.183027464
 20
3.6994805778
 30
0.0
 10
4.1869208124
 20
3.6979973078
 30
0.0
 10
4.1924888172
 20
3.6951561111
 30
0.0
 10
4.1976775198
 20
3.6916615405
 30
0.0
 10
4.2008231994
 20
3.688920699
 30
0.0
 10
4.2023065005
 20
3.6874622875
 30
0.0
  0
SPLINE
  5
394
100
AcDbEntity
  8
0
100
AcDbSpline
 62
7
  6
CONTINUOUS
 70
0
 71
3
 72
9
 73
5
 74
0
 42
0.0000001
 43
0.0000001
 44
0.0000000001
 40
0.0
 40
0.0
 40
0.0
 40
0.0
 40
0.5000507114
 40
1.0
 40
1.0
 40
1.0
 40
1.0
 10
4.2023065005
 20
3.6874622875
 30
0.0
 10
4.2034791926
 20
3.6863092732
 30
0.0
 10
4.2057153263
 20
3.6838896787
 30
0.0
 10
4.2077090163
 20
3.6812674825
 30
0.0
 10
4.2086458316
 20
3.6799162131
 30
0.0
  0
SPLINE
  5
395
100
AcDbEntity
  8
0
100
AcDbSpline
 62
7
  6
CONTINUOUS
 70
0
 71
3
 72
9
 73
5
 74
0
 42
0.0000001
 43
0.0000001
 44
0.0000000001
 40
0.0
 40
0.0
 40
0.0
 40
0.0
 40
0.2503070187
 40
1.0
 40
1.0
 40
1.0
 40
1.0
 10
4.2086458316
 20
3.6799162131
 30
0.0
 10
4.2091221589
 20
3.6792291552
 30
0.0
 10
4.210963786
 20
3.6764420164
 30
0.0
 10
4.2125668654
 20
3.673499258
 30
0.0
 10
4.2136391187
 20
3.6712364852
 30
0.0
  0
LINE
  5
396
100
AcDbEntity
  8
0
100
AcDbLine
 62
7
  6
CONTINUOUS
 10
4.1072419044
 20
3.6577616506
 11
4.0935024996
 21
3.6714308211
  0
LINE
  5
397
100
AcDbEntity
  8
0
100
AcDbLine
 62
7
  6
CONTINUOUS
 10
4.0935024996
 20
3.6714308211
 11
4.1081528695
 21
3.7165121718
  0
LINE
  5
398
100
AcDbEntity
  8
0
100
AcDbLine
 62
7
  6
CONTINUOUS
 10
4.1081528695
 20
3.7165121718
 11
4.0927489132
 21
3.7316202655
  0
LINE
  5
399
100
AcDbEntity
  8
0
100
AcDbLine
 62
7
  6
CONTINUOUS
 10
4.1604780808
 20
3.2575534201
 11
4.1588439107
 21
3.2762320707
  0
LINE
  5
39A
100
AcDbEntity
  8
0
100
AcDbLine
 62
7
  6
CONTINUOUS
 10
4.2233625793
 20
2.7606528786
 11
4.2268471263
 21
2.7577382074
  0
SPLINE
  5
39B
100
AcDbEntity
  8
0
100
AcDbSpline
 62
7
  6
CONTINUOUS
 70
0
 71
3
 72
9
 73
5
 74
0
 42
0.0000001
 43
0.0000001
 44
0.0000000001
 40
0.0
 40
0.0
 40
0.0
 40
0.0
 40
0.4999832617
 40
1.0
 40
1.0
 40
1.0
 40
1.0
 10
4.2191692699
 20
2.7653900929
 30
0.0
 10
4.219698749
 20
2.7644731747
 30
0.0
 10
4.2209798815
 20
2.7627644372
 30
0.0
 10
4.2225359915
 20
2.7613146866
 30
0.0
 10
4.2233625793
 20
2.7606528786
 30
0.0
  0
SPLINE
  5
39C
100
AcDbEntity
  8
0
100
AcDbSpline
 62
7
  6
CONTINUOUS
 70
0
 71
3
 72
12
 73
8
 74
0
 42
0.0000001
 43
0.0000001
 44
0.0000000001
 40
0.0
 40
0.0
 40
0.0
 40
0.0
 40
0.2498841114
 40
0.3751404098
 40
0.5004443899
 40
0.7501361424
 40
1.0
 40
1.0
 40
1.0
 40
1.0
 10
4.2242466307
 20
2.7755938776
 30
0.0
 10
4.2233221053
 20
2.7750601026
 30
0.0
 10
4.2219774554
 20
2.7741757839
 30
0.0
 10
4.2203638894
 20
2.7727622082
 30
0.0
 10
4.2189847896
 20
2.7711297858
 30
0.0
 10
4.2179217479
 20
2.7684924023
 30
0.0
 10
4.2186354654
 20
2.7663145014
 30
0.0
 10
4.2191692699
 20
2.7653900929
 30
0.0
  0
LINE
  5
39D
100
AcDbEntity
  8
0
100
AcDbLine
 62
7
  6
CONTINUOUS
 10
4.3382012347
 20
2.8170999051
 11
4.3331450207
 21
2.825855553
  0
LINE
  5
39E
100
AcDbEntity
  8
0
100
AcDbLine
 62
7
  6
CONTINUOUS
 10
4.3331450207
 20
2.825855553
 11
4.3306195487
 21
2.8302288598
  0
LINE
  5
39F
100
AcDbEntity
  8
0
100
AcDbLine
 62
7
  6
CONTINUOUS
 10
4.3306195487
 20
2.8302288598
 11
4.3276825372
 21
2.8353148594
  0
LINE
  5
3A0
100
AcDbEntity
  8
0
100
AcDbLine
 62
7
  6
CONTINUOUS
 10
4.3276825372
 20
2.8353148594
 11
4.3160337985
 21
2.8554873
  0
LINE
  5
3A1
100
AcDbEntity
  8
0
100
AcDbLine
 62
7
  6
CONTINUOUS
 10
4.3160337985
 20
2.8554873
 11
4.3128930259
 21
2.8609263755
  0
LINE
  5
3A2
100
AcDbEntity
  8
0
100
AcDbLine
 62
7
  6
CONTINUOUS
 10
4.3128930259
 20
2.8609263755
 11
4.3078232446
 21
2.8697061405
  0
SPLINE
  5
3A3
100
AcDbEntity
  8
0
100
AcDbSpline
 62
7
  6
CONTINUOUS
 70
0
 71
3
 72
9
 73
5
 74
0
 42
0.0000001
 43
0.0000001
 44
0.0000000001
 40
0.0
 40
0.0
 40
0.0
 40
0.0
 40
0.4593133434
 40
1.0
 40
1.0
 40
1.0
 40
1.0
 10
4.2017017699
 20
2.9190072097
 30
0.0
 10
4.2045794407
 20
2.918557031
 30
0.0
 10
4.21082457
 20
2.9174489676
 30
0.0
 10
4.2170379547
 20
2.9161791142
 30
0.0
 10
4.2203909649
 20
2.9154627184
 30
0.0
  0
LINE
  5
3A4
100
AcDbEntity
  8
0
100
AcDbLine
 62
7
  6
CONTINUOUS
 10
4.2450463792
 20
2.9097530373
 11
4.2484612881
 21
2.9089097556
  0
SPLINE
  5
3A5
100
AcDbEntity
  8
0
100
AcDbSpline
 62
7
  6
CONTINUOUS
 70
0
 71
3
 72
12
 73
8
 74
0
 42
0.0000001
 43
0.0000001
 44
0.0000000001
 40
0.0
 40
0.0
 40
0.0
 40
0.0
 40
0.1053894899
 40
0.2142836224
 40
0.4472126399
 40
0.7072303319
 40
1.0
 40
1.0
 40
1.0
 40
1.0
 10
4.1552018322
 20
2.9137437473
 30
0.0
 10
4.1566515394
 20
2.9145807518
 30
0.0
 10
4.1597047639
 20
2.9161057362
 30
0.0
 10
4.1663879922
 20
2.9185487402
 30
0.0
 10
4.1758366734
 20
2.9203769211
 30
0.0
 10
4.1883543573
 20
2.920668472
 30
0.0
 10
4.1971071448
 20
2.9197258328
 30
0.0
 10
4.2017015594
 20
2.9190070881
 30
0.0
  0
LINE
  5
3A6
100
AcDbEntity
  8
0
100
AcDbLine
 62
7
  6
CONTINUOUS
 10
4.2010587085
 20
2.8398712334
 11
4.2006015146
 21
2.8442918226
  0
SPLINE
  5
3A7
100
AcDbEntity
  8
0
100
AcDbSpline
 62
7
  6
CONTINUOUS
 70
0
 71
3
 72
9
 73
5
 74
0
 42
0.0000001
 43
0.0000001
 44
0.0000000001
 40
0.0
 40
0.0
 40
0.0
 40
0.0
 40
0.2502045084
 40
1.0
 40
1.0
 40
1.0
 40
1.0
 10
4.1746865762
 20
2.8458551028
 30
0.0
 10
4.1754873478
 20
2.8455410187
 30
0.0
 10
4.1787499411
 20
2.8444430803
 30
0.0
 10
4.1821771299
 20
2.843896163
 30
0.0
 10
4.1847461438
 20
2.8436849364
 30
0.0
  0
SPLINE
  5
3A8
100
AcDbEntity
  8
0
100
AcDbSpline
 62
7
  6
CONTINUOUS
 70
0
 71
3
 72
9
 73
5
 74
0
 42
0.0000001
 43
0.0000001
 44
0.0000000001
 40
0.0
 40
0.0
 40
0.0
 40
0.0
 40
0.4999409979
 40
1.0
 40
1.0
 40
1.0
 40
1.0
 10
4.1847461438
 20
2.8436849364
 30
0.0
 10
4.1873849555
 20
2.8434679711
 30
0.0
 10
4.1926983871
 20
2.8434471187
 30
0.0
 10
4.1979750861
 20
2.8439518457
 30
0.0
 10
4.2006015146
 20
2.8442918226
 30
0.0
  0
SPLINE
  5
3A9
100
AcDbEntity
  8
0
100
AcDbSpline
 62
7
  6
CONTINUOUS
 70
0
 71
3
 72
11
 73
7
 74
0
 42
0.0000001
 43
0.0000001
 44
0.0000000001
 40
0.0
 40
0.0
 40
0.0
 40
0.0
 40
0.2498651627
 40
0.4997947078
 40
0.7497753005
 40
1.0
 40
1.0
 40
1.0
 40
1.0
 10
4.1606867237
 20
2.8576188752
 30
0.0
 10
4.1614225857
 20
2.8564953905
 30
0.0
 10
4.1630144685
 20
2.8543231971
 30
0.0
 10
4.1657805666
 20
2.8513774108
 30
0.0
 10
4.1689212965
 20
2.8488282723
 30
0.0
 10
4.1712439895
 20
2.8474515965
 30
0.0
 10
4.1724473996
 20
2.8468510056
 30
0.0
  0
SPLINE
  5
3AA
100
AcDbEntity
  8
0
100
AcDbSpline
 62
7
  6
CONTINUOUS
 70
0
 71
3
 72
14
 73
10
 74
0
 42
0.0000001
 43
0.0000001
 44
0.0000000001
 40
0.0
 40
0.0
 40
0.0
 40
0.0
 40
0.1249023451
 40
0.2500970728
 40
0.375181888
 40
0.5002646133
 40
0.6254100112
 40
0.7504459383
 40
1.0
 40
1.0
 40
1.0
 40
1.0
 10
4.1579038537
 20
2.8819896025
 30
0.0
 10
4.1575004552
 20
2.8811007964
 30
0.0
 10
4.1567934818
 20
2.8792732056
 30
0.0
 10
4.156068602
 20
2.8764246589
 30
0.0
 10
4.1557254804
 20
2.8735019861
 30
0.0
 10
4.1557882961
 20
2.8705610974
 30
0.0
 10
4.1562248073
 20
2.8676530897
 30
0.0
 10
4.1572811817
 20
2.8638852992
 30
0.0
 10
4.1585389167
 20
2.8612145831
 30
0.0
 10
4.1595140368
 20
2.8595257006
 30
0.0
  0
SPLINE
  5
3AB
100
AcDbEntity
  8
0
100
AcDbSpline
 62
7
  6
CONTINUOUS
 70
0
 71
3
 72
11
 73
7
 74
0
 42
0.0000001
 43
0.0000001
 44
0.0000000001
 40
0.0
 40
0.0
 40
0.0
 40
0.0
 40
0.2446398548
 40
0.4888051005
 40
0.7387574311
 40
1.0
 40
1.0
 40
1.0
 40
1.0
 10
4.1726016473
 20
2.8987641856
 30
0.0
 10
4.1710017175
 20
2.8978404836
 30
0.0
 10
4.1679498252
 20
2.8957282248
 30
0.0
 10
4.1639413818
 20
2.8918128425
 30
0.0
 10
4.1605392534
 20
2.8872065526
 30
0.0
 10
4.1587191623
 20
2.8837860234
 30
0.0
 10
4.1579038146
 20
2.8819895877
 30
0.0
  0
LINE
  5
3AC
100
AcDbEntity
  8
0
100
AcDbLine
 62
7
  6
CONTINUOUS
 10
4.2942098447
 20
2.8932822365
 11
4.2799280953
 21
2.9180167984
  0
LINE
  5
3AD
100
AcDbEntity
  8
0
100
AcDbLine
 62
7
  6
CONTINUOUS
 10
4.2799280953
 20
2.9180167984
 11
4.2608986986
 21
2.9509754136
  0
LINE
  5
3AE
100
AcDbEntity
  8
0
100
AcDbLine
 62
7
  6
CONTINUOUS
 10
4.2608986986
 20
2.9509754136
 11
4.2513436174
 21
2.9675253574
  0
LINE
  5
3AF
100
AcDbEntity
  8
0
100
AcDbLine
 62
7
  6
CONTINUOUS
 10
4.2513436174
 20
2.9675253574
 11
4.2348558572
 21
2.9652308284
  0
LINE
  5
3B0
100
AcDbEntity
  8
0
100
AcDbLine
 62
7
  6
CONTINUOUS
 10
4.2348558572
 20
2.9652308284
 11
4.2181458812
 21
2.962905383
  0
SPLINE
  5
3B1
100
AcDbEntity
  8
0
100
AcDbSpline
 62
7
  6
CONTINUOUS
 70
0
 71
3
 72
12
 73
8
 74
0
 42
0.0000001
 43
0.0000001
 44
0.0000000001
 40
0.0
 40
0.0
 40
0.0
 40
0.0
 40
0.1250644037
 40
0.2501448998
 40
0.500046288
 40
0.7499997444
 40
1.0
 40
1.0
 40
1.0
 40
1.0
 10
4.2170449752
 20
2.98960886
 30
0.0
 10
4.2160047212
 20
2.9874951331
 30
0.0
 10
4.2137082592
 20
2.9833699201
 30
0.0
 10
4.2083499197
 20
2.9756090015
 30
0.0
 10
4.2003806403
 20
2.966863904
 30
0.0
 10
4.1894118616
 20
2.957906527
 30
0.0
 10
4.1814623978
 20
2.9528211605
 30
0.0
 10
4.1773840648
 20
2.9504665339
 30
0.0
  0
SPLINE
  5
3B2
100
AcDbEntity
  8
0
100
AcDbSpline
 62
7
  6
CONTINUOUS
 70
0
 71
3
 72
11
 73
7
 74
0
 42
0.0000001
 43
0.0000001
 44
0.0000000001
 40
0.0
 40
0.0
 40
0.0
 40
0.0
 40
0.249595128
 40
0.5000613693
 40
0.7502579855
 40
1.0
 40
1.0
 40
1.0
 40
1.0
 10
4.217613773
 20
3.0306477801
 30
0.0
 10
4.2184045772
 20
3.0292778998
 30
0.0
 10
4.2198291706
 20
3.0264374087
 30
0.0
 10
4.2214412277
 20
3.0219523516
 30
0.0
 10
4.222475926
 20
3.0172967019
 30
0.0
 10
4.222735424
 20
3.0141281277
 30
0.0
 10
4.222766323
 20
3.0125457453
 30
0.0
  0
SPLINE
  5
3B3
100
AcDbEntity
  8
0
100
AcDbSpline
 62
7
  6
CONTINUOUS
 70
0
 71
3
 72
11
 73
7
 74
0
 42
0.0000001
 43
0.0000001
 44
0.0000000001
 40
0.0
 40
0.0
 40
0.0
 40
0.0
 40
0.2503611689
 40
0.5006022755
 40
0.7504285292
 40
1.0
 40
1.0
 40
1.0
 40
1.0
 10
4.222766323
 20
3.0125457453
 30
0.0
 10
4.2228051876
 20
3.0105554273
 30
0.0
 10
4.2225723882
 20
3.006564559
 30
0.0
 10
4.2214027123
 20
3.0006972749
 30
0.0
 10
4.2195336773
 20
2.9950245195
 30
0.0
 10
4.2179212237
 20
2.9913893388
 30
0.0
 10
4.2170449752
 20
2.98960886
 30
0.0
  0
SPLINE
  5
3B4
100
AcDbEntity
  8
0
100
AcDbSpline
 62
7
  6
CONTINUOUS
 70
0
 71
3
 72
12
 73
8
 74
0
 42
0.0000001
 43
0.0000001
 44
0.0000000001
 40
0.0
 40
0.0
 40
0.0
 40
0.0
 40
0.2498365171
 40
0.4998179128
 40
0.6248763854
 40
0.74998113
 40
1.0
 40
1.0
 40
1.0
 40
1.0
 10
4.1790586518
 20
3.0515606687
 30
0.0
 10
4.1813834427
 20
3.0516077265
 30
0.0
 10
4.1860453812
 20
3.0514470821
 30
0.0
 10
4.1917991999
 20
3.0504505036
 30
0.0
 10
4.1962601806
 20
3.04910097
 30
0.0
 10
4.2005826339
 20
3.047361006
 30
0.0
 10
4.2036350075
 20
3.0456113201
 30
0.0
 10
4.2055338976
 20
3.044266337
 30
0.0
  0
SPLINE
  5
3B5
100
AcDbEntity
  8
0
100
AcDbSpline
 62
7
  6
CONTINUOUS
 70
0
 71
3
 72
9
 73
5
 74
0
 42
0.0000001
 43
0.0000001
 44
0.0000000001
 40
0.0
 40
0.0
 40
0.0
 40
0.0
 40
0.499979378
 40
1.0
 40
1.0
 40
1.0
 40
1.0
 10
4.2055338976
 20
3.044266337
 30
0.0
 10
4.2078568294
 20
3.0426210052
 30
0.0
 10
4.212127924
 20
3.0387734769
 30
0.0
 10
4.2155016182
 20
3.0341432671
 30
0.0
 10
4.2169826575
 20
3.0317120147
 30
0.0
  0
SPLINE
  5
3B6
100
AcDbEntity
  8
0
100
AcDbSpline
 62
7
  6
CONTINUOUS
 70
0
 71
3
 72
11
 73
7
 74
0
 42
0.0000001
 43
0.0000001
 44
0.0000000001
 40
0.0
 40
0.0
 40
0.0
 40
0.0
 40
0.2498048691
 40
0.4998645117
 40
0.7502273247
 40
1.0
 40
1.0
 40
1.0
 40
1.0
 10
4.1255646852
 20
3.0353200871
 30
0.0
 10
4.1296367646
 20
3.0376711033
 30
0.0
 10
4.1380036926
 20
3.0420124094
 30
0.0
 10
4.1511988786
 20
3.0471348944
 30
0.0
 10
4.1649489878
 20
3.0505234699
 30
0.0
 10
4.1743581883
 20
3.051465523
 30
0.0
 10
4.1790586518
 20
3.0515606687
 30
0.0
  0
SPLINE
  5
3B7
100
AcDbEntity
  8
0
100
AcDbSpline
 62
7
  6
CONTINUOUS
 70
0
 71
3
 72
15
 73
11
 74
0
 42
0.0000001
 43
0.0000001
 44
0.0000000001
 40
0.0
 40
0.0
 40
0.0
 40
0.0
 40
0.1249883258
 40
0.2507159164
 40
0.3757025867
 40
0.4382558694
 40
0.5007496961
 40
0.6255972283
 40
0.7504579793
 40
1.0
 40
1.0
 40
1.0
 40
1.0
 10
5.7232770472
 20
3.6513989524
 30
0.0
 10
5.7215269903
 20
3.6509300261
 30
0.0
 10
5.7181555052
 20
3.6494330293
 30
0.0
 10
5.7138030912
 20
3.646101788
 30
0.0
 10
5.7107561048
 20
3.6427065783
 30
0.0
 10
5.7086139939
 20
3.6397817603
 30
0.0
 10
5.7066269908
 20
3.6367511495
 30
0.0
 10
5.7044085722
 20
3.6328001057
 30
0.0
 10
5.7013235438
 20
3.6262494108
 30
0.0
 10
5.6994146822
 20
3.6211583942
 30
0.0
 10
5.6982657225
 20
3.6177284328
 30
0.0
  0
SPLINE
  5
3B8
100
AcDbEntity
  8
0
100
AcDbSpline
 62
7
  6
CONTINUOUS
 70
0
 71
3
 72
9
 73
5
 74
0
 42
0.0000001
 43
0.0000001
 44
0.0000000001
 40
0.0
 40
0.0
 40
0.0
 40
0.0
 40
0.5000004082
 40
1.0
 40
1.0
 40
1.0
 40
1.0
 10
5.7182697896
 20
3.6057124891
 30
0.0
 10
5.7208383748
 20
3.6050993101
 30
0.0
 10
5.7261650794
 20
3.6045658446
 30
0.0
 10
5.7314353033
 20
3.605394889
 30
0.0
 10
5.7339860783
 20
3.6060783671
 30
0.0
  0
SPLINE
  5
3B9
100
AcDbEntity
  8
0
100
AcDbSpline
 62
7
  6
CONTINUOUS
 70
0
 71
3
 72
9
 73
5
 74
0
 42
0.0000001
 43
0.0000001
 44
0.0000000001
 40
0.0
 40
0.0
 40
0.0
 40
0.0
 40
0.5000448209
 40
1.0
 40
1.0
 40
1.0
 40
1.0
 10
5.7024326427
 20
3.614410453
 30
0.0
 10
5.7039128446
 20
3.6132866339
 30
0.0
 10
5.706932558
 20
3.6111166496
 30
0.0
 10
5.710111914
 20
3.6091777107
 30
0.0
 10
5.7117545571
 20
3.6083091184
 30
0.0
  0
SPLINE
  5
3BA
100
AcDbEntity
  8
0
100
AcDbSpline
 62
7
  6
CONTINUOUS
 70
0
 71
3
 72
9
 73
5
 74
0
 42
0.0000001
 43
0.0000001
 44
0.0000000001
 40
0.0
 40
0.0
 40
0.0
 40
0.0
 40
0.5000901633
 40
1.0
 40
1.0
 40
1.0
 40
1.0
 10
5.7117545571
 20
3.6083091184
 30
0.0
 10
5.7127900575
 20
3.6077615694
 30
0.0
 10
5.714904607
 20
3.6067478373
 30
0.0
 10
5.7171308607
 20
3.605984377
 30
0.0
 10
5.7182697896
 20
3.6057124891
 30
0.0
  0
SPLINE
  5
3BB
100
AcDbEntity
  8
0
100
AcDbSpline
 62
7
  6
CONTINUOUS
 70
0
 71
3
 72
12
 73
8
 74
0
 42
0.0000001
 43
0.0000001
 44
0.0000000001
 40
0.0
 40
0.0
 40
0.0
 40
0.0
 40
0.2499541628
 40
0.3752245751
 40
0.5003325154
 40
0.7502774089
 40
1.0
 40
1.0
 40
1.0
 40
1.0
 10
5.6291357582
 20
3.5808555162
 30
0.0
 10
5.6304722001
 20
3.5800154331
 30
0.0
 10
5.6326475187
 20
3.5789990781
 30
0.0
 10
5.6357108733
 20
3.5782026149
 30
0.0
 10
5.6388490571
 20
3.5777786332
 30
0.0
 10
5.6428200887
 20
3.5778816244
 30
0.0
 10
5.6459265767
 20
3.578503854
 30
0.0
 10
5.6474499252
 20
3.578912034
 30
0.0
  0
SPLINE
  5
3BC
100
AcDbEntity
  8
0
100
AcDbSpline
 62
7
  6
CONTINUOUS
 70
0
 71
3
 72
12
 73
8
 74
0
 42
0.0000001
 43
0.0000001
 44
0.0000000001
 40
0.0
 40
0.0
 40
0.0
 40
0.0
 40
0.2498233458
 40
0.4997697048
 40
0.6248801993
 40
0.750061021
 40
1.0
 40
1.0
 40
1.0
 40
1.0
 10
5.6188187613
 20
3.5954455787
 30
0.0
 10
5.6192131915
 20
3.5939738039
 30
0.0
 10
5.6202035234
 20
3.5910766724
 30
0.0
 10
5.6220554982
 20
3.587717856
 30
0.0
 10
5.6239135972
 20
3.5852912932
 30
0.0
 10
5.6260172786
 20
3.5830755555
 30
0.0
 10
5.6278451461
 20
3.5816667908
 30
0.0
 10
5.6291357582
 20
3.5808555162
 30
0.0
  0
SPLINE
  5
3BD
100
AcDbEntity
  8
0
100
AcDbSpline
 62
7
  6
CONTINUOUS
 70
0
 71
3
 72
9
 73
5
 74
0
 42
0.0000001
 43
0.0000001
 44
0.0000000001
 40
0.0
 40
0.0
 40
0.0
 40
0.0
 40
0.2497502569
 40
1.0
 40
1.0
 40
1.0
 40
1.0
 10
5.6218684287
 20
3.6186997839
 30
0.0
 10
5.6216453275
 20
3.618313231
 30
0.0
 10
5.620781055
 20
3.6167490154
 30
0.0
 10
5.6200377295
 20
3.6151170703
 30
0.0
 10
5.6195628121
 20
3.613863271
 30
0.0
  0
SPLINE
  5
3BE
100
AcDbEntity
  8
0
100
AcDbSpline
 62
7
  6
CONTINUOUS
 70
0
 71
3
 72
11
 73
7
 74
0
 42
0.0000001
 43
0.0000001
 44
0.0000000001
 40
0.0
 40
0.0
 40
0.0
 40
0.0
 40
0.249961259
 40
0.4999647386
 40
0.7499526912
 40
1.0
 40
1.0
 40
1.0
 40
1.0
 10
5.6195628121
 20
3.613863271
 30
0.0
 10
5.6190923353
 20
3.6126211949
 30
0.0
 10
5.6183144714
 20
3.610070749
 30
0.0
 10
5.6176974312
 20
3.6061208118
 30
0.0
 10
5.6176389351
 20
3.6021230866
 30
0.0
 10
5.617963932
 20
3.5994774462
 30
0.0
 10
5.6182034806
 20
3.5981705672
 30
0.0
  0
SPLINE
  5
3BF
100
AcDbEntity
  8
0
100
AcDbSpline
 62
7
  6
CONTINUOUS
 70
0
 71
3
 72
9
 73
5
 74
0
 42
0.0000001
 43
0.0000001
 44
0.0000000001
 40
0.0
 40
0.0
 40
0.0
 40
0.0
 40
0.4999096421
 40
1.0
 40
1.0
 40
1.0
 40
1.0
 10
5.6402977483
 20
3.6328121381
 30
0.0
 10
5.6364819699
 20
3.6317897034
 30
0.0
 10
5.6290758065
 20
3.6283812958
 30
0.0
 10
5.6238438355
 20
3.6221224423
 30
0.0
 10
5.6218684287
 20
3.6186997839
 30
0.0
  0
SPLINE
  5
3C0
100
AcDbEntity
  8
0
100
AcDbSpline
 62
7
  6
CONTINUOUS
 70
0
 71
3
 72
13
 73
9
 74
0
 42
0.0000001
 43
0.0000001
 44
0.0000000001
 40
0.0
 40
0.0
 40
0.0
 40
0.0
 40
0.0944648557
 40
0.1971874876
 40
0.3084724932
 40
0.4285564609
 40
0.6957860013
 40
1.0
 40
1.0
 40
1.0
 40
1.0
 10
5.0200443681
 20
4.1057996224
 30
0.0
 10
5.0205855922
 20
4.1073465883
 30
0.0
 10
5.0215936144
 20
4.1106190164
 30
0.0
 10
5.0228541199
 20
4.1158229102
 30
0.0
 10
5.0239239439
 20
4.1215219951
 30
0.0
 10
5.0251370252
 20
4.1300893017
 30
0.0
 10
5.0261077233
 20
4.142058028
 30
0.0
 10
5.0263267121
 20
4.1519744784
 30
0.0
 10
5.0263267115
 20
4.1572524142
 30
0.0
  0
SPLINE
  5
3C1
100
AcDbEntity
  8
0
100
AcDbSpline
 62
7
  6
CONTINUOUS
 70
0
 71
3
 72
9
 73
5
 74
0
 42
0.0000001
 43
0.0000001
 44
0.0000000001
 40
0.0
 40
0.0
 40
0.0
 40
0.0
 40
0.2494712697
 40
1.0
 40
1.0
 40
1.0
 40
1.0
 10
4.998995188
 20
4.0879821292
 30
0.0
 10
4.9994165201
 20
4.087982105
 30
0.0
 10
5.0011048638
 20
4.0880268931
 30
0.0
 10
5.0027903194
 20
4.0882593979
 30
0.0
 10
5.0040232355
 20
4.088553757
 30
0.0
  0
SPLINE
  5
3C2
100
AcDbEntity
  8
0
100
AcDbSpline
 62
7
  6
CONTINUOUS
 70
0
 71
3
 72
12
 73
8
 74
0
 42
0.0000001
 43
0.0000001
 44
0.0000000001
 40
0.0
 40
0.0
 40
0.0
 40
0.0
 40
0.1252042722
 40
0.2503284841
 40
0.5005204304
 40
0.7504068041
 40
1.0
 40
1.0
 40
1.0
 40
1.0
 10
5.0040232355
 20
4.088553757
 30
0.0
 10
5.0046046362
 20
4.0886925665
 30
0.0
 10
5.0057553972
 20
4.089023615
 30
0.0
 10
5.0079758135
 20
4.0899158588
 30
0.0
 10
5.010565477
 20
4.0914408388
 30
0.0
 10
5.0132761542
 20
4.0938055315
 30
0.0
 10
5.0147886667
 20
4.0956630463
 30
0.0
 10
5.0154786159
 20
4.0966345697
 30
0.0
  0
SPLINE
  5
3C3
100
AcDbEntity
  8
0
100
AcDbSpline
 62
7
  6
CONTINUOUS
 70
0
 71
3
 72
9
 73
5
 74
0
 42
0.0000001
 43
0.0000001
 44
0.0000000001
 40
0.0
 40
0.0
 40
0.0
 40
0.0
 40
0.2507287172
 40
1.0
 40
1.0
 40
1.0
 40
1.0
 10
5.0154786159
 20
4.0966345697
 30
0.0
 10
5.0159751324
 20
4.0973337188
 30
0.0
 10
5.0178225476
 20
4.1002169263
 30
0.0
 10
5.0191981074
 20
4.1033809954
 30
0.0
 10
5.0200443698
 20
4.1057998152
 30
0.0
  0
SPLINE
  5
3C4
100
AcDbEntity
  8
0
100
AcDbSpline
 62
7
  6
CONTINUOUS
 70
0
 71
3
 72
9
 73
5
 74
0
 42
0.0000001
 43
0.0000001
 44
0.0000000001
 40
0.0
 40
0.0
 40
0.0
 40
0.0
 40
0.249807058
 40
1.0
 40
1.0
 40
1.0
 40
1.0
 10
4.9780061949
 20
4.1035350711
 30
0.0
 10
4.9782570493
 20
4.1030308849
 30
0.0
 10
4.9792927075
 20
4.1010288381
 30
0.0
 10
4.9804751313
 20
4.0990991347
 30
0.0
 10
4.981466529
 20
4.0977290264
 30
0.0
  0
SPLINE
  5
3C5
100
AcDbEntity
  8
0
100
AcDbSpline
 62
7
  6
CONTINUOUS
 70
0
 71
3
 72
14
 73
10
 74
0
 42
0.0000001
 43
0.0000001
 44
0.0000000001
 40
0.0
 40
0.0
 40
0.0
 40
0.0
 40
0.2496370846
 40
0.3748687031
 40
0.499772392
 40
0.6245987533
 40
0.749854885
 40
0.8752313752
 40
1.0
 40
1.0
 40
1.0
 40
1.0
 10
4.981466529
 20
4.0977290264
 30
0.0
 10
4.9824844173
 20
4.0963223081
 30
0.0
 10
4.9841876902
 20
4.094322968
 30
0.0
 10
4.9868229728
 20
4.0920474237
 30
0.0
 10
4.9889860856
 20
4.0905779566
 30
0.0
 10
4.9913275991
 20
4.0894094433
 30
0.0
 10
4.9938145697
 20
4.0885854047
 30
0.0
 10
4.9963854874
 20
4.0880923616
 30
0.0
 10
4.9981273542
 20
4.0879821793
 30
0.0
 10
4.998995188
 20
4.0879821292
 30
0.0
  0
SPLINE
  5
3C6
100
AcDbEntity
  8
0
100
AcDbSpline
 62
7
  6
CONTINUOUS
 70
0
 71
3
 72
14
 73
10
 74
0
 42
0.0000001
 43
0.0000001
 44
0.0000000001
 40
0.0
 40
0.0
 40
0.0
 40
0.0
 40
0.3213725487
 40
0.4637107814
 40
0.5940055184
 40
0.7124596563
 40
0.8193424189
 40
0.915019507
 40
1.0
 40
1.0
 40
1.0
 40
1.0
 10
4.9702768937
 20
4.1599236183
 30
0.0
 10
4.9702768937
 20
4.1540687211
 30
0.0
 10
4.9704416974
 20
4.145617199
 30
0.0
 10
4.9711453578
 20
4.1348166516
 30
0.0
 10
4.9718579966
 20
4.1277255983
 30
0.0
 10
4.9727765738
 20
4.1213097446
 30
0.0
 10
4.973901682
 20
4.1155672742
 30
0.0
 10
4.975233612
 20
4.1104969584
 30
0.0
 10
4.9763226064
 20
4.1073851774
 30
0.0
 10
4.9769123283
 20
4.1059536814
 30
0.0
  0
LINE
  5
3C7
100
AcDbEntity
  8
0
100
AcDbLine
 62
7
  6
CONTINUOUS
 10
4.9769123283
 20
4.1059536814
 11
4.9780062485
 21
4.103535385
  0
LINE
  5
3C8
100
AcDbEntity
  8
0
100
AcDbLine
 62
7
  6
CONTINUOUS
 10
4.9111476255
 20
4.1058038654
 11
4.908980271
 21
4.1006476305
  0
SPLINE
  5
3C9
100
AcDbEntity
  8
0
100
AcDbSpline
 62
7
  6
CONTINUOUS
 70
0
 71
3
 72
15
 73
11
 74
0
 42
0.0000001
 43
0.0000001
 44
0.0000000001
 40
0.0
 40
0.0
 40
0.0
 40
0.0
 40
0.1248034179
 40
0.2498457311
 40
0.3747351252
 40
0.4995687156
 40
0.6246964228
 40
0.7498112448
 40
0.8748449317
 40
1.0
 40
1.0
 40
1.0
 40
1.0
 10
4.908980271
 20
4.1006476305
 30
0.0
 10
4.9085744953
 20
4.0998442512
 30
0.0
 10
4.907700825
 20
4.0982658311
 30
0.0
 10
4.9061881296
 20
4.0960216423
 30
0.0
 10
4.9044478792
 20
4.0939460225
 30
0.0
 10
4.9024592255
 20
4.0921026429
 30
0.0
 10
4.9002293825
 20
4.09055569
 30
0.0
 10
4.8978004664
 20
4.0893392322
 30
0.0
 10
4.8952133772
 20
4.0885102863
 30
0.0
 10
4.8934283988
 20
4.0882080311
 30
0.0
 10
4.8925309241
 20
4.0881122044
 30
0.0
  0
SPLINE
  5
3CA
100
AcDbEntity
  8
0
100
AcDbSpline
 62
7
  6
CONTINUOUS
 70
0
 71
3
 72
9
 73
5
 74
0
 42
0.0000001
 43
0.0000001
 44
0.0000000001
 40
0.0
 40
0.0
 40
0.0
 40
0.0
 40
0.2498076843
 40
1.0
 40
1.0
 40
1.0
 40
1.0
 10
4.8691094316
 20
4.1035361182
 30
0.0
 10
4.8693601938
 20
4.1030321346
 30
0.0
 10
4.8703954596
 20
4.1010308928
 30
0.0
 10
4.8715773841
 20
4.0991019463
 30
0.0
 10
4.872568322
 20
4.0977323366
 30
0.0
  0
SPLINE
  5
3CB
100
AcDbEntity
  8
0
100
AcDbSpline
 62
7
  6
CONTINUOUS
 70
0
 71
3
 72
14
 73
10
 74
0
 42
0.0000001
 43
0.0000001
 44
0.0000000001
 40
0.0
 40
0.0
 40
0.0
 40
0.0
 40
0.2496343296
 40
0.3748647857
 40
0.4997674385
 40
0.6245933207
 40
0.749850113
 40
0.8752285067
 40
1.0
 40
1.0
 40
1.0
 40
1.0
 10
4.872568322
 20
4.0977323366
 30
0.0
 10
4.8735862393
 20
4.0963254377
 30
0.0
 10
4.8752895852
 20
4.0943258299
 30
0.0
 10
4.8779250519
 20
4.0920499893
 30
0.0
 10
4.8800883612
 20
4.0905803513
 30
0.0
 10
4.8824301362
 20
4.0894117518
 30
0.0
 10
4.8849174188
 20
4.0885877251
 30
0.0
 10
4.8874886734
 20
4.0880947706
 30
0.0
 10
4.8892307643
 20
4.0879846905
 30
0.0
 10
4.8900987092
 20
4.0879846997
 30
0.0
  0
SPLINE
  5
3CC
100
AcDbEntity
  8
0
100
AcDbSpline
 62
7
  6
CONTINUOUS
 70
0
 71
3
 72
14
 73
10
 74
0
 42
0.0000001
 43
0.0000001
 44
0.0000000001
 40
0.0
 40
0.0
 40
0.0
 40
0.0
 40
0.3213739355
 40
0.4637124899
 40
0.5940073095
 40
0.7124613002
 40
0.8193436999
 40
0.9150202296
 40
1.0
 40
1.0
 40
1.0
 40
1.0
 10
4.8613800839
 20
4.1599243146
 30
0.0
 10
4.8613800839
 20
4.1540693357
 30
0.0
 10
4.8615448931
 20
4.1456177007
 30
0.0
 10
4.8622485785
 20
4.1348170175
 30
0.0
 10
4.8629612415
 20
4.1277258927
 30
0.0
 10
4.863879849
 20
4.121309988
 30
0.0
 10
4.8650049932
 20
4.1155674867
 30
0.0
 10
4.8663369645
 20
4.1104971602
 30
0.0
 10
4.8674259934
 20
4.1073853819
 30
0.0
 10
4.8680157337
 20
4.1059538915
 30
0.0
  0
LINE
  5
3CD
100
AcDbEntity
  8
0
100
AcDbLine
 62
7
  6
CONTINUOUS
 10
4.8680157337
 20
4.1059538915
 11
4.8691094853
 21
4.1035360172
  0
SPLINE
  5
3CE
100
AcDbEntity
  8
0
100
AcDbSpline
 62
7
  6
CONTINUOUS
 70
0
 71
3
 72
13
 73
9
 74
0
 42
0.0000001
 43
0.0000001
 44
0.0000000001
 40
0.0
 40
0.0
 40
0.0
 40
0.0
 40
0.0944650017
 40
0.1971877403
 40
0.3084728123
 40
0.4285568048
 40
0.6957862656
 40
1.0
 40
1.0
 40
1.0
 40
1.0
 10
4.9111476237
 20
4.105803848
 30
0.0
 10
4.9116888432
 20
4.1073508118
 30
0.0
 10
4.9126968564
 20
4.1106232343
 30
0.0
 10
4.9139573497
 20
4.1158271168
 30
0.0
 10
4.9150271624
 20
4.121526186
 30
0.0
 10
4.9162402296
 20
4.1300934632
 30
0.0
 10
4.9172109153
 20
4.1420621412
 30
0.0
 10
4.9174299017
 20
4.1519785497
 30
0.0
 10
4.9174299017
 20
4.1572564618
 30
0.0
  0
SPLINE
  5
3CF
100
AcDbEntity
  8
0
100
AcDbSpline
 62
7
  6
CONTINUOUS
 70
0
 71
3
 72
13
 73
9
 74
0
 42
0.0000001
 43
0.0000001
 44
0.0000000001
 40
0.0
 40
0.0
 40
0.0
 40
0.0
 40
0.094464882
 40
0.1971875339
 40
0.3084725524
 40
0.4285565252
 40
0.6957860509
 40
1.0
 40
1.0
 40
1.0
 40
1.0
 10
4.1842850596
 20
3.0369427346
 30
0.0
 10
4.1826747366
 20
3.0366379649
 30
0.0
 10
4.1793367213
 20
3.0358747229
 30
0.0
 10
4.1741997671
 20
3.0343644053
 30
0.0
 10
4.1687293061
 20
3.0324413579
 30
0.0
 10
4.1607032659
 20
3.0292082651
 30
0.0
 10
4.1498527042
 20
3.0240645547
 30
0.0
 10
4.1411553185
 20
3.0192959832
 30
0.0
 10
4.1365844961
 20
3.0166570171
 30
0.0
  0
SPLINE
  5
3D0
100
AcDbEntity
  8
0
100
AcDbSpline
 62
7
  6
CONTINUOUS
 70
0
 71
3
 72
12
 73
8
 74
0
 42
0.0000001
 43
0.0000001
 44
0.0000000001
 40
0.0
 40
0.0
 40
0.0
 40
0.0
 40
0.2496960297
 40
0.4998829362
 40
0.6249079989
 40
0.7499342329
 40
1.0
 40
1.0
 40
1.0
 40
1.0
 10
4.2102401183
 20
3.0276224686
 30
0.0
 10
4.2097324154
 20
3.0285019435
 30
0.0
 10
4.2086020226
 20
3.0301998788
 30
0.0
 10
4.2069000356
 20
3.0321016466
 30
0.0
 10
4.2053646442
 20
3.0334401309
 30
0.0
 10
4.203718328
 20
3.0346378117
 30
0.0
 10
4.2023742059
 20
3.0353776561
 30
0.0
 10
4.2014476089
 20
3.0357968368
 30
0.0
  0
SPLINE
  5
3D1
100
AcDbEntity
  8
0
100
AcDbSpline
 62
7
  6
CONTINUOUS
 70
0
 71
3
 72
12
 73
8
 74
0
 42
0.0000001
 43
0.0000001
 44
0.0000000001
 40
0.0
 40
0.0
 40
0.0
 40
0.0
 40
0.1253760487
 40
0.2504471717
 40
0.5005143986
 40
0.7504199544
 40
1.0
 40
1.0
 40
1.0
 40
1.0
 10
4.2014476089
 20
3.0357968368
 30
0.0
 10
4.2007827817
 20
3.0360975962
 30
0.0
 10
4.1994197284
 20
3.0366243458
 30
0.0
 10
4.1965990535
 20
3.0373707709
 30
0.0
 10
4.1929641637
 20
3.0377791142
 30
0.0
 10
4.1885938775
 20
3.0376346978
 30
0.0
 10
4.1857121247
 20
3.0372127536
 30
0.0
 10
4.184284896
 20
3.036942642
 30
0.0
  0
SPLINE
  5
3D2
100
AcDbEntity
  8
0
100
AcDbSpline
 62
7
  6
CONTINUOUS
 70
0
 71
3
 72
9
 73
5
 74
0
 42
0.0000001
 43
0.0000001
 44
0.0000000001
 40
0.0
 40
0.0
 40
0.0
 40
0.0
 40
0.4992713562
 40
1.0
 40
1.0
 40
1.0
 40
1.0
 10
4.2072655094
 20
3.001669003
 30
0.0
 10
4.2084645257
 20
3.0034772529
 30
0.0
 10
4.2106534974
 20
3.0072503069
 30
0.0
 10
4.2120795151
 20
3.0114055559
 30
0.0
 10
4.2125046972
 20
3.0135396009
 30
0.0
  0
SPLINE
  5
3D3
100
AcDbEntity
  8
0
100
AcDbSpline
 62
7
  6
CONTINUOUS
 70
0
 71
3
 72
12
 73
8
 74
0
 42
0.0000001
 43
0.0000001
 44
0.0000000001
 40
0.0
 40
0.0
 40
0.0
 40
0.0
 40
0.2499463874
 40
0.3747614201
 40
0.4997709142
 40
0.7503067654
 40
1.0
 40
1.0
 40
1.0
 40
1.0
 10
4.2125046972
 20
3.0135396009
 30
0.0
 10
4.2127420093
 20
3.0147307017
 30
0.0
 10
4.2129643277
 20
3.016549095
 30
0.0
 10
4.2129320186
 20
3.0189803733
 30
0.0
 10
4.2126582458
 20
3.0214000192
 30
0.0
 10
4.2118782399
 20
3.0243551262
 30
0.0
 10
4.2108467033
 20
3.026571704
 30
0.0
 10
4.2102401183
 20
3.0276224686
 30
0.0
  0
SPLINE
  5
3D4
100
AcDbEntity
  8
0
100
AcDbSpline
 62
7
  6
CONTINUOUS
 70
0
 71
3
 72
15
 73
11
 74
0
 42
0.0000001
 43
0.0000001
 44
0.0000000001
 40
0.0
 40
0.0
 40
0.0
 40
0.0
 40
0.171213044
 40
0.3287522261
 40
0.4727688577
 40
0.6034599985
 40
0.7210883365
 40
0.8260131926
 40
0.9187399634
 40
1.0
 40
1.0
 40
1.0
 40
1.0
 10
4.162296267
 20
2.9667809601
 30
0.0
 10
4.165128758
 20
2.9684162996
 30
0.0
 10
4.1705326115
 20
2.9716176064
 30
0.0
 10
4.1781745459
 20
2.9764330502
 30
0.0
 10
4.1850144876
 20
2.9810618168
 30
0.0
 10
4.1910533703
 20
2.9855046864
 30
0.0
 10
4.1962924574
 20
2.989762579
 30
0.0
 10
4.200733875
 20
2.9938375153
 30
0.0
 10
4.2043791423
 20
2.9977310811
 30
0.0
 10
4.2064073802
 20
3.0003751814
 30
0.0
 10
4.2072652421
 20
3.0016689106
 30
0.0
  0
SPLINE
  5
3D5
100
AcDbEntity
  8
0
100
AcDbSpline
 62
7
  6
CONTINUOUS
 70
0
 71
3
 72
11
 73
7
 74
0
 42
0.0000001
 43
0.0000001
 44
0.0000000001
 40
0.0
 40
0.0
 40
0.0
 40
0.0
 40
0.228905807
 40
0.468622721
 40
0.724226223
 40
1.0
 40
1.0
 40
1.0
 40
1.0
 10
4.9258255368
 20
4.2109204061
 30
0.0
 10
4.9280558005
 20
4.2072987523
 30
0.0
 10
4.9320028197
 20
4.199486983
 30
0.0
 10
4.9361457195
 20
4.1866347063
 30
0.0
 10
4.9386064645
 20
4.1724790834
 30
0.0
 10
4.939102511
 20
4.1625937837
 30
0.0
 10
4.9391025082
 20
4.157469645
 30
0.0
  0
SPLINE
  5
3D6
100
AcDbEntity
  8
0
100
AcDbSpline
 62
7
  6
CONTINUOUS
 70
0
 71
3
 72
9
 73
5
 74
0
 42
0.0000001
 43
0.0000001
 44
0.0000000001
 40
0.0
 40
0.0
 40
0.0
 40
0.0
 40
0.4962006493
 40
1.0
 40
1.0
 40
1.0
 40
1.0
 10
4.9069672767
 20
4.2287377409
 30
0.0
 10
4.9082408689
 20
4.2281392239
 30
0.0
 10
4.9107404952
 20
4.2267850467
 30
0.0
 10
4.9130720873
 20
4.2251593939
 30
0.0
 10
4.9141990732
 20
4.2242811699
 30
0.0
  0
SPLINE
  5
3D7
100
AcDbEntity
  8
0
100
AcDbSpline
 62
7
  6
CONTINUOUS
 70
0
 71
3
 72
9
 73
5
 74
0
 42
0.0000001
 43
0.0000001
 44
0.0000000001
 40
0.0
 40
0.0
 40
0.0
 40
0.0
 40
0.4856533288
 40
1.0
 40
1.0
 40
1.0
 40
1.0
 10
4.9141990732
 20
4.2242811699
 30
0.0
 10
4.9158781938
 20
4.222972685
 30
0.0
 10
4.9191252757
 20
4.2200006257
 30
0.0
 10
4.9219184314
 20
4.2166045324
 30
0.0
 10
4.9232441749
 20
4.2147810001
 30
0.0
  0
SPLINE
  5
3D8
100
AcDbEntity
  8
0
100
AcDbSpline
 62
7
  6
CONTINUOUS
 70
0
 71
3
 72
14
 73
10
 74
0
 42
0.0000001
 43
0.0000001
 44
0.0000000001
 40
0.0
 40
0.0
 40
0.0
 40
0.0
 40
0.1250459612
 40
0.2501046258
 40
0.3751415764
 40
0.5001647498
 40
0.6251602581
 40
0.7501317056
 40
1.0
 40
1.0
 40
1.0
 40
1.0
 10
4.7678584133
 20
4.0903277548
 30
0.0
 10
4.7684831274
 20
4.0906400938
 30
0.0
 10
4.7696387504
 20
4.0914694116
 30
0.0
 10
4.7709535176
 20
4.093124773
 30
0.0
 10
4.7719090569
 20
4.0950002778
 30
0.0
 10
4.7725928767
 20
4.0969852473
 30
0.0
 10
4.7730755206
 20
4.0990259754
 30
0.0
 10
4.7735173688
 20
4.1017842984
 30
0.0
 10
4.7736737815
 20
4.1038760682
 30
0.0
 10
4.7737288418
 20
4.1052706196
 30
0.0
  0
SPLINE
  5
3D9
100
AcDbEntity
  8
0
100
AcDbSpline
 62
7
  6
CONTINUOUS
 70
0
 71
3
 72
13
 73
9
 74
0
 42
0.0000001
 43
0.0000001
 44
0.0000000001
 40
0.0
 40
0.0
 40
0.0
 40
0.0
 40
0.2499617633
 40
0.4999000543
 40
0.6249232661
 40
0.7498718024
 40
0.874993018
 40
1.0
 40
1.0
 40
1.0
 40
1.0
 10
4.7526968137
 20
4.0878705798
 30
0.0
 10
4.7539919468
 20
4.0878707033
 30
0.0
 10
4.7565821744
 20
4.0879104977
 30
0.0
 10
4.7598166249
 20
4.0881114954
 30
0.0
 10
4.7623871503
 20
4.0884362251
 30
0.0
 10
4.7642991502
 20
4.088799593
 30
0.0
 10
4.7661648164
 20
4.0893487069
 30
0.0
 10
4.7673431883
 20
4.089935249
 30
0.0
 10
4.7678584133
 20
4.0903277548
 30
0.0
  0
SPLINE
  5
3DA
100
AcDbEntity
  8
0
100
AcDbSpline
 62
7
  6
CONTINUOUS
 70
0
 71
3
 72
13
 73
9
 74
0
 42
0.0000001
 43
0.0000001
 44
0.0000000001
 40
0.0
 40
0.0
 40
0.0
 40
0.0
 40
0.1249642577
 40
0.2499206338
 40
0.3749510971
 40
0.4999691733
 40
0.7499754651
 40
1.0
 40
1.0
 40
1.0
 40
1.0
 10
4.7970246453
 20
4.091085588
 30
0.0
 10
4.7975467287
 20
4.0906111132
 30
0.0
 10
4.7988224787
 20
4.0899340549
 30
0.0
 10
4.8008363502
 20
4.0892912422
 30
0.0
 10
4.8029088997
 20
4.0888407461
 30
0.0
 10
4.8056984471
 20
4.0884050574
 30
0.0
 10
4.8092139083
 20
4.0880686281
 30
0.0
 10
4.8120335455
 20
4.087925547
 30
0.0
 10
4.8134441451
 20
4.0878752629
 30
0.0
  0
SPLINE
  5
3DB
100
AcDbEntity
  8
0
100
AcDbSpline
 62
7
  6
CONTINUOUS
 70
0
 71
3
 72
12
 73
8
 74
0
 42
0.0000001
 43
0.0000001
 44
0.0000000001
 40
0.0
 40
0.0
 40
0.0
 40
0.0
 40
0.2498189133
 40
0.3748248844
 40
0.4998620475
 40
0.7501143438
 40
1.0
 40
1.0
 40
1.0
 40
1.0
 10
4.7924121172
 20
4.1052720105
 30
0.0
 10
4.7924121172
 20
4.1039979583
 30
0.0
 10
4.7925051169
 20
4.1020831652
 30
0.0
 10
4.7928755911
 20
4.0995592033
 30
0.0
 10
4.7934315058
 20
4.0970665173
 30
0.0
 10
4.7945561596
 20
4.0940614203
 30
0.0
 10
4.7960815394
 20
4.0919426922
 30
0.0
 10
4.7970246453
 20
4.091085588
 30
0.0
  0
SPLINE
  5
3DC
100
AcDbEntity
  8
0
100
AcDbSpline
 62
7
  6
CONTINUOUS
 70
0
 71
3
 72
11
 73
7
 74
0
 42
0.0000001
 43
0.0000001
 44
0.0000000001
 40
0.0
 40
0.0
 40
0.0
 40
0.0
 40
0.249725691
 40
0.5002794463
 40
0.7502860937
 40
1.0
 40
1.0
 40
1.0
 40
1.0
 10
5.0347220766
 20
4.2109167433
 30
0.0
 10
5.0371550791
 20
4.2069657134
 30
0.0
 10
5.041287957
 20
4.1985766824
 30
0.0
 10
5.0453874699
 20
4.1852016868
 30
0.0
 10
5.0475861112
 20
4.1713975992
 30
0.0
 10
5.0479993098
 20
4.1621040783
 30
0.0
 10
5.0479993098
 20
4.1574642392
 30
0.0
  0
LINE
  5
3DD
100
AcDbEntity
  8
0
100
AcDbLine
 62
7
  6
CONTINUOUS
 10
4.7518427223
 20
4.2109382684
 11
4.7653712943
 21
4.2180935822
  0
LINE
  5
3DE
100
AcDbEntity
  8
0
100
AcDbLine
 62
7
  6
CONTINUOUS
 10
4.7653712943
 20
4.2180935822
 11
4.7924121172
 21
4.232395245
  0
SPLINE
  5
3DF
100
AcDbEntity
  8
0
100
AcDbSpline
 62
7
  6
CONTINUOUS
 70
0
 71
3
 72
9
 73
5
 74
0
 42
0.0000001
 43
0.0000001
 44
0.0000000001
 40
0.0
 40
0.0
 40
0.0
 40
0.0
 40
0.2503664362
 40
1.0
 40
1.0
 40
1.0
 40
1.0
 10
5.0037030427
 20
4.2321165012
 30
0.0
 10
5.004503583
 20
4.2320260802
 30
0.0
 10
5.0076898574
 20
4.2315759455
 30
0.0
 10
5.0108274307
 20
4.2307515655
 30
0.0
 10
5.0130860735
 20
4.2299047346
 30
0.0
  0
SPLINE
  5
3E0
100
AcDbEntity
  8
0
100
AcDbSpline
 62
7
  6
CONTINUOUS
 70
0
 71
3
 72
9
 73
5
 74
0
 42
0.0000001
 43
0.0000001
 44
0.0000000001
 40
0.0
 40
0.0
 40
0.0
 40
0.0
 40
0.4997645593
 40
1.0
 40
1.0
 40
1.0
 40
1.0
 10
5.0130860735
 20
4.2299047346
 30
0.0
 10
5.0153383937
 20
4.2290602742
 30
0.0
 10
5.0196816952
 20
4.2269072377
 30
0.0
 10
5.0235514353
 20
4.2239988992
 30
0.0
 10
5.0253448251
 20
4.2223924369
 30
0.0
  0
SPLINE
  5
3E1
100
AcDbEntity
  8
0
100
AcDbSpline
 62
7
  6
CONTINUOUS
 70
0
 71
3
 72
9
 73
5
 74
0
 42
0.0000001
 43
0.0000001
 44
0.0000000001
 40
0.0
 40
0.0
 40
0.0
 40
0.0
 40
0.2502573402
 40
1.0
 40
1.0
 40
1.0
 40
1.0
 10
5.0253448251
 20
4.2223924369
 30
0.0
 10
5.0259782015
 20
4.2218250781
 30
0.0
 10
5.0284397383
 20
4.2194807539
 30
0.0
 10
5.030629731
 20
4.2168588667
 30
0.0
 10
5.0321274619
 20
4.2147981567
 30
0.0
  0
LINE
  5
3E2
100
AcDbEntity
  8
0
100
AcDbLine
 62
7
  6
CONTINUOUS
 10
5.0321274619
 20
4.2147981567
 11
5.0347220766
 21
4.2109167433
  0
SPLINE
  5
3E3
100
AcDbEntity
  8
0
100
AcDbSpline
 62
7
  6
CONTINUOUS
 70
0
 71
3
 72
9
 73
5
 74
0
 42
0.0000001
 43
0.0000001
 44
0.0000000001
 40
0.0
 40
0.0
 40
0.0
 40
0.0
 40
0.7498235562
 40
1.0
 40
1.0
 40
1.0
 40
1.0
 10
4.9614156602
 20
4.2090226575
 30
0.0
 10
4.9624451322
 20
4.2109009678
 30
0.0
 10
4.963940635
 20
4.2133436872
 30
0.0
 10
4.9656198148
 20
4.2156552963
 30
0.0
 10
4.9660518979
 20
4.2162245297
 30
0.0
  0
SPLINE
  5
3E4
100
AcDbEntity
  8
0
100
AcDbSpline
 62
7
  6
CONTINUOUS
 70
0
 71
3
 72
9
 73
5
 74
0
 42
0.0000001
 43
0.0000001
 44
0.0000000001
 40
0.0
 40
0.0
 40
0.0
 40
0.0
 40
0.5000219499
 40
1.0
 40
1.0
 40
1.0
 40
1.0
 10
4.9660518979
 20
4.2162245297
 30
0.0
 10
4.9673911729
 20
4.2179889125
 30
0.0
 10
4.9703030012
 20
4.2213490634
 30
0.0
 10
4.9737103662
 20
4.2242179745
 30
0.0
 10
4.9755240042
 20
4.2254894145
 30
0.0
  0
SPLINE
  5
3E5
100
AcDbEntity
  8
0
100
AcDbSpline
 62
7
  6
CONTINUOUS
 70
0
 71
3
 72
9
 73
5
 74
0
 42
0.0000001
 43
0.0000001
 44
0.0000000001
 40
0.0
 40
0.0
 40
0.0
 40
0.0
 40
0.5000004371
 40
1.0
 40
1.0
 40
1.0
 40
1.0
 10
4.9808301427
 20
4.2285939809
 30
0.0
 10
4.983591658
 20
4.2299126871
 30
0.0
 10
4.9894731143
 20
4.2318485237
 30
0.0
 10
4.9956149194
 20
4.2323966247
 30
0.0
 10
4.9986751351
 20
4.2323964768
 30
0.0
  0
SPLINE
  5
3E6
100
AcDbEntity
  8
0
100
AcDbSpline
 62
7
  6
CONTINUOUS
 70
0
 71
3
 72
11
 73
7
 74
0
 42
0.0000001
 43
0.0000001
 44
0.0000000001
 40
0.0
 40
0.0
 40
0.0
 40
0.0
 40
0.2498091251
 40
0.4998803236
 40
0.7501987802
 40
1.0
 40
1.0
 40
1.0
 40
1.0
 10
4.9486042872
 20
4.1550145246
 30
0.0
 10
4.9486042872
 20
4.15968318
 30
0.0
 10
4.9490480538
 20
4.1690335117
 30
0.0
 10
4.9512722016
 20
4.1829112617
 30
0.0
 10
4.9552845827
 20
4.1963873028
 30
0.0
 10
4.9591718433
 20
4.2049287292
 30
0.0
 10
4.9614156602
 20
4.2090226575
 30
0.0
  0
SPLINE
  5
3E7
100
AcDbEntity
  8
0
100
AcDbSpline
 62
7
  6
CONTINUOUS
 70
0
 71
3
 72
9
 73
5
 74
0
 42
0.0000001
 43
0.0000001
 44
0.0000000001
 40
0.0
 40
0.0
 40
0.0
 40
0.0
 40
0.2548385014
 40
1.0
 40
1.0
 40
1.0
 40
1.0
 10
4.8897787336
 20
4.2323986892
 30
0.0
 10
4.8903022787
 20
4.2323986885
 30
0.0
 10
4.8923564959
 20
4.2323652722
 30
0.0
 10
4.8944089958
 20
4.2321945373
 30
0.0
 10
4.8959252491
 20
4.2319834657
 30
0.0
  0
SPLINE
  5
3E8
100
AcDbEntity
  8
0
100
AcDbSpline
 62
7
  6
CONTINUOUS
 70
0
 71
3
 72
9
 73
5
 74
0
 42
0.0000001
 43
0.0000001
 44
0.0000000001
 40
0.0
 40
0.0
 40
0.0
 40
0.0
 40
0.5046467771
 40
1.0
 40
1.0
 40
1.0
 40
1.0
 10
4.8959252491
 20
4.2319834657
 30
0.0
 10
4.8973782656
 20
4.2317811971
 30
0.0
 10
4.9002387237
 20
4.2312271317
 30
0.0
 10
4.9030187817
 20
4.230352791
 30
0.0
 10
4.904364956
 20
4.2298414733
 30
0.0
  0
SPLINE
  5
3E9
100
AcDbEntity
  8
0
100
AcDbSpline
 62
7
  6
CONTINUOUS
 70
0
 71
3
 72
9
 73
5
 74
0
 42
0.0000001
 43
0.0000001
 44
0.0000000001
 40
0.0
 40
0.0
 40
0.0
 40
0.0
 40
0.7498231494
 40
1.0
 40
1.0
 40
1.0
 40
1.0
 10
4.8525188833
 20
4.2090227009
 30
0.0
 10
4.8535487016
 20
4.210901704
 30
0.0
 10
4.8550447504
 20
4.2133453105
 30
0.0
 10
4.8567246048
 20
4.2156577081
 30
0.0
 10
4.8571568659
 20
4.2162271327
 30
0.0
  0
SPLINE
  5
3EA
100
AcDbEntity
  8
0
100
AcDbSpline
 62
7
  6
CONTINUOUS
 70
0
 71
3
 72
9
 73
5
 74
0
 42
0.0000001
 43
0.0000001
 44
0.0000000001
 40
0.0
 40
0.0
 40
0.0
 40
0.0
 40
0.5000224594
 40
1.0
 40
1.0
 40
1.0
 40
1.0
 10
4.8571568659
 20
4.2162271327
 30
0.0
 10
4.8584966923
 20
4.2179921076
 30
0.0
 10
4.8614097883
 20
4.2213533087
 30
0.0
 10
4.8648187543
 20
4.2242228543
 30
0.0
 10
4.8666332474
 20
4.2254944688
 30
0.0
  0
SPLINE
  5
3EB
100
AcDbEntity
  8
0
100
AcDbSpline
 62
7
  6
CONTINUOUS
 70
0
 71
3
 72
9
 73
5
 74
0
 42
0.0000001
 43
0.0000001
 44
0.0000000001
 40
0.0
 40
0.0
 40
0.0
 40
0.0
 40
0.5000015903
 40
1.0
 40
1.0
 40
1.0
 40
1.0
 10
4.8719383083
 20
4.2285974714
 30
0.0
 10
4.874699233
 20
4.229915552
 30
0.0
 10
4.8805792016
 20
4.2318505136
 30
0.0
 10
4.8867193345
 20
4.2323986079
 30
0.0
 10
4.8897787336
 20
4.2323986357
 30
0.0
  0
SPLINE
  5
3EC
100
AcDbEntity
  8
0
100
AcDbSpline
 62
7
  6
CONTINUOUS
 70
0
 71
3
 72
11
 73
7
 74
0
 42
0.0000001
 43
0.0000001
 44
0.0000000001
 40
0.0
 40
0.0
 40
0.0
 40
0.0
 40
0.2498060442
 40
0.4998760526
 40
0.7501962027
 40
1.0
 40
1.0
 40
1.0
 40
1.0
 10
4.8397074864
 20
4.1550137199
 30
0.0
 10
4.8397074864
 20
4.159682385
 30
0.0
 10
4.8401512315
 20
4.1690327725
 30
0.0
 10
4.842375412
 20
4.1829106746
 30
0.0
 10
4.8463878311
 20
4.1963869703
 30
0.0
 10
4.8502750667
 20
4.2049286407
 30
0.0
 10
4.8525188833
 20
4.2090227009
 30
0.0
  0
LINE
  5
3ED
100
AcDbEntity
  8
0
100
AcDbLine
 62
7
  6
CONTINUOUS
 10
5.4542760892
 20
3.9991157276
 11
5.4686394225
 21
3.9870634599
  0
LINE
  5
3EE
100
AcDbEntity
  8
0
100
AcDbLine
 62
7
  6
CONTINUOUS
 10
4.3803339379
 20
4.015561742
 11
4.3953083537
 21
4.0268457737
  0
SPLINE
  5
3EF
100
AcDbEntity
  8
0
100
AcDbSpline
 62
7
  6
CONTINUOUS
 70
0
 71
3
 72
11
 73
7
 74
0
 42
0.0000001
 43
0.0000001
 44
0.0000000001
 40
0.0
 40
0.0
 40
0.0
 40
0.0
 40
0.2499466025
 40
0.4999324391
 40
0.7499596544
 40
1.0
 40
1.0
 40
1.0
 40
1.0
 10
5.6571027967
 20
3.6480361074
 30
0.0
 10
5.6593850769
 20
3.6470534264
 30
0.0
 10
5.6637642663
 20
3.6446510022
 30
0.0
 10
5.6698185422
 20
3.6402832023
 30
0.0
 10
5.6754799762
 20
3.635419886
 30
0.0
 10
5.6790450399
 20
3.6319513341
 30
0.0
 10
5.6807853296
 20
3.6301763724
 30
0.0
  0
SPLINE
  5
3F0
100
AcDbEntity
  8
0
100
AcDbSpline
 62
7
  6
CONTINUOUS
 70
0
 71
3
 72
9
 73
5
 74
0
 42
0.0000001
 43
0.0000001
 44
0.0000000001
 40
0.0
 40
0.0
 40
0.0
 40
0.0
 40
0.499958157
 40
1.0
 40
1.0
 40
1.0
 40
1.0
 10
5.634321821
 20
3.6493374139
 30
0.0
 10
5.6380494656
 20
3.6503362333
 30
0.0
 10
5.6458454244
 20
3.6513637212
 30
0.0
 10
5.6535576622
 20
3.6495625353
 30
0.0
 10
5.6571027967
 20
3.6480361074
 30
0.0
  0
SPLINE
  5
3F1
100
AcDbEntity
  8
0
100
AcDbSpline
 62
7
  6
CONTINUOUS
 70
0
 71
3
 72
14
 73
10
 74
0
 42
0.0000001
 43
0.0000001
 44
0.0000000001
 40
0.0
 40
0.0
 40
0.0
 40
0.0
 40
0.1250458944
 40
0.2501046952
 40
0.3751416503
 40
0.500164894
 40
0.6251604016
 40
0.7501318252
 40
1.0
 40
1.0
 40
1.0
 40
1.0
 10
4.1407108204
 20
3.4270920359
 30
0.0
 10
4.140606815
 20
3.4277826782
 30
0.0
 10
4.140175122
 20
3.4291379695
 30
0.0
 10
4.1390070267
 20
3.4308998398
 30
0.0
 10
4.1375185916
 20
3.4323881162
 30
0.0
 10
4.1358421021
 20
3.433651811
 30
0.0
 10
4.1340504268
 20
3.4347414189
 30
0.0
 10
4.1315636884
 20
3.4360139757
 30
0.0
 10
4.1296226686
 20
3.4368091068
 30
0.0
 10
4.1283134119
 20
3.4372924027
 30
0.0
  0
SPLINE
  5
3F2
100
AcDbEntity
  8
0
100
AcDbSpline
 62
7
  6
CONTINUOUS
 70
0
 71
3
 72
13
 73
9
 74
0
 42
0.0000001
 43
0.0000001
 44
0.0000000001
 40
0.0
 40
0.0
 40
0.0
 40
0.0
 40
0.2499615863
 40
0.4998997688
 40
0.6249229236
 40
0.7498715476
 40
0.8749927999
 40
1.0
 40
1.0
 40
1.0
 40
1.0
 10
4.1383626938
 20
3.41191281
 30
0.0
 10
4.1387627985
 20
3.4131446239
 30
0.0
 10
4.139525382
 20
3.4156204368
 30
0.0
 10
4.1403337229
 20
3.4187587735
 30
0.0
 10
4.1408192068
 20
3.421303903
 30
0.0
 10
4.1410644458
 20
3.4232346595
 30
0.0
 10
4.1411186864
 20
3.4251787551
 30
0.0
 10
4.1409249098
 20
3.4264807215
 30
0.0
 10
4.1407108204
 20
3.4270920359
 30
0.0
  0
SPLINE
  5
3F3
100
AcDbEntity
  8
0
100
AcDbSpline
 62
7
  6
CONTINUOUS
 70
0
 71
3
 72
9
 73
5
 74
0
 42
0.0000001
 43
0.0000001
 44
0.0000000001
 40
0.0
 40
0.0
 40
0.0
 40
0.0
 40
0.5000741224
 40
1.0
 40
1.0
 40
1.0
 40
1.0
 10
5.6784091627
 20
3.5758642395
 30
0.0
 10
5.6756910467
 20
3.5731062358
 30
0.0
 10
5.6697065109
 20
3.5680803771
 30
0.0
 10
5.6625254316
 20
3.5648249865
 30
0.0
 10
5.658786182
 20
3.5638230576
 30
0.0
  0
SPLINE
  5
3F4
100
AcDbEntity
  8
0
100
AcDbSpline
 62
7
  6
CONTINUOUS
 70
0
 71
3
 72
12
 73
8
 74
0
 42
0.0000001
 43
0.0000001
 44
0.0000000001
 40
0.0
 40
0.0
 40
0.0
 40
0.0
 40
0.249942288
 40
0.4998926132
 40
0.7497887417
 40
0.8750094136
 40
1.0
 40
1.0
 40
1.0
 40
1.0
 10
5.6948337644
 20
3.6078561019
 30
0.0
 10
5.69389843
 20
3.6049856536
 30
0.0
 10
5.6919025005
 20
3.5992834725
 30
0.0
 10
5.6883961361
 20
3.5909270612
 30
0.0
 10
5.6848504153
 20
3.5842378497
 30
0.0
 10
5.6814360337
 20
3.5792466584
 30
0.0
 10
5.6794689003
 20
3.5769395284
 30
0.0
 10
5.6784091627
 20
3.5758642395
 30
0.0
  0
SPLINE
  5
3F5
100
AcDbEntity
  8
0
100
AcDbSpline
 62
7
  6
CONTINUOUS
 70
0
 71
3
 72
13
 73
9
 74
0
 42
0.0000001
 43
0.0000001
 44
0.0000000001
 40
0.0
 40
0.0
 40
0.0
 40
0.0
 40
0.1249641589
 40
0.249920451
 40
0.3749508963
 40
0.4999689782
 40
0.7499753397
 40
1.0
 40
1.0
 40
1.0
 40
1.0
 10
4.1490029699
 20
3.4550646773
 30
0.0
 10
4.1496155503
 20
3.4554145865
 30
0.0
 10
4.1506536669
 20
3.4564186992
 30
0.0
 10
4.1518873246
 20
3.4581353552
 30
0.0
 10
4.1529562054
 20
3.4599672545
 30
0.0
 10
4.1542325679
 20
3.4624856291
 30
0.0
 10
4.1556388451
 20
3.4657250596
 30
0.0
 10
4.1566462219
 20
3.4683624706
 30
0.0
 10
4.1571299357
 20
3.4696884876
 30
0.0
  0
SPLINE
  5
3F6
100
AcDbEntity
  8
0
100
AcDbSpline
 62
7
  6
CONTINUOUS
 70
0
 71
3
 72
12
 73
8
 74
0
 42
0.0000001
 43
0.0000001
 44
0.0000000001
 40
0.0
 40
0.0
 40
0.0
 40
0.0
 40
0.249819165
 40
0.3748252359
 40
0.4998624819
 40
0.7501146271
 40
1.0
 40
1.0
 40
1.0
 40
1.0
 10
4.1340854598
 20
3.4550617089
 30
0.0
 10
4.1352971632
 20
3.4546680026
 30
0.0
 10
4.1371469898
 20
3.454164744
 30
0.0
 10
4.1396619189
 20
3.4537371369
 30
0.0
 10
4.1422044049
 20
3.4534955598
 30
0.0
 10
4.145409977
 20
3.4536365549
 30
0.0
 10
4.1478963762
 20
3.4544325851
 30
0.0
 10
4.1490029699
 20
3.4550646773
 30
0.0
  0
LINE
  5
3F7
100
AcDbEntity
  8
0
100
AcDbLine
 62
7
  6
CONTINUOUS
 10
4.0210543468
 20
3.4491305577
 11
4.0184295061
 21
3.464209487
  0
LINE
  5
3F8
100
AcDbEntity
  8
0
100
AcDbLine
 62
7
  6
CONTINUOUS
 10
4.0184295061
 20
3.464209487
 11
4.0171176106
 21
3.4717461544
  0
LINE
  5
3F9
100
AcDbEntity
  8
0
100
AcDbLine
 62
7
  6
CONTINUOUS
 10
4.0171176106
 20
3.4717461544
 11
4.0131840199
 21
3.494344968
  0
SPLINE
  5
3FA
100
AcDbEntity
  8
0
100
AcDbSpline
 62
7
  6
CONTINUOUS
 70
0
 71
3
 72
9
 73
5
 74
0
 42
0.0000001
 43
0.0000001
 44
0.0000000001
 40
0.0
 40
0.0
 40
0.0
 40
0.0
 40
0.4999163709
 40
1.0
 40
1.0
 40
1.0
 40
1.0
 10
5.7565874008
 20
3.605219683
 30
0.0
 10
5.7558630365
 20
3.6035858481
 30
0.0
 10
5.7541642023
 20
3.6004196885
 30
0.0
 10
5.7519103002
 20
3.5976110812
 30
0.0
 10
5.750657065
 20
3.5963360679
 30
0.0
  0
SPLINE
  5
3FB
100
AcDbEntity
  8
0
100
AcDbSpline
 62
7
  6
CONTINUOUS
 70
0
 71
3
 72
11
 73
7
 74
0
 42
0.0000001
 43
0.0000001
 44
0.0000000001
 40
0.0
 40
0.0
 40
0.0
 40
0.0
 40
0.2499545289
 40
0.500039875
 40
0.7501160751
 40
1.0
 40
1.0
 40
1.0
 40
1.0
 10
5.750657065
 20
3.5963360679
 30
0.0
 10
5.749763342
 20
3.5954268143
 30
0.0
 10
5.7478397949
 20
3.5937356832
 30
0.0
 10
5.7446213559
 20
3.5916438591
 30
0.0
 10
5.7411486843
 20
3.5900130214
 30
0.0
 10
5.7387181773
 20
3.5892197679
 30
0.0
 10
5.7374870236
 20
3.5888898812
 30
0.0
  0
SPLINE
  5
3FC
100
AcDbEntity
  8
0
100
AcDbSpline
 62
7
  6
CONTINUOUS
 70
0
 71
3
 72
9
 73
5
 74
0
 42
0.0000001
 43
0.0000001
 44
0.0000000001
 40
0.0
 40
0.0
 40
0.0
 40
0.0
 40
0.7495936488
 40
1.0
 40
1.0
 40
1.0
 40
1.0
 10
5.7574277377
 20
3.6361228739
 30
0.0
 10
5.7585948605
 20
3.6317677874
 30
0.0
 10
5.7596748084
 20
3.6257831219
 30
0.0
 10
5.7596778133
 20
3.6197591739
 30
0.0
 10
5.7595991368
 20
3.6182550499
 30
0.0
  0
SPLINE
  5
3FD
100
AcDbEntity
  8
0
100
AcDbSpline
 62
7
  6
CONTINUOUS
 70
0
 71
3
 72
9
 73
5
 74
0
 42
0.0000001
 43
0.0000001
 44
0.0000000001
 40
0.0
 40
0.0
 40
0.0
 40
0.0
 40
0.5002491918
 40
1.0
 40
1.0
 40
1.0
 40
1.0
 10
5.7595991368
 20
3.6182550499
 30
0.0
 10
5.7594821176
 20
3.6160178963
 30
0.0
 10
5.758889636
 20
3.6115554105
 30
0.0
 10
5.7574944642
 20
3.6072656035
 30
0.0
 10
5.7565874008
 20
3.605219683
 30
0.0
  0
SPLINE
  5
3FE
100
AcDbEntity
  8
0
100
AcDbSpline
 62
7
  6
CONTINUOUS
 70
0
 71
3
 72
9
 73
5
 74
0
 42
0.0000001
 43
0.0000001
 44
0.0000000001
 40
0.0
 40
0.0
 40
0.0
 40
0.0
 40
0.4999482309
 40
1.0
 40
1.0
 40
1.0
 40
1.0
 10
5.7392226354
 20
3.6627173433
 30
0.0
 10
5.7407398099
 20
3.6618336267
 30
0.0
 10
5.7436371545
 20
3.6598184919
 30
0.0
 10
5.7461759702
 20
3.657369373
 30
0.0
 10
5.74734599
 20
3.6560597532
 30
0.0
  0
SPLINE
  5
3FF
100
AcDbEntity
  8
0
100
AcDbSpline
 62
7
  6
CONTINUOUS
 70
0
 71
3
 72
9
 73
5
 74
0
 42
0.0000001
 43
0.0000001
 44
0.0000000001
 40
0.0
 40
0.0
 40
0.0
 40
0.0
 40
0.4999353872
 40
1.0
 40
1.0
 40
1.0
 40
1.0
 10
5.7502943552
 20
3.65229513
 30
0.0
 10
5.7517518113
 20
3.6501735307
 30
0.0
 10
5.7542595211
 20
3.6456420363
 30
0.0
 10
5.7560464386
 20
3.6407970836
 30
0.0
 10
5.7567958532
 20
3.638333922
 30
0.0
  0
SPLINE
  5
400
100
AcDbEntity
  8
0
100
AcDbSpline
 62
7
  6
CONTINUOUS
 70
0
 71
3
 72
13
 73
9
 74
0
 42
0.0000001
 43
0.0000001
 44
0.0000000001
 40
0.0
 40
0.0
 40
0.0
 40
0.0
 40
0.2497729633
 40
0.374863336
 40
0.4999598246
 40
0.6250627705
 40
0.7501694821
 40
1.0
 40
1.0
 40
1.0
 40
1.0
 10
5.711733708
 20
3.6664324793
 30
0.0
 10
5.7140252233
 20
3.667046489
 30
0.0
 10
5.7175576649
 20
3.6676752106
 30
0.0
 10
5.7223118092
 20
3.6677922515
 30
0.0
 10
5.7258711376
 20
3.6674975171
 30
0.0
 10
5.729380104
 20
3.6668314016
 30
0.0
 10
5.7339317656
 20
3.6654514385
 30
0.0
 10
5.7371722109
 20
3.6639116649
 30
0.0
 10
5.7392226354
 20
3.6627173433
 30
0.0
  0
SPLINE
  5
401
100
AcDbEntity
  8
0
100
AcDbSpline
 62
7
  6
CONTINUOUS
 70
0
 71
3
 72
14
 73
10
 74
0
 42
0.0000001
 43
0.0000001
 44
0.0000000001
 40
0.0
 40
0.0
 40
0.0
 40
0.0
 40
0.1250457073
 40
0.2501027994
 40
0.3751392391
 40
0.5001618262
 40
0.6251574819
 40
0.7501294931
 40
1.0
 40
1.0
 40
1.0
 40
1.0
 10
4.1743564177
 20
3.5306585733
 30
0.0
 10
4.1742524389
 20
3.5313493027
 30
0.0
 10
4.1738212713
 20
3.5327048852
 30
0.0
 10
4.1726534777
 20
3.5344672991
 30
0.0
 10
4.1711650882
 20
3.5359559572
 30
0.0
 10
4.1694885113
 20
3.5372199502
 30
0.0
 10
4.1676966742
 20
3.5383097768
 30
0.0
 10
4.1652096582
 20
3.5395825611
 30
0.0
 10
4.1632683988
 20
3.5403778136
 30
0.0
 10
4.1619589746
 20
3.5408611736
 30
0.0
  0
SPLINE
  5
402
100
AcDbEntity
  8
0
100
AcDbSpline
 62
7
  6
CONTINUOUS
 70
0
 71
3
 72
13
 73
9
 74
0
 42
0.0000001
 43
0.0000001
 44
0.0000000001
 40
0.0
 40
0.0
 40
0.0
 40
0.0
 40
0.2499640897
 40
0.4999038037
 40
0.6249274465
 40
0.7498752653
 40
0.8749956543
 40
1.0
 40
1.0
 40
1.0
 40
1.0
 10
4.1720067291
 20
3.5154820727
 30
0.0
 10
4.1724068517
 20
3.5167136629
 30
0.0
 10
4.1731694859
 20
3.519189021
 30
0.0
 10
4.1739779344
 20
3.5223267842
 30
0.0
 10
4.1744636142
 20
3.5248714311
 30
0.0
 10
4.1747090434
 20
3.52680183
 30
0.0
 10
4.1747636435
 20
3.5287455241
 30
0.0
 10
4.1745704377
 20
3.530047367
 30
0.0
 10
4.1743564177
 20
3.5306585733
 30
0.0
  0
SPLINE
  5
403
100
AcDbEntity
  8
0
100
AcDbSpline
 62
7
  6
CONTINUOUS
 70
0
 71
3
 72
14
 73
10
 74
0
 42
0.0000001
 43
0.0000001
 44
0.0000000001
 40
0.0
 40
0.0
 40
0.0
 40
0.0
 40
0.0661402649
 40
0.1467282089
 40
0.2436232139
 40
0.3579202544
 40
0.4903081517
 40
0.6412502361
 40
1.0
 40
1.0
 40
1.0
 40
1.0
 10
4.1826494263
 20
3.5586328143
 30
0.0
 10
4.1829738031
 20
3.5588180855
 30
0.0
 10
4.1836345566
 20
3.5593314294
 30
0.0
 10
4.1845615205
 20
3.5603529965
 30
0.0
 10
4.1855201508
 20
3.5616970338
 30
0.0
 10
4.1865116872
 20
3.5633668635
 30
0.0
 10
4.1875379904
 20
3.5653656661
 30
0.0
 10
4.1890410474
 20
3.5686669649
 30
0.0
 10
4.1900833551
 20
3.5713530114
 30
0.0
 10
4.1907778516
 20
3.57325648
 30
0.0
  0
SPLINE
  5
404
100
AcDbEntity
  8
0
100
AcDbSpline
 62
7
  6
CONTINUOUS
 70
0
 71
3
 72
11
 73
7
 74
0
 42
0.0000001
 43
0.0000001
 44
0.0000000001
 40
0.0
 40
0.0
 40
0.0
 40
0.0
 40
0.3177410581
 40
0.5847421661
 40
0.809112986
 40
1.0
 40
1.0
 40
1.0
 40
1.0
 10
4.1677321739
 20
3.5586300965
 30
0.0
 10
4.1692735804
 20
3.5581292635
 30
0.0
 10
4.1721734352
 20
3.5573799161
 30
0.0
 10
4.1763061153
 20
3.5570084281
 30
0.0
 10
4.1797912579
 20
3.5573937865
 30
0.0
 10
4.1818039779
 20
3.5581498976
 30
0.0
 10
4.1826494632
 20
3.5586328023
 30
0.0
  0
SPLINE
  5
405
100
AcDbEntity
  8
0
100
AcDbSpline
 62
7
  6
CONTINUOUS
 70
0
 71
3
 72
9
 73
5
 74
0
 42
0.0000001
 43
0.0000001
 44
0.0000000001
 40
0.0
 40
0.0
 40
0.0
 40
0.0
 40
0.5004024824
 40
1.0
 40
1.0
 40
1.0
 40
1.0
 10
5.6749541111
 20
3.4802767645
 30
0.0
 10
5.6771953457
 20
3.4801479393
 30
0.0
 10
5.6817047703
 20
3.4803095775
 30
0.0
 10
5.6861232875
 20
3.4811784776
 30
0.0
 10
5.688288239
 20
3.4817585746
 30
0.0
  0
LINE
  5
406
100
AcDbEntity
  8
0
100
AcDbLine
 62
7
  6
CONTINUOUS
 10
4.0546992848
 20
3.5526995224
 11
4.0520804007
 21
3.5677484848
  0
LINE
  5
407
100
AcDbEntity
  8
0
100
AcDbLine
 62
7
  6
CONTINUOUS
 10
4.0520804007
 20
3.5677484848
 11
4.050769541
 21
3.5752813117
  0
LINE
  5
408
100
AcDbEntity
  8
0
100
AcDbLine
 62
7
  6
CONTINUOUS
 10
4.050769541
 20
3.5752813117
 11
4.0468312888
 21
3.5979131754
  0
SPLINE
  5
409
100
AcDbEntity
  8
0
100
AcDbSpline
 62
7
  6
CONTINUOUS
 70
0
 71
3
 72
14
 73
10
 74
0
 42
0.0000001
 43
0.0000001
 44
0.0000000001
 40
0.0
 40
0.0
 40
0.0
 40
0.0
 40
0.1249381916
 40
0.2501920865
 40
0.3753173114
 40
0.5003668097
 40
0.6254855232
 40
0.7504902528
 40
1.0
 40
1.0
 40
1.0
 40
1.0
 10
5.6469717867
 20
3.4998670533
 30
0.0
 10
5.6472200607
 20
3.4989404131
 30
0.0
 10
5.6478285361
 20
3.4971125916
 30
0.0
 10
5.649064859
 20
3.4945015597
 30
0.0
 10
5.6506271897
 20
3.4920688451
 30
0.0
 10
5.6524920825
 20
3.4898622722
 30
0.0
 10
5.6546020646
 20
3.4878915844
 30
0.0
 10
5.6576823699
 20
3.4855947152
 30
0.0
 10
5.6602315434
 20
3.4842236929
 30
0.0
 10
5.6619803639
 20
3.4834413633
 30
0.0
  0
SPLINE
  5
40A
100
AcDbEntity
  8
0
100
AcDbSpline
 62
7
  6
CONTINUOUS
 70
0
 71
3
 72
9
 73
5
 74
0
 42
0.0000001
 43
0.0000001
 44
0.0000000001
 40
0.0
 40
0.0
 40
0.0
 40
0.0
 40
0.4999560132
 40
1.0
 40
1.0
 40
1.0
 40
1.0
 10
5.6474432081
 20
3.5133675494
 30
0.0
 10
5.6467001474
 20
3.5112144302
 30
0.0
 10
5.6457972545
 20
3.5066665248
 30
0.0
 10
5.6463822037
 20
3.5020675712
 30
0.0
 10
5.6469717867
 20
3.4998670533
 30
0.0
  0
SPLINE
  5
40B
100
AcDbEntity
  8
0
100
AcDbSpline
 62
7
  6
CONTINUOUS
 70
0
 71
3
 72
9
 73
5
 74
0
 42
0.0000001
 43
0.0000001
 44
0.0000000001
 40
0.0
 40
0.0
 40
0.0
 40
0.0
 40
0.5004012035
 40
1.0
 40
1.0
 40
1.0
 40
1.0
 10
4.1977818569
 20
3.6741528965
 30
0.0
 10
4.1959723657
 20
3.6754816037
 30
0.0
 10
4.1921023975
 20
3.6778020492
 30
0.0
 10
4.1879234698
 20
3.6794798193
 30
0.0
 10
4.1857918359
 20
3.6801724291
 30
0.0
  0
SPLINE
  5
40C
100
AcDbEntity
  8
0
100
AcDbSpline
 62
7
  6
CONTINUOUS
 70
0
 71
3
 72
11
 73
7
 74
0
 42
0.0000001
 43
0.0000001
 44
0.0000000001
 40
0.0
 40
0.0
 40
0.0
 40
0.0
 40
0.2497408186
 40
0.5000571684
 40
0.7500319832
 40
1.0
 40
1.0
 40
1.0
 40
1.0
 10
4.2105794346
 20
3.6424828388
 30
0.0
 10
4.2109046649
 20
3.6434836247
 30
0.0
 10
4.2114253558
 20
3.6455325446
 30
0.0
 10
4.2117924897
 20
3.6486813653
 30
0.0
 10
4.2117055583
 20
3.6518521778
 30
0.0
 10
4.21135357
 20
3.6539364469
 30
0.0
 10
4.2111136927
 20
3.6549620305
 30
0.0
  0
SPLINE
  5
40D
100
AcDbEntity
  8
0
100
AcDbSpline
 62
7
  6
CONTINUOUS
 70
0
 71
3
 72
9
 73
5
 74
0
 42
0.0000001
 43
0.0000001
 44
0.0000000001
 40
0.0
 40
0.0
 40
0.0
 40
0.0
 40
0.5002539376
 40
1.0
 40
1.0
 40
1.0
 40
1.0
 10
4.2111136927
 20
3.6549620305
 30
0.0
 10
4.2107191614
 20
3.6566488297
 30
0.0
 10
4.2095727136
 20
3.6599434825
 30
0.0
 10
4.2078789374
 20
3.662979655
 30
0.0
 10
4.2069389849
 20
3.664432702
 30
0.0
  0
SPLINE
  5
40E
100
AcDbEntity
  8
0
100
AcDbSpline
 62
7
  6
CONTINUOUS
 70
0
 71
3
 72
9
 73
5
 74
0
 42
0.0000001
 43
0.0000001
 44
0.0000000001
 40
0.0
 40
0.0
 40
0.0
 40
0.0
 40
0.2496525452
 40
1.0
 40
1.0
 40
1.0
 40
1.0
 10
4.2028307611
 20
3.6314173864
 30
0.0
 10
4.203128961
 20
3.6316500198
 30
0.0
 10
4.2043018734
 20
3.6326090271
 30
0.0
 10
4.2053855183
 20
3.6336781401
 30
0.0
 10
4.2061321792
 20
3.6345352593
 30
0.0
  0
SPLINE
  5
40F
100
AcDbEntity
  8
0
100
AcDbSpline
 62
7
  6
CONTINUOUS
 70
0
 71
3
 72
9
 73
5
 74
0
 42
0.0000001
 43
0.0000001
 44
0.0000000001
 40
0.0
 40
0.0
 40
0.0
 40
0.0
 40
0.4999696313
 40
1.0
 40
1.0
 40
1.0
 40
1.0
 10
4.2061321792
 20
3.6345352593
 30
0.0
 10
4.2068764684
 20
3.6353896559
 30
0.0
 10
4.20823528
 20
3.6372169471
 30
0.0
 10
4.2092890154
 20
3.6392342823
 30
0.0
 10
4.2097418541
 20
3.6402731321
 30
0.0
  0
LINE
  5
410
100
AcDbEntity
  8
0
100
AcDbLine
 62
7
  6
CONTINUOUS
 10
4.1938497117
 20
3.6241122374
 11
4.2028307611
 21
3.6314173864
  0
SPLINE
  5
411
100
AcDbEntity
  8
0
100
AcDbSpline
 62
7
  6
CONTINUOUS
 70
0
 71
3
 72
9
 73
5
 74
0
 42
0.0000001
 43
0.0000001
 44
0.0000000001
 40
0.0
 40
0.0
 40
0.0
 40
0.0
 40
0.499968335
 40
1.0
 40
1.0
 40
1.0
 40
1.0
 10
4.1876924295
 20
3.6155691122
 30
0.0
 10
4.1882392616
 20
3.6172519218
 30
0.0
 10
4.1900575344
 20
3.6203823837
 30
0.0
 10
4.1925356525
 20
3.6229269463
 30
0.0
 10
4.1938497117
 20
3.6241122374
 30
0.0
  0
SPLINE
  5
412
100
AcDbEntity
  8
0
100
AcDbSpline
 62
7
  6
CONTINUOUS
 70
0
 71
3
 72
9
 73
5
 74
0
 42
0.0000001
 43
0.0000001
 44
0.0000000001
 40
0.0
 40
0.0
 40
0.0
 40
0.0
 40
0.2487835032
 40
1.0
 40
1.0
 40
1.0
 40
1.0
 10
4.1880933165
 20
3.6071318512
 30
0.0
 10
4.1879728034
 20
3.6073375983
 30
0.0
 10
4.1875304606
 20
3.6081890672
 30
0.0
 10
4.1872519
 20
3.6091214526
 30
0.0
 10
4.187126906
 20
3.6098305141
 30
0.0
  0
SPLINE
  5
413
100
AcDbEntity
  8
0
100
AcDbSpline
 62
7
  6
CONTINUOUS
 70
0
 71
3
 72
9
 73
5
 74
0
 42
0.0000001
 43
0.0000001
 44
0.0000000001
 40
0.0
 40
0.0
 40
0.0
 40
0.0
 40
0.5016580906
 40
1.0
 40
1.0
 40
1.0
 40
1.0
 10
4.187126906
 20
3.6098305141
 30
0.0
 10
4.1870025426
 20
3.6105359989
 30
0.0
 10
4.1869196186
 20
3.6119754506
 30
0.0
 10
4.1871292273
 20
3.6133958251
 30
0.0
 10
4.187284518
 20
3.6140903017
 30
0.0
  0
LINE
  5
414
100
AcDbEntity
  8
0
100
AcDbLine
 62
7
  6
CONTINUOUS
 10
4.187284518
 20
3.6140903017
 11
4.1876924295
 21
3.6155691122
  0
SPLINE
  5
415
100
AcDbEntity
  8
0
100
AcDbSpline
 62
7
  6
CONTINUOUS
 70
0
 71
3
 72
9
 73
5
 74
0
 42
0.0000001
 43
0.0000001
 44
0.0000000001
 40
0.0
 40
0.0
 40
0.0
 40
0.0
 40
0.4999578199
 40
1.0
 40
1.0
 40
1.0
 40
1.0
 10
4.1936965823
 20
3.6026171774
 30
0.0
 10
4.1925356521
 20
3.6029943864
 30
0.0
 10
4.1903086688
 20
3.6041471459
 30
0.0
 10
4.1887103688
 20
3.6060783831
 30
0.0
 10
4.1880933165
 20
3.6071318512
 30
0.0
  0
LINE
  5
416
100
AcDbEntity
  8
0
100
AcDbLine
 62
7
  6
CONTINUOUS
 10
5.6509963717
 20
3.5243855451
 11
5.64744325
 21
3.5133675607
  0
SPLINE
  5
417
100
AcDbEntity
  8
0
100
AcDbSpline
 62
7
  6
CONTINUOUS
 70
0
 71
3
 72
11
 73
7
 74
0
 42
0.0000001
 43
0.0000001
 44
0.0000000001
 40
0.0
 40
0.0
 40
0.0
 40
0.0
 40
0.2172728981
 40
0.4527777604
 40
0.7122065347
 40
1.0
 40
1.0
 40
1.0
 40
1.0
 10
5.6515071371
 20
3.5349038532
 30
0.0
 10
5.6517066219
 20
3.534159358
 30
0.0
 10
5.651978804
 20
3.5325671597
 30
0.0
 10
5.6520106295
 20
3.5300329116
 30
0.0
 10
5.6516865571
 20
3.5272689561
 30
0.0
 10
5.6512597463
 20
3.5253719336
 30
0.0
 10
5.6509964129
 20
3.5243855562
 30
0.0
  0
SPLINE
  5
418
100
AcDbEntity
  8
0
100
AcDbSpline
 62
7
  6
CONTINUOUS
 70
0
 71
3
 72
9
 73
5
 74
0
 42
0.0000001
 43
0.0000001
 44
0.0000000001
 40
0.0
 40
0.0
 40
0.0
 40
0.0
 40
0.499878429
 40
1.0
 40
1.0
 40
1.0
 40
1.0
 10
5.6465754287
 20
3.5417615658
 30
0.0
 10
5.6478623382
 20
3.5411160021
 30
0.0
 10
5.6500609086
 20
3.5390226533
 30
0.0
 10
5.6511343126
 20
3.5362952221
 30
0.0
 10
5.6515071319
 20
3.5349038518
 30
0.0
  0
SPLINE
  5
419
100
AcDbEntity
  8
0
100
AcDbSpline
 62
7
  6
CONTINUOUS
 70
0
 71
3
 72
11
 73
7
 74
0
 42
0.0000001
 43
0.0000001
 44
0.0000000001
 40
0.0
 40
0.0
 40
0.0
 40
0.0
 40
0.2539648489
 40
0.4995162131
 40
0.7453158169
 40
1.0
 40
1.0
 40
1.0
 40
1.0
 10
5.6394171845
 20
3.5424961133
 30
0.0
 10
5.640018648
 20
3.5426572716
 30
0.0
 10
5.6412308473
 20
3.5428784298
 30
0.0
 10
5.6430690563
 20
3.542867707
 30
0.0
 10
5.6448727982
 20
3.5425043732
 30
0.0
 10
5.6460172687
 20
3.5420415671
 30
0.0
 10
5.6465754239
 20
3.5417615803
 30
0.0
  0
SPLINE
  5
41A
100
AcDbEntity
  8
0
100
AcDbSpline
 62
7
  6
CONTINUOUS
 70
0
 71
3
 72
13
 73
9
 74
0
 42
0.0000001
 43
0.0000001
 44
0.0000000001
 40
0.0
 40
0.0
 40
0.0
 40
0.0
 40
0.2498326308
 40
0.3749318684
 40
0.5000228562
 40
0.6251116252
 40
0.7502002895
 40
1.0
 40
1.0
 40
1.0
 40
1.0
 10
4.1416740351
 20
3.6980990366
 30
0.0
 10
4.1447447643
 20
3.6994615673
 30
0.0
 10
4.1495348389
 20
3.7011390081
 30
0.0
 10
4.1561358868
 20
3.7024593814
 30
0.0
 10
4.1611656271
 20
3.702960464
 30
0.0
 10
4.1662200658
 20
3.7029750813
 30
0.0
 10
4.172920899
 20
3.7023368348
 30
0.0
 10
4.1778570674
 20
3.7011605415
 30
0.0
 10
4.181051668
 20
3.7001225528
 30
0.0
  0
SPLINE
  5
41B
100
AcDbEntity
  8
0
100
AcDbSpline
 62
7
  6
CONTINUOUS
 70
0
 71
3
 72
14
 73
10
 74
0
 42
0.0000001
 43
0.0000001
 44
0.0000000001
 40
0.0
 40
0.0
 40
0.0
 40
0.0
 40
0.249911315
 40
0.3748977022
 40
0.4998891768
 40
0.624896315
 40
0.7499008319
 40
0.8749739644
 40
1.0
 40
1.0
 40
1.0
 40
1.0
 10
4.1072419044
 20
3.6577616506
 30
0.0
 10
4.1091689718
 20
3.6618348527
 30
0.0
 10
4.112294221
 20
3.6678427398
 30
0.0
 10
4.1170785818
 20
3.6754865441
 30
0.0
 10
4.1210296499
 20
3.6809803083
 30
0.0
 10
4.125400615
 20
3.6861498706
 30
0.0
 10
4.1302543565
 20
3.6908787211
 30
0.0
 10
4.1356460368
 20
3.6949922687
 30
0.0
 10
4.1396134743
 20
3.6971847335
 30
0.0
 10
4.1416740351
 20
3.6980990366
 30
0.0
  0
LINE
  5
41C
100
AcDbEntity
  8
0
100
AcDbLine
 62
7
  6
CONTINUOUS
 10
4.0746338654
 20
3.6758777774
 11
4.0927489132
 21
3.7316202655
  0
LINE
  5
41D
100
AcDbEntity
  8
0
100
AcDbLine
 62
7
  6
CONTINUOUS
 10
4.1196817234
 20
3.6328401448
 11
4.1007302781
 21
3.6509458748
  0
LINE
  5
41E
100
AcDbEntity
  8
0
100
AcDbLine
 62
7
  6
CONTINUOUS
 10
4.1007302781
 20
3.6509458748
 11
4.0974250538
 21
3.6541036056
  0
LINE
  5
41F
100
AcDbEntity
  8
0
100
AcDbLine
 62
7
  6
CONTINUOUS
 10
4.0974250538
 20
3.6541036056
 11
4.089887382
 21
3.6613049172
  0
LINE
  5
420
100
AcDbEntity
  8
0
100
AcDbLine
 62
7
  6
CONTINUOUS
 10
4.089887382
 20
3.6613049172
 11
4.0867197156
 21
3.6643312316
  0
LINE
  5
421
100
AcDbEntity
  8
0
100
AcDbLine
 62
7
  6
CONTINUOUS
 10
4.0867197156
 20
3.6643312316
 11
4.0746338654
 21
3.6758777774
  0
SPLINE
  5
422
100
AcDbEntity
  8
0
100
AcDbSpline
 62
7
  6
CONTINUOUS
 70
0
 71
3
 72
13
 73
9
 74
0
 42
0.0000001
 43
0.0000001
 44
0.0000000001
 40
0.0
 40
0.0
 40
0.0
 40
0.0
 40
0.2498316808
 40
0.3749305595
 40
0.5000213142
 40
0.6251100237
 40
0.7501989211
 40
1.0
 40
1.0
 40
1.0
 40
1.0
 10
5.7350519718
 20
3.4907521167
 30
0.0
 10
5.7332188057
 20
3.4879369955
 30
0.0
 10
5.7301151975
 20
3.4839213709
 30
0.0
 10
5.725298326
 20
3.4792189063
 30
0.0
 10
5.7213530225
 20
3.476059316
 30
0.0
 10
5.7171220504
 20
3.4732942512
 30
0.0
 10
5.7111547215
 20
3.4701800442
 30
0.0
 10
5.706374305
 20
3.4684781634
 30
0.0
 10
5.7031297946
 20
3.4676087995
 30
0.0
  0
SPLINE
  5
423
100
AcDbEntity
  8
0
100
AcDbSpline
 62
7
  6
CONTINUOUS
 70
0
 71
3
 72
14
 73
10
 74
0
 42
0.0000001
 43
0.0000001
 44
0.0000000001
 40
0.0
 40
0.0
 40
0.0
 40
0.0
 40
0.2499124255
 40
0.3748991551
 40
0.4998907899
 40
0.6248978707
 40
0.7499021171
 40
0.8749746858
 40
1.0
 40
1.0
 40
1.0
 40
1.0
 10
5.7419586523
 20
3.54333484
 30
0.0
 10
5.7425610246
 20
3.5388692259
 30
0.0
 10
5.7432122818
 20
3.5321284767
 30
0.0
 10
5.7433631265
 20
3.5231121088
 30
0.0
 10
5.7430417694
 20
3.5163527587
 30
0.0
 10
5.7421916704
 20
3.5096366147
 30
0.0
 10
5.7406966486
 20
3.5030271427
 30
0.0
 10
5.7384153185
 20
3.4966407299
 30
0.0
 10
5.7362820993
 20
3.4926411754
 30
0.0
 10
5.7350519718
 20
3.4907521167
 30
0.0
  0
LINE
  5
424
100
AcDbEntity
  8
0
100
AcDbLine
 62
7
  6
CONTINUOUS
 10
4.0484328946
 20
3.2477507365
 11
4.0467987244
 21
3.2664293871
  0
LINE
  5
425
100
AcDbEntity
  8
0
100
AcDbLine
 62
7
  6
CONTINUOUS
 10
5.7791729498
 20
3.5459010181
 11
5.7943414152
 21
3.489285689
  0
LINE
  5
426
100
AcDbEntity
  8
0
100
AcDbLine
 62
7
  6
CONTINUOUS
 10
5.7179519963
 20
3.5574604228
 11
5.7481727489
 21
3.5517543275
  0
LINE
  5
427
100
AcDbEntity
  8
0
100
AcDbLine
 62
7
  6
CONTINUOUS
 10
5.7481727489
 20
3.5517543275
 11
5.7584195437
 21
3.5498195815
  0
LINE
  5
428
100
AcDbEntity
  8
0
100
AcDbLine
 62
7
  6
CONTINUOUS
 10
5.7584195437
 20
3.5498195815
 11
5.768752944
 21
3.5478684784
  0
LINE
  5
429
100
AcDbEntity
  8
0
100
AcDbLine
 62
7
  6
CONTINUOUS
 10
5.768752944
 20
3.5478684784
 11
5.7791729498
 21
3.5459010181
  0
SPLINE
  5
42A
100
AcDbEntity
  8
0
100
AcDbSpline
 62
7
  6
CONTINUOUS
 70
0
 71
3
 72
14
 73
10
 74
0
 42
0.0000001
 43
0.0000001
 44
0.0000000001
 40
0.0
 40
0.0
 40
0.0
 40
0.0
 40
0.1250458944
 40
0.2501046952
 40
0.3751416503
 40
0.500164894
 40
0.6251604016
 40
0.7501318252
 40
1.0
 40
1.0
 40
1.0
 40
1.0
 10
4.3237777795
 20
2.8262799881
 30
0.0
 10
4.3231949391
 20
2.826664827
 30
0.0
 10
4.3218989024
 20
2.8272508834
 30
0.0
 10
4.3198079693
 20
2.8275617408
 30
0.0
 10
4.3177060069
 20
2.8274514693
 30
0.0
 10
4.3156451082
 20
2.8270511717
 30
0.0
 10
4.3136365069
 20
2.8264487874
 30
0.0
 10
4.3110268601
 20
2.8254522874
 30
0.0
 10
4.3091371668
 20
2.8245418751
 30
0.0
 10
4.3079019443
 20
2.8238922959
 30
0.0
  0
SPLINE
  5
42B
100
AcDbEntity
  8
0
100
AcDbSpline
 62
7
  6
CONTINUOUS
 70
0
 71
3
 72
13
 73
9
 74
0
 42
0.0000001
 43
0.0000001
 44
0.0000000001
 40
0.0
 40
0.0
 40
0.0
 40
0.0
 40
0.2499615863
 40
0.4998997688
 40
0.6249229236
 40
0.7498715476
 40
0.8749927999
 40
1.0
 40
1.0
 40
1.0
 40
1.0
 10
4.3334869394
 20
2.8143781054
 30
0.0
 10
4.3328392455
 20
2.8154996855
 30
0.0
 10
4.3315096259
 20
2.8177230376
 30
0.0
 10
4.3297182728
 20
2.8204237092
 30
0.0
 10
4.3281517252
 20
2.8224875181
 30
0.0
 10
4.3268809904
 20
2.8239616944
 30
0.0
 10
4.3254725399
 20
2.8253028569
 30
0.0
 10
4.3243753285
 20
2.8260300385
 30
0.0
 10
4.3237777795
 20
2.8262799881
 30
0.0
  0
LINE
  5
42C
100
AcDbEntity
  8
0
100
AcDbLine
 62
7
  6
CONTINUOUS
 10
5.758123929
 20
3.1917113151
 11
5.7548680256
 21
3.1732461697
  0
LINE
  5
42D
100
AcDbEntity
  8
0
100
AcDbLine
 62
7
  6
CONTINUOUS
 10
4.3085385868
 20
2.8511596066
 11
4.308641828
 21
2.8524423614
  0
SPLINE
  5
42E
100
AcDbEntity
  8
0
100
AcDbSpline
 62
7
  6
CONTINUOUS
 70
0
 71
3
 72
14
 73
10
 74
0
 42
0.0000001
 43
0.0000001
 44
0.0000000001
 40
0.0
 40
0.0
 40
0.0
 40
0.0
 40
0.0628745556
 40
0.1253903932
 40
0.250259742
 40
0.3752555752
 40
0.5002037876
 40
0.7500970422
 40
1.0
 40
1.0
 40
1.0
 40
1.0
 10
4.308641828
 20
2.8524423614
 30
0.0
 10
4.3086317008
 20
2.8527703495
 30
0.0
 10
4.3085690869
 20
2.8534232338
 30
0.0
 10
4.3083390616
 20
2.8547097459
 30
0.0
 10
4.3079058401
 20
2.8562844563
 30
0.0
 10
4.3072598396
 20
2.8581315689
 30
0.0
 10
4.3062825624
 20
2.8605510839
 30
0.0
 10
4.3049114071
 20
2.8635111535
 30
0.0
 10
4.3037204582
 20
2.8658323308
 30
0.0
 10
4.3031089795
 20
2.8669843583
 30
0.0
  0
SPLINE
  5
42F
100
AcDbEntity
  8
0
100
AcDbSpline
 62
7
  6
CONTINUOUS
 70
0
 71
3
 72
12
 73
8
 74
0
 42
0.0000001
 43
0.0000001
 44
0.0000000001
 40
0.0
 40
0.0
 40
0.0
 40
0.0
 40
0.249819165
 40
0.3748252359
 40
0.4998624819
 40
0.7501146271
 40
1.0
 40
1.0
 40
1.0
 40
1.0
 10
4.2985590302
 20
2.84007175
 30
0.0
 10
4.2996623988
 20
2.8407087802
 30
0.0
 10
4.3012741685
 20
2.8417467235
 30
0.0
 10
4.3032747585
 20
2.8433295551
 30
0.0
 10
4.3051555405
 20
2.8450573437
 30
0.0
 10
4.3071957071
 20
2.8475338922
 30
0.0
 10
4.3082678672
 20
2.849914295
 30
0.0
 10
4.3085385868
 20
2.8511596066
 30
0.0
  0
LINE
  5
430
100
AcDbEntity
  8
0
100
AcDbLine
 62
7
  6
CONTINUOUS
 10
4.2273341574
 20
2.7521045484
 11
4.2206359042
 21
2.7563104586
  0
LINE
  5
431
100
AcDbEntity
  8
0
100
AcDbLine
 62
7
  6
CONTINUOUS
 10
4.2206359042
 20
2.7563104586
 11
4.2143719679
 21
2.7602436848
  0
LINE
  5
432
100
AcDbEntity
  8
0
100
AcDbLine
 62
7
  6
CONTINUOUS
 10
4.2143719679
 20
2.7602436848
 11
4.1884670257
 21
2.7765101015
  0
SPLINE
  5
433
100
AcDbEntity
  8
0
100
AcDbSpline
 62
7
  6
CONTINUOUS
 70
0
 71
3
 72
11
 73
7
 74
0
 42
0.0000001
 43
0.0000001
 44
0.0000000001
 40
0.0
 40
0.0
 40
0.0
 40
0.0
 40
0.2454638173
 40
0.4870763551
 40
0.735241856
 40
1.0
 40
1.0
 40
1.0
 40
1.0
 10
4.1360874197
 20
2.8896400307
 30
0.0
 10
4.1367556006
 20
2.892135077
 30
0.0
 10
4.1385503731
 20
2.8969789953
 30
0.0
 10
4.1427211534
 20
2.9035623362
 30
0.0
 10
4.1483147131
 20
2.9092726009
 30
0.0
 10
4.1527891056
 20
2.9123507384
 30
0.0
 10
4.1552018418
 20
2.9137437528
 30
0.0
  0
SPLINE
  5
434
100
AcDbEntity
  8
0
100
AcDbSpline
 62
7
  6
CONTINUOUS
 70
0
 71
3
 72
9
 73
5
 74
0
 42
0.0000001
 43
0.0000001
 44
0.0000000001
 40
0.0
 40
0.0
 40
0.0
 40
0.0
 40
0.4999898865
 40
1.0
 40
1.0
 40
1.0
 40
1.0
 10
4.1400474575
 20
2.8603676901
 30
0.0
 10
4.1375340019
 20
2.8647209885
 30
0.0
 10
4.1339337383
 20
2.8744377165
 30
0.0
 10
4.1347868998
 20
2.8847841505
 30
0.0
 10
4.136087405
 20
2.8896400126
 30
0.0
  0
SPLINE
  5
435
100
AcDbEntity
  8
0
100
AcDbSpline
 62
7
  6
CONTINUOUS
 70
0
 71
3
 72
12
 73
8
 74
0
 42
0.0000001
 43
0.0000001
 44
0.0000000001
 40
0.0
 40
0.0
 40
0.0
 40
0.0
 40
0.2500617845
 40
0.3751922382
 40
0.5003380131
 40
0.750516527
 40
1.0
 40
1.0
 40
1.0
 40
1.0
 10
4.1596367716
 20
2.8419425611
 30
0.0
 10
4.1575972486
 20
2.8429478594
 30
0.0
 10
4.1546351857
 20
2.8446718611
 30
0.0
 10
4.1509827145
 20
2.8473904382
 30
0.0
 10
4.1475565536
 20
2.8503922622
 30
0.0
 10
4.1437289995
 20
2.8546204397
 30
0.0
 10
4.1411817668
 20
2.8584030694
 30
0.0
 10
4.1400474575
 20
2.8603676901
 30
0.0
  0
SPLINE
  5
436
100
AcDbEntity
  8
0
100
AcDbSpline
 62
7
  6
CONTINUOUS
 70
0
 71
3
 72
9
 73
5
 74
0
 42
0.0000001
 43
0.0000001
 44
0.0000000001
 40
0.0
 40
0.0
 40
0.0
 40
0.0
 40
0.7497907891
 40
1.0
 40
1.0
 40
1.0
 40
1.0
 10
4.2010587085
 20
2.8398712334
 30
0.0
 10
4.1980086728
 20
2.8389558149
 30
0.0
 10
4.1938638345
 20
2.8379596532
 30
0.0
 10
4.1896578825
 20
2.8373608585
 30
0.0
 10
4.1886023565
 20
2.8372378678
 30
0.0
  0
SPLINE
  5
437
100
AcDbEntity
  8
0
100
AcDbSpline
 62
7
  6
CONTINUOUS
 70
0
 71
3
 72
9
 73
5
 74
0
 42
0.0000001
 43
0.0000001
 44
0.0000000001
 40
0.0
 40
0.0
 40
0.0
 40
0.0
 40
0.4997912432
 40
1.0
 40
1.0
 40
1.0
 40
1.0
 10
4.1844536951
 20
2.8368972771
 30
0.0
 10
4.1817776694
 20
2.8367715924
 30
0.0
 10
4.176396407
 20
2.8368914729
 30
0.0
 10
4.1710985852
 20
2.8378730544
 30
0.0
 10
4.1685112752
 20
2.8385764268
 30
0.0
  0
LINE
  5
438
100
AcDbEntity
  8
0
100
AcDbLine
 62
7
  6
CONTINUOUS
 10
5.5646788846
 20
2.9637206198
 11
5.6452191119
 21
2.855062693
  0
SPLINE
  5
439
100
AcDbEntity
  8
0
100
AcDbSpline
 62
7
  6
CONTINUOUS
 70
0
 71
3
 72
9
 73
5
 74
0
 42
0.0000001
 43
0.0000001
 44
0.0000000001
 40
0.0
 40
0.0
 40
0.0
 40
0.0
 40
0.4934259694
 40
1.0
 40
1.0
 40
1.0
 40
1.0
 10
4.1881643947
 20
2.904875404
 30
0.0
 10
4.1854729786
 20
2.9042733573
 30
0.0
 10
4.1801061134
 20
2.9026251
 30
0.0
 10
4.1750537304
 20
2.9001798802
 30
0.0
 10
4.172601642
 20
2.8987641825
 30
0.0
  0
SPLINE
  5
43A
100
AcDbEntity
  8
0
100
AcDbSpline
 62
7
  6
CONTINUOUS
 70
0
 71
3
 72
9
 73
5
 74
0
 42
0.0000001
 43
0.0000001
 44
0.0000000001
 40
0.0
 40
0.0
 40
0.0
 40
0.0
 40
0.4864083843
 40
1.0
 40
1.0
 40
1.0
 40
1.0
 10
4.2038922325
 20
2.9064828375
 30
0.0
 10
4.2013251595
 20
2.906568639
 30
0.0
 10
4.1960297977
 20
2.9063540928
 30
0.0
 10
4.1908110623
 20
2.905467452
 30
0.0
 10
4.1881644214
 20
2.9048754194
 30
0.0
  0
SPLINE
  5
43B
100
AcDbEntity
  8
0
100
AcDbSpline
 62
7
  6
CONTINUOUS
 70
0
 71
3
 72
9
 73
5
 74
0
 42
0.0000001
 43
0.0000001
 44
0.0000000001
 40
0.0
 40
0.0
 40
0.0
 40
0.0
 40
0.2524030866
 40
1.0
 40
1.0
 40
1.0
 40
1.0
 10
4.2289529787
 20
2.9040542409
 30
0.0
 10
4.2268593904
 20
2.9043817585
 30
0.0
 10
4.2185477923
 20
2.905565895
 30
0.0
 10
4.2101652855
 20
2.9062732347
 30
0.0
 10
4.2038923339
 20
2.906482896
 30
0.0
  0
LINE
  5
43C
100
AcDbEntity
  8
0
100
AcDbLine
 62
7
  6
CONTINUOUS
 10
4.2639909198
 20
2.8971624025
 11
4.2594211138
 21
2.8981123265
  0
SPLINE
  5
43D
100
AcDbEntity
  8
0
100
AcDbSpline
 62
7
  6
CONTINUOUS
 70
0
 71
3
 72
9
 73
5
 74
0
 42
0.0000001
 43
0.0000001
 44
0.0000000001
 40
0.0
 40
0.0
 40
0.0
 40
0.0
 40
0.5490455043
 40
1.0
 40
1.0
 40
1.0
 40
1.0
 10
4.247963043
 20
2.9004808652
 30
0.0
 10
4.244494369
 20
2.9011889665
 30
0.0
 10
4.2381725953
 20
2.9024578284
 30
0.0
 10
4.2318261259
 20
2.9036050339
 30
0.0
 10
4.2289533384
 20
2.9040544485
 30
0.0
  0
LINE
  5
43E
100
AcDbEntity
  8
0
100
AcDbLine
 62
7
  6
CONTINUOUS
 10
4.2911594438
 20
2.8915210867
 11
4.2776474729
 21
2.8943268328
  0
LINE
  5
43F
100
AcDbEntity
  8
0
100
AcDbLine
 62
7
  6
CONTINUOUS
 10
4.2776474729
 20
2.8943268328
 11
4.2639912734
 21
2.897162571
  0
LINE
  5
440
100
AcDbEntity
  8
0
100
AcDbLine
 62
7
  6
CONTINUOUS
 10
5.6969882541
 20
2.8953183185
 11
5.6610446989
 21
2.8439819072
  0
LINE
  5
441
100
AcDbEntity
  8
0
100
AcDbLine
 62
7
  6
CONTINUOUS
 10
5.6610446989
 20
2.8439819072
 11
5.6491649347
 21
2.8270154204
  0
LINE
  5
442
100
AcDbEntity
  8
0
100
AcDbLine
 62
7
  6
CONTINUOUS
 10
5.6759377924
 20
2.9264798176
 11
5.6794002991
 21
2.921354194
  0
LINE
  5
443
100
AcDbEntity
  8
0
100
AcDbLine
 62
7
  6
CONTINUOUS
 10
5.6794002991
 20
2.921354194
 11
5.6828811671
 21
2.9162013865
  0
LINE
  5
444
100
AcDbEntity
  8
0
100
AcDbLine
 62
7
  6
CONTINUOUS
 10
5.6828811671
 20
2.9162013865
 11
5.685498393
 21
2.9123270461
  0
LINE
  5
445
100
AcDbEntity
  8
0
100
AcDbLine
 62
7
  6
CONTINUOUS
 10
5.685498393
 20
2.9123270461
 11
5.6969882541
 21
2.8953183185
  0
LINE
  5
446
100
AcDbEntity
  8
0
100
AcDbLine
 62
7
  6
CONTINUOUS
 10
4.2187877547
 20
2.958591429
 11
4.2181458812
 21
2.962905383
  0
SPLINE
  5
447
100
AcDbEntity
  8
0
100
AcDbSpline
 62
7
  6
CONTINUOUS
 70
0
 71
3
 72
14
 73
10
 74
0
 42
0.0000001
 43
0.0000001
 44
0.0000000001
 40
0.0
 40
0.0
 40
0.0
 40
0.0
 40
0.1249906339
 40
0.1877993806
 40
0.2503739569
 40
0.3752803629
 40
0.5002430684
 40
0.7501261643
 40
1.0
 40
1.0
 40
1.0
 40
1.0
 10
4.2347741851
 20
2.954383882
 30
0.0
 10
4.2342475915
 20
2.9548413029
 30
0.0
 10
4.2333529943
 20
2.9554110071
 30
0.0
 10
4.2320883803
 20
2.9560041224
 30
0.0
 10
4.2307883241
 20
2.9565178758
 30
0.0
 10
4.2291185926
 20
2.957027952
 30
0.0
 10
4.2264019313
 20
2.9576640713
 30
0.0
 10
4.2229540277
 20
2.9582068291
 30
0.0
 10
4.2201778684
 20
2.9584816549
 30
0.0
 10
4.2187877547
 20
2.958591429
 30
0.0
  0
SPLINE
  5
448
100
AcDbEntity
  8
0
100
AcDbSpline
 62
7
  6
CONTINUOUS
 70
0
 71
3
 72
12
 73
8
 74
0
 42
0.0000001
 43
0.0000001
 44
0.0000000001
 40
0.0
 40
0.0
 40
0.0
 40
0.0
 40
0.3260459828
 40
0.6006041659
 40
0.8246262964
 40
0.9182309403
 40
1.0
 40
1.0
 40
1.0
 40
1.0
 10
4.2441677976
 20
2.9413156901
 30
0.0
 10
4.2432901955
 20
2.9428357416
 30
0.0
 10
4.2416290711
 20
2.9456109793
 30
0.0
 10
4.2391719681
 20
2.9493100061
 30
0.0
 10
4.2372331173
 20
2.9518465993
 30
0.0
 10
4.235788654
 20
2.9534407106
 30
0.0
 10
4.2351064908
 20
2.9540952082
 30
0.0
 10
4.2347741704
 20
2.9543838746
 30
0.0
  0
LINE
  5
449
100
AcDbEntity
  8
0
100
AcDbLine
 62
7
  6
CONTINUOUS
 10
4.2653606209
 20
2.9046101538
 11
4.2441678071
 21
2.9413156954
  0
SPLINE
  5
44A
100
AcDbEntity
  8
0
100
AcDbSpline
 62
7
  6
CONTINUOUS
 70
0
 71
3
 72
9
 73
5
 74
0
 42
0.0000001
 43
0.0000001
 44
0.0000000001
 40
0.0
 40
0.0
 40
0.0
 40
0.0
 40
0.4999983979
 40
1.0
 40
1.0
 40
1.0
 40
1.0
 10
5.4987376012
 20
2.8377252527
 30
0.0
 10
5.4999598179
 20
2.833434224
 30
0.0
 10
5.5040111976
 20
2.8252127481
 30
0.0
 10
5.5107040312
 20
2.8190497004
 30
0.0
 10
5.5143588629
 20
2.8164905597
 30
0.0
  0
SPLINE
  5
44B
100
AcDbEntity
  8
0
100
AcDbSpline
 62
7
  6
CONTINUOUS
 70
0
 71
3
 72
10
 73
6
 74
0
 42
0.0000001
 43
0.0000001
 44
0.0000000001
 40
0.0
 40
0.0
 40
0.0
 40
0.0
 40
0.4995567274
 40
0.7499302562
 40
1.0
 40
1.0
 40
1.0
 40
1.0
 10
5.501673268
 20
2.8597805977
 30
0.0
 10
5.5007097121
 20
2.8584045817
 30
0.0
 10
5.4994725175
 20
2.8561782409
 30
0.0
 10
5.4983400594
 20
2.8530067014
 30
0.0
 10
5.497961021
 20
2.851362395
 30
0.0
 10
5.4978167776
 20
2.8505339592
 30
0.0
  0
SPLINE
  5
44C
100
AcDbEntity
  8
0
100
AcDbSpline
 62
7
  6
CONTINUOUS
 70
0
 71
3
 72
9
 73
5
 74
0
 42
0.0000001
 43
0.0000001
 44
0.0000000001
 40
0.0
 40
0.0
 40
0.0
 40
0.0
 40
0.5001726044
 40
1.0
 40
1.0
 40
1.0
 40
1.0
 10
5.4978167776
 20
2.8505339592
 30
0.0
 10
5.49744715
 20
2.8484110708
 30
0.0
 10
5.4973006955
 20
2.8440493641
 30
0.0
 10
5.4981477252
 20
2.8397962233
 30
0.0
 10
5.4987376012
 20
2.8377252527
 30
0.0
  0
SPLINE
  5
44D
100
AcDbEntity
  8
0
100
AcDbSpline
 62
7
  6
CONTINUOUS
 70
0
 71
3
 72
9
 73
5
 74
0
 42
0.0000001
 43
0.0000001
 44
0.0000000001
 40
0.0
 40
0.0
 40
0.0
 40
0.0
 40
0.4999567889
 40
1.0
 40
1.0
 40
1.0
 40
1.0
 10
5.5123183744
 20
2.8680973228
 30
0.0
 10
5.5101913471
 20
2.8672825548
 30
0.0
 10
5.5061270563
 20
2.86505091
 30
0.0
 10
5.5029800047
 20
2.8616466966
 30
0.0
 10
5.501673268
 20
2.8597805977
 30
0.0
  0
SPLINE
  5
44E
100
AcDbEntity
  8
0
100
AcDbSpline
 62
7
  6
CONTINUOUS
 70
0
 71
3
 72
11
 73
7
 74
0
 42
0.0000001
 43
0.0000001
 44
0.0000000001
 40
0.0
 40
0.0
 40
0.0
 40
0.0
 40
0.2497255536
 40
0.5002791967
 40
0.7502859063
 40
1.0
 40
1.0
 40
1.0
 40
1.0
 10
4.0859121692
 20
2.9970955088
 30
0.0
 10
4.0881173484
 20
3.0011780566
 30
0.0
 10
4.0933160052
 20
3.0089517302
 30
0.0
 10
4.1028493146
 20
3.0191894786
 30
0.0
 10
4.1137046627
 20
3.0279955792
 30
0.0
 10
4.1215464732
 20
3.0330001714
 30
0.0
 10
4.1255646852
 20
3.0353200871
 30
0.0
  0
SPLINE
  5
44F
100
AcDbEntity
  8
0
100
AcDbSpline
 62
7
  6
CONTINUOUS
 70
0
 71
3
 72
11
 73
7
 74
0
 42
0.0000001
 43
0.0000001
 44
0.0000000001
 40
0.0
 40
0.0
 40
0.0
 40
0.0
 40
0.2496342264
 40
0.4999848378
 40
0.750069663
 40
1.0
 40
1.0
 40
1.0
 40
1.0
 10
4.0853337199
 20
2.9551381358
 30
0.0
 10
4.0845231695
 20
2.9565421943
 30
0.0
 10
4.083046008
 20
2.9594421513
 30
0.0
 10
4.0813310565
 20
2.9640130108
 30
0.0
 10
4.0801895383
 20
2.968764687
 30
0.0
 10
4.0798690955
 20
2.9720078046
 30
0.0
 10
4.0798133253
 20
2.9736299949
 30
0.0
  0
SPLINE
  5
450
100
AcDbEntity
  8
0
100
AcDbSpline
 62
7
  6
CONTINUOUS
 70
0
 71
3
 72
11
 73
7
 74
0
 42
0.0000001
 43
0.0000001
 44
0.0000000001
 40
0.0
 40
0.0
 40
0.0
 40
0.0
 40
0.2503636823
 40
0.500521606
 40
0.7504098646
 40
1.0
 40
1.0
 40
1.0
 40
1.0
 10
4.0798133253
 20
2.9736299949
 30
0.0
 10
4.0797430147
 20
2.9756751212
 30
0.0
 10
4.079931607
 20
2.9797816747
 30
0.0
 10
4.081141289
 20
2.9858159708
 30
0.0
 10
4.0831675788
 20
2.9916154133
 30
0.0
 10
4.0849426544
 20
2.9953006021
 30
0.0
 10
4.0859121692
 20
2.9970955088
 30
0.0
  0
SPLINE
  5
451
100
AcDbEntity
  8
0
100
AcDbSpline
 62
7
  6
CONTINUOUS
 70
0
 71
3
 72
11
 73
7
 74
0
 42
0.0000001
 43
0.0000001
 44
0.0000000001
 40
0.0
 40
0.0
 40
0.0
 40
0.0
 40
0.249867484
 40
0.4998897899
 40
0.7498709177
 40
1.0
 40
1.0
 40
1.0
 40
1.0
 10
4.1242059182
 20
2.9345574205
 30
0.0
 10
4.1221289725
 20
2.9345112454
 30
0.0
 10
4.1179655383
 20
2.9346122011
 30
0.0
 10
4.111774855
 20
2.9354751298
 30
0.0
 10
4.105750382
 20
2.9371708347
 30
0.0
 10
4.1019570852
 20
2.9389280898
 30
0.0
 10
4.1001498405
 20
2.9399570424
 30
0.0
  0
SPLINE
  5
452
100
AcDbEntity
  8
0
100
AcDbSpline
 62
7
  6
CONTINUOUS
 70
0
 71
3
 72
9
 73
5
 74
0
 42
0.0000001
 43
0.0000001
 44
0.0000000001
 40
0.0
 40
0.0
 40
0.0
 40
0.0
 40
0.5000003139
 40
1.0
 40
1.0
 40
1.0
 40
1.0
 10
4.0975505037
 20
2.9415843719
 30
0.0
 10
4.0950274442
 20
2.9433165933
 30
0.0
 10
4.0904097308
 20
2.9474423541
 30
0.0
 10
4.0868638307
 20
2.9524876343
 30
0.0
 10
4.0853337199
 20
2.9551381358
 30
0.0
  0
SPLINE
  5
453
100
AcDbEntity
  8
0
100
AcDbSpline
 62
7
  6
CONTINUOUS
 70
0
 71
3
 72
11
 73
7
 74
0
 42
0.0000001
 43
0.0000001
 44
0.0000000001
 40
0.0
 40
0.0
 40
0.0
 40
0.0
 40
0.2498089075
 40
0.499880021
 40
0.7501985905
 40
1.0
 40
1.0
 40
1.0
 40
1.0
 10
4.1773840648
 20
2.9504665339
 30
0.0
 10
4.1733408907
 20
2.9481322062
 30
0.0
 10
4.1650213812
 20
2.9438413512
 30
0.0
 10
4.1518908149
 20
2.9388286427
 30
0.0
 10
4.1382140153
 20
2.9355654414
 30
0.0
 10
4.1288732801
 20
2.9346611862
 30
0.0
 10
4.1242059182
 20
2.9345574205
 30
0.0
  0
LINE
  5
454
100
AcDbEntity
  8
0
100
AcDbLine
 62
7
  6
CONTINUOUS
 10
5.5230426148
 20
2.8724576407
 11
5.5123184527
 21
2.8680972681
  0
SPLINE
  5
455
100
AcDbEntity
  8
0
100
AcDbSpline
 62
7
  6
CONTINUOUS
 70
0
 71
3
 72
9
 73
5
 74
0
 42
0.0000001
 43
0.0000001
 44
0.0000000001
 40
0.0
 40
0.0
 40
0.0
 40
0.0
 40
0.4999694424
 40
1.0
 40
1.0
 40
1.0
 40
1.0
 10
5.5314285347
 20
2.878827326
 30
0.0
 10
5.5304136234
 20
2.8773779079
 30
0.0
 10
5.527759593
 20
2.87491581
 30
0.0
 10
5.524645841
 20
2.8732069236
 30
0.0
 10
5.523042678
 20
2.872457596
 30
0.0
  0
LINE
  5
456
100
AcDbEntity
  8
0
100
AcDbLine
 62
7
  6
CONTINUOUS
 10
5.5335118754
 20
2.8870132369
 11
5.5337072919
 21
2.8855689234
  0
SPLINE
  5
457
100
AcDbEntity
  8
0
100
AcDbSpline
 62
7
  6
CONTINUOUS
 70
0
 71
3
 72
10
 73
6
 74
0
 42
0.0000001
 43
0.0000001
 44
0.0000000001
 40
0.0
 40
0.0
 40
0.0
 40
0.0
 40
0.2513881884
 40
0.5024275904
 40
1.0
 40
1.0
 40
1.0
 40
1.0
 10
5.5337072919
 20
2.8855689234
 30
0.0
 10
5.5337319502
 20
2.8849634634
 30
0.0
 10
5.5336477657
 20
2.8837448885
 30
0.0
 10
5.5330209684
 20
2.8814052716
 30
0.0
 10
5.5321164787
 20
2.8798097949
 30
0.0
 10
5.5314285347
 20
2.878827326
 30
0.0
  0
SPLINE
  5
458
100
AcDbEntity
  8
0
100
AcDbSpline
 62
7
  6
CONTINUOUS
 70
0
 71
3
 72
11
 73
7
 74
0
 42
0.0000001
 43
0.0000001
 44
0.0000000001
 40
0.0
 40
0.0
 40
0.0
 40
0.0
 40
0.4971926895
 40
0.6230114988
 40
0.7487484685
 40
1.0
 40
1.0
 40
1.0
 40
1.0
 10
4.7970243722
 20
4.0909258911
 30
0.0
 10
4.795156985
 20
4.0926231111
 30
0.0
 10
4.7937040915
 20
4.0956994138
 30
0.0
 10
4.7928769533
 20
4.0993919727
 30
0.0
 10
4.7925026078
 20
4.1019214832
 30
0.0
 10
4.7924121172
 20
4.1038370416
 30
0.0
 10
4.7924121172
 20
4.1051122317
 30
0.0
  0
LINE
  5
459
100
AcDbEntity
  8
0
100
AcDbLine
 62
7
  6
CONTINUOUS
 10
4.2030633405
 20
3.6313421267
 11
4.1940824576
 21
3.6240367127
  0
SPLINE
  5
45A
100
AcDbEntity
  8
0
100
AcDbSpline
 62
7
  6
CONTINUOUS
 70
0
 71
3
 72
11
 73
7
 74
0
 42
0.0000001
 43
0.0000001
 44
0.0000000001
 40
0.0
 40
0.0
 40
0.0
 40
0.0
 40
0.2877939463
 40
0.5472227873
 40
0.7827274372
 40
1.0
 40
1.0
 40
1.0
 40
1.0
 10
4.1940824576
 20
3.6240367127
 30
0.0
 10
4.1933243795
 20
3.6233528834
 30
0.0
 10
4.1919332189
 20
3.6219943543
 30
0.0
 10
4.1901560544
 20
3.6198527922
 30
0.0
 10
4.1888024858
 20
3.6177100435
 30
0.0
 10
4.1881635822
 20
3.6162264613
 30
0.0
 10
4.1879254035
 20
3.6154934226
 30
0.0
  0
SPLINE
  5
45B
100
AcDbEntity
  8
0
100
AcDbSpline
 62
7
  6
CONTINUOUS
 70
0
 71
3
 72
11
 73
7
 74
0
 42
0.0000001
 43
0.0000001
 44
0.0000000001
 40
0.0
 40
0.0
 40
0.0
 40
0.0
 40
0.2501087843
 40
0.4972730997
 40
0.7442914491
 40
1.0
 40
1.0
 40
1.0
 40
1.0
 10
4.1810515278
 20
3.7001221156
 30
0.0
 10
4.1778696421
 20
3.7011424612
 30
0.0
 10
4.1713646048
 20
3.7026703885
 30
0.0
 10
4.1613728487
 20
3.7031294468
 30
0.0
 10
4.1514061426
 20
3.7016379471
 30
0.0
 10
4.14502699
 20
3.6994099094
 30
0.0
 10
4.1419047389
 20
3.6980244055
 30
0.0
  0
SPLINE
  5
45C
100
AcDbEntity
  8
0
100
AcDbSpline
 62
7
  6
CONTINUOUS
 70
0
 71
3
 72
11
 73
7
 74
0
 42
0.0000001
 43
0.0000001
 44
0.0000000001
 40
0.0
 40
0.0
 40
0.0
 40
0.0
 40
0.2383414606
 40
0.4814886008
 40
0.7339949944
 40
1.0
 40
1.0
 40
1.0
 40
1.0
 10
4.8525188808
 20
4.2088597325
 30
0.0
 10
4.8503779508
 20
4.2049534657
 30
0.0
 10
4.8465942763
 20
4.1967519781
 30
0.0
 10
4.8425798484
 20
4.1835941003
 30
0.0
 10
4.8401976134
 20
4.1695240683
 30
0.0
 10
4.8397074864
 20
4.1598227679
 30
0.0
 10
4.8397074864
 20
4.1548512567
 30
0.0
  0
SPLINE
  5
45D
100
AcDbEntity
  8
0
100
AcDbSpline
 62
7
  6
CONTINUOUS
 70
0
 71
3
 72
11
 73
7
 74
0
 42
0.0000001
 43
0.0000001
 44
0.0000000001
 40
0.0
 40
0.0
 40
0.0
 40
0.0
 40
0.2757738182
 40
0.531377301
 40
0.7710941824
 40
1.0
 40
1.0
 40
1.0
 40
1.0
 10
4.9391025082
 20
4.1573061933
 30
0.0
 10
4.9391025082
 20
4.1624303499
 30
0.0
 10
4.9386064522
 20
4.1723156828
 30
0.0
 10
4.9361456785
 20
4.1864713497
 30
0.0
 10
4.9320027361
 20
4.1993236597
 30
0.0
 10
4.9280556791
 20
4.2071354428
 30
0.0
 10
4.9258253951
 20
4.2107571009
 30
0.0
  0
SPLINE
  5
45E
100
AcDbEntity
  8
0
100
AcDbSpline
 62
7
  6
CONTINUOUS
 70
0
 71
3
 72
15
 73
11
 74
0
 42
0.0000001
 43
0.0000001
 44
0.0000000001
 40
0.0
 40
0.0
 40
0.0
 40
0.0
 40
0.0993513598
 40
0.203695277
 40
0.3144602651
 40
0.4328500972
 40
0.5598589394
 40
0.6962992572
 40
0.8428328871
 40
1.0
 40
1.0
 40
1.0
 40
1.0
 10
4.1419047389
 20
3.6980244055
 30
0.0
 10
4.1402671453
 20
3.6972977207
 30
0.0
 10
4.137009343
 20
3.6955742455
 30
0.0
 10
4.1323559476
 20
3.6923119647
 30
0.0
 10
4.1278388764
 20
3.6883245983
 30
0.0
 10
4.1234594988
 20
3.683614288
 30
0.0
 10
4.1192174753
 20
3.6781811498
 30
0.0
 10
4.115113341
 20
3.6720245379
 30
0.0
 10
4.1111481175
 20
3.6651435692
 30
0.0
 10
4.1086864853
 20
3.6602480304
 30
0.0
 10
4.1074745078
 20
3.6576860731
 30
0.0
  0
SPLINE
  5
45F
100
AcDbEntity
  8
0
100
AcDbSpline
 62
7
  6
CONTINUOUS
 70
0
 71
3
 72
11
 73
7
 74
0
 42
0.0000001
 43
0.0000001
 44
0.0000000001
 40
0.0
 40
0.0
 40
0.0
 40
0.0
 40
0.2383414606
 40
0.4814886008
 40
0.7339949944
 40
1.0
 40
1.0
 40
1.0
 40
1.0
 10
4.9614156817
 20
4.2088597325
 30
0.0
 10
4.9592747517
 20
4.2049534657
 30
0.0
 10
4.9554910772
 20
4.1967519781
 30
0.0
 10
4.9514766493
 20
4.1835941003
 30
0.0
 10
4.9490944143
 20
4.1695240683
 30
0.0
 10
4.9486042872
 20
4.1598227679
 30
0.0
 10
4.9486042872
 20
4.1548512567
 30
0.0
  0
SPLINE
  5
460
100
AcDbEntity
  8
0
100
AcDbSpline
 62
7
  6
CONTINUOUS
 70
0
 71
3
 72
11
 73
7
 74
0
 42
0.0000001
 43
0.0000001
 44
0.0000000001
 40
0.0
 40
0.0
 40
0.0
 40
0.0
 40
0.2757738373
 40
0.5313773209
 40
0.771094187
 40
1.0
 40
1.0
 40
1.0
 40
1.0
 10
5.0479993001
 20
4.1573061933
 30
0.0
 10
5.0479993001
 20
4.1624303498
 30
0.0
 10
5.0475032462
 20
4.1723156823
 30
0.0
 10
5.0450424793
 20
4.1864713492
 30
0.0
 10
5.0408995435
 20
4.1993236599
 30
0.0
 10
5.0369524887
 20
4.2071354431
 30
0.0
 10
5.0347222049
 20
4.2107571009
 30
0.0
  0
SPLINE
  5
461
100
AcDbEntity
  8
0
100
AcDbSpline
 62
7
  6
CONTINUOUS
 70
0
 71
3
 72
11
 73
7
 74
0
 42
0.0000001
 43
0.0000001
 44
0.0000000001
 40
0.0
 40
0.0
 40
0.0
 40
0.0
 40
0.2539648494
 40
0.4995162134
 40
0.7453158169
 40
1.0
 40
1.0
 40
1.0
 40
1.0
 10
5.5294733566
 20
2.892968917
 30
0.0
 10
5.5299834243
 20
2.8926117598
 30
0.0
 10
5.5309320281
 20
2.891825319
 30
0.0
 10
5.532105392
 20
2.8904102766
 30
0.0
 10
5.5329864851
 20
2.8887949837
 30
0.0
 10
5.5333676065
 20
2.8876207824
 30
0.0
 10
5.5335118995
 20
2.8870132386
 30
0.0
  0
SPLINE
  5
462
100
AcDbEntity
  8
0
100
AcDbSpline
 62
7
  6
CONTINUOUS
 70
0
 71
3
 72
13
 73
9
 74
0
 42
0.0000001
 43
0.0000001
 44
0.0000000001
 40
0.0
 40
0.0
 40
0.0
 40
0.0
 40
0.24983201
 40
0.374931015
 40
0.500021848
 40
0.6251105717
 40
0.7501993845
 40
1.0
 40
1.0
 40
1.0
 40
1.0
 10
5.5513075041
 20
2.78644842
 30
0.0
 10
5.5479726378
 20
2.786043194
 30
0.0
 10
5.5429015005
 20
2.7858395148
 30
0.0
 10
5.5362029405
 20
2.7865067791
 30
0.0
 10
5.5312465367
 20
2.7874981231
 30
0.0
 10
5.5264087362
 20
2.7889618971
 30
0.0
 10
5.5201873672
 20
2.7915313708
 30
0.0
 10
5.5158108437
 20
2.7940994422
 30
0.0
 10
5.5130593334
 20
2.7960260704
 30
0.0
  0
SPLINE
  5
463
100
AcDbEntity
  8
0
100
AcDbSpline
 62
7
  6
CONTINUOUS
 70
0
 71
3
 72
14
 73
10
 74
0
 42
0.0000001
 43
0.0000001
 44
0.0000000001
 40
0.0
 40
0.0
 40
0.0
 40
0.0
 40
0.2499120731
 40
0.3748986951
 40
0.4998902806
 40
0.6248973807
 40
0.7499017166
 40
0.8749744604
 40
1.0
 40
1.0
 40
1.0
 40
1.0
 10
5.596028054
 20
2.8149568513
 30
0.0
 10
5.592994361
 20
2.8116249908
 30
0.0
 10
5.5882492212
 20
2.8067932668
 30
0.0
 10
5.5814391867
 20
2.800882155
 30
0.0
 10
5.5760546175
 20
2.7967835395
 30
0.0
 10
5.5703632796
 20
2.7931177336
 30
0.0
 10
5.5643391103
 20
2.7900145338
 30
0.0
 10
5.5579803903
 20
2.7876570536
 30
0.0
 10
5.5535453275
 20
2.7867203422
 30
0.0
 10
5.5513075041
 20
2.78644842
 30
0.0
  0
SPLINE
  5
464
100
AcDbEntity
  8
0
100
AcDbSpline
 62
7
  6
CONTINUOUS
 70
0
 71
3
 72
11
 73
7
 74
0
 42
0.0000001
 43
0.0000001
 44
0.0000000001
 40
0.0
 40
0.0
 40
0.0
 40
0.0
 40
0.2499929441
 40
0.5000087468
 40
0.7500205491
 40
1.0
 40
1.0
 40
1.0
 40
1.0
 10
5.5015396839
 20
2.8598742236
 30
0.0
 10
5.5021947505
 20
2.8608097556
 30
0.0
 10
5.5036322614
 20
2.8625965375
 30
0.0
 10
5.5061670291
 20
2.8649222922
 30
0.0
 10
5.5090361484
 20
2.8668202442
 30
0.0
 10
5.5111178145
 20
2.8677824429
 30
0.0
 10
5.5121842573
 20
2.8681909665
 30
0.0
  0
LINE
  5
465
100
AcDbEntity
  8
0
100
AcDbLine
 62
7
  6
CONTINUOUS
 10
5.5121842573
 20
2.8681909665
 11
5.5229086228
 21
2.8725514135
  0
SPLINE
  5
466
100
AcDbEntity
  8
0
100
AcDbSpline
 62
7
  6
CONTINUOUS
 70
0
 71
3
 72
11
 73
7
 74
0
 42
0.0000001
 43
0.0000001
 44
0.0000000001
 40
0.0
 40
0.0
 40
0.0
 40
0.0
 40
0.2877937317
 40
0.5472225502
 40
0.7827272947
 40
1.0
 40
1.0
 40
1.0
 40
1.0
 10
5.5229086228
 20
2.8725514135
 30
0.0
 10
5.5238335072
 20
2.8729837221
 30
0.0
 10
5.5255610737
 20
2.8738761539
 30
0.0
 10
5.527886714
 20
2.8754045469
 30
0.0
 10
5.529807616
 20
2.8770579224
 30
0.0
 10
5.5308523598
 20
2.8782898815
 30
0.0
 10
5.531294451
 20
2.8789212531
 30
0.0
  0
SPLINE
  5
467
100
AcDbEntity
  8
0
100
AcDbSpline
 62
7
  6
CONTINUOUS
 70
0
 71
3
 72
12
 73
8
 74
0
 42
0.0000001
 43
0.0000001
 44
0.0000000001
 40
0.0
 40
0.0
 40
0.0
 40
0.0
 40
0.2499996537
 40
0.3750112033
 40
0.5000276955
 40
0.7500379009
 40
1.0
 40
1.0
 40
1.0
 40
1.0
 10
4.1367232263
 20
3.016737113
 30
0.0
 10
4.1404787488
 20
3.0189053649
 30
0.0
 10
4.1461713055
 20
3.0220588251
 30
0.0
 10
4.1539110036
 20
3.0259755665
 30
0.0
 10
4.1617580725
 20
3.0296745296
 30
0.0
 10
4.1717996204
 20
3.0337803515
 30
0.0
 10
4.1801634209
 20
3.0362164942
 30
0.0
 10
4.1844236439
 20
3.037022792
 30
0.0
  0
SPLINE
  5
468
100
AcDbEntity
  8
0
100
AcDbSpline
 62
7
  6
CONTINUOUS
 70
0
 71
3
 72
11
 73
7
 74
0
 42
0.0000001
 43
0.0000001
 44
0.0000000001
 40
0.0
 40
0.0
 40
0.0
 40
0.0
 40
0.2545979562
 40
0.5002825748
 40
0.745822157
 40
1.0
 40
1.0
 40
1.0
 40
1.0
 10
5.5129269451
 20
2.7961187622
 30
0.0
 10
5.5157296772
 20
2.794156268
 30
0.0
 10
5.5215673073
 20
2.7907387801
 30
0.0
 10
5.5310644888
 20
2.7873512832
 30
0.0
 10
5.5410317735
 20
2.7858636292
 30
0.0
 10
5.5477836061
 20
2.7861292293
 30
0.0
 10
5.551174514
 20
2.7865413357
 30
0.0
  0
SPLINE
  5
469
100
AcDbEntity
  8
0
100
AcDbSpline
 62
7
  6
CONTINUOUS
 70
0
 71
3
 72
15
 73
11
 74
0
 42
0.0000001
 43
0.0000001
 44
0.0000000001
 40
0.0
 40
0.0
 40
0.0
 40
0.0
 40
0.0993513041
 40
0.2036952031
 40
0.3144602019
 40
0.4328500624
 40
0.5598589382
 40
0.6962992815
 40
0.842832916
 40
1.0
 40
1.0
 40
1.0
 40
1.0
 10
5.551174514
 20
2.7865413357
 30
0.0
 10
5.5529530136
 20
2.7867574816
 30
0.0
 10
5.5565723591
 20
2.7874531604
 30
0.0
 10
5.5619762198
 20
2.7892123751
 30
0.0
 10
5.5674617087
 20
2.7917048506
 30
0.0
 10
5.5730268896
 20
2.7949289385
 30
0.0
 10
5.578672053
 20
2.7988844284
 30
0.0
 10
5.5843968754
 20
2.8035720937
 30
0.0
 10
5.5902006375
 20
2.8089930772
 30
0.0
 10
5.5939860248
 20
2.8129549919
 30
0.0
 10
5.595894088
 20
2.8150506553
 30
0.0
  0
LINE
  5
46A
100
AcDbEntity
  8
0
100
AcDbLine
 62
7
  6
CONTINUOUS
 10
5.6219147053
 20
2.7880985842
 11
5.5882945359
 21
2.7400875224
  0
LINE
  5
46B
100
AcDbEntity
  8
0
100
AcDbLine
 62
7
  6
CONTINUOUS
 10
5.5914178437
 20
2.8424266637
 11
5.6042478148
 21
2.8195709838
  0
LINE
  5
46C
100
AcDbEntity
  8
0
100
AcDbLine
 62
7
  6
CONTINUOUS
 10
5.6042478148
 20
2.8195709838
 11
5.6064761158
 21
2.8156014185
  0
LINE
  5
46D
100
AcDbEntity
  8
0
100
AcDbLine
 62
7
  6
CONTINUOUS
 10
5.6064761158
 20
2.8156014185
 11
5.6115800547
 21
2.8065090948
  0
LINE
  5
46E
100
AcDbEntity
  8
0
100
AcDbLine
 62
7
  6
CONTINUOUS
 10
5.6115800547
 20
2.8065090948
 11
5.6137327987
 21
2.8026741236
  0
LINE
  5
46F
100
AcDbEntity
  8
0
100
AcDbLine
 62
7
  6
CONTINUOUS
 10
5.6137327987
 20
2.8026741236
 11
5.6219147053
 21
2.7880985842
  0
SPLINE
  5
470
100
AcDbEntity
  8
0
100
AcDbSpline
 62
7
  6
CONTINUOUS
 70
0
 71
3
 72
11
 73
7
 74
0
 42
0.0000001
 43
0.0000001
 44
0.0000000001
 40
0.0
 40
0.0
 40
0.0
 40
0.0
 40
0.2951082434
 40
0.5587973162
 40
0.7928918167
 40
1.0
 40
1.0
 40
1.0
 40
1.0
 10
5.6806292732
 20
3.6301345572
 30
0.0
 10
5.6785753128
 20
3.6322296036
 30
0.0
 10
5.6745744543
 20
3.6360904281
 30
0.0
 10
5.6685120666
 20
3.6411427767
 30
0.0
 10
5.6627316251
 20
3.6451241252
 30
0.0
 10
5.6588390942
 20
3.6471803845
 30
0.0
 10
5.6569479241
 20
3.647994726
 30
0.0
  0
SPLINE
  5
471
100
AcDbEntity
  8
0
100
AcDbSpline
 62
7
  6
CONTINUOUS
 70
0
 71
3
 72
11
 73
7
 74
0
 42
0.0000001
 43
0.0000001
 44
0.0000000001
 40
0.0
 40
0.0
 40
0.0
 40
0.0
 40
0.2570045643
 40
0.50239768
 40
0.7466221646
 40
1.0
 40
1.0
 40
1.0
 40
1.0
 10
5.7390668828
 20
3.6626759227
 30
0.0
 10
5.7369590816
 20
3.6639037478
 30
0.0
 10
5.7326183398
 20
3.6659574017
 30
0.0
 10
5.7256849522
 20
3.6676501776
 30
0.0
 10
5.7185851307
 20
3.667844085
 30
0.0
 10
5.7139018604
 20
3.6670134287
 30
0.0
 10
5.7115788886
 20
3.6663909903
 30
0.0
  0
SPLINE
  5
472
100
AcDbEntity
  8
0
100
AcDbSpline
 62
7
  6
CONTINUOUS
 70
0
 71
3
 72
12
 73
8
 74
0
 42
0.0000001
 43
0.0000001
 44
0.0000000001
 40
0.0
 40
0.0
 40
0.0
 40
0.0
 40
0.192900145
 40
0.3024599368
 40
0.4214960277
 40
0.6896216386
 40
1.0
 40
1.0
 40
1.0
 40
1.0
 10
5.6782513515
 20
3.5758219669
 30
0.0
 10
5.6798867499
 20
3.5774813472
 30
0.0
 10
5.6821623842
 20
3.580370921
 30
0.0
 10
5.6848752116
 20
3.5846789989
 30
0.0
 10
5.6877493505
 20
3.5899499466
 30
0.0
 10
5.6911717374
 20
3.597661914
 30
0.0
 10
5.6935151497
 20
3.6042497732
 30
0.0
 10
5.6946766487
 20
3.6078140029
 30
0.0
  0
SPLINE
  5
473
100
AcDbEntity
  8
0
100
AcDbSpline
 62
7
  6
CONTINUOUS
 70
0
 71
3
 72
11
 73
7
 74
0
 42
0.0000001
 43
0.0000001
 44
0.0000000001
 40
0.0
 40
0.0
 40
0.0
 40
0.0
 40
0.2378967205
 40
0.4809488548
 40
0.733719591
 40
1.0
 40
1.0
 40
1.0
 40
1.0
 10
5.6586282373
 20
3.5637807396
 30
0.0
 10
5.6604116575
 20
3.5642586056
 30
0.0
 10
5.6639481946
 20
3.5655039041
 30
0.0
 10
5.6689997519
 20
3.5681714128
 30
0.0
 10
5.6738230073
 20
3.5716222566
 30
0.0
 10
5.6768007054
 20
3.5743500483
 30
0.0
 10
5.6782513515
 20
3.5758219669
 30
0.0
  0
SPLINE
  5
474
100
AcDbEntity
  8
0
100
AcDbSpline
 62
7
  6
CONTINUOUS
 70
0
 71
3
 72
16
 73
12
 74
0
 42
0.0000001
 43
0.0000001
 44
0.0000000001
 40
0.0
 40
0.0
 40
0.0
 40
0.0
 40
0.1248893999
 40
0.1876013518
 40
0.2502836336
 40
0.3128380379
 40
0.3753244451
 40
0.5002385805
 40
0.6251625642
 40
0.7501068955
 40
1.0
 40
1.0
 40
1.0
 40
1.0
 10
4.2074065047
 20
3.0017507453
 30
0.0
 10
4.2060880892
 20
2.9997623918
 30
0.0
 10
4.2038104516
 20
2.9969690344
 30
0.0
 10
4.2004537687
 20
2.9935647493
 30
0.0
 10
4.1978212009
 20
2.9911214309
 30
0.0
 10
4.1951098641
 20
2.9887736605
 30
0.0
 10
4.1914028992
 20
2.9857629284
 30
0.0
 10
4.1866195669
 20
2.9821930675
 30
0.0
 10
4.1807276835
 20
2.9781239469
 30
0.0
 10
4.1727194721
 20
2.9729247902
 30
0.0
 10
4.1665713532
 20
2.9692491823
 30
0.0
 10
4.1624372343
 20
2.9668623476
 30
0.0
  0
SPLINE
  5
475
100
AcDbEntity
  8
0
100
AcDbSpline
 62
7
  6
CONTINUOUS
 70
0
 71
3
 72
11
 73
7
 74
0
 42
0.0000001
 43
0.0000001
 44
0.0000000001
 40
0.0
 40
0.0
 40
0.0
 40
0.0
 40
0.24625692
 40
0.4902530182
 40
0.7392990093
 40
1.0
 40
1.0
 40
1.0
 40
1.0
 10
5.6569479241
 20
3.647994726
 30
0.0
 10
5.6551958695
 20
3.6487491641
 30
0.0
 10
5.6515711038
 20
3.6499574083
 30
0.0
 10
5.645872893
 20
3.6507725561
 30
0.0
 10
5.6400102354
 20
3.6505809876
 30
0.0
 10
5.6361181139
 20
3.6498187511
 30
0.0
 10
5.6341674547
 20
3.6492960736
 30
0.0
  0
SPLINE
  5
476
100
AcDbEntity
  8
0
100
AcDbSpline
 62
7
  6
CONTINUOUS
 70
0
 71
3
 72
11
 73
7
 74
0
 42
0.0000001
 43
0.0000001
 44
0.0000000001
 40
0.0
 40
0.0
 40
0.0
 40
0.0
 40
0.2757738373
 40
0.5313773209
 40
0.771094187
 40
1.0
 40
1.0
 40
1.0
 40
1.0
 10
4.125702057
 20
3.0353993876
 30
0.0
 10
4.1212644073
 20
3.0328373094
 30
0.0
 10
4.1129514851
 20
3.0274650479
 30
0.0
 10
4.1019227015
 20
3.0182561278
 30
0.0
 10
4.0928637418
 20
3.0082420847
 30
0.0
 10
4.0880720665
 20
3.0009179435
 30
0.0
 10
4.0860507607
 20
2.9971756321
 30
0.0
  0
SPLINE
  5
477
100
AcDbEntity
  8
0
100
AcDbSpline
 62
7
  6
CONTINUOUS
 70
0
 71
3
 72
13
 73
9
 74
0
 42
0.0000001
 43
0.0000001
 44
0.0000000001
 40
0.0
 40
0.0
 40
0.0
 40
0.0
 40
0.2498482806
 40
0.3749487878
 40
0.500020562
 40
0.6250912453
 40
0.7501804643
 40
1.0
 40
1.0
 40
1.0
 40
1.0
 10
5.6217129968
 20
3.6186585682
 30
0.0
 10
5.6227054762
 20
3.6203780664
 30
0.0
 10
5.6244214539
 20
3.6228412921
 30
0.0
 10
5.6271580944
 20
3.6257298385
 30
0.0
 10
5.6294329176
 20
3.6276666394
 30
0.0
 10
5.6318979071
 20
3.6293545416
 30
0.0
 10
5.6354010396
 20
3.6312407877
 30
0.0
 10
5.6382249798
 20
3.6322567399
 30
0.0
 10
5.6401424782
 20
3.6327705321
 30
0.0
  0
SPLINE
  5
478
100
AcDbEntity
  8
0
100
AcDbSpline
 62
7
  6
CONTINUOUS
 70
0
 71
3
 72
12
 73
8
 74
0
 42
0.0000001
 43
0.0000001
 44
0.0000000001
 40
0.0
 40
0.0
 40
0.0
 40
0.0
 40
0.2500175778
 40
0.3751386656
 40
0.5005366191
 40
0.7506798934
 40
1.0
 40
1.0
 40
1.0
 40
1.0
 10
5.6981089147
 20
3.6176864163
 30
0.0
 10
5.6992574842
 20
3.6211149033
 30
0.0
 10
5.7011517928
 20
3.6262093145
 30
0.0
 10
5.7042532967
 20
3.6327557828
 30
0.0
 10
5.7077967316
 20
3.6390741453
 30
0.0
 10
5.7132399651
 20
3.6463743825
 30
0.0
 10
5.7196384584
 20
3.6504240025
 30
0.0
 10
5.7231212731
 20
3.6513572199
 30
0.0
  0
SPLINE
  5
479
100
AcDbEntity
  8
0
100
AcDbSpline
 62
7
  6
CONTINUOUS
 70
0
 71
3
 72
10
 73
6
 74
0
 42
0.0000001
 43
0.0000001
 44
0.0000000001
 40
0.0
 40
0.0
 40
0.0
 40
0.0
 40
0.4995915402
 40
0.7498147711
 40
1.0
 40
1.0
 40
1.0
 40
1.0
 10
5.7338284956
 20
3.6060361311
 30
0.0
 10
5.7312770685
 20
3.6053524783
 30
0.0
 10
5.7273123265
 20
3.604732814
 30
0.0
 10
5.7220173728
 20
3.6049205551
 30
0.0
 10
5.719398985
 20
3.605363161
 30
0.0
 10
5.7181123656
 20
3.6056703158
 30
0.0
  0
SPLINE
  5
47A
100
AcDbEntity
  8
0
100
AcDbSpline
 62
7
  6
CONTINUOUS
 70
0
 71
3
 72
15
 73
11
 74
0
 42
0.0000001
 43
0.0000001
 44
0.0000000001
 40
0.0
 40
0.0
 40
0.0
 40
0.0
 40
0.0993513041
 40
0.2036952031
 40
0.3144602019
 40
0.4328500624
 40
0.5598589382
 40
0.6962992815
 40
0.842832916
 40
1.0
 40
1.0
 40
1.0
 40
1.0
 10
5.7348947229
 20
3.490709846
 30
0.0
 10
5.7358723429
 20
3.4922111917
 30
0.0
 10
5.7376658925
 20
3.4954309449
 30
0.0
 10
5.7397917906
 20
3.5007013438
 30
0.0
 10
5.7414084479
 20
3.5065056044
 30
0.0
 10
5.7425158825
 20
3.5128411841
 30
0.0
 10
5.7431144426
 20
3.51970817
 30
0.0
 10
5.7432033276
 20
3.5271068116
 30
0.0
 10
5.7427811997
 20
3.5350372924
 30
0.0
 10
5.742179397
 20
3.5404837369
 30
0.0
 10
5.7418005051
 20
3.5432924646
 30
0.0
  0
SPLINE
  5
47B
100
AcDbEntity
  8
0
100
AcDbSpline
 62
7
  6
CONTINUOUS
 70
0
 71
3
 72
11
 73
7
 74
0
 42
0.0000001
 43
0.0000001
 44
0.0000000001
 40
0.0
 40
0.0
 40
0.0
 40
0.0
 40
0.2545979562
 40
0.5002825748
 40
0.745822157
 40
1.0
 40
1.0
 40
1.0
 40
1.0
 10
5.7029729251
 20
3.4675667595
 30
0.0
 10
5.7062778443
 20
3.4684523099
 30
0.0
 10
5.7126481483
 20
3.4707274752
 30
0.0
 10
5.721347792
 20
3.4758252972
 30
0.0
 10
5.7288942482
 20
3.4825044347
 30
0.0
 10
5.7330307811
 20
3.487847363
 30
0.0
 10
5.7348947229
 20
3.490709846
 30
0.0
  0
SPLINE
  5
47C
100
AcDbEntity
  8
0
100
AcDbSpline
 62
7
  6
CONTINUOUS
 70
0
 71
3
 72
11
 73
7
 74
0
 42
0.0000001
 43
0.0000001
 44
0.0000000001
 40
0.0
 40
0.0
 40
0.0
 40
0.0
 40
0.2877937317
 40
0.5472225502
 40
0.7827272947
 40
1.0
 40
1.0
 40
1.0
 40
1.0
 10
5.6508382161
 20
3.5243431295
 30
0.0
 10
5.6511015527
 20
3.5253295146
 30
0.0
 10
5.6515283686
 20
3.5272265515
 30
0.0
 10
5.6518524444
 20
3.5299905274
 30
0.0
 10
5.6518206173
 20
3.532524793
 30
0.0
 10
5.6515484303
 20
3.5341170012
 30
0.0
 10
5.6513489423
 20
3.5348615006
 30
0.0
  0
LINE
  5
47D
100
AcDbEntity
  8
0
100
AcDbLine
 62
7
  6
CONTINUOUS
 10
5.647285023
 20
3.5133249475
 11
5.6508382161
 21
3.5243431295
  0
LINE
  5
47E
100
AcDbEntity
  8
0
100
AcDbLine
 62
7
  6
CONTINUOUS
 10
4.1812812286
 20
3.700047969
 11
4.1810515278
 21
3.7001221156
  0
ENDSEC
  0
SECTION
  2
OBJECTS
  0
DICTIONARY
  5
C
100
AcDbDictionary
280
0
281
1
  3
ACAD_GROUP
350
D
  3
ACAD_MLINESTYLE
350
17
  3
ACAD_LAYOUT
350
1A
  3
ACAD_PLOTSETTINGS
350
19
  3
ACAD_PLOTSTYLENAME
350
E
  0
DICTIONARY
  5
D
102
{ACAD_REACTORS
330
C
102
}
100
AcDbDictionary
280
0
281
1
  0
ACDBDICTIONARYWDFLT
  5
E
102
{ACAD_REACTORS
330
C
102
}
100
AcDbDictionary
281
1
  3
Normal
350
F
100
AcDbDictionaryWithDefault
340
F
  0
DICTIONARY
  5
17
102
{ACAD_REACTORS
330
C
102
}
100
AcDbDictionary
280
0
281
1
  3
Standard
350
18
  0
DICTIONARY
  5
19
102
{ACAD_REACTORS
330
C
102
}
100
AcDbDictionary
281
1
  0
DICTIONARY
  5
1A
102
{ACAD_REACTORS
330
C
102
}
100
AcDbDictionary
281
1
  3
Model
350
47F
  3
Layout1
350
480
  0
ACDBPLACEHOLDER
  5
F
102
{ACAD_REACTORS
330
E
102
}
  0
MLINESTYLE
  5
18
102
{ACAD_REACTORS
330
17
102
}
100
AcDbMlineStyle
  2
STANDARD
 70
0
  3

 62
256
 51
90.0
 52
90.0
 71
2
 49
0.5
 62
256
  6
BYLAYER
 49
-0.5
 62
256
  6
BYLAYER
  0
LAYOUT
  5
47F
102
{ACAD_REACTORS
330
1A
102
}
100
AcDbPlotSettings
  1

  2
none_device
  4
ANSI_A_(11.00_x_8.50_Inches)
  6

 40
0.0
 41
0.0
 42
0.0
 43
0.0
 44
279.4
 45
215.9
 46
0.0
 47
0.0
 48
0.0
 49
0.0
140
0.0
141
0.0
142
1.0
143
1.0
 70
1024
 72
0
 73
0
 74
0
  7

 75
0
147
1.0
148
0.0
149
0.0
100
AcDbLayout
  1
Model
 70
0
 71
0
 10
0.0
 20
0.0
 11
11.0
 21
8.5
 12
0.0
 22
0.0
 32
0.0
 14
0.0
 24
0.0
 34
0.0
 15
0.0
 25
0.0
 35
0.0
146
0.0
 13
0.0
 23
0.0
 33
0.0
 16
1.0
 26
0.0
 36
0.0
 17
0.0
 27
1.0
 37
0.0
 76
0
330
220
345
0
346
0
  0
LAYOUT
  5
480
102
{ACAD_REACTORS
330
1A
102
}
100
AcDbPlotSettings
  1

  2
none_device
  4
ANSI_A_(11.00_x_8.50_Inches)
  6

 40
0.0
 41
0.0
 42
0.0
 43
0.0
 44
279.4
 45
215.9
 46
0.0
 47
0.0
 48
0.0
 49
0.0
140
0.0
141
0.0
142
1.0
143
1.0
 70
0
 72
0
 73
0
 74
0
  7

 75
0
147
1.0
148
0.0
149
0.0
100
AcDbLayout
  1
Layout1
 70
0
 71
1
 10
0.0
 20
0.0
 11
11.0
 21
8.5
 12
0.0
 22
0.0
 32
0.0
 14
0.0
 24
0.0
 34
0.0
 15
0.0
 25
0.0
 35
0.0
146
0.0
 13
0.0
 23
0.0
 33
0.0
 16
1.0
 26
0.0
 36
0.0
 17
0.0
 27
1.0
 37
0.0
 76
0
330
221
345
0
346
0
  0
ENDSEC
  0
EOF
