999
DXF file: 3-1664tr_RIGHT.dxf
999
Pro/ENGINEER 2018400 by Parametric Technology Corporation
  0
SECTION
  2
HEADER
  9
$ACADVER
  1
AC1027
  9
$DWGCODEPAGE
  3
ANSI_1252
  9
$EXTMAX
 10
11.0
 20
8.5
 30
0.0
  9
$EXTMIN
 10
0.0
 20
0.0
 30
0.0
  9
$LIMMIN
 10
0.0
 20
0.0
  9
$LIMMAX
 10
11.0
 20
8.5
  9
$VIEWCTR
 10
5.5
 20
4.25
  9
$VIEWSIZE
 40
8.5
  9
$CLAYER
  8
0
  9
$LTSCALE
 40
0.605
  9
$CELTYPE
  6
BYLAYER
  9
$DIMSCALE
 40
1.0
  9
$DIMASZ
 40
0.1
  9
$DIMEXO
 40
0.0625
  9
$DIMDLI
 40
0.418
  9
$DIMEXE
 40
0.125
  9
$DIMCEN
 40
0.099
  9
$DIMLFAC
 40
1.0
  9
$DIMBLK
  1
_FILLED
  9
$DIMALT
 70
1
  9
$DIMALTD
 70
2
  9
$DIMALTTD
 70
2
  9
$DIMALTF
 40
25.4
  9
$DIMTXT
 40
0.08
  9
$DIMTOL
 70
1
  9
$DIMLIM
 70
0
  9
$DIMTFAC
 40
1.0
  9
$DIMTP
 40
0.001
  9
$DIMTM
 40
0.001
  9
$DIMGAP
 40
0.09
  9
$DIMDSEP
 70
46
  9
$AUNITS
 70
0
  9
$PDMODE
 70
3
  9
$PDSIZE
 40
0.3125
  9
$HANDSEED
  5
429
  9
$TILEMODE
 70
1
  9
$MEASUREMENT
 70
0
  9
$INSUNITS
 70
1
  0
ENDSEC
  0
SECTION
  2
CLASSES
  0
CLASS
  1
ACDBDICTIONARYWDFLT
  2
AcDbDictionaryWithDefault
  3
AutoCAD 2000
 90
0
 91
1
280
0
281
0
  0
CLASS
  1
ACDBPLACEHOLDER
  2
AcDbPlaceHolder
  3
AutoCAD 2000
 90
0
 91
1
280
0
281
0
  0
CLASS
  1
LAYOUT
  2
AcDbLayout
  3
AutoCAD 2000
 90
0
 91
0
280
0
281
0
  0
ENDSEC
  0
SECTION
  2
TABLES
  0
TABLE
  2
VPORT
  5
8
100
AcDbSymbolTable
 70
2
  0
VPORT
  5
1F4
100
AcDbSymbolTableRecord
100
AcDbViewportTableRecord
  2
*ACTIVE
 70
0
 10
0.0
 20
0.0
 11
1.0
 21
1.0
 12
5.5
 22
4.25
 13
0.0
 23
0.0
 14
1.0
 24
1.0
 15
0.0
 25
0.0
 16
0.0
 26
0.0
 36
1.0
 17
0.0
 27
0.0
 37
0.0
 40
8.5
 41
1.2941176471
 42
50.0
 43
0.0
 44
0.0
 50
0.0
 51
0.0
 71
0
 72
100
 73
1
 74
1
 75
0
 76
0
 77
0
 78
0
  0
ENDTAB
  0
TABLE
  2
LTYPE
  5
5
100
AcDbSymbolTable
 70
6
  0
LTYPE
  5
14
100
AcDbSymbolTableRecord
100
AcDbLinetypeTableRecord
  2
BYBLOCK
 70
0
  3

 72
65
 73
0
 40
0.0
  0
LTYPE
  5
15
100
AcDbSymbolTableRecord
100
AcDbLinetypeTableRecord
  2
BYLAYER
 70
0
  3

 72
65
 73
0
 40
0.0
  0
LTYPE
  5
16
100
AcDbSymbolTableRecord
100
AcDbLinetypeTableRecord
  2
CONTINUOUS
 70
64
  3
Solid line
 72
65
 73
0
 40
0.0
  0
LTYPE
  5
1F5
100
AcDbSymbolTableRecord
100
AcDbLinetypeTableRecord
  2
CENTER
 70
64
  3
____ _ ____ _ ____ _ ____ _ ____ _ ____ _ ____
 72
65
 73
4
 40
0.6
 49
0.375
 74
0
 49
-0.075
 74
0
 49
0.075
 74
0
 49
-0.075
 74
0
  0
LTYPE
  5
1F6
100
AcDbSymbolTableRecord
100
AcDbLinetypeTableRecord
  2
HIDDEN
 70
64
  3
- - - - - - - - - - - - - - - - - - - -
 72
65
 73
2
 40
0.2
 49
0.1
 74
0
 49
-0.1
 74
0
  0
LTYPE
  5
1F7
100
AcDbSymbolTableRecord
100
AcDbLinetypeTableRecord
  2
PHANTOM
 70
64
  3
_____ _ _ _____ _ _ _____ _ _ _____
 72
65
 73
6
 40
0.8
 49
0.45
 74
0
 49
-0.05
 74
0
 49
0.1
 74
0
 49
-0.05
 74
0
 49
0.1
 74
0
 49
-0.05
 74
0
  0
LTYPE
  5
1F8
100
AcDbSymbolTableRecord
100
AcDbLinetypeTableRecord
  2
DOT
 70
64
  3
. . . . . . . . . . . . . . . . . . . .
 72
65
 73
2
 40
0.2
 49
0.1
 74
0
 49
-0.1
 74
0
  0
LTYPE
  5
1F9
100
AcDbSymbolTableRecord
100
AcDbLinetypeTableRecord
  2
DASHED
 70
64
  3
- - - - - - - - - - - - - - - - - - - -
 72
65
 73
2
 40
0.2
 49
0.1
 74
0
 49
-0.1
 74
0
  0
ENDTAB
  0
TABLE
  2
LAYER
  5
2
100
AcDbSymbolTable
 70
36
  0
LAYER
  5
10
100
AcDbSymbolTableRecord
100
AcDbLayerTableRecord
  2
0
 70
0
 62
7
  6
CONTINUOUS
370
-3
390
F
  0
LAYER
  5
1FA
100
AcDbSymbolTableRecord
100
AcDbLayerTableRecord
  2
DEFAULT_1
 70
0
 62
7
  6
CENTER
370
-3
390
F
  0
LAYER
  5
1FB
100
AcDbSymbolTableRecord
100
AcDbLayerTableRecord
  2
DEFAULT_2
 70
0
 62
8
  6
HIDDEN
370
-3
390
F
  0
LAYER
  5
1FC
100
AcDbSymbolTableRecord
100
AcDbLayerTableRecord
  2
DEFAULT_3
 70
0
 62
7
  6
PHANTOM
370
-3
390
F
  0
LAYER
  5
1FD
100
AcDbSymbolTableRecord
100
AcDbLayerTableRecord
  2
1_PLATE
 70
0
 62
7
  6
CONTINUOUS
370
-3
390
F
  0
LAYER
  5
1FE
100
AcDbSymbolTableRecord
100
AcDbLayerTableRecord
  2
2-265_ASSY_PLANES
 70
0
 62
7
  6
CONTINUOUS
370
-3
390
F
  0
LAYER
  5
1FF
100
AcDbSymbolTableRecord
100
AcDbLayerTableRecord
  2
ALL_ASSEMBLY_MEMBERS
 70
0
 62
7
  6
CONTINUOUS
370
-3
390
F
  0
LAYER
  5
200
100
AcDbSymbolTableRecord
100
AcDbLayerTableRecord
  2
ALL_FEATURES
 70
0
 62
7
  6
CONTINUOUS
370
-3
390
F
  0
LAYER
  5
201
100
AcDbSymbolTableRecord
100
AcDbLayerTableRecord
  2
AXES_FEATURES
 70
0
 62
7
  6
CONTINUOUS
370
-3
390
F
  0
LAYER
  5
202
100
AcDbSymbolTableRecord
100
AcDbLayerTableRecord
  2
CHAMFER_FEATURES
 70
0
 62
7
  6
CONTINUOUS
370
-3
390
F
  0
LAYER
  5
203
100
AcDbSymbolTableRecord
100
AcDbLayerTableRecord
  2
CUT_FEATURES
 70
0
 62
7
  6
CONTINUOUS
370
-3
390
F
  0
LAYER
  5
204
100
AcDbSymbolTableRecord
100
AcDbLayerTableRecord
  2
DATUM_CURVES
 70
0
 62
7
  6
CONTINUOUS
370
-3
390
F
  0
LAYER
  5
205
100
AcDbSymbolTableRecord
100
AcDbLayerTableRecord
  2
DATUM_PLANES
 70
0
 62
7
  6
CONTINUOUS
370
-3
390
F
  0
LAYER
  5
206
100
AcDbSymbolTableRecord
100
AcDbLayerTableRecord
  2
DATUM_POINTS
 70
0
 62
7
  6
CONTINUOUS
370
-3
390
F
  0
LAYER
  5
207
100
AcDbSymbolTableRecord
100
AcDbLayerTableRecord
  2
DEFAULT_COORDINATE_SYSTEM
 70
0
 62
7
  6
CONTINUOUS
370
-3
390
F
  0
LAYER
  5
208
100
AcDbSymbolTableRecord
100
AcDbLayerTableRecord
  2
DEFAULT_DATUM_AXES
 70
0
 62
7
  6
CONTINUOUS
370
-3
390
F
  0
LAYER
  5
209
100
AcDbSymbolTableRecord
100
AcDbLayerTableRecord
  2
DEFAULT_DATUM_CURVES
 70
0
 62
7
  6
CONTINUOUS
370
-3
390
F
  0
LAYER
  5
20A
100
AcDbSymbolTableRecord
100
AcDbLayerTableRecord
  2
DEFAULT_DATUM_PLANES
 70
0
 62
7
  6
CONTINUOUS
370
-3
390
F
  0
LAYER
  5
20B
100
AcDbSymbolTableRecord
100
AcDbLayerTableRecord
  2
DEFAULT_SURFACES
 70
0
 62
7
  6
CONTINUOUS
370
-3
390
F
  0
LAYER
  5
20C
100
AcDbSymbolTableRecord
100
AcDbLayerTableRecord
  2
DIMENSIONS
 70
0
 62
7
  6
CONTINUOUS
370
-3
390
F
  0
LAYER
  5
20D
100
AcDbSymbolTableRecord
100
AcDbLayerTableRecord
  2
HOLE_FEATURES
 70
0
 62
7
  6
CONTINUOUS
370
-3
390
F
  0
LAYER
  5
20E
100
AcDbSymbolTableRecord
100
AcDbLayerTableRecord
  2
NOTES
 70
0
 62
7
  6
CONTINUOUS
370
-3
390
F
  0
LAYER
  5
20F
100
AcDbSymbolTableRecord
100
AcDbLayerTableRecord
  2
PART_REFERENCE_DIMENSIONS
 70
0
 62
7
  6
CONTINUOUS
370
-3
390
F
  0
LAYER
  5
210
100
AcDbSymbolTableRecord
100
AcDbLayerTableRecord
  2
PLATED_SURFACE_AREA
 70
0
 62
7
  6
CONTINUOUS
370
-3
390
F
  0
LAYER
  5
211
100
AcDbSymbolTableRecord
100
AcDbLayerTableRecord
  2
POINTS
 70
0
 62
7
  6
CONTINUOUS
370
-3
390
F
  0
LAYER
  5
212
100
AcDbSymbolTableRecord
100
AcDbLayerTableRecord
  2
PROTRUSION
 70
0
 62
7
  6
CONTINUOUS
370
-3
390
F
  0
LAYER
  5
213
100
AcDbSymbolTableRecord
100
AcDbLayerTableRecord
  2
PROTRUSION_FEATURES
 70
0
 62
7
  6
CONTINUOUS
370
-3
390
F
  0
LAYER
  5
214
100
AcDbSymbolTableRecord
100
AcDbLayerTableRecord
  2
QUILT
 70
0
 62
7
  6
CONTINUOUS
370
-3
390
F
  0
LAYER
  5
215
100
AcDbSymbolTableRecord
100
AcDbLayerTableRecord
  2
QUILTS
 70
0
 62
7
  6
CONTINUOUS
370
-3
390
F
  0
LAYER
  5
216
100
AcDbSymbolTableRecord
100
AcDbLayerTableRecord
  2
REFERENCE_DIMENSIONS
 70
0
 62
7
  6
CONTINUOUS
370
-3
390
F
  0
LAYER
  5
217
100
AcDbSymbolTableRecord
100
AcDbLayerTableRecord
  2
ROUND_FEATURES
 70
0
 62
7
  6
CONTINUOUS
370
-3
390
F
  0
LAYER
  5
218
100
AcDbSymbolTableRecord
100
AcDbLayerTableRecord
  2
SHELL_FEATURES
 70
0
 62
7
  6
CONTINUOUS
370
-3
390
F
  0
LAYER
  5
219
100
AcDbSymbolTableRecord
100
AcDbLayerTableRecord
  2
SURFACE_FEATURES
 70
0
 62
7
  6
CONTINUOUS
370
-3
390
F
  0
LAYER
  5
21A
100
AcDbSymbolTableRecord
100
AcDbLayerTableRecord
  2
XSEC_DATUMS
 70
0
 62
7
  6
CONTINUOUS
370
-3
390
F
  0
ENDTAB
  0
TABLE
  2
STYLE
  5
3
100
AcDbSymbolTable
 70
1
  0
STYLE
  5
11
100
AcDbSymbolTableRecord
100
AcDbTextStyleTableRecord
  2
STANDARD
 70
0
 40
0.0
 41
0.8
 50
0.0
 71
0
 42
0.2
  3
txt
  4

  0
STYLE
  5
21B
100
AcDbSymbolTableRecord
100
AcDbTextStyleTableRecord
  2
TEXTSTYLE_1
 70
0
 40
0.0
 41
0.8
 50
0.0
 71
0
 42
0.2
  3
gdt
  4

  0
ENDTAB
  0
TABLE
  2
VIEW
  5
6
100
AcDbSymbolTable
 70
0
  0
ENDTAB
  0
TABLE
  2
UCS
  5
7
100
AcDbSymbolTable
 70
0
  0
ENDTAB
  0
TABLE
  2
APPID
  5
9
100
AcDbSymbolTable
 70
1
  0
APPID
  5
21C
100
AcDbSymbolTableRecord
100
AcDbRegAppTableRecord
  2
ACAD
 70
0
  0
ENDTAB
  0
TABLE
  2
BLOCK_RECORD
  5
1
100
AcDbSymbolTable
 70
0
  0
BLOCK_RECORD
  5
21D
100
AcDbSymbolTableRecord
100
AcDbBlockTableRecord
  2
*Model_Space
  0
BLOCK_RECORD
  5
21E
100
AcDbSymbolTableRecord
100
AcDbBlockTableRecord
  2
*Paper_Space
  0
BLOCK_RECORD
  5
21F
100
AcDbSymbolTableRecord
100
AcDbBlockTableRecord
  2
_FILLED
  0
ENDTAB
  0
TABLE
  2
DIMSTYLE
  5
A
100
AcDbSymbolTable
 70
1
100
AcDbDimStyleTable
 71
0
  0
DIMSTYLE
105
220
100
AcDbSymbolTableRecord
100
AcDbDimStyleTableRecord
  2
STANDARD
 70
0
  3

  4

 40
1.0
 41
0.1
 42
0.0625
 43
0.38
 44
0.125
 45
0.0
 46
0.0
 47
0.001
 48
0.001
140
0.08
141
0.09
142
0.0
143
25.4
144
1.0
145
0.0
146
1.0
147
0.09
 71
1.0
 72
0.0
 73
1
 74
1
 75
0
 76
0
 77
0
 78
4
 79
1
170
1
171
2
172
0
173
0
174
0
175
0
176
0
177
0
178
0
270
2
179
3
271
3
272
3
273
2
274
2
275
0
280
0
281
0
282
0
283
1
284
4
285
0
286
0
287
3
288
0
340
11
278
46
341
21F
342
21F
343
21F
344
21F
  0
ENDTAB
  0
ENDSEC
  0
SECTION
  2
BLOCKS
  0
BLOCK
  5
20
100
AcDbEntity
  8
0
100
AcDbBlockBegin
  2
*Model_Space
 70
0
 10
0.0
 20
0.0
 30
0.0
  3
*Model_Space
  1

  0
ENDBLK
  5
21
100
AcDbEntity
  8
0
100
AcDbBlockEnd
  0
BLOCK
  5
1C
100
AcDbEntity
  8
0
100
AcDbBlockBegin
  2
*Paper_Space
 70
0
 10
0.0
 20
0.0
 30
0.0
  3
*Paper_Space
  1

  0
ENDBLK
  5
1D
100
AcDbEntity
  8
0
100
AcDbBlockEnd
  0
BLOCK
  5
221
100
AcDbEntity
  8
0
100
AcDbBlockBegin
  2
_FILLED
 70
64
 10
0.0
 20
0.0
  3
_FILLED
  1

  0
SOLID
  5
222
100
AcDbEntity
  8
0
  6
BYBLOCK
 62
0
100
AcDbTrace
 10
0.0
 20
0.0
 11
-1.0
 21
0.2
 12
-1.0
 22
-0.2
 13
-1.0
 23
-0.2
  0
ENDBLK
  5
223
100
AcDbEntity
  8
0
  6
BYBLOCK
 62
0
100
AcDbBlockEnd
  0
ENDSEC
  0
SECTION
  2
ENTITIES
  0
MTEXT
  5
224
100
AcDbEntity
  8
0
100
AcDbMText
 62
2
  6
CONTINUOUS
  7
STANDARD
 71
3
 72
1
 10
4.8774068323
 20
2.4029477828
 30
0.0
 11
1.0
 21
0.0
 31
0.0
 73
2
 44
0.9
  1
SCALE  .500
 40
0.08
 41
0.704
  0
LINE
  5
225
100
AcDbEntity
  8
0
100
AcDbLine
 62
7
  6
CONTINUOUS
 10
0.0
 20
0.0
 11
0.0
 21
8.5
  0
LINE
  5
226
100
AcDbEntity
  8
0
100
AcDbLine
 62
7
  6
CONTINUOUS
 10
0.0
 20
0.0
 11
11.0
 21
0.0
  0
LINE
  5
227
100
AcDbEntity
  8
0
100
AcDbLine
 62
7
  6
CONTINUOUS
 10
0.0
 20
8.5
 11
11.0
 21
8.5
  0
LINE
  5
228
100
AcDbEntity
  8
0
100
AcDbLine
 62
7
  6
CONTINUOUS
 10
11.0
 20
0.0
 11
11.0
 21
8.5
  0
LINE
  5
229
100
AcDbEntity
  8
1_PLATE
100
AcDbLine
 62
7
  6
CONTINUOUS
 10
5.6717667791
 20
2.4960597826
 11
5.7472667791
 21
2.4960597826
  0
LINE
  5
22A
100
AcDbEntity
  8
ALL_ASSEMBLY_MEMBERS
100
AcDbLine
 62
7
  6
CONTINUOUS
 10
3.8343622388
 20
4.1734874543
 11
3.8343622388
 21
4.5686321109
  0
LINE
  5
22B
100
AcDbEntity
  8
ALL_ASSEMBLY_MEMBERS
100
AcDbLine
 62
7
  6
CONTINUOUS
 10
3.8487668854
 20
4.6210597826
 11
3.8487668854
 21
4.1210597826
  0
LINE
  5
22C
100
AcDbEntity
  8
ALL_ASSEMBLY_MEMBERS
100
AcDbLine
 62
7
  6
CONTINUOUS
 10
3.8862668854
 20
4.0710597823
 11
3.8862668854
 21
4.1222187961
  0
LINE
  5
22D
100
AcDbEntity
  8
ALL_ASSEMBLY_MEMBERS
100
AcDbLine
 62
7
  6
CONTINUOUS
 10
4.0112668854
 20
3.6460597826
 11
3.9737668854
 21
4.0710597826
  0
LINE
  5
22E
100
AcDbEntity
  8
ALL_ASSEMBLY_MEMBERS
100
AcDbLine
 62
7
  6
CONTINUOUS
 10
3.91596628
 20
3.6460597826
 11
3.9118950421
 21
4.0710597826
  0
LINE
  5
22F
100
AcDbEntity
  8
ALL_ASSEMBLY_MEMBERS
100
AcDbLine
 62
7
  6
CONTINUOUS
 10
3.8523156827
 20
3.6164860552
 11
3.8862668854
 21
4.0710597826
  0
LINE
  5
230
100
AcDbEntity
  8
ALL_ASSEMBLY_MEMBERS
100
AcDbLine
 62
7
  6
CONTINUOUS
 10
3.9362668854
 20
3.6460597826
 11
3.9737668854
 21
4.0710597826
  0
LINE
  5
231
100
AcDbEntity
  8
ALL_ASSEMBLY_MEMBERS
100
AcDbLine
 62
7
  6
CONTINUOUS
 10
3.8629332714
 20
3.6460597826
 11
3.9118950421
 21
4.0710597826
  0
LINE
  5
232
100
AcDbEntity
  8
ALL_ASSEMBLY_MEMBERS
100
AcDbLine
 62
7
  6
CONTINUOUS
 10
4.0846004995
 20
3.6460597826
 11
4.0356387288
 21
4.0710597826
  0
LINE
  5
233
100
AcDbEntity
  8
ALL_ASSEMBLY_MEMBERS
100
AcDbLine
 62
7
  6
CONTINUOUS
 10
4.0952180882
 20
3.6164860552
 11
4.0612668854
 21
4.0710597826
  0
LINE
  5
234
100
AcDbEntity
  8
ALL_ASSEMBLY_MEMBERS
100
AcDbLine
 62
7
  6
CONTINUOUS
 10
4.0612668854
 20
4.0710597823
 11
4.0612668854
 21
4.1222187474
  0
LINE
  5
235
100
AcDbEntity
  8
ALL_ASSEMBLY_MEMBERS
100
AcDbLine
 62
7
  6
CONTINUOUS
 10
4.0987668854
 20
4.6210597826
 11
4.0987668854
 21
4.1210597826
  0
LINE
  5
236
100
AcDbEntity
  8
ALL_ASSEMBLY_MEMBERS
100
AcDbLine
 62
7
  6
CONTINUOUS
 10
4.1528934732
 20
4.5273097826
 11
4.1528934732
 21
4.2148097826
  0
LINE
  5
237
100
AcDbEntity
  8
ALL_ASSEMBLY_MEMBERS
100
AcDbLine
 62
7
  6
CONTINUOUS
 10
4.0315674909
 20
3.6460597826
 11
4.0356387288
 21
4.0710597826
  0
LINE
  5
238
100
AcDbEntity
  8
ALL_ASSEMBLY_MEMBERS
100
AcDbLine
 62
7
  6
CONTINUOUS
 10
4.0930092856
 20
3.6460597826
 11
4.0846004995
 21
3.6460597826
  0
LINE
  5
239
100
AcDbEntity
  8
ALL_ASSEMBLY_MEMBERS
100
AcDbLine
 62
7
  6
CONTINUOUS
 10
4.0315674909
 20
3.6460597826
 11
4.0112668854
 21
3.6460597826
  0
LINE
  5
23A
100
AcDbEntity
  8
ALL_ASSEMBLY_MEMBERS
100
AcDbLine
 62
7
  6
CONTINUOUS
 10
3.9362668854
 20
3.6460597826
 11
3.91596628
 21
3.6460597826
  0
LINE
  5
23B
100
AcDbEntity
  8
ALL_ASSEMBLY_MEMBERS
100
AcDbLine
 62
7
  6
CONTINUOUS
 10
3.8629332714
 20
3.6460597826
 11
3.8545244853
 21
3.6460597826
  0
LINE
  5
23C
100
AcDbEntity
  8
ALL_ASSEMBLY_MEMBERS
100
AcDbLine
 62
7
  6
CONTINUOUS
 10
4.2512668854
 20
4.2469294747
 11
4.2512668854
 21
4.2353824693
  0
LINE
  5
23D
100
AcDbEntity
  8
ALL_ASSEMBLY_MEMBERS
100
AcDbLine
 62
7
  6
CONTINUOUS
 10
4.2712668854
 20
4.2296089667
 11
4.2712668854
 21
4.2527029774
  0
LINE
  5
23E
100
AcDbEntity
  8
ALL_ASSEMBLY_MEMBERS
100
AcDbLine
 62
7
  6
CONTINUOUS
 10
4.2912668854
 20
4.2353824693
 11
4.2912668854
 21
4.2469294747
  0
LINE
  5
23F
100
AcDbEntity
  8
ALL_ASSEMBLY_MEMBERS
100
AcDbLine
 62
7
  6
CONTINUOUS
 10
4.3487668854
 20
4.5460815036
 11
4.3487668854
 21
4.1960380616
  0
LINE
  5
240
100
AcDbEntity
  8
ALL_ASSEMBLY_MEMBERS
100
AcDbLine
 62
7
  6
CONTINUOUS
 10
4.3710994307
 20
4.5773097826
 11
4.3710994307
 21
4.1648097826
  0
LINE
  5
241
100
AcDbEntity
  8
ALL_ASSEMBLY_MEMBERS
100
AcDbLine
 62
7
  6
CONTINUOUS
 10
4.1528934732
 20
4.2148097826
 11
4.0987668854
 21
4.1210597826
  0
LINE
  5
242
100
AcDbEntity
  8
ALL_FEATURES
100
AcDbLine
 62
7
  6
CONTINUOUS
 10
5.3160467791
 20
3.8785597826
 11
5.469116625
 21
3.8785597826
  0
LINE
  5
243
100
AcDbEntity
  8
ALL_ASSEMBLY_MEMBERS
100
AcDbLine
 62
7
  6
CONTINUOUS
 10
5.0987668854
 20
3.8860597826
 11
4.6713029601
 21
3.8860597826
  0
LINE
  5
244
100
AcDbEntity
  8
ALL_ASSEMBLY_MEMBERS
100
AcDbLine
 62
7
  6
CONTINUOUS
 10
5.24355035
 20
3.8863097826
 11
5.2326063071
 21
3.8863097826
  0
LINE
  5
245
100
AcDbEntity
  8
ALL_ASSEMBLY_MEMBERS
100
AcDbLine
 62
7
  6
CONTINUOUS
 10
5.208894209
 20
3.8863377318
 11
5.1979501661
 21
3.8863377318
  0
LINE
  5
246
100
AcDbEntity
  8
ALL_ASSEMBLY_MEMBERS
100
AcDbLine
 62
7
  6
CONTINUOUS
 10
5.2326063071
 20
3.88804349
 11
5.208894209
 21
3.88804349
  0
LINE
  5
247
100
AcDbEntity
  8
ALL_ASSEMBLY_MEMBERS
100
AcDbLine
 62
7
  6
CONTINUOUS
 10
5.1979501661
 20
3.88804349
 11
5.1578220036
 21
3.88804349
  0
LINE
  5
248
100
AcDbEntity
  8
ALL_ASSEMBLY_MEMBERS
100
AcDbLine
 62
7
  6
CONTINUOUS
 10
5.0987668854
 20
3.888776318
 11
5.1578220036
 21
3.888776318
  0
LINE
  5
249
100
AcDbEntity
  8
ALL_ASSEMBLY_MEMBERS
100
AcDbLine
 62
7
  6
CONTINUOUS
 10
5.24355035
 20
3.888776318
 11
5.2956172791
 21
3.888776318
  0
LINE
  5
24A
100
AcDbEntity
  8
ALL_ASSEMBLY_MEMBERS
100
AcDbLine
 62
7
  6
CONTINUOUS
 10
5.24355035
 20
3.8888143237
 11
5.1578220036
 21
3.8888143237
  0
LINE
  5
24B
100
AcDbEntity
  8
ALL_ASSEMBLY_MEMBERS
100
AcDbLine
 62
7
  6
CONTINUOUS
 10
5.21585305
 20
3.8912937351
 11
5.1578220036
 21
3.8912937351
  0
LINE
  5
24C
100
AcDbEntity
  8
ALL_ASSEMBLY_MEMBERS
100
AcDbLine
 62
7
  6
CONTINUOUS
 10
4.2459554914
 20
4.2322070429
 11
4.2443850142
 21
4.233317538
  0
LINE
  5
24D
100
AcDbEntity
  8
ALL_ASSEMBLY_MEMBERS
100
AcDbLine
 62
7
  6
CONTINUOUS
 10
4.2444425351
 20
4.2333880358
 11
4.2444196568
 21
4.2334067028
  0
LINE
  5
24E
100
AcDbEntity
  8
ALL_ASSEMBLY_MEMBERS
100
AcDbLine
 62
7
  6
CONTINUOUS
 10
4.2444413013
 20
4.2333876785
 11
4.2444193887
 21
4.2334066255
  0
LINE
  5
24F
100
AcDbEntity
  8
ALL_ASSEMBLY_MEMBERS
100
AcDbLine
 62
7
  6
CONTINUOUS
 10
4.1528934732
 20
4.5273097826
 11
4.0987668854
 21
4.6210597826
  0
LINE
  5
250
100
AcDbEntity
  8
ALL_ASSEMBLY_MEMBERS
100
AcDbLine
 62
7
  6
CONTINUOUS
 10
4.4737668854
 20
4.6943309934
 11
4.4737668854
 21
4.0477885718
  0
LINE
  5
251
100
AcDbEntity
  8
ALL_ASSEMBLY_MEMBERS
100
AcDbLine
 62
7
  6
CONTINUOUS
 10
4.2512668854
 20
4.2353824693
 11
4.2712668854
 21
4.2296089667
  0
LINE
  5
252
100
AcDbEntity
  8
ALL_ASSEMBLY_MEMBERS
100
AcDbLine
 62
7
  6
CONTINUOUS
 10
4.2912668854
 20
4.2469294747
 11
4.2712668854
 21
4.2527029774
  0
LINE
  5
253
100
AcDbEntity
  8
ALL_ASSEMBLY_MEMBERS
100
AcDbLine
 62
7
  6
CONTINUOUS
 10
4.6713029601
 20
4.8560597826
 11
4.6713029601
 21
3.8860597826
  0
LINE
  5
254
100
AcDbEntity
  8
0
100
AcDbLine
 62
7
  6
CONTINUOUS
 10
4.7057668854
 20
4.8530484638
 11
4.7057668854
 21
4.9668430507
  0
LINE
  5
255
100
AcDbEntity
  8
ALL_ASSEMBLY_MEMBERS
100
AcDbLine
 62
7
  6
CONTINUOUS
 10
4.2965782795
 20
4.2322070429
 11
4.3037773723
 21
4.2372975703
  0
LINE
  5
256
100
AcDbEntity
  8
ALL_ASSEMBLY_MEMBERS
100
AcDbLine
 62
7
  6
CONTINUOUS
 10
4.0987668854
 20
4.1210597826
 11
4.0645168854
 21
4.1210597826
  0
LINE
  5
257
100
AcDbEntity
  8
ALL_ASSEMBLY_MEMBERS
100
AcDbLine
 62
7
  6
CONTINUOUS
 10
3.8830168854
 20
4.1210597826
 11
3.8487668854
 21
4.1210597826
  0
LINE
  5
258
100
AcDbEntity
  8
ALL_ASSEMBLY_MEMBERS
100
AcDbLine
 62
7
  6
CONTINUOUS
 10
5.208894209
 20
4.1424489768
 11
5.1924781446
 21
4.1424489768
  0
LINE
  5
259
100
AcDbEntity
  8
ALL_ASSEMBLY_MEMBERS
100
AcDbLine
 62
7
  6
CONTINUOUS
 10
5.2070702018
 20
4.1485912585
 11
5.1943021517
 21
4.1485912585
  0
LINE
  5
25A
100
AcDbEntity
  8
ALL_ASSEMBLY_MEMBERS
100
AcDbLine
 62
7
  6
CONTINUOUS
 10
5.2070702018
 20
4.149441828
 11
5.1943021517
 21
4.149441828
  0
LINE
  5
25B
100
AcDbEntity
  8
ALL_ASSEMBLY_MEMBERS
100
AcDbLine
 62
7
  6
CONTINUOUS
 10
5.2070702018
 20
4.1810786787
 11
5.1943021517
 21
4.1810786787
  0
LINE
  5
25C
100
AcDbEntity
  8
ALL_ASSEMBLY_MEMBERS
100
AcDbLine
 62
7
  6
CONTINUOUS
 10
5.208894209
 20
4.1874305761
 11
5.1924781446
 21
4.1874305761
  0
LINE
  5
25D
100
AcDbEntity
  8
ALL_ASSEMBLY_MEMBERS
100
AcDbLine
 62
7
  6
CONTINUOUS
 10
5.208894209
 20
4.188274841
 11
5.1924781446
 21
4.188274841
  0
LINE
  5
25E
100
AcDbEntity
  8
ALL_ASSEMBLY_MEMBERS
100
AcDbLine
 62
7
  6
CONTINUOUS
 10
5.2234862713
 20
4.1976631544
 11
5.2198382519
 21
4.1976631544
  0
LINE
  5
25F
100
AcDbEntity
  8
ALL_ASSEMBLY_MEMBERS
100
AcDbLine
 62
7
  6
CONTINUOUS
 10
5.1669420406
 20
4.1976631544
 11
5.1578220036
 21
4.1976631544
  0
LINE
  5
260
100
AcDbEntity
  8
ALL_ASSEMBLY_MEMBERS
100
AcDbLine
 62
7
  6
CONTINUOUS
 10
5.2234862713
 20
4.2053936636
 11
5.2198382519
 21
4.2053936636
  0
LINE
  5
261
100
AcDbEntity
  8
ALL_ASSEMBLY_MEMBERS
100
AcDbLine
 62
7
  6
CONTINUOUS
 10
5.2234862713
 20
4.2062372684
 11
5.2198382519
 21
4.2062372684
  0
LINE
  5
262
100
AcDbEntity
  8
ALL_ASSEMBLY_MEMBERS
100
AcDbLine
 62
7
  6
CONTINUOUS
 10
4.3487668854
 20
4.2148097826
 11
4.1528934732
 21
4.2148097826
  0
LINE
  5
263
100
AcDbEntity
  8
ALL_ASSEMBLY_MEMBERS
100
AcDbLine
 62
7
  6
CONTINUOUS
 10
5.1669420406
 20
4.2447678902
 11
5.1578220036
 21
4.2447678902
  0
LINE
  5
264
100
AcDbEntity
  8
ALL_ASSEMBLY_MEMBERS
100
AcDbLine
 62
7
  6
CONTINUOUS
 10
5.1669420406
 20
4.2456146035
 11
5.1578220036
 21
4.2456146035
  0
LINE
  5
265
100
AcDbEntity
  8
ALL_FEATURES
100
AcDbLine
 62
7
  6
CONTINUOUS
 10
4.8357668854
 20
4.8530489386
 11
4.8357668854
 21
4.9668430507
  0
LINE
  5
266
100
AcDbEntity
  8
ALL_ASSEMBLY_MEMBERS
100
AcDbLine
 62
7
  6
CONTINUOUS
 10
4.2712668854
 20
4.2527029774
 11
4.2512668854
 21
4.2469294747
  0
LINE
  5
267
100
AcDbEntity
  8
ALL_ASSEMBLY_MEMBERS
100
AcDbLine
 62
7
  6
CONTINUOUS
 10
4.2712668854
 20
4.2296089667
 11
4.2912668854
 21
4.2353824693
  0
LINE
  5
268
100
AcDbEntity
  8
ALL_ASSEMBLY_MEMBERS
100
AcDbLine
 62
7
  6
CONTINUOUS
 10
5.24355035
 20
4.2554719551
 11
5.1578220036
 21
4.2554719551
  0
LINE
  5
269
100
AcDbEntity
  8
ALL_ASSEMBLY_MEMBERS
100
AcDbLine
 62
7
  6
CONTINUOUS
 10
5.2289582928
 20
4.2635570161
 11
5.1578220036
 21
4.2635570161
  0
LINE
  5
26A
100
AcDbEntity
  8
ALL_ASSEMBLY_MEMBERS
100
AcDbLine
 62
7
  6
CONTINUOUS
 10
5.2276201965
 20
4.2644073361
 11
5.1578220036
 21
4.2644073361
  0
LINE
  5
26B
100
AcDbEntity
  8
ALL_ASSEMBLY_MEMBERS
100
AcDbLine
 62
7
  6
CONTINUOUS
 10
5.2307822999
 20
4.2716912692
 11
5.2161902376
 21
4.2716912692
  0
LINE
  5
26C
100
AcDbEntity
  8
ALL_ASSEMBLY_MEMBERS
100
AcDbLine
 62
7
  6
CONTINUOUS
 10
5.2307822999
 20
4.2725435711
 11
5.2161902376
 21
4.2725435711
  0
LINE
  5
26D
100
AcDbEntity
  8
ALL_ASSEMBLY_MEMBERS
100
AcDbLine
 62
7
  6
CONTINUOUS
 10
5.2464046807
 20
4.358264507
 11
5.1578220036
 21
4.358264507
  0
LINE
  5
26E
100
AcDbEntity
  8
ALL_ASSEMBLY_MEMBERS
100
AcDbLine
 62
7
  6
CONTINUOUS
 10
5.2464046807
 20
4.3838550582
 11
5.1578220036
 21
4.3838550582
  0
LINE
  5
26F
100
AcDbEntity
  8
ALL_ASSEMBLY_MEMBERS
100
AcDbLine
 62
7
  6
CONTINUOUS
 10
5.1888301277
 20
4.4716106441
 11
5.1815340991
 21
4.4716106441
  0
LINE
  5
270
100
AcDbEntity
  8
ALL_ASSEMBLY_MEMBERS
100
AcDbLine
 62
7
  6
CONTINUOUS
 10
5.1888301277
 20
4.4724624265
 11
5.1815340991
 21
4.4724624265
  0
LINE
  5
271
100
AcDbEntity
  8
ALL_ASSEMBLY_MEMBERS
100
AcDbLine
 62
7
  6
CONTINUOUS
 10
5.24355035
 20
4.4751335568
 11
5.2344303142
 21
4.4751335568
  0
LINE
  5
272
100
AcDbEntity
  8
ALL_ASSEMBLY_MEMBERS
100
AcDbLine
 62
7
  6
CONTINUOUS
 10
5.24355035
 20
4.4759844774
 11
5.2344303142
 21
4.4759844774
  0
LINE
  5
273
100
AcDbEntity
  8
ALL_ASSEMBLY_MEMBERS
100
AcDbLine
 62
7
  6
CONTINUOUS
 10
5.1870061206
 20
4.4812502315
 11
5.1833581063
 21
4.4812502315
  0
LINE
  5
274
100
AcDbEntity
  8
ALL_ASSEMBLY_MEMBERS
100
AcDbLine
 62
7
  6
CONTINUOUS
 10
5.2344303142
 20
4.5251829651
 11
5.2057914542
 21
4.5251829651
  0
LINE
  5
275
100
AcDbEntity
  8
ALL_ASSEMBLY_MEMBERS
100
AcDbLine
 62
7
  6
CONTINUOUS
 10
5.2344303142
 20
4.5260268075
 11
5.2052461947
 21
4.5260268075
  0
LINE
  5
276
100
AcDbEntity
  8
ALL_ASSEMBLY_MEMBERS
100
AcDbLine
 62
7
  6
CONTINUOUS
 10
4.3487668854
 20
4.5273097826
 11
4.1528934732
 21
4.5273097826
  0
LINE
  5
277
100
AcDbEntity
  8
ALL_ASSEMBLY_MEMBERS
100
AcDbLine
 62
7
  6
CONTINUOUS
 10
5.0987668854
 20
4.8560597826
 11
5.0987668854
 21
3.8860597826
  0
LINE
  5
278
100
AcDbEntity
  8
ALL_ASSEMBLY_MEMBERS
100
AcDbLine
 62
7
  6
CONTINUOUS
 10
5.1578220036
 20
4.8555241301
 11
5.1578220036
 21
4.8513437484
  0
LINE
  5
279
100
AcDbEntity
  8
ALL_ASSEMBLY_MEMBERS
100
AcDbLine
 62
7
  6
CONTINUOUS
 10
5.1578220036
 20
3.88804349
 11
5.1578220036
 21
3.8912937351
  0
LINE
  5
27A
100
AcDbEntity
  8
ALL_ASSEMBLY_MEMBERS
100
AcDbLine
 62
7
  6
CONTINUOUS
 10
5.1578220036
 20
4.1976631544
 11
5.1578220036
 21
4.2456146035
  0
LINE
  5
27B
100
AcDbEntity
  8
ALL_ASSEMBLY_MEMBERS
100
AcDbLine
 62
7
  6
CONTINUOUS
 10
5.1578220036
 20
4.2554719551
 11
5.1578220036
 21
4.2644073361
  0
LINE
  5
27C
100
AcDbEntity
  8
ALL_ASSEMBLY_MEMBERS
100
AcDbLine
 62
7
  6
CONTINUOUS
 10
5.1578220036
 20
4.358264507
 11
5.1578220036
 21
4.3838550582
  0
LINE
  5
27D
100
AcDbEntity
  8
ALL_ASSEMBLY_MEMBERS
100
AcDbLine
 62
7
  6
CONTINUOUS
 10
5.1578220036
 20
4.4986536847
 11
5.1578220036
 21
4.5089864524
  0
LINE
  5
27E
100
AcDbEntity
  8
ALL_ASSEMBLY_MEMBERS
100
AcDbLine
 62
7
  6
CONTINUOUS
 10
5.1578220036
 20
4.5469985891
 11
5.1578220036
 21
4.5577828254
  0
LINE
  5
27F
100
AcDbEntity
  8
ALL_ASSEMBLY_MEMBERS
100
AcDbLine
 62
7
  6
CONTINUOUS
 10
5.1578220036
 20
4.5798126561
 11
5.1578220036
 21
4.5903283354
  0
LINE
  5
280
100
AcDbEntity
  8
ALL_ASSEMBLY_MEMBERS
100
AcDbLine
 62
7
  6
CONTINUOUS
 10
5.1578220036
 20
4.7586451381
 11
5.1578220036
 21
4.7753444507
  0
LINE
  5
281
100
AcDbEntity
  8
ALL_ASSEMBLY_MEMBERS
100
AcDbLine
 62
7
  6
CONTINUOUS
 10
5.1596460109
 20
4.8529994441
 11
5.1596460109
 21
4.8505184513
  0
LINE
  5
282
100
AcDbEntity
  8
ALL_ASSEMBLY_MEMBERS
100
AcDbLine
 62
7
  6
CONTINUOUS
 10
5.1596460109
 20
4.8557372102
 11
5.1596460109
 21
4.8544993478
  0
LINE
  5
283
100
AcDbEntity
  8
ALL_ASSEMBLY_MEMBERS
100
AcDbLine
 62
7
  6
CONTINUOUS
 10
5.1596460109
 20
4.4899805297
 11
5.1596460109
 21
4.4891325631
  0
LINE
  5
284
100
AcDbEntity
  8
ALL_ASSEMBLY_MEMBERS
100
AcDbLine
 62
7
  6
CONTINUOUS
 10
5.1596460109
 20
4.1722423251
 11
5.1596460109
 21
4.1730882284
  0
LINE
  5
285
100
AcDbEntity
  8
ALL_ASSEMBLY_MEMBERS
100
AcDbLine
 62
7
  6
CONTINUOUS
 10
5.1651180328
 20
4.852206079
 11
5.1651180328
 21
4.849720974
  0
LINE
  5
286
100
AcDbEntity
  8
ALL_ASSEMBLY_MEMBERS
100
AcDbLine
 62
7
  6
CONTINUOUS
 10
5.1651180328
 20
4.8558074258
 11
5.1651180328
 21
4.8549568594
  0
LINE
  5
287
100
AcDbEntity
  8
ALL_ASSEMBLY_MEMBERS
100
AcDbLine
 62
7
  6
CONTINUOUS
 10
5.1651180328
 20
4.4812502315
 11
5.1651180328
 21
4.4804005105
  0
LINE
  5
288
100
AcDbEntity
  8
ALL_ASSEMBLY_MEMBERS
100
AcDbLine
 62
7
  6
CONTINUOUS
 10
5.1651180328
 20
4.1785472984
 11
5.1651180328
 21
4.1793923978
  0
LINE
  5
289
100
AcDbEntity
  8
ALL_ASSEMBLY_MEMBERS
100
AcDbLine
 62
7
  6
CONTINUOUS
 10
5.1669420406
 20
4.1976631544
 11
5.1669420406
 21
4.2341501804
  0
LINE
  5
28A
100
AcDbEntity
  8
ALL_ASSEMBLY_MEMBERS
100
AcDbLine
 62
7
  6
CONTINUOUS
 10
5.1669420406
 20
4.2447678902
 11
5.1669420406
 21
4.2456146035
  0
LINE
  5
28B
100
AcDbEntity
  8
ALL_ASSEMBLY_MEMBERS
100
AcDbLine
 62
7
  6
CONTINUOUS
 10
5.1669420406
 20
4.4986536847
 11
5.1669420406
 21
4.5089864524
  0
LINE
  5
28C
100
AcDbEntity
  8
ALL_ASSEMBLY_MEMBERS
100
AcDbLine
 62
7
  6
CONTINUOUS
 10
5.1687660478
 20
4.8543960554
 11
5.1687660478
 21
4.8531461918
  0
LINE
  5
28D
100
AcDbEntity
  8
ALL_ASSEMBLY_MEMBERS
100
AcDbLine
 62
7
  6
CONTINUOUS
 10
5.1687660478
 20
4.5158296823
 11
5.1687660478
 21
4.5149851878
  0
LINE
  5
28E
100
AcDbEntity
  8
ALL_ASSEMBLY_MEMBERS
100
AcDbLine
 62
7
  6
CONTINUOUS
 10
5.1687660478
 20
4.1584899518
 11
5.1687660478
 21
4.1593382417
  0
LINE
  5
28F
100
AcDbEntity
  8
ALL_ASSEMBLY_MEMBERS
100
AcDbLine
 62
7
  6
CONTINUOUS
 10
5.1705900549
 20
4.8558027341
 11
5.1705900549
 21
4.8551842826
  0
LINE
  5
290
100
AcDbEntity
  8
ALL_ASSEMBLY_MEMBERS
100
AcDbLine
 62
7
  6
CONTINUOUS
 10
5.1705900549
 20
4.8516822136
 11
5.1705900549
 21
4.8491943859
  0
LINE
  5
291
100
AcDbEntity
  8
ALL_ASSEMBLY_MEMBERS
100
AcDbLine
 62
7
  6
CONTINUOUS
 10
5.1705900549
 20
4.1823463831
 11
5.1705900549
 21
4.1831910834
  0
LINE
  5
292
100
AcDbEntity
  8
ALL_ASSEMBLY_MEMBERS
100
AcDbLine
 62
7
  6
CONTINUOUS
 10
5.1724140621
 20
4.8546941362
 11
5.1724140621
 21
4.8526940354
  0
LINE
  5
293
100
AcDbEntity
  8
ALL_ASSEMBLY_MEMBERS
100
AcDbLine
 62
7
  6
CONTINUOUS
 10
5.1724140621
 20
4.5209383913
 11
5.1724140621
 21
4.5200942749
  0
LINE
  5
294
100
AcDbEntity
  8
ALL_ASSEMBLY_MEMBERS
100
AcDbLine
 62
7
  6
CONTINUOUS
 10
5.1724140621
 20
4.4759844774
 11
5.1724140621
 21
4.4751335568
  0
LINE
  5
295
100
AcDbEntity
  8
ALL_ASSEMBLY_MEMBERS
100
AcDbLine
 62
7
  6
CONTINUOUS
 10
5.1724140621
 20
4.1547677305
 11
5.1724140621
 21
4.1556168209
  0
LINE
  5
296
100
AcDbEntity
  8
ALL_ASSEMBLY_MEMBERS
100
AcDbLine
 62
7
  6
CONTINUOUS
 10
5.1778860848
 20
4.855780098
 11
5.1778860848
 21
4.8553163117
  0
LINE
  5
297
100
AcDbEntity
  8
ALL_ASSEMBLY_MEMBERS
100
AcDbLine
 62
7
  6
CONTINUOUS
 10
5.1778860848
 20
4.8513129621
 11
5.1778860848
 21
4.8488232116
  0
LINE
  5
298
100
AcDbEntity
  8
ALL_ASSEMBLY_MEMBERS
100
AcDbLine
 62
7
  6
CONTINUOUS
 10
5.1778860848
 20
4.1848858026
 11
5.1778860848
 21
4.1857302715
  0
LINE
  5
299
100
AcDbEntity
  8
ALL_ASSEMBLY_MEMBERS
100
AcDbLine
 62
7
  6
CONTINUOUS
 10
5.179710092
 20
4.5234890016
 11
5.179710092
 21
4.5344624576
  0
LINE
  5
29A
100
AcDbEntity
  8
ALL_ASSEMBLY_MEMBERS
100
AcDbLine
 62
7
  6
CONTINUOUS
 10
5.1815340991
 20
4.4724624265
 11
5.1815340991
 21
4.4716106441
  0
LINE
  5
29B
100
AcDbEntity
  8
ALL_ASSEMBLY_MEMBERS
100
AcDbLine
 62
7
  6
CONTINUOUS
 10
5.1833581063
 20
4.8557629268
 11
5.1833581063
 21
4.8553764554
  0
LINE
  5
29C
100
AcDbEntity
  8
ALL_ASSEMBLY_MEMBERS
100
AcDbLine
 62
7
  6
CONTINUOUS
 10
5.1833581063
 20
4.8550365864
 11
5.1833581063
 21
4.8525660903
  0
LINE
  5
29D
100
AcDbEntity
  8
ALL_ASSEMBLY_MEMBERS
100
AcDbLine
 62
7
  6
CONTINUOUS
 10
5.1833581063
 20
4.8511223216
 11
5.1833581063
 21
4.8486315773
  0
LINE
  5
29E
100
AcDbEntity
  8
ALL_ASSEMBLY_MEMBERS
100
AcDbLine
 62
7
  6
CONTINUOUS
 10
5.1833581063
 20
4.1498238195
 11
5.1833581063
 21
4.1506740785
  0
LINE
  5
29F
100
AcDbEntity
  8
ALL_ASSEMBLY_MEMBERS
100
AcDbLine
 62
7
  6
CONTINUOUS
 10
5.1833581063
 20
4.186157524
 11
5.1833581063
 21
4.1870018874
  0
LINE
  5
2A0
100
AcDbEntity
  8
ALL_ASSEMBLY_MEMBERS
100
AcDbLine
 62
7
  6
CONTINUOUS
 10
5.24355035
 20
4.5344624576
 11
5.1961261589
 21
4.5344624576
  0
LINE
  5
2A1
100
AcDbEntity
  8
ALL_ASSEMBLY_MEMBERS
100
AcDbLine
 62
7
  6
CONTINUOUS
 10
5.24355035
 20
4.5469985891
 11
5.1578220036
 21
4.5469985891
  0
LINE
  5
2A2
100
AcDbEntity
  8
ALL_ASSEMBLY_MEMBERS
100
AcDbLine
 62
7
  6
CONTINUOUS
 10
5.24355035
 20
4.5478424429
 11
5.1578220036
 21
4.5478424429
  0
LINE
  5
2A3
100
AcDbEntity
  8
ALL_ASSEMBLY_MEMBERS
100
AcDbLine
 62
7
  6
CONTINUOUS
 10
5.2289582928
 20
4.5577828254
 11
5.1578220036
 21
4.5577828254
  0
LINE
  5
2A4
100
AcDbEntity
  8
ALL_ASSEMBLY_MEMBERS
100
AcDbLine
 62
7
  6
CONTINUOUS
 10
5.2307822999
 20
4.5676419167
 11
5.2161902376
 21
4.5676419167
  0
LINE
  5
2A5
100
AcDbEntity
  8
ALL_ASSEMBLY_MEMBERS
100
AcDbLine
 62
7
  6
CONTINUOUS
 10
5.24355035
 20
4.5798126561
 11
5.1578220036
 21
4.5798126561
  0
LINE
  5
2A6
100
AcDbEntity
  8
ALL_ASSEMBLY_MEMBERS
100
AcDbLine
 62
7
  6
CONTINUOUS
 10
5.24355035
 20
4.5806603553
 11
5.1578220036
 21
4.5806603553
  0
LINE
  5
2A7
100
AcDbEntity
  8
ALL_ASSEMBLY_MEMBERS
100
AcDbLine
 62
7
  6
CONTINUOUS
 10
5.2289582928
 20
4.5903283354
 11
5.1578220036
 21
4.5903283354
  0
LINE
  5
2A8
100
AcDbEntity
  8
ALL_ASSEMBLY_MEMBERS
100
AcDbLine
 62
7
  6
CONTINUOUS
 10
5.2307822999
 20
4.5999134996
 11
5.2161902376
 21
4.5999134996
  0
LINE
  5
2A9
100
AcDbEntity
  8
ALL_ASSEMBLY_MEMBERS
100
AcDbLine
 62
7
  6
CONTINUOUS
 10
4.0987668854
 20
4.6210597826
 11
3.8487668854
 21
4.6210597826
  0
LINE
  5
2AA
100
AcDbEntity
  8
ALL_ASSEMBLY_MEMBERS
100
AcDbLine
 62
7
  6
CONTINUOUS
 10
5.1888301277
 20
4.4724624265
 11
5.1888301277
 21
4.4716106441
  0
LINE
  5
2AB
100
AcDbEntity
  8
ALL_ASSEMBLY_MEMBERS
100
AcDbLine
 62
7
  6
CONTINUOUS
 10
5.1924781446
 20
4.8557418531
 11
5.1924781446
 21
4.8554326869
  0
LINE
  5
2AC
100
AcDbEntity
  8
ALL_ASSEMBLY_MEMBERS
100
AcDbLine
 62
7
  6
CONTINUOUS
 10
5.1924781446
 20
4.8509276643
 11
5.1924781446
 21
4.8484359043
  0
LINE
  5
2AD
100
AcDbEntity
  8
ALL_ASSEMBLY_MEMBERS
100
AcDbLine
 62
7
  6
CONTINUOUS
 10
5.1924781446
 20
4.1874305761
 11
5.1924781446
 21
4.188274841
  0
LINE
  5
2AE
100
AcDbEntity
  8
ALL_ASSEMBLY_MEMBERS
100
AcDbLine
 62
7
  6
CONTINUOUS
 10
5.1943021517
 20
4.8551123937
 11
5.1943021517
 21
4.8526422865
  0
LINE
  5
2AF
100
AcDbEntity
  8
ALL_ASSEMBLY_MEMBERS
100
AcDbLine
 62
7
  6
CONTINUOUS
 10
5.1943021517
 20
4.1485912585
 11
5.1943021517
 21
4.149441828
  0
LINE
  5
2B0
100
AcDbEntity
  8
ALL_ASSEMBLY_MEMBERS
100
AcDbLine
 62
7
  6
CONTINUOUS
 10
5.1961261589
 20
4.5217927685
 11
5.1961261589
 21
4.5344624576
  0
LINE
  5
2B1
100
AcDbEntity
  8
ALL_ASSEMBLY_MEMBERS
100
AcDbLine
 62
7
  6
CONTINUOUS
 10
5.1979501661
 20
4.4759844774
 11
5.1979501661
 21
4.4751335568
  0
LINE
  5
2B2
100
AcDbEntity
  8
ALL_ASSEMBLY_MEMBERS
100
AcDbLine
 62
7
  6
CONTINUOUS
 10
5.1979501661
 20
3.8863377318
 11
5.1979501661
 21
3.88804349
  0
LINE
  5
2B3
100
AcDbEntity
  8
ALL_ASSEMBLY_MEMBERS
100
AcDbLine
 62
7
  6
CONTINUOUS
 10
5.2034221875
 20
4.4986536847
 11
5.2034221875
 21
4.5089864524
  0
LINE
  5
2B4
100
AcDbEntity
  8
ALL_ASSEMBLY_MEMBERS
100
AcDbLine
 62
7
  6
CONTINUOUS
 10
5.2052461947
 20
4.4812502315
 11
5.2052461947
 21
4.4804005105
  0
LINE
  5
2B5
100
AcDbEntity
  8
ALL_ASSEMBLY_MEMBERS
100
AcDbLine
 62
7
  6
CONTINUOUS
 10
5.2070702018
 20
4.8551123937
 11
5.2070702018
 21
4.8526422865
  0
LINE
  5
2B6
100
AcDbEntity
  8
ALL_ASSEMBLY_MEMBERS
100
AcDbLine
 62
7
  6
CONTINUOUS
 10
5.2070702018
 20
4.1485912585
 11
5.2070702018
 21
4.149441828
  0
LINE
  5
2B7
100
AcDbEntity
  8
ALL_ASSEMBLY_MEMBERS
100
AcDbLine
 62
7
  6
CONTINUOUS
 10
5.208894209
 20
4.8557418531
 11
5.208894209
 21
4.8554326869
  0
LINE
  5
2B8
100
AcDbEntity
  8
ALL_ASSEMBLY_MEMBERS
100
AcDbLine
 62
7
  6
CONTINUOUS
 10
5.208894209
 20
4.8509276643
 11
5.208894209
 21
4.8484359043
  0
LINE
  5
2B9
100
AcDbEntity
  8
ALL_ASSEMBLY_MEMBERS
100
AcDbLine
 62
7
  6
CONTINUOUS
 10
5.208894209
 20
3.8863377318
 11
5.208894209
 21
3.88804349
  0
LINE
  5
2BA
100
AcDbEntity
  8
ALL_ASSEMBLY_MEMBERS
100
AcDbLine
 62
7
  6
CONTINUOUS
 10
5.208894209
 20
4.1874305761
 11
5.208894209
 21
4.188274841
  0
LINE
  5
2BB
100
AcDbEntity
  8
ALL_ASSEMBLY_MEMBERS
100
AcDbLine
 62
7
  6
CONTINUOUS
 10
5.2107182161
 20
4.4899805297
 11
5.2107182161
 21
4.4891325631
  0
LINE
  5
2BC
100
AcDbEntity
  8
ALL_ASSEMBLY_MEMBERS
100
AcDbLine
 62
7
  6
CONTINUOUS
 10
5.2125422233
 20
4.2079811731
 11
5.2125422233
 21
4.208824793
  0
LINE
  5
2BD
100
AcDbEntity
  8
ALL_ASSEMBLY_MEMBERS
100
AcDbLine
 62
7
  6
CONTINUOUS
 10
5.2125422233
 20
4.4986536847
 11
5.2125422233
 21
4.5089864524
  0
LINE
  5
2BE
100
AcDbEntity
  8
ALL_ASSEMBLY_MEMBERS
100
AcDbLine
 62
7
  6
CONTINUOUS
 10
5.2129401138
 20
3.8952475005
 11
5.2129401138
 21
3.8927475937
  0
LINE
  5
2BF
100
AcDbEntity
  8
ALL_ASSEMBLY_MEMBERS
100
AcDbLine
 62
7
  6
CONTINUOUS
 10
5.2161902376
 20
4.5999134996
 11
5.2161902376
 21
4.5990611977
  0
LINE
  5
2C0
100
AcDbEntity
  8
ALL_ASSEMBLY_MEMBERS
100
AcDbLine
 62
7
  6
CONTINUOUS
 10
5.2161902376
 20
4.5676419167
 11
5.2161902376
 21
4.5667963188
  0
LINE
  5
2C1
100
AcDbEntity
  8
ALL_ASSEMBLY_MEMBERS
100
AcDbLine
 62
7
  6
CONTINUOUS
 10
5.2161902376
 20
4.2716912692
 11
5.2161902376
 21
4.2725435711
  0
LINE
  5
2C2
100
AcDbEntity
  8
ALL_ASSEMBLY_MEMBERS
100
AcDbLine
 62
7
  6
CONTINUOUS
 10
5.2180142447
 20
4.8557629268
 11
5.2180142447
 21
4.8553764554
  0
LINE
  5
2C3
100
AcDbEntity
  8
ALL_ASSEMBLY_MEMBERS
100
AcDbLine
 62
7
  6
CONTINUOUS
 10
5.2180142447
 20
4.8511223216
 11
5.2180142447
 21
4.8486315773
  0
LINE
  5
2C4
100
AcDbEntity
  8
ALL_ASSEMBLY_MEMBERS
100
AcDbLine
 62
7
  6
CONTINUOUS
 10
5.2180142447
 20
4.8550365864
 11
5.2180142447
 21
4.8525660903
  0
LINE
  5
2C5
100
AcDbEntity
  8
ALL_ASSEMBLY_MEMBERS
100
AcDbLine
 62
7
  6
CONTINUOUS
 10
5.2180142447
 20
4.1498238195
 11
5.2180142447
 21
4.1506740785
  0
LINE
  5
2C6
100
AcDbEntity
  8
ALL_ASSEMBLY_MEMBERS
100
AcDbLine
 62
7
  6
CONTINUOUS
 10
5.2180142447
 20
4.186157524
 11
5.2180142447
 21
4.1870018874
  0
LINE
  5
2C7
100
AcDbEntity
  8
ALL_ASSEMBLY_MEMBERS
100
AcDbLine
 62
7
  6
CONTINUOUS
 10
5.2198382519
 20
4.2053936636
 11
5.2198382519
 21
4.2062372684
  0
LINE
  5
2C8
100
AcDbEntity
  8
ALL_ASSEMBLY_MEMBERS
100
AcDbLine
 62
7
  6
CONTINUOUS
 10
5.2234862713
 20
4.855780098
 11
5.2234862713
 21
4.8553163117
  0
LINE
  5
2C9
100
AcDbEntity
  8
ALL_ASSEMBLY_MEMBERS
100
AcDbLine
 62
7
  6
CONTINUOUS
 10
5.2234862713
 20
4.8513129621
 11
5.2234862713
 21
4.8488232116
  0
LINE
  5
2CA
100
AcDbEntity
  8
ALL_ASSEMBLY_MEMBERS
100
AcDbLine
 62
7
  6
CONTINUOUS
 10
5.2234862713
 20
4.1848858026
 11
5.2234862713
 21
4.1857302715
  0
LINE
  5
2CB
100
AcDbEntity
  8
ALL_ASSEMBLY_MEMBERS
100
AcDbLine
 62
7
  6
CONTINUOUS
 10
5.2234862713
 20
4.2053936636
 11
5.2234862713
 21
4.2062372684
  0
LINE
  5
2CC
100
AcDbEntity
  8
ALL_ASSEMBLY_MEMBERS
100
AcDbLine
 62
7
  6
CONTINUOUS
 10
5.2234862713
 20
4.2367965359
 11
5.2234862713
 21
4.2442824726
  0
LINE
  5
2CD
100
AcDbEntity
  8
ALL_ASSEMBLY_MEMBERS
100
AcDbLine
 62
7
  6
CONTINUOUS
 10
5.2289582928
 20
4.8546941362
 11
5.2289582928
 21
4.8526940354
  0
LINE
  5
2CE
100
AcDbEntity
  8
ALL_ASSEMBLY_MEMBERS
100
AcDbLine
 62
7
  6
CONTINUOUS
 10
5.2289582928
 20
4.1547677305
 11
5.2289582928
 21
4.1556168209
  0
LINE
  5
2CF
100
AcDbEntity
  8
ALL_ASSEMBLY_MEMBERS
100
AcDbLine
 62
7
  6
CONTINUOUS
 10
5.2289582928
 20
4.2079811731
 11
5.2289582928
 21
4.208824793
  0
LINE
  5
2D0
100
AcDbEntity
  8
ALL_ASSEMBLY_MEMBERS
100
AcDbLine
 62
7
  6
CONTINUOUS
 10
5.2307822999
 20
4.8558027341
 11
5.2307822999
 21
4.8551842826
  0
LINE
  5
2D1
100
AcDbEntity
  8
ALL_ASSEMBLY_MEMBERS
100
AcDbLine
 62
7
  6
CONTINUOUS
 10
5.2307822999
 20
4.8516822136
 11
5.2307822999
 21
4.8491943859
  0
LINE
  5
2D2
100
AcDbEntity
  8
ALL_ASSEMBLY_MEMBERS
100
AcDbLine
 62
7
  6
CONTINUOUS
 10
5.2307822999
 20
4.1823463831
 11
5.2307822999
 21
4.1831910834
  0
LINE
  5
2D3
100
AcDbEntity
  8
ALL_ASSEMBLY_MEMBERS
100
AcDbLine
 62
7
  6
CONTINUOUS
 10
5.2307822999
 20
4.242105385
 11
5.2307822999
 21
4.2429516969
  0
LINE
  5
2D4
100
AcDbEntity
  8
ALL_ASSEMBLY_MEMBERS
100
AcDbLine
 62
7
  6
CONTINUOUS
 10
5.2307822999
 20
4.2716912692
 11
5.2307822999
 21
4.2725435711
  0
LINE
  5
2D5
100
AcDbEntity
  8
ALL_ASSEMBLY_MEMBERS
100
AcDbLine
 62
7
  6
CONTINUOUS
 10
5.2326063071
 20
4.8543960554
 11
5.2326063071
 21
4.8531461918
  0
LINE
  5
2D6
100
AcDbEntity
  8
ALL_ASSEMBLY_MEMBERS
100
AcDbLine
 62
7
  6
CONTINUOUS
 10
5.2326063071
 20
3.8863097881
 11
5.2326063071
 21
3.88804349
  0
LINE
  5
2D7
100
AcDbEntity
  8
ALL_ASSEMBLY_MEMBERS
100
AcDbLine
 62
7
  6
CONTINUOUS
 10
5.2326063071
 20
4.1584899518
 11
5.2326063071
 21
4.1593382417
  0
LINE
  5
2D8
100
AcDbEntity
  8
ALL_ASSEMBLY_MEMBERS
100
AcDbLine
 62
7
  6
CONTINUOUS
 10
5.2326063071
 20
4.2118724499
 11
5.2326063071
 21
4.2127161435
  0
LINE
  5
2D9
100
AcDbEntity
  8
ALL_ASSEMBLY_MEMBERS
100
AcDbLine
 62
7
  6
CONTINUOUS
 10
5.2344303142
 20
4.2183846118
 11
5.2344303142
 21
4.2236183868
  0
LINE
  5
2DA
100
AcDbEntity
  8
ALL_ASSEMBLY_MEMBERS
100
AcDbLine
 62
7
  6
CONTINUOUS
 10
5.2344303142
 20
4.4751335568
 11
5.2344303142
 21
4.5260268075
  0
LINE
  5
2DB
100
AcDbEntity
  8
ALL_ASSEMBLY_MEMBERS
100
AcDbLine
 62
7
  6
CONTINUOUS
 10
5.2362543214
 20
4.8558074258
 11
5.2362543214
 21
4.8549568594
  0
LINE
  5
2DC
100
AcDbEntity
  8
ALL_ASSEMBLY_MEMBERS
100
AcDbLine
 62
7
  6
CONTINUOUS
 10
5.2362543214
 20
4.852206079
 11
5.2362543214
 21
4.849720974
  0
LINE
  5
2DD
100
AcDbEntity
  8
ALL_ASSEMBLY_MEMBERS
100
AcDbLine
 62
7
  6
CONTINUOUS
 10
5.2362543214
 20
4.1785472984
 11
5.2362543214
 21
4.1793923978
  0
LINE
  5
2DE
100
AcDbEntity
  8
ALL_ASSEMBLY_MEMBERS
100
AcDbLine
 62
7
  6
CONTINUOUS
 10
5.2380783286
 20
4.2367965359
 11
5.2380783286
 21
4.2376421295
  0
LINE
  5
2DF
100
AcDbEntity
  8
ALL_ASSEMBLY_MEMBERS
100
AcDbLine
 62
7
  6
CONTINUOUS
 10
5.2417263429
 20
4.8557372102
 11
5.2417263429
 21
4.8544993478
  0
LINE
  5
2E0
100
AcDbEntity
  8
ALL_ASSEMBLY_MEMBERS
100
AcDbLine
 62
7
  6
CONTINUOUS
 10
5.2417263429
 20
4.8529994441
 11
5.2417263429
 21
4.8505184513
  0
LINE
  5
2E1
100
AcDbEntity
  8
ALL_ASSEMBLY_MEMBERS
100
AcDbLine
 62
7
  6
CONTINUOUS
 10
5.2417263429
 20
4.1722423251
 11
5.2417263429
 21
4.1730882284
  0
LINE
  5
2E2
100
AcDbEntity
  8
ALL_ASSEMBLY_MEMBERS
100
AcDbLine
 62
7
  6
CONTINUOUS
 10
5.2417263429
 20
4.2315091903
 11
5.2417263429
 21
4.2323541769
  0
LINE
  5
2E3
100
AcDbEntity
  8
ALL_ASSEMBLY_MEMBERS
100
AcDbLine
 62
7
  6
CONTINUOUS
 10
5.24355035
 20
4.8555241301
 11
5.24355035
 21
4.8513437484
  0
LINE
  5
2E4
100
AcDbEntity
  8
ALL_ASSEMBLY_MEMBERS
100
AcDbLine
 62
7
  6
CONTINUOUS
 10
5.24355035
 20
3.8863097921
 11
5.24355035
 21
3.8912937351
  0
LINE
  5
2E5
100
AcDbEntity
  8
ALL_ASSEMBLY_MEMBERS
100
AcDbLine
 62
7
  6
CONTINUOUS
 10
5.24355035
 20
4.2170795063
 11
5.24355035
 21
4.2223079386
  0
LINE
  5
2E6
100
AcDbEntity
  8
ALL_ASSEMBLY_MEMBERS
100
AcDbLine
 62
7
  6
CONTINUOUS
 10
5.24355035
 20
4.2554719551
 11
5.24355035
 21
4.2644073361
  0
LINE
  5
2E7
100
AcDbEntity
  8
ALL_ASSEMBLY_MEMBERS
100
AcDbLine
 62
7
  6
CONTINUOUS
 10
5.24355035
 20
4.4751335568
 11
5.24355035
 21
4.5344624576
  0
LINE
  5
2E8
100
AcDbEntity
  8
ALL_ASSEMBLY_MEMBERS
100
AcDbLine
 62
7
  6
CONTINUOUS
 10
5.24355035
 20
4.5469985891
 11
5.24355035
 21
4.5577828254
  0
LINE
  5
2E9
100
AcDbEntity
  8
ALL_ASSEMBLY_MEMBERS
100
AcDbLine
 62
7
  6
CONTINUOUS
 10
5.24355035
 20
4.5798126561
 11
5.24355035
 21
4.5903283354
  0
LINE
  5
2EA
100
AcDbEntity
  8
ALL_ASSEMBLY_MEMBERS
100
AcDbLine
 62
7
  6
CONTINUOUS
 10
5.2464046807
 20
3.8952475005
 11
5.2464046807
 21
3.8927475937
  0
LINE
  5
2EB
100
AcDbEntity
  8
ALL_ASSEMBLY_MEMBERS
100
AcDbLine
 62
7
  6
CONTINUOUS
 10
5.2464046807
 20
4.358264507
 11
5.2464046807
 21
4.3838550582
  0
LINE
  5
2EC
100
AcDbEntity
  8
ALL_ASSEMBLY_MEMBERS
100
AcDbLine
 62
7
  6
CONTINUOUS
 10
5.2464046807
 20
4.7586451381
 11
5.2464046807
 21
4.7753444507
  0
LINE
  5
2ED
100
AcDbEntity
  8
ALL_ASSEMBLY_MEMBERS
100
AcDbLine
 62
7
  6
CONTINUOUS
 10
5.2956172791
 20
3.888776318
 11
5.2956172791
 21
4.8533432472
  0
LINE
  5
2EE
100
AcDbEntity
  8
ALL_FEATURES
100
AcDbLine
 62
7
  6
CONTINUOUS
 10
5.3160467791
 20
4.8635597826
 11
5.3160467791
 21
3.8785597826
  0
LINE
  5
2EF
100
AcDbEntity
  8
ALL_ASSEMBLY_MEMBERS
100
AcDbLine
 62
7
  6
CONTINUOUS
 10
5.2464046807
 20
4.7586451381
 11
5.1578220036
 21
4.7586451381
  0
LINE
  5
2F0
100
AcDbEntity
  8
ALL_ASSEMBLY_MEMBERS
100
AcDbLine
 62
7
  6
CONTINUOUS
 10
5.2464046807
 20
4.7606663135
 11
5.1578220036
 21
4.7606663135
  0
LINE
  5
2F1
100
AcDbEntity
  8
ALL_ASSEMBLY_MEMBERS
100
AcDbLine
 62
7
  6
CONTINUOUS
 10
5.2464046807
 20
4.7753444507
 11
5.1578220036
 21
4.7753444507
  0
LINE
  5
2F2
100
AcDbEntity
  8
1_PLATE
100
AcDbLine
 62
7
  6
CONTINUOUS
 10
5.469116625
 20
5.5585597826
 11
5.469116625
 21
3.1835597826
  0
LINE
  5
2F3
100
AcDbEntity
  8
0
100
AcDbLine
 62
7
  6
CONTINUOUS
 10
5.4610565
 20
4.8635597826
 11
5.4606804986
 21
4.8635524812
  0
LINE
  5
2F4
100
AcDbEntity
  8
0
100
AcDbLine
 62
7
  6
CONTINUOUS
 10
5.460685639
 20
4.8635525987
 11
5.4610565
 21
4.8635597826
  0
LINE
  5
2F5
100
AcDbEntity
  8
ALL_ASSEMBLY_MEMBERS
100
AcDbLine
 62
7
  6
CONTINUOUS
 10
5.208894209
 20
4.8484359043
 11
5.1924781446
 21
4.8484359043
  0
LINE
  5
2F6
100
AcDbEntity
  8
ALL_ASSEMBLY_MEMBERS
100
AcDbLine
 62
7
  6
CONTINUOUS
 10
5.208894209
 20
4.8509276643
 11
5.1924781446
 21
4.8509276643
  0
LINE
  5
2F7
100
AcDbEntity
  8
ALL_ASSEMBLY_MEMBERS
100
AcDbLine
 62
7
  6
CONTINUOUS
 10
5.2070702018
 20
4.8518608327
 11
5.1943021517
 21
4.8518608327
  0
LINE
  5
2F8
100
AcDbEntity
  8
ALL_ASSEMBLY_MEMBERS
100
AcDbLine
 62
7
  6
CONTINUOUS
 10
5.2070702018
 20
4.8526422865
 11
5.1943021517
 21
4.8526422865
  0
LINE
  5
2F9
100
AcDbEntity
  8
ALL_ASSEMBLY_MEMBERS
100
AcDbLine
 62
7
  6
CONTINUOUS
 10
5.0987668854
 20
4.8533432472
 11
5.1578220036
 21
4.8533432472
  0
LINE
  5
2FA
100
AcDbEntity
  8
ALL_ASSEMBLY_MEMBERS
100
AcDbLine
 62
7
  6
CONTINUOUS
 10
5.24355035
 20
4.8533432472
 11
5.2956172791
 21
4.8533432472
  0
LINE
  5
2FB
100
AcDbEntity
  8
ALL_ASSEMBLY_MEMBERS
100
AcDbLine
 62
7
  6
CONTINUOUS
 10
5.2070702018
 20
4.8551123937
 11
5.1943021517
 21
4.8551123937
  0
LINE
  5
2FC
100
AcDbEntity
  8
ALL_ASSEMBLY_MEMBERS
100
AcDbLine
 62
7
  6
CONTINUOUS
 10
5.208894209
 20
4.8554326869
 11
5.1924781446
 21
4.8554326869
  0
LINE
  5
2FD
100
AcDbEntity
  8
ALL_ASSEMBLY_MEMBERS
100
AcDbLine
 62
7
  6
CONTINUOUS
 10
5.208894209
 20
4.8557418531
 11
5.1924781446
 21
4.8557418531
  0
LINE
  5
2FE
100
AcDbEntity
  8
ALL_ASSEMBLY_MEMBERS
100
AcDbLine
 62
7
  6
CONTINUOUS
 10
5.0987668854
 20
4.8560597826
 11
4.8582668854
 21
4.8560597826
  0
LINE
  5
2FF
100
AcDbEntity
  8
ALL_ASSEMBLY_MEMBERS
100
AcDbLine
 62
7
  6
CONTINUOUS
 10
4.6832668854
 20
4.8560597826
 11
4.6713029601
 21
4.8560597826
  0
LINE
  5
300
100
AcDbEntity
  8
0
100
AcDbLine
 62
7
  6
CONTINUOUS
 10
5.4510467791
 20
4.8634582598
 11
5.3710467791
 21
4.8634582598
  0
LINE
  5
301
100
AcDbEntity
  8
ALL_FEATURES
100
AcDbLine
 62
7
  6
CONTINUOUS
 10
5.3160467791
 20
4.8635597826
 11
5.3610467791
 21
4.8635597826
  0
LINE
  5
302
100
AcDbEntity
  8
ALL_FEATURES
100
AcDbLine
 62
7
  6
CONTINUOUS
 10
5.4610467791
 20
4.8635597826
 11
5.469116625
 21
4.8635597826
  0
LINE
  5
303
100
AcDbEntity
  8
0
100
AcDbLine
 62
7
  6
CONTINUOUS
 10
5.3610370634
 20
4.8635597826
 11
5.3614067257
 21
4.8635526219
  0
LINE
  5
304
100
AcDbEntity
  8
0
100
AcDbLine
 62
7
  6
CONTINUOUS
 10
5.3614123485
 20
4.8635524984
 11
5.3610370613
 21
4.8635597826
  0
LINE
  5
305
100
AcDbEntity
  8
1_PLATE
100
AcDbLine
 62
7
  6
CONTINUOUS
 10
5.5003502342
 20
5.865365322
 11
5.5003502342
 21
2.8750597826
  0
LINE
  5
306
100
AcDbEntity
  8
1_PLATE
100
AcDbLine
 62
7
  6
CONTINUOUS
 10
5.5316142027
 20
2.7923957751
 11
5.5316142027
 21
5.9497237901
  0
LINE
  5
307
100
AcDbEntity
  8
1_PLATE
100
AcDbLine
 62
7
  6
CONTINUOUS
 10
5.5467667791
 20
6.1210597826
 11
5.5467667791
 21
2.6210597826
  0
LINE
  5
308
100
AcDbEntity
  8
ALL_FEATURES
100
AcDbLine
 62
7
  6
CONTINUOUS
 10
4.7057668854
 20
4.9668430507
 11
4.8357668854
 21
4.9668430507
  0
LINE
  5
309
100
AcDbEntity
  8
ALL_FEATURES
100
AcDbLine
 62
7
  6
CONTINUOUS
 10
4.81531234
 20
4.995283942
 11
4.7262214309
 21
4.995283942
  0
LINE
  5
30A
100
AcDbEntity
  8
1_PLATE
100
AcDbLine
 62
7
  6
CONTINUOUS
 10
5.6717667791
 20
2.4960597826
 11
5.6717667791
 21
6.2460597826
  0
LINE
  5
30B
100
AcDbEntity
  8
1_PLATE
100
AcDbLine
 62
7
  6
CONTINUOUS
 10
5.7472667791
 20
2.4960626333
 11
5.7472667791
 21
6.2460569319
  0
LINE
  5
30C
100
AcDbEntity
  8
1_PLATE
100
AcDbLine
 62
7
  6
CONTINUOUS
 10
5.6717667791
 20
6.2460597826
 11
5.7472667791
 21
6.2460597826
  0
ARC
  5
30D
100
AcDbEntity
  8
ALL_ASSEMBLY_MEMBERS
100
AcDbCircle
 62
7
  6
CONTINUOUS
 10
4.5841018932
 20
4.3710597826
 40
0.7753350077
100
AcDbArc
 50
165.2369687319
 51
194.7630312681
  0
ARC
  5
30E
100
AcDbEntity
  8
0
100
AcDbCircle
 62
7
  6
CONTINUOUS
 10
5.4510462918
 20
5.3559691673
 40
0.4925109075
100
AcDbArc
 50
270.000056693
 51
271.1214557203
  0
ARC
  5
30F
100
AcDbEntity
  8
0
100
AcDbCircle
 62
7
  6
CONTINUOUS
 10
5.3710401104
 20
5.3552388177
 40
0.4917805579
100
AcDbArc
 50
268.8775733666
 51
270.0007769503
  0
ARC
  5
310
100
AcDbEntity
  8
ALL_ASSEMBLY_MEMBERS
100
AcDbCircle
 62
7
  6
CONTINUOUS
 10
4.6713029601
 20
4.6545597826
 40
0.2015
100
AcDbArc
 50
90.0
 51
168.6164589941
  0
ARC
  5
311
100
AcDbEntity
  8
ALL_ASSEMBLY_MEMBERS
100
AcDbCircle
 62
7
  6
CONTINUOUS
 10
4.6713029601
 20
4.0875597826
 40
0.2015
100
AcDbArc
 50
191.3835410059
 51
270.0
  0
ARC
  5
312
100
AcDbEntity
  8
1_PLATE
100
AcDbCircle
 62
7
  6
CONTINUOUS
 10
5.6567667791
 20
3.1835597826
 40
0.1876501541
100
AcDbArc
 50
180.0
 51
213.4957955632
  0
ARC
  5
313
100
AcDbEntity
  8
1_PLATE
100
AcDbCircle
 62
7
  6
CONTINUOUS
 10
5.6567667791
 20
5.5585597826
 40
0.1876501541
100
AcDbArc
 50
146.5042044368
 51
180.0
  0
ARC
  5
314
100
AcDbEntity
  8
ALL_ASSEMBLY_MEMBERS
100
AcDbCircle
 62
7
  6
CONTINUOUS
 10
4.3205906489
 20
4.7251709521
 40
0.15625
100
AcDbArc
 50
288.8599610433
 51
348.6164589941
  0
ARC
  5
315
100
AcDbEntity
  8
ALL_ASSEMBLY_MEMBERS
100
AcDbCircle
 62
7
  6
CONTINUOUS
 10
4.3205906489
 20
4.0169486131
 40
0.15625
100
AcDbArc
 50
11.3835410059
 51
71.1400389567
  0
ARC
  5
316
100
AcDbEntity
  8
ALL_FEATURES
100
AcDbCircle
 62
7
  6
CONTINUOUS
 10
4.7707668854
 20
4.8625597826
 40
0.14
100
AcDbArc
 50
71.446995465
 51
108.553004535
  0
ARC
  5
317
100
AcDbEntity
  8
1_PLATE
100
AcDbCircle
 62
7
  6
CONTINUOUS
 10
5.4377667791
 20
2.7095597826
 40
0.1251764377
100
AcDbArc
 50
29.3590794693
 51
41.4337707006
  0
ARC
  5
318
100
AcDbEntity
  8
1_PLATE
100
AcDbCircle
 62
7
  6
CONTINUOUS
 10
5.4377667791
 20
6.0325597826
 40
0.1251764377
100
AcDbArc
 50
318.5662292994
 51
330.6409205307
  0
ARC
  5
319
100
AcDbEntity
  8
ALL_ASSEMBLY_MEMBERS
100
AcDbCircle
 62
7
  6
CONTINUOUS
 10
3.9737668854
 20
3.6460597826
 40
0.125
100
AcDbArc
 50
193.685355721
 51
346.314644279
  0
ARC
  5
31A
100
AcDbEntity
  8
1_PLATE
100
AcDbCircle
 62
7
  6
CONTINUOUS
 10
5.6717667791
 20
2.6210597826
 40
0.125
100
AcDbArc
 50
180.0
 51
270.0
  0
ARC
  5
31B
100
AcDbEntity
  8
1_PLATE
100
AcDbCircle
 62
7
  6
CONTINUOUS
 10
5.6717667791
 20
6.1210597826
 40
0.125
100
AcDbArc
 50
90.0
 51
180.0
  0
ARC
  5
31C
100
AcDbEntity
  8
1_PLATE
100
AcDbCircle
 62
7
  6
CONTINUOUS
 10
5.6252667791
 20
2.8750597826
 40
0.124916545
100
AcDbArc
 50
180.0
 51
221.4337707006
  0
ARC
  5
31D
100
AcDbEntity
  8
1_PLATE
100
AcDbCircle
 62
7
  6
CONTINUOUS
 10
5.6252667791
 20
5.8670597826
 40
0.124916545
100
AcDbArc
 50
138.5662292994
 51
180.0
  0
ARC
  5
31E
100
AcDbEntity
  8
ALL_ASSEMBLY_MEMBERS
100
AcDbCircle
 62
7
  6
CONTINUOUS
 10
4.2755577589
 20
4.3031669246
 40
0.0794618075
100
AcDbArc
 50
266.9045685731
 51
273.0482464954
  0
ARC
  5
31F
100
AcDbEntity
  8
ALL_ASSEMBLY_MEMBERS
100
AcDbCircle
 62
7
  6
CONTINUOUS
 10
4.2712852952
 20
4.1883799483
 40
0.074069271
100
AcDbArc
 50
92.8290945445
 51
93.8569945787
  0
ARC
  5
320
100
AcDbEntity
  8
ALL_ASSEMBLY_MEMBERS
100
AcDbCircle
 62
7
  6
CONTINUOUS
 10
4.2712572544
 20
4.1885087676
 40
0.0739401702
100
AcDbArc
 50
83.4638339681
 51
89.992536935
  0
ARC
  5
321
100
AcDbEntity
  8
ALL_ASSEMBLY_MEMBERS
100
AcDbCircle
 62
7
  6
CONTINUOUS
 10
4.2712690751
 20
4.1888053222
 40
0.073643615
100
AcDbArc
 50
90.0017035727
 51
92.8328249657
  0
ARC
  5
322
100
AcDbEntity
  8
ALL_ASSEMBLY_MEMBERS
100
AcDbCircle
 62
7
  6
CONTINUOUS
 10
4.2711093149
 20
4.1900532033
 40
0.0723879957
100
AcDbArc
 50
93.8071074012
 51
105.6412354311
  0
ARC
  5
323
100
AcDbEntity
  8
ALL_ASSEMBLY_MEMBERS
100
AcDbCircle
 62
7
  6
CONTINUOUS
 10
4.2816777795
 20
4.2120719532
 40
0.0479650665
100
AcDbArc
 50
54.7439522504
 51
57.5232965813
  0
ARC
  5
324
100
AcDbEntity
  8
ALL_ASSEMBLY_MEMBERS
100
AcDbCircle
 62
7
  6
CONTINUOUS
 10
5.2296722868
 20
3.9370884203
 40
0.0454241773
100
AcDbArc
 50
270.0001392816
 51
270.9972673084
  0
ARC
  5
325
100
AcDbEntity
  8
ALL_ASSEMBLY_MEMBERS
100
AcDbCircle
 62
7
  6
CONTINUOUS
 10
4.3817668854
 20
4.5460815036
 40
0.033
100
AcDbArc
 50
108.8599610433
 51
180.0
  0
ARC
  5
326
100
AcDbEntity
  8
ALL_ASSEMBLY_MEMBERS
100
AcDbCircle
 62
7
  6
CONTINUOUS
 10
4.3817668854
 20
4.1960380616
 40
0.033
100
AcDbArc
 50
180.0
 51
251.1400389567
  0
ARC
  5
327
100
AcDbEntity
  8
ALL_FEATURES
100
AcDbCircle
 62
7
  6
CONTINUOUS
 10
4.7357668854
 20
4.9668430507
 40
0.03
100
AcDbArc
 50
108.553004535
 51
180.0
  0
ARC
  5
328
100
AcDbEntity
  8
ALL_FEATURES
100
AcDbCircle
 62
7
  6
CONTINUOUS
 10
4.8057668854
 20
4.9668430507
 40
0.03
100
AcDbArc
 50
0.0
 51
71.446995465
  0
ARC
  5
329
100
AcDbEntity
  8
ALL_ASSEMBLY_MEMBERS
100
AcDbCircle
 62
7
  6
CONTINUOUS
 10
4.2835179125
 20
4.2506811818
 40
0.0226244745
100
AcDbArc
 50
303.1317531744
 51
305.2585488323
  0
ARC
  5
32A
100
AcDbEntity
  8
ALL_ASSEMBLY_MEMBERS
100
AcDbCircle
 62
7
  6
CONTINUOUS
 10
4.2567348833
 20
4.2432752359
 40
0.0193459696
100
AcDbArc
 50
136.7324758754
 51
137.4052639752
  0
ARC
  5
32B
100
AcDbEntity
  8
ALL_ASSEMBLY_MEMBERS
100
AcDbCircle
 62
7
  6
CONTINUOUS
 10
3.8488670589
 20
4.5648097826
 40
0.015
100
AcDbArc
 50
90.3827710258
 51
165.2369687319
  0
ARC
  5
32C
100
AcDbEntity
  8
ALL_ASSEMBLY_MEMBERS
100
AcDbCircle
 62
7
  6
CONTINUOUS
 10
3.8488670589
 20
4.1773097826
 40
0.015
100
AcDbArc
 50
194.7630312681
 51
269.6172289742
  0
ARC
  5
32D
100
AcDbEntity
  8
ALL_ASSEMBLY_MEMBERS
100
AcDbCircle
 62
7
  6
CONTINUOUS
 10
4.3044218286
 20
4.2451781558
 40
0.0093128781
100
AcDbArc
 50
340.489490284
 51
347.610839546
  0
SPLINE
  5
32E
100
AcDbEntity
  8
ALL_ASSEMBLY_MEMBERS
100
AcDbSpline
 62
7
  6
CONTINUOUS
 70
0
 71
3
 72
11
 73
7
 74
0
 42
0.0000001
 43
0.0000001
 44
0.0000000001
 40
0.0
 40
0.0
 40
0.0
 40
0.0
 40
0.2658286464
 40
0.5210557316
 40
0.7656932114
 40
1.0
 40
1.0
 40
1.0
 40
1.0
 10
4.2404126665
 20
4.2368974097
 30
0.0
 10
4.2398191397
 20
4.2372838826
 30
0.0
 10
4.2386772095
 20
4.2380751451
 30
0.0
 10
4.2370765129
 20
4.2393423211
 30
0.0
 10
4.2356298085
 20
4.2406612993
 30
0.0
 10
4.2347537203
 20
4.2415913307
 30
0.0
 10
4.2343453707
 20
4.2420635299
 30
0.0
  0
SPLINE
  5
32F
100
AcDbEntity
  8
ALL_ASSEMBLY_MEMBERS
100
AcDbSpline
 62
7
  6
CONTINUOUS
 70
0
 71
3
 72
38
 73
34
 74
0
 42
0.0000001
 43
0.0000001
 44
0.0000000001
 40
0.0
 40
0.0
 40
0.0
 40
0.0
 40
0.0411983816
 40
0.0814475463
 40
0.1207036745
 40
0.158930561
 40
0.1960998191
 40
0.232189719
 40
0.2671891884
 40
0.3010976693
 40
0.3339244455
 40
0.3656930687
 40
0.3964406001
 40
0.4262178355
 40
0.4550931863
 40
0.4831509907
 40
0.5104919235
 40
0.5372345361
 40
0.5635118623
 40
0.5894700848
 40
0.6152656169
 40
0.6410602827
 40
0.667017618
 40
0.6932967859
 40
0.7200497034
 40
0.7474168524
 40
0.7755226849
 40
0.8044773216
 40
0.834373303
 40
0.8652850472
 40
0.8972725738
 40
0.9303765873
 40
1.0
 40
1.0
 40
1.0
 40
1.0
 10
4.2515980773
 20
4.2597456734
 30
0.0
 10
4.2511438082
 20
4.2595574194
 30
0.0
 10
4.2502517606
 20
4.2591704804
 30
0.0
 10
4.2489505536
 20
4.2585513885
 30
0.0
 10
4.2477043983
 20
4.2579012496
 30
0.0
 10
4.2465163623
 20
4.2572213697
 30
0.0
 10
4.2453893105
 20
4.2565132112
 30
0.0
 10
4.2443261052
 20
4.2557781109
 30
0.0
 10
4.2433294024
 20
4.2550176011
 30
0.0
 10
4.2424016606
 20
4.2542333327
 30
0.0
 10
4.2415453543
 20
4.2534268205
 30
0.0
 10
4.2407626787
 20
4.2525998067
 30
0.0
 10
4.2400556471
 20
4.2517540856
 30
0.0
 10
4.239426326
 20
4.2508913401
 30
0.0
 10
4.2388763998
 20
4.250013506
 30
0.0
 10
4.2384074243
 20
4.2491225149
 30
0.0
 10
4.2380210267
 20
4.2482202596
 30
0.0
 10
4.2377183214
 20
4.2473088744
 30
0.0
 10
4.2375003543
 20
4.2463904707
 30
0.0
 10
4.2373681727
 20
4.2454672196
 30
0.0
 10
4.2373221781
 20
4.2445414298
 30
0.0
 10
4.2373627678
 20
4.2436153849
 30
0.0
 10
4.2374901672
 20
4.2426914429
 30
0.0
 10
4.2377039636
 20
4.2417718959
 30
0.0
 10
4.2380038354
 20
4.2408590454
 30
0.0
 10
4.2383891391
 20
4.2399551807
 30
0.0
 10
4.2388587766
 20
4.2390624163
 30
0.0
 10
4.2394117739
 20
4.2381829789
 30
0.0
 10
4.240046769
 20
4.2373189695
 30
0.0
 10
4.240762132
 20
4.2364723753
 30
0.0
 10
4.2415563115
 20
4.2356453205
 30
0.0
 10
4.2427372122
 20
4.2345530411
 30
0.0
 10
4.2437065007
 20
4.2337973168
 30
0.0
 10
4.2443850143
 20
4.2333175384
 30
0.0
  0
SPLINE
  5
330
100
AcDbEntity
  8
ALL_ASSEMBLY_MEMBERS
100
AcDbSpline
 62
7
  6
CONTINUOUS
 70
0
 71
3
 72
21
 73
17
 74
0
 42
0.0000001
 43
0.0000001
 44
0.0000000001
 40
0.0
 40
0.0
 40
0.0
 40
0.0
 40
0.0697308383
 40
0.1393243434
 40
0.2771865865
 40
0.4120853488
 40
0.4780180745
 40
0.5427142836
 40
0.6060179606
 40
0.6677893778
 40
0.7278972869
 40
0.7862254717
 40
0.8426740382
 40
0.8971565679
 40
0.9496121506
 40
1.0
 40
1.0
 40
1.0
 40
1.0
 10
4.2712668854
 20
4.225655972
 30
0.0
 10
4.2706504919
 20
4.225655972
 30
0.0
 10
4.2694188294
 20
4.2256743971
 30
0.0
 10
4.2669707819
 20
4.2257841147
 30
0.0
 10
4.2639547173
 20
4.2260556478
 30
0.0
 10
4.260993067
 20
4.2265087686
 30
0.0
 10
4.2586929502
 20
4.2269782429
 30
0.0
 10
4.2570255627
 20
4.2273780234
 30
0.0
 10
4.2554088458
 20
4.2278268774
 30
0.0
 10
4.2538484832
 20
4.2283230144
 30
0.0
 10
4.2523500239
 20
4.2288647913
 30
0.0
 10
4.2509187797
 20
4.2294503111
 30
0.0
 10
4.2495597625
 20
4.2300773536
 30
0.0
 10
4.2482778522
 20
4.2307439363
 30
0.0
 10
4.247077574
 20
4.2314475333
 30
0.0
 10
4.2463191648
 20
4.2319498797
 30
0.0
 10
4.2459554952
 20
4.2322070442
 30
0.0
  0
SPLINE
  5
331
100
AcDbEntity
  8
ALL_ASSEMBLY_MEMBERS
100
AcDbSpline
 62
7
  6
CONTINUOUS
 70
0
 71
3
 72
21
 73
17
 74
0
 42
0.0000001
 43
0.0000001
 44
0.0000000001
 40
0.0
 40
0.0
 40
0.0
 40
0.0
 40
0.0512381848
 40
0.1044250032
 40
0.1595137161
 40
0.2164352173
 40
0.2751033436
 40
0.3354211718
 40
0.3972751437
 40
0.460542547
 40
0.5250911937
 40
0.5907747068
 40
0.7249257436
 40
0.8617983556
 40
0.9308381316
 40
1.0
 40
1.0
 40
1.0
 40
1.0
 10
4.2958836842
 20
4.2317350862
 30
0.0
 10
4.2955164925
 20
4.2314952325
 30
0.0
 10
4.2947544884
 20
4.2310270478
 30
0.0
 10
4.2935562825
 20
4.2303713075
 30
0.0
 10
4.2922849827
 20
4.2297510424
 30
0.0
 10
4.2909448343
 20
4.2291682055
 30
0.0
 10
4.28954022
 20
4.2286246194
 30
0.0
 10
4.2880756733
 20
4.2281222329
 30
0.0
 10
4.2865560248
 20
4.2276625238
 30
0.0
 10
4.2849862253
 20
4.2272470448
 30
0.0
 10
4.2833713999
 20
4.2268772562
 30
0.0
 10
4.281149956
 20
4.2264435063
 30
0.0
 10
4.2782964104
 20
4.2260250303
 30
0.0
 10
4.2753946027
 20
4.2257742378
 30
0.0
 10
4.2730419525
 20
4.2256729716
 30
0.0
 10
4.2718588964
 20
4.225655972
 30
0.0
 10
4.2712668854
 20
4.225655972
 30
0.0
  0
SPLINE
  5
332
100
AcDbEntity
  8
ALL_ASSEMBLY_MEMBERS
100
AcDbSpline
 62
7
  6
CONTINUOUS
 70
0
 71
3
 72
41
 73
37
 74
0
 42
0.0000001
 43
0.0000001
 44
0.0000000001
 40
0.0
 40
0.0
 40
0.0
 40
0.0
 40
0.0435772512
 40
0.087032409
 40
0.1301794658
 40
0.1728637099
 40
0.2149494797
 40
0.2563016289
 40
0.2967851582
 40
0.3362721018
 40
0.3746484794
 40
0.4118091565
 40
0.4476645394
 40
0.4821379769
 40
0.5151720746
 40
0.5467305404
 40
0.5767995781
 40
0.6053961315
 40
0.6325657955
 40
0.6456445495
 40
0.658401932
 40
0.6830127929
 40
0.7065750712
 40
0.7293011481
 40
0.7514436909
 40
0.773287342
 40
0.7951336257
 40
0.8172838908
 40
0.8400223739
 40
0.8636010599
 40
0.888231643
 40
0.9009998568
 40
0.9140899692
 40
0.9412836486
 40
0.9699053259
 40
1.0
 40
1.0
 40
1.0
 40
1.0
 10
4.2712668854
 20
4.256655972
 30
0.0
 10
4.2719721445
 20
4.256655972
 30
0.0
 10
4.2733808041
 20
4.2566318675
 30
0.0
 10
4.2754852712
 20
4.2565239394
 30
0.0
 10
4.2775703776
 20
4.2563444558
 30
0.0
 10
4.2796258772
 20
4.2560943474
 30
0.0
 10
4.2816423482
 20
4.2557748049
 30
0.0
 10
4.2836105972
 20
4.2553872685
 30
0.0
 10
4.2855215138
 20
4.2549336823
 30
0.0
 10
4.2873661102
 20
4.2544158983
 30
0.0
 10
4.2891358748
 20
4.2538366055
 30
0.0
 10
4.2908225606
 20
4.2531982311
 30
0.0
 10
4.2924184241
 20
4.2525039247
 30
0.0
 10
4.2939160588
 20
4.2517567643
 30
0.0
 10
4.2953085341
 20
4.2509601579
 30
0.0
 10
4.2965895026
 20
4.2501178486
 30
0.0
 10
4.2977529333
 20
4.2492333788
 30
0.0
 10
4.2987935778
 20
4.2483110305
 30
0.0
 10
4.2995639
 20
4.2475038216
 30
0.0
 10
4.3001113503
 20
4.2468429642
 30
0.0
 10
4.3006011724
 20
4.2461894551
 30
0.0
 10
4.3011321677
 20
4.245356124
 30
0.0
 10
4.3016375748
 20
4.2443231123
 30
0.0
 10
4.3020007338
 20
4.2432737262
 30
0.0
 10
4.3022190165
 20
4.2422130914
 30
0.0
 10
4.3022912766
 20
4.2411467623
 30
0.0
 10
4.3022164837
 20
4.2400804842
 30
0.0
 10
4.3019956911
 20
4.2390199961
 30
0.0
 10
4.3016300489
 20
4.2379708519
 30
0.0
 10
4.3011222142
 20
4.2369381623
 30
0.0
 10
4.3005892676
 20
4.2361051813
 30
0.0
 10
4.3000979147
 20
4.235451974
 30
0.0
 10
4.2995489082
 20
4.2347914389
 30
0.0
 10
4.2987766784
 20
4.2339846883
 30
0.0
 10
4.2977339178
 20
4.2330629915
 30
0.0
 10
4.2969759491
 20
4.232488254
 30
0.0
 10
4.2965782757
 20
4.2322070442
 30
0.0
  0
LINE
  5
333
100
AcDbEntity
  8
ALL_ASSEMBLY_MEMBERS
100
AcDbLine
 62
7
  6
CONTINUOUS
 10
4.2459554952
 20
4.2322070442
 11
4.2444413013
 21
4.2333876785
  0
SPLINE
  5
334
100
AcDbEntity
  8
ALL_ASSEMBLY_MEMBERS
100
AcDbSpline
 62
7
  6
CONTINUOUS
 70
0
 71
3
 72
38
 73
34
 74
0
 42
0.0000001
 43
0.0000001
 44
0.0000000001
 40
0.0
 40
0.0
 40
0.0
 40
0.0
 40
0.0280967383
 40
0.0548485182
 40
0.0803434138
 40
0.1047028387
 40
0.1280895771
 40
0.150703182
 40
0.1727786017
 40
0.1945777887
 40
0.2163771291
 40
0.2384529994
 40
0.2610673305
 40
0.2844550332
 40
0.3088156226
 40
0.3343118378
 40
0.3475283274
 40
0.3610713219
 40
0.3891695716
 40
0.4186649977
 40
0.4495816122
 40
0.4819180829
 40
0.5156484259
 40
0.5507303861
 40
0.5871011582
 40
0.624685842
 40
0.6633961402
 40
0.7031326507
 40
0.7437874541
 40
0.82735435
 40
0.9131230974
 40
0.9565069902
 40
1.0
 40
1.0
 40
1.0
 40
1.0
 10
4.2444193887
 20
4.2334066255
 30
0.0
 10
4.2440894653
 20
4.2336923632
 30
0.0
 10
4.2434653749
 20
4.2342739112
 30
0.0
 10
4.2426244741
 20
4.2351981837
 30
0.0
 10
4.241905538
 20
4.236148745
 30
0.0
 10
4.2413122273
 20
4.2371219527
 30
0.0
 10
4.2408472165
 20
4.238113663
 30
0.0
 10
4.2405130557
 20
4.2391197287
 30
0.0
 10
4.2403118368
 20
4.2401356353
 30
0.0
 10
4.2402445147
 20
4.2411565327
 30
0.0
 10
4.2403119844
 20
4.2421774272
 30
0.0
 10
4.24051335
 20
4.2431933262
 30
0.0
 10
4.2408476548
 20
4.2441993769
 30
0.0
 10
4.2413128117
 20
4.245191075
 30
0.0
 10
4.2419062462
 20
4.2461642368
 30
0.0
 10
4.2424983127
 20
4.2469468915
 30
0.0
 10
4.243030545
 20
4.2475600718
 30
0.0
 10
4.243616626
 20
4.2481790297
 30
0.0
 10
4.2444260659
 20
4.2489331574
 30
0.0
 10
4.2454999189
 20
4.2497935777
 30
0.0
 10
4.2466835595
 20
4.2506168242
 30
0.0
 10
4.2479719351
 20
4.251399393
 30
0.0
 10
4.2493595218
 20
4.2521382317
 30
0.0
 10
4.2508405515
 20
4.2528299771
 30
0.0
 10
4.2524086304
 20
4.2534719818
 30
0.0
 10
4.2540571723
 20
4.2540613409
 30
0.0
 10
4.2557791431
 20
4.2545956234
 30
0.0
 10
4.2575672422
 20
4.2550726147
 30
0.0
 10
4.2600520023
 20
4.2556343566
 30
0.0
 10
4.2632715473
 20
4.2561770629
 30
0.0
 10
4.2665625495
 20
4.2565022135
 30
0.0
 10
4.2692415864
 20
4.256633848
 30
0.0
 10
4.2705912601
 20
4.256655972
 30
0.0
 10
4.2712668854
 20
4.256655972
 30
0.0
  0
SPLINE
  5
335
100
AcDbEntity
  8
ALL_ASSEMBLY_MEMBERS
100
AcDbSpline
 62
7
  6
CONTINUOUS
 70
0
 71
3
 72
14
 73
10
 74
0
 42
0.0000001
 43
0.0000001
 44
0.0000000001
 40
0.0
 40
0.0
 40
0.0
 40
0.0
 40
0.1160974702
 40
0.2340747571
 40
0.3543162171
 40
0.4771691342
 40
0.6029333582
 40
0.7318691903
 40
1.0
 40
1.0
 40
1.0
 40
1.0
 10
4.239030193
 20
4.2502494218
 30
0.0
 10
4.2390955237
 20
4.2505164834
 30
0.0
 10
4.2392473051
 20
4.2510502262
 30
0.0
 10
4.2395341758
 20
4.2518394347
 30
0.0
 10
4.2398813391
 20
4.2526215899
 30
0.0
 10
4.2402881329
 20
4.253395277
 30
0.0
 10
4.2407536508
 20
4.2541593319
 30
0.0
 10
4.2414604644
 20
4.2551765614
 30
0.0
 10
4.2420634168
 20
4.2559013031
 30
0.0
 10
4.2424931684
 20
4.2563687494
 30
0.0
  0
LINE
  5
336
100
AcDbEntity
  8
ALL_ASSEMBLY_MEMBERS
100
AcDbLine
 62
7
  6
CONTINUOUS
 10
4.0356387222
 20
4.0710597822
 11
3.9737668752
 21
4.0710597822
  0
LINE
  5
337
100
AcDbEntity
  8
ALL_ASSEMBLY_MEMBERS
100
AcDbLine
 62
7
  6
CONTINUOUS
 10
3.9737668752
 20
4.0710597822
 11
3.911895034
 21
4.0710597822
  0
LINE
  5
338
100
AcDbEntity
  8
ALL_ASSEMBLY_MEMBERS
100
AcDbLine
 62
7
  6
CONTINUOUS
 10
3.911895034
 20
4.0710597822
 11
3.8862668854
 21
4.0710597823
  0
SPLINE
  5
339
100
AcDbEntity
  8
ALL_ASSEMBLY_MEMBERS
100
AcDbSpline
 62
7
  6
CONTINUOUS
 70
0
 71
3
 72
34
 73
30
 74
0
 42
0.0000001
 43
0.0000001
 44
0.0000000001
 40
0.0
 40
0.0
 40
0.0
 40
0.0
 40
0.0370063583
 40
0.0736954835
 40
0.1454513186
 40
0.2143974138
 40
0.2476613292
 40
0.2800344013
 40
0.3114863547
 40
0.3420194553
 40
0.371659096
 40
0.4004597447
 40
0.4285069402
 40
0.4559110336
 40
0.482812539
 40
0.5093723997
 40
0.5357675439
 40
0.5621836757
 40
0.588804211
 40
0.6158047139
 40
0.6433404545
 40
0.6715461721
 40
0.7302965198
 40
0.7610356904
 40
0.7926938356
 40
0.8586660537
 40
0.9279912208
 40
0.9637347504
 40
1.0
 40
1.0
 40
1.0
 40
1.0
 10
3.91596628
 20
3.6460597826
 30
0.0
 10
3.915737273
 20
3.6450223556
 30
0.0
 10
3.9152192199
 20
3.6429694227
 30
0.0
 10
3.9139546429
 20
3.6389877453
 30
0.0
 10
3.9119671395
 20
3.6342832591
 30
0.0
 10
3.9094249578
 20
3.6299640853
 30
0.0
 10
3.9071096313
 20
3.6268670164
 30
0.0
 10
3.9052735152
 20
3.6247660259
 30
0.0
 10
3.9033289456
 20
3.6228755952
 30
0.0
 10
3.901290183
 20
3.6212080989
 30
0.0
 10
3.8991709129
 20
3.6197754551
 30
0.0
 10
3.896985291
 20
3.6185887048
 30
0.0
 10
3.8947491327
 20
3.6176551791
 30
0.0
 10
3.8924773925
 20
3.616983205
 30
0.0
 10
3.8901864546
 20
3.616577592
 30
0.0
 10
3.8878926786
 20
3.6164408563
 30
0.0
 10
3.88561266
 20
3.616575938
 30
0.0
 10
3.8833630011
 20
3.6169802425
 30
0.0
 10
3.8811599724
 20
3.6176514984
 30
0.0
 10
3.8790198483
 20
3.6185849752
 30
0.0
 10
3.8769569294
 20
3.6197724465
 30
0.0
 10
3.8742950903
 20
3.6217092993
 30
0.0
 10
3.8718813366
 20
3.6241088474
 30
0.0
 10
3.8697610618
 20
3.6268693775
 30
0.0
 10
3.8677681954
 20
3.6299743118
 30
0.0
 10
3.8656778837
 20
3.634309633
 30
0.0
 10
3.8641933914
 20
3.6390068945
 30
0.0
 10
3.8633523067
 20
3.642978379
 30
0.0
 10
3.8630523398
 20
3.6450254874
 30
0.0
 10
3.8629332714
 20
3.6460597826
 30
0.0
  0
SPLINE
  5
33A
100
AcDbEntity
  8
ALL_ASSEMBLY_MEMBERS
100
AcDbSpline
 62
7
  6
CONTINUOUS
 70
0
 71
3
 72
33
 73
29
 74
0
 42
0.0000001
 43
0.0000001
 44
0.0000000001
 40
0.0
 40
0.0
 40
0.0
 40
0.0
 40
0.0623684603
 40
0.0936139832
 40
0.1248496557
 40
0.1560837769
 40
0.1873258635
 40
0.2497857752
 40
0.2810525237
 40
0.3123252304
 40
0.3436031305
 40
0.3748866523
 40
0.4061746388
 40
0.4374656718
 40
0.5
 40
0.5625343282
 40
0.5938253612
 40
0.6251133477
 40
0.6563968695
 40
0.6876747696
 40
0.7189474763
 40
0.7502142248
 40
0.8126741365
 40
0.8439162231
 40
0.8751503443
 40
0.9063860168
 40
0.9376315397
 40
1.0
 40
1.0
 40
1.0
 40
1.0
 10
4.0112668854
 20
3.6460597826
 30
0.0
 10
4.0107722839
 20
3.6439771859
 30
0.0
 10
4.0097636103
 20
3.6409058593
 30
0.0
 10
4.0079272417
 20
3.6370306495
 30
0.0
 10
4.0063086253
 20
3.6342465689
 30
0.0
 10
4.0044633037
 20
3.6316075821
 30
0.0
 10
4.0017181475
 20
3.6283087126
 30
0.0
 10
3.9985667362
 20
3.6253641663
 30
0.0
 10
3.9950865718
 20
3.6228491392
 30
0.0
 10
3.9923255268
 20
3.6211848804
 30
0.0
 10
3.9894350222
 20
3.6197565411
 30
0.0
 10
3.9864347482
 20
3.6185746386
 30
0.0
 10
3.9833460439
 20
3.6176459023
 30
0.0
 10
3.9791409864
 20
3.6167562716
 30
0.0
 10
3.9737668854
 20
3.6163059568
 30
0.0
 10
3.9683927845
 20
3.6167562716
 30
0.0
 10
3.964187727
 20
3.6176459023
 30
0.0
 10
3.9610990227
 20
3.6185746386
 30
0.0
 10
3.9580987487
 20
3.6197565411
 30
0.0
 10
3.9552082441
 20
3.6211848804
 30
0.0
 10
3.9524471991
 20
3.6228491392
 30
0.0
 10
3.9489670347
 20
3.6253641663
 30
0.0
 10
3.9458156234
 20
3.6283087126
 30
0.0
 10
3.9430704672
 20
3.6316075821
 30
0.0
 10
3.9412251456
 20
3.6342465689
 30
0.0
 10
3.9396065292
 20
3.6370306495
 30
0.0
 10
3.9377701605
 20
3.6409058593
 30
0.0
 10
3.936761487
 20
3.6439771859
 30
0.0
 10
3.9362668854
 20
3.6460597826
 30
0.0
  0
SPLINE
  5
33B
100
AcDbEntity
  8
ALL_ASSEMBLY_MEMBERS
100
AcDbSpline
 62
7
  6
CONTINUOUS
 70
0
 71
3
 72
34
 73
30
 74
0
 42
0.0000001
 43
0.0000001
 44
0.0000000001
 40
0.0
 40
0.0
 40
0.0
 40
0.0
 40
0.0362652496
 40
0.0720087792
 40
0.1413339463
 40
0.2073061644
 40
0.2389643096
 40
0.2697034802
 40
0.3284538279
 40
0.3566595455
 40
0.3841952861
 40
0.411195789
 40
0.4378163243
 40
0.4642324561
 40
0.4906276003
 40
0.517187461
 40
0.5440889664
 40
0.5714930598
 40
0.5995402553
 40
0.628340904
 40
0.6579805447
 40
0.6885136453
 40
0.7199655987
 40
0.7523386708
 40
0.7856025862
 40
0.8545486814
 40
0.9263045165
 40
0.9629936417
 40
1.0
 40
1.0
 40
1.0
 40
1.0
 10
4.0846004995
 20
3.6460597826
 30
0.0
 10
4.0844814311
 20
3.6450254874
 30
0.0
 10
4.0841814642
 20
3.642978379
 30
0.0
 10
4.0833403795
 20
3.6390068945
 30
0.0
 10
4.0818558872
 20
3.634309633
 30
0.0
 10
4.0797655755
 20
3.6299743118
 30
0.0
 10
4.0777727091
 20
3.6268693775
 30
0.0
 10
4.0756524343
 20
3.6241088474
 30
0.0
 10
4.0732386806
 20
3.6217092993
 30
0.0
 10
4.0705768415
 20
3.6197724465
 30
0.0
 10
4.0685139226
 20
3.6185849752
 30
0.0
 10
4.0663737985
 20
3.6176514984
 30
0.0
 10
4.0641707698
 20
3.6169802425
 30
0.0
 10
4.0619211109
 20
3.616575938
 30
0.0
 10
4.0596410923
 20
3.6164408563
 30
0.0
 10
4.0573473163
 20
3.616577592
 30
0.0
 10
4.0550563784
 20
3.616983205
 30
0.0
 10
4.0527846382
 20
3.6176551791
 30
0.0
 10
4.0505484799
 20
3.6185887048
 30
0.0
 10
4.048362858
 20
3.6197754551
 30
0.0
 10
4.0462435879
 20
3.6212080989
 30
0.0
 10
4.0442048253
 20
3.6228755952
 30
0.0
 10
4.0422602557
 20
3.6247660259
 30
0.0
 10
4.0404241396
 20
3.6268670164
 30
0.0
 10
4.0381088131
 20
3.6299640853
 30
0.0
 10
4.0355666314
 20
3.6342832591
 30
0.0
 10
4.033579128
 20
3.6389877453
 30
0.0
 10
4.032314551
 20
3.6429694227
 30
0.0
 10
4.0317964979
 20
3.6450223556
 30
0.0
 10
4.0315674909
 20
3.6460597826
 30
0.0
  0
LINE
  5
33C
100
AcDbEntity
  8
ALL_ASSEMBLY_MEMBERS
100
AcDbLine
 62
7
  6
CONTINUOUS
 10
4.0612668854
 20
4.0710597823
 11
4.0356387222
 21
4.0710597822
  0
SPLINE
  5
33D
100
AcDbEntity
  8
ALL_ASSEMBLY_MEMBERS
100
AcDbSpline
 62
7
  6
CONTINUOUS
 70
0
 71
3
 72
11
 73
7
 74
0
 42
0.0000001
 43
0.0000001
 44
0.0000000001
 40
0.0
 40
0.0
 40
0.0
 40
0.0
 40
0.2634490872
 40
0.5193592964
 40
0.7656604215
 40
1.0
 40
1.0
 40
1.0
 40
1.0
 10
4.251592575
 20
4.259760583
 30
0.0
 10
4.2498688826
 20
4.2592760994
 30
0.0
 10
4.24650604
 20
4.2581896873
 30
0.0
 10
4.2416915484
 20
4.2562005111
 30
0.0
 10
4.2372347153
 20
4.2539086143
 30
0.0
 10
4.2344694059
 20
4.2521588635
 30
0.0
 10
4.2331690495
 20
4.2512392975
 30
0.0
  0
SPLINE
  5
33E
100
AcDbEntity
  8
ALL_ASSEMBLY_MEMBERS
100
AcDbSpline
 62
7
  6
CONTINUOUS
 70
0
 71
3
 72
21
 73
17
 74
0
 42
0.0000001
 43
0.0000001
 44
0.0000000001
 40
0.0
 40
0.0
 40
0.0
 40
0.0
 40
0.0398895309
 40
0.1502487459
 40
0.225782687
 40
0.3112737417
 40
0.4037853339
 40
0.451657128
 40
0.4999999004
 40
0.5483427229
 40
0.5962145554
 40
0.6887261142
 40
0.7742172331
 40
0.8497511365
 40
0.9601104304
 40
1.0
 40
1.0
 40
1.0
 40
1.0
 10
3.8830168854
 20
4.1210597826
 30
0.0
 10
3.8853363628
 20
4.121901836
 30
0.0
 10
3.8941085866
 20
4.1249806213
 30
0.0
 10
3.9074847956
 20
4.1290470486
 30
0.0
 10
3.9238192875
 20
4.1329608576
 30
0.0
 10
3.9392641561
 20
4.1357563637
 30
0.0
 10
3.9531632592
 20
4.1373273962
 30
0.0
 10
3.9648226658
 20
4.1379970137
 30
0.0
 10
3.97376687
 20
4.1381705228
 30
0.0
 10
3.9827110765
 20
4.1379970124
 30
0.0
 10
3.9943704869
 20
4.1373274003
 30
0.0
 10
4.0082695939
 20
4.1357563641
 30
0.0
 10
4.0237144629
 20
4.1329608631
 30
0.0
 10
4.040048961
 20
4.1290470518
 30
0.0
 10
4.053425175
 20
4.124980624
 30
0.0
 10
4.0621974058
 20
4.1219018367
 30
0.0
 10
4.0645168854
 20
4.1210597826
 30
0.0
  0
SPLINE
  5
33F
100
AcDbEntity
  8
ALL_ASSEMBLY_MEMBERS
100
AcDbSpline
 62
7
  6
CONTINUOUS
 70
0
 71
3
 72
23
 73
19
 74
0
 42
0.0000001
 43
0.0000001
 44
0.0000000001
 40
0.0
 40
0.0
 40
0.0
 40
0.0
 40
0.0413265735
 40
0.0828102719
 40
0.1255410624
 40
0.1705313011
 40
0.2186142068
 40
0.2703909671
 40
0.3262226844
 40
0.3863022526
 40
0.4506419874
 40
0.5191423556
 40
0.5915866697
 40
0.6676747327
 40
0.7470282539
 40
0.8291925883
 40
0.9136860267
 40
1.0
 40
1.0
 40
1.0
 40
1.0
 10
4.3134265082
 20
4.2439111113
 30
0.0
 10
4.3135280899
 20
4.2433251416
 30
0.0
 10
4.3136210757
 20
4.2421284278
 30
0.0
 10
4.3134098839
 20
4.2403234328
 30
0.0
 10
4.3128472991
 20
4.2385403017
 30
0.0
 10
4.3119417274
 20
4.2367986657
 30
0.0
 10
4.3107034928
 20
4.2351129168
 30
0.0
 10
4.3091437849
 20
4.2334965066
 30
0.0
 10
4.3072759462
 20
4.2319613615
 30
0.0
 10
4.3051136681
 20
4.2305217529
 30
0.0
 10
4.3026748375
 20
4.2291888486
 30
0.0
 10
4.2999783046
 20
4.2279759122
 30
0.0
 10
4.2970461658
 20
4.2268937747
 30
0.0
 10
4.2939023774
 20
4.2259535336
 30
0.0
 10
4.290573471
 20
4.2251649406
 30
0.0
 10
4.2870878829
 20
4.2245359903
 30
0.0
 10
4.2834753562
 20
4.2240747307
 30
0.0
 10
4.2810236052
 20
4.2238840512
 30
0.0
 10
4.279783287
 20
4.2238175468
 30
0.0
  0
SPLINE
  5
340
100
AcDbEntity
  8
ALL_ASSEMBLY_MEMBERS
100
AcDbSpline
 62
7
  6
CONTINUOUS
 70
0
 71
3
 72
9
 73
5
 74
0
 42
0.0000001
 43
0.0000001
 44
0.0000000001
 40
0.0
 40
0.0
 40
0.0
 40
0.0
 40
0.5182857791
 40
1.0
 40
1.0
 40
1.0
 40
1.0
 10
4.238296533
 20
4.2544294202
 30
0.0
 10
4.2376635395
 20
4.2537897018
 30
0.0
 10
4.2365197018
 20
4.2524747327
 30
0.0
 10
4.2355921866
 20
4.250995571
 30
0.0
 10
4.2352152649
 20
4.2502488562
 30
0.0
  0
SPLINE
  5
341
100
AcDbEntity
  8
ALL_ASSEMBLY_MEMBERS
100
AcDbSpline
 62
7
  6
CONTINUOUS
 70
0
 71
3
 72
11
 73
7
 74
0
 42
0.0000001
 43
0.0000001
 44
0.0000000001
 40
0.0
 40
0.0
 40
0.0
 40
0.0
 40
0.2586329137
 40
0.5073405591
 40
0.7522801703
 40
1.0
 40
1.0
 40
1.0
 40
1.0
 10
4.2352152649
 20
4.2502488562
 30
0.0
 10
4.2348881466
 20
4.249600806
 30
0.0
 10
4.2343473593
 20
4.2482744964
 30
0.0
 10
4.2339146792
 20
4.2461952915
 30
0.0
 10
4.2338898074
 20
4.2441018856
 30
0.0
 10
4.2341396104
 20
4.2427322037
 30
0.0
 10
4.2343250862
 20
4.2420620987
 30
0.0
  0
SPLINE
  5
342
100
AcDbEntity
  8
ALL_ASSEMBLY_MEMBERS
100
AcDbSpline
 62
7
  6
CONTINUOUS
 70
0
 71
3
 72
21
 73
17
 74
0
 42
0.0000001
 43
0.0000001
 44
0.0000000001
 40
0.0
 40
0.0
 40
0.0
 40
0.0
 40
0.0431686109
 40
0.0883082843
 40
0.1359315589
 40
0.1864051002
 40
0.2399378699
 40
0.296624471
 40
0.3564495052
 40
0.4193046195
 40
0.4850198986
 40
0.5533484281
 40
0.6966089238
 40
0.8465564544
 40
0.9230899226
 40
1.0
 40
1.0
 40
1.0
 40
1.0
 10
4.2343250862
 20
4.2420620987
 30
0.0
 10
4.2344917045
 20
4.2414601242
 30
0.0
 10
4.2349325625
 20
4.2402545978
 30
0.0
 10
4.2358710642
 20
4.2385195434
 30
0.0
 10
4.2370887116
 20
4.2368358782
 30
0.0
 10
4.2385745695
 20
4.2352158922
 30
0.0
 10
4.2403146221
 20
4.2336684249
 30
0.0
 10
4.2422955557
 20
4.2322042006
 30
0.0
 10
4.2445013962
 20
4.2308321829
 30
0.0
 10
4.2469148544
 20
4.2295605041
 30
0.0
 10
4.2495179648
 20
4.2283982527
 30
0.0
 10
4.2532735333
 20
4.2269805242
 30
0.0
 10
4.2583129111
 20
4.2255407022
 30
0.0
 10
4.2635806471
 20
4.224564654
 30
0.0
 10
4.2679409727
 20
4.2240481976
 30
0.0
 10
4.2701556975
 20
4.2238811928
 30
0.0
 10
4.2712668854
 20
4.2238210536
 30
0.0
  0
SPLINE
  5
343
100
AcDbEntity
  8
ALL_ASSEMBLY_MEMBERS
100
AcDbSpline
 62
7
  6
CONTINUOUS
 70
0
 71
3
 72
9
 73
5
 74
0
 42
0.0000001
 43
0.0000001
 44
0.0000000001
 40
0.0
 40
0.0
 40
0.0
 40
0.0
 40
0.490700992
 40
1.0
 40
1.0
 40
1.0
 40
1.0
 10
4.3074329405
 20
4.2525357555
 30
0.0
 10
4.3063240677
 20
4.2532423869
 30
0.0
 10
4.3040076708
 20
4.25459492
 30
0.0
 10
4.3016021707
 20
4.2557807796
 30
0.0
 10
4.3003588726
 20
4.2563435194
 30
0.0
  0
SPLINE
  5
344
100
AcDbEntity
  8
ALL_ASSEMBLY_MEMBERS
100
AcDbSpline
 62
7
  6
CONTINUOUS
 70
0
 71
3
 72
10
 73
6
 74
0
 42
0.0000001
 43
0.0000001
 44
0.0000000001
 40
0.0
 40
0.0
 40
0.0
 40
0.0
 40
0.2414618107
 40
0.4897640728
 40
1.0
 40
1.0
 40
1.0
 40
1.0
 10
4.3003588726
 20
4.2563435194
 30
0.0
 10
4.2987817535
 20
4.2570573528
 30
0.0
 10
4.2955207564
 20
4.258372383
 30
0.0
 10
4.2886774858
 20
4.2605254922
 30
0.0
 10
4.2833081946
 20
4.2615517459
 30
0.0
 10
4.2796738898
 20
4.2619683417
 30
0.0
  0
LINE
  5
345
100
AcDbEntity
  8
ALL_ASSEMBLY_MEMBERS
100
AcDbLine
 62
7
  6
CONTINUOUS
 10
4.3079361502
 20
4.2521094873
 11
4.3093982925
 21
4.2507444975
  0
SPLINE
  5
346
100
AcDbEntity
  8
ALL_ASSEMBLY_MEMBERS
100
AcDbSpline
 62
7
  6
CONTINUOUS
 70
0
 71
3
 72
11
 73
7
 74
0
 42
0.0000001
 43
0.0000001
 44
0.0000000001
 40
0.0
 40
0.0
 40
0.0
 40
0.0
 40
0.2715249965
 40
0.5270408228
 40
0.768873408
 40
1.0
 40
1.0
 40
1.0
 40
1.0
 10
4.3093982925
 20
4.2507444975
 30
0.0
 10
4.3099063629
 20
4.2502255371
 30
0.0
 10
4.3108418388
 20
4.2491662922
 30
0.0
 10
4.3120102781
 20
4.2474671296
 30
0.0
 10
4.3128890175
 20
4.2457209858
 30
0.0
 10
4.3132838505
 20
4.2445126319
 30
0.0
 10
4.3134265082
 20
4.2439111113
 30
0.0
  0
SPLINE
  5
347
100
AcDbEntity
  8
ALL_ASSEMBLY_MEMBERS
100
AcDbSpline
 62
7
  6
CONTINUOUS
 70
0
 71
3
 72
37
 73
33
 74
0
 42
0.0000001
 43
0.0000001
 44
0.0000000001
 40
0.0
 40
0.0
 40
0.0
 40
0.0
 40
0.0344649988
 40
0.0675400906
 40
0.0991072329
 40
0.1290678697
 40
0.1573450838
 40
0.1839101318
 40
0.2088131712
 40
0.2321926867
 40
0.2542952322
 40
0.2755040975
 40
0.2859269576
 40
0.2963059121
 40
0.3171807101
 40
0.3386537084
 40
0.3611444978
 40
0.3849740282
 40
0.4103463141
 40
0.4373699379
 40
0.4660875007
 40
0.4964804381
 40
0.5284906548
 40
0.5620452908
 40
0.5970485621
 40
0.633388191
 40
0.6709498353
 40
0.7096114005
 40
0.7492433951
 40
0.8309098614
 40
0.9149140776
 40
1.0
 40
1.0
 40
1.0
 40
1.0
 10
4.2331690495
 20
4.2512392975
 30
0.0
 10
4.2324652778
 20
4.2507416151
 30
0.0
 10
4.2311129443
 20
4.2497275316
 30
0.0
 10
4.2292237881
 20
4.2481203664
 30
0.0
 10
4.227528264
 20
4.2464672413
 30
0.0
 10
4.2260420064
 20
4.244780116
 30
0.0
 10
4.2247792672
 20
4.2430724001
 30
0.0
 10
4.2237553929
 20
4.2413564949
 30
0.0
 10
4.2229833206
 20
4.2396461569
 30
0.0
 10
4.2224733059
 20
4.2379551505
 30
0.0
 10
4.2222378176
 20
4.2362968985
 30
0.0
 10
4.2222741749
 20
4.2349460924
 30
0.0
 10
4.2224435738
 20
4.233907863
 30
0.0
 10
4.2227041585
 20
4.232897324
 30
0.0
 10
4.2232063829
 20
4.2316699297
 30
0.0
 10
4.2240706612
 20
4.2302895245
 30
0.0
 10
4.2251855841
 20
4.2290042496
 30
0.0
 10
4.226533858
 20
4.22781551
 30
0.0
 10
4.2280994445
 20
4.2267217828
 30
0.0
 10
4.2298676799
 20
4.2257222676
 30
0.0
 10
4.2318227239
 20
4.2248131868
 30
0.0
 10
4.2339496538
 20
4.2239909822
 30
0.0
 10
4.2362340789
 20
4.2232521011
 30
0.0
 10
4.2386620247
 20
4.2225923269
 30
0.0
 10
4.2412200609
 20
4.2220073002
 30
0.0
 10
4.2438951641
 20
4.2214926456
 30
0.0
 10
4.2466748374
 20
4.2210445956
 30
0.0
 10
4.2495469285
 20
4.2206592958
 30
0.0
 10
4.2535235492
 20
4.2202195042
 30
0.0
 10
4.2586436225
 20
4.2198157521
 30
0.0
 10
4.2649096895
 20
4.2195357413
 30
0.0
 10
4.2691388998
 20
4.2194748139
 30
0.0
 10
4.2712668854
 20
4.2194748139
 30
0.0
  0
SPLINE
  5
348
100
AcDbEntity
  8
ALL_ASSEMBLY_MEMBERS
100
AcDbSpline
 62
7
  6
CONTINUOUS
 70
0
 71
3
 72
37
 73
33
 74
0
 42
0.0000001
 43
0.0000001
 44
0.0000000001
 40
0.0
 40
0.0
 40
0.0
 40
0.0
 40
0.0850859231
 40
0.1690901406
 40
0.250756608
 40
0.2903886026
 40
0.3290501673
 40
0.3666118111
 40
0.4029514395
 40
0.4379547105
 40
0.4715093463
 40
0.5035195632
 40
0.533912501
 40
0.562630064
 40
0.5896536875
 40
0.6150259724
 40
0.6388555013
 40
0.6613462891
 40
0.6828192856
 40
0.7036940819
 40
0.7140730363
 40
0.7244958964
 40
0.7457047611
 40
0.7678073069
 40
0.7911868239
 40
0.8160898639
 40
0.8426549129
 40
0.8709321279
 40
0.9008927652
 40
0.9324599079
 40
0.9655350006
 40
1.0
 40
1.0
 40
1.0
 40
1.0
 10
4.2712668854
 20
4.2194748139
 30
0.0
 10
4.2733948711
 20
4.2194748139
 30
0.0
 10
4.2776240815
 20
4.2195357413
 30
0.0
 10
4.2838901486
 20
4.2198157521
 30
0.0
 10
4.2890102219
 20
4.2202195042
 30
0.0
 10
4.2929868426
 20
4.2206592958
 30
0.0
 10
4.2958589337
 20
4.2210445957
 30
0.0
 10
4.298638607
 20
4.2214926456
 30
0.0
 10
4.3013137101
 20
4.2220073002
 30
0.0
 10
4.3038717463
 20
4.2225923269
 30
0.0
 10
4.3062996921
 20
4.2232521011
 30
0.0
 10
4.3085841172
 20
4.2239909822
 30
0.0
 10
4.3107110471
 20
4.2248131868
 30
0.0
 10
4.3126660911
 20
4.2257222677
 30
0.0
 10
4.3144343265
 20
4.2267217828
 30
0.0
 10
4.3159999129
 20
4.22781551
 30
0.0
 10
4.3173481867
 20
4.2290042495
 30
0.0
 10
4.3184631095
 20
4.2302895244
 30
0.0
 10
4.3193273879
 20
4.2316699294
 30
0.0
 10
4.3198296124
 20
4.2328973236
 30
0.0
 10
4.3200901969
 20
4.2339078626
 30
0.0
 10
4.3202595958
 20
4.2349460919
 30
0.0
 10
4.3202959534
 20
4.236296898
 30
0.0
 10
4.3200604651
 20
4.23795515
 30
0.0
 10
4.3195504504
 20
4.2396461564
 30
0.0
 10
4.3187783782
 20
4.2413564946
 30
0.0
 10
4.3177545038
 20
4.2430723999
 30
0.0
 10
4.3164917646
 20
4.2447801158
 30
0.0
 10
4.315005507
 20
4.2464672412
 30
0.0
 10
4.3133099828
 20
4.2481203663
 30
0.0
 10
4.3114208267
 20
4.2497275316
 30
0.0
 10
4.3100684931
 20
4.2507416151
 30
0.0
 10
4.3093647214
 20
4.2512392975
 30
0.0
  0
SPLINE
  5
349
100
AcDbEntity
  8
ALL_ASSEMBLY_MEMBERS
100
AcDbSpline
 62
7
  6
CONTINUOUS
 70
0
 71
3
 72
21
 73
17
 74
0
 42
0.0000001
 43
0.0000001
 44
0.0000000001
 40
0.0
 40
0.0
 40
0.0
 40
0.0
 40
0.0425589662
 40
0.0870265594
 40
0.1337974823
 40
0.1831713178
 40
0.2353592259
 40
0.2905090807
 40
0.3487067621
 40
0.4099665107
 40
0.5414883071
 40
0.6116375425
 40
0.6845239868
 40
0.7599944211
 40
0.8378742792
 40
1.0
 40
1.0
 40
1.0
 40
1.0
 10
4.3131999635
 20
4.242067843
 30
0.0
 10
4.3130566593
 20
4.241661709
 30
0.0
 10
4.3127084446
 20
4.2408498431
 30
0.0
 10
4.3120283382
 20
4.2396758692
 30
0.0
 10
4.3111832513
 20
4.2385278346
 30
0.0
 10
4.3101774878
 20
4.2374106809
 30
0.0
 10
4.3090155939
 20
4.2363286758
 30
0.0
 10
4.3077019867
 20
4.2352866755
 30
0.0
 10
4.3062416964
 20
4.2342894257
 30
0.0
 10
4.3040555074
 20
4.2329940119
 30
0.0
 10
4.301649095
 20
4.2318443957
 30
0.0
 10
4.2990619266
 20
4.230830007
 30
0.0
 10
4.2969678834
 20
4.2301173677
 30
0.0
 10
4.2947703758
 20
4.2294728777
 30
0.0
 10
4.2916725774
 20
4.2286986828
 30
0.0
 10
4.2892834698
 20
4.2282460341
 30
0.0
 10
4.2876620444
 20
4.2279957463
 30
0.0
  0
SPLINE
  5
34A
100
AcDbEntity
  8
ALL_ASSEMBLY_MEMBERS
100
AcDbSpline
 62
7
  6
CONTINUOUS
 70
0
 71
3
 72
9
 73
5
 74
0
 42
0.0000001
 43
0.0000001
 44
0.0000000001
 40
0.0
 40
0.0
 40
0.0
 40
0.0
 40
0.5209321741
 40
1.0
 40
1.0
 40
1.0
 40
1.0
 10
4.2436950432
 20
4.23381096
 30
0.0
 10
4.2421862222
 20
4.2345558387
 30
0.0
 10
4.2393608249
 20
4.2361368267
 30
0.0
 10
4.2367523881
 20
4.2380627673
 30
0.0
 10
4.2355845516
 20
4.2390780233
 30
0.0
  0
SPLINE
  5
34B
100
AcDbEntity
  8
ALL_ASSEMBLY_MEMBERS
100
AcDbSpline
 62
7
  6
CONTINUOUS
 70
0
 71
3
 72
20
 73
16
 74
0
 42
0.0000001
 43
0.0000001
 44
0.0000000001
 40
0.0
 40
0.0
 40
0.0
 40
0.0
 40
0.0161728331
 40
0.0258036186
 40
0.0369209756
 40
0.0643334836
 40
0.0992315881
 40
0.1417947005
 40
0.1919721843
 40
0.2494665808
 40
0.313814204
 40
0.4610154349
 40
0.6286948361
 40
0.8109417894
 40
1.0
 40
1.0
 40
1.0
 40
1.0
 10
5.2365618907
 20
3.892747611
 30
0.0
 10
5.2365618891
 20
3.8927861633
 30
0.0
 10
5.2365410036
 20
3.8928479386
 30
0.0
 10
5.2364876275
 20
3.8929180024
 30
0.0
 10
5.2364040543
 20
3.892997455
 30
0.0
 10
5.236255524
 20
3.8930922636
 30
0.0
 10
5.2360283807
 20
3.8931974315
 30
0.0
 10
5.2357414382
 20
3.8932996689
 30
0.0
 10
5.2353968393
 20
3.8933977563
 30
0.0
 10
5.2349973068
 20
3.8934906445
 30
0.0
 10
5.2343673676
 20
3.8936116649
 30
0.0
 10
5.2334717286
 20
3.8937381359
 30
0.0
 10
5.2322915434
 20
3.8938487651
 30
0.0
 10
5.2310082476
 20
3.8939171763
 30
0.0
 10
5.2301230684
 20
3.8939328822
 30
0.0
 10
5.2296723973
 20
3.8939328822
 30
0.0
  0
SPLINE
  5
34C
100
AcDbEntity
  8
ALL_ASSEMBLY_MEMBERS
100
AcDbSpline
 62
7
  6
CONTINUOUS
 70
0
 71
3
 72
23
 73
19
 74
0
 42
0.0000001
 43
0.0000001
 44
0.0000000001
 40
0.0
 40
0.0
 40
0.0
 40
0.0
 40
0.0078034152
 40
0.0161641464
 40
0.0256081261
 40
0.0365034451
 40
0.0490751587
 40
0.0634558353
 40
0.0979038589
 40
0.1401458142
 40
0.1900907423
 40
0.247437934
 40
0.3118120388
 40
0.3826710245
 40
0.459367591
 40
0.6275128975
 40
0.8101911166
 40
1.0
 40
1.0
 40
1.0
 40
1.0
 10
5.2464044576
 20
3.8927476344
 30
0.0
 10
5.2464044594
 20
3.8927026774
 30
0.0
 10
5.2463901219
 20
3.8926090406
 30
0.0
 10
5.2463269855
 20
3.8924739776
 30
0.0
 10
5.2462241709
 20
3.8923430833
 30
0.0
 10
5.2460826695
 20
3.892215866
 30
0.0
 10
5.2459029424
 20
3.8920916303
 30
0.0
 10
5.2455935007
 20
3.8919193859
 30
0.0
 10
5.2451073757
 20
3.8917181026
 30
0.0
 10
5.2444100995
 20
3.8915017212
 30
0.0
 10
5.2435721345
 20
3.891299699
 30
0.0
 10
5.2426006224
 20
3.8911131724
 30
0.0
 10
5.2415039103
 20
3.8909439371
 30
0.0
 10
5.2402922019
 20
3.8907927414
 30
0.0
 10
5.2384823911
 20
3.8906106202
 30
0.0
 10
5.2360247019
 20
3.890439806
 30
0.0
 10
5.2329120106
 20
3.8903189648
 30
0.0
 10
5.2307659234
 20
3.8902920777
 30
0.0
 10
5.2296723973
 20
3.8902920777
 30
0.0
  0
SPLINE
  5
34D
100
AcDbEntity
  8
ALL_ASSEMBLY_MEMBERS
100
AcDbSpline
 62
7
  6
CONTINUOUS
 70
0
 71
3
 72
20
 73
16
 74
0
 42
0.0000001
 43
0.0000001
 44
0.0000000001
 40
0.0
 40
0.0
 40
0.0
 40
0.0
 40
0.189057575
 40
0.3713042276
 40
0.5389848736
 40
0.6861864316
 40
0.7505333508
 40
0.8080268943
 40
0.8582038084
 40
0.9007670648
 40
0.9356657355
 40
0.9630788201
 40
0.9741963456
 40
0.9838271894
 40
1.0
 40
1.0
 40
1.0
 40
1.0
 10
5.2296723973
 20
3.8939328822
 30
0.0
 10
5.2292217277
 20
3.8939328822
 30
0.0
 10
5.2283365506
 20
3.8939171772
 30
0.0
 10
5.2270532541
 20
3.8938487652
 30
0.0
 10
5.2258730661
 20
3.8937381345
 30
0.0
 10
5.2249774247
 20
3.8936116654
 30
0.0
 10
5.2243474883
 20
3.8934906461
 30
0.0
 10
5.2239479607
 20
3.8933977588
 30
0.0
 10
5.2236033651
 20
3.8932996711
 30
0.0
 10
5.2233164224
 20
3.8931974332
 30
0.0
 10
5.2230892761
 20
3.8930922648
 30
0.0
 10
5.2229407423
 20
3.8929974559
 30
0.0
 10
5.2228571668
 20
3.8929180028
 30
0.0
 10
5.2228037901
 20
3.8928479389
 30
0.0
 10
5.2227829049
 20
3.8927861632
 30
0.0
 10
5.2227829037
 20
3.892747611
 30
0.0
  0
SPLINE
  5
34E
100
AcDbEntity
  8
ALL_ASSEMBLY_MEMBERS
100
AcDbSpline
 62
7
  6
CONTINUOUS
 70
0
 71
3
 72
23
 73
19
 74
0
 42
0.0000001
 43
0.0000001
 44
0.0000000001
 40
0.0
 40
0.0
 40
0.0
 40
0.0
 40
0.1898090382
 40
0.3724871401
 40
0.5406320978
 40
0.6173287805
 40
0.6881879839
 40
0.752562232
 40
0.8099093563
 40
0.859854115
 40
0.9020959549
 40
0.9365440101
 40
0.9509247321
 40
0.9634964936
 40
0.9743918508
 40
0.9838358491
 40
0.9921965845
 40
1.0
 40
1.0
 40
1.0
 40
1.0
 10
5.2296723973
 20
3.8902920777
 30
0.0
 10
5.2285788702
 20
3.8902920777
 30
0.0
 10
5.2264327828
 20
3.8903189651
 30
0.0
 10
5.2233200933
 20
3.8904398056
 30
0.0
 10
5.2208624062
 20
3.8906106199
 30
0.0
 10
5.2190525955
 20
3.8907927416
 30
0.0
 10
5.2178408843
 20
3.8909439376
 30
0.0
 10
5.2167441704
 20
3.8911131725
 30
0.0
 10
5.2157726589
 20
3.8912996986
 30
0.0
 10
5.2149346959
 20
3.8915017204
 30
0.0
 10
5.2142374213
 20
3.8917181021
 30
0.0
 10
5.2137512965
 20
3.8919193854
 30
0.0
 10
5.213441854
 20
3.8920916298
 30
0.0
 10
5.213262126
 20
3.8922158656
 30
0.0
 10
5.213120624
 20
3.8923430829
 30
0.0
 10
5.2130178089
 20
3.8924739774
 30
0.0
 10
5.2129546724
 20
3.8926090406
 30
0.0
 10
5.2129403351
 20
3.8927026774
 30
0.0
 10
5.212940337
 20
3.8927476344
 30
0.0
  0
LINE
  5
34F
100
AcDbEntity
  8
ALL_ASSEMBLY_MEMBERS
100
AcDbLine
 62
7
  6
CONTINUOUS
 10
5.2296723973
 20
3.8958045086
 11
5.2372826687
 21
3.8954403594
  0
SPLINE
  5
350
100
AcDbEntity
  8
ALL_ASSEMBLY_MEMBERS
100
AcDbSpline
 62
7
  6
CONTINUOUS
 70
0
 71
3
 72
19
 73
15
 74
0
 42
0.0000001
 43
0.0000001
 44
0.0000000001
 40
0.0
 40
0.0
 40
0.0
 40
0.0
 40
0.20355588
 40
0.388916636
 40
0.5529760947
 40
0.6930837406
 40
0.7535900277
 40
0.8074763989
 40
0.8546516999
 40
0.8951680966
 40
0.9292150896
 40
0.95723513
 40
0.9801956094
 40
1.0
 40
1.0
 40
1.0
 40
1.0
 10
5.2372826687
 20
3.8954403594
 30
0.0
 10
5.2379435188
 20
3.8953739221
 30
0.0
 10
5.2392042929
 20
3.8952272172
 30
0.0
 10
5.2409881141
 20
3.8949529508
 30
0.0
 10
5.2425553788
 20
3.8946420433
 30
0.0
 10
5.2437090942
 20
3.8943468512
 30
0.0
 10
5.2445001006
 20
3.8940933034
 30
0.0
 10
5.2449941124
 20
3.8939085546
 30
0.0
 10
5.2454166038
 20
3.8937208558
 30
0.0
 10
5.2457662762
 20
3.893531276
 30
0.0
 10
5.246042449
 20
3.8933405909
 30
0.0
 10
5.2462448041
 20
3.8931484844
 30
0.0
 10
5.2463727849
 20
3.8929525661
 30
0.0
 10
5.2464044549
 20
3.8928122541
 30
0.0
 10
5.2464044576
 20
3.8927476344
 30
0.0
  0
SPLINE
  5
351
100
AcDbEntity
  8
ALL_ASSEMBLY_MEMBERS
100
AcDbSpline
 62
7
  6
CONTINUOUS
 70
0
 71
3
 72
18
 73
14
 74
0
 42
0.0000001
 43
0.0000001
 44
0.0000000001
 40
0.0
 40
0.0
 40
0.0
 40
0.0
 40
0.0196331412
 40
0.0421488034
 40
0.0696179638
 40
0.1031481057
 40
0.143227933
 40
0.1900563012
 40
0.3040558468
 40
0.4444578624
 40
0.6090795544
 40
0.7953332078
 40
1.0
 40
1.0
 40
1.0
 40
1.0
 10
5.2227829037
 20
3.892747611
 30
0.0
 10
5.2227829028
 20
3.892721089
 30
0.0
 10
5.2227958516
 20
3.8926637472
 30
0.0
 10
5.2228493847
 20
3.8925847209
 30
0.0
 10
5.2229340677
 20
3.8925090982
 30
0.0
 10
5.22304967
 20
3.8924356914
 30
0.0
 10
5.2231960209
 20
3.8923640892
 30
0.0
 10
5.2234488101
 20
3.8922647325
 30
0.0
 10
5.2238405008
 20
3.892151739
 30
0.0
 10
5.2243944799
 20
3.8920343423
 30
0.0
 10
5.2250501088
 20
3.8919298668
 30
0.0
 10
5.2257953905
 20
3.8918406398
 30
0.0
 10
5.2263215161
 20
3.8917941949
 30
0.0
 10
5.2265972106
 20
3.8917733655
 30
0.0
  0
LINE
  5
352
100
AcDbEntity
  8
ALL_ASSEMBLY_MEMBERS
100
AcDbLine
 62
7
  6
CONTINUOUS
 10
5.2265972106
 20
3.8917733655
 11
5.2296723973
 21
3.891664243
  0
SPLINE
  5
353
100
AcDbEntity
  8
ALL_ASSEMBLY_MEMBERS
100
AcDbSpline
 62
7
  6
CONTINUOUS
 70
0
 71
3
 72
23
 73
19
 74
0
 42
0.0000001
 43
0.0000001
 44
0.0000000001
 40
0.0
 40
0.0
 40
0.0
 40
0.0
 40
0.0078812127
 40
0.0164536615
 40
0.0261985843
 40
0.0374419714
 40
0.0503770288
 40
0.0651150352
 40
0.1002079959
 40
0.1429471231
 40
0.1932146859
 40
0.2507048315
 40
0.3150490248
 40
0.385731092
 40
0.4621336633
 40
0.6294611839
 40
0.8111746924
 40
1.0
 40
1.0
 40
1.0
 40
1.0
 10
5.2464044553
 20
3.8952475419
 30
0.0
 10
5.246404453
 20
3.8952932987
 30
0.0
 10
5.2463896827
 20
3.8953892612
 30
0.0
 10
5.2463263835
 20
3.8955291151
 30
0.0
 10
5.2462235806
 20
3.8956677713
 30
0.0
 10
5.2460820743
 20
3.8958056342
 30
0.0
 10
5.2459023031
 20
3.8959431631
 30
0.0
 10
5.2455935088
 20
3.8961373729
 30
0.0
 10
5.2451085501
 20
3.896372266
 30
0.0
 10
5.244412253
 20
3.8966351253
 30
0.0
 10
5.2435759378
 20
3.896889918
 30
0.0
 10
5.2426065856
 20
3.8971335325
 30
0.0
 10
5.2415122628
 20
3.8973622403
 30
0.0
 10
5.2403027928
 20
3.8975730959
 30
0.0
 10
5.2384959608
 20
3.8978343776
 30
0.0
 10
5.236038148
 20
3.8980904372
 30
0.0
 10
5.2329202287
 20
3.8982779703
 30
0.0
 10
5.2307686815
 20
3.8983205805
 30
0.0
 10
5.2296723973
 20
3.8983205805
 30
0.0
  0
SPLINE
  5
354
100
AcDbEntity
  8
ALL_ASSEMBLY_MEMBERS
100
AcDbSpline
 62
7
  6
CONTINUOUS
 70
0
 71
3
 72
19
 73
15
 74
0
 42
0.0000001
 43
0.0000001
 44
0.0000000001
 40
0.0
 40
0.0
 40
0.0
 40
0.0
 40
0.0198049523
 40
0.0427658196
 40
0.0707860016
 40
0.1048329554
 40
0.1453492186
 40
0.1925243779
 40
0.2464106673
 40
0.3069168988
 40
0.4470242174
 40
0.6110828505
 40
0.7964431978
 40
1.0
 40
1.0
 40
1.0
 40
1.0
 10
5.212940337
 20
3.8927476344
 30
0.0
 10
5.2129403397
 20
3.8928122512
 30
0.0
 10
5.2129720068
 20
3.8929525561
 30
0.0
 10
5.2130999757
 20
3.8931484659
 30
0.0
 10
5.2133023127
 20
3.8933405644
 30
0.0
 10
5.2135784612
 20
3.8935312415
 30
0.0
 10
5.2139281038
 20
3.8937208133
 30
0.0
 10
5.2143505604
 20
3.8939085048
 30
0.0
 10
5.2148445327
 20
3.894093247
 30
0.0
 10
5.2156354767
 20
3.8943467865
 30
0.0
 10
5.2167891004
 20
3.8946419709
 30
0.0
 10
5.2183562423
 20
3.8949528739
 30
0.0
 10
5.2201399295
 20
3.8952271396
 30
0.0
 10
5.2214006119
 20
3.8953738475
 30
0.0
 10
5.2220614162
 20
3.8954402877
 30
0.0
  0
LINE
  5
355
100
AcDbEntity
  8
ALL_ASSEMBLY_MEMBERS
100
AcDbLine
 62
7
  6
CONTINUOUS
 10
5.2220614162
 20
3.8954402877
 11
5.2296723973
 21
3.8958045086
  0
LINE
  5
356
100
AcDbEntity
  8
ALL_ASSEMBLY_MEMBERS
100
AcDbLine
 62
7
  6
CONTINUOUS
 10
5.2304628819
 20
3.8916711235
 11
5.2327475096
 21
3.8917733605
  0
SPLINE
  5
357
100
AcDbEntity
  8
ALL_ASSEMBLY_MEMBERS
100
AcDbSpline
 62
7
  6
CONTINUOUS
 70
0
 71
3
 72
18
 73
14
 74
0
 42
0.0000001
 43
0.0000001
 44
0.0000000001
 40
0.0
 40
0.0
 40
0.0
 40
0.0
 40
0.2046682898
 40
0.3909226323
 40
0.5555427642
 40
0.6959425846
 40
0.8099416072
 40
0.856770528
 40
0.8968510988
 40
0.9303819048
 40
0.9578513979
 40
0.9803670226
 40
1.0
 40
1.0
 40
1.0
 40
1.0
 10
5.2327475096
 20
3.8917733605
 30
0.0
 10
5.2330232112
 20
3.89179419
 30
0.0
 10
5.2335493495
 20
3.8918406351
 30
0.0
 10
5.234294646
 20
3.8919298607
 30
0.0
 10
5.2349502834
 20
3.8920343348
 30
0.0
 10
5.2355042672
 20
3.8921517315
 30
0.0
 10
5.2358959621
 20
3.8922647265
 30
0.0
 10
5.2361487574
 20
3.8923640839
 30
0.0
 10
5.2362951141
 20
3.8924356871
 30
0.0
 10
5.2364107216
 20
3.8925090949
 30
0.0
 10
5.2364954085
 20
3.8925847183
 30
0.0
 10
5.2365489432
 20
3.892663746
 30
0.0
 10
5.2365618919
 20
3.8927210887
 30
0.0
 10
5.2365618907
 20
3.892747611
 30
0.0
  0
SPLINE
  5
358
100
AcDbEntity
  8
ALL_ASSEMBLY_MEMBERS
100
AcDbSpline
 62
7
  6
CONTINUOUS
 70
0
 71
3
 72
23
 73
19
 74
0
 42
0.0000001
 43
0.0000001
 44
0.0000000001
 40
0.0
 40
0.0
 40
0.0
 40
0.0
 40
0.1888229036
 40
0.3705327349
 40
0.5378605567
 40
0.6142646738
 40
0.6849485675
 40
0.7492938873
 40
0.8067841067
 40
0.8570512933
 40
0.899790283
 40
0.9348837029
 40
0.9496220702
 40
0.9625575115
 40
0.9738012536
 40
0.9835463683
 40
0.9921188286
 40
1.0
 40
1.0
 40
1.0
 40
1.0
 10
5.2296723973
 20
3.8983205805
 30
0.0
 10
5.2285761269
 20
3.8983205805
 30
0.0
 10
5.226424615
 20
3.898277975
 30
0.0
 10
5.2233067294
 20
3.8980904424
 30
0.0
 10
5.2208489266
 20
3.8978343894
 30
0.0
 10
5.2190420737
 20
3.8975731039
 30
0.0
 10
5.2178325774
 20
3.8973622471
 30
0.0
 10
5.2167382365
 20
3.89713354
 30
0.0
 10
5.2157688789
 20
3.8968899272
 30
0.0
 10
5.214932566
 20
3.8966351359
 30
0.0
 10
5.2142362697
 20
3.8963722753
 30
0.0
 10
5.2137513077
 20
3.8961373802
 30
0.0
 10
5.2134425064
 20
3.8959431683
 30
0.0
 10
5.2132627288
 20
3.8958056373
 30
0.0
 10
5.2131212161
 20
3.8956677733
 30
0.0
 10
5.2130184087
 20
3.8955291163
 30
0.0
 10
5.2129551094
 20
3.8953892612
 30
0.0
 10
5.2129403409
 20
3.8952932985
 30
0.0
 10
5.2129403394
 20
3.8952475419
 30
0.0
  0
SPLINE
  5
359
100
AcDbEntity
  8
ALL_ASSEMBLY_MEMBERS
100
AcDbSpline
 62
7
  6
CONTINUOUS
 70
0
 71
3
 72
15
 73
11
 74
0
 42
0.0000001
 43
0.0000001
 44
0.0000000001
 40
0.0
 40
0.0
 40
0.0
 40
0.0
 40
0.0414433687
 40
0.1545443019
 40
0.3155767614
 40
0.4999968917
 40
0.6844178382
 40
0.8454508257
 40
0.9585536103
 40
1.0
 40
1.0
 40
1.0
 40
1.0
 10
4.8582668854
 20
4.8560597826
 30
0.0
 10
4.855867909
 20
4.8556931102
 30
0.0
 10
4.8469138316
 20
4.8543782282
 30
0.0
 10
4.8285717805
 20
4.8520993402
 30
0.0
 10
4.8018004048
 20
4.849881307
 30
0.0
 10
4.7707673839
 20
4.8489791366
 30
0.0
 10
4.7397343301
 20
4.8498812469
 30
0.0
 10
4.7129627641
 20
4.8520992528
 30
0.0
 10
4.6946203969
 20
4.8543781622
 30
0.0
 10
4.6856660368
 20
4.8556930832
 30
0.0
 10
4.6832668854
 20
4.8560597826
 30
0.0
  0
ELLIPSE
  5
35A
100
AcDbEntity
  8
ALL_ASSEMBLY_MEMBERS
100
AcDbEllipse
 62
7
  6
CONTINUOUS
 10
5.161500161
 20
4.3710597826
 30
0.0
 11
-0.0
 21
0.48475
 31
0.0
 40
0.2210555332
 41
6.3004893413
 42
6.3175170955
  0
ELLIPSE
  5
35B
100
AcDbEntity
  8
ALL_ASSEMBLY_MEMBERS
100
AcDbEllipse
 62
7
  6
CONTINUOUS
 10
5.1663209501
 20
4.3710597826
 30
0.0
 11
0.0
 21
0.48475
 31
0.0
 40
0.7957997678
 41
6.2863035852
 42
6.3004893413
  0
ELLIPSE
  5
35C
100
AcDbEntity
  8
ALL_ASSEMBLY_MEMBERS
100
AcDbEllipse
 62
7
  6
CONTINUOUS
 10
5.2350514042
 20
4.3710597826
 30
0.0
 11
-0.0
 21
0.48475
 31
0.0
 40
0.7957996981
 41
-0.0173040341
 42
-0.0031182781
  0
ELLIPSE
  5
35D
100
AcDbEntity
  8
ALL_ASSEMBLY_MEMBERS
100
AcDbEllipse
 62
7
  6
CONTINUOUS
 10
5.2398721929
 20
4.3710597826
 30
0.0
 11
0.0
 21
0.48475
 31
0.0
 40
0.2210555139
 41
-0.0343317884
 42
-0.0173040341
  0
ELLIPSE
  5
35E
100
AcDbEntity
  8
ALL_ASSEMBLY_MEMBERS
100
AcDbEllipse
 62
7
  6
CONTINUOUS
 10
5.3192548886
 20
4.3710597826
 30
0.0
 11
3.2147129739
 21
0.0
 31
0.0
 40
0.1507910672
 41
1.6102429677
 42
1.6130823074
  0
ELLIPSE
  5
35F
100
AcDbEntity
  8
ALL_ASSEMBLY_MEMBERS
100
AcDbEllipse
 62
7
  6
CONTINUOUS
 10
5.2648956863
 20
4.3710597826
 30
0.0
 11
1.9288162072
 21
-0.0
 31
0.0
 40
0.2513199538
 41
1.6130823074
 42
1.6159220045
  0
ELLIPSE
  5
360
100
AcDbEntity
  8
ALL_ASSEMBLY_MEMBERS
100
AcDbEllipse
 62
7
  6
CONTINUOUS
 10
5.2358926619
 20
4.3710597826
 30
0.0
 11
1.2858813755
 21
-0.0
 31
0.0
 40
0.3769787861
 41
1.6159220045
 42
1.621602498
  0
ELLIPSE
  5
361
100
AcDbEntity
  8
ALL_ASSEMBLY_MEMBERS
100
AcDbEllipse
 62
7
  6
CONTINUOUS
 10
5.2032413254
 20
4.3710597826
 30
0.0
 11
0.6429400371
 21
0.0
 31
0.0
 40
0.7539583352
 41
1.621602498
 42
1.6301263818
  0
ELLIPSE
  5
362
100
AcDbEntity
  8
ALL_ASSEMBLY_MEMBERS
100
AcDbEllipse
 62
7
  6
CONTINUOUS
 10
5.1879919902
 20
4.3710597826
 30
0.0
 11
-0.0
 21
0.48475
 31
0.0
 40
0.7957993124
 41
0.059330055
 42
0.0735464445
  0
ELLIPSE
  5
363
100
AcDbEntity
  8
ALL_ASSEMBLY_MEMBERS
100
AcDbEllipse
 62
7
  6
CONTINUOUS
 10
5.1675199
 20
4.3710597826
 30
0.0
 11
0.0
 21
0.48475
 31
0.0
 40
0.2210555332
 41
0.0735464445
 42
0.0906260353
  0
ELLIPSE
  5
364
100
AcDbEntity
  8
ALL_ASSEMBLY_MEMBERS
100
AcDbEllipse
 62
7
  6
CONTINUOUS
 10
5.2338524544
 20
4.3710597826
 30
0.0
 11
0.0
 21
0.48475
 31
0.0
 40
0.2210555139
 41
-0.0906260353
 42
-0.0735464445
  0
ELLIPSE
  5
365
100
AcDbEntity
  8
ALL_ASSEMBLY_MEMBERS
100
AcDbEllipse
 62
7
  6
CONTINUOUS
 10
5.213380366
 20
4.3710597826
 30
0.0
 11
-0.0
 21
0.48475
 31
0.0
 40
0.7957992427
 41
-0.0735464445
 42
-0.059330055
  0
ELLIPSE
  5
366
100
AcDbEntity
  8
ALL_ASSEMBLY_MEMBERS
100
AcDbEllipse
 62
7
  6
CONTINUOUS
 10
5.1981310333
 20
4.3710597826
 30
0.0
 11
0.642939962
 21
0.0
 31
0.0
 40
0.7539584232
 41
7.794651579
 42
7.8031754627
  0
ELLIPSE
  5
367
100
AcDbEntity
  8
ALL_ASSEMBLY_MEMBERS
100
AcDbEllipse
 62
7
  6
CONTINUOUS
 10
5.1654797044
 20
4.3710597826
 30
0.0
 11
1.2858811504
 21
-0.0
 31
0.0
 40
0.3769788521
 41
1.5199901556
 42
1.5256706491
  0
ELLIPSE
  5
368
100
AcDbEntity
  8
ALL_ASSEMBLY_MEMBERS
100
AcDbEllipse
 62
7
  6
CONTINUOUS
 10
5.1364765886
 20
4.3710597826
 30
0.0
 11
1.9288180083
 21
0.0
 31
0.0
 40
0.2513197191
 41
1.5256706491
 42
1.5285103462
  0
ELLIPSE
  5
369
100
AcDbEntity
  8
ALL_ASSEMBLY_MEMBERS
100
AcDbEllipse
 62
7
  6
CONTINUOUS
 10
5.0821175005
 20
4.3710597826
 30
0.0
 11
3.2147120734
 21
0.0
 31
0.0
 40
0.1507911094
 41
1.5285103462
 42
1.5313496859
  0
ELLIPSE
  5
36A
100
AcDbEntity
  8
ALL_ASSEMBLY_MEMBERS
100
AcDbEllipse
 62
7
  6
CONTINUOUS
 10
5.2460677934
 20
4.3710597826
 30
0.0
 11
0.0
 21
0.48475
 31
0.0
 40
0.2652667178
 41
0.0906260353
 42
0.1048790886
  0
ELLIPSE
  5
36B
100
AcDbEntity
  8
ALL_ASSEMBLY_MEMBERS
100
AcDbEllipse
 62
7
  6
CONTINUOUS
 10
5.2774779111
 20
4.3710597826
 30
0.0
 11
-0.0
 21
0.48475
 31
0.0
 40
0.8842220554
 41
0.1048790886
 42
0.1134410125
  0
ELLIPSE
  5
36C
100
AcDbEntity
  8
ALL_ASSEMBLY_MEMBERS
100
AcDbEllipse
 62
7
  6
CONTINUOUS
 10
5.338127433
 20
4.3710597826
 30
0.0
 11
0.9644099335
 21
0.0
 31
0.0
 40
0.5026389538
 41
1.6842373393
 42
1.6956663613
  0
ELLIPSE
  5
36D
100
AcDbEntity
  8
ALL_ASSEMBLY_MEMBERS
100
AcDbEllipse
 62
7
  6
CONTINUOUS
 10
5.6984688351
 20
4.3710597826
 30
0.0
 11
3.857654488
 21
0.0
 31
0.0
 40
0.1256592578
 41
1.6956663613
 42
1.6985261089
  0
ELLIPSE
  5
36E
100
AcDbEntity
  8
ALL_ASSEMBLY_MEMBERS
100
AcDbEllipse
 62
7
  6
CONTINUOUS
 10
4.7029034037
 20
4.3710597826
 30
0.0
 11
3.8576553886
 21
0.0
 31
0.0
 40
0.1256592285
 41
1.4430665446
 42
1.4459262923
  0
ELLIPSE
  5
36F
100
AcDbEntity
  8
ALL_ASSEMBLY_MEMBERS
100
AcDbEllipse
 62
7
  6
CONTINUOUS
 10
5.0632449601
 20
4.3710597826
 30
0.0
 11
0.9644095958
 21
0.0
 31
0.0
 40
0.5026391298
 41
1.4459262923
 42
1.4573553143
  0
ELLIPSE
  5
370
100
AcDbEntity
  8
ALL_ASSEMBLY_MEMBERS
100
AcDbEllipse
 62
7
  6
CONTINUOUS
 10
5.1238944437
 20
4.3710597826
 30
0.0
 11
0.0
 21
0.48475
 31
0.0
 40
0.8842220554
 41
-0.1134410125
 42
-0.1048790886
  0
ELLIPSE
  5
371
100
AcDbEntity
  8
ALL_ASSEMBLY_MEMBERS
100
AcDbEllipse
 62
7
  6
CONTINUOUS
 10
5.1553045614
 20
4.3710597826
 30
0.0
 11
-0.0
 21
0.48475
 31
0.0
 40
0.2652667178
 41
-0.1048790886
 42
-0.0906260353
  0
ELLIPSE
  5
372
100
AcDbEntity
  8
ALL_ASSEMBLY_MEMBERS
100
AcDbEllipse
 62
7
  6
CONTINUOUS
 10
5.3128730926
 20
4.3710597826
 30
0.0
 11
0.5716780154
 21
-0.4744956074
 31
0.0
 40
0.1734875795
 41
1.8341228243
 42
1.8564220296
  0
ELLIPSE
  5
373
100
AcDbEntity
  8
ALL_ASSEMBLY_MEMBERS
100
AcDbEllipse
 62
7
  6
CONTINUOUS
 10
5.2703129173
 20
4.3710597826
 30
0.0
 11
0.5716778757
 21
-0.4744956116
 31
0.0
 40
0.1734875871
 41
1.7601616376
 42
1.7823049235
  0
ELLIPSE
  5
374
100
AcDbEntity
  8
ALL_ASSEMBLY_MEMBERS
100
AcDbEllipse
 62
7
  6
CONTINUOUS
 10
5.2136474231
 20
4.3710597826
 30
0.0
 11
0.117123106
 21
0.4846535957
 31
0.0
 40
0.0825387411
 41
1.3243861563
 42
1.3391838673
  0
ELLIPSE
  5
375
100
AcDbEntity
  8
ALL_ASSEMBLY_MEMBERS
100
AcDbEllipse
 62
7
  6
CONTINUOUS
 10
5.2337294637
 20
4.3710597826
 30
0.0
 11
0.3205164298
 21
0.4819141273
 31
0.0
 40
0.1633544133
 41
1.4274608739
 42
1.438573063
  0
ELLIPSE
  5
376
100
AcDbEntity
  8
ALL_ASSEMBLY_MEMBERS
100
AcDbEllipse
 62
7
  6
CONTINUOUS
 10
5.2784534321
 20
4.3710597826
 30
0.0
 11
0.7387483593
 21
0.4700085841
 31
0.0
 40
0.1605905019
 41
1.5775999118
 42
1.5850154544
  0
ELLIPSE
  5
377
100
AcDbEntity
  8
ALL_ASSEMBLY_MEMBERS
100
AcDbEllipse
 62
7
  6
CONTINUOUS
 10
5.3644297838
 20
4.3710597826
 30
0.0
 11
1.4844556253
 21
0.4605286781
 31
0.0
 40
0.1019322549
 41
1.6552211679
 42
1.6589312972
  0
ELLIPSE
  5
378
100
AcDbEntity
  8
ALL_ASSEMBLY_MEMBERS
100
AcDbEllipse
 62
7
  6
CONTINUOUS
 10
5.0059345259
 20
4.3710597826
 30
0.0
 11
1.4844549309
 21
-0.4605286823
 31
0.0
 40
0.1019322941
 41
1.4826613836
 42
1.4863715129
  0
ELLIPSE
  5
379
100
AcDbEntity
  8
ALL_ASSEMBLY_MEMBERS
100
AcDbEllipse
 62
7
  6
CONTINUOUS
 10
5.0919107772
 20
4.3710597826
 30
0.0
 11
0.7387485344
 21
-0.47000858
 31
0.0
 40
0.1605904861
 41
1.5565771643
 42
1.5639927069
  0
ELLIPSE
  5
37A
100
AcDbEntity
  8
ALL_ASSEMBLY_MEMBERS
100
AcDbEllipse
 62
7
  6
CONTINUOUS
 10
5.1366347645
 20
4.3710597826
 30
0.0
 11
-0.3205164298
 21
0.4819141273
 31
0.0
 40
0.1633544133
 41
-1.438573063
 42
-1.4274608739
  0
ELLIPSE
  5
37B
100
AcDbEntity
  8
ALL_ASSEMBLY_MEMBERS
100
AcDbEllipse
 62
7
  6
CONTINUOUS
 10
5.4011534691
 20
4.3710597826
 30
0.0
 11
3.8575848219
 21
0.456341581
 31
0.0
 40
0.0423861521
 41
-1.6322987713
 42
-1.629457479
  0
ELLIPSE
  5
37C
100
AcDbEntity
  8
ALL_ASSEMBLY_MEMBERS
100
AcDbEllipse
 62
7
  6
CONTINUOUS
 10
5.156716805
 20
4.3710597826
 30
0.0
 11
-0.117123106
 21
0.4846535957
 31
0.0
 40
0.0825387411
 41
-1.3391838673
 42
-1.3243861563
  0
ELLIPSE
  5
37D
100
AcDbEntity
  8
ALL_ASSEMBLY_MEMBERS
100
AcDbEllipse
 62
7
  6
CONTINUOUS
 10
5.2378070964
 20
4.3710597826
 30
0.0
 11
0.9622071635
 21
0.4656770005
 31
0.0
 40
0.1399266045
 41
-1.7062712763
 42
-1.6949013418
  0
ELLIPSE
  5
37E
100
AcDbEntity
  8
ALL_ASSEMBLY_MEMBERS
100
AcDbEllipse
 62
7
  6
CONTINUOUS
 10
5.2014776018
 20
4.3710597826
 30
0.0
 11
0.4203531079
 21
0.479141308
 31
0.0
 40
0.1749164141
 41
-1.8439863269
 42
-1.8354531791
  0
ELLIPSE
  5
37F
100
AcDbEntity
  8
ALL_ASSEMBLY_MEMBERS
100
AcDbEllipse
 62
7
  6
CONTINUOUS
 10
5.1785795065
 20
4.3710597826
 30
0.0
 11
0.1217484006
 21
0.4846385345
 31
0.0
 40
0.0853799597
 41
-1.9890427863
 42
-1.9748081556
  0
ELLIPSE
  5
380
100
AcDbEntity
  8
ALL_ASSEMBLY_MEMBERS
100
AcDbEllipse
 62
7
  6
CONTINUOUS
 10
5.184903586
 20
4.3710597826
 30
0.0
 11
0.9880542361
 21
0.465285186
 31
0.0
 40
0.1376303424
 41
1.5113205669
 42
1.5186896574
  0
ELLIPSE
  5
381
100
AcDbEntity
  8
ALL_ASSEMBLY_MEMBERS
100
AcDbEllipse
 62
7
  6
CONTINUOUS
 10
5.1807404146
 20
4.3710597826
 30
0.0
 11
0.6553159276
 21
0.4721187462
 31
0.0
 40
0.1677639688
 41
1.4631295299
 42
1.4741845703
  0
ELLIPSE
  5
382
100
AcDbEntity
  8
ALL_ASSEMBLY_MEMBERS
100
AcDbEllipse
 62
7
  6
CONTINUOUS
 10
5.1721481073
 20
4.3710597826
 30
0.0
 11
0.2873264341
 21
0.4826711449
 31
0.0
 40
0.1560789432
 41
1.3380452399
 42
1.356477401
  0
ELLIPSE
  5
383
100
AcDbEntity
  8
ALL_ASSEMBLY_MEMBERS
100
AcDbEllipse
 62
7
  6
CONTINUOUS
 10
5.1638133716
 20
4.3710597826
 30
0.0
 11
0.0934735408
 21
0.4847090996
 31
0.0
 40
0.0673658948
 41
1.2768224913
 42
1.2952689988
  0
ELLIPSE
  5
384
100
AcDbEntity
  8
ALL_ASSEMBLY_MEMBERS
100
AcDbEllipse
 62
7
  6
CONTINUOUS
 10
5.2065508558
 20
4.3710597826
 30
0.0
 11
-0.0934735326
 21
0.4847090996
 31
0.0
 40
0.0673658893
 41
-1.2952689966
 42
-1.2768224891
  0
ELLIPSE
  5
385
100
AcDbEntity
  8
ALL_ASSEMBLY_MEMBERS
100
AcDbEllipse
 62
7
  6
CONTINUOUS
 10
5.1982161208
 20
4.3710597826
 30
0.0
 11
-0.287326408
 21
0.4826711454
 31
0.0
 40
0.1560789367
 41
-1.3564773887
 42
-1.3380452276
  0
ELLIPSE
  5
386
100
AcDbEntity
  8
ALL_ASSEMBLY_MEMBERS
100
AcDbEllipse
 62
7
  6
CONTINUOUS
 10
5.2227928484
 20
4.3710597826
 30
0.0
 11
-0.1217484006
 21
0.4846385345
 31
0.0
 40
0.0853799597
 41
-4.3083771516
 42
-4.2941425209
  0
ELLIPSE
  5
387
100
AcDbEntity
  8
ALL_ASSEMBLY_MEMBERS
100
AcDbEllipse
 62
7
  6
CONTINUOUS
 10
5.1998947531
 20
4.3710597826
 30
0.0
 11
-0.4203531079
 21
0.479141308
 31
0.0
 40
0.1749164141
 41
-4.4477321281
 42
-4.4391989803
  0
ELLIPSE
  5
388
100
AcDbEntity
  8
ALL_ASSEMBLY_MEMBERS
100
AcDbEllipse
 62
7
  6
CONTINUOUS
 10
5.1635652355
 20
4.3710597826
 30
0.0
 11
0.962207503
 21
-0.4656769952
 31
0.0
 40
0.1399265741
 41
-1.4466913509
 42
-1.4353214165
  0
ELLIPSE
  5
389
100
AcDbEntity
  8
ALL_ASSEMBLY_MEMBERS
100
AcDbEllipse
 62
7
  6
CONTINUOUS
 10
5.0002189328
 20
4.3710597826
 30
0.0
 11
3.8575839213
 21
-0.4563415814
 31
0.0
 40
0.0423861617
 41
-1.5121351722
 42
-1.5092938799
  0
ELLIPSE
  5
38A
100
AcDbEntity
  8
ALL_ASSEMBLY_MEMBERS
100
AcDbEllipse
 62
7
  6
CONTINUOUS
 10
5.3228016993
 20
4.3710597826
 30
0.0
 11
0.7463252756
 21
-0.4698307894
 31
0.0
 40
0.1599009769
 41
-1.6130857077
 42
-1.5959095904
  0
ELLIPSE
  5
38B
100
AcDbEntity
  8
ALL_ASSEMBLY_MEMBERS
100
AcDbEllipse
 62
7
  6
CONTINUOUS
 10
5.202413981
 20
4.3710597826
 30
0.0
 11
0.5597140252
 21
-0.4748533936
 31
0.0
 40
0.1741096516
 41
-1.4868806225
 42
-1.4159149133
  0
ELLIPSE
  5
38C
100
AcDbEntity
  8
ALL_ASSEMBLY_MEMBERS
100
AcDbEllipse
 62
7
  6
CONTINUOUS
 10
5.199133478
 20
4.3710597826
 30
0.0
 11
0.9622042765
 21
-0.4656770454
 31
0.0
 40
0.139926863
 41
-1.4949495759
 42
-1.489275252
  0
ELLIPSE
  5
38D
100
AcDbEntity
  8
ALL_ASSEMBLY_MEMBERS
100
AcDbEllipse
 62
7
  6
CONTINUOUS
 10
5.1767853645
 20
4.3710597826
 30
0.0
 11
2.5716108227
 21
-0.4573304865
 31
0.0
 40
0.0624983615
 41
-1.5457781432
 42
-1.5429408411
  0
ELLIPSE
  5
38E
100
AcDbEntity
  8
ALL_ASSEMBLY_MEMBERS
100
AcDbEllipse
 62
7
  6
CONTINUOUS
 10
5.2665391587
 20
4.3710597826
 30
0.0
 11
2.5716108227
 21
0.4573304865
 31
0.0
 40
0.0624983615
 41
-1.5986518125
 42
-1.5958145104
  0
ELLIPSE
  5
38F
100
AcDbEntity
  8
ALL_ASSEMBLY_MEMBERS
100
AcDbEllipse
 62
7
  6
CONTINUOUS
 10
5.2397214763
 20
4.3710597826
 30
0.0
 11
0.6379530235
 21
0.4725921354
 31
0.0
 40
0.1691116546
 41
-1.7093280947
 42
-1.6979797282
  0
ELLIPSE
  5
390
100
AcDbEntity
  8
ALL_ASSEMBLY_MEMBERS
100
AcDbEllipse
 62
7
  6
CONTINUOUS
 10
5.2532482456
 20
4.3710597826
 30
0.0
 11
0.10123742
 21
0.4846944896
 31
0.0
 40
0.0724615456
 41
-2.012460577
 42
-1.9953544323
  0
ELLIPSE
  5
391
100
AcDbEntity
  8
ALL_ASSEMBLY_MEMBERS
100
AcDbEllipse
 62
7
  6
CONTINUOUS
 10
5.2832052087
 20
4.3710597826
 30
0.0
 11
0.3768576551
 21
0.4804196369
 31
0.0
 40
0.1715483869
 41
-1.9081086021
 42
-1.8938294856
  0
ELLIPSE
  5
392
100
AcDbEntity
  8
ALL_ASSEMBLY_MEMBERS
100
AcDbEllipse
 62
7
  6
CONTINUOUS
 10
5.238899903
 20
4.3710597826
 30
0.0
 11
0.3118799231
 21
0.4821211713
 31
0.0
 40
0.1616508637
 41
-1.8182260229
 42
-1.8068779936
  0
ELLIPSE
  5
393
100
AcDbEntity
  8
ALL_ASSEMBLY_MEMBERS
100
AcDbEllipse
 62
7
  6
CONTINUOUS
 10
5.3145057704
 20
4.3710597826
 30
0.0
 11
0.6379533341
 21
0.4725921268
 31
0.0
 40
0.1691116311
 41
-1.8260145634
 42
-1.8174352631
  0
ELLIPSE
  5
394
100
AcDbEntity
  8
ALL_ASSEMBLY_MEMBERS
100
AcDbEllipse
 62
7
  6
CONTINUOUS
 10
5.3982289214
 20
4.3710597826
 30
0.0
 11
1.2847916974
 21
0.4619431809
 31
0.0
 40
0.1143679302
 41
-1.7482093125
 42
-1.7424844324
  0
ELLIPSE
  5
395
100
AcDbEntity
  8
ALL_ASSEMBLY_MEMBERS
100
AcDbEllipse
 62
7
  6
CONTINUOUS
 10
5.2407841965
 20
4.3710597826
 30
0.0
 11
0.10123742
 21
0.4846944896
 31
0.0
 40
0.0724615456
 41
-1.89593605
 42
-1.8789114217
  0
ELLIPSE
  5
396
100
AcDbEntity
  8
ALL_ASSEMBLY_MEMBERS
100
AcDbEllipse
 62
7
  6
CONTINUOUS
 10
5.4856019911
 20
4.3710597826
 30
0.0
 11
1.9284678459
 21
0.4586391126
 31
0.0
 40
0.0813849018
 41
-1.7293289027
 42
-1.7264648042
  0
ELLIPSE
  5
397
100
AcDbEntity
  8
ALL_ASSEMBLY_MEMBERS
100
AcDbEllipse
 62
7
  6
CONTINUOUS
 10
5.6639934055
 20
4.3710597826
 30
0.0
 11
3.2146291591
 21
0.4566950122
 31
0.0
 40
0.0505558762
 41
-1.7200233845
 42
-1.7171581365
  0
ELLIPSE
  5
398
100
AcDbEntity
  8
ALL_ASSEMBLY_MEMBERS
100
AcDbEllipse
 62
7
  6
CONTINUOUS
 10
4.7373788206
 20
4.3710597826
 30
0.0
 11
3.2146300597
 21
-0.4566950116
 31
0.0
 40
0.0505558626
 41
-1.4244345211
 42
-1.421569273
  0
ELLIPSE
  5
399
100
AcDbEntity
  8
ALL_ASSEMBLY_MEMBERS
100
AcDbEllipse
 62
7
  6
CONTINUOUS
 10
4.9157706098
 20
4.3710597826
 30
0.0
 11
1.9284660439
 21
-0.458639118
 31
0.0
 40
0.0813849697
 41
-1.4151278149
 42
-1.4122637165
  0
ELLIPSE
  5
39A
100
AcDbEntity
  8
ALL_ASSEMBLY_MEMBERS
100
AcDbEllipse
 62
7
  6
CONTINUOUS
 10
5.2894218771
 20
4.3710597826
 30
0.0
 11
0.9622070503
 21
-0.4656770023
 31
0.0
 40
0.1399266146
 41
-1.5716017881
 42
-1.5659156053
  0
ELLIPSE
  5
39B
100
AcDbEntity
  8
ALL_ASSEMBLY_MEMBERS
100
AcDbEllipse
 62
7
  6
CONTINUOUS
 10
5.0031434041
 20
4.3710597826
 30
0.0
 11
1.2847919231
 21
-0.461943179
 31
0.0
 40
0.1143679148
 41
-1.3991082341
 42
-1.393383354
  0
ELLIPSE
  5
39C
100
AcDbEntity
  8
ALL_ASSEMBLY_MEMBERS
100
AcDbEllipse
 62
7
  6
CONTINUOUS
 10
5.0868665747
 20
4.3710597826
 30
0.0
 11
0.6379534101
 21
-0.4725921247
 31
0.0
 40
0.1691116253
 41
-1.3241574099
 42
-1.3155781096
  0
ELLIPSE
  5
39D
100
AcDbEntity
  8
ALL_ASSEMBLY_MEMBERS
100
AcDbEllipse
 62
7
  6
CONTINUOUS
 10
5.2558309713
 20
4.3710597826
 30
0.0
 11
-0.4203531079
 21
0.479141308
 31
0.0
 40
0.1749164141
 41
-4.5783263692
 42
-4.5698008357
  0
ELLIPSE
  5
39E
100
AcDbEntity
  8
ALL_ASSEMBLY_MEMBERS
100
AcDbEllipse
 62
7
  6
CONTINUOUS
 10
5.1181671414
 20
4.3710597826
 30
0.0
 11
-0.3768576893
 21
0.480419636
 31
0.0
 40
0.1715483905
 41
-4.3893558366
 42
-4.3750767201
  0
ELLIPSE
  5
39F
100
AcDbEntity
  8
ALL_ASSEMBLY_MEMBERS
100
AcDbEllipse
 62
7
  6
CONTINUOUS
 10
5.239573705
 20
4.3710597826
 30
0.0
 11
-0.1217484712
 21
0.4846385342
 31
0.0
 40
0.0853800028
 41
-4.4389790303
 42
-4.4247782581
  0
ELLIPSE
  5
3A0
100
AcDbEntity
  8
ALL_ASSEMBLY_MEMBERS
100
AcDbEllipse
 62
7
  6
CONTINUOUS
 10
5.1481241071
 20
4.3710597826
 30
0.0
 11
-0.101237429
 21
0.4846944896
 31
0.0
 40
0.0724615514
 41
-4.2878308774
 42
-4.2707247327
  0
ELLIPSE
  5
3A1
100
AcDbEntity
  8
ALL_ASSEMBLY_MEMBERS
100
AcDbEllipse
 62
7
  6
CONTINUOUS
 10
5.1565406156
 20
4.3710597826
 30
0.0
 11
1.9288162072
 21
0.0
 31
0.0
 40
0.2513199538
 41
7.8400775852
 42
7.8429147916
  0
ELLIPSE
  5
3A2
100
AcDbEntity
  8
ALL_ASSEMBLY_MEMBERS
100
AcDbEllipse
 62
7
  6
CONTINUOUS
 10
5.1386620203
 20
4.3710597826
 30
0.0
 11
3.2147129739
 21
0.0
 31
0.0
 40
0.1507910672
 41
7.837240283
 42
7.8400775852
  0
ELLIPSE
  5
3A3
100
AcDbEntity
  8
ALL_ASSEMBLY_MEMBERS
100
AcDbEllipse
 62
7
  6
CONTINUOUS
 10
5.2627103182
 20
4.3710597826
 30
0.0
 11
3.2147120734
 21
-0.0
 31
0.0
 40
0.1507911094
 41
1.5847003756
 42
1.5875376778
  0
ELLIPSE
  5
3A4
100
AcDbEntity
  8
ALL_ASSEMBLY_MEMBERS
100
AcDbEllipse
 62
7
  6
CONTINUOUS
 10
5.1785795065
 20
4.3710597826
 30
0.0
 11
-0.0
 21
0.48475
 31
0.0
 40
0.2652664142
 41
0.0763914046
 42
0.0906260353
  0
ELLIPSE
  5
3A5
100
AcDbEntity
  8
ALL_ASSEMBLY_MEMBERS
100
AcDbEllipse
 62
7
  6
CONTINUOUS
 10
5.2014776018
 20
4.3710597826
 30
0.0
 11
0.0
 21
0.48475
 31
0.0
 40
0.8842220554
 41
0.0678582568
 42
0.0763914046
  0
ELLIPSE
  5
3A6
100
AcDbEntity
  8
ALL_ASSEMBLY_MEMBERS
100
AcDbEllipse
 62
7
  6
CONTINUOUS
 10
5.2378070964
 20
4.3710597826
 30
0.0
 11
0.9644109754
 21
0.0
 31
0.0
 40
0.5026384108
 41
1.6272846492
 42
1.6386545836
  0
ELLIPSE
  5
3A7
100
AcDbEntity
  8
ALL_ASSEMBLY_MEMBERS
100
AcDbEllipse
 62
7
  6
CONTINUOUS
 10
5.2378070964
 20
4.3710597826
 30
0.0
 11
0.9595037988
 21
-0.0
 31
0.0
 40
0.5026384108
 41
1.6275738566
 42
1.6336193552
  0
ELLIPSE
  5
3A8
100
AcDbEntity
  8
ALL_ASSEMBLY_MEMBERS
100
AcDbEllipse
 62
7
  6
CONTINUOUS
 10
5.4011534691
 20
4.3710597826
 30
0.0
 11
3.857633315
 21
-0.0
 31
0.0
 40
0.1256599475
 41
1.6244433569
 42
1.6272846492
  0
ELLIPSE
  5
3A9
100
AcDbEntity
  8
ALL_ASSEMBLY_MEMBERS
100
AcDbEllipse
 62
7
  6
CONTINUOUS
 10
5.4011534691
 20
4.3710597826
 30
0.0
 11
3.8380046625
 21
-0.0
 31
0.0
 40
0.1256599475
 41
1.6247179887
 42
1.6275738566
  0
ELLIPSE
  5
3AA
100
AcDbEntity
  8
ALL_ASSEMBLY_MEMBERS
100
AcDbEllipse
 62
7
  6
CONTINUOUS
 10
5.2448317604
 20
4.3710597826
 30
0.0
 11
1.9288180083
 21
0.0
 31
0.0
 40
0.2513197191
 41
1.5818631691
 42
1.5847003756
  0
ELLIPSE
  5
3AB
100
AcDbEntity
  8
ALL_ASSEMBLY_MEMBERS
100
AcDbEllipse
 62
7
  6
CONTINUOUS
 10
5.2377166248
 20
4.3710597826
 30
0.0
 11
1.2858811504
 21
0.0
 31
0.0
 40
0.3769788521
 41
1.5761890168
 42
1.5818631691
  0
ELLIPSE
  5
3AC
100
AcDbEntity
  8
ALL_ASSEMBLY_MEMBERS
100
AcDbEllipse
 62
7
  6
CONTINUOUS
 10
5.2982810631
 20
4.3710597826
 30
0.0
 11
0.57167825
 21
-0.4744956005
 31
0.0
 40
0.1734875667
 41
1.8341227539
 42
1.8564219592
  0
ELLIPSE
  5
3AD
100
AcDbEntity
  8
ALL_ASSEMBLY_MEMBERS
100
AcDbEllipse
 62
7
  6
CONTINUOUS
 10
5.2982810631
 20
4.3710597826
 30
0.0
 11
0.5687694008
 21
-0.4720812421
 31
0.0
 40
0.1734875667
 41
8.1199044316
 42
8.140341655
  0
ELLIPSE
  5
3AE
100
AcDbEntity
  8
ALL_ASSEMBLY_MEMBERS
100
AcDbEllipse
 62
7
  6
CONTINUOUS
 10
5.2342494591
 20
4.3710597826
 30
0.0
 11
0.642939962
 21
0.0
 31
0.0
 40
0.7539584232
 41
7.8508633559
 42
7.859374324
  0
ELLIPSE
  5
3AF
100
AcDbEntity
  8
ALL_ASSEMBLY_MEMBERS
100
AcDbEllipse
 62
7
  6
CONTINUOUS
 10
5.2557208708
 20
4.3710597826
 30
0.0
 11
0.5716781103
 21
-0.4744956046
 31
0.0
 40
0.1734875743
 41
1.7601615672
 42
1.7823048532
  0
ELLIPSE
  5
3B0
100
AcDbEntity
  8
ALL_ASSEMBLY_MEMBERS
100
AcDbEllipse
 62
7
  6
CONTINUOUS
 10
5.2557208708
 20
4.3710597826
 30
0.0
 11
0.5687692618
 21
-0.4720812463
 31
0.0
 40
0.1734875743
 41
8.0454832217
 42
8.0658410218
  0
ELLIPSE
  5
3B1
100
AcDbEntity
  8
ALL_ASSEMBLY_MEMBERS
100
AcDbEllipse
 62
7
  6
CONTINUOUS
 10
5.1846025551
 20
4.3710597826
 30
0.0
 11
-0.3622025764
 21
0.4808294012
 31
0.0
 40
0.1698707729
 41
-1.3947898515
 42
-1.3800412872
  0
ELLIPSE
  5
3B2
100
AcDbEntity
  8
ALL_ASSEMBLY_MEMBERS
100
AcDbEllipse
 62
7
  6
CONTINUOUS
 10
5.1846025551
 20
4.3710597826
 30
0.0
 11
-0.3603595945
 21
0.4783828148
 31
0.0
 40
0.1698707729
 41
-1.3950241974
 42
-1.3802000911
  0
ELLIPSE
  5
3B3
100
AcDbEntity
  8
ALL_ASSEMBLY_MEMBERS
100
AcDbEllipse
 62
7
  6
CONTINUOUS
 10
5.195932976
 20
4.3710597826
 30
0.0
 11
-0.1171229363
 21
0.4846535963
 31
0.0
 40
0.082538636
 41
-1.3022224851
 42
-1.2874639355
  0
ELLIPSE
  5
3B4
100
AcDbEntity
  8
ALL_ASSEMBLY_MEMBERS
100
AcDbEllipse
 62
7
  6
CONTINUOUS
 10
5.195932976
 20
4.3710597826
 30
0.0
 11
-0.116526984
 21
0.4821875514
 31
0.0
 40
0.082538636
 41
4.9806527798
 42
4.9954870257
  0
ELLIPSE
  5
3B5
100
AcDbEntity
  8
ALL_ASSEMBLY_MEMBERS
100
AcDbEllipse
 62
7
  6
CONTINUOUS
 10
5.1481241071
 20
4.3710597826
 30
0.0
 11
0.0
 21
0.48475
 31
0.0
 40
0.2210555332
 41
-0.10773218
 42
-0.0906260353
  0
ELLIPSE
  5
3B6
100
AcDbEntity
  8
ALL_ASSEMBLY_MEMBERS
100
AcDbEllipse
 62
7
  6
CONTINUOUS
 10
5.1481241071
 20
4.3710597826
 30
0.0
 11
0.0
 21
0.4822834646
 31
0.0
 40
0.2210555332
 41
-0.1082853113
 42
-0.0910908057
  0
ELLIPSE
  5
3B7
100
AcDbEntity
  8
ALL_ASSEMBLY_MEMBERS
100
AcDbEllipse
 62
7
  6
CONTINUOUS
 10
5.1181671414
 20
4.3710597826
 30
0.0
 11
0.0
 21
0.48475
 31
0.0
 40
0.7958002231
 41
-0.1220112966
 42
-0.10773218
  0
ELLIPSE
  5
3B8
100
AcDbEntity
  8
ALL_ASSEMBLY_MEMBERS
100
AcDbEllipse
 62
7
  6
CONTINUOUS
 10
5.1181671414
 20
4.3710597826
 30
0.0
 11
-0.0
 21
0.4822834646
 31
0.0
 40
0.7958002231
 41
-0.1226384364
 42
-0.1082853113
  0
ELLIPSE
  5
3B9
100
AcDbEntity
  8
ALL_ASSEMBLY_MEMBERS
100
AcDbEllipse
 62
7
  6
CONTINUOUS
 10
5.0868665747
 20
4.3710597826
 30
0.0
 11
0.6429400371
 21
0.0
 31
0.0
 40
0.7539583352
 41
1.4402057299
 42
1.4487850302
  0
ELLIPSE
  5
3BA
100
AcDbEntity
  8
ALL_ASSEMBLY_MEMBERS
100
AcDbEllipse
 62
7
  6
CONTINUOUS
 10
5.0868665747
 20
4.3710597826
 30
0.0
 11
0.6396685892
 21
-0.0
 31
0.0
 40
0.7539583352
 41
1.4395339999
 42
1.4481578904
  0
ELLIPSE
  5
3BB
100
AcDbEntity
  8
ALL_ASSEMBLY_MEMBERS
100
AcDbEllipse
 62
7
  6
CONTINUOUS
 10
5.1744312521
 20
4.3710597826
 30
0.0
 11
0.1171229363
 21
0.4846535963
 31
0.0
 40
0.082538636
 41
1.2874639355
 42
1.3022224851
  0
ELLIPSE
  5
3BC
100
AcDbEntity
  8
ALL_ASSEMBLY_MEMBERS
100
AcDbEllipse
 62
7
  6
CONTINUOUS
 10
5.1744312521
 20
4.3710597826
 30
0.0
 11
0.116526984
 21
0.4821875514
 31
0.0
 40
0.082538636
 41
1.2876982814
 42
1.3025325273
  0
ELLIPSE
  5
3BD
100
AcDbEntity
  8
ALL_ASSEMBLY_MEMBERS
100
AcDbEllipse
 62
7
  6
CONTINUOUS
 10
5.1553045614
 20
4.3710597826
 30
0.0
 11
-0.1211290532
 21
0.4821725657
 31
0.0
 40
0.0853800458
 41
-4.2918879649
 42
-4.2793511418
  0
ELLIPSE
  5
3BE
100
AcDbEntity
  8
ALL_ASSEMBLY_MEMBERS
100
AcDbEllipse
 62
7
  6
CONTINUOUS
 10
5.1838732666
 20
4.3710597826
 30
0.0
 11
0.3205164298
 21
0.4819141273
 31
0.0
 40
0.1633544133
 41
1.364678812
 42
1.3757409965
  0
ELLIPSE
  5
3BF
100
AcDbEntity
  8
ALL_ASSEMBLY_MEMBERS
100
AcDbEllipse
 62
7
  6
CONTINUOUS
 10
5.1838732666
 20
4.3710597826
 30
0.0
 11
0.318885558
 21
0.4794620215
 31
0.0
 40
0.1633544133
 41
1.3648564897
 42
1.3759753424
  0
ELLIPSE
  5
3C0
100
AcDbEntity
  8
ALL_ASSEMBLY_MEMBERS
100
AcDbEllipse
 62
7
  6
CONTINUOUS
 10
5.2067916653
 20
4.3710597826
 30
0.0
 11
0.9880542361
 21
0.465285186
 31
0.0
 40
0.1376303424
 41
1.533430284
 42
1.5408026323
  0
ELLIPSE
  5
3C1
100
AcDbEntity
  8
ALL_ASSEMBLY_MEMBERS
100
AcDbEllipse
 62
7
  6
CONTINUOUS
 10
5.2067916653
 20
4.3710597826
 30
0.0
 11
0.9830267564
 21
0.4629176926
 31
0.0
 40
0.1376303424
 41
1.5335702205
 42
1.5409803099
  0
ELLIPSE
  5
3C2
100
AcDbEntity
  8
ALL_ASSEMBLY_MEMBERS
100
AcDbEllipse
 62
7
  6
CONTINUOUS
 10
5.1553045614
 20
4.3710597826
 30
0.0
 11
-0.1217485418
 21
0.484638534
 31
0.0
 40
0.0853800458
 41
-4.2941425674
 42
-4.2798895141
  0
ELLIPSE
  5
3C3
100
AcDbEntity
  8
ALL_ASSEMBLY_MEMBERS
100
AcDbEllipse
 62
7
  6
CONTINUOUS
 10
5.0031434041
 20
4.3710597826
 30
0.0
 11
1.2858776966
 21
0.0
 31
0.0
 40
0.3769798646
 41
7.7176661569
 42
7.7233910371
  0
ELLIPSE
  5
3C4
100
AcDbEntity
  8
ALL_ASSEMBLY_MEMBERS
100
AcDbEllipse
 62
7
  6
CONTINUOUS
 10
5.0031434041
 20
4.3710597826
 30
0.0
 11
1.2793348128
 21
0.0
 31
0.0
 40
0.3769798646
 41
1.4337793091
 42
1.4395339999
  0
ELLIPSE
  5
3C5
100
AcDbEntity
  8
ALL_ASSEMBLY_MEMBERS
100
AcDbEllipse
 62
7
  6
CONTINUOUS
 10
5.1238944437
 20
4.3710597826
 30
0.0
 11
-0.4182142408
 21
0.4767033111
 31
0.0
 40
0.1749164141
 41
-4.4101729241
 42
-4.4015666817
  0
ELLIPSE
  5
3C6
100
AcDbEntity
  8
ALL_ASSEMBLY_MEMBERS
100
AcDbEllipse
 62
7
  6
CONTINUOUS
 10
5.1238944437
 20
4.3710597826
 30
0.0
 11
-0.4203531079
 21
0.479141308
 31
0.0
 40
0.1749164141
 41
-4.4107112963
 42
-4.4021493725
  0
ELLIPSE
  5
3C7
100
AcDbEntity
  8
ALL_ASSEMBLY_MEMBERS
100
AcDbEllipse
 62
7
  6
CONTINUOUS
 10
4.9157706098
 20
4.3710597826
 30
0.0
 11
1.928827244
 21
0.0
 31
0.0
 40
0.2513185157
 41
1.4316167513
 42
1.4344808497
  0
ELLIPSE
  5
3C8
100
AcDbEntity
  8
ALL_ASSEMBLY_MEMBERS
100
AcDbEllipse
 62
7
  6
CONTINUOUS
 10
5.0632449601
 20
4.3710597826
 30
0.0
 11
0.9573098206
 21
-0.463307535
 31
0.0
 40
0.1399267287
 41
-1.3891557708
 42
-1.3776674525
  0
ELLIPSE
  5
3C9
100
AcDbEntity
  8
ALL_ASSEMBLY_MEMBERS
100
AcDbEllipse
 62
7
  6
CONTINUOUS
 10
5.0632449601
 20
4.3710597826
 30
0.0
 11
0.9622057766
 21
-0.4656770221
 31
0.0
 40
0.1399267287
 41
-1.3897384615
 42
-1.3783094395
  0
ELLIPSE
  5
3CA
100
AcDbEntity
  8
ALL_ASSEMBLY_MEMBERS
100
AcDbEllipse
 62
7
  6
CONTINUOUS
 10
4.9157706098
 20
4.3710597826
 30
0.0
 11
1.9190128639
 21
-0.0
 31
0.0
 40
0.2513185157
 41
1.4309002792
 42
1.4337793091
  0
ELLIPSE
  5
3CB
100
AcDbEntity
  8
ALL_ASSEMBLY_MEMBERS
100
AcDbEllipse
 62
7
  6
CONTINUOUS
 10
4.7029034037
 20
4.3710597826
 30
0.0
 11
3.8379783783
 21
-0.4540195858
 31
0.0
 40
0.0423859163
 41
-1.4402702398
 42
-1.4373956289
  0
ELLIPSE
  5
3CC
100
AcDbEntity
  8
ALL_ASSEMBLY_MEMBERS
100
AcDbEllipse
 62
7
  6
CONTINUOUS
 10
4.7029034037
 20
4.3710597826
 30
0.0
 11
3.8576068963
 21
-0.4563415717
 31
0.0
 40
0.0423859163
 41
-1.4409122269
 42
-1.4380524792
  0
ELLIPSE
  5
3CD
100
AcDbEntity
  8
ALL_ASSEMBLY_MEMBERS
100
AcDbEllipse
 62
7
  6
CONTINUOUS
 10
5.1496418191
 20
4.3710597826
 30
0.0
 11
-0.0934736487
 21
0.4847090994
 31
0.0
 40
0.0673659664
 41
-1.3359330152
 42
-1.3174326445
  0
ELLIPSE
  5
3CE
100
AcDbEntity
  8
ALL_ASSEMBLY_MEMBERS
100
AcDbEllipse
 62
7
  6
CONTINUOUS
 10
5.1496418191
 20
4.3710597826
 30
0.0
 11
-0.0929980302
 21
0.4822427721
 31
0.0
 40
0.0673659664
 41
-1.3364524313
 42
-1.3178566306
  0
ELLIPSE
  5
3CF
100
AcDbEntity
  8
ALL_ASSEMBLY_MEMBERS
100
AcDbEllipse
 62
7
  6
CONTINUOUS
 10
4.7373788206
 20
4.3710597826
 30
0.0
 11
3.2147129739
 21
0.0
 31
0.0
 40
0.1507910672
 41
1.4287515033
 42
1.4316167513
  0
ELLIPSE
  5
3D0
100
AcDbEntity
  8
ALL_ASSEMBLY_MEMBERS
100
AcDbEllipse
 62
7
  6
CONTINUOUS
 10
5.1296334355
 20
4.3710597826
 30
0.0
 11
-0.2873264341
 21
0.4826711449
 31
0.0
 40
0.1560789432
 41
-1.4341230973
 42
-1.4155878961
  0
ELLIPSE
  5
3D1
100
AcDbEntity
  8
ALL_ASSEMBLY_MEMBERS
100
AcDbEllipse
 62
7
  6
CONTINUOUS
 10
5.1296334355
 20
4.3710597826
 30
0.0
 11
-0.2858644416
 21
0.4802151872
 31
0.0
 40
0.1560789432
 41
-1.4347384861
 42
-1.4161073122
  0
ELLIPSE
  5
3D2
100
AcDbEntity
  8
ALL_ASSEMBLY_MEMBERS
100
AcDbEllipse
 62
7
  6
CONTINUOUS
 10
5.0862634021
 20
4.3710597826
 30
0.0
 11
0.6553159276
 21
-0.4721187462
 31
0.0
 40
0.1677639688
 41
1.5601896397
 42
1.5713302259
  0
ELLIPSE
  5
3D3
100
AcDbEntity
  8
ALL_ASSEMBLY_MEMBERS
100
AcDbEllipse
 62
7
  6
CONTINUOUS
 10
5.0862634021
 20
4.3710597826
 30
0.0
 11
0.6519815079
 21
-0.4697164819
 31
0.0
 40
0.1677639688
 41
1.5595163628
 42
1.5707148371
  0
ELLIPSE
  5
3D4
100
AcDbEntity
  8
ALL_ASSEMBLY_MEMBERS
100
AcDbEllipse
 62
7
  6
CONTINUOUS
 10
5.0108818742
 20
4.3710597826
 30
0.0
 11
1.2364591409
 21
-0.462368365
 31
0.0
 40
0.1177519922
 41
1.4764767822
 42
1.4839128544
  0
ELLIPSE
  5
3D5
100
AcDbEntity
  8
ALL_ASSEMBLY_MEMBERS
100
AcDbEllipse
 62
7
  6
CONTINUOUS
 10
5.0108818742
 20
4.3710597826
 30
0.0
 11
1.2301677117
 21
-0.4600157132
 31
0.0
 40
0.1177519922
 41
1.475764772
 42
1.4832395775
  0
ELLIPSE
  5
3D6
100
AcDbEntity
  8
ALL_ASSEMBLY_MEMBERS
100
AcDbEllipse
 62
7
  6
CONTINUOUS
 10
5.3594823765
 20
4.3710597826
 30
0.0
 11
1.2364593147
 21
0.4623683634
 31
0.0
 40
0.1177519797
 41
1.6576798102
 42
1.6651158823
  0
ELLIPSE
  5
3D7
100
AcDbEntity
  8
ALL_ASSEMBLY_MEMBERS
100
AcDbEllipse
 62
7
  6
CONTINUOUS
 10
5.3594823765
 20
4.3710597826
 30
0.0
 11
1.2301678846
 21
0.4600157117
 31
0.0
 40
0.1177519797
 41
1.6583530871
 42
1.6658278925
  0
ELLIPSE
  5
3D8
100
AcDbEntity
  8
ALL_ASSEMBLY_MEMBERS
100
AcDbEllipse
 62
7
  6
CONTINUOUS
 10
5.2841008185
 20
4.3710597826
 30
0.0
 11
0.6553158691
 21
0.4721187478
 31
0.0
 40
0.1677639734
 41
1.5702624133
 42
1.5814029995
  0
ELLIPSE
  5
3D9
100
AcDbEntity
  8
ALL_ASSEMBLY_MEMBERS
100
AcDbEllipse
 62
7
  6
CONTINUOUS
 10
5.2841008185
 20
4.3710597826
 30
0.0
 11
0.6519814497
 21
0.4697164835
 31
0.0
 40
0.1677639734
 41
1.5708778021
 42
1.5820762764
  0
ELLIPSE
  5
3DA
100
AcDbEntity
  8
ALL_ASSEMBLY_MEMBERS
100
AcDbEllipse
 62
7
  6
CONTINUOUS
 10
5.2407307889
 20
4.3710597826
 30
0.0
 11
0.287326408
 21
0.4826711454
 31
0.0
 40
0.1560789367
 41
1.4155878838
 42
1.434123085
  0
ELLIPSE
  5
3DB
100
AcDbEntity
  8
ALL_ASSEMBLY_MEMBERS
100
AcDbEllipse
 62
7
  6
CONTINUOUS
 10
5.2407307889
 20
4.3710597826
 30
0.0
 11
0.2858644157
 21
0.4802151878
 31
0.0
 40
0.1560789367
 41
1.4161072999
 42
1.4347384738
  0
ELLIPSE
  5
3DC
100
AcDbEntity
  8
ALL_ASSEMBLY_MEMBERS
100
AcDbEllipse
 62
7
  6
CONTINUOUS
 10
5.2207224071
 20
4.3710597826
 30
0.0
 11
0.0934736405
 21
0.4847090994
 31
0.0
 40
0.0673659609
 41
1.3174326423
 42
1.335933013
  0
ELLIPSE
  5
3DD
100
AcDbEntity
  8
ALL_ASSEMBLY_MEMBERS
100
AcDbEllipse
 62
7
  6
CONTINUOUS
 10
5.2207224071
 20
4.3710597826
 30
0.0
 11
0.092998022
 21
0.4822427721
 31
0.0
 40
0.0673659609
 41
1.3178566284
 42
1.3364524291
  0
ELLIPSE
  5
3DE
100
AcDbEntity
  8
ALL_ASSEMBLY_MEMBERS
100
AcDbEllipse
 62
7
  6
CONTINUOUS
 10
4.7373788206
 20
4.3710597826
 30
0.0
 11
3.1983556692
 21
0.0
 31
0.0
 40
0.1507910672
 41
1.4280200816
 42
1.4309002792
  0
ELLIPSE
  5
3DF
100
AcDbEntity
  8
ALL_ASSEMBLY_MEMBERS
100
AcDbEllipse
 62
7
  6
CONTINUOUS
 10
5.6984688351
 20
4.3710597826
 30
0.0
 11
3.8379774823
 21
0.4540195862
 31
0.0
 40
0.0423859259
 41
-1.704197027
 42
-1.7013224161
  0
ELLIPSE
  5
3E0
100
AcDbEntity
  8
ALL_ASSEMBLY_MEMBERS
100
AcDbEllipse
 62
7
  6
CONTINUOUS
 10
5.6984688351
 20
4.3710597826
 30
0.0
 11
3.8576059957
 21
0.4563415721
 31
0.0
 40
0.0423859259
 41
-1.7035401767
 42
-1.700680429
  0
ELLIPSE
  5
3E1
100
AcDbEntity
  8
ALL_ASSEMBLY_MEMBERS
100
AcDbEllipse
 62
7
  6
CONTINUOUS
 10
5.338127433
 20
4.3710597826
 30
0.0
 11
0.9573101584
 21
0.4633075297
 31
0.0
 40
0.1399266983
 41
-1.7639251619
 42
-1.7524368436
  0
ELLIPSE
  5
3E2
100
AcDbEntity
  8
ALL_ASSEMBLY_MEMBERS
100
AcDbEllipse
 62
7
  6
CONTINUOUS
 10
5.338127433
 20
4.3710597826
 30
0.0
 11
0.9622061161
 21
0.4656770168
 31
0.0
 40
0.1399266983
 41
-1.7632831748
 42
-1.7518541529
  0
ELLIPSE
  5
3E3
100
AcDbEntity
  8
ALL_ASSEMBLY_MEMBERS
100
AcDbEllipse
 62
7
  6
CONTINUOUS
 10
5.6639934055
 20
4.3710597826
 30
0.0
 11
3.2147120734
 21
-0.0
 31
0.0
 40
0.1507911094
 41
1.7099759023
 42
1.7128411503
  0
ELLIPSE
  5
3E4
100
AcDbEntity
  8
ALL_ASSEMBLY_MEMBERS
100
AcDbEllipse
 62
7
  6
CONTINUOUS
 10
5.6639934055
 20
4.3710597826
 30
0.0
 11
3.1983547732
 21
-0.0
 31
0.0
 40
0.1507911094
 41
1.7106923744
 42
1.713572572
  0
ELLIPSE
  5
3E5
100
AcDbEntity
  8
ALL_ASSEMBLY_MEMBERS
100
AcDbEllipse
 62
7
  6
CONTINUOUS
 10
5.4856019911
 20
4.3710597826
 30
0.0
 11
1.9288290452
 21
-0.0
 31
0.0
 40
0.251318281
 41
1.7071118038
 42
1.7099759023
  0
ELLIPSE
  5
3E6
100
AcDbEntity
  8
ALL_ASSEMBLY_MEMBERS
100
AcDbEllipse
 62
7
  6
CONTINUOUS
 10
5.2774779111
 20
4.3710597826
 30
0.0
 11
0.4182142408
 21
0.4767033111
 31
0.0
 40
0.1749164141
 41
-1.8816186254
 42
-1.8730123831
  0
ELLIPSE
  5
3E7
100
AcDbEntity
  8
ALL_ASSEMBLY_MEMBERS
100
AcDbEllipse
 62
7
  6
CONTINUOUS
 10
5.2774779111
 20
4.3710597826
 30
0.0
 11
0.4203531079
 21
0.479141308
 31
0.0
 40
0.1749164141
 41
-1.8810359347
 42
-1.8724740109
  0
ELLIPSE
  5
3E8
100
AcDbEntity
  8
ALL_ASSEMBLY_MEMBERS
100
AcDbEllipse
 62
7
  6
CONTINUOUS
 10
5.4856019911
 20
4.3710597826
 30
0.0
 11
1.9190146559
 21
0.0
 31
0.0
 40
0.251318281
 41
1.7078133445
 42
1.7106923744
  0
ELLIPSE
  5
3E9
100
AcDbEntity
  8
ALL_ASSEMBLY_MEMBERS
100
AcDbEllipse
 62
7
  6
CONTINUOUS
 10
5.2460677934
 20
4.3710597826
 30
0.0
 11
0.1211290532
 21
0.4821725657
 31
0.0
 40
0.0853800458
 41
-2.0038341653
 42
-1.9912973423
  0
ELLIPSE
  5
3EA
100
AcDbEntity
  8
ALL_ASSEMBLY_MEMBERS
100
AcDbEllipse
 62
7
  6
CONTINUOUS
 10
5.2460677934
 20
4.3710597826
 30
0.0
 11
0.1217485418
 21
0.484638534
 31
0.0
 40
0.0853800458
 41
-2.0032957931
 42
-1.9890427398
  0
ELLIPSE
  5
3EB
100
AcDbEntity
  8
ALL_ASSEMBLY_MEMBERS
100
AcDbEllipse
 62
7
  6
CONTINUOUS
 10
5.3982289214
 20
4.3710597826
 30
0.0
 11
1.2858774715
 21
-0.0
 31
0.0
 40
0.3769799306
 41
1.7013869237
 42
1.7071118038
  0
ELLIPSE
  5
3EC
100
AcDbEntity
  8
ALL_ASSEMBLY_MEMBERS
100
AcDbEllipse
 62
7
  6
CONTINUOUS
 10
5.3982289214
 20
4.3710597826
 30
0.0
 11
1.2793345889
 21
0.0
 31
0.0
 40
0.3769799306
 41
1.7020586537
 42
1.7078133445
  0
ELLIPSE
  5
3ED
100
AcDbEntity
  8
ALL_ASSEMBLY_MEMBERS
100
AcDbEllipse
 62
7
  6
CONTINUOUS
 10
5.3145057704
 20
4.3710597826
 30
0.0
 11
0.642939962
 21
-0.0
 31
0.0
 40
0.7539584232
 41
1.6928076234
 42
1.7013869237
  0
ELLIPSE
  5
3EE
100
AcDbEntity
  8
ALL_ASSEMBLY_MEMBERS
100
AcDbEllipse
 62
7
  6
CONTINUOUS
 10
5.3145057704
 20
4.3710597826
 30
0.0
 11
0.6396685145
 21
0.0
 31
0.0
 40
0.7539584232
 41
1.6934347632
 42
1.7020586537
  0
ELLIPSE
  5
3EF
100
AcDbEntity
  8
ALL_ASSEMBLY_MEMBERS
100
AcDbEllipse
 62
7
  6
CONTINUOUS
 10
5.337393719
 20
4.3710597826
 30
0.0
 11
0.7463249724
 21
-0.4698307965
 31
0.0
 40
0.1599010046
 41
-1.6130856485
 42
-1.5959095311
  0
ELLIPSE
  5
3F0
100
AcDbEntity
  8
ALL_ASSEMBLY_MEMBERS
100
AcDbEllipse
 62
7
  6
CONTINUOUS
 10
5.337393719
 20
4.3710597826
 30
0.0
 11
0.7425274748
 21
-0.4674401739
 31
0.0
 40
0.1599010046
 41
-1.6138200371
 42
-1.5965544644
  0
ELLIPSE
  5
3F1
100
AcDbEntity
  8
ALL_ASSEMBLY_MEMBERS
100
AcDbEllipse
 62
7
  6
CONTINUOUS
 10
5.2832052087
 20
4.3710597826
 30
0.0
 11
0.0
 21
0.48475
 31
0.0
 40
0.7958001534
 41
0.10773218
 42
0.1220112966
  0
ELLIPSE
  5
3F2
100
AcDbEntity
  8
ALL_ASSEMBLY_MEMBERS
100
AcDbEllipse
 62
7
  6
CONTINUOUS
 10
5.2832052087
 20
4.3710597826
 30
0.0
 11
0.0
 21
0.4822834646
 31
0.0
 40
0.7958001534
 41
0.1082853113
 42
0.1226384364
  0
ELLIPSE
  5
3F3
100
AcDbEntity
  8
ALL_ASSEMBLY_MEMBERS
100
AcDbEllipse
 62
7
  6
CONTINUOUS
 10
5.0821175005
 20
4.3710597826
 30
0.0
 11
3.1982722808
 21
-0.4543712279
 31
0.0
 40
0.0505558762
 41
-1.5239656048
 42
-1.5211117194
  0
ELLIPSE
  5
3F4
100
AcDbEntity
  8
ALL_ASSEMBLY_MEMBERS
100
AcDbEllipse
 62
7
  6
CONTINUOUS
 10
5.0821175005
 20
4.3710597826
 30
0.0
 11
3.2146291591
 21
-0.4566950122
 31
0.0
 40
0.0505558762
 41
-1.5241674517
 42
-1.521328112
  0
ELLIPSE
  5
3F5
100
AcDbEntity
  8
ALL_ASSEMBLY_MEMBERS
100
AcDbEllipse
 62
7
  6
CONTINUOUS
 10
5.2532482456
 20
4.3710597826
 30
0.0
 11
-0.0
 21
0.48475
 31
0.0
 40
0.2210555139
 41
0.0906260353
 42
0.10773218
  0
ELLIPSE
  5
3F6
100
AcDbEntity
  8
ALL_ASSEMBLY_MEMBERS
100
AcDbEllipse
 62
7
  6
CONTINUOUS
 10
5.2532482456
 20
4.3710597826
 30
0.0
 11
0.0
 21
0.4822834646
 31
0.0
 40
0.2210555139
 41
0.0910908057
 42
0.1082853113
  0
ELLIPSE
  5
3F7
100
AcDbEntity
  8
ALL_ASSEMBLY_MEMBERS
100
AcDbEllipse
 62
7
  6
CONTINUOUS
 10
5.1364765886
 20
4.3710597826
 30
0.0
 11
1.9186443081
 21
-0.4563054692
 31
0.0
 40
0.0813853176
 41
-1.5089407422
 42
-1.5060864941
  0
ELLIPSE
  5
3F8
100
AcDbEntity
  8
ALL_ASSEMBLY_MEMBERS
100
AcDbEllipse
 62
7
  6
CONTINUOUS
 10
5.1364765886
 20
4.3710597826
 30
0.0
 11
1.9284568033
 21
-0.4586391457
 31
0.0
 40
0.0813853176
 41
-1.5091571348
 42
-1.5063174377
  0
ELLIPSE
  5
3F9
100
AcDbEntity
  8
ALL_ASSEMBLY_MEMBERS
100
AcDbEllipse
 62
7
  6
CONTINUOUS
 10
5.1654797044
 20
4.3710597826
 30
0.0
 11
1.2782580077
 21
-0.4595926617
 31
0.0
 40
0.114367678
 41
-1.484342408
 42
-1.4786327952
  0
ELLIPSE
  5
3FA
100
AcDbEntity
  8
ALL_ASSEMBLY_MEMBERS
100
AcDbEllipse
 62
7
  6
CONTINUOUS
 10
5.1654797044
 20
4.3710597826
 30
0.0
 11
1.2847953844
 21
-0.4619431499
 31
0.0
 40
0.114367678
 41
-1.4845733516
 42
-1.478892858
  0
ELLIPSE
  5
3FB
100
AcDbEntity
  8
ALL_ASSEMBLY_MEMBERS
100
AcDbEllipse
 62
7
  6
CONTINUOUS
 10
5.1981310333
 20
4.3710597826
 30
0.0
 11
0.6347072598
 21
-0.4701874538
 31
0.0
 40
0.1691116311
 41
-1.3951024531
 42
-1.386534842
  0
ELLIPSE
  5
3FC
100
AcDbEntity
  8
ALL_ASSEMBLY_MEMBERS
100
AcDbEllipse
 62
7
  6
CONTINUOUS
 10
5.1981310333
 20
4.3710597826
 30
0.0
 11
0.6379533341
 21
-0.4725921268
 31
0.0
 40
0.1691116311
 41
-1.3953625159
 42
-1.3868386321
  0
ELLIPSE
  5
3FD
100
AcDbEntity
  8
ALL_ASSEMBLY_MEMBERS
100
AcDbEllipse
 62
7
  6
CONTINUOUS
 10
5.213380366
 20
4.3710597826
 30
0.0
 11
-0.3749396591
 21
0.4779751482
 31
0.0
 40
0.1715483401
 41
-4.4374539601
 42
-4.4231645383
  0
ELLIPSE
  5
3FE
100
AcDbEntity
  8
ALL_ASSEMBLY_MEMBERS
100
AcDbEllipse
 62
7
  6
CONTINUOUS
 10
5.213380366
 20
4.3710597826
 30
0.0
 11
-0.3768572076
 21
0.4804196496
 31
0.0
 40
0.1715483401
 41
-4.4377577502
 42
-4.4235413607
  0
ELLIPSE
  5
3FF
100
AcDbEntity
  8
ALL_ASSEMBLY_MEMBERS
100
AcDbEllipse
 62
7
  6
CONTINUOUS
 10
5.2338524544
 20
4.3710597826
 30
0.0
 11
-0.1007222974
 21
0.4822282366
 31
0.0
 40
0.0724615456
 41
-4.3045336433
 42
-4.2873661045
  0
ELLIPSE
  5
400
100
AcDbEntity
  8
ALL_ASSEMBLY_MEMBERS
100
AcDbEllipse
 62
7
  6
CONTINUOUS
 10
5.2338524544
 20
4.3710597826
 30
0.0
 11
-0.10123742
 21
0.4846944896
 31
0.0
 40
0.0724615456
 41
-4.3049104657
 42
-4.2878308749
  0
ELLIPSE
  5
401
100
AcDbEntity
  8
ALL_ASSEMBLY_MEMBERS
100
AcDbEllipse
 62
7
  6
CONTINUOUS
 10
5.1671228954
 20
4.3710597826
 30
0.0
 11
0.6429400371
 21
0.0
 31
0.0
 40
0.7539583352
 41
7.8485889439
 42
7.857099912
  0
ELLIPSE
  5
402
100
AcDbEntity
  8
ALL_ASSEMBLY_MEMBERS
100
AcDbEllipse
 62
7
  6
CONTINUOUS
 10
5.0002189328
 20
4.3710597826
 30
0.0
 11
3.8576324144
 21
-0.0
 31
0.0
 40
0.1256599769
 41
1.5143080044
 42
1.5171492967
  0
ELLIPSE
  5
403
100
AcDbEntity
  8
ALL_ASSEMBLY_MEMBERS
100
AcDbEllipse
 62
7
  6
CONTINUOUS
 10
5.0002189328
 20
4.3710597826
 30
0.0
 11
3.8380037666
 21
-0.0
 31
0.0
 40
0.1256599769
 41
7.7972041041
 42
7.8000599721
  0
ELLIPSE
  5
404
100
AcDbEntity
  8
ALL_ASSEMBLY_MEMBERS
100
AcDbEllipse
 62
7
  6
CONTINUOUS
 10
5.2469636295
 20
4.3710597826
 30
0.0
 11
-0.0866566919
 21
0.4847194462
 31
0.0
 40
0.0628055002
 41
-4.4316026612
 42
-4.4117214252
  0
ELLIPSE
  5
405
100
AcDbEntity
  8
ALL_ASSEMBLY_MEMBERS
100
AcDbEllipse
 62
7
  6
CONTINUOUS
 10
5.2469636295
 20
4.3710597826
 30
0.0
 11
-0.0862157599
 21
0.4822530662
 31
0.0
 40
0.0628055002
 41
-4.4318947599
 42
-4.4119116145
  0
ELLIPSE
  5
406
100
AcDbEntity
  8
ALL_ASSEMBLY_MEMBERS
100
AcDbEllipse
 62
7
  6
CONTINUOUS
 10
5.2600568481
 20
4.3710597826
 30
0.0
 11
-0.3118799231
 21
0.4821211713
 31
0.0
 40
0.1616508637
 41
-4.5359371337
 42
-4.5245667903
  0
ELLIPSE
  5
407
100
AcDbEntity
  8
ALL_ASSEMBLY_MEMBERS
100
AcDbEllipse
 62
7
  6
CONTINUOUS
 10
5.2600568481
 20
4.3710597826
 30
0.0
 11
-0.310292996
 21
0.4796680121
 31
0.0
 40
0.1616508637
 41
-4.5362876155
 42
-4.524858889
  0
ELLIPSE
  5
408
100
AcDbEntity
  8
ALL_ASSEMBLY_MEMBERS
100
AcDbEllipse
 62
7
  6
CONTINUOUS
 10
5.2820353519
 20
4.3710597826
 30
0.0
 11
0.6379532564
 21
-0.4725921289
 31
0.0
 40
0.169111637
 41
-1.525970049
 42
-1.5145908343
  0
ELLIPSE
  5
409
100
AcDbEntity
  8
ALL_ASSEMBLY_MEMBERS
100
AcDbEllipse
 62
7
  6
CONTINUOUS
 10
5.2820353519
 20
4.3710597826
 30
0.0
 11
0.6347071826
 21
-0.470187456
 31
0.0
 40
0.169111637
 41
-1.5263790513
 42
-1.5149413162
  0
ELLIPSE
  5
40A
100
AcDbEntity
  8
ALL_ASSEMBLY_MEMBERS
100
AcDbEllipse
 62
7
  6
CONTINUOUS
 10
5.4357944346
 20
4.3710597826
 30
0.0
 11
2.5715997839
 21
-0.4573305014
 31
0.0
 40
0.0624986133
 41
-1.6423298464
 42
-1.639483481
  0
ELLIPSE
  5
40B
100
AcDbEntity
  8
ALL_ASSEMBLY_MEMBERS
100
AcDbEllipse
 62
7
  6
CONTINUOUS
 10
5.4357944346
 20
4.3710597826
 30
0.0
 11
2.5585148082
 21
-0.4550034836
 31
0.0
 40
0.0624986133
 41
-1.6427535031
 42
-1.6398924833
  0
ELLIPSE
  5
40C
100
AcDbEntity
  8
ALL_ASSEMBLY_MEMBERS
100
AcDbEllipse
 62
7
  6
CONTINUOUS
 10
5.1635652355
 20
4.3710597826
 30
0.0
 11
0.9644113131
 21
0.0
 31
0.0
 40
0.5026382348
 41
7.7861233771
 42
7.7974933116
  0
ELLIPSE
  5
40D
100
AcDbEntity
  8
ALL_ASSEMBLY_MEMBERS
100
AcDbEllipse
 62
7
  6
CONTINUOUS
 10
5.1635652355
 20
4.3710597826
 30
0.0
 11
0.9595041348
 21
0.0
 31
0.0
 40
0.5026382348
 41
7.7911586055
 42
7.7972041041
  0
ELLIPSE
  5
40E
100
AcDbEntity
  8
ALL_ASSEMBLY_MEMBERS
100
AcDbEllipse
 62
7
  6
CONTINUOUS
 10
5.1998947531
 20
4.3710597826
 30
0.0
 11
-0.0
 21
0.48475
 31
0.0
 40
0.8842220554
 41
6.2067939025
 42
6.2153270503
  0
ELLIPSE
  5
40F
100
AcDbEntity
  8
ALL_ASSEMBLY_MEMBERS
100
AcDbEllipse
 62
7
  6
CONTINUOUS
 10
5.2227928484
 20
4.3710597826
 30
0.0
 11
-0.0
 21
0.48475
 31
0.0
 40
0.2652664142
 41
6.1925592719
 42
6.2067939025
  0
ELLIPSE
  5
410
100
AcDbEntity
  8
ALL_ASSEMBLY_MEMBERS
100
AcDbEllipse
 62
7
  6
CONTINUOUS
 10
5.1636557288
 20
4.3710597826
 30
0.0
 11
1.2858813755
 21
-0.0
 31
0.0
 40
0.3769787861
 41
7.8429147916
 42
7.8485889439
  0
ELLIPSE
  5
411
100
AcDbEntity
  8
ALL_ASSEMBLY_MEMBERS
100
AcDbEllipse
 62
7
  6
CONTINUOUS
 10
5.1675199
 20
4.3710597826
 30
0.0
 11
0.1007223063
 21
0.4822282366
 31
0.0
 40
0.0724615514
 41
-1.9958192001
 42
-1.9786516613
  0
ELLIPSE
  5
412
100
AcDbEntity
  8
ALL_ASSEMBLY_MEMBERS
100
AcDbEllipse
 62
7
  6
CONTINUOUS
 10
5.1675199
 20
4.3710597826
 30
0.0
 11
0.101237429
 21
0.4846944896
 31
0.0
 40
0.0724615514
 41
-1.9953544298
 42
-1.9782748389
  0
ELLIPSE
  5
413
100
AcDbEntity
  8
ALL_ASSEMBLY_MEMBERS
100
AcDbEllipse
 62
7
  6
CONTINUOUS
 10
5.2307461286
 20
4.3710597826
 30
0.0
 11
0.1217484712
 21
0.4846385342
 31
0.0
 40
0.0853800028
 41
-1.8839500288
 42
-1.8697617145
  0
ELLIPSE
  5
414
100
AcDbEntity
  8
ALL_ASSEMBLY_MEMBERS
100
AcDbEllipse
 62
7
  6
CONTINUOUS
 10
5.2307461286
 20
4.3710597826
 30
0.0
 11
0.121128983
 21
0.482172566
 31
0.0
 40
0.0853800028
 41
-1.8838760368
 42
-1.8713258838
  0
ELLIPSE
  5
415
100
AcDbEntity
  8
ALL_ASSEMBLY_MEMBERS
100
AcDbEllipse
 62
7
  6
CONTINUOUS
 10
5.2264057108
 20
4.3710597826
 30
0.0
 11
0.4203531079
 21
0.479141308
 31
0.0
 40
0.1749164141
 41
-1.7616396296
 42
-1.7531282233
  0
ELLIPSE
  5
416
100
AcDbEntity
  8
ALL_ASSEMBLY_MEMBERS
100
AcDbEllipse
 62
7
  6
CONTINUOUS
 10
5.2264057108
 20
4.3710597826
 30
0.0
 11
0.4182142408
 21
0.4767033111
 31
0.0
 40
0.1749164141
 41
-1.7616091722
 42
-1.7530542313
  0
ELLIPSE
  5
417
100
AcDbEntity
  8
ALL_ASSEMBLY_MEMBERS
100
AcDbEllipse
 62
7
  6
CONTINUOUS
 10
5.2232149779
 20
4.3710597826
 30
0.0
 11
0.9622070503
 21
0.4656770023
 31
0.0
 40
0.1399266146
 41
-1.6381317277
 42
-1.6324577399
  0
ELLIPSE
  5
418
100
AcDbEntity
  8
ALL_ASSEMBLY_MEMBERS
100
AcDbEllipse
 62
7
  6
CONTINUOUS
 10
5.2232149779
 20
4.3710597826
 30
0.0
 11
0.9573110879
 21
0.4633075153
 31
0.0
 40
0.1399266146
 41
-1.638130289
 42
-1.6324272825
  0
ELLIPSE
  5
419
100
AcDbEntity
  8
ALL_ASSEMBLY_MEMBERS
100
AcDbEllipse
 62
7
  6
CONTINUOUS
 10
5.2201999765
 20
4.3710597826
 30
0.0
 11
1.2847953844
 21
-0.4619431499
 31
0.0
 40
0.114367678
 41
-1.5356543218
 42
-1.5299803341
  0
ELLIPSE
  5
41A
100
AcDbEntity
  8
ALL_ASSEMBLY_MEMBERS
100
AcDbEllipse
 62
7
  6
CONTINUOUS
 10
5.2201999765
 20
4.3710597826
 30
0.0
 11
1.2782580077
 21
-0.4595926617
 31
0.0
 40
0.114367678
 41
-1.5356847793
 42
-1.5299817728
  0
ELLIPSE
  5
41B
100
AcDbEntity
  8
ALL_ASSEMBLY_MEMBERS
100
AcDbEllipse
 62
7
  6
CONTINUOUS
 10
5.2159608601
 20
4.3710597826
 30
0.0
 11
0.5681047491
 21
-0.4746020763
 31
0.0
 40
0.1736797508
 41
-1.5122023158
 42
-1.4326628245
  0
ELLIPSE
  5
41C
100
AcDbEntity
  8
ALL_ASSEMBLY_MEMBERS
100
AcDbEllipse
 62
7
  6
CONTINUOUS
 10
5.2159608601
 20
4.3710597826
 30
0.0
 11
0.5652140828
 21
-0.4721871761
 31
0.0
 40
0.1736797508
 41
-1.5126406373
 42
-1.4326932819
  0
ELLIPSE
  5
41D
100
AcDbEntity
  8
ALL_ASSEMBLY_MEMBERS
100
AcDbEllipse
 62
7
  6
CONTINUOUS
 10
5.3192548886
 20
4.3710597826
 30
0.0
 11
3.2146300597
 21
0.4566950116
 31
0.0
 40
0.0505558626
 41
-1.6202645376
 42
-1.6174251979
  0
ELLIPSE
  5
41E
100
AcDbEntity
  8
ALL_ASSEMBLY_MEMBERS
100
AcDbEllipse
 62
7
  6
CONTINUOUS
 10
5.3192548886
 20
4.3710597826
 30
0.0
 11
3.1982731769
 21
0.4543712273
 31
0.0
 40
0.0505558626
 41
-1.6204809302
 42
-1.6176270448
  0
ELLIPSE
  5
41F
100
AcDbEntity
  8
ALL_ASSEMBLY_MEMBERS
100
AcDbEllipse
 62
7
  6
CONTINUOUS
 10
5.2648956863
 20
4.3710597826
 30
0.0
 11
1.9284550012
 21
0.4586391511
 31
0.0
 40
0.0813853855
 41
-1.6352752504
 42
-1.6324355533
  0
ELLIPSE
  5
420
100
AcDbEntity
  8
ALL_ASSEMBLY_MEMBERS
100
AcDbEllipse
 62
7
  6
CONTINUOUS
 10
5.2648956863
 20
4.3710597826
 30
0.0
 11
1.9186425152
 21
0.4563054746
 31
0.0
 40
0.0813853855
 41
-1.635506194
 42
-1.6326519458
  0
ELLIPSE
  5
421
100
AcDbEntity
  8
ALL_ASSEMBLY_MEMBERS
100
AcDbEllipse
 62
7
  6
CONTINUOUS
 10
5.2358926619
 20
4.3710597826
 30
0.0
 11
1.28479561
 21
0.461943148
 31
0.0
 40
0.1143676625
 41
-1.6626997827
 42
-1.6570192891
  0
ELLIPSE
  5
422
100
AcDbEntity
  8
ALL_ASSEMBLY_MEMBERS
100
AcDbEllipse
 62
7
  6
CONTINUOUS
 10
5.2358926619
 20
4.3710597826
 30
0.0
 11
1.2782582322
 21
0.4595926598
 31
0.0
 40
0.1143676625
 41
-1.6629598455
 42
-1.6572502327
  0
ELLIPSE
  5
423
100
AcDbEntity
  8
ALL_ASSEMBLY_MEMBERS
100
AcDbEllipse
 62
7
  6
CONTINUOUS
 10
5.2032413254
 20
4.3710597826
 30
0.0
 11
0.6379534101
 21
0.4725921247
 31
0.0
 40
0.1691116253
 41
-1.754754002
 42
-1.7462301183
  0
ELLIPSE
  5
424
100
AcDbEntity
  8
ALL_ASSEMBLY_MEMBERS
100
AcDbEllipse
 62
7
  6
CONTINUOUS
 10
5.2032413254
 20
4.3710597826
 30
0.0
 11
0.6347073354
 21
0.4701874517
 31
0.0
 40
0.1691116253
 41
-1.7550577922
 42
-1.7464901811
  0
ELLIPSE
  5
425
100
AcDbEntity
  8
ALL_ASSEMBLY_MEMBERS
100
AcDbEllipse
 62
7
  6
CONTINUOUS
 10
5.1879919902
 20
4.3710597826
 30
0.0
 11
0.3768572419
 21
0.4804196487
 31
0.0
 40
0.1715483437
 41
-1.8596439314
 42
-1.8454275419
  0
ELLIPSE
  5
426
100
AcDbEntity
  8
ALL_ASSEMBLY_MEMBERS
100
AcDbEllipse
 62
7
  6
CONTINUOUS
 10
5.1879919902
 20
4.3710597826
 30
0.0
 11
0.3749396931
 21
0.4779751472
 31
0.0
 40
0.1715483437
 41
-1.8600207538
 42
-1.8457313321
  0
ENDSEC
  0
SECTION
  2
OBJECTS
  0
DICTIONARY
  5
C
100
AcDbDictionary
280
0
281
1
  3
ACAD_GROUP
350
D
  3
ACAD_MLINESTYLE
350
17
  3
ACAD_LAYOUT
350
1A
  3
ACAD_PLOTSETTINGS
350
19
  3
ACAD_PLOTSTYLENAME
350
E
  0
DICTIONARY
  5
D
102
{ACAD_REACTORS
330
C
102
}
100
AcDbDictionary
280
0
281
1
  0
ACDBDICTIONARYWDFLT
  5
E
102
{ACAD_REACTORS
330
C
102
}
100
AcDbDictionary
281
1
  3
Normal
350
F
100
AcDbDictionaryWithDefault
340
F
  0
DICTIONARY
  5
17
102
{ACAD_REACTORS
330
C
102
}
100
AcDbDictionary
280
0
281
1
  3
Standard
350
18
  0
DICTIONARY
  5
19
102
{ACAD_REACTORS
330
C
102
}
100
AcDbDictionary
281
1
  0
DICTIONARY
  5
1A
102
{ACAD_REACTORS
330
C
102
}
100
AcDbDictionary
281
1
  3
Model
350
427
  3
Layout1
350
428
  0
ACDBPLACEHOLDER
  5
F
102
{ACAD_REACTORS
330
E
102
}
  0
MLINESTYLE
  5
18
102
{ACAD_REACTORS
330
17
102
}
100
AcDbMlineStyle
  2
STANDARD
 70
0
  3

 62
256
 51
90.0
 52
90.0
 71
2
 49
0.5
 62
256
  6
BYLAYER
 49
-0.5
 62
256
  6
BYLAYER
  0
LAYOUT
  5
427
102
{ACAD_REACTORS
330
1A
102
}
100
AcDbPlotSettings
  1

  2
none_device
  4
ANSI_A_(11.00_x_8.50_Inches)
  6

 40
0.0
 41
0.0
 42
0.0
 43
0.0
 44
279.4
 45
215.9
 46
0.0
 47
0.0
 48
0.0
 49
0.0
140
0.0
141
0.0
142
1.0
143
1.0
 70
1024
 72
0
 73
0
 74
0
  7

 75
0
147
1.0
148
0.0
149
0.0
100
AcDbLayout
  1
Model
 70
0
 71
0
 10
0.0
 20
0.0
 11
11.0
 21
8.5
 12
0.0
 22
0.0
 32
0.0
 14
0.0
 24
0.0
 34
0.0
 15
0.0
 25
0.0
 35
0.0
146
0.0
 13
0.0
 23
0.0
 33
0.0
 16
1.0
 26
0.0
 36
0.0
 17
0.0
 27
1.0
 37
0.0
 76
0
330
21D
345
0
346
0
  0
LAYOUT
  5
428
102
{ACAD_REACTORS
330
1A
102
}
100
AcDbPlotSettings
  1

  2
none_device
  4
ANSI_A_(11.00_x_8.50_Inches)
  6

 40
0.0
 41
0.0
 42
0.0
 43
0.0
 44
279.4
 45
215.9
 46
0.0
 47
0.0
 48
0.0
 49
0.0
140
0.0
141
0.0
142
1.0
143
1.0
 70
0
 72
0
 73
0
 74
0
  7

 75
0
147
1.0
148
0.0
149
0.0
100
AcDbLayout
  1
Layout1
 70
0
 71
1
 10
0.0
 20
0.0
 11
11.0
 21
8.5
 12
0.0
 22
0.0
 32
0.0
 14
0.0
 24
0.0
 34
0.0
 15
0.0
 25
0.0
 35
0.0
146
0.0
 13
0.0
 23
0.0
 33
0.0
 16
1.0
 26
0.0
 36
0.0
 17
0.0
 27
1.0
 37
0.0
 76
0
330
21E
345
0
346
0
  0
ENDSEC
  0
EOF
