999
DXF file: 3-1664ts_FRONT.dxf
999
Pro/ENGINEER 2018400 by Parametric Technology Corporation
  0
SECTION
  2
HEADER
  9
$ACADVER
  1
AC1027
  9
$DWGCODEPAGE
  3
ANSI_1252
  9
$EXTMAX
 10
11.0
 20
8.5
 30
0.0
  9
$EXTMIN
 10
0.0
 20
0.0
 30
0.0
  9
$LIMMIN
 10
0.0
 20
0.0
  9
$LIMMAX
 10
11.0
 20
8.5
  9
$VIEWCTR
 10
5.5
 20
4.25
  9
$VIEWSIZE
 40
8.5
  9
$CLAYER
  8
0
  9
$LTSCALE
 40
0.605
  9
$CELTYPE
  6
BYLAYER
  9
$DIMSCALE
 40
1.0
  9
$DIMASZ
 40
0.1
  9
$DIMEXO
 40
0.0625
  9
$DIMDLI
 40
0.418
  9
$DIMEXE
 40
0.125
  9
$DIMCEN
 40
0.099
  9
$DIMLFAC
 40
1.0
  9
$DIMBLK
  1
_FILLED
  9
$DIMALT
 70
1
  9
$DIMALTD
 70
2
  9
$DIMALTTD
 70
2
  9
$DIMALTF
 40
25.4
  9
$DIMTXT
 40
0.08
  9
$DIMTOL
 70
1
  9
$DIMLIM
 70
0
  9
$DIMTFAC
 40
1.0
  9
$DIMTP
 40
0.001
  9
$DIMTM
 40
0.001
  9
$DIMGAP
 40
0.09
  9
$DIMDSEP
 70
46
  9
$AUNITS
 70
0
  9
$PDMODE
 70
3
  9
$PDSIZE
 40
0.3125
  9
$HANDSEED
  5
27B
  9
$TILEMODE
 70
1
  9
$MEASUREMENT
 70
0
  9
$INSUNITS
 70
1
  0
ENDSEC
  0
SECTION
  2
CLASSES
  0
CLASS
  1
ACDBDICTIONARYWDFLT
  2
AcDbDictionaryWithDefault
  3
AutoCAD 2000
 90
0
 91
1
280
0
281
0
  0
CLASS
  1
ACDBPLACEHOLDER
  2
AcDbPlaceHolder
  3
AutoCAD 2000
 90
0
 91
1
280
0
281
0
  0
CLASS
  1
LAYOUT
  2
AcDbLayout
  3
AutoCAD 2000
 90
0
 91
0
280
0
281
0
  0
ENDSEC
  0
SECTION
  2
TABLES
  0
TABLE
  2
VPORT
  5
8
100
AcDbSymbolTable
 70
2
  0
VPORT
  5
1F4
100
AcDbSymbolTableRecord
100
AcDbViewportTableRecord
  2
*ACTIVE
 70
0
 10
0.0
 20
0.0
 11
1.0
 21
1.0
 12
5.5
 22
4.25
 13
0.0
 23
0.0
 14
1.0
 24
1.0
 15
0.0
 25
0.0
 16
0.0
 26
0.0
 36
1.0
 17
0.0
 27
0.0
 37
0.0
 40
8.5
 41
1.2941176471
 42
50.0
 43
0.0
 44
0.0
 50
0.0
 51
0.0
 71
0
 72
100
 73
1
 74
1
 75
0
 76
0
 77
0
 78
0
  0
ENDTAB
  0
TABLE
  2
LTYPE
  5
5
100
AcDbSymbolTable
 70
6
  0
LTYPE
  5
14
100
AcDbSymbolTableRecord
100
AcDbLinetypeTableRecord
  2
BYBLOCK
 70
0
  3

 72
65
 73
0
 40
0.0
  0
LTYPE
  5
15
100
AcDbSymbolTableRecord
100
AcDbLinetypeTableRecord
  2
BYLAYER
 70
0
  3

 72
65
 73
0
 40
0.0
  0
LTYPE
  5
16
100
AcDbSymbolTableRecord
100
AcDbLinetypeTableRecord
  2
CONTINUOUS
 70
64
  3
Solid line
 72
65
 73
0
 40
0.0
  0
LTYPE
  5
1F5
100
AcDbSymbolTableRecord
100
AcDbLinetypeTableRecord
  2
CENTER
 70
64
  3
____ _ ____ _ ____ _ ____ _ ____ _ ____ _ ____
 72
65
 73
4
 40
0.6
 49
0.375
 74
0
 49
-0.075
 74
0
 49
0.075
 74
0
 49
-0.075
 74
0
  0
LTYPE
  5
1F6
100
AcDbSymbolTableRecord
100
AcDbLinetypeTableRecord
  2
HIDDEN
 70
64
  3
- - - - - - - - - - - - - - - - - - - -
 72
65
 73
2
 40
0.2
 49
0.1
 74
0
 49
-0.1
 74
0
  0
LTYPE
  5
1F7
100
AcDbSymbolTableRecord
100
AcDbLinetypeTableRecord
  2
PHANTOM
 70
64
  3
_____ _ _ _____ _ _ _____ _ _ _____
 72
65
 73
6
 40
0.8
 49
0.45
 74
0
 49
-0.05
 74
0
 49
0.1
 74
0
 49
-0.05
 74
0
 49
0.1
 74
0
 49
-0.05
 74
0
  0
LTYPE
  5
1F8
100
AcDbSymbolTableRecord
100
AcDbLinetypeTableRecord
  2
DOT
 70
64
  3
. . . . . . . . . . . . . . . . . . . .
 72
65
 73
2
 40
0.2
 49
0.1
 74
0
 49
-0.1
 74
0
  0
LTYPE
  5
1F9
100
AcDbSymbolTableRecord
100
AcDbLinetypeTableRecord
  2
DASHED
 70
64
  3
- - - - - - - - - - - - - - - - - - - -
 72
65
 73
2
 40
0.2
 49
0.1
 74
0
 49
-0.1
 74
0
  0
ENDTAB
  0
TABLE
  2
LAYER
  5
2
100
AcDbSymbolTable
 70
36
  0
LAYER
  5
10
100
AcDbSymbolTableRecord
100
AcDbLayerTableRecord
  2
0
 70
0
 62
7
  6
CONTINUOUS
370
-3
390
F
  0
LAYER
  5
1FA
100
AcDbSymbolTableRecord
100
AcDbLayerTableRecord
  2
DEFAULT_1
 70
0
 62
7
  6
CENTER
370
-3
390
F
  0
LAYER
  5
1FB
100
AcDbSymbolTableRecord
100
AcDbLayerTableRecord
  2
DEFAULT_2
 70
0
 62
8
  6
HIDDEN
370
-3
390
F
  0
LAYER
  5
1FC
100
AcDbSymbolTableRecord
100
AcDbLayerTableRecord
  2
DEFAULT_3
 70
0
 62
7
  6
PHANTOM
370
-3
390
F
  0
LAYER
  5
1FD
100
AcDbSymbolTableRecord
100
AcDbLayerTableRecord
  2
2-265_ASSY_PLANES
 70
0
 62
7
  6
CONTINUOUS
370
-3
390
F
  0
LAYER
  5
1FE
100
AcDbSymbolTableRecord
100
AcDbLayerTableRecord
  2
AA
 70
0
 62
7
  6
CONTINUOUS
370
-3
390
F
  0
LAYER
  5
1FF
100
AcDbSymbolTableRecord
100
AcDbLayerTableRecord
  2
ALL_ASSEMBLY_MEMBERS
 70
0
 62
7
  6
CONTINUOUS
370
-3
390
F
  0
LAYER
  5
200
100
AcDbSymbolTableRecord
100
AcDbLayerTableRecord
  2
ALL_FEATURES
 70
0
 62
7
  6
CONTINUOUS
370
-3
390
F
  0
LAYER
  5
201
100
AcDbSymbolTableRecord
100
AcDbLayerTableRecord
  2
AXES_FEATURES
 70
0
 62
7
  6
CONTINUOUS
370
-3
390
F
  0
LAYER
  5
202
100
AcDbSymbolTableRecord
100
AcDbLayerTableRecord
  2
CHAMFER_FEATURES
 70
0
 62
7
  6
CONTINUOUS
370
-3
390
F
  0
LAYER
  5
203
100
AcDbSymbolTableRecord
100
AcDbLayerTableRecord
  2
CURVE
 70
0
 62
7
  6
CONTINUOUS
370
-3
390
F
  0
LAYER
  5
204
100
AcDbSymbolTableRecord
100
AcDbLayerTableRecord
  2
CUT_FEATURES
 70
0
 62
7
  6
CONTINUOUS
370
-3
390
F
  0
LAYER
  5
205
100
AcDbSymbolTableRecord
100
AcDbLayerTableRecord
  2
DATUM_CURVES
 70
0
 62
7
  6
CONTINUOUS
370
-3
390
F
  0
LAYER
  5
206
100
AcDbSymbolTableRecord
100
AcDbLayerTableRecord
  2
DATUM_PLANES
 70
0
 62
7
  6
CONTINUOUS
370
-3
390
F
  0
LAYER
  5
207
100
AcDbSymbolTableRecord
100
AcDbLayerTableRecord
  2
DATUM_POINTS
 70
0
 62
7
  6
CONTINUOUS
370
-3
390
F
  0
LAYER
  5
208
100
AcDbSymbolTableRecord
100
AcDbLayerTableRecord
  2
DEFAULT_COORDINATE_SYSTEM
 70
0
 62
7
  6
CONTINUOUS
370
-3
390
F
  0
LAYER
  5
209
100
AcDbSymbolTableRecord
100
AcDbLayerTableRecord
  2
DEFAULT_DATUM_AXES
 70
0
 62
7
  6
CONTINUOUS
370
-3
390
F
  0
LAYER
  5
20A
100
AcDbSymbolTableRecord
100
AcDbLayerTableRecord
  2
DEFAULT_DATUM_CURVES
 70
0
 62
7
  6
CONTINUOUS
370
-3
390
F
  0
LAYER
  5
20B
100
AcDbSymbolTableRecord
100
AcDbLayerTableRecord
  2
DEFAULT_DATUM_PLANES
 70
0
 62
7
  6
CONTINUOUS
370
-3
390
F
  0
LAYER
  5
20C
100
AcDbSymbolTableRecord
100
AcDbLayerTableRecord
  2
DEFAULT_SURFACES
 70
0
 62
7
  6
CONTINUOUS
370
-3
390
F
  0
LAYER
  5
20D
100
AcDbSymbolTableRecord
100
AcDbLayerTableRecord
  2
DIMENSIONS
 70
0
 62
7
  6
CONTINUOUS
370
-3
390
F
  0
LAYER
  5
20E
100
AcDbSymbolTableRecord
100
AcDbLayerTableRecord
  2
HOLE_FEATURES
 70
0
 62
7
  6
CONTINUOUS
370
-3
390
F
  0
LAYER
  5
20F
100
AcDbSymbolTableRecord
100
AcDbLayerTableRecord
  2
LAY0001
 70
0
 62
7
  6
CONTINUOUS
370
-3
390
F
  0
LAYER
  5
210
100
AcDbSymbolTableRecord
100
AcDbLayerTableRecord
  2
NOTES
 70
0
 62
7
  6
CONTINUOUS
370
-3
390
F
  0
LAYER
  5
211
100
AcDbSymbolTableRecord
100
AcDbLayerTableRecord
  2
PART_REFERENCE_DIMENSIONS
 70
0
 62
7
  6
CONTINUOUS
370
-3
390
F
  0
LAYER
  5
212
100
AcDbSymbolTableRecord
100
AcDbLayerTableRecord
  2
PLATED_SURFACE_AREA
 70
0
 62
7
  6
CONTINUOUS
370
-3
390
F
  0
LAYER
  5
213
100
AcDbSymbolTableRecord
100
AcDbLayerTableRecord
  2
POINTS
 70
0
 62
7
  6
CONTINUOUS
370
-3
390
F
  0
LAYER
  5
214
100
AcDbSymbolTableRecord
100
AcDbLayerTableRecord
  2
PROTRUSION
 70
0
 62
7
  6
CONTINUOUS
370
-3
390
F
  0
LAYER
  5
215
100
AcDbSymbolTableRecord
100
AcDbLayerTableRecord
  2
PROTRUSION_FEATURES
 70
0
 62
7
  6
CONTINUOUS
370
-3
390
F
  0
LAYER
  5
216
100
AcDbSymbolTableRecord
100
AcDbLayerTableRecord
  2
QUILT
 70
0
 62
7
  6
CONTINUOUS
370
-3
390
F
  0
LAYER
  5
217
100
AcDbSymbolTableRecord
100
AcDbLayerTableRecord
  2
QUILTS
 70
0
 62
7
  6
CONTINUOUS
370
-3
390
F
  0
LAYER
  5
218
100
AcDbSymbolTableRecord
100
AcDbLayerTableRecord
  2
REFERENCE_DIMENSIONS
 70
0
 62
7
  6
CONTINUOUS
370
-3
390
F
  0
LAYER
  5
219
100
AcDbSymbolTableRecord
100
AcDbLayerTableRecord
  2
ROUND_FEATURES
 70
0
 62
7
  6
CONTINUOUS
370
-3
390
F
  0
LAYER
  5
21A
100
AcDbSymbolTableRecord
100
AcDbLayerTableRecord
  2
SHELL_FEATURES
 70
0
 62
7
  6
CONTINUOUS
370
-3
390
F
  0
LAYER
  5
21B
100
AcDbSymbolTableRecord
100
AcDbLayerTableRecord
  2
SURFACE_FEATURES
 70
0
 62
7
  6
CONTINUOUS
370
-3
390
F
  0
LAYER
  5
21C
100
AcDbSymbolTableRecord
100
AcDbLayerTableRecord
  2
XSEC_DATUMS
 70
0
 62
7
  6
CONTINUOUS
370
-3
390
F
  0
ENDTAB
  0
TABLE
  2
STYLE
  5
3
100
AcDbSymbolTable
 70
1
  0
STYLE
  5
11
100
AcDbSymbolTableRecord
100
AcDbTextStyleTableRecord
  2
STANDARD
 70
0
 40
0.0
 41
0.8
 50
0.0
 71
0
 42
0.2
  3
txt
  4

  0
STYLE
  5
21D
100
AcDbSymbolTableRecord
100
AcDbTextStyleTableRecord
  2
TEXTSTYLE_1
 70
0
 40
0.0
 41
0.8
 50
0.0
 71
0
 42
0.2
  3
gdt
  4

  0
ENDTAB
  0
TABLE
  2
VIEW
  5
6
100
AcDbSymbolTable
 70
0
  0
ENDTAB
  0
TABLE
  2
UCS
  5
7
100
AcDbSymbolTable
 70
0
  0
ENDTAB
  0
TABLE
  2
APPID
  5
9
100
AcDbSymbolTable
 70
1
  0
APPID
  5
21E
100
AcDbSymbolTableRecord
100
AcDbRegAppTableRecord
  2
ACAD
 70
0
  0
ENDTAB
  0
TABLE
  2
BLOCK_RECORD
  5
1
100
AcDbSymbolTable
 70
0
  0
BLOCK_RECORD
  5
21F
100
AcDbSymbolTableRecord
100
AcDbBlockTableRecord
  2
*Model_Space
  0
BLOCK_RECORD
  5
220
100
AcDbSymbolTableRecord
100
AcDbBlockTableRecord
  2
*Paper_Space
  0
BLOCK_RECORD
  5
221
100
AcDbSymbolTableRecord
100
AcDbBlockTableRecord
  2
_FILLED
  0
ENDTAB
  0
TABLE
  2
DIMSTYLE
  5
A
100
AcDbSymbolTable
 70
1
100
AcDbDimStyleTable
 71
0
  0
DIMSTYLE
105
222
100
AcDbSymbolTableRecord
100
AcDbDimStyleTableRecord
  2
STANDARD
 70
0
  3

  4

 40
1.0
 41
0.1
 42
0.0625
 43
0.38
 44
0.125
 45
0.0
 46
0.0
 47
0.001
 48
0.001
140
0.08
141
0.09
142
0.0
143
25.4
144
1.0
145
0.0
146
1.0
147
0.09
 71
1.0
 72
0.0
 73
1
 74
1
 75
0
 76
0
 77
0
 78
4
 79
1
170
1
171
2
172
0
173
0
174
0
175
0
176
0
177
0
178
0
270
2
179
3
271
3
272
3
273
2
274
2
275
0
280
0
281
0
282
0
283
1
284
4
285
0
286
0
287
3
288
0
340
11
278
46
341
221
342
221
343
221
344
221
  0
ENDTAB
  0
ENDSEC
  0
SECTION
  2
BLOCKS
  0
BLOCK
  5
20
100
AcDbEntity
  8
0
100
AcDbBlockBegin
  2
*Model_Space
 70
0
 10
0.0
 20
0.0
 30
0.0
  3
*Model_Space
  1

  0
ENDBLK
  5
21
100
AcDbEntity
  8
0
100
AcDbBlockEnd
  0
BLOCK
  5
1C
100
AcDbEntity
  8
0
100
AcDbBlockBegin
  2
*Paper_Space
 70
0
 10
0.0
 20
0.0
 30
0.0
  3
*Paper_Space
  1

  0
ENDBLK
  5
1D
100
AcDbEntity
  8
0
100
AcDbBlockEnd
  0
BLOCK
  5
223
100
AcDbEntity
  8
0
100
AcDbBlockBegin
  2
_FILLED
 70
64
 10
0.0
 20
0.0
  3
_FILLED
  1

  0
SOLID
  5
224
100
AcDbEntity
  8
0
  6
BYBLOCK
 62
0
100
AcDbTrace
 10
0.0
 20
0.0
 11
-1.0
 21
0.2
 12
-1.0
 22
-0.2
 13
-1.0
 23
-0.2
  0
ENDBLK
  5
225
100
AcDbEntity
  8
0
  6
BYBLOCK
 62
0
100
AcDbBlockEnd
  0
ENDSEC
  0
SECTION
  2
ENTITIES
  0
MTEXT
  5
226
100
AcDbEntity
  8
0
100
AcDbMText
 62
2
  6
CONTINUOUS
  7
STANDARD
 71
3
 72
1
 10
4.6468167702
 20
2.8240023292
 30
0.0
 11
1.0
 21
0.0
 31
0.0
 73
2
 44
0.9
  1
SCALE  .500
 40
0.08
 41
0.704
  0
LINE
  5
227
100
AcDbEntity
  8
0
100
AcDbLine
 62
7
  6
CONTINUOUS
 10
0.0
 20
0.0
 11
0.0
 21
8.5
  0
LINE
  5
228
100
AcDbEntity
  8
0
100
AcDbLine
 62
7
  6
CONTINUOUS
 10
0.0
 20
0.0
 11
11.0
 21
0.0
  0
LINE
  5
229
100
AcDbEntity
  8
0
100
AcDbLine
 62
7
  6
CONTINUOUS
 10
0.0
 20
8.5
 11
11.0
 21
8.5
  0
LINE
  5
22A
100
AcDbEntity
  8
0
100
AcDbLine
 62
7
  6
CONTINUOUS
 10
11.0
 20
0.0
 11
11.0
 21
8.5
  0
LINE
  5
22B
100
AcDbEntity
  8
ALL_ASSEMBLY_MEMBERS
100
AcDbLine
 62
7
  6
CONTINUOUS
 10
3.0218167702
 20
6.1690023292
 11
3.0218167702
 21
2.9190023292
  0
LINE
  5
22C
100
AcDbEntity
  8
ALL_ASSEMBLY_MEMBERS
100
AcDbLine
 62
7
  6
CONTINUOUS
 10
3.0793167702
 20
6.1115023292
 11
3.0793167702
 21
2.9765023292
  0
LINE
  5
22D
100
AcDbEntity
  8
ALL_ASSEMBLY_MEMBERS
100
AcDbLine
 62
7
  6
CONTINUOUS
 10
3.0218167702
 20
2.9190023292
 11
6.2718167702
 21
2.9190023292
  0
LINE
  5
22E
100
AcDbEntity
  8
ALL_ASSEMBLY_MEMBERS
100
AcDbLine
 62
7
  6
CONTINUOUS
 10
3.0793167702
 20
2.9765023292
 11
6.2143167702
 21
2.9765023292
  0
LINE
  5
22F
100
AcDbEntity
  8
ALL_ASSEMBLY_MEMBERS
100
AcDbLine
 62
7
  6
CONTINUOUS
 10
4.7660591704
 20
3.8190023292
 11
4.7576503843
 21
3.8190023292
  0
LINE
  5
230
100
AcDbEntity
  8
ALL_ASSEMBLY_MEMBERS
100
AcDbLine
 62
7
  6
CONTINUOUS
 10
4.7046173757
 20
3.8190023292
 11
4.6843167702
 21
3.8190023292
  0
LINE
  5
231
100
AcDbEntity
  8
ALL_ASSEMBLY_MEMBERS
100
AcDbLine
 62
7
  6
CONTINUOUS
 10
4.6093167702
 20
3.8190023292
 11
4.5890161647
 21
3.8190023292
  0
LINE
  5
232
100
AcDbEntity
  8
ALL_ASSEMBLY_MEMBERS
100
AcDbLine
 62
7
  6
CONTINUOUS
 10
4.52757437
 20
3.8190023292
 11
4.5359831561
 21
3.8190023292
  0
LWPOLYLINE
  5
233
100
AcDbEntity
  8
ALL_ASSEMBLY_MEMBERS
100
AcDbPolyline
 62
7
  6
CONTINUOUS
 90
7
 70
0
 10
3.0793167702
 20
2.9765023292
 10
3.0791925951
 20
2.9763403556
 10
3.078681235
 20
2.9758372401
 10
3.07778269
 20
2.974968249
 10
3.0764903762
 20
2.9736998469
 10
3.0748108775
 20
2.9720167081
 10
3.0727639453
 20
2.9699495043
  0
LWPOLYLINE
  5
234
100
AcDbEntity
  8
ALL_ASSEMBLY_MEMBERS
100
AcDbPolyline
 62
7
  6
CONTINUOUS
 90
7
 70
0
 10
6.2143167702
 20
2.9765023292
 10
6.2144787438
 20
2.9763781541
 10
6.2149818592
 20
2.975866794
 10
6.2158508504
 20
2.974968249
 10
6.2171192525
 20
2.9736759352
 10
6.2188023913
 20
2.9719964365
 10
6.2208695951
 20
2.9699495043
  0
LWPOLYLINE
  5
235
100
AcDbEntity
  8
ALL_ASSEMBLY_MEMBERS
100
AcDbPolyline
 62
7
  6
CONTINUOUS
 90
7
 70
0
 10
3.0793167702
 20
6.1115023292
 10
3.0791925951
 20
6.1116643028
 10
3.078681235
 20
6.1121674182
 10
3.07778269
 20
6.1130364094
 10
3.0764903762
 20
6.1143048115
 10
3.0748108775
 20
6.1159879503
 10
3.0727639453
 20
6.1180551541
  0
LINE
  5
236
100
AcDbEntity
  8
ALL_ASSEMBLY_MEMBERS
100
AcDbLine
 62
7
  6
CONTINUOUS
 10
4.6843167702
 20
3.8190023292
 11
4.6468167702
 21
4.2440023292
  0
LINE
  5
237
100
AcDbEntity
  8
ALL_ASSEMBLY_MEMBERS
100
AcDbLine
 62
7
  6
CONTINUOUS
 10
4.5890161647
 20
3.8190023292
 11
4.5849449268
 21
4.2440023292
  0
LINE
  5
238
100
AcDbEntity
  8
ALL_ASSEMBLY_MEMBERS
100
AcDbLine
 62
7
  6
CONTINUOUS
 10
4.5593167702
 20
4.309851191
 11
4.5593167702
 21
4.2440023292
  0
LINE
  5
239
100
AcDbEntity
  8
ALL_FEATURES
100
AcDbLine
 62
7
  6
CONTINUOUS
 10
4.5818167702
 20
5.0245380817
 11
4.5818167702
 21
5.1397855973
  0
LINE
  5
23A
100
AcDbEntity
  8
ALL_ASSEMBLY_MEMBERS
100
AcDbLine
 62
7
  6
CONTINUOUS
 10
4.5253655674
 20
3.7894286018
 11
4.5593167702
 21
4.2440023292
  0
LINE
  5
23B
100
AcDbEntity
  8
ALL_ASSEMBLY_MEMBERS
100
AcDbLine
 62
7
  6
CONTINUOUS
 10
4.5359831561
 20
3.8190023292
 11
4.5849449268
 21
4.2440023292
  0
LWPOLYLINE
  5
23C
100
AcDbEntity
  8
ALL_ASSEMBLY_MEMBERS
100
AcDbPolyline
 62
7
  6
CONTINUOUS
 90
7
 70
0
 10
3.0570689788
 20
2.9542665718
 10
3.04844027
 20
2.9456197364
 10
3.0436746066
 20
2.9408719163
 10
3.0386271795
 20
2.9358127385
 10
3.0333054734
 20
2.9304484937
 10
3.0277020036
 20
2.9248316496
 10
3.0218167702
 20
2.9190023292
  0
LWPOLYLINE
  5
23D
100
AcDbEntity
  8
ALL_ASSEMBLY_MEMBERS
100
AcDbPolyline
 62
7
  6
CONTINUOUS
 90
7
 70
0
 10
6.2365645616
 20
6.1337380866
 10
6.2451932704
 20
6.142384922
 10
6.2499589338
 20
6.1471327421
 10
6.2550063608
 20
6.1521919198
 10
6.260328067
 20
6.1575561647
 10
6.2659315368
 20
6.1631730088
 10
6.2718167702
 20
6.1690023292
  0
LINE
  5
23E
100
AcDbEntity
  8
ALL_ASSEMBLY_MEMBERS
100
AcDbLine
 62
7
  6
CONTINUOUS
 10
3.0793167702
 20
2.9765023292
 11
3.0218167702
 21
2.9190023292
  0
LINE
  5
23F
100
AcDbEntity
  8
ALL_ASSEMBLY_MEMBERS
100
AcDbLine
 62
7
  6
CONTINUOUS
 10
6.2143167702
 20
6.1115023292
 11
6.2718167702
 21
6.1690023292
  0
LINE
  5
240
100
AcDbEntity
  8
ALL_ASSEMBLY_MEMBERS
100
AcDbLine
 62
7
  6
CONTINUOUS
 10
6.2327015163
 20
6.1298865355
 11
6.2365645616
 21
6.1337380866
  0
LINE
  5
241
100
AcDbEntity
  8
ALL_ASSEMBLY_MEMBERS
100
AcDbLine
 62
7
  6
CONTINUOUS
 10
3.0609320241
 20
2.9581181229
 11
3.0570689788
 21
2.9542665718
  0
LWPOLYLINE
  5
242
100
AcDbEntity
  8
ALL_ASSEMBLY_MEMBERS
100
AcDbPolyline
 62
7
  6
CONTINUOUS
 90
6
 70
0
 10
3.04844027
 20
6.142384922
 10
3.0436746066
 20
6.1471327421
 10
3.0386271795
 20
6.1521919198
 10
3.0333054734
 20
6.1575561647
 10
3.0277020036
 20
6.1631730088
 10
3.0218167702
 20
6.1690023292
  0
LWPOLYLINE
  5
243
100
AcDbEntity
  8
ALL_ASSEMBLY_MEMBERS
100
AcDbPolyline
 62
7
  6
CONTINUOUS
 90
7
 70
0
 10
6.2365525276
 20
2.9542545378
 10
6.245199363
 20
2.945625829
 10
6.2499471831
 20
2.9408601656
 10
6.2550063608
 20
2.9358127385
 10
6.2603706057
 20
2.9304910324
 10
6.2659874498
 20
2.9248875626
 10
6.2718167702
 20
2.9190023292
  0
LINE
  5
244
100
AcDbEntity
  8
ALL_ASSEMBLY_MEMBERS
100
AcDbLine
 62
7
  6
CONTINUOUS
 10
6.2143167702
 20
2.9765023292
 11
6.2718167702
 21
2.9190023292
  0
LINE
  5
245
100
AcDbEntity
  8
ALL_ASSEMBLY_MEMBERS
100
AcDbLine
 62
7
  6
CONTINUOUS
 10
3.0793167702
 20
6.1115023292
 11
3.0218167702
 21
6.1690023292
  0
LWPOLYLINE
  5
246
100
AcDbEntity
  8
ALL_ASSEMBLY_MEMBERS
100
AcDbPolyline
 62
7
  6
CONTINUOUS
 90
4
 70
0
 10
3.0644382988
 20
6.1263808006
 10
3.0609320241
 20
6.1298865355
 10
3.0570689788
 20
6.1337380866
 10
3.0529017163
 20
6.1379173831
  0
LINE
  5
247
100
AcDbEntity
  8
ALL_ASSEMBLY_MEMBERS
100
AcDbLine
 62
7
  6
CONTINUOUS
 10
6.2327009765
 20
2.9581175831
 11
6.2365525276
 21
2.9542545378
  0
LINE
  5
248
100
AcDbEntity
  8
ALL_ASSEMBLY_MEMBERS
100
AcDbLine
 62
7
  6
CONTINUOUS
 10
4.7682679729
 20
3.7894286018
 11
4.7343167702
 21
4.2440023292
  0
LINE
  5
249
100
AcDbEntity
  8
ALL_FEATURES
100
AcDbLine
 62
7
  6
CONTINUOUS
 10
4.7118167702
 20
5.0245380817
 11
4.7118167702
 21
5.1397855973
  0
LINE
  5
24A
100
AcDbEntity
  8
ALL_ASSEMBLY_MEMBERS
100
AcDbLine
 62
7
  6
CONTINUOUS
 10
4.7343167702
 20
4.309851191
 11
4.7343167702
 21
4.2440023292
  0
LINE
  5
24B
100
AcDbEntity
  8
ALL_ASSEMBLY_MEMBERS
100
AcDbLine
 62
7
  6
CONTINUOUS
 10
4.7046173757
 20
3.8190023292
 11
4.7086886135
 21
4.2440023292
  0
LINE
  5
24C
100
AcDbEntity
  8
ALL_ASSEMBLY_MEMBERS
100
AcDbLine
 62
7
  6
CONTINUOUS
 10
4.6093167702
 20
3.8190023292
 11
4.6468167702
 21
4.2440023292
  0
LINE
  5
24D
100
AcDbEntity
  8
ALL_ASSEMBLY_MEMBERS
100
AcDbLine
 62
7
  6
CONTINUOUS
 10
4.7576503843
 20
3.8190023292
 11
4.7086886135
 21
4.2440023292
  0
LWPOLYLINE
  5
24E
100
AcDbEntity
  8
ALL_ASSEMBLY_MEMBERS
100
AcDbPolyline
 62
7
  6
CONTINUOUS
 90
7
 70
0
 10
6.2143167702
 20
6.1115023292
 10
6.2144409453
 20
6.1116643028
 10
6.2149523054
 20
6.1121674182
 10
6.2158508504
 20
6.1130364094
 10
6.2171431642
 20
6.1143048115
 10
6.2188226629
 20
6.1159879503
 10
6.2208695951
 20
6.1180551541
  0
LINE
  5
24F
100
AcDbEntity
  8
ALL_FEATURES
100
AcDbLine
 62
7
  6
CONTINUOUS
 10
4.5818167702
 20
5.1397855973
 11
4.7118167702
 21
5.1397855973
  0
LINE
  5
250
100
AcDbEntity
  8
ALL_FEATURES
100
AcDbLine
 62
7
  6
CONTINUOUS
 10
4.6022713156
 20
5.1682264886
 11
4.6913622247
 21
5.1682264886
  0
LINE
  5
251
100
AcDbEntity
  8
ALL_ASSEMBLY_MEMBERS
100
AcDbLine
 62
7
  6
CONTINUOUS
 10
4.0780814775
 20
5.2190023292
 11
4.2310520629
 21
5.2190023292
  0
LINE
  5
252
100
AcDbEntity
  8
ALL_ASSEMBLY_MEMBERS
100
AcDbLine
 62
7
  6
CONTINUOUS
 10
5.0625814775
 20
5.2190023292
 11
5.2155520629
 21
5.2190023292
  0
LINE
  5
253
100
AcDbEntity
  8
ALL_ASSEMBLY_MEMBERS
100
AcDbLine
 62
7
  6
CONTINUOUS
 10
5.2155520629
 20
5.2440023292
 11
5.0625814775
 21
5.2440023292
  0
LINE
  5
254
100
AcDbEntity
  8
ALL_ASSEMBLY_MEMBERS
100
AcDbLine
 62
7
  6
CONTINUOUS
 10
4.2310520629
 20
5.2440023292
 11
4.0780814775
 21
5.2440023292
  0
LINE
  5
255
100
AcDbEntity
  8
ALL_ASSEMBLY_MEMBERS
100
AcDbLine
 62
7
  6
CONTINUOUS
 10
6.2143167702
 20
2.9765023292
 11
6.2143167702
 21
6.1115023292
  0
LINE
  5
256
100
AcDbEntity
  8
ALL_ASSEMBLY_MEMBERS
100
AcDbLine
 62
7
  6
CONTINUOUS
 10
6.2718167702
 20
2.9190023292
 11
6.2718167702
 21
6.1690023292
  0
LINE
  5
257
100
AcDbEntity
  8
ALL_ASSEMBLY_MEMBERS
100
AcDbLine
 62
7
  6
CONTINUOUS
 10
6.2143167702
 20
6.1115023292
 11
3.0793167702
 21
6.1115023292
  0
LINE
  5
258
100
AcDbEntity
  8
ALL_ASSEMBLY_MEMBERS
100
AcDbLine
 62
7
  6
CONTINUOUS
 10
6.2718167702
 20
6.1690023292
 11
3.0218167702
 21
6.1690023292
  0
CIRCLE
  5
259
100
AcDbEntity
  8
ALL_ASSEMBLY_MEMBERS
100
AcDbCircle
 62
7
  6
CONTINUOUS
 10
4.1545667702
 20
5.2315023292
 40
0.07825
  0
ARC
  5
25A
100
AcDbEntity
  8
ALL_ASSEMBLY_MEMBERS
100
AcDbCircle
 62
7
  6
CONTINUOUS
 10
4.1545667702
 20
5.2315023292
 40
0.0775
100
AcDbArc
 50
189.2817990867
 51
350.7182009133
  0
ARC
  5
25B
100
AcDbEntity
  8
ALL_ASSEMBLY_MEMBERS
100
AcDbCircle
 62
7
  6
CONTINUOUS
 10
4.1545667702
 20
5.2315023292
 40
0.0775
100
AcDbArc
 50
9.2817990867
 51
170.7182009133
  0
ARC
  5
25C
100
AcDbEntity
  8
ALL_FEATURES
100
AcDbCircle
 62
7
  6
CONTINUOUS
 10
4.6118167702
 20
5.1397855973
 40
0.03
100
AcDbArc
 50
108.553004535
 51
180.0
  0
ARC
  5
25D
100
AcDbEntity
  8
ALL_ASSEMBLY_MEMBERS
100
AcDbCircle
 62
7
  6
CONTINUOUS
 10
4.6468167702
 20
3.8190023292
 40
0.125
100
AcDbArc
 50
193.685355721
 51
346.314644279
  0
ARC
  5
25E
100
AcDbEntity
  8
ALL_ASSEMBLY_MEMBERS
100
AcDbCircle
 62
7
  6
CONTINUOUS
 10
4.6468167702
 20
4.5440023292
 40
0.56
100
AcDbArc
 50
96.6656940154
 51
259.0719435241
  0
ARC
  5
25F
100
AcDbEntity
  8
ALL_ASSEMBLY_MEMBERS
100
AcDbCircle
 62
7
  6
CONTINUOUS
 10
4.6468167702
 20
4.5440023292
 40
0.56
100
AcDbArc
 50
280.9280564759
 51
83.3343059847
  0
ARC
  5
260
100
AcDbEntity
  8
ALL_ASSEMBLY_MEMBERS
100
AcDbCircle
 62
7
  6
CONTINUOUS
 10
4.6468167702
 20
4.5440023292
 40
0.53
100
AcDbArc
 50
97.0458462332
 51
258.6928141121
  0
ARC
  5
261
100
AcDbEntity
  8
ALL_ASSEMBLY_MEMBERS
100
AcDbCircle
 62
7
  6
CONTINUOUS
 10
4.6468167702
 20
4.5440023292
 40
0.53
100
AcDbArc
 50
281.3071858879
 51
82.9541537668
  0
ARC
  5
262
100
AcDbEntity
  8
ALL_ASSEMBLY_MEMBERS
100
AcDbCircle
 62
7
  6
CONTINUOUS
 10
4.6468167702
 20
4.5440023292
 40
0.5
100
AcDbArc
 50
97.4709326377
 51
258.2689238235
  0
ARC
  5
263
100
AcDbEntity
  8
ALL_ASSEMBLY_MEMBERS
100
AcDbCircle
 62
7
  6
CONTINUOUS
 10
4.6468167702
 20
4.5440023292
 40
0.5
100
AcDbArc
 50
281.7310761765
 51
82.5290673623
  0
ARC
  5
264
100
AcDbEntity
  8
ALL_FEATURES
100
AcDbCircle
 62
7
  6
CONTINUOUS
 10
4.6468167702
 20
4.5440023292
 40
0.4925
100
AcDbArc
 50
281.8471621085
 51
82.4134534849
  0
ARC
  5
265
100
AcDbEntity
  8
ALL_FEATURES
100
AcDbCircle
 62
7
  6
CONTINUOUS
 10
4.6468167702
 20
4.5440023292
 40
0.4925
100
AcDbArc
 50
97.5865465151
 51
258.1528378915
  0
ARC
  5
266
100
AcDbEntity
  8
ALL_ASSEMBLY_MEMBERS
100
AcDbCircle
 62
7
  6
CONTINUOUS
 10
4.6468167702
 20
4.5440023292
 40
0.485
100
AcDbArc
 50
281.9639756236
 51
258.0360243764
  0
ARC
  5
267
100
AcDbEntity
  8
ALL_ASSEMBLY_MEMBERS
100
AcDbCircle
 62
7
  6
CONTINUOUS
 10
4.6468167702
 20
4.5440023292
 40
0.3232712108
100
AcDbArc
 50
285.857025324
 51
254.142974676
  0
CIRCLE
  5
268
100
AcDbEntity
  8
ALL_ASSEMBLY_MEMBERS
100
AcDbCircle
 62
7
  6
CONTINUOUS
 10
4.6468167702
 20
4.5440023292
 40
0.25
  0
CIRCLE
  5
269
100
AcDbEntity
  8
ALL_ASSEMBLY_MEMBERS
100
AcDbCircle
 62
7
  6
CONTINUOUS
 10
4.6468167702
 20
4.5440023292
 40
0.2125
  0
CIRCLE
  5
26A
100
AcDbEntity
  8
ALL_ASSEMBLY_MEMBERS
100
AcDbCircle
 62
7
  6
CONTINUOUS
 10
4.6468167702
 20
4.5440023292
 40
0.20875
  0
CIRCLE
  5
26B
100
AcDbEntity
  8
ALL_ASSEMBLY_MEMBERS
100
AcDbCircle
 62
7
  6
CONTINUOUS
 10
4.6468167702
 20
4.5440023292
 40
0.1975723283
  0
ARC
  5
26C
100
AcDbEntity
  8
ALL_FEATURES
100
AcDbCircle
 62
7
  6
CONTINUOUS
 10
4.6468167702
 20
5.0355023292
 40
0.14
100
AcDbArc
 50
71.446995465
 51
108.553004535
  0
CIRCLE
  5
26D
100
AcDbEntity
  8
ALL_ASSEMBLY_MEMBERS
100
AcDbCircle
 62
7
  6
CONTINUOUS
 10
5.1390667702
 20
5.2315023292
 40
0.07825
  0
ARC
  5
26E
100
AcDbEntity
  8
ALL_ASSEMBLY_MEMBERS
100
AcDbCircle
 62
7
  6
CONTINUOUS
 10
5.1390667702
 20
5.2315023292
 40
0.0775
100
AcDbArc
 50
189.2817990867
 51
350.7182009133
  0
ARC
  5
26F
100
AcDbEntity
  8
ALL_ASSEMBLY_MEMBERS
100
AcDbCircle
 62
7
  6
CONTINUOUS
 10
5.1390667702
 20
5.2315023292
 40
0.0775
100
AcDbArc
 50
9.2817990867
 51
170.7182009133
  0
ARC
  5
270
100
AcDbEntity
  8
ALL_FEATURES
100
AcDbCircle
 62
7
  6
CONTINUOUS
 10
4.6818167702
 20
5.1397855973
 40
0.03
100
AcDbArc
 50
0.0
 51
71.446995465
  0
LINE
  5
271
100
AcDbEntity
  8
ALL_ASSEMBLY_MEMBERS
100
AcDbLine
 62
7
  6
CONTINUOUS
 10
4.5849449202
 20
4.2440023288
 11
4.5593167702
 21
4.2440023288
  0
SPLINE
  5
272
100
AcDbEntity
  8
ALL_ASSEMBLY_MEMBERS
100
AcDbSpline
 62
7
  6
CONTINUOUS
 70
0
 71
3
 72
34
 73
30
 74
0
 42
0.0000001
 43
0.0000001
 44
0.0000000001
 40
0.0
 40
0.0
 40
0.0
 40
0.0
 40
0.0370063583
 40
0.0736954835
 40
0.1454513186
 40
0.2143974138
 40
0.2476613292
 40
0.2800344013
 40
0.3114863547
 40
0.3420194553
 40
0.371659096
 40
0.4004597447
 40
0.4285069402
 40
0.4559110336
 40
0.482812539
 40
0.5093723997
 40
0.5357675439
 40
0.5621836757
 40
0.588804211
 40
0.6158047139
 40
0.6433404545
 40
0.6715461721
 40
0.7302965198
 40
0.7610356904
 40
0.7926938356
 40
0.8586660537
 40
0.9279912208
 40
0.9637347504
 40
1.0
 40
1.0
 40
1.0
 40
1.0
 10
4.5890161647
 20
3.8190023292
 30
0.0
 10
4.5887871578
 20
3.8179649021
 30
0.0
 10
4.5882691047
 20
3.8159119693
 30
0.0
 10
4.5870045276
 20
3.8119302919
 30
0.0
 10
4.5850170242
 20
3.8072258057
 30
0.0
 10
4.5824748425
 20
3.8029066319
 30
0.0
 10
4.5801595161
 20
3.799809563
 30
0.0
 10
4.5783234
 20
3.7977085724
 30
0.0
 10
4.5763788303
 20
3.7958181418
 30
0.0
 10
4.5743400678
 20
3.7941506455
 30
0.0
 10
4.5722207976
 20
3.7927180017
 30
0.0
 10
4.5700351758
 20
3.7915312513
 30
0.0
 10
4.5677990175
 20
3.7905977257
 30
0.0
 10
4.5655272772
 20
3.7899257516
 30
0.0
 10
4.5632363393
 20
3.7895201386
 30
0.0
 10
4.5609425634
 20
3.7893834029
 30
0.0
 10
4.5586625448
 20
3.7895184846
 30
0.0
 10
4.5564128858
 20
3.7899227891
 30
0.0
 10
4.5542098572
 20
3.790594045
 30
0.0
 10
4.552069733
 20
3.7915275218
 30
0.0
 10
4.5500068142
 20
3.7927149931
 30
0.0
 10
4.547344975
 20
3.7946518459
 30
0.0
 10
4.5449312214
 20
3.797051394
 30
0.0
 10
4.5428109466
 20
3.7998119241
 30
0.0
 10
4.5408180801
 20
3.8029168584
 30
0.0
 10
4.5387277684
 20
3.8072521796
 30
0.0
 10
4.5372432761
 20
3.8119494411
 30
0.0
 10
4.5364021914
 20
3.8159209256
 30
0.0
 10
4.5361022245
 20
3.817968034
 30
0.0
 10
4.5359831561
 20
3.8190023292
 30
0.0
  0
SPLINE
  5
273
100
AcDbEntity
  8
ALL_ASSEMBLY_MEMBERS
100
AcDbSpline
 62
7
  6
CONTINUOUS
 70
0
 71
3
 72
19
 73
15
 74
0
 42
0.0000001
 43
0.0000001
 44
0.0000000001
 40
0.0
 40
0.0
 40
0.0
 40
0.0
 40
0.1250567347
 40
0.1876831156
 40
0.2502713112
 40
0.312835551
 40
0.3753921489
 40
0.5003786038
 40
0.6253112799
 40
0.6878013465
 40
0.7502757446
 40
0.8127532161
 40
0.8752502405
 40
1.0
 40
1.0
 40
1.0
 40
1.0
 10
4.6468167702
 20
3.7894286018
 30
0.0
 10
4.6446709927
 20
3.7894286018
 30
0.0
 10
4.6414422892
 20
3.7896993307
 30
0.0
 10
4.6372376032
 20
3.7905882463
 30
0.0
 10
4.6341481944
 20
3.7915171095
 30
0.0
 10
4.6311481035
 20
3.7926993021
 30
0.0
 10
4.6272970843
 20
3.7946024805
 30
0.0
 10
4.6228015529
 20
3.7975728589
 30
0.0
 10
4.6188656535
 20
3.8012511778
 30
0.0
 10
4.6161202117
 20
3.8045502994
 30
0.0
 10
4.6142749956
 20
3.8071892122
 30
0.0
 10
4.6126563772
 20
3.8099732723
 30
0.0
 10
4.6108200166
 20
3.813848436
 30
0.0
 10
4.6098113687
 20
3.8169197451
 30
0.0
 10
4.6093167702
 20
3.8190023292
 30
0.0
  0
LINE
  5
274
100
AcDbEntity
  8
ALL_ASSEMBLY_MEMBERS
100
AcDbLine
 62
7
  6
CONTINUOUS
 10
4.7086886054
 20
4.2440023288
 11
4.6468167702
 21
4.2440023289
  0
SPLINE
  5
275
100
AcDbEntity
  8
ALL_ASSEMBLY_MEMBERS
100
AcDbSpline
 62
7
  6
CONTINUOUS
 70
0
 71
3
 72
19
 73
15
 74
0
 42
0.0000001
 43
0.0000001
 44
0.0000000001
 40
0.0
 40
0.0
 40
0.0
 40
0.0
 40
0.1247497595
 40
0.1872467839
 40
0.2497242554
 40
0.3121986535
 40
0.3746887201
 40
0.4996213962
 40
0.6246078511
 40
0.687164449
 40
0.7497286888
 40
0.8123168844
 40
0.8749432653
 40
1.0
 40
1.0
 40
1.0
 40
1.0
 10
4.6843167702
 20
3.8190023292
 30
0.0
 10
4.6838221717
 20
3.8169197451
 30
0.0
 10
4.6828135238
 20
3.813848436
 30
0.0
 10
4.6809771631
 20
3.8099732723
 30
0.0
 10
4.6793585448
 20
3.8071892122
 30
0.0
 10
4.6775133286
 20
3.8045502994
 30
0.0
 10
4.6747678868
 20
3.8012511778
 30
0.0
 10
4.6708319874
 20
3.7975728589
 30
0.0
 10
4.666336456
 20
3.7946024805
 30
0.0
 10
4.6624854369
 20
3.7926993021
 30
0.0
 10
4.659485346
 20
3.7915171095
 30
0.0
 10
4.6563959371
 20
3.7905882463
 30
0.0
 10
4.6521912512
 20
3.7896993307
 30
0.0
 10
4.6489625477
 20
3.7894286018
 30
0.0
 10
4.6468167702
 20
3.7894286018
 30
0.0
  0
SPLINE
  5
276
100
AcDbEntity
  8
ALL_ASSEMBLY_MEMBERS
100
AcDbSpline
 62
7
  6
CONTINUOUS
 70
0
 71
3
 72
34
 73
30
 74
0
 42
0.0000001
 43
0.0000001
 44
0.0000000001
 40
0.0
 40
0.0
 40
0.0
 40
0.0
 40
0.0362652496
 40
0.0720087792
 40
0.1413339463
 40
0.2073061644
 40
0.2389643096
 40
0.2697034802
 40
0.3284538279
 40
0.3566595455
 40
0.3841952861
 40
0.411195789
 40
0.4378163243
 40
0.4642324561
 40
0.4906276003
 40
0.517187461
 40
0.5440889664
 40
0.5714930598
 40
0.5995402553
 40
0.628340904
 40
0.6579805447
 40
0.6885136453
 40
0.7199655987
 40
0.7523386708
 40
0.7856025862
 40
0.8545486814
 40
0.9263045165
 40
0.9629936417
 40
1.0
 40
1.0
 40
1.0
 40
1.0
 10
4.7576503843
 20
3.8190023292
 30
0.0
 10
4.7575313159
 20
3.817968034
 30
0.0
 10
4.757231349
 20
3.8159209256
 30
0.0
 10
4.7563902643
 20
3.8119494411
 30
0.0
 10
4.7549057719
 20
3.8072521796
 30
0.0
 10
4.7528154603
 20
3.8029168584
 30
0.0
 10
4.7508225938
 20
3.7998119241
 30
0.0
 10
4.748702319
 20
3.797051394
 30
0.0
 10
4.7462885653
 20
3.7946518459
 30
0.0
 10
4.7436267262
 20
3.7927149931
 30
0.0
 10
4.7415638074
 20
3.7915275218
 30
0.0
 10
4.7394236832
 20
3.790594045
 30
0.0
 10
4.7372206545
 20
3.7899227891
 30
0.0
 10
4.7349709956
 20
3.7895184846
 30
0.0
 10
4.732690977
 20
3.7893834029
 30
0.0
 10
4.730397201
 20
3.7895201386
 30
0.0
 10
4.7281062632
 20
3.7899257516
 30
0.0
 10
4.7258345229
 20
3.7905977257
 30
0.0
 10
4.7235983646
 20
3.7915312513
 30
0.0
 10
4.7214127427
 20
3.7927180017
 30
0.0
 10
4.7192934726
 20
3.7941506455
 30
0.0
 10
4.7172547101
 20
3.7958181418
 30
0.0
 10
4.7153101404
 20
3.7977085724
 30
0.0
 10
4.7134740243
 20
3.799809563
 30
0.0
 10
4.7111586979
 20
3.8029066319
 30
0.0
 10
4.7086165162
 20
3.8072258057
 30
0.0
 10
4.7066290128
 20
3.8119302919
 30
0.0
 10
4.7053644357
 20
3.8159119693
 30
0.0
 10
4.7048463826
 20
3.8179649021
 30
0.0
 10
4.7046173757
 20
3.8190023292
 30
0.0
  0
LINE
  5
277
100
AcDbEntity
  8
ALL_ASSEMBLY_MEMBERS
100
AcDbLine
 62
7
  6
CONTINUOUS
 10
4.6468167702
 20
4.2440023289
 11
4.5849449202
 21
4.2440023288
  0
LINE
  5
278
100
AcDbEntity
  8
ALL_ASSEMBLY_MEMBERS
100
AcDbLine
 62
7
  6
CONTINUOUS
 10
4.7343167702
 20
4.2440023288
 11
4.7086886054
 21
4.2440023288
  0
ENDSEC
  0
SECTION
  2
OBJECTS
  0
DICTIONARY
  5
C
100
AcDbDictionary
280
0
281
1
  3
ACAD_GROUP
350
D
  3
ACAD_MLINESTYLE
350
17
  3
ACAD_LAYOUT
350
1A
  3
ACAD_PLOTSETTINGS
350
19
  3
ACAD_PLOTSTYLENAME
350
E
  0
DICTIONARY
  5
D
102
{ACAD_REACTORS
330
C
102
}
100
AcDbDictionary
280
0
281
1
  0
ACDBDICTIONARYWDFLT
  5
E
102
{ACAD_REACTORS
330
C
102
}
100
AcDbDictionary
281
1
  3
Normal
350
F
100
AcDbDictionaryWithDefault
340
F
  0
DICTIONARY
  5
17
102
{ACAD_REACTORS
330
C
102
}
100
AcDbDictionary
280
0
281
1
  3
Standard
350
18
  0
DICTIONARY
  5
19
102
{ACAD_REACTORS
330
C
102
}
100
AcDbDictionary
281
1
  0
DICTIONARY
  5
1A
102
{ACAD_REACTORS
330
C
102
}
100
AcDbDictionary
281
1
  3
Model
350
279
  3
Layout1
350
27A
  0
ACDBPLACEHOLDER
  5
F
102
{ACAD_REACTORS
330
E
102
}
  0
MLINESTYLE
  5
18
102
{ACAD_REACTORS
330
17
102
}
100
AcDbMlineStyle
  2
STANDARD
 70
0
  3

 62
256
 51
90.0
 52
90.0
 71
2
 49
0.5
 62
256
  6
BYLAYER
 49
-0.5
 62
256
  6
BYLAYER
  0
LAYOUT
  5
279
102
{ACAD_REACTORS
330
1A
102
}
100
AcDbPlotSettings
  1

  2
none_device
  4
ANSI_A_(11.00_x_8.50_Inches)
  6

 40
0.0
 41
0.0
 42
0.0
 43
0.0
 44
279.4
 45
215.9
 46
0.0
 47
0.0
 48
0.0
 49
0.0
140
0.0
141
0.0
142
1.0
143
1.0
 70
1024
 72
0
 73
0
 74
0
  7

 75
0
147
1.0
148
0.0
149
0.0
100
AcDbLayout
  1
Model
 70
0
 71
0
 10
0.0
 20
0.0
 11
11.0
 21
8.5
 12
0.0
 22
0.0
 32
0.0
 14
0.0
 24
0.0
 34
0.0
 15
0.0
 25
0.0
 35
0.0
146
0.0
 13
0.0
 23
0.0
 33
0.0
 16
1.0
 26
0.0
 36
0.0
 17
0.0
 27
1.0
 37
0.0
 76
0
330
21F
345
0
346
0
  0
LAYOUT
  5
27A
102
{ACAD_REACTORS
330
1A
102
}
100
AcDbPlotSettings
  1

  2
none_device
  4
ANSI_A_(11.00_x_8.50_Inches)
  6

 40
0.0
 41
0.0
 42
0.0
 43
0.0
 44
279.4
 45
215.9
 46
0.0
 47
0.0
 48
0.0
 49
0.0
140
0.0
141
0.0
142
1.0
143
1.0
 70
0
 72
0
 73
0
 74
0
  7

 75
0
147
1.0
148
0.0
149
0.0
100
AcDbLayout
  1
Layout1
 70
0
 71
1
 10
0.0
 20
0.0
 11
11.0
 21
8.5
 12
0.0
 22
0.0
 32
0.0
 14
0.0
 24
0.0
 34
0.0
 15
0.0
 25
0.0
 35
0.0
146
0.0
 13
0.0
 23
0.0
 33
0.0
 16
1.0
 26
0.0
 36
0.0
 17
0.0
 27
1.0
 37
0.0
 76
0
330
220
345
0
346
0
  0
ENDSEC
  0
EOF
