999
DXF file: E:\BT Custom\CADOUTPUT\_RIGHT.dxf
999
Pro/ENGINEER 2018400 by Parametric Technology Corporation
  0
SECTION
  2
HEADER
  9
$ACADVER
  1
AC1018
  9
$DWGCODEPAGE
  3
ANSI_1252
  9
$EXTMAX
 10
22.0
 20
17.0
 30
0.0
  9
$EXTMIN
 10
0.0
 20
0.0
 30
0.0
  9
$LIMMIN
 10
0.0
 20
0.0
  9
$LIMMAX
 10
22.0
 20
17.0
  9
$VIEWCTR
 10
11.0
 20
8.5
  9
$VIEWSIZE
 40
17.0
  9
$CLAYER
  8
0
  9
$LTSCALE
 40
1.21
  9
$CELTYPE
  6
BYLAYER
  9
$DIMSCALE
 40
1.0
  9
$DIMASZ
 40
0.1
  9
$DIMEXO
 40
0.0625
  9
$DIMDLI
 40
0.836
  9
$DIMEXE
 40
0.125
  9
$DIMCEN
 40
0.198
  9
$DIMLFAC
 40
1.0
  9
$DIMBLK
  1
_FILLED
  9
$DIMALT
 70
1
  9
$DIMALTD
 70
2
  9
$DIMALTTD
 70
2
  9
$DIMALTF
 40
25.4
  9
$DIMTXT
 40
0.08
  9
$DIMTOL
 70
1
  9
$DIMLIM
 70
0
  9
$DIMTFAC
 40
1.0
  9
$DIMTP
 40
0.001
  9
$DIMTM
 40
0.001
  9
$DIMGAP
 40
0.09
  9
$DIMDSEP
 70
46
  9
$AUNITS
 70
0
  9
$PDMODE
 70
3
  9
$PDSIZE
 40
0.06
  9
$HANDSEED
  5
532
  9
$TILEMODE
 70
1
  9
$MEASUREMENT
 70
0
  9
$INSUNITS
 70
1
  0
ENDSEC
  0
SECTION
  2
CLASSES
  0
CLASS
  1
ACDBDICTIONARYWDFLT
  2
AcDbDictionaryWithDefault
  3
AutoCAD 2000
 90
0
 91
1
280
0
281
0
  0
CLASS
  1
ACDBPLACEHOLDER
  2
AcDbPlaceHolder
  3
AutoCAD 2000
 90
0
 91
1
280
0
281
0
  0
CLASS
  1
LAYOUT
  2
AcDbLayout
  3
AutoCAD 2000
 90
0
 91
0
280
0
281
0
  0
ENDSEC
  0
SECTION
  2
TABLES
  0
TABLE
  2
VPORT
  5
8
100
AcDbSymbolTable
 70
2
  0
VPORT
  5
1F4
100
AcDbSymbolTableRecord
100
AcDbViewportTableRecord
  2
*ACTIVE
 70
0
 10
0.0
 20
0.0
 11
1.0
 21
1.0
 12
11.0
 22
8.5
 13
0.0
 23
0.0
 14
1.0
 24
1.0
 15
0.0
 25
0.0
 16
0.0
 26
0.0
 36
1.0
 17
0.0
 27
0.0
 37
0.0
 40
17.0
 41
1.2941176471
 42
50.0
 43
0.0
 44
0.0
 50
0.0
 51
0.0
 71
0
 72
100
 73
1
 74
1
 75
0
 76
0
 77
0
 78
0
  0
ENDTAB
  0
TABLE
  2
LTYPE
  5
5
100
AcDbSymbolTable
 70
6
  0
LTYPE
  5
14
100
AcDbSymbolTableRecord
100
AcDbLinetypeTableRecord
  2
BYBLOCK
 70
0
  3

 72
65
 73
0
 40
0.0
  0
LTYPE
  5
15
100
AcDbSymbolTableRecord
100
AcDbLinetypeTableRecord
  2
BYLAYER
 70
0
  3

 72
65
 73
0
 40
0.0
  0
LTYPE
  5
16
100
AcDbSymbolTableRecord
100
AcDbLinetypeTableRecord
  2
CONTINUOUS
 70
64
  3
Solid line
 72
65
 73
0
 40
0.0
  0
LTYPE
  5
1F5
100
AcDbSymbolTableRecord
100
AcDbLinetypeTableRecord
  2
CENTER
 70
64
  3
____ _ ____ _ ____ _ ____ _ ____ _ ____ _ ____
 72
65
 73
4
 40
0.6
 49
0.375
 74
0
 49
-0.075
 74
0
 49
0.075
 74
0
 49
-0.075
 74
0
  0
LTYPE
  5
1F6
100
AcDbSymbolTableRecord
100
AcDbLinetypeTableRecord
  2
HIDDEN
 70
64
  3
- - - - - - - - - - - - - - - - - - - -
 72
65
 73
2
 40
0.2
 49
0.1
 74
0
 49
-0.1
 74
0
  0
LTYPE
  5
1F7
100
AcDbSymbolTableRecord
100
AcDbLinetypeTableRecord
  2
PHANTOM
 70
64
  3
_____ _ _ _____ _ _ _____ _ _ _____
 72
65
 73
6
 40
0.8
 49
0.45
 74
0
 49
-0.05
 74
0
 49
0.1
 74
0
 49
-0.05
 74
0
 49
0.1
 74
0
 49
-0.05
 74
0
  0
LTYPE
  5
1F8
100
AcDbSymbolTableRecord
100
AcDbLinetypeTableRecord
  2
DOT
 70
64
  3
. . . . . . . . . . . . . . . . . . . .
 72
65
 73
2
 40
0.2
 49
0.1
 74
0
 49
-0.1
 74
0
  0
LTYPE
  5
1F9
100
AcDbSymbolTableRecord
100
AcDbLinetypeTableRecord
  2
DASHED
 70
64
  3
- - - - - - - - - - - - - - - - - - - -
 72
65
 73
2
 40
0.2
 49
0.1
 74
0
 49
-0.1
 74
0
  0
ENDTAB
  0
TABLE
  2
LAYER
  5
2
100
AcDbSymbolTable
 70
36
  0
LAYER
  5
10
100
AcDbSymbolTableRecord
100
AcDbLayerTableRecord
  2
0
 70
0
 62
7
  6
CONTINUOUS
370
-3
390
F
  0
LAYER
  5
1FA
100
AcDbSymbolTableRecord
100
AcDbLayerTableRecord
  2
DEFAULT_1
 70
0
 62
7
  6
CENTER
370
-3
390
F
  0
LAYER
  5
1FB
100
AcDbSymbolTableRecord
100
AcDbLayerTableRecord
  2
DEFAULT_2
 70
0
 62
8
  6
HIDDEN
370
-3
390
F
  0
LAYER
  5
1FC
100
AcDbSymbolTableRecord
100
AcDbLayerTableRecord
  2
DEFAULT_3
 70
0
 62
7
  6
PHANTOM
370
-3
390
F
  0
LAYER
  5
1FD
100
AcDbSymbolTableRecord
100
AcDbLayerTableRecord
  2
ALL_FEATURES
 70
0
 62
7
  6
CONTINUOUS
370
-3
390
F
  0
LAYER
  5
1FE
100
AcDbSymbolTableRecord
100
AcDbLayerTableRecord
  2
AXES_FEATURES
 70
0
 62
7
  6
CONTINUOUS
370
-3
390
F
  0
LAYER
  5
1FF
100
AcDbSymbolTableRecord
100
AcDbLayerTableRecord
  2
DIMENSIONS
 70
0
 62
7
  6
CONTINUOUS
370
-3
390
F
  0
ENDTAB
  0
TABLE
  2
STYLE
  5
3
100
AcDbSymbolTable
 70
1
  0
STYLE
  5
11
100
AcDbSymbolTableRecord
100
AcDbTextStyleTableRecord
  2
STANDARD
 70
0
 40
0.0
 41
0.8
 50
0.0
 71
0
 42
0.2
  3
txt
  4

  0
STYLE
  5
200
100
AcDbSymbolTableRecord
100
AcDbTextStyleTableRecord
  2
TEXTSTYLE_1
 70
0
 40
0.0
 41
0.8
 50
0.0
 71
0
 42
0.2
  3
gdt
  4

  0
ENDTAB
  0
TABLE
  2
VIEW
  5
6
100
AcDbSymbolTable
 70
0
  0
ENDTAB
  0
TABLE
  2
UCS
  5
7
100
AcDbSymbolTable
 70
0
  0
ENDTAB
  0
TABLE
  2
APPID
  5
9
100
AcDbSymbolTable
 70
1
  0
APPID
  5
201
100
AcDbSymbolTableRecord
100
AcDbRegAppTableRecord
  2
ACAD
 70
0
  0
ENDTAB
  0
TABLE
  2
BLOCK_RECORD
  5
1
100
AcDbSymbolTable
 70
0
  0
BLOCK_RECORD
  5
202
100
AcDbSymbolTableRecord
100
AcDbBlockTableRecord
  2
*Model_Space
  0
BLOCK_RECORD
  5
203
100
AcDbSymbolTableRecord
100
AcDbBlockTableRecord
  2
*Paper_Space
  0
BLOCK_RECORD
  5
204
100
AcDbSymbolTableRecord
100
AcDbBlockTableRecord
  2
_FILLED
  0
ENDTAB
  0
TABLE
  2
DIMSTYLE
  5
A
100
AcDbSymbolTable
 70
1
100
AcDbDimStyleTable
 71
0
  0
DIMSTYLE
105
205
100
AcDbSymbolTableRecord
100
AcDbDimStyleTableRecord
  2
STANDARD
 70
0
  3

  4

 40
1.0
 41
0.1
 42
0.0625
 43
0.38
 44
0.125
 45
0.0
 46
0.0
 47
0.001
 48
0.001
140
0.08
141
0.09
142
0.0
143
25.4
144
1.0
145
0.0
146
1.0
147
0.09
 71
1.0
 72
0.0
 73
1
 74
1
 75
0
 76
0
 77
0
 78
4
 79
1
170
1
171
2
172
0
173
0
174
0
175
0
176
0
177
0
178
0
270
2
179
3
271
3
272
3
273
2
274
2
275
0
280
0
281
0
282
0
283
1
284
4
285
0
286
0
287
3
288
0
340
11
278
46
341
204
342
204
343
204
344
204
  0
ENDTAB
  0
ENDSEC
  0
SECTION
  2
BLOCKS
  0
BLOCK
  5
20
100
AcDbEntity
  8
0
100
AcDbBlockBegin
  2
*Model_Space
 70
0
 10
0.0
 20
0.0
 30
0.0
  3
*Model_Space
  1

  0
ENDBLK
  5
21
100
AcDbEntity
  8
0
100
AcDbBlockEnd
  0
BLOCK
  5
1C
100
AcDbEntity
  8
0
100
AcDbBlockBegin
  2
*Paper_Space
 70
0
 10
0.0
 20
0.0
 30
0.0
  3
*Paper_Space
  1

  0
ENDBLK
  5
1D
100
AcDbEntity
  8
0
100
AcDbBlockEnd
  0
BLOCK
  5
206
100
AcDbEntity
  8
0
100
AcDbBlockBegin
  2
_FILLED
 70
64
 10
0.0
 20
0.0
  3
_FILLED
  1

  0
SOLID
  5
207
100
AcDbEntity
  8
0
  6
BYBLOCK
 62
0
100
AcDbTrace
 10
0.0
 20
0.0
 11
-1.0
 21
0.2
 12
-1.0
 22
-0.2
 13
-1.0
 23
-0.2
  0
ENDBLK
  5
208
100
AcDbEntity
  8
0
  6
BYBLOCK
 62
0
100
AcDbBlockEnd
  0
ENDSEC
  0
SECTION
  2
ENTITIES
  0
LINE
  5
209
100
AcDbEntity
  8
0
100
AcDbLine
 62
7
  6
CONTINUOUS
 10
5.1129276641
 20
10.273045527
 11
5.1043497782
 21
10.208614014
  0
LWPOLYLINE
  5
20A
100
AcDbEntity
  8
0
100
AcDbPolyline
 62
7
  6
CONTINUOUS
 90
4
 70
0
 10
5.3111774616
 20
10.8267711695
 10
5.2629134962
 20
10.6479830193
 10
5.2199619273
 20
10.4472470387
 10
5.1906172
 20
10.2627025761
  0
LINE
  5
20B
100
AcDbEntity
  8
0
100
AcDbLine
 62
7
  6
CONTINUOUS
 10
5.2568416871
 20
10.1681360232
 11
5.2350670537
 21
10.0045791054
  0
LINE
  5
20C
100
AcDbEntity
  8
0
100
AcDbLine
 62
9
  6
CONTINUOUS
 10
5.9781521598
 20
10.737983887
 11
6.0626161801
 21
11.2678243537
  0
LINE
  5
20D
100
AcDbEntity
  8
0
100
AcDbLine
 62
7
  6
CONTINUOUS
 10
6.4959092457
 20
10.0031766793
 11
6.4741346123
 21
9.8396197616
  0
LINE
  5
20E
100
AcDbEntity
  8
0
100
AcDbLine
 62
7
  6
CONTINUOUS
 10
6.6622577394
 20
10.0667803635
 11
6.6536798536
 21
10.0023488504
  0
LWPOLYLINE
  5
20F
100
AcDbEntity
  8
0
100
AcDbPolyline
 62
7
  6
CONTINUOUS
 90
4
 70
0
 10
6.5845682035
 20
10.0771233143
 10
6.5926973601
 20
10.1111603087
 10
6.6044928034
 20
10.163309403
 10
6.6114568577
 20
10.1958733445
  0
LINE
  5
210
100
AcDbEntity
  8
0
100
AcDbLine
 62
9
  6
CONTINUOUS
 10
7.7503175862
 20
10.130047467
 11
8.0390551579
 21
11.1712018056
  0
LINE
  5
211
100
AcDbEntity
  8
0
100
AcDbLine
 62
7
  6
CONTINUOUS
 10
13.5156190196
 20
6.6897204498
 11
16.2656153805
 21
6.6897204498
  0
LINE
  5
212
100
AcDbEntity
  8
0
100
AcDbLine
 62
7
  6
CONTINUOUS
 10
13.5156172
 20
6.7897204498
 11
16.2656172
 21
6.7897204498
  0
LINE
  5
213
100
AcDbEntity
  8
0
100
AcDbLine
 62
9
  6
CONTINUOUS
 10
13.7551280916
 20
7.0202621671
 11
16.0261063085
 21
7.0202621671
  0
LINE
  5
214
100
AcDbEntity
  8
0
100
AcDbLine
 62
9
  6
CONTINUOUS
 10
16.1087788037
 20
7.0584606104
 11
16.0233327215
 21
7.0584606104
  0
LINE
  5
215
100
AcDbEntity
  8
0
100
AcDbLine
 62
9
  6
CONTINUOUS
 10
13.6724555964
 20
7.0584606104
 11
13.7579016786
 21
7.0584606104
  0
LINE
  5
216
100
AcDbEntity
  8
0
100
AcDbLine
 62
7
  6
CONTINUOUS
 10
16.1030857115
 20
7.1647204498
 11
13.6781486886
 21
7.1647204498
  0
LINE
  5
217
100
AcDbEntity
  8
0
100
AcDbLine
 62
7
  6
CONTINUOUS
 10
16.0530869759
 20
7.2647204498
 11
13.7281474242
 21
7.2647204498
  0
LINE
  5
218
100
AcDbEntity
  8
0
100
AcDbLine
 62
9
  6
CONTINUOUS
 10
16.0031172
 20
7.7757204498
 11
15.5432673642
 21
7.7757204498
  0
LINE
  5
219
100
AcDbEntity
  8
0
100
AcDbLine
 62
9
  6
CONTINUOUS
 10
14.2379670359
 20
7.7757204498
 11
13.7781172
 21
7.7757204498
  0
LINE
  5
21A
100
AcDbEntity
  8
0
100
AcDbLine
 62
7
  6
CONTINUOUS
 10
13.7281172
 20
7.8007204498
 11
14.2438878054
 21
7.8007204498
  0
LINE
  5
21B
100
AcDbEntity
  8
0
100
AcDbLine
 62
7
  6
CONTINUOUS
 10
15.5373465947
 20
7.8007204498
 11
16.0531172
 21
7.8007204498
  0
LINE
  5
21C
100
AcDbEntity
  8
0
100
AcDbLine
 62
7
  6
CONTINUOUS
 10
15.5281163516
 20
7.9147204498
 11
14.2531180484
 21
7.9147204498
  0
LINE
  5
21D
100
AcDbEntity
  8
0
100
AcDbLine
 62
7
  6
CONTINUOUS
 10
15.4281032462
 20
7.9647204498
 11
14.3531311538
 21
7.9647204498
  0
LINE
  5
21E
100
AcDbEntity
  8
0
100
AcDbLine
 62
7
  6
CONTINUOUS
 10
15.3281163661
 20
8.0647204498
 11
14.4531180339
 21
8.0647204498
  0
LINE
  5
21F
100
AcDbEntity
  8
0
100
AcDbLine
 62
7
  6
CONTINUOUS
 10
14.5781298972
 20
8.0847204498
 11
15.2031045029
 21
8.0847204498
  0
LINE
  5
220
100
AcDbEntity
  8
0
100
AcDbLine
 62
9
  6
CONTINUOUS
 10
16.1635375085
 20
8.1072785608
 11
15.2031172
 21
8.1072785608
  0
LINE
  5
221
100
AcDbEntity
  8
0
100
AcDbLine
 62
9
  6
CONTINUOUS
 10
14.5781172
 20
8.1072785608
 11
13.6176968915
 21
8.1072785608
  0
LINE
  5
222
100
AcDbEntity
  8
0
100
AcDbLine
 62
9
  6
CONTINUOUS
 10
13.611089641
 20
8.1242109784
 11
14.5781172
 21
8.1242109784
  0
LINE
  5
223
100
AcDbEntity
  8
0
100
AcDbLine
 62
9
  6
CONTINUOUS
 10
15.2031172
 20
8.1242109784
 11
16.1701447591
 21
8.1242109784
  0
LINE
  5
224
100
AcDbEntity
  8
0
100
AcDbLine
 62
7
  6
CONTINUOUS
 10
15.2031172
 20
8.4764672744
 11
14.5781172
 21
8.4764672744
  0
LINE
  5
225
100
AcDbEntity
  8
0
100
AcDbLine
 62
7
  6
CONTINUOUS
 10
14.3906172
 20
8.5847204498
 11
14.7140968778
 21
8.5847204498
  0
LINE
  5
226
100
AcDbEntity
  8
0
100
AcDbLine
 62
7
  6
CONTINUOUS
 10
15.0671442624
 20
8.5847204498
 11
15.3906172
 21
8.5847204498
  0
LINE
  5
227
100
AcDbEntity
  8
0
100
AcDbLine
 62
7
  6
CONTINUOUS
 10
15.3906040155
 20
9.0847204498
 11
15.0671375222
 21
9.0847204498
  0
LINE
  5
228
100
AcDbEntity
  8
0
100
AcDbLine
 62
7
  6
CONTINUOUS
 10
14.7140901377
 20
9.0847204498
 11
14.3906303846
 21
9.0847204498
  0
LINE
  5
229
100
AcDbEntity
  8
0
100
AcDbLine
 62
9
  6
CONTINUOUS
 10
15.285738464
 20
9.1235359041
 11
15.0096271535
 21
9.1235297036
  0
LINE
  5
22A
100
AcDbEntity
  8
0
100
AcDbLine
 62
9
  6
CONTINUOUS
 10
14.7716072155
 20
9.1235296907
 11
14.4954862906
 21
9.1235333657
  0
LINE
  5
22B
100
AcDbEntity
  8
0
100
AcDbLine
 62
7
  6
CONTINUOUS
 10
5.2381009089
 20
9.8528517347
 11
6.4315105146
 21
9.6939709182
  0
LINE
  5
22C
100
AcDbEntity
  8
0
100
AcDbLine
 62
9
  6
CONTINUOUS
 10
5.2350670537
 20
10.0045791054
 11
6.4741346123
 21
9.8396197616
  0
LINE
  5
22D
100
AcDbEntity
  8
0
100
AcDbLine
 62
9
  6
CONTINUOUS
 10
6.4959092457
 20
10.0031766793
 11
5.256851904
 21
10.168134663
  0
LINE
  5
22E
100
AcDbEntity
  8
0
100
AcDbLine
 62
7
  6
CONTINUOUS
 10
5.1043497782
 20
10.208614014
 11
6.6536798536
 21
10.0023488504
  0
LINE
  5
22F
100
AcDbEntity
  8
0
100
AcDbLine
 62
7
  6
CONTINUOUS
 10
6.8825001498
 20
10.3625784483
 11
13.4257944023
 21
8.6093080375
  0
LINE
  5
230
100
AcDbEntity
  8
0
100
AcDbLine
 62
7
  6
CONTINUOUS
 10
6.8464385526
 20
10.5053191902
 11
12.966505259
 21
8.8654626121
  0
LINE
  5
231
100
AcDbEntity
  8
0
100
AcDbLine
 62
9
  6
CONTINUOUS
 10
16.1701447591
 20
9.6595564809
 11
14.2962453294
 21
9.6595564809
  0
LINE
  5
232
100
AcDbEntity
  8
0
100
AcDbLine
 62
9
  6
CONTINUOUS
 10
16.1517955757
 20
9.6836555429
 11
13.6294388231
 21
9.6836555436
  0
LINE
  5
233
100
AcDbEntity
  8
0
100
AcDbLine
 62
7
  6
CONTINUOUS
 10
6.6622577394
 20
10.0667803635
 11
5.1129276641
 21
10.273045527
  0
LINE
  5
234
100
AcDbEntity
  8
0
100
AcDbLine
 62
7
  6
CONTINUOUS
 10
15.8506172218
 20
10.0117204498
 11
13.9306171778
 21
10.0117204498
  0
LINE
  5
235
100
AcDbEntity
  8
0
100
AcDbLine
 62
9
  6
CONTINUOUS
 10
14.0056172
 20
10.0367204498
 11
15.7756172
 21
10.0367204498
  0
LINE
  5
236
100
AcDbEntity
  8
0
100
AcDbLine
 62
7
  6
CONTINUOUS
 10
15.7756172
 20
10.1097204498
 11
14.0056172
 21
10.1097204498
  0
LINE
  5
237
100
AcDbEntity
  8
0
100
AcDbLine
 62
9
  6
CONTINUOUS
 10
14.3906172
 20
10.1347204498
 11
15.3906172
 21
10.1347204498
  0
LINE
  5
238
100
AcDbEntity
  8
0
100
AcDbLine
 62
7
  6
CONTINUOUS
 10
15.3906172
 20
10.2697204498
 11
14.3906172
 21
10.2697204498
  0
LINE
  5
239
100
AcDbEntity
  8
0
100
AcDbLine
 62
7
  6
CONTINUOUS
 10
13.5772473214
 20
9.6435792393
 11
13.5770250862
 21
9.6436258146
  0
LINE
  5
23A
100
AcDbEntity
  8
0
100
AcDbLine
 62
7
  6
CONTINUOUS
 10
13.5772676089
 20
9.6435701432
 11
13.5453626079
 21
9.650412279
  0
LWPOLYLINE
  5
23B
100
AcDbEntity
  8
0
100
AcDbPolyline
 62
7
  6
CONTINUOUS
 90
4
 70
0
 10
13.5453626079
 20
9.650412279
 10
13.4495026454
 20
9.6726861929
 10
13.3799365107
 20
9.6904025042
 10
13.3396494948
 20
9.7012364974
  0
LINE
  5
23C
100
AcDbEntity
  8
0
100
AcDbLine
 62
7
  6
CONTINUOUS
 10
15.2499594489
 20
9.1325101273
 11
15.2857618442
 21
9.1235297431
  0
LINE
  5
23D
100
AcDbEntity
  8
0
100
AcDbLine
 62
7
  6
CONTINUOUS
 10
13.2431172
 20
9.5922331522
 11
8.0040957804
 21
11.0451423787
  0
LINE
  5
23E
100
AcDbEntity
  8
0
100
AcDbLine
 62
7
  6
CONTINUOUS
 10
14.4906427649
 20
10.5197204498
 11
15.2905916351
 21
10.5197204498
  0
LINE
  5
23F
100
AcDbEntity
  8
0
100
AcDbLine
 62
7
  6
CONTINUOUS
 10
8.0390551579
 20
11.1712018056
 11
13.3396494948
 21
9.7012364974
  0
LINE
  5
240
100
AcDbEntity
  8
0
100
AcDbLine
 62
7
  6
CONTINUOUS
 10
15.190205006
 20
9.1454893904
 11
15.1898999453
 21
9.1455865799
  0
LINE
  5
241
100
AcDbEntity
  8
0
100
AcDbLine
 62
7
  6
CONTINUOUS
 10
14.5781172
 20
8.4764672744
 11
14.3906172
 21
8.5847204498
  0
LINE
  5
242
100
AcDbEntity
  8
0
100
AcDbLine
 62
7
  6
CONTINUOUS
 10
14.5389012092
 20
9.1335414751
 11
14.5371729198
 21
9.1326133124
  0
LINE
  5
243
100
AcDbEntity
  8
0
100
AcDbLine
 62
7
  6
CONTINUOUS
 10
15.2905916351
 20
10.8947204498
 11
14.4906427649
 21
10.8947204498
  0
LINE
  5
244
100
AcDbEntity
  8
0
100
AcDbLine
 62
7
  6
CONTINUOUS
 10
15.2031154092
 20
10.9697204498
 11
14.5781189909
 21
10.9697204498
  0
LINE
  5
245
100
AcDbEntity
  8
0
100
AcDbLine
 62
7
  6
CONTINUOUS
 10
15.1531156957
 20
11.0197204498
 11
14.6281187043
 21
11.0197204498
  0
LINE
  5
246
100
AcDbEntity
  8
0
100
AcDbLine
 62
7
  6
CONTINUOUS
 10
15.2031172
 20
8.4764672744
 11
15.3906172
 21
8.5847204498
  0
LINE
  5
247
100
AcDbEntity
  8
0
100
AcDbLine
 62
7
  6
CONTINUOUS
 10
14.5392852902
 20
9.1337546095
 11
14.5393044767
 21
9.1337374912
  0
LINE
  5
248
100
AcDbEntity
  8
0
100
AcDbLine
 62
7
  6
CONTINUOUS
 10
13.611089641
 20
8.3678265809
 11
13.611089641
 21
8.1242109784
  0
LINE
  5
249
100
AcDbEntity
  8
0
100
AcDbLine
 62
7
  6
CONTINUOUS
 10
13.7281172
 20
7.1647204498
 11
13.7281172
 21
7.2647204498
  0
LINE
  5
24A
100
AcDbEntity
  8
0
100
AcDbLine
 62
7
  6
CONTINUOUS
 10
13.7781172
 20
7.7757204498
 11
13.7781172
 21
7.2647204498
  0
LINE
  5
24B
100
AcDbEntity
  8
0
100
AcDbLine
 62
7
  6
CONTINUOUS
 10
13.8406172
 20
7.1647204498
 11
13.8406172
 21
7.2647204498
  0
LINE
  5
24C
100
AcDbEntity
  8
0
100
AcDbLine
 62
7
  6
CONTINUOUS
 10
13.6781172
 20
7.1647204498
 11
13.6724555964
 21
7.0584606104
  0
LINE
  5
24D
100
AcDbEntity
  8
0
100
AcDbLine
 62
7
  6
CONTINUOUS
 10
13.7656172
 20
7.1647204498
 11
13.7551280916
 21
7.0202621671
  0
LINE
  5
24E
100
AcDbEntity
  8
0
100
AcDbLine
 62
7
  6
CONTINUOUS
 10
15.2164335807
 20
9.139718108
 11
15.2164183523
 21
9.1397034454
  0
LINE
  5
24F
100
AcDbEntity
  8
0
100
AcDbLine
 62
7
  6
CONTINUOUS
 10
14.0056172
 20
10.1097204498
 11
14.0056172
 21
10.0367204498
  0
LINE
  5
250
100
AcDbEntity
  8
0
100
AcDbLine
 62
7
  6
CONTINUOUS
 10
14.3531172
 20
7.9147204498
 11
14.3531172
 21
7.9647204498
  0
LINE
  5
251
100
AcDbEntity
  8
0
100
AcDbLine
 62
7
  6
CONTINUOUS
 10
14.3906172
 20
10.2697204498
 11
14.3906172
 21
10.1347204498
  0
LINE
  5
252
100
AcDbEntity
  8
0
100
AcDbLine
 62
7
  6
CONTINUOUS
 10
14.3906172
 20
9.0847204498
 11
14.3906172
 21
8.5847204498
  0
LINE
  5
253
100
AcDbEntity
  8
0
100
AcDbLine
 62
7
  6
CONTINUOUS
 10
14.6234704568
 20
9.1437965809
 11
14.6236907727
 21
9.1443609366
  0
LINE
  5
254
100
AcDbEntity
  8
0
100
AcDbLine
 62
7
  6
CONTINUOUS
 10
15.1412015962
 20
9.1435702562
 11
15.1413281113
 21
9.1437689928
  0
LINE
  5
255
100
AcDbEntity
  8
0
100
AcDbLine
 62
7
  6
CONTINUOUS
 10
14.5954338236
 20
9.1434971196
 11
14.5954146371
 21
9.1435383766
  0
LINE
  5
256
100
AcDbEntity
  8
0
100
AcDbLine
 62
7
  6
CONTINUOUS
 10
14.4531172
 20
7.9647204498
 11
14.4531172
 21
8.0647204498
  0
LINE
  5
257
100
AcDbEntity
  8
0
100
AcDbLine
 62
7
  6
CONTINUOUS
 10
14.4906172
 20
10.8947204498
 11
14.4906172
 21
10.5197204498
  0
LINE
  5
258
100
AcDbEntity
  8
0
100
AcDbLine
 62
9
  6
CONTINUOUS
 10
14.5389012092
 20
9.1335414751
 11
14.5389012092
 21
9.1325141025
  0
LINE
  5
259
100
AcDbEntity
  8
0
100
AcDbLine
 62
7
  6
CONTINUOUS
 10
14.5393044767
 20
9.1327103778
 11
14.5393044767
 21
9.1337375427
  0
LINE
  5
25A
100
AcDbEntity
  8
0
100
AcDbLine
 62
7
  6
CONTINUOUS
 10
14.546192058
 20
9.1334339588
 11
14.546192058
 21
9.1344606316
  0
LINE
  5
25B
100
AcDbEntity
  8
0
100
AcDbLine
 62
9
  6
CONTINUOUS
 10
14.5508589978
 20
9.1337672829
 11
14.5508589978
 21
9.1347937291
  0
LINE
  5
25C
100
AcDbEntity
  8
0
100
AcDbLine
 62
7
  6
CONTINUOUS
 10
14.5619596694
 20
9.1368596304
 11
14.5619596694
 21
9.1378839799
  0
LINE
  5
25D
100
AcDbEntity
  8
0
100
AcDbLine
 62
9
  6
CONTINUOUS
 10
14.5645855998
 20
9.1394276684
 11
14.5645855998
 21
9.1384043631
  0
LINE
  5
25E
100
AcDbEntity
  8
0
100
AcDbLine
 62
7
  6
CONTINUOUS
 10
14.5696521603
 20
9.1338224797
 11
14.5696521603
 21
9.1348488885
  0
LINE
  5
25F
100
AcDbEntity
  8
0
100
AcDbLine
 62
7
  6
CONTINUOUS
 10
14.5759082557
 20
9.1412888972
 11
14.5759082557
 21
9.140266848
  0
LINE
  5
260
100
AcDbEntity
  8
0
100
AcDbLine
 62
9
  6
CONTINUOUS
 10
14.5781122227
 20
9.1337672829
 11
14.5781122227
 21
9.1347937291
  0
LINE
  5
261
100
AcDbEntity
  8
0
100
AcDbLine
 62
7
  6
CONTINUOUS
 10
14.5781172
 20
8.4764672744
 11
14.5781172
 21
8.0847204498
  0
LINE
  5
262
100
AcDbEntity
  8
0
100
AcDbLine
 62
9
  6
CONTINUOUS
 10
14.582779954
 20
9.1394276684
 11
14.582779954
 21
9.1384043631
  0
LINE
  5
263
100
AcDbEntity
  8
0
100
AcDbLine
 62
7
  6
CONTINUOUS
 10
14.5871769354
 20
9.1362211419
 11
14.5871769354
 21
9.1372459237
  0
LINE
  5
264
100
AcDbEntity
  8
0
100
AcDbLine
 62
7
  6
CONTINUOUS
 10
14.5906172
 20
9.1454055037
 11
14.5906172
 21
9.1454140487
  0
LINE
  5
265
100
AcDbEntity
  8
0
100
AcDbLine
 62
7
  6
CONTINUOUS
 10
14.5915159114
 20
9.143094092
 11
14.5915159114
 21
9.1441142402
  0
LINE
  5
266
100
AcDbEntity
  8
0
100
AcDbLine
 62
7
  6
CONTINUOUS
 10
14.5967740103
 20
9.1415646988
 11
14.5967740103
 21
9.1405428355
  0
LINE
  5
267
100
AcDbEntity
  8
0
100
AcDbLine
 62
7
  6
CONTINUOUS
 10
14.6149495272
 20
9.1427083791
 11
14.6149495272
 21
9.1437287862
  0
LINE
  5
268
100
AcDbEntity
  8
0
100
AcDbLine
 62
7
  6
CONTINUOUS
 10
14.6281172
 20
11.0197204498
 11
14.6281172
 21
10.9697204498
  0
LINE
  5
269
100
AcDbEntity
  8
0
100
AcDbLine
 62
7
  6
CONTINUOUS
 10
14.6531172
 20
10.5197204498
 11
14.6531172
 21
10.2697204498
  0
LINE
  5
26A
100
AcDbEntity
  8
0
100
AcDbLine
 62
7
  6
CONTINUOUS
 10
14.6906172
 20
8.0847204498
 11
14.6906172
 21
8.0647204498
  0
LINE
  5
26B
100
AcDbEntity
  8
0
100
AcDbLine
 62
7
  6
CONTINUOUS
 10
14.5587305005
 20
9.1335414751
 11
14.5587248639
 21
9.133470466
  0
LINE
  5
26C
100
AcDbEntity
  8
0
100
AcDbLine
 62
7
  6
CONTINUOUS
 10
14.8206172
 20
9.1688651472
 11
14.8206172
 21
9.1626463842
  0
LINE
  5
26D
100
AcDbEntity
  8
0
100
AcDbLine
 62
7
  6
CONTINUOUS
 10
14.8206172
 20
9.1614435191
 11
14.8206172
 21
9.1511645417
  0
LINE
  5
26E
100
AcDbEntity
  8
0
100
AcDbLine
 62
7
  6
CONTINUOUS
 10
14.8406172
 20
9.1733978766
 11
14.8406172
 21
9.1723970225
  0
LINE
  5
26F
100
AcDbEntity
  8
0
100
AcDbLine
 62
7
  6
CONTINUOUS
 10
14.8406172
 20
9.1519501356
 11
14.8406172
 21
9.1552191047
  0
LINE
  5
270
100
AcDbEntity
  8
0
100
AcDbLine
 62
7
  6
CONTINUOUS
 10
14.8406172
 20
9.1612157335
 11
14.8406172
 21
9.1622238631
  0
LINE
  5
271
100
AcDbEntity
  8
0
100
AcDbLine
 62
7
  6
CONTINUOUS
 10
14.8406172
 20
9.1686384561
 11
14.8406172
 21
9.1696417442
  0
LINE
  5
272
100
AcDbEntity
  8
0
100
AcDbLine
 62
9
  6
CONTINUOUS
 10
14.8538836992
 20
9.1615887743
 11
14.8538836992
 21
9.160580228
  0
LINE
  5
273
100
AcDbEntity
  8
0
100
AcDbLine
 62
9
  6
CONTINUOUS
 10
14.8644656801
 20
9.1688278762
 11
14.8644656801
 21
9.1678240592
  0
LINE
  5
274
100
AcDbEntity
  8
0
100
AcDbLine
 62
9
  6
CONTINUOUS
 10
14.8681172
 20
9.1456513043
 11
14.8681172
 21
9.1446321873
  0
LINE
  5
275
100
AcDbEntity
  8
0
100
AcDbLine
 62
9
  6
CONTINUOUS
 10
14.8906172
 20
9.1729056558
 11
14.8906172
 21
9.1719044833
  0
LINE
  5
276
100
AcDbEntity
  8
0
100
AcDbLine
 62
9
  6
CONTINUOUS
 10
14.9181172
 20
9.1455691665
 11
14.9181172
 21
9.1445499948
  0
LINE
  5
277
100
AcDbEntity
  8
0
100
AcDbLine
 62
9
  6
CONTINUOUS
 10
14.92176872
 20
9.1677312594
 11
14.92176872
 21
9.1687351367
  0
LINE
  5
278
100
AcDbEntity
  8
0
100
AcDbLine
 62
9
  6
CONTINUOUS
 10
14.9323507009
 20
9.1604525535
 11
14.9323507009
 21
9.1614611836
  0
LINE
  5
279
100
AcDbEntity
  8
0
100
AcDbLine
 62
7
  6
CONTINUOUS
 10
14.9406172
 20
9.1723970225
 11
14.9406172
 21
9.1733978766
  0
LINE
  5
27A
100
AcDbEntity
  8
0
100
AcDbLine
 62
7
  6
CONTINUOUS
 10
14.9456172
 20
9.1694718969
 11
14.9456172
 21
9.1684684985
  0
LINE
  5
27B
100
AcDbEntity
  8
0
100
AcDbLine
 62
7
  6
CONTINUOUS
 10
14.9456172
 20
9.1550476574
 11
14.9456172
 21
9.1517783214
  0
LINE
  5
27C
100
AcDbEntity
  8
0
100
AcDbLine
 62
7
  6
CONTINUOUS
 10
14.9456172
 20
9.1620531967
 11
14.9456172
 21
9.1610449551
  0
LINE
  5
27D
100
AcDbEntity
  8
0
100
AcDbLine
 62
7
  6
CONTINUOUS
 10
14.9606172
 20
9.1511645417
 11
14.9606172
 21
9.1614435191
  0
LINE
  5
27E
100
AcDbEntity
  8
0
100
AcDbLine
 62
7
  6
CONTINUOUS
 10
14.9606172
 20
9.1626463842
 11
14.9606172
 21
9.1688651472
  0
LINE
  5
27F
100
AcDbEntity
  8
0
100
AcDbLine
 62
7
  6
CONTINUOUS
 10
15.0906172
 20
8.0847204498
 11
15.0906172
 21
8.0647204498
  0
LINE
  5
280
100
AcDbEntity
  8
0
100
AcDbLine
 62
7
  6
CONTINUOUS
 10
15.1281172
 20
10.5197204498
 11
15.1281172
 21
10.2697204498
  0
LINE
  5
281
100
AcDbEntity
  8
0
100
AcDbLine
 62
7
  6
CONTINUOUS
 10
15.1342360145
 20
9.1455653035
 11
15.1342360145
 21
9.1445461288
  0
LINE
  5
282
100
AcDbEntity
  8
0
100
AcDbLine
 62
7
  6
CONTINUOUS
 10
15.1412015962
 20
9.1425547049
 11
15.1412015962
 21
9.1435752153
  0
LINE
  5
283
100
AcDbEntity
  8
0
100
AcDbLine
 62
9
  6
CONTINUOUS
 10
15.146197997
 20
9.1414855616
 11
15.146197997
 21
9.140463645
  0
LINE
  5
284
100
AcDbEntity
  8
0
100
AcDbLine
 62
7
  6
CONTINUOUS
 10
15.1514659392
 20
9.1455143665
 11
15.1514659392
 21
9.1444951577
  0
LINE
  5
285
100
AcDbEntity
  8
0
100
AcDbLine
 62
7
  6
CONTINUOUS
 10
15.1531172
 20
11.0197204498
 11
15.1531172
 21
10.9697204498
  0
LINE
  5
286
100
AcDbEntity
  8
0
100
AcDbLine
 62
9
  6
CONTINUOUS
 10
15.1578961525
 20
9.1340770194
 11
15.1578961525
 21
9.1330500856
  0
LINE
  5
287
100
AcDbEntity
  8
0
100
AcDbLine
 62
9
  6
CONTINUOUS
 10
15.1636159275
 20
9.1331248583
 11
15.1636159275
 21
9.1341517412
  0
LINE
  5
288
100
AcDbEntity
  8
0
100
AcDbLine
 62
7
  6
CONTINUOUS
 10
15.1638279167
 20
9.1331772665
 11
15.1638279167
 21
9.1342041138
  0
LINE
  5
289
100
AcDbEntity
  8
0
100
AcDbLine
 62
7
  6
CONTINUOUS
 10
15.1703158985
 20
9.1454154454
 11
15.1703158985
 21
9.1443961703
  0
LINE
  5
28A
100
AcDbEntity
  8
0
100
AcDbLine
 62
9
  6
CONTINUOUS
 10
15.1714471774
 20
9.1333626012
 11
15.1714471774
 21
9.1343893225
  0
LINE
  5
28B
100
AcDbEntity
  8
0
100
AcDbLine
 62
9
  6
CONTINUOUS
 10
15.1728508496
 20
9.1341517412
 11
15.1728508496
 21
9.1331248583
  0
LINE
  5
28C
100
AcDbEntity
  8
0
100
AcDbLine
 62
7
  6
CONTINUOUS
 10
15.1764815804
 20
9.140633936
 11
15.1764815804
 21
9.1396114452
  0
LINE
  5
28D
100
AcDbEntity
  8
0
100
AcDbLine
 62
7
  6
CONTINUOUS
 10
15.178405045
 20
9.1425984767
 11
15.178405045
 21
9.1436189576
  0
LINE
  5
28E
100
AcDbEntity
  8
0
100
AcDbLine
 62
9
  6
CONTINUOUS
 10
15.1785706246
 20
9.1330500856
 11
15.1785706246
 21
9.1340770194
  0
LINE
  5
28F
100
AcDbEntity
  8
0
100
AcDbLine
 62
7
  6
CONTINUOUS
 10
15.1816828638
 20
9.1336457194
 11
15.1816828638
 21
9.1346722483
  0
LINE
  5
290
100
AcDbEntity
  8
0
100
AcDbLine
 62
9
  6
CONTINUOUS
 10
15.1817144422
 20
9.1397181708
 11
15.1817144422
 21
9.1407405897
  0
LINE
  5
291
100
AcDbEntity
  8
0
100
AcDbLine
 62
9
  6
CONTINUOUS
 10
15.1823683046
 20
9.140663752
 11
15.1823683046
 21
9.1396412812
  0
LINE
  5
292
100
AcDbEntity
  8
0
100
AcDbLine
 62
7
  6
CONTINUOUS
 10
15.1827055116
 20
9.1380057029
 11
15.1827055116
 21
9.1390292775
  0
LINE
  5
293
100
AcDbEntity
  8
0
100
AcDbLine
 62
7
  6
CONTINUOUS
 10
15.183511436
 20
9.1396340614
 11
15.183511436
 21
9.140656537
  0
LINE
  5
294
100
AcDbEntity
  8
0
100
AcDbLine
 62
9
  6
CONTINUOUS
 10
15.1845561669
 20
9.1417375921
 11
15.1845561669
 21
9.1407158453
  0
LINE
  5
295
100
AcDbEntity
  8
0
100
AcDbLine
 62
7
  6
CONTINUOUS
 10
15.1855436175
 20
9.1342149657
 11
15.1855436175
 21
9.1331881258
  0
LINE
  5
296
100
AcDbEntity
  8
0
100
AcDbLine
 62
7
  6
CONTINUOUS
 10
15.1872222729
 20
9.1438332551
 11
15.1872222729
 21
9.1428129181
  0
LINE
  5
297
100
AcDbEntity
  8
0
100
AcDbLine
 62
7
  6
CONTINUOUS
 10
15.2031172
 20
8.4764672744
 11
15.2031172
 21
8.0847204498
  0
LINE
  5
298
100
AcDbEntity
  8
0
100
AcDbLine
 62
9
  6
CONTINUOUS
 10
15.2047142224
 20
9.1340888727
 11
15.2047142224
 21
9.133061947
  0
LINE
  5
299
100
AcDbEntity
  8
0
100
AcDbLine
 62
9
  6
CONTINUOUS
 10
15.2078775725
 20
9.1350510003
 11
15.2078775725
 21
9.1360765751
  0
LINE
  5
29A
100
AcDbEntity
  8
0
100
AcDbLine
 62
7
  6
CONTINUOUS
 10
15.209934833
 20
9.1330655343
 11
15.209934833
 21
9.1340924576
  0
LINE
  5
29B
100
AcDbEntity
  8
0
100
AcDbLine
 62
7
  6
CONTINUOUS
 10
15.1815734329
 20
9.134922766
 11
15.1816828638
 21
9.1346706551
  0
LINE
  5
29C
100
AcDbEntity
  8
0
100
AcDbLine
 62
7
  6
CONTINUOUS
 10
15.218850777
 20
9.1337999159
 11
15.218850777
 21
9.1327727935
  0
LINE
  5
29D
100
AcDbEntity
  8
0
100
AcDbLine
 62
7
  6
CONTINUOUS
 10
15.2295852912
 20
9.1336604598
 11
15.2295852912
 21
9.1346869786
  0
LINE
  5
29E
100
AcDbEntity
  8
0
100
AcDbLine
 62
7
  6
CONTINUOUS
 10
15.2906172
 20
10.8947204498
 11
15.2906172
 21
10.5197204498
  0
LINE
  5
29F
100
AcDbEntity
  8
0
100
AcDbLine
 62
7
  6
CONTINUOUS
 10
15.3281172
 20
7.9647204498
 11
15.3281172
 21
8.0647204498
  0
LINE
  5
2A0
100
AcDbEntity
  8
0
100
AcDbLine
 62
7
  6
CONTINUOUS
 10
15.3906172
 20
10.2697204498
 11
15.3906172
 21
10.1347204498
  0
LINE
  5
2A1
100
AcDbEntity
  8
0
100
AcDbLine
 62
7
  6
CONTINUOUS
 10
15.3906172
 20
9.0847204498
 11
15.3906172
 21
8.5847204498
  0
LINE
  5
2A2
100
AcDbEntity
  8
0
100
AcDbLine
 62
7
  6
CONTINUOUS
 10
15.4281172
 20
7.9147204498
 11
15.4281172
 21
7.9647204498
  0
LINE
  5
2A3
100
AcDbEntity
  8
0
100
AcDbLine
 62
7
  6
CONTINUOUS
 10
16.0156172
 20
7.1647204498
 11
16.0261063085
 21
7.0202621671
  0
LINE
  5
2A4
100
AcDbEntity
  8
0
100
AcDbLine
 62
7
  6
CONTINUOUS
 10
16.1031172
 20
7.1647204498
 11
16.1087788037
 21
7.0584606104
  0
LINE
  5
2A5
100
AcDbEntity
  8
0
100
AcDbLine
 62
7
  6
CONTINUOUS
 10
15.7756172
 20
10.1097204498
 11
15.7756172
 21
10.0367204498
  0
LINE
  5
2A6
100
AcDbEntity
  8
0
100
AcDbLine
 62
7
  6
CONTINUOUS
 10
15.9406172
 20
7.1647204498
 11
15.9406172
 21
7.2647204498
  0
LINE
  5
2A7
100
AcDbEntity
  8
0
100
AcDbLine
 62
7
  6
CONTINUOUS
 10
16.0031172
 20
7.7757204498
 11
16.0031172
 21
7.2647204498
  0
LINE
  5
2A8
100
AcDbEntity
  8
0
100
AcDbLine
 62
7
  6
CONTINUOUS
 10
16.0531172
 20
7.1647204498
 11
16.0531172
 21
7.2647204498
  0
LINE
  5
2A9
100
AcDbEntity
  8
0
100
AcDbLine
 62
7
  6
CONTINUOUS
 10
16.1701447591
 20
9.6595564809
 11
16.1701447591
 21
8.1242109784
  0
ARC
  5
2AA
100
AcDbEntity
  8
0
100
AcDbCircle
 62
7
  6
CONTINUOUS
 10
6.8364915156
 20
6.8348803969
 40
4.5000000048
100
AcDbArc
 50
99.9025432303
 51
108.5556763691
  0
ARC
  5
2AB
100
AcDbEntity
  8
0
100
AcDbCircle
 62
7
  6
CONTINUOUS
 10
8.8499199035
 20
9.775463221
 40
3.6916048641
100
AcDbArc
 50
158.9581017501
 51
163.4540955451
  0
ARC
  5
2AC
100
AcDbEntity
  8
0
100
AcDbCircle
 62
7
  6
CONTINUOUS
 10
5.9785075889
 20
9.9056034991
 40
0.5
100
AcDbArc
 50
334.9590968764
 51
352.4166999999
  0
ARC
  5
2AD
100
AcDbEntity
  8
0
100
AcDbCircle
 62
7
  6
CONTINUOUS
 10
5.7306940772
 20
9.9385953679
 40
0.5
100
AcDbArc
 50
172.4166999999
 51
189.8743031237
  0
ARC
  5
2AE
100
AcDbEntity
  8
0
100
AcDbCircle
 62
7
  6
CONTINUOUS
 10
6.825899565
 20
10.1509154837
 40
0.2191130011
100
AcDbArc
 50
75.0288836896
 51
168.1594557135
  0
ARC
  5
2AF
100
AcDbEntity
  8
0
100
AcDbCircle
 62
7
  6
CONTINUOUS
 10
5.2370166061
 20
10.1707753727
 40
0.02
100
AcDbArc
 50
352.4167
 51
82.4167000007
  0
ARC
  5
2B0
100
AcDbEntity
  8
0
100
AcDbCircle
 62
7
  6
CONTINUOUS
 10
6.5157343267
 20
10.0005373298
 40
0.02
100
AcDbArc
 50
82.4167000007
 51
172.4167
  0
ARC
  5
2B1
100
AcDbEntity
  8
0
100
AcDbCircle
 62
7
  6
CONTINUOUS
 10
15.9503087925
 20
-12.7620937721
 40
22.340151962
100
AcDbArc
 50
94.4605165593
 51
94.5934673496
  0
ARC
  5
2B2
100
AcDbEntity
  8
0
100
AcDbCircle
 62
7
  6
CONTINUOUS
 10
13.2946070058
 20
7.0988393494
 40
0.38
100
AcDbArc
 50
305.5635636845
 51
353.9002438478
  0
ARC
  5
2B3
100
AcDbEntity
  8
0
100
AcDbCircle
 62
7
  6
CONTINUOUS
 10
13.3840615073
 20
7.0744340232
 40
0.375
100
AcDbArc
 50
310.6030912348
 51
351.6940891949
  0
ARC
  5
2B4
100
AcDbEntity
  8
0
100
AcDbCircle
 62
7
  6
CONTINUOUS
 10
13.6281172
 20
6.7397204498
 40
0.05
100
AcDbArc
 50
90.0000000005
 51
270.0
  0
ARC
  5
2B5
100
AcDbEntity
  8
0
100
AcDbCircle
 62
7
  6
CONTINUOUS
 10
13.5156172
 20
6.7397204498
 40
0.05
100
AcDbArc
 50
90.0
 51
270.0
  0
ARC
  5
2B6
100
AcDbEntity
  8
0
100
AcDbCircle
 62
7
  6
CONTINUOUS
 10
13.5347459879
 20
7.9147204498
 40
0.7183712121
100
AcDbArc
 50
295.2003196521
 51
360.0
  0
ARC
  5
2B7
100
AcDbEntity
  8
0
100
AcDbCircle
 62
7
  6
CONTINUOUS
 10
13.3086987008
 20
7.8228139441
 40
0.42
100
AcDbArc
 50
356.9846464087
 51
42.6327575958
  0
ARC
  5
2B8
100
AcDbEntity
  8
0
100
AcDbCircle
 62
7
  6
CONTINUOUS
 10
13.3610141735
 20
8.367768448
 40
0.2500772445
100
AcDbArc
 50
0.0133388366
 51
74.9867457518
  0
ARC
  5
2B9
100
AcDbEntity
  8
0
100
AcDbCircle
 62
7
  6
CONTINUOUS
 10
13.6360903104
 20
9.6595560733
 40
0.0250000009
100
AcDbArc
 50
105.4304920074
 51
118.8378439274
  0
ARC
  5
2BA
100
AcDbEntity
  8
0
100
AcDbCircle
 62
7
  6
CONTINUOUS
 10
13.636089641
 20
8.1242109784
 40
0.025
100
AcDbArc
 50
180.0
 51
222.6327575959
  0
ARC
  5
2BB
100
AcDbEntity
  8
0
100
AcDbCircle
 62
7
  6
CONTINUOUS
 10
13.7531172
 20
7.7757204498
 40
0.025
100
AcDbArc
 50
0.0
 51
90.0
  0
ARC
  5
2BC
100
AcDbEntity
  8
0
100
AcDbCircle
 62
7
  6
CONTINUOUS
 10
14.8893329745
 20
4.8456598248
 40
4.3272460215
100
AcDbArc
 50
89.8490840169
 51
89.9829959514
  0
ARC
  5
2BD
100
AcDbEntity
  8
0
100
AcDbCircle
 62
7
  6
CONTINUOUS
 10
14.8893850701
 20
4.887397624
 40
4.2845070365
100
AcDbArc
 50
89.8502239915
 51
89.9835229942
  0
ARC
  5
2BE
100
AcDbEntity
  8
0
100
AcDbCircle
 62
7
  6
CONTINUOUS
 10
14.5704336827
 20
9.0635459329
 40
0.0751471016
100
AcDbArc
 50
105.5778661234
 51
106.6218769801
  0
ARC
  5
2BF
100
AcDbEntity
  8
0
100
AcDbCircle
 62
7
  6
CONTINUOUS
 10
14.5031172
 20
9.0945201029
 40
0.03
100
AcDbArc
 50
104.7630312683
 51
199.4300556881
  0
ARC
  5
2C0
100
AcDbEntity
  8
0
100
AcDbCircle
 62
7
  6
CONTINUOUS
 10
14.4997021645
 20
9.4725014106
 40
0.3413563097
100
AcDbArc
 50
283.6295242073
 51
283.8046442
  0
ARC
  5
2C1
100
AcDbEntity
  8
0
100
AcDbCircle
 62
7
  6
CONTINUOUS
 10
14.4976496931
 20
9.413939837
 40
0.2851333266
100
AcDbArc
 50
282.28231292
 51
283.0247996931
  0
ARC
  5
2C2
100
AcDbEntity
  8
0
100
AcDbCircle
 62
7
  6
CONTINUOUS
 10
14.4993763987
 20
9.4058461153
 40
0.2768575419
100
AcDbArc
 50
281.7478280566
 51
282.289470066
  0
ARC
  5
2C3
100
AcDbEntity
  8
0
100
AcDbCircle
 62
7
  6
CONTINUOUS
 10
14.5069019429
 20
9.3739193415
 40
0.244057249
100
AcDbArc
 50
283.0260478584
 51
284.0130392766
  0
ARC
  5
2C4
100
AcDbEntity
  8
0
100
AcDbCircle
 62
7
  6
CONTINUOUS
 10
14.554269103
 20
9.3615632613
 40
0.2295499272
100
AcDbArc
 50
275.0207753544
 51
275.409291273
  0
ARC
  5
2C5
100
AcDbEntity
  8
0
100
AcDbCircle
 62
7
  6
CONTINUOUS
 10
14.5567647982
 20
9.3328521567
 40
0.2007305724
100
AcDbArc
 50
274.51478233
 51
275.02836488
  0
ARC
  5
2C6
100
AcDbEntity
  8
0
100
AcDbCircle
 62
7
  6
CONTINUOUS
 10
14.5602129188
 20
9.2876864446
 40
0.1554336283
100
AcDbArc
 50
273.3958526608
 51
274.5582264248
  0
ARC
  5
2C7
100
AcDbEntity
  8
0
100
AcDbCircle
 62
7
  6
CONTINUOUS
 10
14.556721793
 20
9.2831903926
 40
0.1514495221
100
AcDbArc
 50
281.5124698206
 51
281.805328404
  0
ARC
  5
2C8
100
AcDbEntity
  8
0
100
AcDbCircle
 62
7
  6
CONTINUOUS
 10
14.5510034752
 20
9.272682744
 40
0.1350518283
100
AcDbArc
 50
284.9610550629
 51
285.4552592623
  0
ARC
  5
2C9
100
AcDbEntity
  8
0
100
AcDbCircle
 62
7
  6
CONTINUOUS
 10
14.5675388988
 20
9.2243049506
 40
0.0911529728
100
AcDbArc
 50
275.0529871834
 51
276.661040468
  0
ARC
  5
2CA
100
AcDbEntity
  8
0
100
AcDbCircle
 62
7
  6
CONTINUOUS
 10
14.5399427589
 20
9.2073713062
 40
0.0733947785
100
AcDbArc
 50
279.426585917
 51
280.3391111092
  0
ARC
  5
2CB
100
AcDbEntity
  8
0
100
AcDbCircle
 62
7
  6
CONTINUOUS
 10
14.5410130543
 20
9.2009308654
 40
0.0668660108
100
AcDbArc
 50
278.4675271703
 51
279.4257264332
  0
ARC
  5
2CC
100
AcDbEntity
  8
0
100
AcDbCircle
 62
7
  6
CONTINUOUS
 10
14.5707221714
 20
9.1978966922
 40
0.064553807
100
AcDbArc
 50
276.5735719372
 51
277.8395451158
  0
ARC
  5
2CD
100
AcDbEntity
  8
0
100
AcDbCircle
 62
7
  6
CONTINUOUS
 10
14.5512864835
 20
9.161279909
 40
0.0269095509
100
AcDbArc
 50
286.7225049862
 51
287.7414766938
  0
ARC
  5
2CE
100
AcDbEntity
  8
0
100
AcDbCircle
 62
7
  6
CONTINUOUS
 10
14.5462446662
 20
9.1122805331
 40
0.0215249551
100
AcDbArc
 50
109.9475727962
 51
110.4575787904
  0
ARC
  5
2CF
100
AcDbEntity
  8
0
100
AcDbCircle
 62
7
  6
CONTINUOUS
 10
14.6622197487
 20
8.7270235951
 40
0.4238692395
100
AcDbArc
 50
101.587664285
 51
101.770066557
  0
ARC
  5
2D0
100
AcDbEntity
  8
0
100
AcDbCircle
 62
7
  6
CONTINUOUS
 10
14.660100123
 20
8.7371609152
 40
0.4135126947
100
AcDbArc
 50
101.7690687736
 51
102.0794315375
  0
ARC
  5
2D1
100
AcDbEntity
  8
0
100
AcDbCircle
 62
7
  6
CONTINUOUS
 10
14.658978457
 20
8.7417253186
 40
0.4078153635
100
AcDbArc
 50
101.7541431542
 51
102.0895752853
  0
ARC
  5
2D2
100
AcDbEntity
  8
0
100
AcDbCircle
 62
7
  6
CONTINUOUS
 10
14.6507623076
 20
8.7800210705
 40
0.3686481639
100
AcDbArc
 50
102.0875176707
 51
102.3920327756
  0
ARC
  5
2D3
100
AcDbEntity
  8
0
100
AcDbCircle
 62
7
  6
CONTINUOUS
 10
14.6381894806
 20
8.8370671498
 40
0.3102330165
100
AcDbArc
 50
102.3850431455
 51
102.7195414218
  0
ARC
  5
2D4
100
AcDbEntity
  8
0
100
AcDbCircle
 62
7
  6
CONTINUOUS
 10
14.6356348421
 20
8.9099948176
 40
0.2362300471
100
AcDbArc
 50
96.773326571
 51
97.9552297525
  0
ARC
  5
2D5
100
AcDbEntity
  8
0
100
AcDbCircle
 62
7
  6
CONTINUOUS
 10
14.6119922079
 20
8.9083284017
 40
0.2358385869
100
AcDbArc
 50
104.0898900946
 51
104.2447504945
  0
ARC
  5
2D6
100
AcDbEntity
  8
0
100
AcDbCircle
 62
7
  6
CONTINUOUS
 10
14.6308259765
 20
8.9501429682
 40
0.195794948
100
AcDbArc
 50
96.4184162341
 51
96.7615740561
  0
ARC
  5
2D7
100
AcDbEntity
  8
0
100
AcDbCircle
 62
7
  6
CONTINUOUS
 10
14.6124286997
 20
8.9501261988
 40
0.1942766544
100
AcDbArc
 50
102.6501233331
 51
103.5846996012
  0
ARC
  5
2D8
100
AcDbEntity
  8
0
100
AcDbCircle
 62
7
  6
CONTINUOUS
 10
14.6285366611
 20
8.9715318951
 40
0.1733167405
100
AcDbArc
 50
100.3518431606
 51
101.3500617173
  0
ARC
  5
2D9
100
AcDbEntity
  8
0
100
AcDbCircle
 62
7
  6
CONTINUOUS
 10
14.6276424122
 20
8.9768653842
 40
0.1689128475
100
AcDbArc
 50
101.3503803273
 51
102.3008510784
  0
ARC
  5
2DA
100
AcDbEntity
  8
0
100
AcDbCircle
 62
7
  6
CONTINUOUS
 10
14.6275650559
 20
8.9775267068
 40
0.1682492434
100
AcDbArc
 50
99.8223175402
 51
101.3688752735
  0
ARC
  5
2DB
100
AcDbEntity
  8
0
100
AcDbCircle
 62
7
  6
CONTINUOUS
 10
14.6248677185
 20
8.9891362932
 40
0.1553346284
100
AcDbArc
 50
101.3011541804
 51
102.9898515467
  0
ARC
  5
2DC
100
AcDbEntity
  8
0
100
AcDbCircle
 62
7
  6
CONTINUOUS
 10
14.6264003887
 20
8.9906837445
 40
0.1550136087
100
AcDbArc
 50
95.2205347028
 51
96.4679960518
  0
ARC
  5
2DD
100
AcDbEntity
  8
0
100
AcDbCircle
 62
7
  6
CONTINUOUS
 10
14.6228607126
 20
8.9988957578
 40
0.146369523
100
AcDbArc
 50
102.3092810655
 51
102.9931283515
  0
ARC
  5
2DE
100
AcDbEntity
  8
0
100
AcDbCircle
 62
7
  6
CONTINUOUS
 10
14.6085405238
 20
9.0061344773
 40
0.1393263821
100
AcDbArc
 50
99.706134243
 51
100.7292132328
  0
ARC
  5
2DF
100
AcDbEntity
  8
0
100
AcDbCircle
 62
7
  6
CONTINUOUS
 10
14.6057198855
 20
9.022577603
 40
0.1226430878
100
AcDbArc
 50
99.1310704077
 51
99.702380607
  0
ARC
  5
2E0
100
AcDbEntity
  8
0
100
AcDbCircle
 62
7
  6
CONTINUOUS
 10
14.6081521055
 20
9.0282748519
 40
0.1167298218
100
AcDbArc
 50
97.3923730573
 51
98.0712915406
  0
ARC
  5
2E1
100
AcDbEntity
  8
0
100
AcDbCircle
 62
7
  6
CONTINUOUS
 10
14.6074299512
 20
9.0345124771
 40
0.1114621807
100
AcDbArc
 50
97.3705688789
 51
98.1291305188
  0
ARC
  5
2E2
100
AcDbEntity
  8
0
100
AcDbCircle
 62
7
  6
CONTINUOUS
 10
14.6018769337
 20
9.0464380163
 40
0.0984751849
100
AcDbArc
 50
98.4379173296
 51
99.1265548218
  0
ARC
  5
2E3
100
AcDbEntity
  8
0
100
AcDbCircle
 62
7
  6
CONTINUOUS
 10
14.6177607613
 20
9.0513882049
 40
0.0930545079
100
AcDbArc
 50
96.4856901036
 51
97.404099177
  0
ARC
  5
2E4
100
AcDbEntity
  8
0
100
AcDbCircle
 62
7
  6
CONTINUOUS
 10
14.6162334048
 20
9.0647774627
 40
0.0795784175
100
AcDbArc
 50
95.4013219714
 51
96.4819482546
  0
ARC
  5
2E5
100
AcDbEntity
  8
0
100
AcDbCircle
 62
7
  6
CONTINUOUS
 10
14.5976907698
 20
9.0745740611
 40
0.0700294335
100
AcDbArc
 50
97.5115718801
 51
98.4279089935
  0
ARC
  5
2E6
100
AcDbEntity
  8
0
100
AcDbCircle
 62
7
  6
CONTINUOUS
 10
14.5914909428
 20
9.083902273
 40
0.0558911908
100
AcDbArc
 50
107.9540729392
 51
108.4556611743
  0
ARC
  5
2E7
100
AcDbEntity
  8
0
100
AcDbCircle
 62
7
  6
CONTINUOUS
 10
14.5892802403
 20
9.0979079468
 40
0.04554701
100
AcDbArc
 50
102.7591154534
 51
103.9400674756
  0
ARC
  5
2E8
100
AcDbEntity
  8
0
100
AcDbCircle
 62
7
  6
CONTINUOUS
 10
14.5839236281
 20
9.2230027573
 40
0.0856797639
100
AcDbArc
 50
286.2783735303
 51
287.4455913447
  0
ARC
  5
2E9
100
AcDbEntity
  8
0
100
AcDbCircle
 62
7
  6
CONTINUOUS
 10
14.5860897629
 20
9.1106146238
 40
0.0324459784
100
AcDbArc
 50
103.8775779367
 51
105.2635773318
  0
ARC
  5
2EA
100
AcDbEntity
  8
0
100
AcDbCircle
 62
7
  6
CONTINUOUS
 10
14.5829746218
 20
9.1081686023
 40
0.030172033
100
AcDbArc
 50
110.2630607134
 51
111.0366962027
  0
ARC
  5
2EB
100
AcDbEntity
  8
0
100
AcDbCircle
 62
7
  6
CONTINUOUS
 10
14.8906159685
 20
7.6240396113
 40
1.5506808872
100
AcDbArc
 50
79.9720300494
 51
87.3878656294
  0
ARC
  5
2EC
100
AcDbEntity
  8
0
100
AcDbCircle
 62
7
  6
CONTINUOUS
 10
14.8906171208
 20
7.6240516856
 40
1.5506687629
100
AcDbArc
 50
92.5944130208
 51
99.9517914423
  0
ARC
  5
2ED
100
AcDbEntity
  8
0
100
AcDbCircle
 62
7
  6
CONTINUOUS
 10
14.8906087649
 20
7.6240770135
 40
1.5506421824
100
AcDbArc
 50
103.4269575574
 51
104.7629771491
  0
ARC
  5
2EE
100
AcDbEntity
  8
0
100
AcDbCircle
 62
7
  6
CONTINUOUS
 10
14.8906004472
 20
7.6241365781
 40
1.5505822603
100
AcDbArc
 50
100.5044142892
 51
100.8724064552
  0
ARC
  5
2EF
100
AcDbEntity
  8
0
100
AcDbCircle
 62
7
  6
CONTINUOUS
 10
14.8905644283
 20
7.6243236355
 40
1.5503917664
100
AcDbArc
 50
100.9920633618
 51
101.1550929028
  0
ARC
  5
2F0
100
AcDbEntity
  8
0
100
AcDbCircle
 62
7
  6
CONTINUOUS
 10
14.8906156045
 20
7.6240037416
 40
1.5497167346
100
AcDbArc
 50
87.9016379301
 51
88.1504181538
  0
ARC
  5
2F1
100
AcDbEntity
  8
0
100
AcDbCircle
 62
7
  6
CONTINUOUS
 10
14.8905944408
 20
7.6268298358
 40
1.5478923124
100
AcDbArc
 50
78.5328793632
 51
78.7591447368
  0
ARC
  5
2F2
100
AcDbEntity
  8
0
100
AcDbCircle
 62
7
  6
CONTINUOUS
 10
14.8905325596
 20
7.7060844509
 40
1.4686279403
100
AcDbArc
 50
89.9966979114
 51
90.5258255996
  0
ARC
  5
2F3
100
AcDbEntity
  8
0
100
AcDbCircle
 62
7
  6
CONTINUOUS
 10
14.8435663756
 20
7.7595754132
 40
1.4080773446
100
AcDbArc
 50
77.2583903626
 51
77.4885865823
  0
ARC
  5
2F4
100
AcDbEntity
  8
0
100
AcDbCircle
 62
7
  6
CONTINUOUS
 10
14.8595636753
 20
7.7939446613
 40
1.3779619276
100
AcDbArc
 50
102.4370796975
 51
102.6151880655
  0
ARC
  5
2F5
100
AcDbEntity
  8
0
100
AcDbCircle
 62
7
  6
CONTINUOUS
 10
14.8550277887
 20
7.7942545061
 40
1.3767849095
100
AcDbArc
 50
102.1157172514
 51
102.3134812456
  0
ARC
  5
2F6
100
AcDbEntity
  8
0
100
AcDbCircle
 62
7
  6
CONTINUOUS
 10
14.8897164845
 20
7.8998011749
 40
1.2752591473
100
AcDbArc
 50
75.4787197789
 51
75.7727420668
  0
ARC
  5
2F7
100
AcDbEntity
  8
0
100
AcDbCircle
 62
7
  6
CONTINUOUS
 10
14.8899402888
 20
7.9006838069
 40
1.2743485828
100
AcDbArc
 50
75.7727428185
 51
76.0669052701
  0
ARC
  5
2F8
100
AcDbEntity
  8
0
100
AcDbCircle
 62
7
  6
CONTINUOUS
 10
14.8901333976
 20
7.9014615631
 40
1.2735472117
100
AcDbArc
 50
76.0669121162
 51
76.3019942194
  0
ARC
  5
2F9
100
AcDbEntity
  8
0
100
AcDbCircle
 62
7
  6
CONTINUOUS
 10
14.8781640446
 20
8.1678978771
 40
1.0077153002
100
AcDbArc
 50
73.5549668624
 51
73.8366870239
  0
ARC
  5
2FA
100
AcDbEntity
  8
0
100
AcDbCircle
 62
7
  6
CONTINUOUS
 10
14.886338177
 20
8.1684805122
 40
1.0071082225
100
AcDbArc
 50
73.5548881078
 51
74.0585807942
  0
ARC
  5
2FB
100
AcDbEntity
  8
0
100
AcDbCircle
 62
7
  6
CONTINUOUS
 10
14.8863229212
 20
8.1680585934
 40
1.0065324976
100
AcDbArc
 50
73.5443088334
 51
74.0424461778
  0
ARC
  5
2FC
100
AcDbEntity
  8
0
100
AcDbCircle
 62
7
  6
CONTINUOUS
 10
14.8789438488
 20
8.1706087394
 40
1.0048945015
100
AcDbArc
 50
74.0587779676
 51
74.36581224
  0
ARC
  5
2FD
100
AcDbEntity
  8
0
100
AcDbCircle
 62
7
  6
CONTINUOUS
 10
14.8870859856
 20
8.171097999
 40
1.0043860074
100
AcDbArc
 50
74.0585891168
 51
74.55731314
  0
ARC
  5
2FE
100
AcDbEntity
  8
0
100
AcDbCircle
 62
7
  6
CONTINUOUS
 10
14.8870677801
 20
8.170663184
 40
1.0038234928
100
AcDbArc
 50
74.0424512479
 51
74.5414848677
  0
ARC
  5
2FF
100
AcDbEntity
  8
0
100
AcDbCircle
 62
7
  6
CONTINUOUS
 10
14.8876144633
 20
8.1730055457
 40
1.0024066083
100
AcDbArc
 50
74.5573970197
 51
74.8091996059
  0
ARC
  5
300
100
AcDbEntity
  8
0
100
AcDbCircle
 62
7
  6
CONTINUOUS
 10
14.8876122356
 20
8.1726267345
 40
1.0017858569
100
AcDbArc
 50
74.5415645479
 51
74.8146910237
  0
ARC
  5
301
100
AcDbEntity
  8
0
100
AcDbCircle
 62
7
  6
CONTINUOUS
 10
14.8797758716
 20
8.1736078929
 40
1.0017820703
100
AcDbArc
 50
74.5574430339
 51
75.0510195275
  0
ARC
  5
302
100
AcDbEntity
  8
0
100
AcDbCircle
 62
7
  6
CONTINUOUS
 10
14.887975345
 20
8.1743355852
 40
1.0010284786
100
AcDbArc
 50
74.846729513
 51
75.0511071255
  0
ARC
  5
303
100
AcDbEntity
  8
0
100
AcDbCircle
 62
7
  6
CONTINUOUS
 10
14.8771033596
 20
8.1786705608
 40
0.9965073653
100
AcDbArc
 50
75.7172389777
 51
75.9971256867
  0
ARC
  5
304
100
AcDbEntity
  8
0
100
AcDbCircle
 62
7
  6
CONTINUOUS
 10
14.8573860153
 20
8.5298181468
 40
0.6442929116
100
AcDbArc
 50
91.8993004693
 51
92.0919722308
  0
ARC
  5
305
100
AcDbEntity
  8
0
100
AcDbCircle
 62
7
  6
CONTINUOUS
 10
14.8502620664
 20
9.6890913763
 40
0.5177354842
100
AcDbArc
 50
268.0816934617
 51
268.7790251343
  0
ARC
  5
306
100
AcDbEntity
  8
0
100
AcDbCircle
 62
7
  6
CONTINUOUS
 10
14.8522202272
 20
8.6717870805
 40
0.5022300277
100
AcDbArc
 50
92.094259017
 51
92.368196278
  0
ARC
  5
307
100
AcDbEntity
  8
0
100
AcDbCircle
 62
7
  6
CONTINUOUS
 10
14.8906152746
 20
9.5418589243
 40
0.4026591584
100
AcDbArc
 50
270.0002739787
 51
270.3802271946
  0
ARC
  5
308
100
AcDbEntity
  8
0
100
AcDbCircle
 62
7
  6
CONTINUOUS
 10
14.8904832206
 20
9.5327192739
 40
0.3935195308
100
AcDbArc
 50
266.8988547351
 51
270.0195071781
  0
ARC
  5
309
100
AcDbEntity
  8
0
100
AcDbCircle
 62
7
  6
CONTINUOUS
 10
14.8469747022
 20
8.8024851099
 40
0.3704278577
100
AcDbArc
 50
92.0274202841
 51
92.8660185138
  0
ARC
  5
30A
100
AcDbEntity
  8
0
100
AcDbCircle
 62
7
  6
CONTINUOUS
 10
14.8585581464
 20
9.5168938671
 40
0.3481162454
100
AcDbArc
 50
269.6925072115
 51
270.9723562143
  0
ARC
  5
30B
100
AcDbEntity
  8
0
100
AcDbCircle
 62
7
  6
CONTINUOUS
 10
14.8882732133
 20
9.4862484243
 40
0.3469973109
100
AcDbArc
 50
266.5889696507
 51
266.8481228078
  0
ARC
  5
30C
100
AcDbEntity
  8
0
100
AcDbCircle
 62
7
  6
CONTINUOUS
 10
14.8586028096
 20
9.5077521781
 40
0.3399787702
100
AcDbArc
 50
269.6750499387
 51
270.9881040054
  0
ARC
  5
30D
100
AcDbEntity
  8
0
100
AcDbCircle
 62
7
  6
CONTINUOUS
 10
14.8427504574
 20
9.4740029932
 40
0.3025163515
100
AcDbArc
 50
267.1548072354
 51
268.1399181711
  0
ARC
  5
30E
100
AcDbEntity
  8
0
100
AcDbCircle
 62
7
  6
CONTINUOUS
 10
14.8676745792
 20
8.9706026303
 40
0.1953844474
100
AcDbArc
 50
90.9410403301
 51
93.2032792344
  0
ARC
  5
30F
100
AcDbEntity
  8
0
100
AcDbCircle
 62
7
  6
CONTINUOUS
 10
14.8509793632
 20
9.2780834938
 40
0.1175391537
100
AcDbArc
 50
268.8321386534
 51
271.4158952957
  0
ARC
  5
310
100
AcDbEntity
  8
0
100
AcDbCircle
 62
7
  6
CONTINUOUS
 10
14.5167390555
 20
14.7396877419
 40
6.0771018739
100
AcDbArc
 50
265.1360295015
 51
266.5994412313
  0
ARC
  5
311
100
AcDbEntity
  8
0
100
AcDbCircle
 62
7
  6
CONTINUOUS
 10
14.5057189284
 20
14.6204469246
 40
5.9573473198
100
AcDbArc
 50
257.362614487
 51
265.1443658268
  0
ARC
  5
312
100
AcDbEntity
  8
0
100
AcDbCircle
 62
7
  6
CONTINUOUS
 10
14.4985620122
 20
14.5831267564
 40
5.9193665757
100
AcDbArc
 50
254.9997887914
 51
257.3511818716
  0
ARC
  5
313
100
AcDbEntity
  8
0
100
AcDbCircle
 62
7
  6
CONTINUOUS
 10
14.8791600255
 20
12.4360053242
 40
3.2648362843
100
AcDbArc
 50
269.5849145978
 51
269.9705445748
  0
ARC
  5
314
100
AcDbEntity
  8
0
100
AcDbCircle
 62
7
  6
CONTINUOUS
 10
14.0601158336
 20
11.2596352151
 40
2.1785977773
100
AcDbArc
 50
282.7476640231
 51
282.8691191792
  0
ARC
  5
315
100
AcDbEntity
  8
0
100
AcDbCircle
 62
7
  6
CONTINUOUS
 10
14.8661826355
 20
10.6449479274
 40
1.4737318732
100
AcDbArc
 50
269.2426092621
 51
269.5849789825
  0
ARC
  5
316
100
AcDbEntity
  8
0
100
AcDbCircle
 62
7
  6
CONTINUOUS
 10
14.1201469964
 20
10.6964407963
 40
1.1896659529
100
AcDbArc
 50
274.4700965322
 51
275.2623696561
  0
ARC
  5
317
100
AcDbEntity
  8
0
100
AcDbCircle
 62
7
  6
CONTINUOUS
 10
14.8583530977
 20
10.0682589825
 40
0.8969898415
100
AcDbArc
 50
268.8595149219
 51
269.2557578346
  0
ARC
  5
318
100
AcDbEntity
  8
0
100
AcDbCircle
 62
7
  6
CONTINUOUS
 10
13.5176983401
 20
10.0885185721
 40
0.4200000088
100
AcDbArc
 50
285.4292797993
 51
349.4640339144
  0
ARC
  5
319
100
AcDbEntity
  8
0
100
AcDbCircle
 62
7
  6
CONTINUOUS
 10
13.5276488361
 20
9.8564344125
 40
0.1997575211
100
AcDbArc
 50
266.1027156701
 51
298.8470501667
  0
ARC
  5
31A
100
AcDbEntity
  8
0
100
AcDbCircle
 62
7
  6
CONTINUOUS
 10
14.5031172
 20
10.9697204498
 40
0.075
100
AcDbArc
 50
270.0
 51
360.0
  0
ARC
  5
31B
100
AcDbEntity
  8
0
100
AcDbCircle
 62
7
  6
CONTINUOUS
 10
13.9806172
 20
10.0367204498
 40
0.025
100
AcDbArc
 50
270.0
 51
360.0
  0
ARC
  5
31C
100
AcDbEntity
  8
0
100
AcDbCircle
 62
7
  6
CONTINUOUS
 10
14.3656172
 20
10.1347204498
 40
0.025
100
AcDbArc
 50
270.0
 51
360.0
  0
ARC
  5
31D
100
AcDbEntity
  8
0
100
AcDbCircle
 62
7
  6
CONTINUOUS
 10
14.8918757353
 20
4.8670792307
 40
4.3048254366
100
AcDbArc
 50
90.0167506818
 51
90.15041835
  0
ARC
  5
31E
100
AcDbEntity
  8
0
100
AcDbCircle
 62
7
  6
CONTINUOUS
 10
14.8909907795
 20
5.4620922903
 40
3.7108133843
100
AcDbArc
 50
90.0057681501
 51
90.162965272
  0
ARC
  5
31F
100
AcDbEntity
  8
0
100
AcDbCircle
 62
7
  6
CONTINUOUS
 10
14.8906183305
 20
7.6240403791
 40
1.5506801074
100
AcDbArc
 50
99.9517751681
 51
100.5044159677
  0
ARC
  5
320
100
AcDbEntity
  8
0
100
AcDbCircle
 62
7
  6
CONTINUOUS
 10
14.8906172
 20
7.6240504344
 40
1.5506600807
100
AcDbArc
 50
103.0825826317
 51
103.4242261359
  0
ARC
  5
321
100
AcDbEntity
  8
0
100
AcDbCircle
 62
7
  6
CONTINUOUS
 10
14.8906579679
 20
7.6242786514
 40
1.5504381857
100
AcDbArc
 50
79.4340139718
 51
79.8366187814
  0
ARC
  5
322
100
AcDbEntity
  8
0
100
AcDbCircle
 62
7
  6
CONTINUOUS
 10
14.8906172
 20
7.6240504344
 40
1.5503398004
100
AcDbArc
 50
103.0853333108
 51
103.4270513111
  0
ARC
  5
323
100
AcDbEntity
  8
0
100
AcDbCircle
 62
7
  6
CONTINUOUS
 10
14.8906173118
 20
7.6240471738
 40
1.5496732779
100
AcDbArc
 50
91.8483567453
 51
92.0985861333
  0
ARC
  5
324
100
AcDbEntity
  8
0
100
AcDbCircle
 62
7
  6
CONTINUOUS
 10
14.8907219839
 20
7.6268137653
 40
1.5479058194
100
AcDbArc
 50
77.9957041383
 51
78.3367207169
  0
ARC
  5
325
100
AcDbEntity
  8
0
100
AcDbCircle
 62
7
  6
CONTINUOUS
 10
14.891329398
 20
7.6267982979
 40
1.5478313432
100
AcDbArc
 50
77.4680856331
 51
78.0834303981
  0
ARC
  5
326
100
AcDbEntity
  8
0
100
AcDbCircle
 62
7
  6
CONTINUOUS
 10
14.8913362316
 20
7.626830931
 40
1.5477980023
100
AcDbArc
 50
78.1382470437
 51
78.3360320328
  0
ARC
  5
327
100
AcDbEntity
  8
0
100
AcDbCircle
 62
7
  6
CONTINUOUS
 10
14.8920023566
 20
7.6279832316
 40
1.5465305637
100
AcDbArc
 50
102.8024069789
 51
103.1834635736
  0
ARC
  5
328
100
AcDbEntity
  8
0
100
AcDbCircle
 62
7
  6
CONTINUOUS
 10
14.8906172
 20
7.6240504344
 40
1.5463998502
100
AcDbArc
 50
87.4055380835
 51
87.9617609054
  0
ARC
  5
329
100
AcDbEntity
  8
0
100
AcDbCircle
 62
7
  6
CONTINUOUS
 10
14.8906172
 20
7.6240504344
 40
1.5463998502
100
AcDbArc
 50
91.8528767756
 51
92.5944619165
  0
ARC
  5
32A
100
AcDbEntity
  8
0
100
AcDbCircle
 62
7
  6
CONTINUOUS
 10
14.89201021
 20
7.6279466845
 40
1.5455678741
100
AcDbArc
 50
103.0022234723
 51
103.1921239243
  0
ARC
  5
32B
100
AcDbEntity
  8
0
100
AcDbCircle
 62
7
  6
CONTINUOUS
 10
14.8906172
 20
7.6240504344
 40
1.5453970871
100
AcDbArc
 50
91.8540794731
 51
92.59614654
  0
ARC
  5
32C
100
AcDbEntity
  8
0
100
AcDbCircle
 62
7
  6
CONTINUOUS
 10
14.8906172
 20
7.6240504344
 40
1.5453970871
100
AcDbArc
 50
87.40385346
 51
87.9604377927
  0
ARC
  5
32D
100
AcDbEntity
  8
0
100
AcDbCircle
 62
7
  6
CONTINUOUS
 10
14.8906172
 20
7.6240504344
 40
1.5449987854
100
AcDbArc
 50
88.8446776828
 51
90.9698669634
  0
ARC
  5
32E
100
AcDbEntity
  8
0
100
AcDbCircle
 62
7
  6
CONTINUOUS
 10
14.8947263107
 20
7.6280333285
 40
1.5447350835
100
AcDbArc
 50
101.3594458337
 51
101.7386110078
  0
ARC
  5
32F
100
AcDbEntity
  8
0
100
AcDbCircle
 62
7
  6
CONTINUOUS
 10
14.8906172
 20
7.6240504344
 40
1.5439951123
100
AcDbArc
 50
88.8439265644
 51
90.9704974851
  0
ARC
  5
330
100
AcDbEntity
  8
0
100
AcDbCircle
 62
7
  6
CONTINUOUS
 10
14.8906172
 20
7.6240504344
 40
1.5421320459
100
AcDbArc
 50
88.8425297096
 51
90.971670066
  0
ARC
  5
331
100
AcDbEntity
  8
0
100
AcDbCircle
 62
7
  6
CONTINUOUS
 10
14.8906172
 20
7.6240504344
 40
1.5401874876
100
AcDbArc
 50
91.8603529961
 51
92.6049339082
  0
ARC
  5
332
100
AcDbEntity
  8
0
100
AcDbCircle
 62
7
  6
CONTINUOUS
 10
14.8906172
 20
7.6240504344
 40
1.5401874876
100
AcDbArc
 50
87.3950660918
 51
87.9535361554
  0
ARC
  5
333
100
AcDbEntity
  8
0
100
AcDbCircle
 62
7
  6
CONTINUOUS
 10
14.8906172
 20
7.6240504344
 40
1.5389858664
100
AcDbArc
 50
91.861806048
 51
92.6069692127
  0
ARC
  5
334
100
AcDbEntity
  8
0
100
AcDbCircle
 62
7
  6
CONTINUOUS
 10
14.8906172
 20
7.6240504344
 40
1.5389858664
100
AcDbArc
 50
87.3930307873
 51
87.9519376211
  0
ARC
  5
335
100
AcDbEntity
  8
0
100
AcDbCircle
 62
7
  6
CONTINUOUS
 10
14.8906172
 20
7.6240504344
 40
1.5379782693
100
AcDbArc
 50
91.8630262288
 51
92.6086783334
  0
ARC
  5
336
100
AcDbEntity
  8
0
100
AcDbCircle
 62
7
  6
CONTINUOUS
 10
14.8906172
 20
7.6240504344
 40
1.5379782693
100
AcDbArc
 50
87.3913216666
 51
87.9505952732
  0
ARC
  5
337
100
AcDbEntity
  8
0
100
AcDbCircle
 62
7
  6
CONTINUOUS
 10
14.8906172
 20
7.6240504344
 40
1.5379770794
100
AcDbArc
 50
88.4450698023
 51
91.3685995387
  0
ARC
  5
338
100
AcDbEntity
  8
0
100
AcDbCircle
 62
7
  6
CONTINUOUS
 10
14.8906172
 20
7.6240504344
 40
1.536968821
100
AcDbArc
 50
88.4440495104
 51
91.3694975171
  0
ARC
  5
339
100
AcDbEntity
  8
0
100
AcDbCircle
 62
7
  6
CONTINUOUS
 10
14.8906172
 20
7.6240504344
 40
1.5327597649
100
AcDbArc
 50
88.1306285786
 51
91.6823775468
  0
ARC
  5
33A
100
AcDbEntity
  8
0
100
AcDbCircle
 62
7
  6
CONTINUOUS
 10
14.8906190751
 20
7.6731595076
 40
1.5015528811
100
AcDbArc
 50
89.881943463
 51
90.0000715466
  0
ARC
  5
33B
100
AcDbEntity
  8
0
100
AcDbCircle
 62
7
  6
CONTINUOUS
 10
14.8906887817
 20
7.700534663
 40
1.4741776403
100
AcDbArc
 50
89.4967870556
 51
89.8824604116
  0
ARC
  5
33C
100
AcDbEntity
  8
0
100
AcDbCircle
 62
7
  6
CONTINUOUS
 10
14.8990791587
 20
7.7329305155
 40
1.4417052153
100
AcDbArc
 50
103.4793047602
 51
103.6770486064
  0
ARC
  5
33D
100
AcDbEntity
  8
0
100
AcDbCircle
 62
7
  6
CONTINUOUS
 10
14.8990203251
 20
7.733176048
 40
1.4414527326
100
AcDbArc
 50
103.2829283176
 51
103.4793055245
  0
ARC
  5
33E
100
AcDbEntity
  8
0
100
AcDbCircle
 62
7
  6
CONTINUOUS
 10
14.8989620844
 20
7.7334226429
 40
1.4411993533
100
AcDbArc
 50
103.0879166522
 51
103.2829273242
  0
ARC
  5
33F
100
AcDbEntity
  8
0
100
AcDbCircle
 62
7
  6
CONTINUOUS
 10
14.8990208083
 20
7.7330998874
 40
1.4405288383
100
AcDbArc
 50
103.2930138778
 51
103.4895242923
  0
ARC
  5
340
100
AcDbEntity
  8
0
100
AcDbCircle
 62
7
  6
CONTINUOUS
 10
14.9130752202
 20
7.7346135781
 40
1.4382315261
100
AcDbArc
 50
101.9845252135
 51
102.1815522029
  0
ARC
  5
341
100
AcDbEntity
  8
0
100
AcDbCircle
 62
7
  6
CONTINUOUS
 10
14.9130272135
 20
7.7348399586
 40
1.4380001113
100
AcDbArc
 50
101.7888261109
 51
101.9845270841
  0
ARC
  5
342
100
AcDbEntity
  8
0
100
AcDbCircle
 62
7
  6
CONTINUOUS
 10
14.9129801482
 20
7.7350651784
 40
1.4377700264
100
AcDbArc
 50
101.6214326582
 51
101.788823759
  0
ARC
  5
343
100
AcDbEntity
  8
0
100
AcDbCircle
 62
7
  6
CONTINUOUS
 10
14.8975632767
 20
7.8987520505
 40
1.2761539435
100
AcDbArc
 50
75.1678554813
 51
75.4181771987
  0
ARC
  5
344
100
AcDbEntity
  8
0
100
AcDbCircle
 62
7
  6
CONTINUOUS
 10
14.8956968747
 20
7.9008939344
 40
1.2740223482
100
AcDbArc
 50
75.8160685698
 51
76.1799147076
  0
ARC
  5
345
100
AcDbEntity
  8
0
100
AcDbCircle
 62
7
  6
CONTINUOUS
 10
14.895690675
 20
7.9006815499
 40
1.2732354845
100
AcDbArc
 50
75.806831338
 51
76.1669323492
  0
ARC
  5
346
100
AcDbEntity
  8
0
100
AcDbCircle
 62
7
  6
CONTINUOUS
 10
14.8959568918
 20
7.9019506468
 40
1.2729341158
100
AcDbArc
 50
76.1799178022
 51
76.5399871938
  0
ARC
  5
347
100
AcDbEntity
  8
0
100
AcDbCircle
 62
7
  6
CONTINUOUS
 10
14.8959500634
 20
7.9017348366
 40
1.2721507287
100
AcDbArc
 50
76.1669337353
 51
76.5272396441
  0
ARC
  5
348
100
AcDbEntity
  8
0
100
AcDbCircle
 62
7
  6
CONTINUOUS
 10
14.8962457929
 20
7.9031614836
 40
1.2716892892
100
AcDbArc
 50
76.6720429189
 51
76.8962838271
  0
ARC
  5
349
100
AcDbEntity
  8
0
100
AcDbCircle
 62
7
  6
CONTINUOUS
 10
14.8962446712
 20
7.9029686543
 40
1.270882224
100
AcDbArc
 50
76.673959692
 51
76.8877621454
  0
ARC
  5
34A
100
AcDbEntity
  8
0
100
AcDbCircle
 62
7
  6
CONTINUOUS
 10
14.9408625659
 20
7.7128394615
 40
1.4480715649
100
AcDbArc
 50
80.5444119605
 51
80.8296713696
  0
ARC
  5
34B
100
AcDbEntity
  8
0
100
AcDbCircle
 62
7
  6
CONTINUOUS
 10
14.940904192
 20
7.7130981101
 40
1.4478095882
100
AcDbArc
 50
80.8296663525
 51
81.2336317245
  0
ARC
  5
34C
100
AcDbEntity
  8
0
100
AcDbCircle
 62
7
  6
CONTINUOUS
 10
14.9409453507
 20
7.7133640655
 40
1.4475404669
100
AcDbArc
 50
81.233637454
 51
81.6003675726
  0
ARC
  5
34D
100
AcDbEntity
  8
0
100
AcDbCircle
 62
7
  6
CONTINUOUS
 10
14.9409040093
 20
7.7130366808
 40
1.4468620246
100
AcDbArc
 50
80.8235780421
 51
81.2278141913
  0
ARC
  5
34E
100
AcDbEntity
  8
0
100
AcDbCircle
 62
7
  6
CONTINUOUS
 10
14.9409442247
 20
7.7132969137
 40
1.4465987026
100
AcDbArc
 50
81.2278164852
 51
81.6008228081
  0
ARC
  5
34F
100
AcDbEntity
  8
0
100
AcDbCircle
 62
7
  6
CONTINUOUS
 10
14.9130406074
 20
8.1860801035
 40
0.9882010783
100
AcDbArc
 50
88.235952908
 51
88.5838155351
  0
ARC
  5
350
100
AcDbEntity
  8
0
100
AcDbCircle
 62
7
  6
CONTINUOUS
 10
14.9230999319
 20
8.5093379472
 40
0.6647867812
100
AcDbArc
 50
87.9072283837
 51
88.2448756411
  0
ARC
  5
351
100
AcDbEntity
  8
0
100
AcDbCircle
 62
7
  6
CONTINUOUS
 10
14.9277672383
 20
8.6376750298
 40
0.535364858
100
AcDbArc
 50
87.7804203637
 51
87.9028477999
  0
ARC
  5
352
100
AcDbEntity
  8
0
100
AcDbCircle
 62
7
  6
CONTINUOUS
 10
14.9975793388
 20
8.6647949519
 40
0.5056537694
100
AcDbArc
 50
67.6163103326
 51
67.9909024728
  0
ARC
  5
353
100
AcDbEntity
  8
0
100
AcDbCircle
 62
7
  6
CONTINUOUS
 10
15.0160862194
 20
7.9558824254
 40
1.1955596114
100
AcDbArc
 50
82.6066913646
 51
83.2400962007
  0
ARC
  5
354
100
AcDbEntity
  8
0
100
AcDbCircle
 62
7
  6
CONTINUOUS
 10
15.036842586
 20
8.3321128272
 40
0.8276628494
100
AcDbArc
 50
78.3300654466
 51
78.5988084632
  0
ARC
  5
355
100
AcDbEntity
  8
0
100
AcDbCircle
 62
7
  6
CONTINUOUS
 10
15.0554640612
 20
8.4415349509
 40
0.7152219494
100
AcDbArc
 50
77.3300929929
 51
77.4662716557
  0
ARC
  5
356
100
AcDbEntity
  8
0
100
AcDbCircle
 62
7
  6
CONTINUOUS
 10
15.0769803426
 20
8.5364707508
 40
0.6178786233
100
AcDbArc
 50
77.0176723537
 51
77.3458317847
  0
ARC
  5
357
100
AcDbEntity
  8
0
100
AcDbCircle
 62
7
  6
CONTINUOUS
 10
15.0823741881
 20
8.5628755667
 40
0.5909331927
100
AcDbArc
 50
77.4600826477
 51
77.7728739791
  0
ARC
  5
358
100
AcDbEntity
  8
0
100
AcDbCircle
 62
7
  6
CONTINUOUS
 10
15.090049533
 20
8.5924815207
 40
0.5618806242
100
AcDbArc
 50
78.335993811
 51
78.5101415713
  0
ARC
  5
359
100
AcDbEntity
  8
0
100
AcDbCircle
 62
7
  6
CONTINUOUS
 10
15.099005461
 20
8.6194465366
 40
0.5326450687
100
AcDbArc
 50
76.6961594002
 51
77.3474241001
  0
ARC
  5
35A
100
AcDbEntity
  8
0
100
AcDbCircle
 62
7
  6
CONTINUOUS
 10
15.1029370066
 20
8.6491986985
 40
0.5022008926
100
AcDbArc
 50
76.8721523883
 51
77.0141133804
  0
ARC
  5
35B
100
AcDbEntity
  8
0
100
AcDbCircle
 62
7
  6
CONTINUOUS
 10
15.1106523371
 20
8.6940182512
 40
0.4567764453
100
AcDbArc
 50
77.755601102
 51
78.3099613174
  0
ARC
  5
35C
100
AcDbEntity
  8
0
100
AcDbCircle
 62
7
  6
CONTINUOUS
 10
14.9300565915
 20
9.722613839
 40
0.5512698605
100
AcDbArc
 50
271.2505631396
 51
271.9058480636
  0
ARC
  5
35D
100
AcDbEntity
  8
0
100
AcDbCircle
 62
7
  6
CONTINUOUS
 10
14.8939234139
 20
9.6943581743
 40
0.5503509115
100
AcDbArc
 50
269.035789053
 51
270.7968090276
  0
ARC
  5
35E
100
AcDbEntity
  8
0
100
AcDbCircle
 62
7
  6
CONTINUOUS
 10
14.8940866852
 20
9.6755994256
 40
0.5305747273
100
AcDbArc
 50
269.8953070362
 51
272.5958986876
  0
ARC
  5
35F
100
AcDbEntity
  8
0
100
AcDbCircle
 62
7
  6
CONTINUOUS
 10
14.893393615
 20
9.6586394013
 40
0.5146282858
100
AcDbArc
 50
267.1847353731
 51
269.0278457199
  0
ARC
  5
360
100
AcDbEntity
  8
0
100
AcDbCircle
 62
7
  6
CONTINUOUS
 10
14.8934323131
 20
9.6591205104
 40
0.5140928307
100
AcDbArc
 50
267.1774826137
 51
269.6862535443
  0
ARC
  5
361
100
AcDbEntity
  8
0
100
AcDbCircle
 62
7
  6
CONTINUOUS
 10
14.8949587808
 20
9.647369795
 40
0.5033528224
100
AcDbArc
 50
270.7533467502
 51
272.6370136167
  0
ARC
  5
362
100
AcDbEntity
  8
0
100
AcDbCircle
 62
7
  6
CONTINUOUS
 10
14.8907294979
 20
9.5338525947
 40
0.3946522518
100
AcDbArc
 50
270.3713581969
 51
273.1110635621
  0
ARC
  5
363
100
AcDbEntity
  8
0
100
AcDbCircle
 62
7
  6
CONTINUOUS
 10
14.9288046533
 20
9.5156186088
 40
0.3479586065
100
AcDbArc
 50
268.841365743
 51
270.1216830077
  0
ARC
  5
364
100
AcDbEntity
  8
0
100
AcDbCircle
 62
7
  6
CONTINUOUS
 10
14.9287311263
 20
9.5086517669
 40
0.3399880137
100
AcDbArc
 50
268.8265927923
 51
270.1439247242
  0
ARC
  5
365
100
AcDbEntity
  8
0
100
AcDbCircle
 62
7
  6
CONTINUOUS
 10
14.8935666698
 20
9.4758031093
 40
0.336534491
100
AcDbArc
 50
273.1651100835
 51
274.3141764017
  0
ARC
  5
366
100
AcDbEntity
  8
0
100
AcDbCircle
 62
7
  6
CONTINUOUS
 10
14.8906970569
 20
8.8349132414
 40
0.3127086099
100
AcDbArc
 50
242.5089879066
 51
252.4910120934
  0
ARC
  5
367
100
AcDbEntity
  8
0
100
AcDbCircle
 62
7
  6
CONTINUOUS
 10
14.8908099916
 20
8.8348003067
 40
0.3127086099
100
AcDbArc
 50
197.5089879062
 51
207.4910120932
  0
ARC
  5
368
100
AcDbEntity
  8
0
100
AcDbCircle
 62
7
  6
CONTINUOUS
 10
14.8908099916
 20
8.834640593
 40
0.3127086099
100
AcDbArc
 50
152.5089879063
 51
162.491012093
  0
ARC
  5
369
100
AcDbEntity
  8
0
100
AcDbCircle
 62
7
  6
CONTINUOUS
 10
14.8906172
 20
8.8347204498
 40
0.3124999999
100
AcDbArc
 50
62.5056593048
 51
72.4943406952
  0
ARC
  5
36A
100
AcDbEntity
  8
0
100
AcDbCircle
 62
7
  6
CONTINUOUS
 10
14.8906172
 20
8.8347204498
 40
0.3124999999
100
AcDbArc
 50
17.5056593048
 51
27.4943406952
  0
ARC
  5
36B
100
AcDbEntity
  8
0
100
AcDbCircle
 62
7
  6
CONTINUOUS
 10
14.8906172
 20
8.8347204498
 40
0.3124999999
100
AcDbArc
 50
332.5056593048
 51
342.4943406952
  0
ARC
  5
36C
100
AcDbEntity
  8
0
100
AcDbCircle
 62
7
  6
CONTINUOUS
 10
14.8906172
 20
8.8347204498
 40
0.3124999999
100
AcDbArc
 50
287.5056593048
 51
297.4943406952
  0
ARC
  5
36D
100
AcDbEntity
  8
0
100
AcDbCircle
 62
7
  6
CONTINUOUS
 10
14.8906172
 20
8.8347204498
 40
0.3124999999
100
AcDbArc
 50
107.5056593048
 51
117.4943406952
  0
ARC
  5
36E
100
AcDbEntity
  8
0
100
AcDbCircle
 62
7
  6
CONTINUOUS
 10
15.0501895705
 20
9.0669566404
 40
0.1192017965
100
AcDbArc
 50
34.3494761062
 51
34.7625711483
  0
ARC
  5
36F
100
AcDbEntity
  8
0
100
AcDbCircle
 62
7
  6
CONTINUOUS
 10
14.9356367646
 20
9.2789944278
 40
0.1175791721
100
AcDbArc
 50
268.3985080344
 51
270.9847803398
  0
ARC
  5
370
100
AcDbEntity
  8
0
100
AcDbCircle
 62
7
  6
CONTINUOUS
 10
14.9270164887
 20
9.2300893507
 40
0.0882953474
100
AcDbArc
 50
282.9506799483
 51
283.9563578907
  0
ARC
  5
371
100
AcDbEntity
  8
0
100
AcDbCircle
 62
7
  6
CONTINUOUS
 10
15.1262315033
 20
8.5686302433
 40
0.5769905603
100
AcDbArc
 50
90.2642180218
 51
90.7947008635
  0
ARC
  5
372
100
AcDbEntity
  8
0
100
AcDbCircle
 62
7
  6
CONTINUOUS
 10
15.1262308399
 20
8.5690333925
 40
0.5765874844
100
AcDbArc
 50
89.2044963363
 51
90.2650418558
  0
ARC
  5
373
100
AcDbEntity
  8
0
100
AcDbCircle
 62
7
  6
CONTINUOUS
 10
15.1262324154
 20
8.5682470695
 40
0.5763546323
100
AcDbArc
 50
89.2043649804
 51
90.265218126
  0
ARC
  5
374
100
AcDbEntity
  8
0
100
AcDbCircle
 62
7
  6
CONTINUOUS
 10
15.1734593364
 20
8.5588624566
 40
0.573729936
100
AcDbArc
 50
88.3343513773
 51
88.7945399111
  0
ARC
  5
375
100
AcDbEntity
  8
0
100
AcDbCircle
 62
7
  6
CONTINUOUS
 10
15.1735171246
 20
8.5600510883
 40
0.5725403822
100
AcDbArc
 50
90.5533855654
 51
91.5601320067
  0
ARC
  5
376
100
AcDbEntity
  8
0
100
AcDbCircle
 62
7
  6
CONTINUOUS
 10
15.1682339334
 20
8.5610654406
 40
0.572078057
100
AcDbArc
 50
90.4625157753
 51
90.8444493321
  0
ARC
  5
377
100
AcDbEntity
  8
0
100
AcDbCircle
 62
7
  6
CONTINUOUS
 10
15.1682328436
 20
8.5610654408
 40
0.5720780568
100
AcDbArc
 50
89.1555506679
 51
89.5374842248
  0
ARC
  5
378
100
AcDbEntity
  8
0
100
AcDbCircle
 62
7
  6
CONTINUOUS
 10
15.1735286134
 20
8.5607724083
 40
0.5718192071
100
AcDbArc
 50
89.4447652664
 51
90.5552347336
  0
ARC
  5
379
100
AcDbEntity
  8
0
100
AcDbCircle
 62
7
  6
CONTINUOUS
 10
15.1735146674
 20
8.5614684087
 40
0.5711233966
100
AcDbArc
 50
88.7945896186
 51
89.1961832522
  0
ARC
  5
37A
100
AcDbEntity
  8
0
100
AcDbCircle
 62
7
  6
CONTINUOUS
 10
15.1318901682
 20
8.7577446358
 40
0.3904911904
100
AcDbArc
 50
75.9606580142
 51
76.7222375833
  0
ARC
  5
37B
100
AcDbEntity
  8
0
100
AcDbCircle
 62
7
  6
CONTINUOUS
 10
15.1385581702
 20
8.8008784431
 40
0.3463948314
100
AcDbArc
 50
76.2447825791
 51
76.9118528099
  0
ARC
  5
37C
100
AcDbEntity
  8
0
100
AcDbCircle
 62
7
  6
CONTINUOUS
 10
15.1649861167
 20
8.8021526222
 40
0.3410379005
100
AcDbArc
 50
76.5770851767
 51
76.817062438
  0
ARC
  5
37D
100
AcDbEntity
  8
0
100
AcDbCircle
 62
7
  6
CONTINUOUS
 10
15.134786406
 20
8.8112362626
 40
0.3370998103
100
AcDbArc
 50
78.2900945735
 51
78.9697270117
  0
ARC
  5
37E
100
AcDbEntity
  8
0
100
AcDbCircle
 62
7
  6
CONTINUOUS
 10
15.1867364681
 20
8.8377667247
 40
0.3015608907
100
AcDbArc
 50
89.5510845806
 51
89.8817241725
  0
ARC
  5
37F
100
AcDbEntity
  8
0
100
AcDbCircle
 62
7
  6
CONTINUOUS
 10
15.2074613697
 20
8.8388370534
 40
0.2952657646
100
AcDbArc
 50
89.5200233578
 51
90.1953977549
  0
ARC
  5
380
100
AcDbEntity
  8
0
100
AcDbCircle
 62
7
  6
CONTINUOUS
 10
15.2075237828
 20
8.8430786196
 40
0.2899969378
100
AcDbArc
 50
89.5236343059
 51
90.2112779973
  0
ARC
  5
381
100
AcDbEntity
  8
0
100
AcDbCircle
 62
7
  6
CONTINUOUS
 10
15.1866211328
 20
8.8530441498
 40
0.2862837739
100
AcDbArc
 50
89.8523296998
 51
90.548893103
  0
ARC
  5
382
100
AcDbEntity
  8
0
100
AcDbCircle
 62
7
  6
CONTINUOUS
 10
15.2075557807
 20
8.8535377794
 40
0.2805654833
100
AcDbArc
 50
90.2249160287
 51
90.5802997753
  0
ARC
  5
383
100
AcDbEntity
  8
0
100
AcDbCircle
 62
7
  6
CONTINUOUS
 10
15.1502160247
 20
8.8937354722
 40
0.2547112911
100
AcDbArc
 50
78.624893059
 51
78.9130896433
  0
ARC
  5
384
100
AcDbEntity
  8
0
100
AcDbCircle
 62
7
  6
CONTINUOUS
 10
15.1524776321
 20
8.9024947712
 40
0.244142389
100
AcDbArc
 50
78.9472277716
 51
79.777667044
  0
ARC
  5
385
100
AcDbEntity
  8
0
100
AcDbCircle
 62
7
  6
CONTINUOUS
 10
15.1647616985
 20
8.9710026092
 40
0.1745419901
100
AcDbArc
 50
79.7550504782
 51
80.7505735255
  0
ARC
  5
386
100
AcDbEntity
  8
0
100
AcDbCircle
 62
7
  6
CONTINUOUS
 10
15.1627665779
 20
8.9853709764
 40
0.160229468
100
AcDbArc
 50
81.2487300291
 51
81.8747261364
  0
ARC
  5
387
100
AcDbEntity
  8
0
100
AcDbCircle
 62
7
  6
CONTINUOUS
 10
15.1653678424
 20
9.0042837118
 40
0.1421482212
100
AcDbArc
 50
81.6660092614
 51
82.2391110802
  0
ARC
  5
388
100
AcDbEntity
  8
0
100
AcDbCircle
 62
7
  6
CONTINUOUS
 10
15.2140570972
 20
9.2582343977
 40
0.1255608794
100
AcDbArc
 50
255.416336574
 51
255.9225271646
  0
ARC
  5
389
100
AcDbEntity
  8
0
100
AcDbCircle
 62
7
  6
CONTINUOUS
 10
15.237911382
 20
9.255145802
 40
0.1227986585
100
AcDbArc
 50
255.8431234118
 51
256.7361530877
  0
ARC
  5
38A
100
AcDbEntity
  8
0
100
AcDbCircle
 62
7
  6
CONTINUOUS
 10
15.1523248142
 20
9.0263524831
 40
0.1185071402
100
AcDbArc
 50
78.0422546341
 51
80.7393369727
  0
ARC
  5
38B
100
AcDbEntity
  8
0
100
AcDbCircle
 62
7
  6
CONTINUOUS
 10
15.2173161955
 20
9.2501726505
 40
0.1169465679
100
AcDbArc
 50
256.9738906108
 51
258.325907787
  0
ARC
  5
38C
100
AcDbEntity
  8
0
100
AcDbCircle
 62
7
  6
CONTINUOUS
 10
15.2164850136
 20
9.2457153335
 40
0.1124133024
100
AcDbArc
 50
258.2810933336
 51
260.607340575
  0
ARC
  5
38D
100
AcDbEntity
  8
0
100
AcDbCircle
 62
7
  6
CONTINUOUS
 10
15.1697399119
 20
9.0361727303
 40
0.1099609002
100
AcDbArc
 50
82.2525301525
 51
82.8265616717
  0
ARC
  5
38E
100
AcDbEntity
  8
0
100
AcDbCircle
 62
7
  6
CONTINUOUS
 10
15.2092033017
 20
9.2465747982
 40
0.1086903821
100
AcDbArc
 50
256.4656015146
 51
256.8933332437
  0
ARC
  5
38F
100
AcDbEntity
  8
0
100
AcDbCircle
 62
7
  6
CONTINUOUS
 10
15.1544351857
 20
9.0363562899
 40
0.1082831612
100
AcDbArc
 50
77.3731228899
 51
78.0379615056
  0
ARC
  5
390
100
AcDbEntity
  8
0
100
AcDbCircle
 62
7
  6
CONTINUOUS
 10
15.2137222328
 20
9.2345665083
 40
0.1009319513
100
AcDbArc
 50
255.9477526396
 51
256.9647703621
  0
ARC
  5
391
100
AcDbEntity
  8
0
100
AcDbCircle
 62
7
  6
CONTINUOUS
 10
15.1571363135
 20
9.0484789143
 40
0.0958632625
100
AcDbArc
 50
76.9039919574
 51
77.3646245785
  0
ARC
  5
392
100
AcDbEntity
  8
0
100
AcDbCircle
 62
7
  6
CONTINUOUS
 10
15.1618991385
 20
9.2254331519
 40
0.0915537678
100
AcDbArc
 50
261.3416627369
 51
263.6941245217
  0
ARC
  5
393
100
AcDbEntity
  8
0
100
AcDbCircle
 62
7
  6
CONTINUOUS
 10
15.1725295283
 20
9.0581427878
 40
0.0878144638
100
AcDbArc
 50
82.8424217117
 51
83.2643102304
  0
ARC
  5
394
100
AcDbEntity
  8
0
100
AcDbCircle
 62
7
  6
CONTINUOUS
 10
15.1657611772
 20
9.0944084032
 40
0.0501434298
100
AcDbArc
 50
87.5417282736
 51
88.8015369387
  0
ARC
  5
395
100
AcDbEntity
  8
0
100
AcDbCircle
 62
7
  6
CONTINUOUS
 10
15.2252107699
 20
9.3044477478
 40
0.1731006522
100
AcDbArc
 50
258.463833513
 51
260.7502085915
  0
ARC
  5
396
100
AcDbEntity
  8
0
100
AcDbCircle
 62
7
  6
CONTINUOUS
 10
15.2225641377
 20
9.292653215
 40
0.1610152649
100
AcDbArc
 50
255.9653207051
 51
258.5472497089
  0
ARC
  5
397
100
AcDbEntity
  8
0
100
AcDbCircle
 62
7
  6
CONTINUOUS
 10
15.2424141935
 20
9.2732609265
 40
0.1424623194
100
AcDbArc
 50
257.4951286298
 51
259.0660859382
  0
ARC
  5
398
100
AcDbEntity
  8
0
100
AcDbCircle
 62
7
  6
CONTINUOUS
 10
15.2421294408
 20
9.2731116862
 40
0.1412531421
100
AcDbArc
 50
257.0485585478
 51
257.5038844843
  0
ARC
  5
399
100
AcDbEntity
  8
0
100
AcDbCircle
 62
7
  6
CONTINUOUS
 10
15.2409134561
 20
9.2678193833
 40
0.1358229407
100
AcDbArc
 50
256.7301548303
 51
257.0480996669
  0
ARC
  5
39A
100
AcDbEntity
  8
0
100
AcDbCircle
 62
7
  6
CONTINUOUS
 10
15.2781172
 20
9.0945201029
 40
0.03
100
AcDbArc
 50
340.5699443119
 51
75.2369687317
  0
ARC
  5
39B
100
AcDbEntity
  8
0
100
AcDbCircle
 62
7
  6
CONTINUOUS
 10
15.2492702457
 20
9.1296619842
 40
0.0029303173
100
AcDbArc
 50
78.4183704394
 51
84.1200582844
  0
ARC
  5
39C
100
AcDbEntity
  8
0
100
AcDbCircle
 62
7
  6
CONTINUOUS
 10
15.34913641
 20
9.789307456
 40
0.6667599666
100
AcDbArc
 50
257.8354490457
 51
258.3118125979
  0
ARC
  5
39D
100
AcDbEntity
  8
0
100
AcDbCircle
 62
7
  6
CONTINUOUS
 10
15.3204046463
 20
9.6503120925
 40
0.5248260922
100
AcDbArc
 50
258.3093635586
 51
258.8975584919
  0
ARC
  5
39E
100
AcDbEntity
  8
0
100
AcDbCircle
 62
7
  6
CONTINUOUS
 10
15.3411259941
 20
9.6076050557
 40
0.4842300219
100
AcDbArc
 50
257.6983462521
 51
258.3459056708
  0
ARC
  5
39F
100
AcDbEntity
  8
0
100
AcDbCircle
 62
7
  6
CONTINUOUS
 10
15.2930284426
 20
9.5620925401
 40
0.432765478
100
AcDbArc
 50
256.1322980562
 51
256.8575782405
  0
ARC
  5
3A0
100
AcDbEntity
  8
0
100
AcDbCircle
 62
7
  6
CONTINUOUS
 10
15.2961675813
 20
9.5178593684
 40
0.3893778265
100
AcDbArc
 50
257.6907409556
 51
258.2474526143
  0
ARC
  5
3A1
100
AcDbEntity
  8
0
100
AcDbCircle
 62
7
  6
CONTINUOUS
 10
15.2894467493
 20
9.4930740337
 40
0.3645694728
100
AcDbArc
 50
258.9132977661
 51
259.6297590635
  0
ARC
  5
3A2
100
AcDbEntity
  8
0
100
AcDbCircle
 62
7
  6
CONTINUOUS
 10
15.2710870322
 20
9.397305308
 40
0.2662424725
100
AcDbArc
 50
258.2473844785
 51
258.9905414747
  0
ARC
  5
3A3
100
AcDbEntity
  8
0
100
AcDbCircle
 62
7
  6
CONTINUOUS
 10
15.2695072997
 20
9.3848762457
 40
0.2545498563
100
AcDbArc
 50
259.6606510899
 51
260.5646415653
  0
ARC
  5
3A4
100
AcDbEntity
  8
0
100
AcDbCircle
 62
7
  6
CONTINUOUS
 10
16.4866273943
 20
7.0988393494
 40
0.38
100
AcDbArc
 50
186.0997561522
 51
234.4364363155
  0
ARC
  5
3A5
100
AcDbEntity
  8
0
100
AcDbCircle
 62
7
  6
CONTINUOUS
 10
16.3971728928
 20
7.0744340232
 40
0.375
100
AcDbArc
 50
188.3059108051
 51
229.3969087652
  0
ARC
  5
3A6
100
AcDbEntity
  8
0
100
AcDbCircle
 62
7
  6
CONTINUOUS
 10
16.1531172
 20
6.7397204498
 40
0.05
100
AcDbArc
 50
270.0
 51
89.9999999995
  0
ARC
  5
3A7
100
AcDbEntity
  8
0
100
AcDbCircle
 62
7
  6
CONTINUOUS
 10
16.2656172
 20
6.7397204498
 40
0.05
100
AcDbArc
 50
270.0
 51
90.0
  0
ARC
  5
3A8
100
AcDbEntity
  8
0
100
AcDbCircle
 62
7
  6
CONTINUOUS
 10
16.2464884122
 20
7.9147204498
 40
0.7183712121
100
AcDbArc
 50
180.0
 51
244.7996803479
  0
ARC
  5
3A9
100
AcDbEntity
  8
0
100
AcDbCircle
 62
7
  6
CONTINUOUS
 10
16.4725356993
 20
7.8228139441
 40
0.42
100
AcDbArc
 50
137.3672424042
 51
183.0153535913
  0
ARC
  5
3AA
100
AcDbEntity
  8
0
100
AcDbCircle
 62
7
  6
CONTINUOUS
 10
16.1451447591
 20
8.1242109784
 40
0.025
100
AcDbArc
 50
317.3672424041
 51
360.0
  0
ARC
  5
3AB
100
AcDbEntity
  8
0
100
AcDbCircle
 62
7
  6
CONTINUOUS
 10
16.0281172
 20
7.7757204498
 40
0.025
100
AcDbArc
 50
90.0
 51
180.0
  0
ARC
  5
3AC
100
AcDbEntity
  8
0
100
AcDbCircle
 62
7
  6
CONTINUOUS
 10
16.1451429606
 20
9.6595553042
 40
0.0249999917
100
AcDbArc
 50
359.9999895733
 51
74.5674870586
  0
ARC
  5
3AD
100
AcDbEntity
  8
0
100
AcDbCircle
 62
7
  6
CONTINUOUS
 10
14.8969244775
 20
14.3441296901
 40
5.1729646664
100
AcDbArc
 50
270.0760455769
 51
270.205717915
  0
ARC
  5
3AE
100
AcDbEntity
  8
0
100
AcDbCircle
 62
7
  6
CONTINUOUS
 10
14.9223817912
 20
10.0943748447
 40
0.923109923
100
AcDbArc
 50
270.7584118164
 51
271.2232156156
  0
ARC
  5
3AF
100
AcDbEntity
  8
0
100
AcDbCircle
 62
7
  6
CONTINUOUS
 10
15.3886939695
 20
9.973096074
 40
0.8547574504
100
AcDbArc
 50
257.3276568335
 51
257.8393764537
  0
ARC
  5
3B0
100
AcDbEntity
  8
0
100
AcDbCircle
 62
7
  6
CONTINUOUS
 10
15.3971988861
 20
9.8645669224
 40
0.747238837
100
AcDbArc
 50
257.063773737
 51
257.2055982631
  0
ARC
  5
3B1
100
AcDbEntity
  8
0
100
AcDbCircle
 62
7
  6
CONTINUOUS
 10
15.3955788418
 20
9.8573576039
 40
0.7398497549
100
AcDbArc
 50
257.2043044644
 51
257.699070031
  0
ARC
  5
3B2
100
AcDbEntity
  8
0
100
AcDbCircle
 62
7
  6
CONTINUOUS
 10
15.3584393698
 20
9.8401385507
 40
0.718401673
100
AcDbArc
 50
256.8194799318
 51
257.355572491
  0
ARC
  5
3B3
100
AcDbEntity
  8
0
100
AcDbCircle
 62
7
  6
CONTINUOUS
 10
15.3508792263
 20
9.8072366908
 40
0.6837177953
100
AcDbArc
 50
256.9304486699
 51
257.2571389009
  0
ARC
  5
3B4
100
AcDbEntity
  8
0
100
AcDbCircle
 62
7
  6
CONTINUOUS
 10
16.2635360784
 20
10.0885186541
 40
0.4199999923
100
AcDbArc
 50
190.535976641
 51
254.5707079449
  0
ARC
  5
3B5
100
AcDbEntity
  8
0
100
AcDbCircle
 62
7
  6
CONTINUOUS
 10
15.2781172
 20
10.9697204498
 40
0.075
100
AcDbArc
 50
180.0
 51
270.0
  0
ARC
  5
3B6
100
AcDbEntity
  8
0
100
AcDbCircle
 62
7
  6
CONTINUOUS
 10
15.8006172
 20
10.0367204498
 40
0.025
100
AcDbArc
 50
180.0
 51
270.0
  0
ARC
  5
3B7
100
AcDbEntity
  8
0
100
AcDbCircle
 62
7
  6
CONTINUOUS
 10
15.4156172
 20
10.1347204498
 40
0.025
100
AcDbArc
 50
180.0
 51
270.0
  0
SPLINE
  5
3B8
100
AcDbEntity
  8
0
100
AcDbSpline
 62
7
  6
CONTINUOUS
 70
0
 71
3
 72
14
 73
10
 74
0
 42
0.0000001
 43
0.0000001
 44
0.0000000001
 40
0.0
 40
0.0
 40
0.0
 40
0.0
 40
0.0474429951
 40
0.1114298125
 40
0.2034621355
 40
0.3233919924
 40
0.4681678945
 40
0.6333851834
 40
1.0
 40
1.0
 40
1.0
 40
1.0
 10
14.5816520964
 20
9.1385400451
 30
0.0
 10
14.5816517821
 20
9.1385056878
 30
0.0
 10
14.581685017
 20
9.1384237626
 30
0.0
 10
14.5818165163
 20
9.1383464262
 30
0.0
 10
14.5820060159
 20
9.1382848381
 30
0.0
 10
14.5822603607
 20
9.1382348406
 30
0.0
 10
14.582569111
 20
9.1381951566
 30
0.0
 10
14.5830574444
 20
9.1381528225
 30
0.0
 10
14.5834420523
 20
9.1381320077
 30
0.0
 10
14.5837071383
 20
9.1381170719
 30
0.0
  0
SPLINE
  5
3B9
100
AcDbEntity
  8
0
100
AcDbSpline
 62
7
  6
CONTINUOUS
 70
0
 71
3
 72
15
 73
11
 74
0
 42
0.0000001
 43
0.0000001
 44
0.0000000001
 40
0.0
 40
0.0
 40
0.0
 40
0.0
 40
0.3637047875
 40
0.525471472
 40
0.6649496063
 40
0.780367543
 40
0.8725196261
 40
0.9105132406
 40
0.9436225297
 40
1.0
 40
1.0
 40
1.0
 40
1.0
 10
14.5837071383
 20
9.1381170719
 30
0.0
 10
14.5841581246
 20
9.1380916619
 30
0.0
 10
14.5848099614
 20
9.1380549693
 30
0.0
 10
14.5856311774
 20
9.1379655239
 30
0.0
 10
14.586141861
 20
9.137878455
 30
0.0
 10
14.58655879
 20
9.1377668965
 30
0.0
 10
14.586841971
 20
9.1376483898
 30
0.0
 10
14.587011382
 20
9.1375351677
 30
0.0
 10
14.5871269236
 20
9.1374270862
 30
0.0
 10
14.587176915
 20
9.1373159492
 30
0.0
 10
14.5871769748
 20
9.1372459315
 30
0.0
  0
SPLINE
  5
3BA
100
AcDbEntity
  8
0
100
AcDbSpline
 62
7
  6
CONTINUOUS
 70
0
 71
3
 72
11
 73
7
 74
0
 42
0.0000001
 43
0.0000001
 44
0.0000000001
 40
0.0
 40
0.0
 40
0.0
 40
0.0
 40
0.1481533793
 40
0.3550046681
 40
0.6369731977
 40
1.0
 40
1.0
 40
1.0
 40
1.0
 10
14.5696527579
 20
9.1348489769
 30
0.0
 10
14.5696528656
 20
9.1349014524
 30
0.0
 10
14.5697019867
 20
9.1350248758
 30
0.0
 10
14.5698570766
 20
9.1351903346
 30
0.0
 10
14.5700982456
 20
9.1353734008
 30
0.0
 10
14.5702945575
 20
9.1354907856
 30
0.0
 10
14.570406824
 20
9.1355534745
 30
0.0
  0
LINE
  5
3BB
100
AcDbEntity
  8
0
100
AcDbLine
 62
7
  6
CONTINUOUS
 10
14.570406824
 20
9.1355534745
 11
14.5721438936
 21
9.1363296908
  0
LINE
  5
3BC
100
AcDbEntity
  8
0
100
AcDbLine
 62
7
  6
CONTINUOUS
 10
14.5725251141
 20
9.136473361
 11
14.5737974298
 21
9.1369189195
  0
SPLINE
  5
3BD
100
AcDbEntity
  8
0
100
AcDbSpline
 62
7
  6
CONTINUOUS
 70
0
 71
3
 72
13
 73
9
 74
0
 42
0.0000001
 43
0.0000001
 44
0.0000000001
 40
0.0
 40
0.0
 40
0.0
 40
0.0
 40
0.0701789347
 40
0.1457775715
 40
0.2348927914
 40
0.3425672677
 40
0.6234207762
 40
1.0
 40
1.0
 40
1.0
 40
1.0
 10
14.5587249332
 20
9.1334713884
 30
0.0
 10
14.5587250316
 20
9.133419906
 30
0.0
 10
14.5587463972
 20
9.1333118218
 30
0.0
 10
14.558842824
 20
9.1331652068
 30
0.0
 10
14.5589961811
 20
9.1330343595
 30
0.0
 10
14.5593025532
 20
9.1328614704
 30
0.0
 10
14.5598411066
 20
9.1326890329
 30
0.0
 10
14.5603154731
 20
9.1326007434
 30
0.0
 10
14.5605886916
 20
9.1325599032
 30
0.0
  0
SPLINE
  5
3BE
100
AcDbEntity
  8
0
100
AcDbSpline
 62
7
  6
CONTINUOUS
 70
0
 71
3
 72
10
 73
6
 74
0
 42
0.0000001
 43
0.0000001
 44
0.0000000001
 40
0.0
 40
0.0
 40
0.0
 40
0.0
 40
0.1885702128
 40
0.4184618105
 40
1.0
 40
1.0
 40
1.0
 40
1.0
 10
14.5605886916
 20
9.1325599032
 30
0.0
 10
14.5609543149
 20
9.1325052505
 30
0.0
 10
14.561771357
 20
9.1324224166
 30
0.0
 10
14.5637301324
 20
9.1323312652
 30
0.0
 10
14.5653222349
 20
9.1323533199
 30
0.0
 10
14.5664617622
 20
9.1323890018
 30
0.0
  0
LINE
  5
3BF
100
AcDbEntity
  8
0
100
AcDbLine
 62
7
  6
CONTINUOUS
 10
14.5664617622
 20
9.1323890018
 11
14.5694198924
 21
9.1325257394
  0
LINE
  5
3C0
100
AcDbEntity
  8
0
100
AcDbLine
 62
7
  6
CONTINUOUS
 10
14.5967740762
 20
9.1415647115
 11
14.5968763144
 21
9.1417375016
  0
SPLINE
  5
3C1
100
AcDbEntity
  8
0
100
AcDbSpline
 62
7
  6
CONTINUOUS
 70
0
 71
3
 72
13
 73
9
 74
0
 42
0.0000001
 43
0.0000001
 44
0.0000000001
 40
0.0
 40
0.0
 40
0.0
 40
0.0
 40
0.0351150036
 40
0.0963076209
 40
0.2023297699
 40
0.3590983847
 40
0.6986329365
 40
1.0
 40
1.0
 40
1.0
 40
1.0
 10
14.5968763144
 20
9.1417375016
 30
0.0
 10
14.5969555319
 20
9.1418094405
 30
0.0
 10
14.5972122671
 20
9.1419596251
 30
0.0
 10
14.5977852929
 20
9.1421867574
 30
0.0
 10
14.5987373587
 20
9.1424554335
 30
0.0
 10
14.6005296152
 20
9.1428510697
 30
0.0
 10
14.6029253069
 20
9.143269561
 30
0.0
 10
14.6048584266
 20
9.1435485435
 30
0.0
 10
14.6057691484
 20
9.1436668192
 30
0.0
  0
LINE
  5
3C2
100
AcDbEntity
  8
0
100
AcDbLine
 62
7
  6
CONTINUOUS
 10
14.5610679561
 20
9.1382444858
 11
14.5619591687
 21
9.1378838714
  0
SPLINE
  5
3C3
100
AcDbEntity
  8
0
100
AcDbSpline
 62
7
  6
CONTINUOUS
 70
0
 71
3
 72
14
 73
10
 74
0
 42
0.0000001
 43
0.0000001
 44
0.0000000001
 40
0.0
 40
0.0
 40
0.0
 40
0.0
 40
0.0293011211
 40
0.0834484038
 40
0.1658274934
 40
0.2768054559
 40
0.4161495288
 40
0.5834545879
 40
1.0
 40
1.0
 40
1.0
 40
1.0
 10
14.5461927123
 20
9.1344607416
 30
0.0
 10
14.5461925683
 20
9.1344898773
 30
0.0
 10
14.5462535044
 20
9.1345613578
 30
0.0
 10
14.5463887764
 20
9.1346464285
 30
0.0
 10
14.5466114265
 20
9.1347580264
 30
0.0
 10
14.5469161135
 20
9.1348844528
 30
0.0
 10
14.5473056074
 20
9.1350298095
 30
0.0
 10
14.547985867
 20
9.1352626097
 30
0.0
 10
14.5485406982
 20
9.135434232
 30
0.0
 10
14.5489375343
 20
9.1355528942
 30
0.0
  0
LINE
  5
3C4
100
AcDbEntity
  8
0
100
AcDbLine
 62
7
  6
CONTINUOUS
 10
14.5502530998
 20
9.1359326095
 11
14.5539607063
 21
9.1369157677
  0
LINE
  5
3C5
100
AcDbEntity
  8
0
100
AcDbLine
 62
7
  6
CONTINUOUS
 10
14.8406172
 20
9.1634261185
 11
14.8442301923
 21
9.1643618441
  0
LINE
  5
3C6
100
AcDbEntity
  8
0
100
AcDbLine
 62
7
  6
CONTINUOUS
 10
14.8442301923
 20
9.1643618441
 11
14.849805601
 21
9.1651343132
  0
LINE
  5
3C7
100
AcDbEntity
  8
0
100
AcDbLine
 62
7
  6
CONTINUOUS
 10
14.849805601
 20
9.1651343132
 11
14.8567567603
 21
9.1656818027
  0
SPLINE
  5
3C8
100
AcDbEntity
  8
0
100
AcDbSpline
 62
7
  6
CONTINUOUS
 70
0
 71
3
 72
19
 73
15
 74
0
 42
0.0000001
 43
0.0000001
 44
0.0000000001
 40
0.0
 40
0.0
 40
0.0
 40
0.0
 40
0.0224061128
 40
0.0472866809
 40
0.0763940047
 40
0.1107990147
 40
0.1511178721
 40
0.1976993114
 40
0.2506834335
 40
0.3100714027
 40
0.4477605794
 40
0.6099045236
 40
0.79474979
 40
1.0
 40
1.0
 40
1.0
 40
1.0
 10
14.8206172
 20
9.1511645417
 30
0.0
 10
14.8206172
 20
9.1509273828
 30
0.0
 10
14.8207107934
 20
9.1504239606
 30
0.0
 10
14.8211046571
 20
9.1497068758
 30
0.0
 10
14.8217348657
 20
9.1490074679
 30
0.0
 10
14.8225971798
 20
9.1483205791
 30
0.0
 10
14.8236912352
 20
9.1476443469
 30
0.0
 10
14.8250163414
 20
9.1469805326
 30
0.0
 10
14.8265692409
 20
9.1463305152
 30
0.0
 10
14.8290628661
 20
9.1454403124
 30
0.0
 10
14.8327244876
 20
9.1444018361
 30
0.0
 10
14.8377355372
 20
9.1432944883
 30
0.0
 10
14.8434952681
 20
9.1422892381
 30
0.0
 10
14.8475862861
 20
9.1417245121
 30
0.0
 10
14.8497424415
 20
9.141458656
 30
0.0
  0
SPLINE
  5
3C9
100
AcDbEntity
  8
0
100
AcDbSpline
 62
7
  6
CONTINUOUS
 70
0
 71
3
 72
9
 73
5
 74
0
 42
0.0000001
 43
0.0000001
 44
0.0000000001
 40
0.0
 40
0.0
 40
0.0
 40
0.0
 40
0.4813693686
 40
1.0
 40
1.0
 40
1.0
 40
1.0
 10
14.8497424415
 20
9.141458656
 30
0.0
 10
14.8526022469
 20
9.1411060392
 30
0.0
 10
14.8585574559
 20
9.1404871063
 30
0.0
 10
14.8645283708
 20
9.1400505933
 30
0.0
 10
14.8676273766
 20
9.1398658566
 30
0.0
  0
SPLINE
  5
3CA
100
AcDbEntity
  8
0
100
AcDbSpline
 62
7
  6
CONTINUOUS
 70
0
 71
3
 72
16
 73
12
 74
0
 42
0.0000001
 43
0.0000001
 44
0.0000000001
 40
0.0
 40
0.0
 40
0.0
 40
0.0
 40
0.035544828
 40
0.0590359333
 40
0.0883631625
 40
0.1670143941
 40
0.2742691801
 40
0.410974665
 40
0.5774466632
 40
0.7737878184
 40
1.0
 40
1.0
 40
1.0
 40
1.0
 10
14.5371734039
 20
9.1326140066
 30
0.0
 10
14.5371731224
 20
9.1325840345
 30
0.0
 10
14.5372006095
 20
9.1325345889
 30
0.0
 10
14.5372625819
 20
9.1324934171
 30
0.0
 10
14.5373642385
 20
9.132447714
 30
0.0
 10
14.5375421042
 20
9.1324066453
 30
0.0
 10
14.5378121716
 20
9.1323734459
 30
0.0
 10
14.5381580557
 20
9.1323550997
 30
0.0
 10
14.538579314
 20
9.1323512444
 30
0.0
 10
14.5390759619
 20
9.1323624204
 30
0.0
 10
14.5394319331
 20
9.1323787732
 30
0.0
 10
14.5396224062
 20
9.1323891487
 30
0.0
  0
LINE
  5
3CB
100
AcDbEntity
  8
0
100
AcDbLine
 62
7
  6
CONTINUOUS
 10
14.5396224062
 20
9.1323891487
 11
14.5459987695
 21
9.1330355909
  0
LINE
  5
3CC
100
AcDbEntity
  8
0
100
AcDbLine
 62
7
  6
CONTINUOUS
 10
14.5759082879
 20
9.1412889039
 11
14.5775480401
 21
9.1419160692
  0
LINE
  5
3CD
100
AcDbEntity
  8
0
100
AcDbLine
 62
7
  6
CONTINUOUS
 10
14.5792210645
 20
9.1423302734
 11
14.5826024666
 21
9.1430251561
  0
LINE
  5
3CE
100
AcDbEntity
  8
0
100
AcDbLine
 62
7
  6
CONTINUOUS
 10
14.5544373165
 20
9.1376994694
 11
14.5576075153
 21
9.1384153942
  0
LINE
  5
3CF
100
AcDbEntity
  8
0
100
AcDbLine
 62
7
  6
CONTINUOUS
 10
14.5576075153
 20
9.1384153942
 11
14.5586141289
 21
9.1386410748
  0
LINE
  5
3D0
100
AcDbEntity
  8
0
100
AcDbLine
 62
7
  6
CONTINUOUS
 10
14.5883425622
 20
9.1449508867
 11
14.5906172
 21
9.1454055037
  0
LINE
  5
3D1
100
AcDbEntity
  8
0
100
AcDbLine
 62
7
  6
CONTINUOUS
 10
14.5906172
 20
9.1454140487
 11
14.5883411307
 21
9.1449602366
  0
LINE
  5
3D2
100
AcDbEntity
  8
0
100
AcDbLine
 62
7
  6
CONTINUOUS
 10
14.5586140955
 20
9.1386650284
 11
14.5576046528
 21
9.1384392015
  0
LINE
  5
3D3
100
AcDbEntity
  8
0
100
AcDbLine
 62
7
  6
CONTINUOUS
 10
14.5576046528
 20
9.1384392015
 11
14.554432044
 21
9.1377242609
  0
LINE
  5
3D4
100
AcDbEntity
  8
0
100
AcDbLine
 62
7
  6
CONTINUOUS
 10
14.5960843107
 20
9.1439230815
 11
14.5982615999
 21
9.1449401108
  0
LINE
  5
3D5
100
AcDbEntity
  8
0
100
AcDbLine
 62
7
  6
CONTINUOUS
 10
14.5459987695
 20
9.1330356468
 11
14.5501606627
 21
9.1336982648
  0
LINE
  5
3D6
100
AcDbEntity
  8
0
100
AcDbLine
 62
7
  6
CONTINUOUS
 10
14.5501606627
 20
9.1336982648
 11
14.5557458783
 21
9.1347878553
  0
LINE
  5
3D7
100
AcDbEntity
  8
0
100
AcDbLine
 62
7
  6
CONTINUOUS
 10
14.5659986259
 20
9.1371250789
 11
14.5694339913
 21
9.1380248539
  0
LINE
  5
3D8
100
AcDbEntity
  8
0
100
AcDbLine
 62
7
  6
CONTINUOUS
 10
14.5694339913
 20
9.1380248539
 11
14.5719894808
 21
9.1387799558
  0
LINE
  5
3D9
100
AcDbEntity
  8
0
100
AcDbLine
 62
7
  6
CONTINUOUS
 10
14.5719894808
 20
9.1387799558
 11
14.5746221462
 21
9.1396494988
  0
LINE
  5
3DA
100
AcDbEntity
  8
0
100
AcDbLine
 62
7
  6
CONTINUOUS
 10
14.5746221462
 20
9.1396494988
 11
14.5772265046
 21
9.140718618
  0
LINE
  5
3DB
100
AcDbEntity
  8
0
100
AcDbLine
 62
7
  6
CONTINUOUS
 10
14.5772265046
 20
9.140718618
 11
14.5773561371
 21
9.1408920531
  0
LINE
  5
3DC
100
AcDbEntity
  8
0
100
AcDbLine
 62
7
  6
CONTINUOUS
 10
14.588536072
 20
9.1440025356
 11
14.5913211132
 21
9.1442104961
  0
LINE
  5
3DD
100
AcDbEntity
  8
0
100
AcDbLine
 62
7
  6
CONTINUOUS
 10
14.5913211132
 20
9.1442104961
 11
14.5915154655
 21
9.1441141466
  0
LINE
  5
3DE
100
AcDbEntity
  8
0
100
AcDbLine
 62
7
  6
CONTINUOUS
 10
14.5801403649
 20
9.1407577956
 11
14.5803497863
 21
9.1406123942
  0
LINE
  5
3DF
100
AcDbEntity
  8
0
100
AcDbLine
 62
7
  6
CONTINUOUS
 10
14.5904699573
 20
9.1425083364
 11
14.5916373133
 21
9.1427423889
  0
LINE
  5
3E0
100
AcDbEntity
  8
0
100
AcDbLine
 62
7
  6
CONTINUOUS
 10
14.5916373133
 20
9.1427423889
 11
14.5954338236
 21
9.1434971137
  0
SPLINE
  5
3E1
100
AcDbEntity
  8
0
100
AcDbSpline
 62
7
  6
CONTINUOUS
 70
0
 71
3
 72
10
 73
6
 74
0
 42
0.0000001
 43
0.0000001
 44
0.0000000001
 40
0.0
 40
0.0
 40
0.0
 40
0.0
 40
0.2131845793
 40
0.4585338286
 40
1.0
 40
1.0
 40
1.0
 40
1.0
 10
14.5759087186
 20
9.1330356468
 30
0.0
 10
14.5766997794
 20
9.1331104791
 30
0.0
 10
14.5783975258
 20
9.1333108496
 30
0.0
 10
14.5820853052
 20
9.1338535114
 30
0.0
 10
14.5849706921
 20
9.1343850553
 30
0.0
 10
14.5869482704
 20
9.1347878394
 30
0.0
  0
LINE
  5
3E2
100
AcDbEntity
  8
0
100
AcDbLine
 62
7
  6
CONTINUOUS
 10
14.5877064091
 20
9.1349442753
 11
14.5929520289
 21
9.1361422477
  0
SPLINE
  5
3E3
100
AcDbEntity
  8
0
100
AcDbSpline
 62
7
  6
CONTINUOUS
 70
0
 71
3
 72
12
 73
8
 74
0
 42
0.0000001
 43
0.0000001
 44
0.0000000001
 40
0.0
 40
0.0
 40
0.0
 40
0.0
 40
0.3335953922
 40
0.6197107755
 40
0.8451112753
 40
0.9319020326
 40
1.0
 40
1.0
 40
1.0
 40
1.0
 10
14.5929520289
 20
9.1361422477
 30
0.0
 10
14.5938751953
 20
9.1363729189
 30
0.0
 10
14.5955853046
 20
9.1368217467
 30
0.0
 10
14.5978964663
 20
9.1375075669
 30
0.0
 10
14.5995113663
 20
9.1380643124
 30
0.0
 10
14.6005113229
 20
9.138485347
 30
0.0
 10
14.6009075714
 20
9.1386824198
 30
0.0
 10
14.6010755508
 20
9.1387799558
 30
0.0
  0
SPLINE
  5
3E4
100
AcDbEntity
  8
0
100
AcDbSpline
 62
7
  6
CONTINUOUS
 70
0
 71
3
 72
12
 73
8
 74
0
 42
0.0000001
 43
0.0000001
 44
0.0000000001
 40
0.0
 40
0.0
 40
0.0
 40
0.0
 40
0.340272201
 40
0.6325054511
 40
0.7545758209
 40
0.8571207408
 40
1.0
 40
1.0
 40
1.0
 40
1.0
 10
14.6010755508
 20
9.1387799558
 30
0.0
 10
14.6013312459
 20
9.1389284234
 30
0.0
 10
14.6018039001
 20
9.1392097562
 30
0.0
 10
14.6023496988
 20
9.1395719668
 30
0.0
 10
14.6027019213
 20
9.1398552933
 30
0.0
 10
14.6029261674
 20
9.1400741038
 30
0.0
 10
14.6030597065
 20
9.1402709371
 30
0.0
 10
14.6030591256
 20
9.1403950881
 30
0.0
  0
LINE
  5
3E5
100
AcDbEntity
  8
0
100
AcDbLine
 62
7
  6
CONTINUOUS
 10
14.6087425863
 20
9.1440025356
 11
14.6134264436
 21
9.1442100837
  0
SPLINE
  5
3E6
100
AcDbEntity
  8
0
100
AcDbSpline
 62
7
  6
CONTINUOUS
 70
0
 71
3
 72
14
 73
10
 74
0
 42
0.0000001
 43
0.0000001
 44
0.0000000001
 40
0.0
 40
0.0
 40
0.0
 40
0.0
 40
0.3956692863
 40
0.5533262605
 40
0.684908901
 40
0.7915792681
 40
0.8756375926
 40
0.9419111166
 40
1.0
 40
1.0
 40
1.0
 40
1.0
 10
14.6134264436
 20
9.1442100837
 30
0.0
 10
14.6136482537
 20
9.1441988485
 30
0.0
 10
14.6139585136
 20
9.1441749081
 30
0.0
 10
14.6143379495
 20
9.1441114332
 30
0.0
 10
14.6145538752
 20
9.1440576121
 30
0.0
 10
14.6147238929
 20
9.1439940334
 30
0.0
 10
14.6148489989
 20
9.1439201827
 30
0.0
 10
14.6149304753
 20
9.1438322068
 30
0.0
 10
14.6149493906
 20
9.1437613809
 30
0.0
 10
14.614949465
 20
9.1437287749
 30
0.0
  0
LINE
  5
3E7
100
AcDbEntity
  8
0
100
AcDbLine
 62
7
  6
CONTINUOUS
 10
14.6079400435
 20
9.1407577956
 11
14.6084917162
 21
9.1406123942
  0
LINE
  5
3E8
100
AcDbEntity
  8
0
100
AcDbLine
 62
7
  6
CONTINUOUS
 10
14.6084917162
 20
9.1406123942
 11
14.6090429912
 21
9.1406123942
  0
LINE
  5
3E9
100
AcDbEntity
  8
0
100
AcDbLine
 62
7
  6
CONTINUOUS
 10
14.6090429912
 20
9.1406123942
 11
14.6095938677
 21
9.1404617176
  0
LINE
  5
3EA
100
AcDbEntity
  8
0
100
AcDbLine
 62
7
  6
CONTINUOUS
 10
14.6233495181
 20
9.1433608671
 11
14.6240127931
 21
9.1434971137
  0
LINE
  5
3EB
100
AcDbEntity
  8
0
100
AcDbLine
 62
7
  6
CONTINUOUS
 10
14.5954146571
 20
9.1435382718
 11
14.595798425
 21
9.1438078017
  0
LINE
  5
3EC
100
AcDbEntity
  8
0
100
AcDbLine
 62
7
  6
CONTINUOUS
 10
14.595798425
 20
9.1438078017
 11
14.5960843107
 21
9.1439231044
  0
LINE
  5
3ED
100
AcDbEntity
  8
0
100
AcDbLine
 62
7
  6
CONTINUOUS
 10
15.2164186918
 20
9.1397053752
 11
15.2173519697
 21
9.1393706851
  0
LINE
  5
3EE
100
AcDbEntity
  8
0
100
AcDbLine
 62
7
  6
CONTINUOUS
 10
15.1828633784
 20
9.1391922905
 11
15.1834257749
 21
9.1392967779
  0
LINE
  5
3EF
100
AcDbEntity
  8
0
100
AcDbLine
 62
7
  6
CONTINUOUS
 10
15.1834257749
 20
9.1392967779
 11
15.1838785785
 21
9.1393147868
  0
SPLINE
  5
3F0
100
AcDbEntity
  8
0
100
AcDbSpline
 62
7
  6
CONTINUOUS
 70
0
 71
3
 72
14
 73
10
 74
0
 42
0.0000001
 43
0.0000001
 44
0.0000000001
 40
0.0
 40
0.0
 40
0.0
 40
0.0
 40
0.0414115055
 40
0.1030274586
 40
0.1894694822
 40
0.3018957571
 40
0.4400143913
 40
0.6030505478
 40
1.0
 40
1.0
 40
1.0
 40
1.0
 10
15.1734078287
 20
9.1401742791
 30
0.0
 10
15.1734081024
 20
9.1401113915
 30
0.0
 10
15.1734816954
 20
9.1399607995
 30
0.0
 10
15.1736941978
 20
9.139766764
 30
0.0
 10
15.1740244253
 20
9.1395459952
 30
0.0
 10
15.1744767077
 20
9.1393060235
 30
0.0
 10
15.1750482729
 20
9.1390448847
 30
0.0
 10
15.1760309157
 20
9.1386464649
 30
0.0
 10
15.1768343133
 20
9.1383659914
 30
0.0
 10
15.1774067283
 20
9.1381769764
 30
0.0
  0
LINE
  5
3F1
100
AcDbEntity
  8
0
100
AcDbLine
 62
7
  6
CONTINUOUS
 10
15.1774067283
 20
9.1381769764
 11
15.1824416929
 21
9.1367189639
  0
LINE
  5
3F2
100
AcDbEntity
  8
0
100
AcDbLine
 62
7
  6
CONTINUOUS
 10
14.9188826293
 20
9.1402221715
 11
14.9315562024
 21
9.141466585
  0
SPLINE
  5
3F3
100
AcDbEntity
  8
0
100
AcDbSpline
 62
7
  6
CONTINUOUS
 70
0
 71
3
 72
9
 73
5
 74
0
 42
0.0000001
 43
0.0000001
 44
0.0000000001
 40
0.0
 40
0.0
 40
0.0
 40
0.0
 40
0.536165684
 40
1.0
 40
1.0
 40
1.0
 40
1.0
 10
14.9315562024
 20
9.141466585
 30
0.0
 10
14.9342999496
 20
9.1418057003
 30
0.0
 10
14.939406281
 20
9.1425321702
 30
0.0
 10
14.9444737839
 20
9.1435037041
 30
0.0
 10
14.9468045565
 20
9.1440399419
 30
0.0
  0
SPLINE
  5
3F4
100
AcDbEntity
  8
0
100
AcDbSpline
 62
7
  6
CONTINUOUS
 70
0
 71
3
 72
15
 73
11
 74
0
 42
0.0000001
 43
0.0000001
 44
0.0000000001
 40
0.0
 40
0.0
 40
0.0
 40
0.0
 40
0.1993495775
 40
0.3767306411
 40
0.5317433008
 40
0.6642438946
 40
0.7747024735
 40
0.8647245319
 40
0.9376473473
 40
1.0
 40
1.0
 40
1.0
 40
1.0
 10
14.9483118037
 20
9.1444005069
 30
0.0
 10
14.9492574085
 20
9.1446358228
 30
0.0
 10
14.9510368428
 20
9.1451122546
 30
0.0
 10
14.9535151284
 20
9.1458995251
 30
0.0
 10
14.9556385531
 20
9.1467136576
 30
0.0
 10
14.9573974901
 20
9.1475507233
 30
0.0
 10
14.9587862934
 20
9.1484082234
 30
0.0
 10
14.959804463
 20
9.1492858119
 30
0.0
 10
14.96045437
 20
9.1501946134
 30
0.0
 10
14.9606172
 20
9.1508597545
 30
0.0
 10
14.9606172
 20
9.1511645417
 30
0.0
  0
SPLINE
  5
3F5
100
AcDbEntity
  8
0
100
AcDbSpline
 62
7
  6
CONTINUOUS
 70
0
 71
3
 72
9
 73
5
 74
0
 42
0.0000001
 43
0.0000001
 44
0.0000000001
 40
0.0
 40
0.0
 40
0.0
 40
0.0
 40
0.5257026245
 40
1.0
 40
1.0
 40
1.0
 40
1.0
 10
14.92176872
 20
9.1658678132
 30
0.0
 10
14.9243528179
 20
9.165815603
 30
0.0
 10
14.9292668136
 20
9.1656253364
 30
0.0
 10
14.9341704104
 20
9.1652396314
 30
0.0
 10
14.9364886075
 20
9.1649872908
 30
0.0
  0
LINE
  5
3F6
100
AcDbEntity
  8
0
100
AcDbLine
 62
7
  6
CONTINUOUS
 10
14.9364886075
 20
9.1649872908
 11
14.9420251607
 21
9.1641991988
  0
LINE
  5
3F7
100
AcDbEntity
  8
0
100
AcDbLine
 62
7
  6
CONTINUOUS
 10
14.9420251607
 20
9.1641991988
 11
14.9456172
 21
9.1632555854
  0
LINE
  5
3F8
100
AcDbEntity
  8
0
100
AcDbLine
 62
7
  6
CONTINUOUS
 10
14.8906172
 20
9.1711614507
 11
14.9037902706
 21
9.17116958
  0
LINE
  5
3F9
100
AcDbEntity
  8
0
100
AcDbLine
 62
7
  6
CONTINUOUS
 10
14.9154977342
 20
9.171198367
 11
14.9346004403
 21
9.1713457908
  0
LINE
  5
3FA
100
AcDbEntity
  8
0
100
AcDbLine
 62
7
  6
CONTINUOUS
 10
14.948390278
 20
9.1716489262
 11
14.9574662097
 21
9.1721069641
  0
LINE
  5
3FB
100
AcDbEntity
  8
0
100
AcDbLine
 62
7
  6
CONTINUOUS
 10
14.9574662097
 20
9.1721069641
 11
14.9598689701
 21
9.1723698609
  0
LINE
  5
3FC
100
AcDbEntity
  8
0
100
AcDbLine
 62
7
  6
CONTINUOUS
 10
14.9598689701
 20
9.1723698609
 11
14.9606170242
 21
9.1726230379
  0
LINE
  5
3FD
100
AcDbEntity
  8
0
100
AcDbLine
 62
7
  6
CONTINUOUS
 10
15.2295857194
 20
9.134686883
 11
15.228363241
 21
9.135288887
  0
LINE
  5
3FE
100
AcDbEntity
  8
0
100
AcDbLine
 62
7
  6
CONTINUOUS
 10
15.228363241
 20
9.135288887
 11
15.2209219736
 21
9.1373388169
  0
LINE
  5
3FF
100
AcDbEntity
  8
0
100
AcDbLine
 62
7
  6
CONTINUOUS
 10
15.1872222126
 20
9.1438332665
 11
15.187532429
 21
9.1439241127
  0
LINE
  5
400
100
AcDbEntity
  8
0
100
AcDbLine
 62
7
  6
CONTINUOUS
 10
15.187532429
 20
9.1439241127
 11
15.1885903531
 21
9.1438654795
  0
LINE
  5
401
100
AcDbEntity
  8
0
100
AcDbLine
 62
7
  6
CONTINUOUS
 10
15.1885903531
 20
9.1438654795
 11
15.1928163014
 21
9.1432752001
  0
SPLINE
  5
402
100
AcDbEntity
  8
0
100
AcDbSpline
 62
7
  6
CONTINUOUS
 70
0
 71
3
 72
12
 73
8
 74
0
 42
0.0000001
 43
0.0000001
 44
0.0000000001
 40
0.0
 40
0.0
 40
0.0
 40
0.0
 40
0.0407491781
 40
0.1002528437
 40
0.2920162548
 40
0.5900441796
 40
1.0
 40
1.0
 40
1.0
 40
1.0
 10
15.1784252977
 20
9.145401067
 30
0.0
 10
15.1784253539
 20
9.1453744454
 30
0.0
 10
15.1784537474
 20
9.1453107794
 30
0.0
 10
15.1785905627
 20
9.1451770768
 30
0.0
 10
15.1789044165
 20
9.1449950329
 30
0.0
 10
15.1794391124
 20
9.1447534671
 30
0.0
 10
15.1798725647
 20
9.1445899446
 30
0.0
 10
15.1801246082
 20
9.1444993634
 30
0.0
  0
LINE
  5
403
100
AcDbEntity
  8
0
100
AcDbLine
 62
7
  6
CONTINUOUS
 10
15.1801246082
 20
9.1444993634
 11
15.1822383336
 21
9.1438174638
  0
LINE
  5
404
100
AcDbEntity
  8
0
100
AcDbLine
 62
7
  6
CONTINUOUS
 10
15.1822383336
 20
9.1438174638
 11
15.185219586
 21
9.142984804
  0
LINE
  5
405
100
AcDbEntity
  8
0
100
AcDbLine
 62
7
  6
CONTINUOUS
 10
15.185219586
 20
9.142984804
 11
15.1893028648
 21
9.1419414204
  0
LINE
  5
406
100
AcDbEntity
  8
0
100
AcDbLine
 62
7
  6
CONTINUOUS
 10
15.2277777287
 20
9.1337701481
 11
15.2345044147
 21
9.1328037664
  0
SPLINE
  5
407
100
AcDbEntity
  8
0
100
AcDbSpline
 62
7
  6
CONTINUOUS
 70
0
 71
3
 72
18
 73
14
 74
0
 42
0.0000001
 43
0.0000001
 44
0.0000000001
 40
0.0
 40
0.0
 40
0.0
 40
0.0
 40
0.2270012178
 40
0.4257833577
 40
0.5951367103
 40
0.7341472828
 40
0.8426211362
 40
0.8854721528
 40
0.9208465886
 40
0.9490090459
 40
0.9705166311
 40
0.9865948559
 40
1.0
 40
1.0
 40
1.0
 40
1.0
 10
15.2345044147
 20
9.1328037664
 30
0.0
 10
15.2348021987
 20
9.132770513
 30
0.0
 10
15.2353611798
 20
9.132711843
 30
0.0
 10
15.2361438564
 20
9.1326440449
 30
0.0
 10
15.2368121019
 20
9.132602496
 30
0.0
 10
15.2373622106
 20
9.1325877875
 30
0.0
 10
15.2377457287
 20
9.1325972732
 30
0.0
 10
15.237991093
 20
9.1326217158
 30
0.0
 10
15.2381296788
 20
9.1326451395
 30
0.0
 10
15.2382382691
 20
9.1326749761
 30
0.0
 10
15.2383175159
 20
9.1327113107
 30
0.0
 10
15.2383700557
 20
9.1327564632
 30
0.0
 10
15.2383825882
 20
9.1327960724
 30
0.0
 10
15.2383824981
 20
9.1328137665
 30
0.0
  0
SPLINE
  5
408
100
AcDbEntity
  8
0
100
AcDbSpline
 62
7
  6
CONTINUOUS
 70
0
 71
3
 72
15
 73
11
 74
0
 42
0.0000001
 43
0.0000001
 44
0.0000000001
 40
0.0
 40
0.0
 40
0.0
 40
0.0
 40
0.0257665228
 40
0.0479067959
 40
0.0771563067
 40
0.1576504097
 40
0.2677346928
 40
0.4072621536
 40
0.5760053082
 40
1.0
 40
1.0
 40
1.0
 40
1.0
 10
14.8206172372
 20
9.1726231927
 30
0.0
 10
14.82061735
 20
9.1725948171
 30
0.0
 10
14.8206671498
 20
9.1725535868
 30
0.0
 10
14.8207406334
 20
9.1725188984
 30
0.0
 10
14.8208792685
 20
9.1724692856
 30
0.0
 10
14.8211141214
 20
9.1724139316
 30
0.0
 10
14.8214725581
 20
9.1723498832
 30
0.0
 10
14.821928782
 20
9.1722864055
 30
0.0
 10
14.8227300672
 20
9.1721944324
 30
0.0
 10
14.8233804512
 20
9.1721378004
 30
0.0
 10
14.8238459259
 20
9.1721009546
 30
0.0
  0
LINE
  5
409
100
AcDbEntity
  8
0
100
AcDbLine
 62
7
  6
CONTINUOUS
 10
14.8238459259
 20
9.1721009546
 11
14.8277342792
 21
9.1718595549
  0
LINE
  5
40A
100
AcDbEntity
  8
0
100
AcDbLine
 62
7
  6
CONTINUOUS
 10
14.839229942
 20
9.171473444
 11
14.8404994968
 21
9.1714468368
  0
LINE
  5
40B
100
AcDbEntity
  8
0
100
AcDbLine
 62
7
  6
CONTINUOUS
 10
14.8774815923
 20
9.1711694713
 11
14.8906172
 21
9.1711614507
  0
SPLINE
  5
40C
100
AcDbEntity
  8
0
100
AcDbSpline
 62
7
  6
CONTINUOUS
 70
0
 71
3
 72
20
 73
16
 74
0
 42
0.0000001
 43
0.0000001
 44
0.0000000001
 40
0.0
 40
0.0
 40
0.0
 40
0.0
 40
0.0022658836
 40
0.0063490454
 40
0.0212531782
 40
0.045254346
 40
0.0779053258
 40
0.1186790899
 40
0.1671007263
 40
0.2227946676
 40
0.2853904264
 40
0.4299015135
 40
0.5983285541
 40
0.7887454832
 40
1.0
 40
1.0
 40
1.0
 40
1.0
 10
14.8406204546
 20
9.1733979783
 30
0.0
 10
14.8406203774
 20
9.173406747
 30
0.0
 10
14.8406390698
 20
9.1734280041
 30
0.0
 10
14.8407130801
 20
9.1734601767
 30
0.0
 10
14.8408770273
 20
9.1735003766
 30
0.0
 10
14.8411492677
 20
9.1735448208
 30
0.0
 10
14.8415238637
 20
9.1735922496
 30
0.0
 10
14.8419927685
 20
9.1736405671
 30
0.0
 10
14.8425514183
 20
9.1736896635
 30
0.0
 10
14.843194693
 20
9.1737390086
 30
0.0
 10
14.8442093957
 20
9.173808228
 30
0.0
 10
14.8456603225
 20
9.1738921575
 30
0.0
 10
14.8476060155
 20
9.1739871487
 30
0.0
 10
14.8498103892
 20
9.1740794346
 30
0.0
 10
14.8513638546
 20
9.1741356732
 30
0.0
 10
14.852180943
 20
9.1741633918
 30
0.0
  0
LINE
  5
40D
100
AcDbEntity
  8
0
100
AcDbLine
 62
7
  6
CONTINUOUS
 10
14.852180943
 20
9.1741633918
 11
14.8770545804
 21
9.1746505445
  0
LINE
  5
40E
100
AcDbEntity
  8
0
100
AcDbLine
 62
7
  6
CONTINUOUS
 10
15.159794991
 20
9.1456205106
 11
15.1624826553
 21
9.145029841
  0
LINE
  5
40F
100
AcDbEntity
  8
0
100
AcDbLine
 62
7
  6
CONTINUOUS
 10
15.1624826553
 20
9.145029841
 11
15.1651790447
 21
9.1444311132
  0
LINE
  5
410
100
AcDbEntity
  8
0
100
AcDbLine
 62
7
  6
CONTINUOUS
 10
15.1651790447
 20
9.1444311132
 11
15.1678841374
 21
9.1438242652
  0
LINE
  5
411
100
AcDbEntity
  8
0
100
AcDbLine
 62
7
  6
CONTINUOUS
 10
15.1678841374
 20
9.1438242652
 11
15.1713570141
 21
9.143322571
  0
LINE
  5
412
100
AcDbEntity
  8
0
100
AcDbLine
 62
7
  6
CONTINUOUS
 10
15.1830510131
 20
9.140865339
 11
15.1835988936
 21
9.1406645897
  0
LINE
  5
413
100
AcDbEntity
  8
0
100
AcDbLine
 62
7
  6
CONTINUOUS
 10
15.1440136297
 20
9.1452182413
 11
15.1467024663
 21
9.1446271564
  0
LINE
  5
414
100
AcDbEntity
  8
0
100
AcDbLine
 62
7
  6
CONTINUOUS
 10
15.1467024663
 20
9.1446271564
 11
15.1493988552
 21
9.1440282675
  0
LINE
  5
415
100
AcDbEntity
  8
0
100
AcDbLine
 62
7
  6
CONTINUOUS
 10
15.1493988552
 20
9.1440282675
 11
15.1512672146
 21
9.1436096781
  0
LINE
  5
416
100
AcDbEntity
  8
0
100
AcDbLine
 62
7
  6
CONTINUOUS
 10
15.1512672146
 20
9.1436096781
 11
15.1521027762
 21
9.1434215203
  0
LINE
  5
417
100
AcDbEntity
  8
0
100
AcDbLine
 62
7
  6
CONTINUOUS
 10
15.1521027762
 20
9.1434215559
 11
15.1549155734
 21
9.1433252599
  0
LINE
  5
418
100
AcDbEntity
  8
0
100
AcDbLine
 62
7
  6
CONTINUOUS
 10
15.1549155734
 20
9.1433252599
 11
15.1568150682
 21
9.1431305249
  0
LINE
  5
419
100
AcDbEntity
  8
0
100
AcDbLine
 62
7
  6
CONTINUOUS
 10
15.1699305696
 20
9.1415023899
 11
15.1735207718
 21
9.141031005
  0
LINE
  5
41A
100
AcDbEntity
  8
0
100
AcDbLine
 62
7
  6
CONTINUOUS
 10
15.1735207718
 20
9.141031005
 11
15.1764815804
 21
9.140633936
  0
LINE
  5
41B
100
AcDbEntity
  8
0
100
AcDbLine
 62
7
  6
CONTINUOUS
 10
15.1973867489
 20
9.1335979317
 11
15.2048379344
 21
9.1326464797
  0
LINE
  5
41C
100
AcDbEntity
  8
0
100
AcDbLine
 62
7
  6
CONTINUOUS
 10
15.2048379344
 20
9.1326464797
 11
15.2075854377
 21
9.1325356006
  0
LINE
  5
41D
100
AcDbEntity
  8
0
100
AcDbLine
 62
7
  6
CONTINUOUS
 10
15.2075854377
 20
9.1325356006
 11
15.2131505598
 21
9.1325663866
  0
LINE
  5
41E
100
AcDbEntity
  8
0
100
AcDbLine
 62
7
  6
CONTINUOUS
 10
15.2131505598
 20
9.1325663866
 11
15.2188101585
 21
9.1325646195
  0
LINE
  5
41F
100
AcDbEntity
  8
0
100
AcDbLine
 62
7
  6
CONTINUOUS
 10
15.2188101585
 20
9.1325646195
 11
15.2242435413
 21
9.1323844481
  0
LINE
  5
420
100
AcDbEntity
  8
0
100
AcDbLine
 62
7
  6
CONTINUOUS
 10
15.1229491477
 20
9.1443758873
 11
15.125320913
 21
9.1437689928
  0
SPLINE
  5
421
100
AcDbEntity
  8
0
100
AcDbSpline
 62
7
  6
CONTINUOUS
 70
0
 71
3
 72
9
 73
5
 74
0
 42
0.0000001
 43
0.0000001
 44
0.0000000001
 40
0.0
 40
0.0
 40
0.0
 40
0.0
 40
0.4967862205
 40
1.0
 40
1.0
 40
1.0
 40
1.0
 10
15.125320913
 20
9.1437689928
 30
0.0
 10
15.1267917113
 20
9.1436199967
 30
0.0
 10
15.1297440202
 20
9.1432362131
 30
0.0
 10
15.1326760381
 20
9.1427208048
 30
0.0
 10
15.1341437204
 20
9.1424236953
 30
0.0
  0
LINE
  5
422
100
AcDbEntity
  8
0
100
AcDbLine
 62
7
  6
CONTINUOUS
 10
15.1341437204
 20
9.1424236953
 11
15.1381943979
 21
9.1414855616
  0
LINE
  5
423
100
AcDbEntity
  8
0
100
AcDbLine
 62
7
  6
CONTINUOUS
 10
15.1465225221
 20
9.1392235208
 11
15.1491210976
 21
9.1385019215
  0
LINE
  5
424
100
AcDbEntity
  8
0
100
AcDbLine
 62
7
  6
CONTINUOUS
 10
15.1491210976
 20
9.1385019215
 11
15.1497573711
 21
9.1383240877
  0
LINE
  5
425
100
AcDbEntity
  8
0
100
AcDbLine
 62
7
  6
CONTINUOUS
 10
15.1549392112
 20
9.1368589757
 11
15.1579476188
 21
9.1359946059
  0
LINE
  5
426
100
AcDbEntity
  8
0
100
AcDbLine
 62
7
  6
CONTINUOUS
 10
15.1579476188
 20
9.1359946059
 11
15.1586879641
 21
9.1357803373
  0
LINE
  5
427
100
AcDbEntity
  8
0
100
AcDbLine
 62
7
  6
CONTINUOUS
 10
15.1634435782
 20
9.1343893225
 11
15.163828093
 21
9.1342041015
  0
LINE
  5
428
100
AcDbEntity
  8
0
100
AcDbLine
 62
7
  6
CONTINUOUS
 10
15.1541243168
 20
9.1329783305
 11
15.1568902007
 21
9.1323499725
  0
LINE
  5
429
100
AcDbEntity
  8
0
100
AcDbLine
 62
7
  6
CONTINUOUS
 10
15.1568902007
 20
9.1323499725
 11
15.1579290969
 21
9.1323792308
  0
LINE
  5
42A
100
AcDbEntity
  8
0
100
AcDbLine
 62
7
  6
CONTINUOUS
 10
15.1790698404
 20
9.1325647661
 11
15.1815268368
 21
9.132535602
  0
LINE
  5
42B
100
AcDbEntity
  8
0
100
AcDbLine
 62
7
  6
CONTINUOUS
 10
15.19919644
 20
9.14369299
 11
15.1961911543
 21
9.1442995809
  0
LINE
  5
42C
100
AcDbEntity
  8
0
100
AcDbLine
 62
7
  6
CONTINUOUS
 10
15.1961911543
 20
9.1442995809
 11
15.1931940022
 21
9.1448983634
  0
LINE
  5
42D
100
AcDbEntity
  8
0
100
AcDbLine
 62
7
  6
CONTINUOUS
 10
15.1931940022
 20
9.1448983634
 11
15.1916442925
 21
9.1452055573
  0
LINE
  5
42E
100
AcDbEntity
  8
0
100
AcDbLine
 62
7
  6
CONTINUOUS
 10
15.1916442925
 20
9.1452055573
 11
15.190205006
 21
9.1454893904
  0
LINE
  5
42F
100
AcDbEntity
  8
0
100
AcDbLine
 62
7
  6
CONTINUOUS
 10
15.1983240523
 20
9.1438245942
 11
15.2019730523
 21
9.143102045
  0
LINE
  5
430
100
AcDbEntity
  8
0
100
AcDbLine
 62
7
  6
CONTINUOUS
 10
15.2126632203
 20
9.1408699948
 11
15.2164377784
 21
9.1400624715
  0
LINE
  5
431
100
AcDbEntity
  8
0
100
AcDbLine
 62
7
  6
CONTINUOUS
 10
15.2433102358
 20
9.13335745
 11
15.2469571608
 21
9.1326481181
  0
LINE
  5
432
100
AcDbEntity
  8
0
100
AcDbLine
 62
7
  6
CONTINUOUS
 10
15.2469571608
 20
9.1326481181
 11
15.2484031238
 21
9.1324590318
  0
LINE
  5
433
100
AcDbEntity
  8
0
100
AcDbLine
 62
7
  6
CONTINUOUS
 10
15.2484031238
 20
9.1324590318
 11
15.24957044
 21
9.1325768843
  0
LINE
  5
434
100
AcDbEntity
  8
0
100
AcDbLine
 62
7
  6
CONTINUOUS
 10
15.2461529423
 20
9.1334051371
 11
15.24415361
 21
9.1338744297
  0
LINE
  5
435
100
AcDbEntity
  8
0
100
AcDbLine
 62
7
  6
CONTINUOUS
 10
15.2109366721
 20
9.1412728132
 11
15.2094875793
 21
9.1415778986
  0
LINE
  5
436
100
AcDbEntity
  8
0
100
AcDbLine
 62
7
  6
CONTINUOUS
 10
14.9606495437
 20
9.1731382234
 11
14.9612875581
 21
9.1731092483
  0
LINE
  5
437
100
AcDbEntity
  8
0
100
AcDbLine
 62
7
  6
CONTINUOUS
 10
15.1606343386
 20
9.1510305391
 11
15.1642416028
 21
9.1503882682
  0
LINE
  5
438
100
AcDbEntity
  8
0
100
AcDbLine
 62
7
  6
CONTINUOUS
 10
15.174958812
 20
9.1484281193
 11
15.1778449626
 21
9.1478869358
  0
LINE
  5
439
100
AcDbEntity
  8
0
100
AcDbLine
 62
7
  6
CONTINUOUS
 10
15.1778449626
 20
9.1478869358
 11
15.1788570069
 21
9.1476958266
  0
LINE
  5
43A
100
AcDbEntity
  8
0
100
AcDbLine
 62
7
  6
CONTINUOUS
 10
15.1788570069
 20
9.1476958266
 11
15.1799186624
 21
9.1474946009
  0
LINE
  5
43B
100
AcDbEntity
  8
0
100
AcDbLine
 62
7
  6
CONTINUOUS
 10
15.1799186624
 20
9.1474946009
 11
15.184145289
 21
9.1466858844
  0
LINE
  5
43C
100
AcDbEntity
  8
0
100
AcDbLine
 62
7
  6
CONTINUOUS
 10
15.184145289
 20
9.1466858844
 11
15.1876315855
 21
9.1460096648
  0
LINE
  5
43D
100
AcDbEntity
  8
0
100
AcDbLine
 62
7
  6
CONTINUOUS
 10
15.1876315855
 20
9.1460096648
 11
15.1898999401
 21
9.1455652325
  0
LINE
  5
43E
100
AcDbEntity
  8
0
100
AcDbLine
 62
7
  6
CONTINUOUS
 10
14.5949465509
 20
9.1462713022
 11
14.5959156826
 21
9.1464592228
  0
LINE
  5
43F
100
AcDbEntity
  8
0
100
AcDbLine
 62
7
  6
CONTINUOUS
 10
14.5959156826
 20
9.1464592228
 11
14.598125727
 21
9.1468853702
  0
SPLINE
  5
440
100
AcDbEntity
  8
0
100
AcDbSpline
 62
7
  6
CONTINUOUS
 70
0
 71
3
 72
19
 73
15
 74
0
 42
0.0000001
 43
0.0000001
 44
0.0000000001
 40
0.0
 40
0.0
 40
0.0
 40
0.0
 40
0.00908538
 40
0.0199955292
 40
0.0472351893
 40
0.0815653133
 40
0.1227764195
 40
0.1705600435
 40
0.2245592318
 40
0.3496554106
 40
0.4942737147
 40
0.6541164184
 40
0.8245429555
 40
1.0
 40
1.0
 40
1.0
 40
1.0
 10
14.9846172
 20
8.536693186
 30
0.0
 10
14.9843450804
 20
8.5366073575
 30
0.0
 10
14.9837389895
 20
8.536441345
 30
0.0
 10
14.9822913643
 20
8.5361159668
 30
0.0
 10
14.9800464294
 20
8.5357319317
 30
0.0
 10
14.9768464566
 20
8.5353059055
 30
0.0
 10
14.9729947284
 20
8.5348956991
 30
0.0
 10
14.9685208241
 20
8.534504008
 30
0.0
 10
14.9614141469
 20
8.5339859532
 30
0.0
 10
14.9512621382
 20
8.5334294078
 30
0.0
 10
14.9377813194
 20
8.5329056201
 30
0.0
 10
14.9228717032
 20
8.5325189947
 30
0.0
 10
14.9069904324
 20
8.532282147
 30
0.0
 10
14.8961275801
 20
8.5322288017
 30
0.0
 10
14.8906172
 20
8.5322288017
 30
0.0
  0
SPLINE
  5
441
100
AcDbEntity
  8
0
100
AcDbSpline
 62
7
  6
CONTINUOUS
 70
0
 71
3
 72
19
 73
15
 74
0
 42
0.0000001
 43
0.0000001
 44
0.0000000001
 40
0.0
 40
0.0
 40
0.0
 40
0.0
 40
0.1754571043
 40
0.3458837679
 40
0.5057265064
 40
0.6503447831
 40
0.7754409343
 40
0.8294400945
 40
0.8772236797
 40
0.9184347559
 40
0.9527648501
 40
0.9800044828
 40
0.9909146232
 40
1.0
 40
1.0
 40
1.0
 40
1.0
 10
14.8906172
 20
9.1372120979
 30
0.0
 10
14.896127582
 20
9.1372120979
 30
0.0
 10
14.9069904401
 20
9.1371587524
 30
0.0
 10
14.9228717179
 20
9.1369219048
 30
0.0
 10
14.9377813383
 20
9.1365352789
 30
0.0
 10
14.9512621565
 20
9.136011491
 30
0.0
 10
14.9614141625
 20
9.1354549454
 30
0.0
 10
14.9685208367
 20
9.1349368906
 30
0.0
 10
14.972994738
 20
9.1345451995
 30
0.0
 10
14.9768464632
 20
9.1341349935
 30
0.0
 10
14.9800464332
 20
9.1337089677
 30
0.0
 10
14.982291366
 20
9.1333249327
 30
0.0
 10
14.98373899
 20
9.1329995546
 30
0.0
 10
14.9843450805
 20
9.1328335422
 30
0.0
 10
14.9846172
 20
9.1327477137
 30
0.0
  0
SPLINE
  5
442
100
AcDbEntity
  8
0
100
AcDbSpline
 62
7
  6
CONTINUOUS
 70
0
 71
3
 72
31
 73
27
 74
0
 42
0.0000001
 43
0.0000001
 44
0.0000000001
 40
0.0
 40
0.0
 40
0.0
 40
0.0
 40
0.0045427955
 40
0.0099982008
 40
0.0236192478
 40
0.0407860587
 40
0.0613941629
 40
0.0852892328
 40
0.1122904516
 40
0.1748351834
 40
0.2471553074
 40
0.3270913099
 40
0.4122291347
 40
0.5000112995
 40
0.5877925528
 40
0.6729287406
 40
0.7528613449
 40
0.8251778187
 40
0.887719003
 40
0.9147181229
 40
0.9386108413
 40
0.9592172503
 40
0.9763825615
 40
0.9900023334
 40
0.9954573477
 40
1.0
 40
1.0
 40
1.0
 40
1.0
 10
15.0348862619
 20
9.1119255865
 30
0.0
 10
15.0351393753
 20
9.1117938558
 30
0.0
 10
15.0356853566
 20
9.111482656
 30
0.0
 10
15.0369391404
 20
9.1106890415
 30
0.0
 10
15.0387982627
 20
9.1093730541
 30
0.0
 10
15.0413625053
 20
9.107411366
 30
0.0
 10
15.0443765104
 20
9.1049775352
 30
0.0
 10
15.0478173281
 20
9.1020906322
 30
0.0
 10
15.0532088801
 20
9.0974316874
 30
0.0
 10
15.0607814381
 20
9.0906463221
 30
0.0
 10
15.0706851189
 20
9.081483259
 30
0.0
 10
15.0814987823
 20
9.0712159652
 30
0.0
 10
15.0928959807
 20
9.0601542804
 30
0.0
 10
15.104531602
 20
9.0486319193
 30
0.0
 10
15.1160538559
 20
9.036996337
 30
0.0
 10
15.1271152682
 20
9.0255993944
 30
0.0
 10
15.1373821393
 20
9.014786082
 30
0.0
 10
15.146544736
 20
9.0048828764
 30
0.0
 10
15.1533296793
 20
8.9973107244
 30
0.0
 10
15.1579882771
 20
8.9919195364
 30
0.0
 10
15.1608749086
 20
8.9884789948
 30
0.0
 10
15.163308525
 20
8.9854652646
 30
0.0
 10
15.1652700405
 20
8.9829012433
 30
0.0
 10
15.1665858945
 20
8.98104227
 30
0.0
 10
15.1673794325
 20
8.9797885722
 30
0.0
 10
15.1676906101
 20
8.9792426171
 30
0.0
 10
15.1678223367
 20
8.9789895117
 30
0.0
  0
SPLINE
  5
443
100
AcDbEntity
  8
0
100
AcDbSpline
 62
7
  6
CONTINUOUS
 70
0
 71
3
 72
31
 73
27
 74
0
 42
0.0000001
 43
0.0000001
 44
0.0000000001
 40
0.0
 40
0.0
 40
0.0
 40
0.0
 40
0.0045427955
 40
0.0099982008
 40
0.0236192478
 40
0.0407860587
 40
0.0613941629
 40
0.0852892328
 40
0.1122904516
 40
0.1748351834
 40
0.2471553074
 40
0.3270913099
 40
0.4122291347
 40
0.5000112996
 40
0.5877925528
 40
0.6729287406
 40
0.7528613449
 40
0.8251778187
 40
0.887719003
 40
0.9147181229
 40
0.9386108413
 40
0.9592172503
 40
0.9763825615
 40
0.9900023334
 40
0.9954573477
 40
1.0
 40
1.0
 40
1.0
 40
1.0
 10
15.1886444639
 20
8.9287204498
 30
0.0
 10
15.1887302944
 20
8.9284483239
 30
0.0
 10
15.18889631
 20
8.9278422053
 30
0.0
 10
15.1892216988
 20
8.9263944762
 30
0.0
 10
15.1896057533
 20
8.9241493345
 30
0.0
 10
15.1900318236
 20
8.9209490183
 30
0.0
 10
15.1904420688
 20
8.9170968165
 30
0.0
 10
15.1908337456
 20
8.9126224423
 30
0.0
 10
15.1913517772
 20
8.9055156679
 30
0.0
 10
15.1919084064
 20
8.8953630829
 30
0.0
 10
15.1924321022
 20
8.8818808591
 30
0.0
 10
15.1928184439
 20
8.8669743713
 30
0.0
 10
15.1930556879
 20
8.8510935426
 30
0.0
 10
15.1931357749
 20
8.8347183763
 30
0.0
 10
15.1930556396
 20
8.8183433132
 30
0.0
 10
15.1928183839
 20
8.8024628582
 30
0.0
 10
15.1924319915
 20
8.7875569175
 30
0.0
 10
15.191908302
 20
8.7740753594
 30
0.0
 10
15.1913516613
 20
8.7639233599
 30
0.0
 10
15.1908336418
 20
8.7568170883
 30
0.0
 10
15.1904419682
 20
8.7523431013
 30
0.0
 10
15.1900317658
 20
8.7484912456
 30
0.0
 10
15.1896057299
 20
8.7452912077
 30
0.0
 10
15.1892216865
 20
8.7430462658
 30
0.0
 10
15.1888963044
 20
8.7415986516
 30
0.0
 10
15.1887302917
 20
8.7409925672
 30
0.0
 10
15.1886444639
 20
8.7407204498
 30
0.0
  0
SPLINE
  5
444
100
AcDbEntity
  8
0
100
AcDbSpline
 62
7
  6
CONTINUOUS
 70
0
 71
3
 72
31
 73
27
 74
0
 42
0.0000001
 43
0.0000001
 44
0.0000000001
 40
0.0
 40
0.0
 40
0.0
 40
0.0
 40
0.0045427955
 40
0.0099982008
 40
0.0236192478
 40
0.0407860587
 40
0.0613941629
 40
0.0852892328
 40
0.1122904516
 40
0.1748351835
 40
0.2471553074
 40
0.3270913099
 40
0.4122291347
 40
0.5000112996
 40
0.5877925528
 40
0.6729287406
 40
0.7528613449
 40
0.8251778187
 40
0.887719003
 40
0.9147181229
 40
0.9386108413
 40
0.9592172503
 40
0.9763825615
 40
0.9900023334
 40
0.9954573477
 40
1.0
 40
1.0
 40
1.0
 40
1.0
 10
15.1678223367
 20
8.690451388
 30
0.0
 10
15.167690606
 20
8.6901982746
 30
0.0
 10
15.1673794062
 20
8.6896522933
 30
0.0
 10
15.1665857917
 20
8.6883985095
 30
0.0
 10
15.1652698043
 20
8.6865393871
 30
0.0
 10
15.1633081162
 20
8.6839751446
 30
0.0
 10
15.1608742854
 20
8.6809611395
 30
0.0
 10
15.1579873824
 20
8.6775203218
 30
0.0
 10
15.1533284376
 20
8.6721287697
 30
0.0
 10
15.1465430723
 20
8.6645562118
 30
0.0
 10
15.1373800092
 20
8.654652531
 30
0.0
 10
15.1271127154
 20
8.6438388676
 30
0.0
 10
15.1160510306
 20
8.6324416691
 30
0.0
 10
15.1045286695
 20
8.6208060479
 30
0.0
 10
15.0928930872
 20
8.6092837939
 30
0.0
 10
15.0814961446
 20
8.5982223816
 30
0.0
 10
15.0706828322
 20
8.5879555105
 30
0.0
 10
15.0607796266
 20
8.5787929139
 30
0.0
 10
15.0532074746
 20
8.5720079706
 30
0.0
 10
15.0478162866
 20
8.5673493728
 30
0.0
 10
15.044375745
 20
8.5644627413
 30
0.0
 10
15.0413620148
 20
8.5620291249
 30
0.0
 10
15.0387979935
 20
8.5600676093
 30
0.0
 10
15.0369390202
 20
8.5587517554
 30
0.0
 10
15.0356853224
 20
8.5579582174
 30
0.0
 10
15.0351393673
 20
8.5576470397
 30
0.0
 10
15.0348862619
 20
8.5575153132
 30
0.0
  0
SPLINE
  5
445
100
AcDbEntity
  8
0
100
AcDbSpline
 62
7
  6
CONTINUOUS
 70
0
 71
3
 72
31
 73
27
 74
0
 42
0.0000001
 43
0.0000001
 44
0.0000000001
 40
0.0
 40
0.0
 40
0.0
 40
0.0
 40
0.0045427955
 40
0.0099982008
 40
0.0236192478
 40
0.0407860587
 40
0.0613941629
 40
0.0852892328
 40
0.1122904516
 40
0.1748351835
 40
0.2471553074
 40
0.3270913099
 40
0.4122291347
 40
0.5000112996
 40
0.5877925528
 40
0.6729287406
 40
0.7528613449
 40
0.8251778187
 40
0.887719003
 40
0.9147181229
 40
0.9386108413
 40
0.9592172503
 40
0.9763825615
 40
0.9900023334
 40
0.9954573477
 40
1.0
 40
1.0
 40
1.0
 40
1.0
 10
14.6134120634
 20
8.9789895117
 30
0.0
 10
14.6135437941
 20
8.9792426251
 30
0.0
 10
14.6138549939
 20
8.9797886064
 30
0.0
 10
14.6146486084
 20
8.9810423902
 30
0.0
 10
14.6159645957
 20
8.9829015125
 30
0.0
 10
14.6179262838
 20
8.9854657551
 30
0.0
 10
14.6203601147
 20
8.9884797602
 30
0.0
 10
14.6232470177
 20
8.9919205779
 30
0.0
 10
14.6279059624
 20
8.99731213
 30
0.0
 10
14.6346913278
 20
9.0048846879
 30
0.0
 10
14.6438543908
 20
9.0147883687
 30
0.0
 10
14.6541216846
 20
9.0256020321
 30
0.0
 10
14.6651833695
 20
9.0369992305
 30
0.0
 10
14.6767057305
 20
9.0486348518
 30
0.0
 10
14.6883413129
 20
9.0601571057
 30
0.0
 10
14.6997382555
 20
9.071218518
 30
0.0
 10
14.7105515679
 20
9.0814853891
 30
0.0
 10
14.7204547734
 20
9.0906479858
 30
0.0
 10
14.7280269255
 20
9.0974329291
 30
0.0
 10
14.7334181135
 20
9.1020915269
 30
0.0
 10
14.736858655
 20
9.1049781584
 30
0.0
 10
14.7398723853
 20
9.1074117748
 30
0.0
 10
14.7424364066
 20
9.1093732903
 30
0.0
 10
14.7442953799
 20
9.1106891443
 30
0.0
 10
14.7455490777
 20
9.1114826823
 30
0.0
 10
14.7460950328
 20
9.1117938599
 30
0.0
 10
14.7463481382
 20
9.1119255865
 30
0.0
  0
SPLINE
  5
446
100
AcDbEntity
  8
0
100
AcDbSpline
 62
7
  6
CONTINUOUS
 70
0
 71
3
 72
19
 73
15
 74
0
 42
0.0000001
 43
0.0000001
 44
0.0000000001
 40
0.0
 40
0.0
 40
0.0
 40
0.0
 40
0.00908538
 40
0.0199955292
 40
0.0472351893
 40
0.0815653133
 40
0.1227764195
 40
0.1705600435
 40
0.2245592318
 40
0.3496554106
 40
0.4942737147
 40
0.6541164184
 40
0.8245429555
 40
1.0
 40
1.0
 40
1.0
 40
1.0
 10
14.7966172
 20
9.1327477137
 30
0.0
 10
14.7968893196
 20
9.1328335422
 30
0.0
 10
14.7974954106
 20
9.1329995547
 30
0.0
 10
14.7989430358
 20
9.1333249328
 30
0.0
 10
14.8011879707
 20
9.133708968
 30
0.0
 10
14.8043879434
 20
9.1341349941
 30
0.0
 10
14.8082396716
 20
9.1345452006
 30
0.0
 10
14.812713576
 20
9.1349368916
 30
0.0
 10
14.8198202532
 20
9.1354549464
 30
0.0
 10
14.8299722619
 20
9.1360114919
 30
0.0
 10
14.8434530806
 20
9.1365352795
 30
0.0
 10
14.8583626969
 20
9.136921905
 30
0.0
 10
14.8742439677
 20
9.1371587527
 30
0.0
 10
14.88510682
 20
9.1372120979
 30
0.0
 10
14.8906172
 20
9.1372120979
 30
0.0
  0
SPLINE
  5
447
100
AcDbEntity
  8
0
100
AcDbSpline
 62
7
  6
CONTINUOUS
 70
0
 71
3
 72
19
 73
15
 74
0
 42
0.0000001
 43
0.0000001
 44
0.0000000001
 40
0.0
 40
0.0
 40
0.0
 40
0.0
 40
0.1754571043
 40
0.3458837679
 40
0.5057265064
 40
0.6503447831
 40
0.7754409343
 40
0.8294400945
 40
0.8772236797
 40
0.9184347559
 40
0.9527648501
 40
0.9800044828
 40
0.9909146232
 40
1.0
 40
1.0
 40
1.0
 40
1.0
 10
14.8906172
 20
8.5322288017
 30
0.0
 10
14.8851068181
 20
8.5322288017
 30
0.0
 10
14.8742439599
 20
8.5322821472
 30
0.0
 10
14.8583626822
 20
8.5325189949
 30
0.0
 10
14.8434530618
 20
8.5329056208
 30
0.0
 10
14.8299722436
 20
8.5334294087
 30
0.0
 10
14.8198202376
 20
8.5339859543
 30
0.0
 10
14.8127135633
 20
8.534504009
 30
0.0
 10
14.8082396621
 20
8.5348957001
 30
0.0
 10
14.8043879369
 20
8.5353059061
 30
0.0
 10
14.8011879669
 20
8.535731932
 30
0.0
 10
14.798943034
 20
8.536115967
 30
0.0
 10
14.7974954101
 20
8.5364413451
 30
0.0
 10
14.7968893195
 20
8.5366073575
 30
0.0
 10
14.7966172
 20
8.536693186
 30
0.0
  0
SPLINE
  5
448
100
AcDbEntity
  8
0
100
AcDbSpline
 62
7
  6
CONTINUOUS
 70
0
 71
3
 72
31
 73
27
 74
0
 42
0.0000001
 43
0.0000001
 44
0.0000000001
 40
0.0
 40
0.0
 40
0.0
 40
0.0
 40
0.0045427955
 40
0.0099982008
 40
0.0236192478
 40
0.0407860587
 40
0.0613941629
 40
0.0852892328
 40
0.1122904516
 40
0.1748351834
 40
0.2471553074
 40
0.3270913099
 40
0.4122291347
 40
0.5000112995
 40
0.5877925528
 40
0.6729287406
 40
0.7528613449
 40
0.8251778187
 40
0.887719003
 40
0.9147181229
 40
0.9386108413
 40
0.9592172503
 40
0.9763825615
 40
0.9900023334
 40
0.9954573477
 40
1.0
 40
1.0
 40
1.0
 40
1.0
 10
14.7463481382
 20
8.5575153132
 30
0.0
 10
14.7460950248
 20
8.5576470439
 30
0.0
 10
14.7455490435
 20
8.5579582437
 30
0.0
 10
14.7442952597
 20
8.5587518582
 30
0.0
 10
14.7424361373
 20
8.5600678455
 30
0.0
 10
14.7398718948
 20
8.5620295336
 30
0.0
 10
14.7368578897
 20
8.5644633645
 30
0.0
 10
14.733417072
 20
8.5673502675
 30
0.0
 10
14.7280255199
 20
8.5720092122
 30
0.0
 10
14.720452962
 20
8.5787945776
 30
0.0
 10
14.7105492812
 20
8.5879576406
 30
0.0
 10
14.6997356178
 20
8.5982249344
 30
0.0
 10
14.6883384193
 20
8.6092866193
 30
0.0
 10
14.6767027981
 20
8.6208089803
 30
0.0
 10
14.6651805441
 20
8.6324445627
 30
0.0
 10
14.6541191318
 20
8.6438415053
 30
0.0
 10
14.6438522607
 20
8.6546548177
 30
0.0
 10
14.6346896641
 20
8.6645580232
 30
0.0
 10
14.6279047208
 20
8.6721301753
 30
0.0
 10
14.623246123
 20
8.6775213633
 30
0.0
 10
14.6203594915
 20
8.6809619048
 30
0.0
 10
14.6179258751
 20
8.6839756351
 30
0.0
 10
14.6159643595
 20
8.6865396564
 30
0.0
 10
14.6146485056
 20
8.6883986297
 30
0.0
 10
14.6138549676
 20
8.6896523275
 30
0.0
 10
14.6135437899
 20
8.6901982826
 30
0.0
 10
14.6134120634
 20
8.690451388
 30
0.0
  0
SPLINE
  5
449
100
AcDbEntity
  8
0
100
AcDbSpline
 62
7
  6
CONTINUOUS
 70
0
 71
3
 72
31
 73
27
 74
0
 42
0.0000001
 43
0.0000001
 44
0.0000000001
 40
0.0
 40
0.0
 40
0.0
 40
0.0
 40
0.0045427955
 40
0.0099982008
 40
0.0236192478
 40
0.0407860587
 40
0.0613941629
 40
0.0852892328
 40
0.1122904516
 40
0.1748351834
 40
0.2471553074
 40
0.3270913099
 40
0.4122291347
 40
0.5000112996
 40
0.5877925528
 40
0.6729287406
 40
0.7528613449
 40
0.8251778187
 40
0.887719003
 40
0.9147181229
 40
0.9386108413
 40
0.9592172503
 40
0.9763825615
 40
0.9900023334
 40
0.9954573477
 40
1.0
 40
1.0
 40
1.0
 40
1.0
 10
14.5925899362
 20
8.7407204498
 30
0.0
 10
14.5925041057
 20
8.7409925757
 30
0.0
 10
14.5923380901
 20
8.7415986943
 30
0.0
 10
14.5920127012
 20
8.7430464235
 30
0.0
 10
14.5916286468
 20
8.7452915651
 30
0.0
 10
14.5912025765
 20
8.7484918814
 30
0.0
 10
14.5907923313
 20
8.7523440831
 30
0.0
 10
14.5904006545
 20
8.7568184574
 30
0.0
 10
14.5898826229
 20
8.7639252318
 30
0.0
 10
14.5893259936
 20
8.7740778168
 30
0.0
 10
14.5888022978
 20
8.7875600406
 30
0.0
 10
14.5884159562
 20
8.8024665284
 30
0.0
 10
14.5881787122
 20
8.818347357
 30
0.0
 10
14.5880986252
 20
8.8347225234
 30
0.0
 10
14.5881787604
 20
8.8510975865
 30
0.0
 10
14.5884160162
 20
8.8669780415
 30
0.0
 10
14.5888024085
 20
8.8818839822
 30
0.0
 10
14.5893260981
 20
8.8953655402
 30
0.0
 10
14.5898827388
 20
8.9055175397
 30
0.0
 10
14.5904007583
 20
8.9126238114
 30
0.0
 10
14.5907924318
 20
8.9170977984
 30
0.0
 10
14.5912026343
 20
8.9209496541
 30
0.0
 10
14.5916286702
 20
8.924149692
 30
0.0
 10
14.5920127135
 20
8.9263946338
 30
0.0
 10
14.5923380957
 20
8.9278422481
 30
0.0
 10
14.5925041084
 20
8.9284483325
 30
0.0
 10
14.5925899362
 20
8.9287204498
 30
0.0
  0
SPLINE
  5
44A
100
AcDbEntity
  8
0
100
AcDbSpline
 62
7
  6
CONTINUOUS
 70
0
 71
3
 72
14
 73
10
 74
0
 42
0.0000001
 43
0.0000001
 44
0.0000000001
 40
0.0
 40
0.0
 40
0.0
 40
0.0
 40
0.3713723378
 40
0.6875641171
 40
0.8097394398
 40
0.9026112067
 40
0.9375298604
 40
0.9648932639
 40
1.0
 40
1.0
 40
1.0
 40
1.0
 10
14.9406172
 20
9.1559944597
 30
0.0
 10
14.9412588048
 20
9.1559735189
 30
0.0
 10
14.9424455704
 20
9.1558986036
 30
0.0
 10
14.9438362676
 20
9.1557241857
 30
0.0
 10
14.9447346579
 20
9.1555290288
 30
0.0
 10
14.94514805
 20
9.1554031038
 30
0.0
 10
14.9453936037
 20
9.1552888992
 30
0.0
 10
14.9455331284
 20
9.1552029589
 30
0.0
 10
14.9456172
 20
9.1551083421
 30
0.0
 10
14.9456172
 20
9.1550476574
 30
0.0
  0
SPLINE
  5
44B
100
AcDbEntity
  8
0
100
AcDbSpline
 62
7
  6
CONTINUOUS
 70
0
 71
3
 72
14
 73
10
 74
0
 42
0.0000001
 43
0.0000001
 44
0.0000000001
 40
0.0
 40
0.0
 40
0.0
 40
0.0
 40
0.0414546129
 40
0.1028625869
 40
0.18991717
 40
0.3036695635
 40
0.4436680631
 40
0.6080126096
 40
1.0
 40
1.0
 40
1.0
 40
1.0
 10
14.8406172
 20
9.1552191047
 30
0.0
 10
14.8406172
 20
9.1552564068
 30
0.0
 10
14.8406656145
 20
9.1553452188
 30
0.0
 10
14.8408066357
 20
9.1554431698
 30
0.0
 10
14.8410206419
 20
9.1555445993
 30
0.0
 10
14.8413117919
 20
9.1556421796
 30
0.0
 10
14.8416762657
 20
9.1557362727
 30
0.0
 10
14.8422904157
 20
9.1558613926
 30
0.0
 10
14.8427865131
 20
9.1559319689
 30
0.0
 10
14.8431367881
 20
9.1559734476
 30
0.0
  0
LINE
  5
44C
100
AcDbEntity
  8
0
100
AcDbLine
 62
7
  6
CONTINUOUS
 10
14.8431367881
 20
9.1559734476
 11
14.8456172
 21
9.1561494837
  0
LINE
  5
44D
100
AcDbEntity
  8
0
100
AcDbLine
 62
7
  6
CONTINUOUS
 10
15.1923309411
 20
9.1450280097
 11
15.1900853325
 21
9.1454725905
  0
LINE
  5
44E
100
AcDbEntity
  8
0
100
AcDbLine
 62
7
  6
CONTINUOUS
 10
15.1900853325
 20
9.1454725905
 11
15.1893326183
 21
9.1456208392
  0
LINE
  5
44F
100
AcDbEntity
  8
0
100
AcDbLine
 62
7
  6
CONTINUOUS
 10
14.9036359087
 20
9.1746554474
 11
14.9291978934
 21
9.1741584774
  0
SPLINE
  5
450
100
AcDbEntity
  8
0
100
AcDbSpline
 62
7
  6
CONTINUOUS
 70
0
 71
3
 72
20
 73
16
 74
0
 42
0.0000001
 43
0.0000001
 44
0.0000000001
 40
0.0
 40
0.0
 40
0.0
 40
0.0
 40
0.2113104732
 40
0.4018000976
 40
0.5702624819
 40
0.7147714195
 40
0.7773542045
 40
0.8330286863
 40
0.881436222
 40
0.9221997375
 40
0.9548218883
 40
0.9787797399
 40
0.9936412394
 40
0.9977228737
 40
1.0
 40
1.0
 40
1.0
 40
1.0
 10
14.9291978934
 20
9.1741584774
 30
0.0
 10
14.9300049884
 20
9.1741308766
 30
0.0
 10
14.9315395376
 20
9.1740748887
 30
0.0
 10
14.9337169942
 20
9.1739831003
 30
0.0
 10
14.9356387746
 20
9.173888682
 30
0.0
 10
14.937071638
 20
9.1738052923
 30
0.0
 10
14.9380735151
 20
9.1737365458
 30
0.0
 10
14.9387085611
 20
9.1736875467
 30
0.0
 10
14.9392600451
 20
9.1736387994
 30
0.0
 10
14.9397228704
 20
9.1735908403
 30
0.0
 10
14.9400924361
 20
9.1735437767
 30
0.0
 10
14.9403608202
 20
9.1734996571
 30
0.0
 10
14.9405222915
 20
9.1734597672
 30
0.0
 10
14.9405951916
 20
9.1734277308
 30
0.0
 10
14.9406135739
 20
9.1734066933
 30
0.0
 10
14.9406135353
 20
9.1733979909
 30
0.0
  0
LINE
  5
451
100
AcDbEntity
  8
0
100
AcDbLine
 62
7
  6
CONTINUOUS
 10
15.1890991892
 20
9.1393183593
 11
15.1904363544
 21
9.1390966601
  0
LINE
  5
452
100
AcDbEntity
  8
0
100
AcDbLine
 62
7
  6
CONTINUOUS
 10
15.2094744101
 20
9.1343216331
 11
15.2100231215
 21
9.134101682
  0
LINE
  5
453
100
AcDbEntity
  8
0
100
AcDbLine
 62
7
  6
CONTINUOUS
 10
15.1917148924
 20
9.1387857334
 11
15.1904363544
 21
9.1390966601
  0
LINE
  5
454
100
AcDbEntity
  8
0
100
AcDbLine
 62
7
  6
CONTINUOUS
 10
14.6029407749
 20
9.1439515083
 11
14.5988628594
 21
9.1433096728
  0
LINE
  5
455
100
AcDbEntity
  8
0
100
AcDbLine
 62
7
  6
CONTINUOUS
 10
14.5899518389
 20
9.1415177873
 11
14.5842221935
 21
9.1399933828
  0
LINE
  5
456
100
AcDbEntity
  8
0
100
AcDbLine
 62
7
  6
CONTINUOUS
 10
14.5842221935
 20
9.1399933828
 11
14.582779954
 21
9.1394276684
  0
SPLINE
  5
457
100
AcDbEntity
  8
0
100
AcDbSpline
 62
7
  6
CONTINUOUS
 70
0
 71
3
 72
15
 73
11
 74
0
 42
0.0000001
 43
0.0000001
 44
0.0000000001
 40
0.0
 40
0.0
 40
0.0
 40
0.0
 40
0.0251071335
 40
0.0471295868
 40
0.0763506442
 40
0.1569530379
 40
0.267244699
 40
0.4069628131
 40
0.5758408745
 40
1.0
 40
1.0
 40
1.0
 40
1.0
 10
14.9606170242
 20
9.1726230379
 30
0.0
 10
14.9606172696
 20
9.1726531921
 30
0.0
 10
14.9605621626
 20
9.1726966208
 30
0.0
 10
14.9604828291
 20
9.1727329819
 30
0.0
 10
14.960331027
 20
9.1727858228
 30
0.0
 10
14.9600744449
 20
9.1728449694
 30
0.0
 10
14.9596826588
 20
9.1729138211
 30
0.0
 10
14.959184373
 20
9.1729822642
 30
0.0
 10
14.9583097725
 20
9.1730816913
 30
0.0
 10
14.957600077
 20
9.1731431538
 30
0.0
 10
14.9570922106
 20
9.1731831683
 30
0.0
  0
LINE
  5
458
100
AcDbEntity
  8
0
100
AcDbLine
 62
7
  6
CONTINUOUS
 10
14.9570922106
 20
9.1731831683
 11
14.9473763723
 21
9.1736813214
  0
LINE
  5
459
100
AcDbEntity
  8
0
100
AcDbLine
 62
7
  6
CONTINUOUS
 10
14.582779954
 20
9.1394276684
 11
14.5818274477
 21
9.1388171797
  0
LINE
  5
45A
100
AcDbEntity
  8
0
100
AcDbLine
 62
7
  6
CONTINUOUS
 10
14.5818274477
 20
9.1388171797
 11
14.5816520964
 21
9.1385400451
  0
LINE
  5
45B
100
AcDbEntity
  8
0
100
AcDbLine
 62
7
  6
CONTINUOUS
 10
14.5781122227
 20
9.1347937291
 11
14.5724991173
 21
9.1343481466
  0
SPLINE
  5
45C
100
AcDbEntity
  8
0
100
AcDbSpline
 62
7
  6
CONTINUOUS
 70
0
 71
3
 72
11
 73
7
 74
0
 42
0.0000001
 43
0.0000001
 44
0.0000000001
 40
0.0
 40
0.0
 40
0.0
 40
0.0
 40
0.3554611959
 40
0.640337253
 40
0.8544774632
 40
1.0
 40
1.0
 40
1.0
 40
1.0
 10
14.5724991173
 20
9.1343481466
 30
0.0
 10
14.5721790813
 20
9.1343412844
 30
0.0
 10
14.5716024726
 20
9.1343388202
 30
0.0
 10
14.5708324998
 20
9.1343769502
 30
0.0
 10
14.5702584021
 20
9.13445572
 30
0.0
 10
14.5699421119
 20
9.1345478916
 30
0.0
 10
14.5698282378
 20
9.1346127513
 30
0.0
  0
LINE
  5
45D
100
AcDbEntity
  8
0
100
AcDbLine
 62
7
  6
CONTINUOUS
 10
14.5698282378
 20
9.1346127513
 11
14.5696527579
 21
9.1348489769
  0
SPLINE
  5
45E
100
AcDbEntity
  8
0
100
AcDbSpline
 62
7
  6
CONTINUOUS
 70
0
 71
3
 72
11
 73
7
 74
0
 42
0.0000001
 43
0.0000001
 44
0.0000000001
 40
0.0
 40
0.0
 40
0.0
 40
0.0
 40
0.1899433555
 40
0.4022701033
 40
0.6668689641
 40
1.0
 40
1.0
 40
1.0
 40
1.0
 10
14.6236897804
 20
9.1443579278
 30
0.0
 10
14.6236895897
 20
9.1444269157
 30
0.0
 10
14.6236530622
 20
9.1445751619
 30
0.0
 10
14.6234914616
 20
9.1447634453
 30
0.0
 10
14.6232406776
 20
9.1449217471
 30
0.0
 10
14.6230381287
 20
9.1450023923
 30
0.0
 10
14.6229234772
 20
9.145041054
 30
0.0
  0
SPLINE
  5
45F
100
AcDbEntity
  8
0
100
AcDbSpline
 62
7
  6
CONTINUOUS
 70
0
 71
3
 72
10
 73
6
 74
0
 42
0.0000001
 43
0.0000001
 44
0.0000000001
 40
0.0
 40
0.0
 40
0.0
 40
0.0
 40
0.1765325651
 40
0.4018059126
 40
1.0
 40
1.0
 40
1.0
 40
1.0
 10
14.6229234772
 20
9.145041054
 30
0.0
 10
14.6227082043
 20
9.1451136463
 30
0.0
 10
14.6222024152
 20
9.1452306757
 30
0.0
 10
14.6209254214
 20
9.145395497
 30
0.0
 10
14.6198632643
 20
9.1454227995
 30
0.0
 10
14.6190934381
 20
9.145423732
 30
0.0
  0
LINE
  5
460
100
AcDbEntity
  8
0
100
AcDbLine
 62
7
  6
CONTINUOUS
 10
14.6190934381
 20
9.145423732
 11
14.6122957784
 21
9.1450543338
  0
SPLINE
  5
461
100
AcDbEntity
  8
0
100
AcDbSpline
 62
7
  6
CONTINUOUS
 70
0
 71
3
 72
12
 73
8
 74
0
 42
0.0000001
 43
0.0000001
 44
0.0000000001
 40
0.0
 40
0.0
 40
0.0
 40
0.0
 40
0.0392915673
 40
0.0999521419
 40
0.2986351369
 40
0.601334014
 40
1.0
 40
1.0
 40
1.0
 40
1.0
 10
15.1827053845
 20
9.1380057029
 30
0.0
 10
15.1827054587
 20
9.1379637727
 30
0.0
 10
15.1827604977
 20
9.1378624546
 30
0.0
 10
15.183003584
 20
9.13765785
 30
0.0
 10
15.1835430415
 20
9.1373802681
 30
0.0
 10
15.1844324462
 20
9.1370234105
 30
0.0
 10
15.1851429676
 20
9.1367843469
 30
0.0
 10
15.1855483163
 20
9.1366551551
 30
0.0
  0
LINE
  5
462
100
AcDbEntity
  8
0
100
AcDbLine
 62
7
  6
CONTINUOUS
 10
15.1855483163
 20
9.1366551551
 11
15.1880489535
 21
9.1359314423
  0
LINE
  5
463
100
AcDbEntity
  8
0
100
AcDbLine
 62
7
  6
CONTINUOUS
 10
15.1845561669
 20
9.1417375921
 11
15.1793167518
 21
9.1431690262
  0
LINE
  5
464
100
AcDbEntity
  8
0
100
AcDbLine
 62
7
  6
CONTINUOUS
 10
15.1793167518
 20
9.1431690262
 11
15.178405045
 21
9.1436189576
  0
LINE
  5
465
100
AcDbEntity
  8
0
100
AcDbLine
 62
7
  6
CONTINUOUS
 10
15.178405045
 20
9.1436189576
 11
15.1756991329
 21
9.1442260705
  0
LINE
  5
466
100
AcDbEntity
  8
0
100
AcDbLine
 62
7
  6
CONTINUOUS
 10
15.1756991329
 20
9.1442260705
 11
15.1730027432
 21
9.1448248772
  0
LINE
  5
467
100
AcDbEntity
  8
0
100
AcDbLine
 62
7
  6
CONTINUOUS
 10
15.1730027432
 20
9.1448248772
 11
15.1703158985
 21
9.1454154454
  0
LINE
  5
468
100
AcDbEntity
  8
0
100
AcDbLine
 62
7
  6
CONTINUOUS
 10
15.1703158985
 20
9.1454154454
 11
15.1633094378
 21
9.145560042
  0
LINE
  5
469
100
AcDbEntity
  8
0
100
AcDbLine
 62
7
  6
CONTINUOUS
 10
15.1633094378
 20
9.145560042
 11
15.159794991
 21
9.1456205106
  0
SPLINE
  5
46A
100
AcDbEntity
  8
0
100
AcDbSpline
 62
7
  6
CONTINUOUS
 70
0
 71
3
 72
12
 73
8
 74
0
 42
0.0000001
 43
0.0000001
 44
0.0000000001
 40
0.0
 40
0.0
 40
0.0
 40
0.0
 40
0.0326925993
 40
0.0825477442
 40
0.2488165944
 40
0.531330911
 40
1.0
 40
1.0
 40
1.0
 40
1.0
 10
14.5619591687
 20
9.1378838714
 30
0.0
 10
14.5619591469
 20
9.1378529851
 30
0.0
 10
14.561922728
 20
9.1377779482
 30
0.0
 10
14.5617518423
 20
9.1376167706
 30
0.0
 10
14.5613398339
 20
9.1373777087
 30
0.0
 10
14.5605470691
 20
9.1370303648
 30
0.0
 10
14.5598745346
 20
9.1367988072
 30
0.0
 10
14.5594526134
 20
9.1366645253
 30
0.0
  0
LINE
  5
46B
100
AcDbEntity
  8
0
100
AcDbLine
 62
7
  6
CONTINUOUS
 10
14.5594526134
 20
9.1366645253
 11
14.5567092573
 21
9.1359170563
  0
LINE
  5
46C
100
AcDbEntity
  8
0
100
AcDbLine
 62
7
  6
CONTINUOUS
 10
14.5567092573
 20
9.1359170563
 11
14.553115198
 21
9.1351682566
  0
LINE
  5
46D
100
AcDbEntity
  8
0
100
AcDbLine
 62
7
  6
CONTINUOUS
 10
15.1740143267
 20
9.1395233814
 11
15.1764815804
 21
9.1396114452
  0
LINE
  5
46E
100
AcDbEntity
  8
0
100
AcDbLine
 62
7
  6
CONTINUOUS
 10
15.183511436
 20
9.140656537
 11
15.1827188253
 21
9.1406607864
  0
LINE
  5
46F
100
AcDbEntity
  8
0
100
AcDbLine
 62
7
  6
CONTINUOUS
 10
15.1827188253
 20
9.1406607864
 11
15.1823683046
 21
9.140663752
  0
LINE
  5
470
100
AcDbEntity
  8
0
100
AcDbLine
 62
7
  6
CONTINUOUS
 10
15.1823683046
 20
9.140663752
 11
15.1817144422
 21
9.1407405897
  0
LINE
  5
471
100
AcDbEntity
  8
0
100
AcDbLine
 62
7
  6
CONTINUOUS
 10
15.1898999453
 20
9.145586505
 11
15.1896249024
 21
9.1455843253
  0
LINE
  5
472
100
AcDbEntity
  8
0
100
AcDbLine
 62
7
  6
CONTINUOUS
 10
15.1896249024
 20
9.1455843253
 11
15.1893326183
 21
9.1456208392
  0
LINE
  5
473
100
AcDbEntity
  8
0
100
AcDbLine
 62
7
  6
CONTINUOUS
 10
15.1817144422
 20
9.1407405897
 11
15.178756182
 21
9.1412364247
  0
LINE
  5
474
100
AcDbEntity
  8
0
100
AcDbLine
 62
7
  6
CONTINUOUS
 10
15.1523972592
 20
9.1453771568
 11
15.1514659392
 21
9.1455143665
  0
LINE
  5
475
100
AcDbEntity
  8
0
100
AcDbLine
 62
7
  6
CONTINUOUS
 10
15.1514659392
 20
9.1455143665
 11
15.1465027021
 21
9.1453874112
  0
LINE
  5
476
100
AcDbEntity
  8
0
100
AcDbLine
 62
7
  6
CONTINUOUS
 10
15.1465027021
 20
9.1453874112
 11
15.1440136297
 21
9.1452182413
  0
SPLINE
  5
477
100
AcDbEntity
  8
0
100
AcDbSpline
 62
7
  6
CONTINUOUS
 70
0
 71
3
 72
18
 73
14
 74
0
 42
0.0000001
 43
0.0000001
 44
0.0000000001
 40
0.0
 40
0.0
 40
0.0
 40
0.0
 40
0.2278361383
 40
0.4268743954
 40
0.5968919231
 40
0.7375962691
 40
0.8485854371
 40
0.9293198564
 40
0.9581951122
 40
0.9793534591
 40
0.9870733675
 40
0.9929547405
 40
1.0
 40
1.0
 40
1.0
 40
1.0
 10
14.8314675529
 20
9.1735881638
 30
0.0
 10
14.8306373644
 20
9.1735536794
 30
0.0
 10
14.8290821014
 20
9.1734845612
 30
0.0
 10
14.8269082115
 20
9.1733709186
 30
0.0
 10
14.825052756
 20
9.1732545397
 30
0.0
 10
14.8235192342
 20
9.1731367448
 30
0.0
 10
14.8223126714
 20
9.1730172703
 30
0.0
 10
14.8215147836
 20
9.1729124222
 30
0.0
 10
14.8210462433
 20
9.1728203331
 30
0.0
 10
14.8208428315
 20
9.1727675367
 30
0.0
 10
14.8207233442
 20
9.1727207635
 30
0.0
 10
14.8206588757
 20
9.1726876488
 30
0.0
 10
14.820617135
 20
9.1726488861
 30
0.0
 10
14.8206172372
 20
9.1726231927
 30
0.0
  0
SPLINE
  5
478
100
AcDbEntity
  8
0
100
AcDbSpline
 62
7
  6
CONTINUOUS
 70
0
 71
3
 72
12
 73
8
 74
0
 42
0.0000001
 43
0.0000001
 44
0.0000000001
 40
0.0
 40
0.0
 40
0.0
 40
0.0
 40
0.0329026656
 40
0.08300321
 40
0.249738355
 40
0.5324975818
 40
1.0
 40
1.0
 40
1.0
 40
1.0
 10
14.561959146
 20
9.1368595169
 30
0.0
 10
14.5619591726
 20
9.1368288168
 30
0.0
 10
14.5619232404
 20
9.1367542031
 30
0.0
 10
14.5617541273
 20
9.1365940756
 30
0.0
 10
14.561346961
 20
9.136356682
 30
0.0
 10
14.5605648854
 20
9.1360125961
 30
0.0
 10
14.5599018815
 20
9.1357831042
 30
0.0
 10
14.5594864323
 20
9.1356501457
 30
0.0
  0
LINE
  5
479
100
AcDbEntity
  8
0
100
AcDbLine
 62
7
  6
CONTINUOUS
 10
14.6030591256
 20
9.1403950881
 11
14.6028015079
 21
9.1407184077
  0
SPLINE
  5
47A
100
AcDbEntity
  8
0
100
AcDbSpline
 62
7
  6
CONTINUOUS
 70
0
 71
3
 72
17
 73
13
 74
0
 42
0.0000001
 43
0.0000001
 44
0.0000000001
 40
0.0
 40
0.0
 40
0.0
 40
0.0
 40
0.0839331793
 40
0.1988380953
 40
0.3378680906
 40
0.4923018362
 40
0.6528681376
 40
0.8026595858
 40
0.8676670422
 40
0.9232860599
 40
0.9677488631
 40
1.0
 40
1.0
 40
1.0
 40
1.0
 10
14.6028015079
 20
9.1407184077
 30
0.0
 10
14.6026526929
 20
9.140796358
 30
0.0
 10
14.6022647318
 20
9.140906526
 30
0.0
 10
14.601597436
 20
9.1410095755
 30
0.0
 10
14.6007820871
 20
9.1410793684
 30
0.0
 10
14.5998747131
 20
9.1411271149
 30
0.0
 10
14.598944986
 20
9.1411593873
 30
0.0
 10
14.5981942313
 20
9.1411935755
 30
0.0
 10
14.5976550486
 20
9.141240719
 30
0.0
 10
14.5973270928
 20
9.1412847259
 30
0.0
 10
14.5970685201
 20
9.1413408109
 30
0.0
 10
14.5969225015
 20
9.1413951363
 30
0.0
 10
14.5968680614
 20
9.1414298232
 30
0.0
  0
SPLINE
  5
47B
100
AcDbEntity
  8
0
100
AcDbSpline
 62
7
  6
CONTINUOUS
 70
0
 71
3
 72
15
 73
11
 74
0
 42
0.0000001
 43
0.0000001
 44
0.0000000001
 40
0.0
 40
0.0
 40
0.0
 40
0.0
 40
0.2169850465
 40
0.4080205486
 40
0.5722616385
 40
0.7090134966
 40
0.8179014319
 40
0.8993529163
 40
0.9565620578
 40
1.0
 40
1.0
 40
1.0
 40
1.0
 10
15.1764815804
 20
9.140633936
 30
0.0
 10
15.1762481993
 20
9.1406434307
 30
0.0
 10
15.1758090906
 20
9.140656019
 30
0.0
 10
15.1751929812
 20
9.1406541981
 30
0.0
 10
15.1746635751
 20
9.1406309584
 30
0.0
 10
15.1742244673
 20
9.1405866627
 30
0.0
 10
15.1738771252
 20
9.1405224653
 30
0.0
 10
15.1736243245
 20
9.1404376344
 30
0.0
 10
15.1734535019
 20
9.1403300904
 30
0.0
 10
15.1734076252
 20
9.1402210376
 30
0.0
 10
15.1734078287
 20
9.1401742791
 30
0.0
  0
LINE
  5
47C
100
AcDbEntity
  8
0
100
AcDbLine
 62
7
  6
CONTINUOUS
 10
14.5393044668
 20
9.1337375308
 11
14.5389012092
 21
9.1335410688
  0
LINE
  5
47D
100
AcDbEntity
  8
0
100
AcDbLine
 62
7
  6
CONTINUOUS
 10
14.6240127931
 20
9.1434971196
 11
14.6234704746
 21
9.143796704
  0
LINE
  5
47E
100
AcDbEntity
  8
0
100
AcDbLine
 62
7
  6
CONTINUOUS
 10
15.218850777
 20
9.1337999159
 11
15.2115660149
 21
9.1352047351
  0
LINE
  5
47F
100
AcDbEntity
  8
0
100
AcDbLine
 62
7
  6
CONTINUOUS
 10
15.1922535425
 20
9.139920581
 11
15.1907172365
 21
9.1402872728
  0
LINE
  5
480
100
AcDbEntity
  8
0
100
AcDbLine
 62
7
  6
CONTINUOUS
 10
15.1907172365
 20
9.1402872728
 11
15.189401414
 21
9.1405997367
  0
SPLINE
  5
481
100
AcDbEntity
  8
0
100
AcDbSpline
 62
7
  6
CONTINUOUS
 70
0
 71
3
 72
16
 73
12
 74
0
 42
0.0000001
 43
0.0000001
 44
0.0000000001
 40
0.0
 40
0.0
 40
0.0
 40
0.0
 40
0.0237353116
 40
0.0407523614
 40
0.0632087032
 40
0.1326662882
 40
0.2548959446
 40
0.4418328495
 40
0.6469416184
 40
0.8343153727
 40
1.0
 40
1.0
 40
1.0
 40
1.0
 10
14.5871769748
 20
9.1372459315
 30
0.0
 10
14.5871770395
 20
9.1371701336
 30
0.0
 10
14.58711871
 20
9.1370420346
 30
0.0
 10
14.5869800884
 20
9.1368962403
 30
0.0
 10
14.5867019328
 20
9.136684116
 30
0.0
 10
14.5860823395
 20
9.1363846191
 30
0.0
 10
14.5849342797
 20
9.1360015758
 30
0.0
 10
14.5833361918
 20
9.1356157125
 30
0.0
 10
14.5815182271
 20
9.1352695117
 30
0.0
 10
14.5797564019
 20
9.1349968447
 30
0.0
 10
14.5786378479
 20
9.1348543372
 30
0.0
 10
14.5781122227
 20
9.1347937291
 30
0.0
  0
LINE
  5
482
100
AcDbEntity
  8
0
100
AcDbLine
 62
7
  6
CONTINUOUS
 10
14.9456172
 20
9.1620531967
 11
14.9422724519
 21
9.1616382486
  0
LINE
  5
483
100
AcDbEntity
  8
0
100
AcDbLine
 62
7
  6
CONTINUOUS
 10
14.9422724519
 20
9.1616382486
 11
14.9376575758
 21
9.1614326226
  0
LINE
  5
484
100
AcDbEntity
  8
0
100
AcDbLine
 62
7
  6
CONTINUOUS
 10
14.5773561371
 20
9.1408920531
 11
14.5762379811
 21
9.141172845
  0
LINE
  5
485
100
AcDbEntity
  8
0
100
AcDbLine
 62
7
  6
CONTINUOUS
 10
14.5762379811
 20
9.141172845
 11
14.5759716136
 21
9.1412281881
  0
LINE
  5
486
100
AcDbEntity
  8
0
100
AcDbLine
 62
7
  6
CONTINUOUS
 10
14.5915154655
 20
9.1441141466
 11
14.5907863363
 21
9.1436933923
  0
LINE
  5
487
100
AcDbEntity
  8
0
100
AcDbLine
 62
7
  6
CONTINUOUS
 10
14.5907863363
 20
9.1436933923
 11
14.5869928726
 21
9.1425145466
  0
LINE
  5
488
100
AcDbEntity
  8
0
100
AcDbLine
 62
7
  6
CONTINUOUS
 10
14.5858687832
 20
9.1422089664
 11
14.5811539356
 21
9.1410051977
  0
LINE
  5
489
100
AcDbEntity
  8
0
100
AcDbLine
 62
7
  6
CONTINUOUS
 10
14.5481361426
 20
9.1364844267
 11
14.5473955227
 21
9.1362303416
  0
LINE
  5
48A
100
AcDbEntity
  8
0
100
AcDbLine
 62
7
  6
CONTINUOUS
 10
14.5473955227
 20
9.1362303416
 11
14.5460422796
 21
9.1359205283
  0
LINE
  5
48B
100
AcDbEntity
  8
0
100
AcDbLine
 62
7
  6
CONTINUOUS
 10
14.5460422796
 20
9.1359205283
 11
14.5453434018
 21
9.1357608115
  0
SPLINE
  5
48C
100
AcDbEntity
  8
0
100
AcDbSpline
 62
7
  6
CONTINUOUS
 70
0
 71
3
 72
11
 73
7
 74
0
 42
0.0000001
 43
0.0000001
 44
0.0000000001
 40
0.0
 40
0.0
 40
0.0
 40
0.0
 40
0.1644021962
 40
0.389745298
 40
0.6706409208
 40
1.0
 40
1.0
 40
1.0
 40
1.0
 10
14.9456172
 20
9.1694719949
 30
0.0
 10
14.9451279509
 20
9.1693736404
 30
0.0
 10
14.9439544088
 20
9.169212198
 30
0.0
 10
14.9419271687
 20
9.1690270953
 30
0.0
 10
14.9393947907
 20
9.1688758891
 30
0.0
 10
14.9375437007
 20
9.1688043546
 30
0.0
 10
14.9365444158
 20
9.168773586
 30
0.0
  0
LINE
  5
48D
100
AcDbEntity
  8
0
100
AcDbLine
 62
7
  6
CONTINUOUS
 10
14.9365444158
 20
9.168773586
 11
14.9295851618
 21
9.1686648258
  0
LINE
  5
48E
100
AcDbEntity
  8
0
100
AcDbLine
 62
7
  6
CONTINUOUS
 10
14.5408401423
 20
9.1347370024
 11
14.5396172
 21
9.1344628568
  0
SPLINE
  5
48F
100
AcDbEntity
  8
0
100
AcDbSpline
 62
7
  6
CONTINUOUS
 70
0
 71
3
 72
15
 73
11
 74
0
 42
0.0000001
 43
0.0000001
 44
0.0000000001
 40
0.0
 40
0.0
 40
0.0
 40
0.0
 40
0.0376754953
 40
0.0643400381
 40
0.0971927758
 40
0.1825000989
 40
0.2946022134
 40
0.4334955299
 40
0.5984081735
 40
1.0
 40
1.0
 40
1.0
 40
1.0
 10
14.614949465
 20
9.1437287749
 30
0.0
 10
14.6149496362
 20
9.1436536985
 30
0.0
 10
14.6148805192
 20
9.1435312418
 30
0.0
 10
14.6147465487
 20
9.1433944752
 30
0.0
 10
14.6145199505
 20
9.1432131373
 30
0.0
 10
14.6141258378
 20
9.1429766968
 30
0.0
 10
14.6135240951
 20
9.1426805551
 30
0.0
 10
14.6127606887
 20
9.1423571642
 30
0.0
 10
14.6114461848
 20
9.1418586112
 30
0.0
 10
14.6103738032
 20
9.1415042169
 30
0.0
 10
14.6096104217
 20
9.1412640849
 30
0.0
  0
SPLINE
  5
490
100
AcDbEntity
  8
0
100
AcDbSpline
 62
7
  6
CONTINUOUS
 70
0
 71
3
 72
15
 73
11
 74
0
 42
0.0000001
 43
0.0000001
 44
0.0000000001
 40
0.0
 40
0.0
 40
0.0
 40
0.0
 40
0.0600113181
 40
0.0869512751
 40
0.121606563
 40
0.223703275
 40
0.3865458092
 40
0.5969335406
 40
0.8079986827
 40
1.0
 40
1.0
 40
1.0
 40
1.0
 10
14.5871769802
 20
9.1362211508
 30
0.0
 10
14.5871770983
 20
9.1360582545
 30
0.0
 10
14.5869768907
 20
9.1358565475
 30
0.0
 10
14.5867092011
 20
9.1356782509
 30
0.0
 10
14.5863148497
 20
9.135465385
 30
0.0
 10
14.5855566303
 20
9.1351714837
 30
0.0
 10
14.5843139484
 20
9.1348166073
 30
0.0
 10
14.5827647798
 20
9.1344753156
 30
0.0
 10
14.5811256375
 20
9.1341799128
 30
0.0
 10
14.5800435695
 20
9.1340173079
 30
0.0
 10
14.5795272685
 20
9.1339462093
 30
0.0
  0
LINE
  5
491
100
AcDbEntity
  8
0
100
AcDbLine
 62
7
  6
CONTINUOUS
 10
14.546192737
 20
9.1334340749
 11
14.5470174739
 21
9.1333220811
  0
LINE
  5
492
100
AcDbEntity
  8
0
100
AcDbLine
 62
7
  6
CONTINUOUS
 10
14.5470174739
 20
9.1333220811
 11
14.549620925
 21
9.1335912931
  0
SPLINE
  5
493
100
AcDbEntity
  8
0
100
AcDbSpline
 62
7
  6
CONTINUOUS
 70
0
 71
3
 72
14
 73
10
 74
0
 42
0.0000001
 43
0.0000001
 44
0.0000000001
 40
0.0
 40
0.0
 40
0.0
 40
0.0
 40
0.3944212415
 40
0.6999341418
 40
0.8141356761
 40
0.9013461057
 40
0.9348556315
 40
0.9619458454
 40
1.0
 40
1.0
 40
1.0
 40
1.0
 10
15.146197997
 20
9.1414855616
 30
0.0
 10
15.1454981208
 20
9.1416724237
 30
0.0
 10
15.1442623946
 20
9.1420270799
 30
0.0
 10
15.1428466469
 20
9.1425145862
 30
0.0
 10
15.1419960234
 20
9.142894788
 30
0.0
 10
15.1416177277
 20
9.1431037959
 30
0.0
 10
15.1413991303
 20
9.1432674631
 30
0.0
 10
15.1412702086
 20
9.1433916506
 30
0.0
 10
15.1412030878
 20
9.1435051215
 30
0.0
 10
15.1412027694
 20
9.1435750108
 30
0.0
  0
LINE
  5
494
100
AcDbEntity
  8
0
100
AcDbLine
 62
7
  6
CONTINUOUS
 10
15.1413281113
 20
9.1437689928
 11
15.1389566655
 21
9.144375806
  0
LINE
  5
495
100
AcDbEntity
  8
0
100
AcDbLine
 62
7
  6
CONTINUOUS
 10
15.1389566655
 20
9.144375806
 11
15.136592627
 21
9.1449745561
  0
LINE
  5
496
100
AcDbEntity
  8
0
100
AcDbLine
 62
7
  6
CONTINUOUS
 10
15.136592627
 20
9.1449745561
 11
15.1342360145
 21
9.1455653035
  0
SPLINE
  5
497
100
AcDbEntity
  8
0
100
AcDbSpline
 62
7
  6
CONTINUOUS
 70
0
 71
3
 72
15
 73
11
 74
0
 42
0.0000001
 43
0.0000001
 44
0.0000000001
 40
0.0
 40
0.0
 40
0.0
 40
0.0
 40
0.0450067049
 40
0.1028595526
 40
0.1837518834
 40
0.2912174236
 40
0.426404012
 40
0.5896368188
 40
0.7808969309
 40
1.0
 40
1.0
 40
1.0
 40
1.0
 10
14.5696527838
 20
9.1338225726
 30
0.0
 10
14.569652688
 20
9.133776975
 30
0.0
 10
14.5696942014
 20
9.1336718352
 30
0.0
 10
14.5698520855
 20
9.1335633097
 30
0.0
 10
14.5700863213
 20
9.1334763807
 30
0.0
 10
14.5704079046
 20
9.1334077564
 30
0.0
 10
14.5708161637
 20
9.1333571159
 30
0.0
 10
14.571311509
 20
9.1333252719
 30
0.0
 10
14.5718926061
 20
9.1333126591
 30
0.0
 10
14.5723084056
 20
9.1333170699
 30
0.0
 10
14.5725303295
 20
9.1333220811
 30
0.0
  0
SPLINE
  5
498
100
AcDbEntity
  8
0
100
AcDbSpline
 62
7
  6
CONTINUOUS
 70
0
 71
3
 72
14
 73
10
 74
0
 42
0.0000001
 43
0.0000001
 44
0.0000000001
 40
0.0
 40
0.0
 40
0.0
 40
0.0
 40
0.0522327339
 40
0.1139805634
 40
0.1956085853
 40
0.3017610978
 40
0.4344922908
 40
0.5948042204
 40
1.0
 40
1.0
 40
1.0
 40
1.0
 10
14.5984281733
 20
9.1451721194
 30
0.0
 10
14.5984281327
 20
9.1451923788
 30
0.0
 10
14.5984141565
 20
9.1452373075
 30
0.0
 10
14.5983556873
 20
9.1452890352
 30
0.0
 10
14.5982676452
 20
9.1453304105
 30
0.0
 10
14.5981476049
 20
9.1453642306
 30
0.0
 10
14.5979948932
 20
9.1453906816
 30
0.0
 10
14.5977253152
 20
9.1454181841
 30
0.0
 10
14.5975057246
 20
9.1454234545
 30
0.0
 10
14.5973485618
 20
9.1454237441
 30
0.0
  0
LINE
  5
499
100
AcDbEntity
  8
0
100
AcDbLine
 62
7
  6
CONTINUOUS
 10
14.5973485618
 20
9.1454237441
 11
14.5931308929
 21
9.145053667
  0
LINE
  5
49A
100
AcDbEntity
  8
0
100
AcDbLine
 62
7
  6
CONTINUOUS
 10
14.5614142651
 20
9.1393670612
 11
14.5586172
 21
9.1387534652
  0
LINE
  5
49B
100
AcDbEntity
  8
0
100
AcDbLine
 62
7
  6
CONTINUOUS
 10
14.5709747767
 20
9.135779157
 11
14.567798464
 21
9.1350325151
  0
LINE
  5
49C
100
AcDbEntity
  8
0
100
AcDbLine
 62
7
  6
CONTINUOUS
 10
14.5629921379
 20
9.1338882607
 11
14.5595647567
 21
9.1330616459
  0
LINE
  5
49D
100
AcDbEntity
  8
0
100
AcDbLine
 62
7
  6
CONTINUOUS
 10
15.1636159275
 20
9.1341517412
 11
15.1598033148
 21
9.1341207312
  0
LINE
  5
49E
100
AcDbEntity
  8
0
100
AcDbLine
 62
7
  6
CONTINUOUS
 10
15.1598033148
 20
9.1341207312
 11
15.1578961525
 21
9.1340770194
  0
LINE
  5
49F
100
AcDbEntity
  8
0
100
AcDbLine
 62
7
  6
CONTINUOUS
 10
15.1578961525
 20
9.1340770194
 11
15.1518432171
 21
9.134433312
  0
LINE
  5
4A0
100
AcDbEntity
  8
0
100
AcDbLine
 62
7
  6
CONTINUOUS
 10
14.582779954
 20
9.1384043631
 11
14.5866767843
 21
9.1396868948
  0
LINE
  5
4A1
100
AcDbEntity
  8
0
100
AcDbLine
 62
7
  6
CONTINUOUS
 10
14.5866767843
 20
9.1396868948
 11
14.5899518389
 21
9.1404958919
  0
LINE
  5
4A2
100
AcDbEntity
  8
0
100
AcDbLine
 62
7
  6
CONTINUOUS
 10
14.61130258
 20
9.1408004774
 11
14.6130992244
 21
9.1414811887
  0
SPLINE
  5
4A3
100
AcDbEntity
  8
0
100
AcDbSpline
 62
7
  6
CONTINUOUS
 70
0
 71
3
 72
12
 73
8
 74
0
 42
0.0000001
 43
0.0000001
 44
0.0000000001
 40
0.0
 40
0.0
 40
0.0
 40
0.0
 40
0.3878412899
 40
0.6807327125
 40
0.792031452
 40
0.8808094671
 40
1.0
 40
1.0
 40
1.0
 40
1.0
 10
14.6130992244
 20
9.1414811887
 30
0.0
 10
14.6133700963
 20
9.1415953923
 30
0.0
 10
14.613841247
 20
9.1418070693
 30
0.0
 10
14.6143692741
 20
9.1420931891
 30
0.0
 10
14.6146752259
 20
9.1423121762
 30
0.0
 10
14.6148515041
 20
9.1424717774
 30
0.0
 10
14.6149496823
 20
9.1426180261
 30
0.0
 10
14.6149494658
 20
9.1427083658
 30
0.0
  0
LINE
  5
4A4
100
AcDbEntity
  8
0
100
AcDbLine
 62
7
  6
CONTINUOUS
 10
14.6139533263
 20
9.1441746344
 11
14.6191083088
 21
9.1444044412
  0
SPLINE
  5
4A5
100
AcDbEntity
  8
0
100
AcDbSpline
 62
7
  6
CONTINUOUS
 70
0
 71
3
 72
10
 73
6
 74
0
 42
0.0000001
 43
0.0000001
 44
0.0000000001
 40
0.0
 40
0.0
 40
0.0
 40
0.0
 40
0.5986457602
 40
0.8237936318
 40
1.0
 40
1.0
 40
1.0
 40
1.0
 10
14.6191083088
 20
9.1444044412
 30
0.0
 10
14.6198779286
 20
9.1444032066
 30
0.0
 10
14.6209394528
 20
9.1443754261
 30
0.0
 10
14.6222149318
 20
9.1442091175
 30
0.0
 10
14.6227194186
 20
9.1440911824
 30
0.0
 10
14.6229338125
 20
9.1440180268
 30
0.0
  0
LINE
  5
4A6
100
AcDbEntity
  8
0
100
AcDbLine
 62
7
  6
CONTINUOUS
 10
14.5645855998
 20
9.1384043631
 11
14.5618539014
 21
9.1375983948
  0
SPLINE
  5
4A7
100
AcDbEntity
  8
0
100
AcDbSpline
 62
7
  6
CONTINUOUS
 70
0
 71
3
 72
9
 73
5
 74
0
 42
0.0000001
 43
0.0000001
 44
0.0000000001
 40
0.0
 40
0.0
 40
0.0
 40
0.0
 40
0.5344385468
 40
1.0
 40
1.0
 40
1.0
 40
1.0
 10
14.9323507009
 20
9.1604525535
 30
0.0
 10
14.9341178612
 20
9.1604045519
 30
0.0
 10
14.9374264309
 20
9.1603830263
 30
0.0
 10
14.940734105
 20
9.1605097697
 30
0.0
 10
14.9422694259
 20
9.1606294829
 30
0.0
  0
LINE
  5
4A8
100
AcDbEntity
  8
0
100
AcDbLine
 62
7
  6
CONTINUOUS
 10
14.9422694259
 20
9.1606294829
 11
14.9450260718
 21
9.1609396089
  0
LINE
  5
4A9
100
AcDbEntity
  8
0
100
AcDbLine
 62
7
  6
CONTINUOUS
 10
14.9450260718
 20
9.1609396089
 11
14.9456172
 21
9.1610449551
  0
LINE
  5
4AA
100
AcDbEntity
  8
0
100
AcDbLine
 62
7
  6
CONTINUOUS
 10
14.8406172
 20
9.1612157335
 11
14.8439668266
 21
9.1607892648
  0
LINE
  5
4AB
100
AcDbEntity
  8
0
100
AcDbLine
 62
7
  6
CONTINUOUS
 10
14.8439668266
 20
9.1607892648
 11
14.8485837255
 21
9.1605687562
  0
SPLINE
  5
4AC
100
AcDbEntity
  8
0
100
AcDbSpline
 62
7
  6
CONTINUOUS
 70
0
 71
3
 72
19
 73
15
 74
0
 42
0.0000001
 43
0.0000001
 44
0.0000000001
 40
0.0
 40
0.0
 40
0.0
 40
0.0
 40
0.2005962388
 40
0.3862493313
 40
0.5518407167
 40
0.6939333713
 40
0.7552983953
 40
0.8098877557
 40
0.8575518591
 40
0.8982173777
 40
0.9319896431
 40
0.9593480255
 40
0.9813282081
 40
1.0
 40
1.0
 40
1.0
 40
1.0
 10
14.9181172
 20
9.1445499797
 30
0.0
 10
14.9200532511
 20
9.1446397893
 30
0.0
 10
14.9237788931
 20
9.1448669478
 30
0.0
 10
14.9290885098
 20
9.145365901
 30
0.0
 10
14.9338136947
 20
9.1460024778
 30
0.0
 10
14.9373216809
 20
9.1466558093
 30
0.0
 10
14.9397436329
 20
9.1472504224
 30
0.0
 10
14.9412608741
 20
9.1476967583
 30
0.0
 10
14.9425619493
 20
9.1481622813
 30
0.0
 10
14.94364037
 20
9.1486443728
 30
0.0
 10
14.9444921154
 20
9.1491416655
 30
0.0
 10
14.9451166253
 20
9.1496537846
 30
0.0
 10
14.9455165431
 20
9.1501877461
 30
0.0
 10
14.9456172
 20
9.1505828901
 30
0.0
 10
14.9456172
 20
9.1507632944
 30
0.0
  0
LINE
  5
4AD
100
AcDbEntity
  8
0
100
AcDbLine
 62
7
  6
CONTINUOUS
 10
14.5461916099
 20
9.1343296202
 11
14.544274646
 21
9.1338882607
  0
SPLINE
  5
4AE
100
AcDbEntity
  8
0
100
AcDbSpline
 62
7
  6
CONTINUOUS
 70
0
 71
3
 72
11
 73
7
 74
0
 42
0.0000001
 43
0.0000001
 44
0.0000000001
 40
0.0
 40
0.0
 40
0.0
 40
0.0
 40
0.1820728684
 40
0.3975357906
 40
0.6668209705
 40
1.0
 40
1.0
 40
1.0
 40
1.0
 10
14.8406172
 20
9.1509352227
 30
0.0
 10
14.8406172
 20
9.1507514782
 30
0.0
 10
14.8407220533
 20
9.1503479845
 30
0.0
 10
14.8411359839
 20
9.149804427
 30
0.0
 10
14.8417813366
 20
9.1492824654
 30
0.0
 10
14.8423098701
 20
9.1489779685
 30
0.0
 10
14.8426089346
 20
9.148824292
 30
0.0
  0
SPLINE
  5
4AF
100
AcDbEntity
  8
0
100
AcDbSpline
 62
7
  6
CONTINUOUS
 70
0
 71
3
 72
13
 73
9
 74
0
 42
0.0000001
 43
0.0000001
 44
0.0000000001
 40
0.0
 40
0.0
 40
0.0
 40
0.0
 40
0.0714058406
 40
0.160099502
 40
0.2655800515
 40
0.3869319573
 40
0.6717657032
 40
1.0
 40
1.0
 40
1.0
 40
1.0
 10
14.8426089346
 20
9.148824292
 30
0.0
 10
14.8431587919
 20
9.1485417438
 30
0.0
 10
14.844445932
 20
9.148015428
 30
0.0
 10
14.8466470442
 20
9.147345911
 30
0.0
 10
14.8493084575
 20
9.1467227693
 30
0.0
 10
14.8536668772
 20
9.1459241106
 30
0.0
 10
14.8599826396
 20
9.1451475841
 30
0.0
 10
14.865278973
 20
9.1447731714
 30
0.0
 10
14.8681172
 20
9.1446321873
 30
0.0
  0
LINE
  5
4B0
100
AcDbEntity
  8
0
100
AcDbLine
 62
7
  6
CONTINUOUS
 10
14.5645855998
 20
9.1384043631
 11
14.5667965037
 21
9.1389677226
  0
LINE
  5
4B1
100
AcDbEntity
  8
0
100
AcDbLine
 62
7
  6
CONTINUOUS
 10
14.5901515372
 20
9.1424422856
 11
14.5907867323
 21
9.1426731148
  0
LINE
  5
4B2
100
AcDbEntity
  8
0
100
AcDbLine
 62
7
  6
CONTINUOUS
 10
14.5907867323
 20
9.1426731148
 11
14.591515328
 21
9.1430939677
  0
LINE
  5
4B3
100
AcDbEntity
  8
0
100
AcDbLine
 62
7
  6
CONTINUOUS
 10
14.5931332277
 20
9.1440344502
 11
14.5971272491
 21
9.1444024578
  0
LINE
  5
4B4
100
AcDbEntity
  8
0
100
AcDbLine
 62
7
  6
CONTINUOUS
 10
15.1855436175
 20
9.1342149657
 11
15.1828974406
 21
9.1346879373
  0
LINE
  5
4B5
100
AcDbEntity
  8
0
100
AcDbLine
 62
7
  6
CONTINUOUS
 10
15.1828974406
 20
9.1346879373
 11
15.1815734329
 21
9.134922766
  0
LINE
  5
4B6
100
AcDbEntity
  8
0
100
AcDbLine
 62
7
  6
CONTINUOUS
 10
15.1785706246
 20
9.1340770194
 11
15.1766644453
 21
9.1341207312
  0
LINE
  5
4B7
100
AcDbEntity
  8
0
100
AcDbLine
 62
7
  6
CONTINUOUS
 10
15.1766644453
 20
9.1341207312
 11
15.1728508496
 21
9.1341517412
  0
LINE
  5
4B8
100
AcDbEntity
  8
0
100
AcDbLine
 62
7
  6
CONTINUOUS
 10
15.1728508496
 20
9.1341517412
 11
15.1714471774
 21
9.1343893225
  0
LINE
  5
4B9
100
AcDbEntity
  8
0
100
AcDbLine
 62
7
  6
CONTINUOUS
 10
15.150279306
 20
9.1403866437
 11
15.1496462311
 21
9.1405583143
  0
LINE
  5
4BA
100
AcDbEntity
  8
0
100
AcDbLine
 62
7
  6
CONTINUOUS
 10
14.8566898985
 20
9.168782635
 11
14.8497232239
 21
9.1689130131
  0
LINE
  5
4BB
100
AcDbEntity
  8
0
100
AcDbLine
 62
7
  6
CONTINUOUS
 10
14.8497232239
 20
9.1689130131
 11
14.8441848756
 21
9.1692068704
  0
LINE
  5
4BC
100
AcDbEntity
  8
0
100
AcDbLine
 62
7
  6
CONTINUOUS
 10
14.8441848756
 20
9.1692068704
 11
14.8406172
 21
9.1696418078
  0
LINE
  5
4BD
100
AcDbEntity
  8
0
100
AcDbLine
 62
7
  6
CONTINUOUS
 10
15.1801960468
 20
9.1445774042
 11
15.1824226805
 21
9.1443786628
  0
LINE
  5
4BE
100
AcDbEntity
  8
0
100
AcDbLine
 62
7
  6
CONTINUOUS
 10
15.1824226805
 20
9.1443786628
 11
15.1854130792
 21
9.1439919662
  0
LINE
  5
4BF
100
AcDbEntity
  8
0
100
AcDbLine
 62
7
  6
CONTINUOUS
 10
14.5735653397
 20
9.1415177873
 11
14.5668102879
 21
9.139993992
  0
LINE
  5
4C0
100
AcDbEntity
  8
0
100
AcDbLine
 62
7
  6
CONTINUOUS
 10
14.5668102879
 20
9.139993992
 11
14.5645855998
 21
9.1394276684
  0
LINE
  5
4C1
100
AcDbEntity
  8
0
100
AcDbLine
 62
7
  6
CONTINUOUS
 10
14.5645855998
 20
9.1394276684
 11
14.5612820329
 21
9.1384043948
  0
LINE
  5
4C2
100
AcDbEntity
  8
0
100
AcDbLine
 62
7
  6
CONTINUOUS
 10
14.5612820329
 20
9.1384043948
 11
14.5610679561
 21
9.1382444858
  0
SPLINE
  5
4C3
100
AcDbEntity
  8
0
100
AcDbSpline
 62
7
  6
CONTINUOUS
 70
0
 71
3
 72
19
 73
15
 74
0
 42
0.0000001
 43
0.0000001
 44
0.0000000001
 40
0.0
 40
0.0
 40
0.0
 40
0.0
 40
0.0186608394
 40
0.040631286
 40
0.0679822234
 40
0.1017499959
 40
0.1424134345
 40
0.190076632
 40
0.2446666108
 40
0.3060342882
 40
0.4481373395
 40
0.6137381402
 40
0.7993966175
 40
1.0
 40
1.0
 40
1.0
 40
1.0
 10
14.9456172
 20
9.1517783214
 30
0.0
 10
14.9456172
 20
9.151598033
 30
0.0
 10
14.9455165434
 20
9.1512031118
 30
0.0
 10
14.9451166459
 20
9.1506695188
 30
0.0
 10
14.9444921683
 20
9.1501577651
 30
0.0
 10
14.9436404324
 20
9.1496608356
 30
0.0
 10
14.9425620139
 20
9.1491790829
 30
0.0
 10
14.9412609387
 20
9.1487138586
 30
0.0
 10
14.939743683
 20
9.1482678041
 30
0.0
 10
14.9373216472
 20
9.1476735601
 30
0.0
 10
14.9338135624
 20
9.1470206672
 30
0.0
 10
14.9290883446
 20
9.1463845057
 30
0.0
 10
14.9237787809
 20
9.1458858918
 30
0.0
 10
14.9200532156
 20
9.1456588997
 30
0.0
 10
14.9181172
 20
9.1455691518
 30
0.0
  0
LINE
  5
4C4
100
AcDbEntity
  8
0
100
AcDbLine
 62
7
  6
CONTINUOUS
 10
14.8931172
 20
9.1450255841
 11
14.8906172018
 21
9.1450353873
  0
SPLINE
  5
4C5
100
AcDbEntity
  8
0
100
AcDbSpline
 62
7
  6
CONTINUOUS
 70
0
 71
3
 72
19
 73
15
 74
0
 42
0.0000001
 43
0.0000001
 44
0.0000000001
 40
0.0
 40
0.0
 40
0.0
 40
0.0
 40
0.2005305797
 40
0.3861328328
 40
0.5516967389
 40
0.6937899937
 40
0.7551664999
 40
0.809774107
 40
0.8574620111
 40
0.8981552413
 40
0.9319564581
 40
0.9593403762
 40
0.9813350896
 40
1.0
 40
1.0
 40
1.0
 40
1.0
 10
14.8681172
 20
9.1456513043
 30
0.0
 10
14.8661810507
 20
9.1457474148
 30
0.0
 10
14.8624552979
 20
9.1459866589
 30
0.0
 10
14.8571458536
 20
9.1465026787
 30
0.0
 10
14.8524209055
 20
9.1471542515
 30
0.0
 10
14.8489132004
 20
9.1478185372
 30
0.0
 10
14.8464914088
 20
9.1484205621
 30
0.0
 10
14.8449741146
 20
9.1488715106
 30
0.0
 10
14.8436729445
 20
9.1493409319
 30
0.0
 10
14.8425944096
 20
9.1498261902
 30
0.0
 10
14.8417425593
 20
9.1503258878
 30
0.0
 10
14.8411179988
 20
9.1508396329
 30
0.0
 10
14.8407180509
 20
9.1513743246
 30
0.0
 10
14.8406172
 20
9.1517697015
 30
0.0
 10
14.8406172
 20
9.1519501356
 30
0.0
  0
LINE
  5
4C6
100
AcDbEntity
  8
0
100
AcDbLine
 62
7
  6
CONTINUOUS
 10
14.9295436365
 20
9.167660787
 11
14.9365219478
 21
9.1677690361
  0
SPLINE
  5
4C7
100
AcDbEntity
  8
0
100
AcDbSpline
 62
7
  6
CONTINUOUS
 70
0
 71
3
 72
10
 73
6
 74
0
 42
0.0000001
 43
0.0000001
 44
0.0000000001
 40
0.0
 40
0.0
 40
0.0
 40
0.0
 40
0.59516849
 40
0.8238346475
 40
1.0
 40
1.0
 40
1.0
 40
1.0
 10
14.9365219478
 20
9.1677690361
 30
0.0
 10
14.9382429314
 20
9.167821857
 30
0.0
 10
14.9406252351
 20
9.1679217547
 30
0.0
 10
14.9435083234
 20
9.1681625849
 30
0.0
 10
14.9446715749
 20
9.1683051339
 30
0.0
 10
14.9451744085
 20
9.1683881351
 30
0.0
  0
LINE
  5
4C8
100
AcDbEntity
  8
0
100
AcDbLine
 62
7
  6
CONTINUOUS
 10
14.9451744085
 20
9.1683881351
 11
14.9456172
 21
9.168468564
  0
LINE
  5
4C9
100
AcDbEntity
  8
0
100
AcDbLine
 62
7
  6
CONTINUOUS
 10
14.8406172
 20
9.1686385545
 11
14.8441714297
 21
9.1682043703
  0
LINE
  5
4CA
100
AcDbEntity
  8
0
100
AcDbLine
 62
7
  6
CONTINUOUS
 10
14.8441714297
 20
9.1682043703
 11
14.849702186
 21
9.1679099606
  0
LINE
  5
4CB
100
AcDbEntity
  8
0
100
AcDbLine
 62
7
  6
CONTINUOUS
 10
14.849702186
 20
9.1679099606
 11
14.8566746479
 21
9.1677788756
  0
SPLINE
  5
4CC
100
AcDbEntity
  8
0
100
AcDbSpline
 62
7
  6
CONTINUOUS
 70
0
 71
3
 72
16
 73
12
 74
0
 42
0.0000001
 43
0.0000001
 44
0.0000000001
 40
0.0
 40
0.0
 40
0.0
 40
0.0
 40
0.4261929803
 40
0.5976441511
 40
0.7394731013
 40
0.8503595054
 40
0.8939337472
 40
0.9296398627
 40
0.9575978027
 40
0.9780674653
 40
1.0
 40
1.0
 40
1.0
 40
1.0
 10
14.5508589978
 20
9.1347937291
 30
0.0
 10
14.5501949517
 20
9.1346950447
 30
0.0
 10
14.5492625146
 20
9.1345641882
 30
0.0
 10
14.5481052488
 20
9.1344315128
 30
0.0
 10
14.5474397028
 20
9.1343708389
 30
0.0
 10
14.5469738349
 20
9.1343437267
 30
0.0
 10
14.5466737784
 20
9.1343417062
 30
0.0
 10
14.546505833
 20
9.134347381
 30
0.0
 10
14.5463714416
 20
9.1343631785
 30
0.0
 10
14.5462694535
 20
9.1343824983
 30
0.0
 10
14.5461928832
 20
9.134426194
 30
0.0
 10
14.5461927123
 20
9.1344607416
 30
0.0
  0
SPLINE
  5
4CD
100
AcDbEntity
  8
0
100
AcDbSpline
 62
7
  6
CONTINUOUS
 70
0
 71
3
 72
16
 73
12
 74
0
 42
0.0000001
 43
0.0000001
 44
0.0000000001
 40
0.0
 40
0.0
 40
0.0
 40
0.0
 40
0.0091419438
 40
0.0240417955
 40
0.0750128147
 40
0.15625984
 40
0.2693498405
 40
0.4139010666
 40
0.587138715
 40
0.7840896408
 40
1.0
 40
1.0
 40
1.0
 40
1.0
 10
15.2383824981
 20
9.1328137665
 30
0.0
 10
15.2383823054
 20
9.1328516325
 30
0.0
 10
15.2383254819
 20
9.1329442249
 30
0.0
 10
15.2380820891
 20
9.1331333616
 30
0.0
 10
15.2375283149
 20
9.1334046647
 30
0.0
 10
15.2365845189
 20
9.1337734926
 30
0.0
 10
15.2352512983
 20
9.1342184752
 30
0.0
 10
15.2335430925
 20
9.1347339897
 30
0.0
 10
15.2314897822
 20
9.1353093024
 30
0.0
 10
15.2291435178
 20
9.1359325816
 30
0.0
 10
15.2274862301
 20
9.1363544637
 30
0.0
 10
15.2266186799
 20
9.1365716132
 30
0.0
  0
LINE
  5
4CE
100
AcDbEntity
  8
0
100
AcDbLine
 62
7
  6
CONTINUOUS
 10
15.2369258106
 20
9.1326090654
 11
15.2295209307
 21
9.1348037925
  0
LINE
  5
4CF
100
AcDbEntity
  8
0
100
AcDbLine
 62
7
  6
CONTINUOUS
 10
15.2430609197
 20
9.1340774981
 11
15.2428383336
 21
9.1340660821
  0
SPLINE
  5
4D0
100
AcDbEntity
  8
0
100
AcDbSpline
 62
7
  6
CONTINUOUS
 70
0
 71
3
 72
14
 73
10
 74
0
 42
0.0000001
 43
0.0000001
 44
0.0000000001
 40
0.0
 40
0.0
 40
0.0
 40
0.0
 40
0.0517696717
 40
0.1175753646
 40
0.2068107529
 40
0.3214252415
 40
0.4604322821
 40
0.6216909764
 40
1.0
 40
1.0
 40
1.0
 40
1.0
 10
14.5967741478
 20
9.1405428619
 30
0.0
 10
14.5967741614
 20
9.1405165471
 30
0.0
 10
14.5967976711
 20
9.1404564299
 30
0.0
 10
14.5968845515
 20
9.1403926313
 30
0.0
 10
14.5970108925
 20
9.1403389112
 30
0.0
 10
14.5971796162
 20
9.1402933866
 30
0.0
 10
14.5973870094
 20
9.1402547952
 30
0.0
 10
14.5977290961
 20
9.1402096476
 30
0.0
 10
14.5980026997
 20
9.1401884464
 30
0.0
 10
14.5981946064
 20
9.1401762059
 30
0.0
  0
SPLINE
  5
4D1
100
AcDbEntity
  8
0
100
AcDbSpline
 62
7
  6
CONTINUOUS
 70
0
 71
3
 72
12
 73
8
 74
0
 42
0.0000001
 43
0.0000001
 44
0.0000000001
 40
0.0
 40
0.0
 40
0.0
 40
0.0
 40
0.2800434776
 40
0.5637704691
 40
0.812533508
 40
0.9154830009
 40
1.0
 40
1.0
 40
1.0
 40
1.0
 10
14.5981946064
 20
9.1401762059
 30
0.0
 10
14.598608327
 20
9.1401498171
 30
0.0
 10
14.5994426116
 20
9.1401213477
 30
0.0
 10
14.6006441155
 20
9.140069502
 30
0.0
 10
14.6015826387
 20
9.1399913686
 30
0.0
 10
14.6022202465
 20
9.1398874593
 30
0.0
 10
14.6024900454
 20
9.1398188266
 30
0.0
 10
14.6026081996
 20
9.1397776782
 30
0.0
  0
SPLINE
  5
4D2
100
AcDbEntity
  8
0
100
AcDbSpline
 62
7
  6
CONTINUOUS
 70
0
 71
3
 72
26
 73
22
 74
0
 42
0.0000001
 43
0.0000001
 44
0.0000000001
 40
0.0
 40
0.0
 40
0.0
 40
0.0
 40
0.1810561545
 40
0.3583724127
 40
0.4442178993
 40
0.5270899421
 40
0.6058854545
 40
0.6795456511
 40
0.7471243963
 40
0.8080475453
 40
0.8619706982
 40
0.9083011525
 40
0.9283942944
 40
0.9462884697
 40
0.9618594623
 40
0.9749809745
 40
0.9854921845
 40
0.9932142048
 40
0.9979955076
 40
0.9992961348
 40
1.0
 40
1.0
 40
1.0
 40
1.0
 10
14.8804361994
 20
9.1728906645
 30
0.0
 10
14.8780312141
 20
9.1728845449
 30
0.0
 10
14.8732709278
 20
9.1728702036
 30
0.0
 10
14.8673703353
 20
9.1728562135
 30
0.0
 10
14.8627739203
 20
9.1728548622
 30
0.0
 10
14.8594861734
 20
9.1728605328
 30
0.0
 10
14.8563603102
 20
9.1728746621
 30
0.0
 10
14.8534376514
 20
9.1728983209
 30
0.0
 10
14.8507525024
 20
9.1729316676
 30
0.0
 10
14.8483296857
 20
9.1729740683
 30
0.0
 10
14.8461893161
 20
9.173023756
 30
0.0
 10
14.8445914653
 20
9.173072797
 30
0.0
 10
14.8434723159
 20
9.1731170058
 30
0.0
 10
14.8427616914
 20
9.1731503124
 30
0.0
 10
14.8421437776
 20
9.1731854096
 30
0.0
 10
14.8416245186
 20
9.1732219151
 30
0.0
 10
14.8412091224
 20
9.1732602047
 30
0.0
 10
14.8409071574
 20
9.1732980564
 30
0.0
 10
14.8407246117
 20
9.173335501
 30
0.0
 10
14.840642288
 20
9.1733665562
 30
0.0
 10
14.8406205368
 20
9.1733886292
 30
0.0
 10
14.8406204546
 20
9.1733979783
 30
0.0
  0
LINE
  5
4D3
100
AcDbEntity
  8
0
100
AcDbLine
 62
7
  6
CONTINUOUS
 10
15.1936467072
 20
9.143661609
 11
15.1859712622
 21
9.1449308444
  0
LINE
  5
4D4
100
AcDbEntity
  8
0
100
AcDbLine
 62
7
  6
CONTINUOUS
 10
15.1828292309
 20
9.1453511371
 11
15.1789821421
 21
9.1456063384
  0
LINE
  5
4D5
100
AcDbEntity
  8
0
100
AcDbLine
 62
7
  6
CONTINUOUS
 10
15.1789821421
 20
9.1456063384
 11
15.1784252977
 21
9.145401067
  0
LINE
  5
4D6
100
AcDbEntity
  8
0
100
AcDbLine
 62
7
  6
CONTINUOUS
 10
15.1413281113
 20
9.1427486127
 11
15.1389650127
 21
9.143353707
  0
LINE
  5
4D7
100
AcDbEntity
  8
0
100
AcDbLine
 62
7
  6
CONTINUOUS
 10
15.1389650127
 20
9.143353707
 11
15.1366009774
 21
9.1439528798
  0
LINE
  5
4D8
100
AcDbEntity
  8
0
100
AcDbLine
 62
7
  6
CONTINUOUS
 10
15.1366009774
 20
9.1439528798
 11
15.1342360145
 21
9.1445461288
  0
LINE
  5
4D9
100
AcDbEntity
  8
0
100
AcDbLine
 62
7
  6
CONTINUOUS
 10
15.1235645199
 20
9.144595527
 11
15.1221342147
 21
9.1445871313
  0
LINE
  5
4DA
100
AcDbEntity
  8
0
100
AcDbLine
 62
7
  6
CONTINUOUS
 10
15.1598027113
 20
9.133081365
 11
15.1578961525
 21
9.1330500856
  0
LINE
  5
4DB
100
AcDbEntity
  8
0
100
AcDbLine
 62
7
  6
CONTINUOUS
 10
15.1855436175
 20
9.1342149657
 11
15.1870750148
 21
9.1335988803
  0
LINE
  5
4DC
100
AcDbEntity
  8
0
100
AcDbLine
 62
7
  6
CONTINUOUS
 10
15.1870750156
 20
9.1325716206
 11
15.1855436175
 21
9.1331881258
  0
LINE
  5
4DD
100
AcDbEntity
  8
0
100
AcDbLine
 62
7
  6
CONTINUOUS
 10
15.1855436175
 20
9.1331881258
 11
15.1828970346
 21
9.1336614913
  0
LINE
  5
4DE
100
AcDbEntity
  8
0
100
AcDbLine
 62
7
  6
CONTINUOUS
 10
15.1828970346
 20
9.1336614913
 11
15.1815734329
 21
9.1338964075
  0
LINE
  5
4DF
100
AcDbEntity
  8
0
100
AcDbLine
 62
7
  6
CONTINUOUS
 10
15.1785706246
 20
9.1330500856
 11
15.1766640657
 21
9.133081365
  0
LINE
  5
4E0
100
AcDbEntity
  8
0
100
AcDbLine
 62
7
  6
CONTINUOUS
 10
15.1500217593
 20
9.1394339257
 11
15.1493885688
 21
9.1396055623
  0
LINE
  5
4E1
100
AcDbEntity
  8
0
100
AcDbLine
 62
7
  6
CONTINUOUS
 10
15.1493885688
 20
9.1396055623
 11
15.146197997
 21
9.140463645
  0
LINE
  5
4E2
100
AcDbEntity
  8
0
100
AcDbLine
 62
7
  6
CONTINUOUS
 10
15.1636159275
 20
9.1331248583
 11
15.1638281055
 21
9.1331772513
  0
LINE
  5
4E3
100
AcDbEntity
  8
0
100
AcDbLine
 62
7
  6
CONTINUOUS
 10
15.1524871663
 20
9.1333384188
 11
15.1551754345
 21
9.1331189715
  0
LINE
  5
4E4
100
AcDbEntity
  8
0
100
AcDbLine
 62
7
  6
CONTINUOUS
 10
15.1551754345
 20
9.1331189715
 11
15.1569917211
 21
9.1330494127
  0
LINE
  5
4E5
100
AcDbEntity
  8
0
100
AcDbLine
 62
7
  6
CONTINUOUS
 10
15.1569917211
 20
9.1330494127
 11
15.1578961525
 21
9.1330500856
  0
SPLINE
  5
4E6
100
AcDbEntity
  8
0
100
AcDbSpline
 62
7
  6
CONTINUOUS
 70
0
 71
3
 72
15
 73
11
 74
0
 42
0.0000001
 43
0.0000001
 44
0.0000000001
 40
0.0
 40
0.0
 40
0.0
 40
0.0
 40
0.2146162719
 40
0.4041321114
 40
0.5672336544
 40
0.7029131782
 40
0.8112469104
 40
0.8934308254
 40
0.9530218333
 40
1.0
 40
1.0
 40
1.0
 40
1.0
 10
15.1785706246
 20
9.1330500856
 30
0.0
 10
15.1788069569
 20
9.1330458144
 30
0.0
 10
15.1792521372
 20
9.1330436871
 30
0.0
 10
15.1798767218
 20
9.133062464
 30
0.0
 10
15.1804132917
 20
9.133102894
 30
0.0
 10
15.180857659
 20
9.1331647262
 30
0.0
 10
15.1812085442
 20
9.1332469225
 30
0.0
 10
15.1814650508
 20
9.1333492177
 30
0.0
 10
15.1816373795
 20
9.1334756636
 30
0.0
 10
15.1816823479
 20
9.1335940642
 30
0.0
 10
15.1816823989
 20
9.1336458043
 30
0.0
  0
LINE
  5
4E7
100
AcDbEntity
  8
0
100
AcDbLine
 62
7
  6
CONTINUOUS
 10
15.1714471774
 20
9.1333626012
 11
15.1728508496
 21
9.1331248583
  0
LINE
  5
4E8
100
AcDbEntity
  8
0
100
AcDbLine
 62
7
  6
CONTINUOUS
 10
15.163828093
 20
9.1342041015
 11
15.1636159275
 21
9.1341517412
  0
SPLINE
  5
4E9
100
AcDbEntity
  8
0
100
AcDbSpline
 62
7
  6
CONTINUOUS
 70
0
 71
3
 72
15
 73
11
 74
0
 42
0.0000001
 43
0.0000001
 44
0.0000000001
 40
0.0
 40
0.0
 40
0.0
 40
0.0
 40
0.046954989
 40
0.1065345683
 40
0.1887163899
 40
0.2970531917
 40
0.4327377721
 40
0.5958464639
 40
0.785372038
 40
1.0
 40
1.0
 40
1.0
 40
1.0
 10
15.1816823991
 20
9.1346723267
 30
0.0
 10
15.181682348
 20
9.1346206151
 30
0.0
 10
15.1816373603
 20
9.1345022655
 30
0.0
 10
15.181465029
 20
9.1343759178
 30
0.0
 10
15.1812085272
 20
9.1342736926
 30
0.0
 10
15.1808576428
 20
9.1341915564
 30
0.0
 10
15.1804132793
 20
9.134129771
 30
0.0
 10
15.1798767139
 20
9.1340893779
 30
0.0
 10
15.1792521338
 20
9.1340706226
 30
0.0
 10
15.1788069561
 20
9.1340727511
 30
0.0
 10
15.1785706246
 20
9.1340770194
 30
0.0
  0
SPLINE
  5
4EA
100
AcDbEntity
  8
0
100
AcDbSpline
 62
7
  6
CONTINUOUS
 70
0
 71
3
 72
26
 73
22
 74
0
 42
0.0000001
 43
0.0000001
 44
0.0000000001
 40
0.0
 40
0.0
 40
0.0
 40
0.0
 40
0.0007021311
 40
0.0020001364
 40
0.0067795886
 40
0.0145056827
 40
0.0250247327
 40
0.03815549
 40
0.0537342453
 40
0.0716349458
 40
0.0917343851
 40
0.1380799019
 40
0.1920180629
 40
0.2529608755
 40
0.3205683493
 40
0.394255372
 40
0.4730622753
 40
0.5559343259
 40
0.6417709942
 40
0.8190270212
 40
1.0
 40
1.0
 40
1.0
 40
1.0
 10
14.9406135353
 20
9.1733979909
 30
0.0
 10
14.9406134939
 20
9.1733886488
 30
0.0
 10
14.9405918167
 20
9.1733664992
 30
0.0
 10
14.9405094106
 20
9.1733354161
 30
0.0
 10
14.9403265804
 20
9.1732979105
 30
0.0
 10
14.9400239566
 20
9.1732600439
 30
0.0
 10
14.9396075807
 20
9.1732217174
 30
0.0
 10
14.9390871126
 20
9.1731851888
 30
0.0
 10
14.9384678447
 20
9.1731500627
 30
0.0
 10
14.937755749
 20
9.173116733
 30
0.0
 10
14.9366343441
 20
9.1730724972
 30
0.0
 10
14.9350333194
 20
9.1730234435
 30
0.0
 10
14.9328886863
 20
9.1729737328
 30
0.0
 10
14.9304609491
 20
9.1729313407
 30
0.0
 10
14.9277702812
 20
9.172898057
 30
0.0
 10
14.9248418147
 20
9.1728744774
 30
0.0
 10
14.9217101847
 20
9.1728604053
 30
0.0
 10
14.9184168731
 20
9.1728548347
 30
0.0
 10
14.9138136454
 20
9.1728562914
 30
0.0
 10
14.9079051535
 20
9.1728703809
 30
0.0
 10
14.9031387682
 20
9.1728847298
 30
0.0
 10
14.9007308443
 20
9.1728908354
 30
0.0
  0
LINE
  5
4EB
100
AcDbEntity
  8
0
100
AcDbLine
 62
7
  6
CONTINUOUS
 10
15.1892152892
 20
9.1366549742
 11
15.1855494657
 21
9.1376792767
  0
LINE
  5
4EC
100
AcDbEntity
  8
0
100
AcDbLine
 62
7
  6
CONTINUOUS
 10
15.1855494657
 20
9.1376792767
 11
15.1832976451
 21
9.1385357047
  0
LINE
  5
4ED
100
AcDbEntity
  8
0
100
AcDbLine
 62
7
  6
CONTINUOUS
 10
15.1832976451
 20
9.1385357047
 11
15.182705426
 21
9.1390292702
  0
LINE
  5
4EE
100
AcDbEntity
  8
0
100
AcDbLine
 62
7
  6
CONTINUOUS
 10
15.2047142224
 20
9.1340888727
 11
15.2020060301
 21
9.1342660912
  0
LINE
  5
4EF
100
AcDbEntity
  8
0
100
AcDbLine
 62
7
  6
CONTINUOUS
 10
15.2020060301
 20
9.1342660912
 11
15.1981392117
 21
9.1348091474
  0
SPLINE
  5
4F0
100
AcDbEntity
  8
0
100
AcDbSpline
 62
7
  6
CONTINUOUS
 70
0
 71
3
 72
20
 73
16
 74
0
 42
0.0000001
 43
0.0000001
 44
0.0000000001
 40
0.0
 40
0.0
 40
0.0
 40
0.0
 40
0.0022503289
 40
0.0062963864
 40
0.0210683662
 40
0.044954276
 40
0.077536334
 40
0.1182898851
 40
0.1667006865
 40
0.2223802942
 40
0.2849724199
 40
0.4295156776
 40
0.5980141052
 40
0.7885536486
 40
1.0
 40
1.0
 40
1.0
 40
1.0
 10
14.9406133774
 20
9.1723971415
 30
0.0
 10
14.9406133225
 20
9.1723884159
 30
0.0
 10
14.9405943528
 20
9.1723675848
 30
0.0
 10
14.9405199574
 20
9.1723376071
 30
0.0
 10
14.9403557869
 20
9.1723020747
 30
0.0
 10
14.9400830036
 20
9.1722657383
 30
0.0
 10
14.9397072743
 20
9.1722291007
 30
0.0
 10
14.9392366587
 20
9.1721940185
 30
0.0
 10
14.9386759631
 20
9.1721601938
 30
0.0
 10
14.938030459
 20
9.1721279669
 30
0.0
 10
14.93701227
 20
9.172085029
 30
0.0
 10
14.9355564983
 20
9.17203707
 30
0.0
 10
14.9336044414
 20
9.171987952
 30
0.0
 10
14.9313927633
 20
9.1719451703
 30
0.0
 10
14.9298341964
 20
9.1719228123
 30
0.0
 10
14.9290143636
 20
9.1719128078
 30
0.0
  0
LINE
  5
4F1
100
AcDbEntity
  8
0
100
AcDbLine
 62
7
  6
CONTINUOUS
 10
14.9290143636
 20
9.1719128078
 11
14.9005851207
 21
9.1718900215
  0
LINE
  5
4F2
100
AcDbEntity
  8
0
100
AcDbLine
 62
7
  6
CONTINUOUS
 10
15.178405045
 20
9.1425984767
 11
15.175709728
 21
9.1432036307
  0
LINE
  5
4F3
100
AcDbEntity
  8
0
100
AcDbLine
 62
7
  6
CONTINUOUS
 10
15.175709728
 20
9.1432036307
 11
15.1730133423
 21
9.1438028627
  0
LINE
  5
4F4
100
AcDbEntity
  8
0
100
AcDbLine
 62
7
  6
CONTINUOUS
 10
15.1730133423
 20
9.1438028627
 11
15.1703158985
 21
9.1443961703
  0
SPLINE
  5
4F5
100
AcDbEntity
  8
0
100
AcDbSpline
 62
7
  6
CONTINUOUS
 70
0
 71
3
 72
20
 73
16
 74
0
 42
0.0000001
 43
0.0000001
 44
0.0000000001
 40
0.0
 40
0.0
 40
0.0
 40
0.0
 40
0.0022503865
 40
0.0062961954
 40
0.0210681733
 40
0.0449538075
 40
0.0775347773
 40
0.1182864407
 40
0.1666953577
 40
0.222373767
 40
0.2849651185
 40
0.4295080273
 40
0.5980079224
 40
0.7885496776
 40
1.0
 40
1.0
 40
1.0
 40
1.0
 10
14.8406210121
 20
9.1723971412
 30
0.0
 10
14.8406210643
 20
9.1723884199
 30
0.0
 10
14.8406400156
 20
9.1723675929
 30
0.0
 10
14.8407143715
 20
9.1723376229
 30
0.0
 10
14.8408784506
 20
9.1723021025
 30
0.0
 10
14.8411510863
 20
9.1722657754
 30
0.0
 10
14.8415266054
 20
9.172229147
 30
0.0
 10
14.841996956
 20
9.1721940721
 30
0.0
 10
14.8425573391
 20
9.1721602543
 30
0.0
 10
14.843202491
 20
9.1721280338
 30
0.0
 10
14.8442201392
 20
9.1720851031
 30
0.0
 10
14.8456751522
 20
9.1720371504
 30
0.0
 10
14.8476262031
 20
9.171988036
 30
0.0
 10
14.8498367566
 20
9.1719452526
 30
0.0
 10
14.8513945342
 20
9.1719228904
 30
0.0
 10
14.8522139546
 20
9.1719128825
 30
0.0
  0
LINE
  5
4F6
100
AcDbEntity
  8
0
100
AcDbLine
 62
7
  6
CONTINUOUS
 10
14.8522139546
 20
9.1719128825
 11
14.8805743096
 21
9.1718898325
  0
LINE
  5
4F7
100
AcDbEntity
  8
0
100
AcDbLine
 62
7
  6
CONTINUOUS
 10
15.1827085658
 20
9.1396396012
 11
15.1823683046
 21
9.1396412812
  0
LINE
  5
4F8
100
AcDbEntity
  8
0
100
AcDbLine
 62
7
  6
CONTINUOUS
 10
15.1817144422
 20
9.1397181708
 11
15.1785918222
 21
9.1402417224
  0
LINE
  5
4F9
100
AcDbEntity
  8
0
100
AcDbLine
 62
7
  6
CONTINUOUS
 10
15.1785918222
 20
9.1402417224
 11
15.1764829583
 21
9.1405913317
  0
LINE
  5
4FA
100
AcDbEntity
  8
0
100
AcDbLine
 62
7
  6
CONTINUOUS
 10
15.1749032306
 20
9.1408511242
 11
15.1716422631
 21
9.1413817288
  0
LINE
  5
4FB
100
AcDbEntity
  8
0
100
AcDbLine
 62
7
  6
CONTINUOUS
 10
15.1522471929
 20
9.1443800217
 11
15.1514659392
 21
9.1444951577
  0
LINE
  5
4FC
100
AcDbEntity
  8
0
100
AcDbLine
 62
7
  6
CONTINUOUS
 10
15.2197763257
 20
9.1325314852
 11
15.218850777
 21
9.1327727935
  0
LINE
  5
4FD
100
AcDbEntity
  8
0
100
AcDbLine
 62
7
  6
CONTINUOUS
 10
15.1923396227
 20
9.1388769891
 11
15.1904886773
 21
9.139318966
  0
LINE
  5
4FE
100
AcDbEntity
  8
0
100
AcDbLine
 62
7
  6
CONTINUOUS
 10
15.1904886773
 20
9.139318966
 11
15.1891728728
 21
9.1396313796
  0
LINE
  5
4FF
100
AcDbEntity
  8
0
100
AcDbLine
 62
7
  6
CONTINUOUS
 10
15.1646847758
 20
9.1445434727
 11
15.1668099572
 21
9.1445408638
  0
LINE
  5
500
100
AcDbEntity
  8
0
100
AcDbLine
 62
7
  6
CONTINUOUS
 10
15.1679119178
 20
9.1445056872
 11
15.1703158985
 21
9.1443961703
  0
SPLINE
  5
501
100
AcDbEntity
  8
0
100
AcDbSpline
 62
7
  6
CONTINUOUS
 70
0
 71
3
 72
12
 73
8
 74
0
 42
0.0000001
 43
0.0000001
 44
0.0000000001
 40
0.0
 40
0.0
 40
0.0
 40
0.0
 40
0.1161698219
 40
0.2046283489
 40
0.316458399
 40
0.611505653
 40
1.0
 40
1.0
 40
1.0
 40
1.0
 10
15.1412027537
 20
9.1425545031
 30
0.0
 10
15.1412031488
 20
9.1424658074
 30
0.0
 10
15.141308145
 20
9.1423238047
 30
0.0
 10
15.1414910351
 20
9.1421734726
 30
0.0
 10
15.1418113746
 20
9.1419669603
 30
0.0
 10
15.1423585123
 20
9.1417034839
 30
0.0
 10
15.1428445232
 20
9.1415115992
 30
0.0
 10
15.1431228999
 20
9.1414091834
 30
0.0
  0
LINE
  5
502
100
AcDbEntity
  8
0
100
AcDbLine
 62
7
  6
CONTINUOUS
 10
15.1431228999
 20
9.1414091834
 11
15.146197997
 21
9.140463645
  0
LINE
  5
503
100
AcDbEntity
  8
0
100
AcDbLine
 62
7
  6
CONTINUOUS
 10
15.1817144422
 20
9.1397181708
 11
15.1823683046
 21
9.1396412812
  0
LINE
  5
504
100
AcDbEntity
  8
0
100
AcDbLine
 62
7
  6
CONTINUOUS
 10
15.1478687452
 20
9.1443689548
 11
15.1489808694
 21
9.1443681173
  0
LINE
  5
505
100
AcDbEntity
  8
0
100
AcDbLine
 62
7
  6
CONTINUOUS
 10
15.1489808694
 20
9.1443681173
 11
15.1514659392
 21
9.1444951577
  0
LINE
  5
506
100
AcDbEntity
  8
0
100
AcDbLine
 62
7
  6
CONTINUOUS
 10
15.215392419
 20
9.1333847807
 11
15.218850777
 21
9.1327727935
  0
SPLINE
  5
507
100
AcDbEntity
  8
0
100
AcDbSpline
 62
7
  6
CONTINUOUS
 70
0
 71
3
 72
14
 73
10
 74
0
 42
0.0000001
 43
0.0000001
 44
0.0000000001
 40
0.0
 40
0.0
 40
0.0
 40
0.0
 40
0.0439527135
 40
0.1116582968
 40
0.2034541425
 40
0.3189499466
 40
0.4574620791
 40
0.6179300563
 40
1.0
 40
1.0
 40
1.0
 40
1.0
 10
15.178405045
 20
9.1425984767
 30
0.0
 10
15.1784344821
 20
9.1425616973
 30
0.0
 10
15.1785332271
 20
9.1424898328
 30
0.0
 10
15.1787246232
 20
9.1423868777
 30
0.0
 10
15.1789953451
 20
9.1422686918
 30
0.0
 10
15.1793416219
 20
9.1421367918
 30
0.0
 10
15.1797619497
 20
9.1419926234
 30
0.0
 10
15.1804579201
 20
9.1417724156
 30
0.0
 10
15.1810172325
 20
9.1416128152
 30
0.0
 10
15.1814121701
 20
9.1415045504
 30
0.0
  0
LINE
  5
508
100
AcDbEntity
  8
0
100
AcDbLine
 62
7
  6
CONTINUOUS
 10
15.1814121701
 20
9.1415045504
 11
15.1831181168
 21
9.141061211
  0
SPLINE
  5
509
100
AcDbEntity
  8
0
100
AcDbSpline
 62
7
  6
CONTINUOUS
 70
0
 71
3
 72
9
 73
5
 74
0
 42
0.0000001
 43
0.0000001
 44
0.0000000001
 40
0.0
 40
0.0
 40
0.0
 40
0.0
 40
0.534389512
 40
1.0
 40
1.0
 40
1.0
 40
1.0
 10
14.8538836992
 20
9.1615887743
 30
0.0
 10
14.8521172084
 20
9.1615465709
 30
0.0
 10
14.8488098125
 20
9.1615358245
 30
0.0
 10
14.8455037956
 20
9.1616730716
 30
0.0
 10
14.843969259
 20
9.161797493
 30
0.0
  0
LINE
  5
50A
100
AcDbEntity
  8
0
100
AcDbLine
 62
7
  6
CONTINUOUS
 10
14.843969259
 20
9.161797493
 11
14.8406172
 21
9.1622238631
  0
LINE
  5
50B
100
AcDbEntity
  8
0
100
AcDbLine
 62
7
  6
CONTINUOUS
 10
15.2045718393
 20
9.1393447785
 11
15.2000675526
 21
9.1403589939
  0
SPLINE
  5
50C
100
AcDbEntity
  8
0
100
AcDbSpline
 62
7
  6
CONTINUOUS
 70
0
 71
3
 72
12
 73
8
 74
0
 42
0.0000001
 43
0.0000001
 44
0.0000000001
 40
0.0
 40
0.0
 40
0.0
 40
0.0
 40
0.3402968739
 40
0.6350792765
 40
0.8582542532
 40
0.939583244
 40
1.0
 40
1.0
 40
1.0
 40
1.0
 10
15.196267608
 20
9.1412297306
 30
0.0
 10
15.1952788631
 20
9.1414600814
 30
0.0
 10
15.1934350769
 20
9.1418965404
 30
0.0
 10
15.1909521765
 20
9.142521935
 30
0.0
 10
15.1892299321
 20
9.1430045919
 30
0.0
 10
15.1881952579
 20
9.1433433859
 30
0.0
 10
15.1877988267
 20
9.1434916853
 30
0.0
 10
15.1876333883
 20
9.1435632257
 30
0.0
  0
LINE
  5
50D
100
AcDbEntity
  8
0
100
AcDbLine
 62
7
  6
CONTINUOUS
 10
15.1876333883
 20
9.1435632257
 11
15.1872222126
 21
9.1438332665
  0
LINE
  5
50E
100
AcDbEntity
  8
0
100
AcDbLine
 62
7
  6
CONTINUOUS
 10
15.2045718393
 20
9.1393447785
 11
15.2131567942
 21
9.1374328958
  0
SPLINE
  5
50F
100
AcDbEntity
  8
0
100
AcDbSpline
 62
7
  6
CONTINUOUS
 70
0
 71
3
 72
20
 73
16
 74
0
 42
0.0000001
 43
0.0000001
 44
0.0000000001
 40
0.0
 40
0.0
 40
0.0
 40
0.0
 40
0.2027622666
 40
0.3904860489
 40
0.5599481751
 40
0.708181834
 40
0.831116864
 40
0.8815060012
 40
0.923381265
 40
0.9559027374
 40
0.9685588465
 40
0.9788823354
 40
0.9869597783
 40
0.9929350958
 40
1.0
 40
1.0
 40
1.0
 40
1.0
 10
15.2202424298
 20
9.1359628496
 30
0.0
 10
15.2208717217
 20
9.1358409502
 30
0.0
 10
15.2220847604
 20
9.1356119602
 30
0.0
 10
15.2238274885
 20
9.1353013798
 30
0.0
 10
15.2254036549
 20
9.1350391825
 30
0.0
 10
15.2267808999
 20
9.134830268
 30
0.0
 10
15.2277888843
 20
9.1346975506
 30
0.0
 10
15.2284656088
 20
9.1346272955
 30
0.0
 10
15.2288589879
 20
9.1345970192
 30
0.0
 10
15.2291341336
 20
9.1345869507
 30
0.0
 10
15.2293097105
 20
9.1345919356
 30
0.0
 10
15.22940736
 20
9.1345998104
 30
0.0
 10
15.2294841218
 20
9.134613887
 30
0.0
 10
15.2295461981
 20
9.1346312476
 30
0.0
 10
15.2295855467
 20
9.1346645495
 30
0.0
 10
15.2295857194
 20
9.134686883
 30
0.0
  0
SPLINE
  5
510
100
AcDbEntity
  8
0
100
AcDbSpline
 62
7
  6
CONTINUOUS
 70
0
 71
3
 72
15
 73
11
 74
0
 42
0.0000001
 43
0.0000001
 44
0.0000000001
 40
0.0
 40
0.0
 40
0.0
 40
0.0
 40
0.1175238736
 40
0.2403699545
 40
0.3668816265
 40
0.4954687605
 40
0.6246294128
 40
0.7528456386
 40
0.878517922
 40
1.0
 40
1.0
 40
1.0
 40
1.0
 10
6.0626161801
 20
11.2678243537
 30
0.0
 10
6.1395947888
 20
11.2812625907
 30
0.0
 10
6.297832926
 20
11.3043538544
 30
0.0
 10
6.5408401654
 20
11.326884668
 30
0.0
 10
6.7920688833
 20
11.3367622232
 30
0.0
 10
7.0476806069
 20
11.3325105994
 30
0.0
 10
7.3036950999
 20
11.3126729655
 30
0.0
 10
7.5562450201
 20
11.2787255345
 30
0.0
 10
7.8015616837
 20
11.23213775
 30
0.0
 10
7.9612182756
 20
11.1927878821
 30
0.0
 10
8.0390551579
 20
11.1712018056
 30
0.0
  0
SPLINE
  5
511
100
AcDbEntity
  8
0
100
AcDbSpline
 62
9
  6
CONTINUOUS
 70
0
 71
3
 72
37
 73
33
 74
0
 42
0.0000001
 43
0.0000001
 44
0.0000000001
 40
0.0
 40
0.0
 40
0.0
 40
0.0
 40
0.0000675689
 40
0.0002696196
 40
0.000605977
 40
0.0010764665
 40
0.0016809133
 40
0.0024191428
 40
0.0042962518
 40
0.0067063992
 40
0.009648192
 40
0.0131202394
 40
0.0171211521
 40
0.0216495428
 40
0.026704026
 40
0.0383857356
 40
0.0521552354
 40
0.0680015083
 40
0.0859113364
 40
0.1058625982
 40
0.1278309545
 40
0.1517920808
 40
0.2055953973
 40
0.267078282
 40
0.3360268846
 40
0.4121483879
 40
0.4951306556
 40
0.5846621209
 40
0.6804161008
 40
0.7820041411
 40
0.8888886157
 40
1.0
 40
1.0
 40
1.0
 40
1.0
 10
13.6110898199
 20
8.3678266677
 30
0.0
 10
13.6111015121
 20
8.3678256053
 30
0.0
 10
13.6111471463
 20
8.3678422872
 30
0.0
 10
13.6112509402
 20
8.367854407
 30
0.0
 10
13.6114229376
 20
8.3678915263
 30
0.0
 10
13.6116639424
 20
8.3679353649
 30
0.0
 10
13.6119734479
 20
8.3679947362
 30
0.0
 10
13.6125231946
 20
8.3680982241
 30
0.0
 10
13.6133813412
 20
8.3682598311
 30
0.0
 10
13.6146160231
 20
8.3684906061
 30
0.0
 10
13.6161233957
 20
8.3687708922
 30
0.0
 10
13.617902861
 20
8.3690997916
 30
0.0
 10
13.6199538094
 20
8.3694766558
 30
0.0
 10
13.6222756354
 20
8.3699007501
 30
0.0
 10
13.6259110152
 20
8.3705607804
 30
0.0
 10
13.631127828
 20
8.3714989262
 30
0.0
 10
13.6381928515
 20
8.3727538733
 30
0.0
 10
13.6463264524
 20
8.3741805583
 30
0.0
 10
13.6555214728
 20
8.3757729388
 30
0.0
 10
13.6657682095
 20
8.3775260359
 30
0.0
 10
13.6770550641
 20
8.3794344698
 30
0.0
 10
13.6941469708
 20
8.3822911995
 30
0.0
 10
13.718022164
 20
8.3862112179
 30
0.0
 10
13.7496292725
 20
8.3912841984
 30
0.0
 10
13.7850854202
 20
8.3968447384
 30
0.0
 10
13.8242554344
 20
8.4028332964
 30
0.0
 10
13.8669870749
 20
8.4091877983
 30
0.0
 10
13.9131219539
 20
8.4158454188
 30
0.0
 10
13.9624884696
 20
8.4227402551
 30
0.0
 10
14.0148811543
 20
8.4297603862
 30
0.0
 10
14.0699661276
 20
8.4367737431
 30
0.0
 10
14.1076027118
 20
8.4410596273
 30
0.0
 10
14.1268049506
 20
8.443059179
 30
0.0
  0
LINE
  5
512
100
AcDbEntity
  8
0
100
AcDbLine
 62
9
  6
CONTINUOUS
 10
14.5860506725
 20
9.1386036131
 11
14.586012721
 21
9.1414318741
  0
LINE
  5
513
100
AcDbEntity
  8
0
100
AcDbLine
 62
9
  6
CONTINUOUS
 10
14.586012721
 20
9.1414318741
 11
14.5859774028
 21
9.1439686027
  0
SPLINE
  5
514
100
AcDbEntity
  8
0
100
AcDbSpline
 62
9
  6
CONTINUOUS
 70
0
 71
3
 72
14
 73
10
 74
0
 42
0.0000001
 43
0.0000001
 44
0.0000000001
 40
0.0
 40
0.0
 40
0.0
 40
0.0
 40
0.1249991588
 40
0.2500112605
 40
0.3750399617
 40
0.5000838947
 40
0.6251183074
 40
0.7501200745
 40
1.0
 40
1.0
 40
1.0
 40
1.0
 10
14.5859774028
 20
9.1439686027
 30
0.0
 10
14.5857531874
 20
9.1598019535
 30
0.0
 10
14.5851634512
 20
9.1914684654
 30
0.0
 10
14.5838627852
 20
9.2389614317
 30
0.0
 10
14.5821504685
 20
9.2864470063
 30
0.0
 10
14.5800427173
 20
9.3339195116
 30
0.0
 10
14.5774160918
 20
9.3813637204
 30
0.0
 10
14.5730358062
 20
9.4445422935
 30
0.0
 10
14.5685558247
 20
9.491836975
 30
0.0
 10
14.5648569881
 20
9.5232750083
 30
0.0
  0
SPLINE
  5
515
100
AcDbEntity
  8
0
100
AcDbSpline
 62
9
  6
CONTINUOUS
 70
0
 71
3
 72
16
 73
12
 74
0
 42
0.0000001
 43
0.0000001
 44
0.0000000001
 40
0.0
 40
0.0
 40
0.0
 40
0.0
 40
0.214678312
 40
0.4102449534
 40
0.5827990863
 40
0.7289839068
 40
0.8457695875
 40
0.9309189963
 40
0.9610205925
 40
0.9826217287
 40
1.0
 40
1.0
 40
1.0
 40
1.0
 10
12.966505259
 20
8.8654626121
 30
0.0
 10
12.923620749
 20
8.8689442663
 30
0.0
 10
12.8416185131
 20
8.874984454
 30
0.0
 10
12.7250213404
 20
8.8819816836
 30
0.0
 10
12.6220608465
 20
8.8869207745
 30
0.0
 10
12.5348318054
 20
8.8901553854
 30
0.0
 10
12.4650866996
 20
8.892050478
 30
0.0
 10
12.4185889465
 20
8.8928881856
 30
0.0
 10
12.3911626785
 20
8.893181073
 30
0.0
 10
12.3773177647
 20
8.893271675
 30
0.0
 10
12.3695055438
 20
8.8932804341
 30
0.0
 10
12.3660225913
 20
8.8932730384
 30
0.0
  0
SPLINE
  5
516
100
AcDbEntity
  8
0
100
AcDbSpline
 62
9
  6
CONTINUOUS
 70
0
 71
3
 72
37
 73
33
 74
0
 42
0.0000001
 43
0.0000001
 44
0.0000000001
 40
0.0
 40
0.0
 40
0.0
 40
0.0
 40
0.1076695221
 40
0.213406194
 40
0.314484129
 40
0.4101508377
 40
0.4999224665
 40
0.5833546426
 40
0.6600476124
 40
0.7296053805
 40
0.7917002169
 40
0.8461036383
 40
0.8703520886
 40
0.8925957564
 40
0.9128096865
 40
0.930969141
 40
0.9470493788
 40
0.9610256568
 40
0.9728742917
 40
0.9779968534
 40
0.9825845297
 40
0.9866370713
 40
0.9901542263
 40
0.9931357402
 40
0.9955813569
 40
0.9974908188
 40
0.9982444118
 40
0.998863871
 40
0.9993491669
 40
0.9997002741
 40
0.9999171829
 40
1.0
 40
1.0
 40
1.0
 40
1.0
 10
14.0014568947
 20
8.6844797001
 30
0.0
 10
13.9807923186
 20
8.6818085998
 30
0.0
 10
13.9398053968
 20
8.6767380316
 30
0.0
 10
13.8793823484
 20
8.6694606522
 30
0.0
 10
13.8212853672
 20
8.6622959777
 30
0.0
 10
13.7662684963
 20
8.6553996253
 30
0.0
 10
13.71465186
 20
8.6488337126
 30
0.0
 10
13.6666880374
 20
8.6426506214
 30
0.0
 10
13.6226149628
 20
8.6368828346
 30
0.0
 10
13.5826480149
 20
8.6315615695
 30
0.0
 10
13.5469689603
 20
8.6267196627
 30
0.0
 10
13.5199877475
 20
8.622990451
 30
0.0
 10
13.5006512833
 20
8.620279474
 30
0.0
 10
13.487869472
 20
8.6184708531
 30
0.0
 10
13.476256611
 20
8.6168117546
 30
0.0
 10
13.4658266647
 20
8.6153064399
 30
0.0
 10
13.4565935661
 20
8.6139590888
 30
0.0
 10
13.4485710042
 20
8.612774124
 30
0.0
 10
13.4426481104
 20
8.6118864472
 30
0.0
 10
13.4385231376
 20
8.611260922
 30
0.0
 10
13.4358902379
 20
8.6108589369
 30
0.0
 10
13.4335647947
 20
8.6105016599
 30
0.0
 10
13.4315468313
 20
8.610189957
 30
0.0
 10
13.4298363615
 20
8.6099245845
 30
0.0
 10
13.4284334332
 20
8.6097065736
 30
0.0
 10
13.4274564711
 20
8.6095545835
 30
0.0
 10
13.4268287096
 20
8.6094580942
 30
0.0
 10
13.4264731027
 20
8.6094029325
 30
0.0
 10
13.4261947946
 20
8.6093629647
 30
0.0
 10
13.4259924427
 20
8.6093287561
 30
0.0
 10
13.4258688807
 20
8.6093201059
 30
0.0
 10
13.4258098831
 20
8.6093038894
 30
0.0
 10
13.4257944023
 20
8.6093080375
 30
0.0
  0
SPLINE
  5
517
100
AcDbEntity
  8
0
100
AcDbSpline
 62
9
  6
CONTINUOUS
 70
0
 71
3
 72
11
 73
7
 74
0
 42
0.0000001
 43
0.0000001
 44
0.0000000001
 40
0.0
 40
0.0
 40
0.0
 40
0.0
 40
0.2422283397
 40
0.491946028
 40
0.7457153687
 40
1.0
 40
1.0
 40
1.0
 40
1.0
 10
12.9664921775
 20
8.8654675416
 30
0.0
 10
12.9661205948
 20
8.929352219
 30
0.0
 10
12.9682803937
 20
9.0591233156
 30
0.0
 10
12.978714518
 20
9.2555563069
 30
0.0
 10
12.9955201755
 20
9.4547326263
 30
0.0
 10
13.0104298967
 20
9.5879130543
 30
0.0
 10
13.018718643
 20
9.6544643797
 30
0.0
  0
SPLINE
  5
518
100
AcDbEntity
  8
0
100
AcDbSpline
 62
9
  6
CONTINUOUS
 70
0
 71
3
 72
11
 73
7
 74
0
 42
0.0000001
 43
0.0000001
 44
0.0000000001
 40
0.0
 40
0.0
 40
0.0
 40
0.0
 40
0.2431579744
 40
0.4929388908
 40
0.7462712288
 40
1.0
 40
1.0
 40
1.0
 40
1.0
 10
13.2023702384
 20
8.8074544151
 30
0.0
 10
13.2015104277
 20
8.8711763343
 30
0.0
 10
13.2023883131
 20
9.0003992982
 30
0.0
 10
13.2102161876
 20
9.1958560137
 30
0.0
 10
13.22378812
 20
9.3937702287
 30
0.0
 10
13.2361773535
 20
9.5260980306
 30
0.0
 10
13.2431177048
 20
9.5922330123
 30
0.0
  0
SPLINE
  5
519
100
AcDbEntity
  8
0
100
AcDbSpline
 62
9
  6
CONTINUOUS
 70
0
 71
3
 72
17
 73
13
 74
0
 42
0.0000001
 43
0.0000001
 44
0.0000000001
 40
0.0
 40
0.0
 40
0.0
 40
0.0
 40
0.1249119254
 40
0.2498891219
 40
0.3123946451
 40
0.3749096312
 40
0.4374332985
 40
0.4999631515
 40
0.6250240124
 40
0.7500632498
 40
0.8750639891
 40
1.0
 40
1.0
 40
1.0
 40
1.0
 10
14.1611664053
 20
9.5062965634
 30
0.0
 10
14.1572725181
 20
9.4717629863
 30
0.0
 10
14.1502312335
 20
9.4025904896
 30
0.0
 10
14.1435857956
 20
9.3159209029
 30
0.0
 10
14.1397330601
 20
9.2464722783
 30
0.0
 10
14.1376247982
 20
9.1943351935
 30
0.0
 10
14.1362978738
 20
9.1421656582
 30
0.0
 10
14.1355440606
 20
9.0725820711
 30
0.0
 10
14.1364647578
 20
8.9855959153
 30
0.0
 10
14.1404331593
 20
8.881300721
 30
0.0
 10
14.1470121061
 20
8.7771747435
 30
0.0
 10
14.1529540049
 20
8.7078868041
 30
0.0
 10
14.1562690198
 20
8.6732861282
 30
0.0
  0
SPLINE
  5
51A
100
AcDbEntity
  8
0
100
AcDbSpline
 62
9
  6
CONTINUOUS
 70
0
 71
3
 72
49
 73
45
 74
0
 42
0.0000001
 43
0.0000001
 44
0.0000000001
 40
0.0
 40
0.0
 40
0.0
 40
0.0
 40
0.0003135064
 40
0.0010794625
 40
0.0023756973
 40
0.0042772015
 40
0.006804641
 40
0.0097003546
 40
0.01278446
 40
0.0144513511
 40
0.0162856972
 40
0.0207933038
 40
0.0267897737
 40
0.0341442778
 40
0.0378685321
 40
0.0413465751
 40
0.0445006615
 40
0.0474723468
 40
0.0504804975
 40
0.0537494675
 40
0.0574427965
 40
0.0615336436
 40
0.0703036981
 40
0.0789112392
 40
0.0871299702
 40
0.0953940376
 40
0.1042673297
 40
0.1138526106
 40
0.1239223006
 40
0.1448603009
 40
0.1671932589
 40
0.1911613513
 40
0.216953849
 40
0.2447477105
 40
0.2747238568
 40
0.3069444471
 40
0.3414104974
 40
0.3781000785
 40
0.4580641691
 40
0.5468973631
 40
0.6448365878
 40
0.7526428973
 40
0.8710846155
 40
1.0
 40
1.0
 40
1.0
 40
1.0
 10
6.8824869881
 20
10.3625819745
 30
0.0
 10
6.8825024965
 20
10.3625777879
 30
0.0
 10
6.8825476582
 20
10.3626321186
 30
0.0
 10
6.8826169485
 20
10.3627154142
 30
0.0
 10
6.8827566373
 20
10.362873423
 30
0.0
 10
6.8829709068
 20
10.3630694037
 30
0.0
 10
6.8832664187
 20
10.3633029385
 30
0.0
 10
6.8835780659
 20
10.3636098173
 30
0.0
 10
6.883781128
 20
10.3639547987
 30
0.0
 10
6.8838588981
 20
10.3642857008
 30
0.0
 10
6.8838640263
 20
10.3646993564
 30
0.0
 10
6.8836705422
 20
10.3653140281
 30
0.0
 10
6.8832174729
 20
10.3661109668
 30
0.0
 10
6.8827000751
 20
10.3668177303
 30
0.0
 10
6.8823074356
 20
10.3674524255
 30
0.0
 10
6.8820777104
 20
10.3679332884
 30
0.0
 10
6.881962675
 20
10.36841684
 30
0.0
 10
6.8819794653
 20
10.368890848
 30
0.0
 10
6.8821331518
 20
10.3693458038
 30
0.0
 10
6.8824211693
 20
10.36977381
 30
0.0
 10
6.8828294076
 20
10.3701696107
 30
0.0
 10
6.8834945341
 20
10.3706963624
 30
0.0
 10
6.8843926887
 20
10.3713326326
 30
0.0
 10
6.885359049
 20
10.3722279524
 30
0.0
 10
6.8860952394
 20
10.373305072
 30
0.0
 10
6.8864439387
 20
10.3745763162
 30
0.0
 10
6.8865123456
 20
10.3759485622
 30
0.0
 10
6.8864262823
 20
10.3774082698
 30
0.0
 10
6.8862822206
 20
10.3794840287
 30
0.0
 10
6.8863973363
 20
10.3822207788
 30
0.0
 10
6.8866908201
 20
10.3856519705
 30
0.0
 10
6.8869811444
 20
10.3893354102
 30
0.0
 10
6.887108957
 20
10.393308904
 30
0.0
 10
6.8870049012
 20
10.3975920048
 30
0.0
 10
6.8866004332
 20
10.4021879417
 30
0.0
 10
6.8859122789
 20
10.4070944976
 30
0.0
 10
6.8849530984
 20
10.4123051687
 30
0.0
 10
6.8832823208
 20
10.4198671307
 30
0.0
 10
6.8805443035
 20
10.4300400044
 30
0.0
 10
6.8763117048
 20
10.4430405853
 30
0.0
 10
6.8709653757
 20
10.457162322
 30
0.0
 10
6.8642672144
 20
10.4723722883
 30
0.0
 10
6.8560251195
 20
10.488605526
 30
0.0
 10
6.8497774665
 20
10.4996377268
 30
0.0
 10
6.8464146708
 20
10.5053230937
 30
0.0
  0
SPLINE
  5
51B
100
AcDbEntity
  8
0
100
AcDbSpline
 62
9
  6
CONTINUOUS
 70
0
 71
3
 72
68
 73
64
 74
0
 42
0.0000001
 43
0.0000001
 44
0.0000000001
 40
0.0
 40
0.0
 40
0.0
 40
0.0
 40
0.0015266145
 40
0.0032196889
 40
0.005346155
 40
0.0079734152
 40
0.0145737794
 40
0.0185557288
 40
0.0230933231
 40
0.0283460026
 40
0.0312301893
 40
0.0342531732
 40
0.037336372
 40
0.0403043152
 40
0.041721552
 40
0.0431108515
 40
0.0459409187
 40
0.0488819169
 40
0.0504454075
 40
0.0521559298
 40
0.054032545
 40
0.0560525902
 40
0.0603493737
 40
0.0647349656
 40
0.0691481673
 40
0.0780637772
 40
0.0826262684
 40
0.087357001
 40
0.0924108309
 40
0.0979348965
 40
0.1104636706
 40
0.1242470818
 40
0.1379600138
 40
0.1449019134
 40
0.151972359
 40
0.1659171821
 40
0.1789165077
 40
0.1914358794
 40
0.2040921195
 40
0.2174459371
 40
0.2320076536
 40
0.247634617
 40
0.2639280289
 40
0.2806054149
 40
0.2974757522
 40
0.3144457547
 40
0.3316537792
 40
0.3492651295
 40
0.3673744248
 40
0.3859190301
 40
0.4048132928
 40
0.4434375031
 40
0.4832156364
 40
0.5242137386
 40
0.5664328041
 40
0.6098782466
 40
0.6545816865
 40
0.7005617684
 40
0.7477836608
 40
0.7961985296
 40
0.8457367898
 40
0.8963202058
 40
1.0
 40
1.0
 40
1.0
 40
1.0
 10
6.6114568442
 20
10.1958732939
 30
0.0
 10
6.6114274417
 20
10.1957492107
 30
0.0
 10
6.6113257012
 20
10.1954950143
 30
0.0
 10
6.6110445706
 20
10.1951434038
 30
0.0
 10
6.6106491436
 20
10.1947768334
 30
0.0
 10
6.609897277
 20
10.1941965266
 30
0.0
 10
6.6089356769
 20
10.1936464367
 30
0.0
 10
6.6078030092
 20
10.1930889733
 30
0.0
 10
6.6067661639
 20
10.1925898505
 30
0.0
 10
6.6058352382
 20
10.1920851103
 30
0.0
 10
6.6050180906
 20
10.1916365955
 30
0.0
 10
6.6043569383
 20
10.191280347
 30
0.0
 10
6.6036798767
 20
10.1909393436
 30
0.0
 10
6.6030871272
 20
10.1907310219
 30
0.0
 10
6.6026079014
 20
10.1906610527
 30
0.0
 10
6.6021343643
 20
10.1906792525
 30
0.0
 10
6.6015561726
 20
10.1908379298
 30
0.0
 10
6.6009509348
 20
10.1909620538
 30
0.0
 10
6.6004287414
 20
10.1909239087
 30
0.0
 10
6.6000138077
 20
10.1908022906
 30
0.0
 10
6.5995836977
 20
10.1906153865
 30
0.0
 10
6.5989789308
 20
10.1902940616
 30
0.0
 10
6.5982154767
 20
10.1898285377
 30
0.0
 10
6.5972682284
 20
10.1892813225
 30
0.0
 10
6.5959685668
 20
10.1885735661
 30
0.0
 10
6.5946182708
 20
10.187929615
 30
0.0
 10
6.5932148177
 20
10.1873433548
 30
0.0
 10
6.5921072779
 20
10.186885207
 30
0.0
 10
6.5909575922
 20
10.1863219551
 30
0.0
 10
6.5893088338
 20
10.1853132199
 30
0.0
 10
6.5872146562
 20
10.1836646444
 30
0.0
 10
6.5847109503
 20
10.1814482524
 30
0.0
 10
6.5823950023
 20
10.1797374423
 30
0.0
 10
6.580520189
 20
10.1783781051
 30
0.0
 10
6.5786386311
 20
10.1769960789
 30
0.0
 10
6.5763007411
 20
10.1753698489
 30
0.0
 10
6.5733084161
 20
10.1739500813
 30
0.0
 10
6.5702610972
 20
10.1729939467
 30
0.0
 10
6.5671402628
 20
10.1722115865
 30
0.0
 10
6.5638923249
 20
10.1712247024
 30
0.0
 10
6.5605612744
 20
10.169747675
 30
0.0
 10
6.5571095499
 20
10.1679701957
 30
0.0
 10
6.5535350413
 20
10.1660458304
 30
0.0
 10
6.5498594905
 20
10.1640905702
 30
0.0
 10
6.5460894687
 20
10.1621930335
 30
0.0
 10
6.542209008
 20
10.1604236018
 30
0.0
 10
6.5382401639
 20
10.1587025075
 30
0.0
 10
6.5341839043
 20
10.1569435033
 30
0.0
 10
6.5300485798
 20
10.1550871231
 30
0.0
 10
6.5258192361
 20
10.1531787745
 30
0.0
 10
6.5200142518
 20
10.1505957951
 30
0.0
 10
6.5125239694
 20
10.147439545
 30
0.0
 10
6.5032584322
 20
10.1437476455
 30
0.0
 10
6.4936612518
 20
10.1400797682
 30
0.0
 10
6.4837281506
 20
10.1364355107
 30
0.0
 10
6.4734617711
 20
10.1328035269
 30
0.0
 10
6.4628706706
 20
10.1291488173
 30
0.0
 10
6.4519646521
 20
10.1254401002
 30
0.0
 10
6.4407444199
 20
10.1216928003
 30
0.0
 10
6.4292212701
 20
10.1179153551
 30
0.0
 10
6.4173923083
 20
10.1141680631
 30
0.0
 10
6.4010887526
 20
10.1092775377
 30
0.0
 10
6.3885994131
 20
10.1060206137
 30
0.0
 10
6.3801009216
 20
10.104353599
 30
0.0
  0
SPLINE
  5
51C
100
AcDbEntity
  8
0
100
AcDbSpline
 62
9
  6
CONTINUOUS
 70
0
 71
3
 72
17
 73
13
 74
0
 42
0.0000001
 43
0.0000001
 44
0.0000000001
 40
0.0
 40
0.0
 40
0.0
 40
0.0
 40
0.1250421122
 40
0.1877636558
 40
0.2503227587
 40
0.3752594673
 40
0.4377593569
 40
0.5002406005
 40
0.6251806318
 40
0.7501234512
 40
0.8750618944
 40
1.0
 40
1.0
 40
1.0
 40
1.0
 10
14.5648569881
 20
9.5232750083
 30
0.0
 10
14.5653364758
 20
9.5253425036
 30
0.0
 10
14.5657720489
 20
9.5285187868
 30
0.0
 10
14.5658793893
 20
9.5327679152
 30
0.0
 10
14.5656936719
 20
9.5370142047
 30
0.0
 10
14.5651824265
 20
9.5412297625
 30
0.0
 10
14.5646201732
 20
9.545433777
 30
0.0
 10
14.5641247032
 20
9.5496471305
 30
0.0
 10
14.5636470313
 20
9.5549277842
 30
0.0
 10
14.5630896736
 20
9.5612651918
 30
0.0
 10
14.5624568362
 20
9.5675956528
 30
0.0
 10
14.5620301737
 20
9.571815326
 30
0.0
 10
14.5618219835
 20
9.5739256841
 30
0.0
  0
SPLINE
  5
51D
100
AcDbEntity
  8
0
100
AcDbSpline
 62
7
  6
CONTINUOUS
 70
0
 71
3
 72
13
 73
9
 74
0
 42
0.0000001
 43
0.0000001
 44
0.0000000001
 40
0.0
 40
0.0
 40
0.0
 40
0.0
 40
0.2471262584
 40
0.3715566931
 40
0.4964884664
 40
0.6218550033
 40
0.7476151415
 40
1.0
 40
1.0
 40
1.0
 40
1.0
 10
14.5618219874
 20
9.5739256841
 30
0.0
 10
14.534679204
 20
9.5675026768
 30
0.0
 10
14.4938567086
 20
9.5578963545
 30
0.0
 10
14.439149323
 20
9.5457562906
 30
0.0
 10
14.397749341
 20
9.5370974876
 30
0.0
 10
14.356055169
 20
9.5291324671
 30
0.0
 10
14.3000044145
 20
9.519740519
 30
0.0
 10
14.2576252983
 20
9.5143954425
 30
0.0
 10
14.2292588972
 20
9.5117887616
 30
0.0
  0
SPLINE
  5
51E
100
AcDbEntity
  8
0
100
AcDbSpline
 62
9
  6
CONTINUOUS
 70
0
 71
3
 72
16
 73
12
 74
0
 42
0.0000001
 43
0.0000001
 44
0.0000000001
 40
0.0
 40
0.0
 40
0.0
 40
0.0
 40
0.1284457128
 40
0.2560714737
 40
0.3828028533
 40
0.5085445937
 40
0.5710402386
 40
0.6332698436
 40
0.7568080171
 40
0.8790358283
 40
1.0
 40
1.0
 40
1.0
 40
1.0
 10
14.4206175647
 20
8.5673850509
 30
0.0
 10
14.4140598242
 20
8.5630216241
 30
0.0
 10
14.4009137597
 20
8.5544306873
 30
0.0
 10
14.3810284722
 20
8.541952692
 30
0.0
 10
14.3610575682
 20
8.5299293067
 30
0.0
 10
14.3442743984
 20
8.5203656658
 30
0.0
 10
14.3308210916
 20
8.5129541669
 30
0.0
 10
14.3174151448
 20
8.5057384479
 30
0.0
 10
14.3006078147
 20
8.4971131004
 30
0.0
 10
14.2802272026
 20
8.487596039
 30
0.0
 10
14.2665733046
 20
8.4815964901
 30
0.0
 10
14.2597691259
 20
8.4786419267
 30
0.0
  0
SPLINE
  5
51F
100
AcDbEntity
  8
0
100
AcDbSpline
 62
7
  6
CONTINUOUS
 70
0
 71
3
 72
10
 73
6
 74
0
 42
0.0000001
 43
0.0000001
 44
0.0000000001
 40
0.0
 40
0.0
 40
0.0
 40
0.0
 40
0.2510774112
 40
0.5015696801
 40
1.0
 40
1.0
 40
1.0
 40
1.0
 10
14.1570545612
 20
8.673225106
 30
0.0
 10
14.1765762271
 20
8.6720611894
 30
0.0
 10
14.2155972255
 20
8.6700998475
 30
0.0
 10
14.2934519657
 20
8.6676913625
 30
0.0
 10
14.3518123555
 20
8.6677351928
 30
0.0
 10
14.3906222285
 20
8.6687278119
 30
0.0
  0
SPLINE
  5
520
100
AcDbEntity
  8
0
100
AcDbSpline
 62
9
  6
CONTINUOUS
 70
0
 71
3
 72
13
 73
9
 74
0
 42
0.0000001
 43
0.0000001
 44
0.0000000001
 40
0.0
 40
0.0
 40
0.0
 40
0.0
 40
0.2590243437
 40
0.386413339
 40
0.5122802118
 40
0.6366063262
 40
0.75938061
 40
1.0
 40
1.0
 40
1.0
 40
1.0
 10
14.2597691259
 20
8.4786419267
 30
0.0
 10
14.2487579881
 20
8.474064746
 30
0.0
 10
14.23213643
 20
8.4676854425
 30
0.0
 10
14.2097242291
 20
8.4603333408
 30
0.0
 10
14.1930232548
 20
8.4554999644
 30
0.0
 10
14.1763643522
 20
8.4513234252
 30
0.0
 10
14.1543975891
 20
8.4466658802
 30
0.0
 10
14.1378272041
 20
8.4441619499
 30
0.0
 10
14.1268049564
 20
8.4430590903
 30
0.0
  0
SPLINE
  5
521
100
AcDbEntity
  8
0
100
AcDbSpline
 62
9
  6
CONTINUOUS
 70
0
 71
3
 72
15
 73
11
 74
0
 42
0.0000001
 43
0.0000001
 44
0.0000000001
 40
0.0
 40
0.0
 40
0.0
 40
0.0
 40
0.1080030004
 40
0.2232984697
 40
0.3447204732
 40
0.4711012741
 40
0.6012138942
 40
0.7337360084
 40
0.8672392283
 40
1.0
 40
1.0
 40
1.0
 40
1.0
 10
14.1570542973
 20
8.6732254986
 30
0.0
 10
14.1626634843
 20
8.6675182118
 30
0.0
 10
14.1737058781
 20
8.6551656527
 30
0.0
 10
14.1891967501
 20
8.634831068
 30
0.0
 10
14.2039550073
 20
8.612312431
 30
0.0
 10
14.2177800655
 20
8.5879422387
 30
0.0
 10
14.2304778249
 20
8.5620483253
 30
0.0
 10
14.2418811349
 20
8.5349858654
 30
0.0
 10
14.2518130112
 20
8.507142536
 30
0.0
 10
14.2574055176
 20
8.4882106944
 30
0.0
 10
14.2599189809
 20
8.4787006042
 30
0.0
  0
SPLINE
  5
522
100
AcDbEntity
  8
0
100
AcDbSpline
 62
9
  6
CONTINUOUS
 70
0
 71
3
 72
17
 73
13
 74
0
 42
0.0000001
 43
0.0000001
 44
0.0000000001
 40
0.0
 40
0.0
 40
0.0
 40
0.0
 40
0.0919204911
 40
0.1960127389
 40
0.2530088645
 40
0.3131316265
 40
0.4415581825
 40
0.5093021392
 40
0.5787682725
 40
0.7205154736
 40
0.8622729262
 40
1.0
 40
1.0
 40
1.0
 40
1.0
 10
14.0014602413
 20
8.6844799661
 30
0.0
 10
14.0094867473
 20
8.6810872346
 30
0.0
 10
14.0257672828
 20
8.6718016324
 30
0.0
 10
14.0440080688
 20
8.6560237867
 30
0.0
 10
14.0580197179
 20
8.6403949652
 30
0.0
 10
14.0721616378
 20
8.6218805104
 30
0.0
 10
14.0847427507
 20
8.6009872333
 30
0.0
 10
14.0955962579
 20
8.5782516435
 30
0.0
 10
14.1055414316
 20
8.5537327363
 30
0.0
 10
14.1155038615
 20
8.5217124647
 30
0.0
 10
14.1233401147
 20
8.4824940621
 30
0.0
 10
14.1260742968
 20
8.4560953422
 30
0.0
 10
14.1268052402
 20
8.4430592453
 30
0.0
  0
SPLINE
  5
523
100
AcDbEntity
  8
0
100
AcDbSpline
 62
7
  6
CONTINUOUS
 70
0
 71
3
 72
11
 73
7
 74
0
 42
0.0000001
 43
0.0000001
 44
0.0000000001
 40
0.0
 40
0.0
 40
0.0
 40
0.0
 40
0.2532688165
 40
0.5031551929
 40
0.7514562452
 40
1.0
 40
1.0
 40
1.0
 40
1.0
 10
14.1611915833
 20
9.5063019783
 30
0.0
 10
14.0832151598
 20
9.5000733606
 30
0.0
 10
13.9277001983
 20
9.4941553536
 30
0.0
 10
13.6955933077
 20
9.5055252138
 30
0.0
 10
13.4668449428
 20
9.5371901435
 30
0.0
 10
13.3170823036
 20
9.5717229584
 30
0.0
 10
13.2431088185
 20
9.592237618
 30
0.0
  0
SPLINE
  5
524
100
AcDbEntity
  8
0
100
AcDbSpline
 62
9
  6
CONTINUOUS
 70
0
 71
3
 72
16
 73
12
 74
0
 42
0.0000001
 43
0.0000001
 44
0.0000000001
 40
0.0
 40
0.0
 40
0.0
 40
0.0
 40
0.2180508308
 40
0.4147361168
 40
0.5871356495
 40
0.6633093941
 40
0.7323066494
 40
0.8475799604
 40
0.9314387558
 40
0.9826549131
 40
1.0
 40
1.0
 40
1.0
 40
1.0
 10
13.2431088185
 20
9.592237618
 30
0.0
 10
13.1992488852
 20
9.6156064899
 30
0.0
 10
13.1155084827
 20
9.6594599711
 30
0.0
 10
12.9961909998
 20
9.7200491116
 30
0.0
 10
12.9052477544
 20
9.7650825599
 30
0.0
 10
12.8402130242
 20
9.7968508722
 30
0.0
 10
12.7868152529
 20
9.8227775542
 30
0.0
 10
12.7318065404
 20
9.849396427
 30
0.0
 10
12.6804020924
 20
9.8741596174
 30
0.0
 10
12.6490824639
 20
9.8891885206
 30
0.0
 10
12.6349830335
 20
9.8959251569
 30
0.0
 10
12.6314152094
 20
9.8976276482
 30
0.0
  0
SPLINE
  5
525
100
AcDbEntity
  8
0
100
AcDbSpline
 62
9
  6
CONTINUOUS
 70
0
 71
3
 72
12
 73
8
 74
0
 42
0.0000001
 43
0.0000001
 44
0.0000000001
 40
0.0
 40
0.0
 40
0.0
 40
0.0
 40
0.2570260516
 40
0.3840047604
 40
0.5098321696
 40
0.7577223722
 40
1.0
 40
1.0
 40
1.0
 40
1.0
 10
14.5618219835
 20
9.5739256841
 30
0.0
 10
14.5389940235
 20
9.5810294396
 30
0.0
 10
14.5048792881
 20
9.5916136913
 30
0.0
 10
14.4596440294
 20
9.605851492
 30
0.0
 10
14.4152763897
 20
9.620014088
 30
0.0
 10
14.3608030335
 20
9.6377845289
 30
0.0
 10
14.3175828151
 20
9.6523054698
 30
0.0
 10
14.2962453294
 20
9.6595564809
 30
0.0
  0
SPLINE
  5
526
100
AcDbEntity
  8
0
100
AcDbSpline
 62
9
  6
CONTINUOUS
 70
0
 71
3
 72
16
 73
12
 74
0
 42
0.0000001
 43
0.0000001
 44
0.0000000001
 40
0.0
 40
0.0
 40
0.0
 40
0.0
 40
0.167623216
 40
0.3277426941
 40
0.4770476664
 40
0.5466660466
 40
0.6126073833
 40
0.7327955205
 40
0.7869637385
 40
0.8371833762
 40
1.0
 40
1.0
 40
1.0
 40
1.0
 10
14.2128681094
 20
9.5103936326
 30
0.0
 10
14.1767746091
 20
9.5143403448
 30
0.0
 10
14.1064442242
 20
9.5243490963
 30
0.0
 10
14.0049330415
 20
9.5437879868
 30
0.0
 10
13.9248285099
 20
9.561837651
 30
0.0
 10
13.8648189498
 20
9.5761990444
 30
0.0
 10
13.8110089009
 20
9.5893650616
 30
0.0
 10
13.7604531801
 20
9.6017498287
 30
0.0
 10
13.7131502669
 20
9.6130990111
 30
0.0
 10
13.6568024427
 20
9.6263226161
 30
0.0
 10
13.6117548398
 20
9.6363503846
 30
0.0
 10
13.5772377632
 20
9.6435869084
 30
0.0
  0
SPLINE
  5
527
100
AcDbEntity
  8
0
100
AcDbSpline
 62
9
  6
CONTINUOUS
 70
0
 71
3
 72
15
 73
11
 74
0
 42
0.0000001
 43
0.0000001
 44
0.0000000001
 40
0.0
 40
0.0
 40
0.0
 40
0.0
 40
0.1290908349
 40
0.2609836099
 40
0.393571926
 40
0.5247806987
 40
0.6526613961
 40
0.7755520612
 40
0.8918527311
 40
1.0
 40
1.0
 40
1.0
 40
1.0
 10
14.2962178855
 20
9.6595553135
 30
0.0
 10
14.2946381875
 20
9.6527013072
 30
0.0
 10
14.2910932654
 20
9.6389233582
 30
0.0
 10
14.2847703872
 20
9.6184245208
 30
0.0
 10
14.2774402535
 20
9.5981401322
 30
0.0
 10
14.269187821
 20
9.5784483065
 30
0.0
 10
14.2600903917
 20
9.5597171339
 30
0.0
 10
14.2503532565
 20
9.5422342188
 30
0.0
 10
14.2401766852
 20
9.526264915
 30
0.0
 10
14.2329342323
 20
9.5163951587
 30
0.0
 10
14.2292591152
 20
9.511789107
 30
0.0
  0
SPLINE
  5
528
100
AcDbEntity
  8
0
100
AcDbSpline
 62
9
  6
CONTINUOUS
 70
0
 71
3
 72
13
 73
9
 74
0
 42
0.0000001
 43
0.0000001
 44
0.0000000001
 40
0.0
 40
0.0
 40
0.0
 40
0.0
 40
0.2495110915
 40
0.3746146255
 40
0.4998174028
 40
0.6250410809
 40
0.7502076025
 40
1.0
 40
1.0
 40
1.0
 40
1.0
 10
5.9781521843
 20
10.737983736
 30
0.0
 10
5.9796329979
 20
10.6894675226
 30
0.0
 10
5.9822031333
 20
10.6166362245
 30
0.0
 10
5.9859095491
 20
10.519474669
 30
0.0
 10
5.9887706561
 20
10.4464767042
 30
0.0
 10
5.9917263932
 20
10.3734702569
 30
0.0
 10
5.9958100515
 20
10.2762526193
 30
0.0
 10
5.9989406354
 20
10.2033768893
 30
0.0
 10
6.0009302596
 20
10.1548241073
 30
0.0
  0
SPLINE
  5
529
100
AcDbEntity
  8
0
100
AcDbSpline
 62
7
  6
CONTINUOUS
 70
0
 71
3
 72
15
 73
11
 74
0
 42
0.0000001
 43
0.0000001
 44
0.0000000001
 40
0.0
 40
0.0
 40
0.0
 40
0.0
 40
0.17812041
 40
0.3547724636
 40
0.5227085082
 40
0.6753327048
 40
0.8061752367
 40
0.9086286293
 40
0.9758253892
 40
1.0
 40
1.0
 40
1.0
 40
1.0
 10
6.0506012745
 20
11.1924458419
 30
0.0
 10
6.0121033866
 20
11.1880451203
 30
0.0
 10
5.9354909721
 20
11.1786989594
 30
0.0
 10
5.8227696724
 20
11.1637203626
 30
0.0
 10
5.7156617422
 20
11.1486333964
 30
0.0
 10
5.6185091624
 20
11.1343334428
 30
0.0
 10
5.5355104456
 20
11.1217048797
 30
0.0
 10
5.4709249707
 20
11.1116090911
 30
0.0
 10
5.4292864472
 20
11.1049665368
 30
0.0
 10
5.4096666006
 20
11.1017790959
 30
0.0
 10
5.4044764042
 20
11.1009312764
 30
0.0
  0
SPLINE
  5
52A
100
AcDbEntity
  8
0
100
AcDbSpline
 62
9
  6
CONTINUOUS
 70
0
 71
3
 72
15
 73
11
 74
0
 42
0.0000001
 43
0.0000001
 44
0.0000000001
 40
0.0
 40
0.0
 40
0.0
 40
0.0
 40
0.1837531861
 40
0.3547603828
 40
0.4349108551
 40
0.5111201633
 40
0.6506058631
 40
0.7709990967
 40
0.870311532
 40
1.0
 40
1.0
 40
1.0
 40
1.0
 10
14.2962454378
 20
9.6595542739
 30
0.0
 10
14.2563964725
 20
9.6610578677
 30
0.0
 10
14.1794743737
 20
9.6642648138
 30
0.0
 10
14.0851794862
 20
9.6683289587
 30
0.0
 10
14.0141921953
 20
9.6711642017
 30
0.0
 10
13.9500320168
 20
9.6735141866
 30
0.0
 10
13.8771331438
 20
9.6758672032
 30
0.0
 10
13.7992112856
 20
9.677977759
 30
0.0
 10
13.7234068046
 20
9.679707317
 30
0.0
 10
13.6737181054
 20
9.680612666
 30
0.0
 10
13.6455778162
 20
9.6810954841
 30
0.0
  0
LINE
  5
52B
100
AcDbEntity
  8
0
100
AcDbLine
 62
9
  6
CONTINUOUS
 10
13.6455778162
 20
9.6810954841
 11
13.6240309189
 21
9.6814553723
  0
SPLINE
  5
52C
100
AcDbEntity
  8
0
100
AcDbSpline
 62
9
  6
CONTINUOUS
 70
0
 71
3
 72
28
 73
24
 74
0
 42
0.0000001
 43
0.0000001
 44
0.0000000001
 40
0.0
 40
0.0
 40
0.0
 40
0.0
 40
0.0862621169
 40
0.1735459244
 40
0.2610412503
 40
0.3479182758
 40
0.4333154441
 40
0.5162906812
 40
0.5958730822
 40
0.6710822616
 40
0.7409353266
 40
0.8044628936
 40
0.8606947699
 40
0.8857703765
 40
0.9086560935
 40
0.9292330102
 40
0.9473963285
 40
0.9630446392
 40
0.9760763558
 40
0.9863897266
 40
0.993882846
 40
0.9984536649
 40
1.0
 40
1.0
 40
1.0
 40
1.0
 10
5.9781538065
 20
10.7379898536
 30
0.0
 10
5.9594274741
 20
10.743007465
 30
0.0
 10
5.9215842226
 20
10.7524798593
 30
0.0
 10
5.864284832
 20
10.7651052208
 30
0.0
 10
5.8065525307
 20
10.7763189385
 30
0.0
 10
5.7490026646
 20
10.7861651037
 30
0.0
 10
5.6922695973
 20
10.7946857325
 30
0.0
 10
5.6370182391
 20
10.8019669556
 30
0.0
 10
5.5839315853
 20
10.8080916594
 30
0.0
 10
5.533695681
 20
10.8131428177
 30
0.0
 10
5.4869911965
 20
10.8172034337
 30
0.0
 10
5.4444944523
 20
10.8203770728
 30
0.0
 10
5.4120081828
 20
10.8224426227
 30
0.0
 10
5.3886281979
 20
10.8237444984
 30
0.0
 10
5.3732426596
 20
10.8245261717
 30
0.0
 10
5.3594128837
 20
10.8251644004
 30
0.0
 10
5.347182519
 20
10.8256732041
 30
0.0
 10
5.336713945
 20
10.8260648799
 30
0.0
 10
5.3278080714
 20
10.8263575544
 30
0.0
 10
5.3212667215
 20
10.8265532529
 30
0.0
 10
5.3153454307
 20
10.8266949414
 30
0.0
 10
5.3138854014
 20
10.8267356911
 30
0.0
 10
5.3108334297
 20
10.8267882754
 30
0.0
 10
5.3111809162
 20
10.8267827979
 30
0.0
  0
SPLINE
  5
52D
100
AcDbEntity
  8
0
100
AcDbSpline
 62
7
  6
CONTINUOUS
 70
0
 71
3
 72
24
 73
20
 74
0
 42
0.0000001
 43
0.0000001
 44
0.0000000001
 40
0.0
 40
0.0
 40
0.0
 40
0.0
 40
0.0625028814
 40
0.1249906259
 40
0.1874666735
 40
0.2499424477
 40
0.3124219007
 40
0.3749103416
 40
0.4998295604
 40
0.5623513139
 40
0.6248827595
 40
0.7499007851
 40
0.8124389963
 40
0.8749723414
 40
0.9062372197
 40
0.937497882
 40
0.953130709
 40
0.9687638738
 40
1.0
 40
1.0
 40
1.0
 40
1.0
 10
6.8469816192
 20
10.5052075136
 30
0.0
 10
6.8285498188
 20
10.5101462162
 30
0.0
 10
6.7911276757
 20
10.5180371138
 30
0.0
 10
6.7341017471
 20
10.5239274325
 30
0.0
 10
6.6767819321
 20
10.5240275015
 30
0.0
 10
6.619733376
 20
10.5186062652
 30
0.0
 10
6.5634205928
 20
10.507989452
 30
0.0
 10
6.4898804644
 20
10.4874128398
 30
0.0
 10
6.4191198027
 20
10.4579273629
 30
0.0
 10
6.3521870707
 20
10.4211781019
 30
0.0
 10
6.2878410786
 20
10.3799987683
 30
0.0
 10
6.2275706441
 20
10.3327533756
 30
0.0
 10
6.171902042
 20
10.2804549705
 30
0.0
 10
6.1391325209
 20
10.2456993357
 30
0.0
 10
6.114412311
 20
10.2165931987
 30
0.0
 10
6.0996906746
 20
10.1978038388
 30
0.0
 10
6.0884462038
 20
10.1823754031
 30
0.0
 10
6.0776019216
 20
10.1666735445
 30
0.0
 10
6.070000286
 20
10.1545331082
 30
0.0
 10
6.0652568553
 20
10.1462601896
 30
0.0
  0
SPLINE
  5
52E
100
AcDbEntity
  8
0
100
AcDbSpline
 62
7
  6
CONTINUOUS
 70
0
 71
3
 72
15
 73
11
 74
0
 42
0.0000001
 43
0.0000001
 44
0.0000000001
 40
0.0
 40
0.0
 40
0.0
 40
0.0
 40
0.126089705
 40
0.2497491546
 40
0.3720472642
 40
0.4940349969
 40
0.6167435703
 40
0.7412375148
 40
0.8686172287
 40
1.0
 40
1.0
 40
1.0
 40
1.0
 10
8.004109509
 20
11.0451712658
 30
0.0
 10
7.9242739003
 20
11.0673117329
 30
0.0
 10
7.7650694521
 20
11.1074151578
 30
0.0
 10
7.5252604269
 20
11.1553564795
 30
0.0
 10
7.2860318557
 20
11.1909525684
 30
0.0
 10
7.0459894623
 20
11.2148313689
 30
0.0
 10
6.8036574962
 20
11.2276269081
 30
0.0
 10
6.5574387696
 20
11.2287926388
 30
0.0
 10
6.3057626476
 20
11.2177919978
 30
0.0
 10
6.1363754203
 20
11.2022778533
 30
0.0
 10
6.0506074634
 20
11.1924720677
 30
0.0
  0
SPLINE
  5
52F
100
AcDbEntity
  8
0
100
AcDbSpline
 62
9
  6
CONTINUOUS
 70
0
 71
3
 72
10
 73
6
 74
0
 42
0.0000001
 43
0.0000001
 44
0.0000000001
 40
0.0
 40
0.0
 40
0.0
 40
0.0
 40
0.2510400538
 40
0.6273706478
 40
1.0
 40
1.0
 40
1.0
 40
1.0
 10
6.0625424598
 20
10.1466213997
 30
0.0
 10
6.0562613891
 20
10.1962126198
 30
0.0
 10
6.0397048052
 20
10.3200369726
 30
0.0
 10
6.0110212695
 20
10.5170840621
 30
0.0
 10
5.9889283101
 20
10.6645721704
 30
0.0
 10
5.9781529007
 20
10.7379839961
 30
0.0
  0
ENDSEC
  0
SECTION
  2
OBJECTS
  0
DICTIONARY
  5
C
100
AcDbDictionary
280
0
281
1
  3
ACAD_GROUP
350
D
  3
ACAD_MLINESTYLE
350
17
  3
ACAD_LAYOUT
350
1A
  3
ACAD_PLOTSETTINGS
350
19
  3
ACAD_PLOTSTYLENAME
350
E
  0
DICTIONARY
  5
D
102
{ACAD_REACTORS
330
C
102
}
100
AcDbDictionary
280
0
281
1
  0
ACDBDICTIONARYWDFLT
  5
E
102
{ACAD_REACTORS
330
C
102
}
100
AcDbDictionary
281
1
  3
Normal
350
F
100
AcDbDictionaryWithDefault
340
F
  0
DICTIONARY
  5
17
102
{ACAD_REACTORS
330
C
102
}
100
AcDbDictionary
280
0
281
1
  3
Standard
350
18
  0
DICTIONARY
  5
19
102
{ACAD_REACTORS
330
C
102
}
100
AcDbDictionary
281
1
  0
DICTIONARY
  5
1A
102
{ACAD_REACTORS
330
C
102
}
100
AcDbDictionary
281
1
  3
Model
350
530
  3
Layout1
350
531
  0
ACDBPLACEHOLDER
  5
F
102
{ACAD_REACTORS
330
E
102
}
  0
MLINESTYLE
  5
18
102
{ACAD_REACTORS
330
17
102
}
100
AcDbMlineStyle
  2
STANDARD
 70
0
  3

 62
256
 51
90.0
 52
90.0
 71
2
 49
0.5
 62
256
  6
BYLAYER
 49
-0.5
 62
256
  6
BYLAYER
  0
LAYOUT
  5
530
102
{ACAD_REACTORS
330
1A
102
}
100
AcDbPlotSettings
  1

  2
none_device
  4
ANSI_C_(22.00_x_17.00_Inches)
  6

 40
0.0
 41
0.0
 42
0.0
 43
0.0
 44
558.8
 45
431.8
 46
0.0
 47
0.0
 48
0.0
 49
0.0
140
0.0
141
0.0
142
1.0
143
1.0
 70
1024
 72
0
 73
0
 74
0
  7

 75
0
147
1.0
148
0.0
149
0.0
100
AcDbLayout
  1
Model
 70
0
 71
0
 10
0.0
 20
0.0
 11
22.0
 21
17.0
 12
0.0
 22
0.0
 32
0.0
 14
0.0
 24
0.0
 34
0.0
 15
0.0
 25
0.0
 35
0.0
146
0.0
 13
0.0
 23
0.0
 33
0.0
 16
1.0
 26
0.0
 36
0.0
 17
0.0
 27
1.0
 37
0.0
 76
0
330
202
345
0
346
0
  0
LAYOUT
  5
531
102
{ACAD_REACTORS
330
1A
102
}
100
AcDbPlotSettings
  1

  2
none_device
  4
ANSI_C_(22.00_x_17.00_Inches)
  6

 40
0.0
 41
0.0
 42
0.0
 43
0.0
 44
558.8
 45
431.8
 46
0.0
 47
0.0
 48
0.0
 49
0.0
140
0.0
141
0.0
142
1.0
143
1.0
 70
0
 72
0
 73
0
 74
0
  7

 75
0
147
1.0
148
0.0
149
0.0
100
AcDbLayout
  1
Layout1
 70
0
 71
1
 10
0.0
 20
0.0
 11
22.0
 21
17.0
 12
0.0
 22
0.0
 32
0.0
 14
0.0
 24
0.0
 34
0.0
 15
0.0
 25
0.0
 35
0.0
146
0.0
 13
0.0
 23
0.0
 33
0.0
 16
1.0
 26
0.0
 36
0.0
 17
0.0
 27
1.0
 37
0.0
 76
0
330
203
345
0
346
0
  0
ENDSEC
  0
EOF
