999
DXF file: E:\BT Custom\CADOUTPUT\_TOP.dxf
999
Pro/ENGINEER 2018400 by Parametric Technology Corporation
  0
SECTION
  2
HEADER
  9
$ACADVER
  1
AC1018
  9
$DWGCODEPAGE
  3
ANSI_1252
  9
$EXTMAX
 10
22.0
 20
17.0
 30
0.0
  9
$EXTMIN
 10
0.0
 20
0.0
 30
0.0
  9
$LIMMIN
 10
0.0
 20
0.0
  9
$LIMMAX
 10
22.0
 20
17.0
  9
$VIEWCTR
 10
11.0
 20
8.5
  9
$VIEWSIZE
 40
17.0
  9
$CLAYER
  8
0
  9
$LTSCALE
 40
1.21
  9
$CELTYPE
  6
BYLAYER
  9
$DIMSCALE
 40
1.0
  9
$DIMASZ
 40
0.1
  9
$DIMEXO
 40
0.0625
  9
$DIMDLI
 40
0.836
  9
$DIMEXE
 40
0.125
  9
$DIMCEN
 40
0.198
  9
$DIMLFAC
 40
1.0
  9
$DIMBLK
  1
_FILLED
  9
$DIMALT
 70
1
  9
$DIMALTD
 70
2
  9
$DIMALTTD
 70
2
  9
$DIMALTF
 40
25.4
  9
$DIMTXT
 40
0.08
  9
$DIMTOL
 70
1
  9
$DIMLIM
 70
0
  9
$DIMTFAC
 40
1.0
  9
$DIMTP
 40
0.001
  9
$DIMTM
 40
0.001
  9
$DIMGAP
 40
0.09
  9
$DIMDSEP
 70
46
  9
$AUNITS
 70
0
  9
$PDMODE
 70
3
  9
$PDSIZE
 40
0.06
  9
$HANDSEED
  5
534
  9
$TILEMODE
 70
1
  9
$MEASUREMENT
 70
0
  9
$INSUNITS
 70
1
  0
ENDSEC
  0
SECTION
  2
CLASSES
  0
CLASS
  1
ACDBDICTIONARYWDFLT
  2
AcDbDictionaryWithDefault
  3
AutoCAD 2000
 90
0
 91
1
280
0
281
0
  0
CLASS
  1
ACDBPLACEHOLDER
  2
AcDbPlaceHolder
  3
AutoCAD 2000
 90
0
 91
1
280
0
281
0
  0
CLASS
  1
LAYOUT
  2
AcDbLayout
  3
AutoCAD 2000
 90
0
 91
0
280
0
281
0
  0
ENDSEC
  0
SECTION
  2
TABLES
  0
TABLE
  2
VPORT
  5
8
100
AcDbSymbolTable
 70
2
  0
VPORT
  5
1F4
100
AcDbSymbolTableRecord
100
AcDbViewportTableRecord
  2
*ACTIVE
 70
0
 10
0.0
 20
0.0
 11
1.0
 21
1.0
 12
11.0
 22
8.5
 13
0.0
 23
0.0
 14
1.0
 24
1.0
 15
0.0
 25
0.0
 16
0.0
 26
0.0
 36
1.0
 17
0.0
 27
0.0
 37
0.0
 40
17.0
 41
1.2941176471
 42
50.0
 43
0.0
 44
0.0
 50
0.0
 51
0.0
 71
0
 72
100
 73
1
 74
1
 75
0
 76
0
 77
0
 78
0
  0
ENDTAB
  0
TABLE
  2
LTYPE
  5
5
100
AcDbSymbolTable
 70
6
  0
LTYPE
  5
14
100
AcDbSymbolTableRecord
100
AcDbLinetypeTableRecord
  2
BYBLOCK
 70
0
  3

 72
65
 73
0
 40
0.0
  0
LTYPE
  5
15
100
AcDbSymbolTableRecord
100
AcDbLinetypeTableRecord
  2
BYLAYER
 70
0
  3

 72
65
 73
0
 40
0.0
  0
LTYPE
  5
16
100
AcDbSymbolTableRecord
100
AcDbLinetypeTableRecord
  2
CONTINUOUS
 70
64
  3
Solid line
 72
65
 73
0
 40
0.0
  0
LTYPE
  5
1F5
100
AcDbSymbolTableRecord
100
AcDbLinetypeTableRecord
  2
CENTER
 70
64
  3
____ _ ____ _ ____ _ ____ _ ____ _ ____ _ ____
 72
65
 73
4
 40
0.6
 49
0.375
 74
0
 49
-0.075
 74
0
 49
0.075
 74
0
 49
-0.075
 74
0
  0
LTYPE
  5
1F6
100
AcDbSymbolTableRecord
100
AcDbLinetypeTableRecord
  2
HIDDEN
 70
64
  3
- - - - - - - - - - - - - - - - - - - -
 72
65
 73
2
 40
0.2
 49
0.1
 74
0
 49
-0.1
 74
0
  0
LTYPE
  5
1F7
100
AcDbSymbolTableRecord
100
AcDbLinetypeTableRecord
  2
PHANTOM
 70
64
  3
_____ _ _ _____ _ _ _____ _ _ _____
 72
65
 73
6
 40
0.8
 49
0.45
 74
0
 49
-0.05
 74
0
 49
0.1
 74
0
 49
-0.05
 74
0
 49
0.1
 74
0
 49
-0.05
 74
0
  0
LTYPE
  5
1F8
100
AcDbSymbolTableRecord
100
AcDbLinetypeTableRecord
  2
DOT
 70
64
  3
. . . . . . . . . . . . . . . . . . . .
 72
65
 73
2
 40
0.2
 49
0.1
 74
0
 49
-0.1
 74
0
  0
LTYPE
  5
1F9
100
AcDbSymbolTableRecord
100
AcDbLinetypeTableRecord
  2
DASHED
 70
64
  3
- - - - - - - - - - - - - - - - - - - -
 72
65
 73
2
 40
0.2
 49
0.1
 74
0
 49
-0.1
 74
0
  0
ENDTAB
  0
TABLE
  2
LAYER
  5
2
100
AcDbSymbolTable
 70
36
  0
LAYER
  5
10
100
AcDbSymbolTableRecord
100
AcDbLayerTableRecord
  2
0
 70
0
 62
7
  6
CONTINUOUS
370
-3
390
F
  0
LAYER
  5
1FA
100
AcDbSymbolTableRecord
100
AcDbLayerTableRecord
  2
DEFAULT_1
 70
0
 62
7
  6
CENTER
370
-3
390
F
  0
LAYER
  5
1FB
100
AcDbSymbolTableRecord
100
AcDbLayerTableRecord
  2
DEFAULT_2
 70
0
 62
8
  6
HIDDEN
370
-3
390
F
  0
LAYER
  5
1FC
100
AcDbSymbolTableRecord
100
AcDbLayerTableRecord
  2
DEFAULT_3
 70
0
 62
7
  6
PHANTOM
370
-3
390
F
  0
LAYER
  5
1FD
100
AcDbSymbolTableRecord
100
AcDbLayerTableRecord
  2
ALL_FEATURES
 70
0
 62
7
  6
CONTINUOUS
370
-3
390
F
  0
LAYER
  5
1FE
100
AcDbSymbolTableRecord
100
AcDbLayerTableRecord
  2
AXES_FEATURES
 70
0
 62
7
  6
CONTINUOUS
370
-3
390
F
  0
LAYER
  5
1FF
100
AcDbSymbolTableRecord
100
AcDbLayerTableRecord
  2
DIMENSIONS
 70
0
 62
7
  6
CONTINUOUS
370
-3
390
F
  0
ENDTAB
  0
TABLE
  2
STYLE
  5
3
100
AcDbSymbolTable
 70
1
  0
STYLE
  5
11
100
AcDbSymbolTableRecord
100
AcDbTextStyleTableRecord
  2
STANDARD
 70
0
 40
0.0
 41
0.8
 50
0.0
 71
0
 42
0.2
  3
txt
  4

  0
STYLE
  5
200
100
AcDbSymbolTableRecord
100
AcDbTextStyleTableRecord
  2
TEXTSTYLE_1
 70
0
 40
0.0
 41
0.8
 50
0.0
 71
0
 42
0.2
  3
gdt
  4

  0
ENDTAB
  0
TABLE
  2
VIEW
  5
6
100
AcDbSymbolTable
 70
0
  0
ENDTAB
  0
TABLE
  2
UCS
  5
7
100
AcDbSymbolTable
 70
0
  0
ENDTAB
  0
TABLE
  2
APPID
  5
9
100
AcDbSymbolTable
 70
1
  0
APPID
  5
201
100
AcDbSymbolTableRecord
100
AcDbRegAppTableRecord
  2
ACAD
 70
0
  0
ENDTAB
  0
TABLE
  2
BLOCK_RECORD
  5
1
100
AcDbSymbolTable
 70
0
  0
BLOCK_RECORD
  5
202
100
AcDbSymbolTableRecord
100
AcDbBlockTableRecord
  2
*Model_Space
  0
BLOCK_RECORD
  5
203
100
AcDbSymbolTableRecord
100
AcDbBlockTableRecord
  2
*Paper_Space
  0
BLOCK_RECORD
  5
204
100
AcDbSymbolTableRecord
100
AcDbBlockTableRecord
  2
_FILLED
  0
ENDTAB
  0
TABLE
  2
DIMSTYLE
  5
A
100
AcDbSymbolTable
 70
1
100
AcDbDimStyleTable
 71
0
  0
DIMSTYLE
105
205
100
AcDbSymbolTableRecord
100
AcDbDimStyleTableRecord
  2
STANDARD
 70
0
  3

  4

 40
1.0
 41
0.1
 42
0.0625
 43
0.38
 44
0.125
 45
0.0
 46
0.0
 47
0.001
 48
0.001
140
0.08
141
0.09
142
0.0
143
25.4
144
1.0
145
0.0
146
1.0
147
0.09
 71
1.0
 72
0.0
 73
1
 74
1
 75
0
 76
0
 77
0
 78
4
 79
1
170
1
171
2
172
0
173
0
174
0
175
0
176
0
177
0
178
0
270
2
179
3
271
3
272
3
273
2
274
2
275
0
280
0
281
0
282
0
283
1
284
4
285
0
286
0
287
3
288
0
340
11
278
46
341
204
342
204
343
204
344
204
  0
ENDTAB
  0
ENDSEC
  0
SECTION
  2
BLOCKS
  0
BLOCK
  5
20
100
AcDbEntity
  8
0
100
AcDbBlockBegin
  2
*Model_Space
 70
0
 10
0.0
 20
0.0
 30
0.0
  3
*Model_Space
  1

  0
ENDBLK
  5
21
100
AcDbEntity
  8
0
100
AcDbBlockEnd
  0
BLOCK
  5
1C
100
AcDbEntity
  8
0
100
AcDbBlockBegin
  2
*Paper_Space
 70
0
 10
0.0
 20
0.0
 30
0.0
  3
*Paper_Space
  1

  0
ENDBLK
  5
1D
100
AcDbEntity
  8
0
100
AcDbBlockEnd
  0
BLOCK
  5
206
100
AcDbEntity
  8
0
100
AcDbBlockBegin
  2
_FILLED
 70
64
 10
0.0
 20
0.0
  3
_FILLED
  1

  0
SOLID
  5
207
100
AcDbEntity
  8
0
  6
BYBLOCK
 62
0
100
AcDbTrace
 10
0.0
 20
0.0
 11
-1.0
 21
0.2
 12
-1.0
 22
-0.2
 13
-1.0
 23
-0.2
  0
ENDBLK
  5
208
100
AcDbEntity
  8
0
  6
BYBLOCK
 62
0
100
AcDbBlockEnd
  0
ENDSEC
  0
SECTION
  2
ENTITIES
  0
LINE
  5
209
100
AcDbEntity
  8
0
100
AcDbLine
 62
7
  6
CONTINUOUS
 10
4.2853183383
 20
11.8072346331
 11
4.2853183383
 21
11.7569655713
  0
LINE
  5
20A
100
AcDbEntity
  8
0
100
AcDbLine
 62
7
  6
CONTINUOUS
 10
4.2853183383
 20
11.5689655713
 11
4.2853183383
 21
11.5186965095
  0
LINE
  5
20B
100
AcDbEntity
  8
0
100
AcDbLine
 62
7
  6
CONTINUOUS
 10
4.2853183383
 20
11.3857604346
 11
4.2853183383
 21
11.3649383075
  0
LINE
  5
20C
100
AcDbEntity
  8
0
100
AcDbLine
 62
7
  6
CONTINUOUS
 10
4.2853183383
 20
11.940170708
 11
4.2853183383
 21
11.9609928352
  0
LINE
  5
20D
100
AcDbEntity
  8
0
100
AcDbLine
 62
7
  6
CONTINUOUS
 10
6.8630009935
 20
11.9727995856
 11
6.8452026196
 21
11.9598683101
  0
LINE
  5
20E
100
AcDbEntity
  8
0
100
AcDbLine
 62
7
  6
CONTINUOUS
 10
6.8258068287
 20
11.9457764431
 11
6.8120329229
 21
11.9357691147
  0
LINE
  5
20F
100
AcDbEntity
  8
0
100
AcDbLine
 62
7
  6
CONTINUOUS
 10
6.847300038
 20
11.8872280951
 11
6.8650984119
 21
11.9001593706
  0
LINE
  5
210
100
AcDbEntity
  8
0
100
AcDbLine
 62
7
  6
CONTINUOUS
 10
6.8844942028
 20
11.9142512376
 11
6.8982681087
 21
11.924258566
  0
LINE
  5
211
100
AcDbEntity
  8
0
100
AcDbLine
 62
7
  6
CONTINUOUS
 10
6.941403355
 20
11.9704658949
 11
6.9426111709
 21
11.9733113308
  0
LINE
  5
212
100
AcDbEntity
  8
0
100
AcDbLine
 62
7
  6
CONTINUOUS
 10
6.9070264362
 20
11.3970366669
 11
6.9045860163
 21
11.3915553941
  0
LINE
  5
213
100
AcDbEntity
  8
0
100
AcDbLine
 62
7
  6
CONTINUOUS
 10
6.8862828674
 20
11.3504458485
 11
6.8826222376
 21
11.3422239394
  0
LINE
  5
214
100
AcDbEntity
  8
0
100
AcDbLine
 62
7
  6
CONTINUOUS
 10
6.9064252713
 20
11.3833934617
 11
6.893579067
 21
11.3545404146
  0
LINE
  5
215
100
AcDbEntity
  8
0
100
AcDbLine
 62
7
  6
CONTINUOUS
 10
6.9197095525
 20
11.3837273257
 11
6.9136085028
 21
11.3700241439
  0
LINE
  5
216
100
AcDbEntity
  8
0
100
AcDbLine
 62
7
  6
CONTINUOUS
 10
6.9095411364
 20
11.3608886893
 11
6.9014064035
 21
11.3426177801
  0
LINE
  5
217
100
AcDbEntity
  8
0
100
AcDbLine
 62
7
  6
CONTINUOUS
 10
7.1822237288
 20
11.9965919126
 11
7.1795935019
 21
11.9911991483
  0
LINE
  5
218
100
AcDbEntity
  8
0
100
AcDbLine
 62
7
  6
CONTINUOUS
 10
7.1598668003
 20
11.9507534162
 11
7.15592146
 21
11.9426642698
  0
LINE
  5
219
100
AcDbEntity
  8
0
100
AcDbLine
 62
7
  6
CONTINUOUS
 10
7.1803608232
 20
11.9802259438
 11
7.1689862136
 21
11.9569045382
  0
LINE
  5
21A
100
AcDbEntity
  8
0
100
AcDbLine
 62
7
  6
CONTINUOUS
 10
7.1956034781
 20
11.9818227814
 11
7.1863179979
 21
11.9627847257
  0
LINE
  5
21B
100
AcDbEntity
  8
0
100
AcDbLine
 62
7
  6
CONTINUOUS
 10
7.1806705362
 20
11.9512057133
 11
7.1827159263
 21
11.9553993844
  0
LINE
  5
21C
100
AcDbEntity
  8
0
100
AcDbLine
 62
7
  6
CONTINUOUS
 10
7.1774925171
 20
11.9321433623
 11
7.1814378574
 21
11.9402325087
  0
LINE
  5
21D
100
AcDbEntity
  8
0
100
AcDbLine
 62
7
  6
CONTINUOUS
 10
7.2098491028
 20
11.916362001
 11
7.2137944431
 21
11.9244511474
  0
LINE
  5
21E
100
AcDbEntity
  8
0
100
AcDbLine
 62
7
  6
CONTINUOUS
 10
6.9385314037
 20
11.9943428872
 11
6.9415332289
 21
11.9995379854
  0
LINE
  5
21F
100
AcDbEntity
  8
0
100
AcDbLine
 62
7
  6
CONTINUOUS
 10
7.2266979329
 20
11.9136764826
 11
7.2211569796
 21
11.9065843858
  0
LINE
  5
220
100
AcDbEntity
  8
0
100
AcDbLine
 62
7
  6
CONTINUOUS
 10
7.2584781447
 20
11.9437955486
 11
7.238751323
 21
11.9185463683
  0
LINE
  5
221
100
AcDbEntity
  8
0
100
AcDbLine
 62
7
  6
CONTINUOUS
 10
7.2489954628
 20
11.9105427691
 11
7.2687222845
 21
11.9357919495
  0
LINE
  5
222
100
AcDbEntity
  8
0
100
AcDbLine
 62
7
  6
CONTINUOUS
 10
7.2416452592
 20
11.8905771875
 11
7.2471862125
 21
11.8976692842
  0
LINE
  5
223
100
AcDbEntity
  8
0
100
AcDbLine
 62
7
  6
CONTINUOUS
 10
7.2470645176
 20
11.9624842917
 11
7.2396695627
 21
11.9578919888
  0
LINE
  5
224
100
AcDbEntity
  8
0
100
AcDbLine
 62
7
  6
CONTINUOUS
 10
6.9249099239
 20
12.0007033342
 11
6.8868734233
 21
11.9853355905
  0
LINE
  5
225
100
AcDbEntity
  8
0
100
AcDbLine
 62
7
  6
CONTINUOUS
 10
6.9080234223
 20
11.9841739321
 11
6.9292844101
 21
11.9927639287
  0
LINE
  5
226
100
AcDbEntity
  8
0
100
AcDbLine
 62
7
  6
CONTINUOUS
 10
6.9308844078
 20
11.9783108834
 11
6.9123407307
 21
11.9708187515
  0
LINE
  5
227
100
AcDbEntity
  8
0
100
AcDbLine
 62
7
  6
CONTINUOUS
 10
6.9166393739
 20
11.9628487034
 11
6.9314743156
 21
11.9688424089
  0
LINE
  5
228
100
AcDbEntity
  8
0
100
AcDbLine
 62
7
  6
CONTINUOUS
 10
6.9406241793
 20
11.9542041032
 11
6.923007686
 21
11.9470865779
  0
LINE
  5
229
100
AcDbEntity
  8
0
100
AcDbLine
 62
7
  6
CONTINUOUS
 10
6.9093498189
 20
11.9297045592
 11
6.9575633794
 21
11.9491841021
  0
LINE
  5
22A
100
AcDbEntity
  8
0
100
AcDbLine
 62
7
  6
CONTINUOUS
 10
6.9595129934
 20
11.374926995
 11
6.9582655233
 21
11.3690581094
  0
LINE
  5
22B
100
AcDbEntity
  8
0
100
AcDbLine
 62
7
  6
CONTINUOUS
 10
6.9489094972
 20
11.3250414674
 11
6.947038292
 21
11.316238139
  0
LINE
  5
22C
100
AcDbEntity
  8
0
100
AcDbLine
 62
7
  6
CONTINUOUS
 10
6.9616647102
 20
11.3585964878
 11
6.9562699339
 21
11.3332160605
  0
LINE
  5
22D
100
AcDbEntity
  8
0
100
AcDbLine
 62
7
  6
CONTINUOUS
 10
6.9760682832
 20
11.3638334245
 11
6.971664344
 21
11.3431145194
  0
LINE
  5
22E
100
AcDbEntity
  8
0
100
AcDbLine
 62
7
  6
CONTINUOUS
 10
6.9689858527
 20
11.3305132085
 11
6.969955945
 21
11.3350771343
  0
LINE
  5
22F
100
AcDbEntity
  8
0
100
AcDbLine
 62
7
  6
CONTINUOUS
 10
6.9705138344
 20
11.3112482584
 11
6.9723850396
 21
11.3200515868
  0
LINE
  5
230
100
AcDbEntity
  8
0
100
AcDbLine
 62
7
  6
CONTINUOUS
 10
7.005727148
 20
11.3037634376
 11
7.0075983532
 21
11.312566766
  0
LINE
  5
231
100
AcDbEntity
  8
0
100
AcDbLine
 62
7
  6
CONTINUOUS
 10
6.9956243476
 20
12.0135151356
 11
6.9879264339
 21
11.9807193649
  0
LINE
  5
232
100
AcDbEntity
  8
0
100
AcDbLine
 62
7
  6
CONTINUOUS
 10
6.9881241101
 20
11.9553047341
 11
6.9958220238
 21
11.9881005048
  0
LINE
  5
233
100
AcDbEntity
  8
0
100
AcDbLine
 62
7
  6
CONTINUOUS
 10
7.0183223694
 20
12.007037811
 11
7.0130799491
 21
11.9847032903
  0
LINE
  5
234
100
AcDbEntity
  8
0
100
AcDbLine
 62
7
  6
CONTINUOUS
 10
7.0132776253
 20
11.9592886595
 11
7.0257563116
 21
12.0124521723
  0
LINE
  5
235
100
AcDbEntity
  8
0
100
AcDbLine
 62
7
  6
CONTINUOUS
 10
7.2869502079
 20
11.9209523003
 11
7.2896170983
 21
11.929238572
  0
LINE
  5
236
100
AcDbEntity
  8
0
100
AcDbLine
 62
7
  6
CONTINUOUS
 10
7.0348183383
 20
11.7329655713
 11
6.998832307
 21
11.634094763
  0
LINE
  5
237
100
AcDbEntity
  8
0
100
AcDbLine
 62
7
  6
CONTINUOUS
 10
7.0140089016
 20
11.631935048
 11
7.0162038326
 21
11.6379655713
  0
LINE
  5
238
100
AcDbEntity
  8
0
100
AcDbLine
 62
7
  6
CONTINUOUS
 10
7.0234832373
 20
11.6579655713
 11
7.041837005
 21
11.7083921336
  0
LINE
  5
239
100
AcDbEntity
  8
0
100
AcDbLine
 62
7
  6
CONTINUOUS
 10
7.0418183383
 20
11.3629655713
 11
7.0265536142
 21
11.3210260865
  0
LINE
  5
23A
100
AcDbEntity
  8
0
100
AcDbLine
 62
7
  6
CONTINUOUS
 10
7.0324720009
 20
11.319743894
 11
7.0332806253
 21
11.3219655713
  0
LINE
  5
23B
100
AcDbEntity
  8
0
100
AcDbLine
 62
7
  6
CONTINUOUS
 10
7.0365563574
 20
11.3309655713
 11
7.0445937161
 21
11.3530480327
  0
LINE
  5
23C
100
AcDbEntity
  8
0
100
AcDbLine
 62
7
  6
CONTINUOUS
 10
7.2031063427
 20
11.3802884148
 11
7.2088739128
 21
11.3819422389
  0
LINE
  5
23D
100
AcDbEntity
  8
0
100
AcDbLine
 62
7
  6
CONTINUOUS
 10
7.1708636025
 20
11.3466106002
 11
7.1650960323
 21
11.3449567761
  0
LINE
  5
23E
100
AcDbEntity
  8
0
100
AcDbLine
 62
7
  6
CONTINUOUS
 10
6.8373183383
 20
11.7329655713
 11
6.8373183383
 21
11.7179655713
  0
LINE
  5
23F
100
AcDbEntity
  8
0
100
AcDbLine
 62
7
  6
CONTINUOUS
 10
6.8373183383
 20
11.6129655713
 11
6.8373183383
 21
11.5929655713
  0
LINE
  5
240
100
AcDbEntity
  8
0
100
AcDbLine
 62
7
  6
CONTINUOUS
 10
6.8518183383
 20
11.6937366868
 11
6.8518183383
 21
11.6321944558
  0
LINE
  5
241
100
AcDbEntity
  8
0
100
AcDbLine
 62
7
  6
CONTINUOUS
 10
6.8848183383
 20
11.6321944558
 11
6.8848183383
 21
11.6549655713
  0
LINE
  5
242
100
AcDbEntity
  8
0
100
AcDbLine
 62
7
  6
CONTINUOUS
 10
6.8848183383
 20
11.6737366868
 11
6.8848183383
 21
11.6937366868
  0
LINE
  5
243
100
AcDbEntity
  8
0
100
AcDbLine
 62
7
  6
CONTINUOUS
 10
6.8973183383
 20
11.5929655713
 11
6.8973183383
 21
11.6136539596
  0
LINE
  5
244
100
AcDbEntity
  8
0
100
AcDbLine
 62
7
  6
CONTINUOUS
 10
6.8973183383
 20
11.712277183
 11
6.8973183383
 21
11.7329655713
  0
LINE
  5
245
100
AcDbEntity
  8
0
100
AcDbLine
 62
7
  6
CONTINUOUS
 10
6.9123183383
 20
11.7329655713
 11
6.9123183383
 21
11.712277183
  0
LINE
  5
246
100
AcDbEntity
  8
0
100
AcDbLine
 62
7
  6
CONTINUOUS
 10
6.9123183383
 20
11.6136539596
 11
6.9123183383
 21
11.5929655713
  0
LINE
  5
247
100
AcDbEntity
  8
0
100
AcDbLine
 62
7
  6
CONTINUOUS
 10
7.0429967339
 20
12.0224962706
 11
7.0427350176
 21
12.0165019813
  0
LINE
  5
248
100
AcDbEntity
  8
0
100
AcDbLine
 62
7
  6
CONTINUOUS
 10
7.0407721452
 20
11.9715448113
 11
7.0403795707
 21
11.9625533773
  0
LINE
  5
249
100
AcDbEntity
  8
0
100
AcDbLine
 62
7
  6
CONTINUOUS
 10
7.0455055093
 20
12.0111799163
 11
7.0439959428
 21
11.97660516
  0
LINE
  5
24A
100
AcDbEntity
  8
0
100
AcDbLine
 62
7
  6
CONTINUOUS
 10
7.0596617904
 20
12.0144538622
 11
7.0589034965
 21
11.9970860768
  0
LINE
  5
24B
100
AcDbEntity
  8
0
100
AcDbLine
 62
7
  6
CONTINUOUS
 10
7.0579826179
 20
11.9759944886
 11
7.0585411139
 21
11.9887861497
  0
LINE
  5
24C
100
AcDbEntity
  8
0
100
AcDbLine
 62
7
  6
CONTINUOUS
 10
7.0607531096
 20
11.9706724236
 11
7.0603605351
 21
11.9616809896
  0
LINE
  5
24D
100
AcDbEntity
  8
0
100
AcDbLine
 62
7
  6
CONTINUOUS
 10
6.9575633794
 20
11.9491841021
 11
6.9597260255
 21
11.9651871024
  0
LINE
  5
24E
100
AcDbEntity
  8
0
100
AcDbLine
 62
7
  6
CONTINUOUS
 10
7.0905409839
 20
11.3266131045
 11
7.0913260232
 21
11.3116336615
  0
LINE
  5
24F
100
AcDbEntity
  8
0
100
AcDbLine
 62
7
  6
CONTINUOUS
 10
7.141516759
 20
11.3528027519
 11
7.1407317197
 21
11.3677821949
  0
LINE
  5
250
100
AcDbEntity
  8
0
100
AcDbLine
 62
7
  6
CONTINUOUS
 10
6.9248183383
 20
11.6937366868
 11
6.9248183383
 21
11.6737366868
  0
LINE
  5
251
100
AcDbEntity
  8
0
100
AcDbLine
 62
7
  6
CONTINUOUS
 10
6.9248183383
 20
11.6549655713
 11
6.9248183383
 21
11.6321944558
  0
LINE
  5
252
100
AcDbEntity
  8
0
100
AcDbLine
 62
7
  6
CONTINUOUS
 10
6.9578183383
 20
11.6321944558
 11
6.9578183383
 21
11.6937366868
  0
LINE
  5
253
100
AcDbEntity
  8
0
100
AcDbLine
 62
7
  6
CONTINUOUS
 10
6.9723183383
 20
11.5929655713
 11
6.9723183383
 21
11.6129655713
  0
LINE
  5
254
100
AcDbEntity
  8
0
100
AcDbLine
 62
7
  6
CONTINUOUS
 10
6.9723183383
 20
11.7179655713
 11
6.9723183383
 21
11.7329655713
  0
LINE
  5
255
100
AcDbEntity
  8
0
100
AcDbLine
 62
7
  6
CONTINUOUS
 10
6.9773183383
 20
11.6129655713
 11
6.9773183383
 21
11.5929655713
  0
LINE
  5
256
100
AcDbEntity
  8
0
100
AcDbLine
 62
7
  6
CONTINUOUS
 10
7.0173183383
 20
11.3119655713
 11
7.0173183383
 21
11.3029655713
  0
LINE
  5
257
100
AcDbEntity
  8
0
100
AcDbLine
 62
7
  6
CONTINUOUS
 10
7.0223183383
 20
11.5929655713
 11
7.0223183383
 21
11.6129655713
  0
LINE
  5
258
100
AcDbEntity
  8
0
100
AcDbLine
 62
7
  6
CONTINUOUS
 10
7.0363183383
 20
11.3029655713
 11
7.0363183383
 21
11.3119655713
  0
LINE
  5
259
100
AcDbEntity
  8
0
100
AcDbLine
 62
7
  6
CONTINUOUS
 10
7.0528690939
 20
11.3119655713
 11
7.0528690939
 21
11.3029655713
  0
LINE
  5
25A
100
AcDbEntity
  8
0
100
AcDbLine
 62
7
  6
CONTINUOUS
 10
7.0613556717
 20
11.6129655713
 11
7.0613556717
 21
11.5929655713
  0
LINE
  5
25B
100
AcDbEntity
  8
0
100
AcDbLine
 62
7
  6
CONTINUOUS
 10
7.0793183383
 20
11.3029655713
 11
7.0793183383
 21
11.3119655713
  0
LINE
  5
25C
100
AcDbEntity
  8
0
100
AcDbLine
 62
7
  6
CONTINUOUS
 10
7.1123183383
 20
11.7329655713
 11
7.1123183383
 21
11.7179655713
  0
LINE
  5
25D
100
AcDbEntity
  8
0
100
AcDbLine
 62
7
  6
CONTINUOUS
 10
7.1223183383
 20
11.5929655713
 11
7.1223183383
 21
11.6129655713
  0
LINE
  5
25E
100
AcDbEntity
  8
0
100
AcDbLine
 62
7
  6
CONTINUOUS
 10
7.1283183383
 20
11.7019655713
 11
7.1283183383
 21
11.6479655713
  0
LINE
  5
25F
100
AcDbEntity
  8
0
100
AcDbLine
 62
7
  6
CONTINUOUS
 10
7.1583183383
 20
11.7019655713
 11
7.1583183383
 21
11.6479655713
  0
LINE
  5
260
100
AcDbEntity
  8
0
100
AcDbLine
 62
7
  6
CONTINUOUS
 10
7.1743183383
 20
11.7179655713
 11
7.1743183383
 21
11.7329655713
  0
LINE
  5
261
100
AcDbEntity
  8
0
100
AcDbLine
 62
7
  6
CONTINUOUS
 10
7.2023183383
 20
11.7329655713
 11
7.2023183383
 21
11.7179655713
  0
LINE
  5
262
100
AcDbEntity
  8
0
100
AcDbLine
 62
7
  6
CONTINUOUS
 10
7.2183183383
 20
11.6479655713
 11
7.2183183383
 21
11.7019655713
  0
LINE
  5
263
100
AcDbEntity
  8
0
100
AcDbLine
 62
7
  6
CONTINUOUS
 10
7.2383183383
 20
11.6479655713
 11
7.2383183383
 21
11.7019655713
  0
LINE
  5
264
100
AcDbEntity
  8
0
100
AcDbLine
 62
7
  6
CONTINUOUS
 10
7.2523183383
 20
11.7159655713
 11
7.2523183383
 21
11.7329655713
  0
LINE
  5
265
100
AcDbEntity
  8
0
100
AcDbLine
 62
7
  6
CONTINUOUS
 10
7.2573183383
 20
11.7329655713
 11
7.2573183383
 21
11.7179655713
  0
LINE
  5
266
100
AcDbEntity
  8
0
100
AcDbLine
 62
7
  6
CONTINUOUS
 10
7.2573183383
 20
11.6129655713
 11
7.2573183383
 21
11.5929655713
  0
LINE
  5
267
100
AcDbEntity
  8
0
100
AcDbLine
 62
7
  6
CONTINUOUS
 10
7.2653183383
 20
11.7046990721
 11
7.2653183383
 21
11.6262320705
  0
LINE
  5
268
100
AcDbEntity
  8
0
100
AcDbLine
 62
7
  6
CONTINUOUS
 10
7.3023183383
 20
11.7129655713
 11
7.3023183383
 21
11.6179655713
  0
LINE
  5
269
100
AcDbEntity
  8
0
100
AcDbLine
 62
7
  6
CONTINUOUS
 10
6.9532887987
 20
12.0105352703
 11
6.9542274055
 21
12.0046091403
  0
LINE
  5
26A
100
AcDbEntity
  8
0
100
AcDbLine
 62
7
  6
CONTINUOUS
 10
6.9799073023
 20
12.0086764364
 11
6.9789686955
 21
12.0146025664
  0
LINE
  5
26B
100
AcDbEntity
  8
0
100
AcDbLine
 62
7
  6
CONTINUOUS
 10
7.0111287795
 20
12.0196962233
 11
7.0120673863
 21
12.0137700933
  0
LINE
  5
26C
100
AcDbEntity
  8
0
100
AcDbLine
 62
7
  6
CONTINUOUS
 10
7.0302794077
 20
12.0166545941
 11
7.0293408009
 21
12.0225807241
  0
LINE
  5
26D
100
AcDbEntity
  8
0
100
AcDbLine
 62
7
  6
CONTINUOUS
 10
7.2401570401
 20
11.9539218042
 11
7.2396695627
 21
11.9578919888
  0
LINE
  5
26E
100
AcDbEntity
  8
0
100
AcDbLine
 62
7
  6
CONTINUOUS
 10
14.9249099239
 20
12.0007033342
 11
14.8868734233
 21
11.9853355905
  0
LINE
  5
26F
100
AcDbEntity
  8
0
100
AcDbLine
 62
7
  6
CONTINUOUS
 10
14.9080234223
 20
11.9841739321
 11
14.9292844101
 21
11.9927639287
  0
LINE
  5
270
100
AcDbEntity
  8
0
100
AcDbLine
 62
7
  6
CONTINUOUS
 10
14.9308844078
 20
11.9783108834
 11
14.9123407307
 21
11.9708187515
  0
LINE
  5
271
100
AcDbEntity
  8
0
100
AcDbLine
 62
7
  6
CONTINUOUS
 10
14.9166393739
 20
11.9628487034
 11
14.9314743156
 21
11.9688424089
  0
LINE
  5
272
100
AcDbEntity
  8
0
100
AcDbLine
 62
7
  6
CONTINUOUS
 10
14.9406241793
 20
11.9542041032
 11
14.923007686
 21
11.9470865779
  0
LINE
  5
273
100
AcDbEntity
  8
0
100
AcDbLine
 62
7
  6
CONTINUOUS
 10
14.9093498189
 20
11.9297045592
 11
14.9575633794
 21
11.9491841021
  0
LINE
  5
274
100
AcDbEntity
  8
0
100
AcDbLine
 62
7
  6
CONTINUOUS
 10
15.2031063427
 20
11.3802884148
 11
15.2088739128
 21
11.3819422389
  0
LINE
  5
275
100
AcDbEntity
  8
0
100
AcDbLine
 62
7
  6
CONTINUOUS
 10
15.1708636025
 20
11.3466106002
 11
15.1650960323
 21
11.3449567761
  0
LINE
  5
276
100
AcDbEntity
  8
0
100
AcDbLine
 62
7
  6
CONTINUOUS
 10
7.0445937161
 20
11.3530480327
 11
7.0526310747
 21
11.3309655713
  0
LINE
  5
277
100
AcDbEntity
  8
0
100
AcDbLine
 62
7
  6
CONTINUOUS
 10
7.0559068068
 20
11.3219655713
 11
7.0567154313
 21
11.319743894
  0
LINE
  5
278
100
AcDbEntity
  8
0
100
AcDbLine
 62
7
  6
CONTINUOUS
 10
7.0700830624
 20
11.3210260865
 11
7.0548183383
 21
11.3629655713
  0
LINE
  5
279
100
AcDbEntity
  8
0
100
AcDbLine
 62
7
  6
CONTINUOUS
 10
7.1650960323
 20
11.3449567761
 11
7.1692305926
 21
11.3305378507
  0
LINE
  5
27A
100
AcDbEntity
  8
0
100
AcDbLine
 62
7
  6
CONTINUOUS
 10
7.2088739128
 20
11.3819422389
 11
7.2047393525
 21
11.3963611644
  0
LINE
  5
27B
100
AcDbEntity
  8
0
100
AcDbLine
 62
7
  6
CONTINUOUS
 10
6.8323183383
 20
11.6870520393
 11
6.8193183383
 21
11.7329655713
  0
LINE
  5
27C
100
AcDbEntity
  8
0
100
AcDbLine
 62
7
  6
CONTINUOUS
 10
7.1869280275
 20
11.9540628135
 11
7.194569604
 21
11.9238143105
  0
LINE
  5
27D
100
AcDbEntity
  8
0
100
AcDbLine
 62
7
  6
CONTINUOUS
 10
6.9743662745
 20
11.3347992648
 11
6.9890986388
 21
11.3072979363
  0
LINE
  5
27E
100
AcDbEntity
  8
0
100
AcDbLine
 62
7
  6
CONTINUOUS
 10
6.8868734233
 20
11.9853355905
 11
6.8891210629
 21
11.9797724874
  0
LINE
  5
27F
100
AcDbEntity
  8
0
100
AcDbLine
 62
7
  6
CONTINUOUS
 10
6.9059783596
 20
11.9380492139
 11
6.9093498189
 21
11.9297045592
  0
LINE
  5
280
100
AcDbEntity
  8
0
100
AcDbLine
 62
7
  6
CONTINUOUS
 10
6.8938491274
 20
11.9760785185
 11
6.9068133982
 21
11.9439908223
  0
LINE
  5
281
100
AcDbEntity
  8
0
100
AcDbLine
 62
7
  6
CONTINUOUS
 10
6.9191023147
 20
11.9487443097
 11
6.9149816422
 21
11.9589433321
  0
LINE
  5
282
100
AcDbEntity
  8
0
100
AcDbLine
 62
7
  6
CONTINUOUS
 10
6.9097371498
 20
11.971923906
 11
6.9063656905
 21
11.9802685607
  0
LINE
  5
283
100
AcDbEntity
  8
0
100
AcDbLine
 62
7
  6
CONTINUOUS
 10
6.9426111709
 20
11.9733113308
 11
6.9395930201
 21
11.980781516
  0
LINE
  5
284
100
AcDbEntity
  8
0
100
AcDbLine
 62
7
  6
CONTINUOUS
 10
7.041837005
 20
11.7083921336
 11
7.0601907727
 21
11.6579655713
  0
LINE
  5
285
100
AcDbEntity
  8
0
100
AcDbLine
 62
7
  6
CONTINUOUS
 10
7.0674701774
 20
11.6379655713
 11
7.0696651083
 21
11.631935048
  0
LINE
  5
286
100
AcDbEntity
  8
0
100
AcDbLine
 62
7
  6
CONTINUOUS
 10
7.1008043695
 20
11.634094763
 11
7.0648183383
 21
11.7329655713
  0
LINE
  5
287
100
AcDbEntity
  8
0
100
AcDbLine
 62
7
  6
CONTINUOUS
 10
14.8630009935
 20
11.9727995856
 11
14.8452026196
 21
11.9598683101
  0
LINE
  5
288
100
AcDbEntity
  8
0
100
AcDbLine
 62
7
  6
CONTINUOUS
 10
14.8258068287
 20
11.9457764431
 11
14.8120329229
 21
11.9357691147
  0
LINE
  5
289
100
AcDbEntity
  8
0
100
AcDbLine
 62
7
  6
CONTINUOUS
 10
14.847300038
 20
11.8872280951
 11
14.8650984119
 21
11.9001593706
  0
LINE
  5
28A
100
AcDbEntity
  8
0
100
AcDbLine
 62
7
  6
CONTINUOUS
 10
14.8844942028
 20
11.9142512376
 11
14.8982681087
 21
11.924258566
  0
LINE
  5
28B
100
AcDbEntity
  8
0
100
AcDbLine
 62
7
  6
CONTINUOUS
 10
15.2396695627
 20
11.9578919888
 11
15.2470645176
 21
11.9624842917
  0
LINE
  5
28C
100
AcDbEntity
  8
0
100
AcDbLine
 62
7
  6
CONTINUOUS
 10
6.9598277453
 20
12.0020101132
 11
6.9881241101
 21
11.9553047341
  0
LINE
  5
28D
100
AcDbEntity
  8
0
100
AcDbLine
 62
7
  6
CONTINUOUS
 10
6.9879264339
 20
11.9807193649
 11
6.9760388495
 21
12.0003407593
  0
LINE
  5
28E
100
AcDbEntity
  8
0
100
AcDbLine
 62
7
  6
CONTINUOUS
 10
6.9958220238
 20
11.9881005048
 11
7.0132776253
 21
11.9592886595
  0
LINE
  5
28F
100
AcDbEntity
  8
0
100
AcDbLine
 62
7
  6
CONTINUOUS
 10
7.208909562
 20
11.9291634394
 11
7.1984260329
 21
11.9488299517
  0
LWPOLYLINE
  5
290
100
AcDbEntity
  8
0
100
AcDbPolyline
 62
7
  6
CONTINUOUS
 90
9
 70
0
 10
10.2250342014
 20
4.6588719531
 10
10.2465154137
 20
4.3785918537
 10
10.2696798012
 20
4.0878996989
 10
10.2921313976
 20
3.8092252903
 10
10.3125943235
 20
3.545236988
 10
10.329323801
 20
3.2988872054
 10
10.3402922365
 20
3.0723696092
 10
10.3434707191
 20
2.8656711398
 10
10.342234467
 20
2.7920606159
  0
LINE
  5
291
100
AcDbEntity
  8
0
100
AcDbLine
 62
7
  6
CONTINUOUS
 10
10.2556920127
 20
4.7764441516
 11
9.874649833
 21
10.9338606833
  0
LWPOLYLINE
  5
292
100
AcDbEntity
  8
0
100
AcDbPolyline
 62
7
  6
CONTINUOUS
 90
4
 70
0
 10
9.894846294
 20
9.7515677632
 10
9.9922321633
 20
7.9036270567
 10
10.1101100854
 20
6.194774172
 10
10.225038798
 20
4.6588104645
  0
LINE
  5
293
100
AcDbEntity
  8
0
100
AcDbLine
 62
7
  6
CONTINUOUS
 10
9.8555084281
 20
11.0462056727
 11
9.8623397595
 21
10.9084184565
  0
LWPOLYLINE
  5
294
100
AcDbEntity
  8
0
100
AcDbPolyline
 62
7
  6
CONTINUOUS
 90
4
 70
0
 10
10.3380155626
 20
2.6910800057
 10
10.340465504
 20
2.6403536691
 10
10.35024921
 20
2.5623960948
 10
10.3636387226
 20
2.4973394033
  0
LWPOLYLINE
  5
295
100
AcDbEntity
  8
0
100
AcDbPolyline
 62
7
  6
CONTINUOUS
 90
3
 70
0
 10
9.8859876597
 20
9.9829257411
 10
9.8884906823
 20
9.9142651981
 10
9.8948459425
 20
9.7515762375
  0
LWPOLYLINE
  5
296
100
AcDbEntity
  8
0
100
AcDbPolyline
 62
7
  6
CONTINUOUS
 90
4
 70
0
 10
9.8623392903
 20
10.9083719263
 10
9.8679027606
 20
10.6109851654
 10
9.8762958612
 20
10.2821378561
 10
9.8859876621
 20
9.9829256744
  0
LINE
  5
297
100
AcDbEntity
  8
0
100
AcDbLine
 62
7
  6
CONTINUOUS
 10
10.3380155626
 20
2.6910800057
 11
10.3380153998
 21
2.6910903138
  0
LINE
  5
298
100
AcDbEntity
  8
0
100
AcDbLine
 62
7
  6
CONTINUOUS
 10
10.3422338165
 20
2.7920368734
 11
10.342234467
 21
2.7920606159
  0
LINE
  5
299
100
AcDbEntity
  8
0
100
AcDbLine
 62
7
  6
CONTINUOUS
 10
6.8120329229
 20
11.9357691147
 11
6.8161474196
 21
11.9301059958
  0
LINE
  5
29A
100
AcDbEntity
  8
0
100
AcDbLine
 62
7
  6
CONTINUOUS
 10
6.8431855412
 20
11.892891214
 11
6.847300038
 21
11.8872280951
  0
LINE
  5
29B
100
AcDbEntity
  8
0
100
AcDbLine
 62
7
  6
CONTINUOUS
 10
6.82884009
 20
11.9262464467
 11
6.8434371428
 21
11.9061553271
  0
LINE
  5
29C
100
AcDbEntity
  8
0
100
AcDbLine
 62
7
  6
CONTINUOUS
 10
6.8482912448
 20
11.9096820386
 11
6.833694192
 21
11.9297731582
  0
LINE
  5
29D
100
AcDbEntity
  8
0
100
AcDbLine
 62
7
  6
CONTINUOUS
 10
6.8650984119
 20
11.9001593706
 11
6.8609839151
 21
11.9058224896
  0
LINE
  5
29E
100
AcDbEntity
  8
0
100
AcDbLine
 62
7
  6
CONTINUOUS
 10
6.8452026196
 20
11.9598683101
 11
6.8493171164
 21
11.9542051911
  0
LINE
  5
29F
100
AcDbEntity
  8
0
100
AcDbLine
 62
7
  6
CONTINUOUS
 10
6.8620097868
 20
11.950345642
 11
6.8766068396
 21
11.9302545225
  0
LINE
  5
2A0
100
AcDbEntity
  8
0
100
AcDbLine
 62
7
  6
CONTINUOUS
 10
6.8814609415
 20
11.933781234
 11
6.8668638887
 21
11.9538723535
  0
LINE
  5
2A1
100
AcDbEntity
  8
0
100
AcDbLine
 62
7
  6
CONTINUOUS
 10
6.8982681087
 20
11.924258566
 11
6.8941536119
 21
11.9299216849
  0
LINE
  5
2A2
100
AcDbEntity
  8
0
100
AcDbLine
 62
7
  6
CONTINUOUS
 10
6.8671154903
 20
11.9671364667
 11
6.8630009935
 21
11.9727995856
  0
LINE
  5
2A3
100
AcDbEntity
  8
0
100
AcDbLine
 62
7
  6
CONTINUOUS
 10
7.0130799491
 20
11.9847032903
 11
6.9956243476
 21
12.0135151356
  0
LINE
  5
2A4
100
AcDbEntity
  8
0
100
AcDbLine
 62
9
  6
CONTINUOUS
 10
11.0473183384
 20
2.0835258329
 11
11.0473183821
 21
10.3963799644
  0
LWPOLYLINE
  5
2A5
100
AcDbEntity
  8
0
100
AcDbPolyline
 62
7
  6
CONTINUOUS
 90
3
 70
0
 10
10.3422342451
 20
2.7920343498
 10
10.3417521144
 20
2.7798587764
 10
10.3405274177
 20
2.76232319
  0
LWPOLYLINE
  5
2A6
100
AcDbEntity
  8
0
100
AcDbPolyline
 62
7
  6
CONTINUOUS
 90
3
 70
0
 10
10.3405256299
 20
2.7623092587
 10
10.3384470396
 20
2.7293257809
 10
10.3380153998
 20
2.6910903138
  0
LINE
  5
2A7
100
AcDbEntity
  8
0
100
AcDbLine
 62
7
  6
CONTINUOUS
 10
14.8474554377
 20
11.7004537612
 11
14.8603183383
 21
11.7130452579
  0
LINE
  5
2A8
100
AcDbEntity
  8
0
100
AcDbLine
 62
7
  6
CONTINUOUS
 10
7.0017185673
 20
11.3159573231
 11
6.9867886839
 21
11.3325034606
  0
LINE
  5
2A9
100
AcDbEntity
  8
0
100
AcDbLine
 62
7
  6
CONTINUOUS
 10
9.8048507338
 20
11.3572452241
 11
9.8048123171
 21
11.3574012127
  0
LINE
  5
2AA
100
AcDbEntity
  8
0
100
AcDbLine
 62
7
  6
CONTINUOUS
 10
9.804970481
 20
11.3567607663
 11
9.8051768103
 21
11.3559053734
  0
LWPOLYLINE
  5
2AB
100
AcDbEntity
  8
0
100
AcDbPolyline
 62
7
  6
CONTINUOUS
 90
3
 70
0
 10
9.8051768103
 20
11.3559053734
 10
9.836292885
 20
11.2023658977
 10
9.8555084281
 20
11.0462056727
  0
LWPOLYLINE
  5
2AC
100
AcDbEntity
  8
0
100
AcDbPolyline
 62
7
  6
CONTINUOUS
 90
3
 70
0
 10
11.7541458931
 20
2.7622547378
 10
11.7527863815
 20
2.7820903476
 10
11.7523825286
 20
2.7927802142
  0
LINE
  5
2AD
100
AcDbEntity
  8
0
100
AcDbLine
 62
7
  6
CONTINUOUS
 10
11.7523822063
 20
2.7927983076
 11
11.752382722
 21
2.7927793576
  0
LWPOLYLINE
  5
2AE
100
AcDbEntity
  8
0
100
AcDbPolyline
 62
7
  6
CONTINUOUS
 90
9
 70
0
 10
11.7523822063
 20
2.7927983076
 10
11.7511798244
 20
2.863739128
 10
11.7542781943
 20
3.0704249308
 10
11.7651956031
 20
3.2969293747
 10
11.7818980775
 20
3.5432867388
 10
11.8023522668
 20
3.8073091579
 10
11.8248072755
 20
4.0860441851
 10
11.8479821062
 20
4.3768169391
 10
11.8696023505
 20
4.6588702807
  0
LINE
  5
2AF
100
AcDbEntity
  8
0
100
AcDbLine
 62
7
  6
CONTINUOUS
 10
12.2599442647
 20
11.2120346417
 11
12.2882580036
 21
11.3495400959
  0
LINE
  5
2B0
100
AcDbEntity
  8
0
100
AcDbLine
 62
7
  6
CONTINUOUS
 10
12.2901769363
 20
11.3588384932
 11
12.2879409079
 21
11.3496053891
  0
LINE
  5
2B1
100
AcDbEntity
  8
0
100
AcDbLine
 62
7
  6
CONTINUOUS
 10
12.2838798792
 20
11.3341703586
 11
12.2831118981
 21
11.3312737232
  0
LINE
  5
2B2
100
AcDbEntity
  8
0
100
AcDbLine
 62
7
  6
CONTINUOUS
 10
15.2266979329
 20
11.9136764826
 11
15.2211569796
 21
11.9065843858
  0
LINE
  5
2B3
100
AcDbEntity
  8
0
100
AcDbLine
 62
7
  6
CONTINUOUS
 10
15.2584781447
 20
11.9437955486
 11
15.238751323
 21
11.9185463683
  0
LINE
  5
2B4
100
AcDbEntity
  8
0
100
AcDbLine
 62
7
  6
CONTINUOUS
 10
15.2489954628
 20
11.9105427691
 11
15.2687222845
 21
11.9357919495
  0
LINE
  5
2B5
100
AcDbEntity
  8
0
100
AcDbLine
 62
7
  6
CONTINUOUS
 10
15.2416452592
 20
11.8905771875
 11
15.2471862125
 21
11.8976692842
  0
LWPOLYLINE
  5
2B6
100
AcDbEntity
  8
0
100
AcDbPolyline
 62
7
  6
CONTINUOUS
 90
4
 70
0
 10
12.2086490146
 20
9.9829256771
 10
12.2182887346
 20
10.2803502165
 10
12.2266901184
 20
10.6089906767
 10
12.2322927821
 20
10.9080746495
  0
LINE
  5
2B7
100
AcDbEntity
  8
0
100
AcDbLine
 62
7
  6
CONTINUOUS
 10
12.2322926599
 20
10.9080712437
 11
12.2322927821
 21
10.9080746495
  0
LWPOLYLINE
  5
2B8
100
AcDbEntity
  8
0
100
AcDbPolyline
 62
7
  6
CONTINUOUS
 90
3
 70
0
 10
12.199790734
 20
9.7515762354
 10
12.2026574795
 20
9.8230957619
 10
12.2086490167
 20
9.9829257356
  0
LWPOLYLINE
  5
2B9
100
AcDbEntity
  8
0
100
AcDbPolyline
 62
7
  6
CONTINUOUS
 90
3
 70
0
 10
12.2322939086
 20
10.9083866959
 10
12.2398738228
 20
11.054857567
 10
12.2599442647
 20
11.2120346417
  0
LINE
  5
2BA
100
AcDbEntity
  8
0
100
AcDbLine
 62
7
  6
CONTINUOUS
 10
12.2199624945
 20
10.9335399546
 11
11.8389446639
 21
4.7764441516
  0
LWPOLYLINE
  5
2BB
100
AcDbEntity
  8
0
100
AcDbPolyline
 62
7
  6
CONTINUOUS
 90
4
 70
0
 10
11.8695976211
 20
4.6588070283
 10
11.9844083979
 20
6.1931670105
 10
12.1023032966
 20
7.9020161452
 10
12.1997904125
 20
9.7515684756
  0
LINE
  5
2BC
100
AcDbEntity
  8
0
100
AcDbLine
 62
7
  6
CONTINUOUS
 10
14.9415332289
 20
11.9995379854
 11
14.9385314037
 21
11.9943428872
  0
LINE
  5
2BD
100
AcDbEntity
  8
0
100
AcDbLine
 62
7
  6
CONTINUOUS
 10
7.2211569796
 20
11.9065843858
 11
7.2416452592
 21
11.8905771875
  0
LINE
  5
2BE
100
AcDbEntity
  8
0
100
AcDbLine
 62
7
  6
CONTINUOUS
 10
7.2509848173
 20
11.9509189958
 11
7.2583057954
 21
11.9451992209
  0
LINE
  5
2BF
100
AcDbEntity
  8
0
100
AcDbLine
 62
7
  6
CONTINUOUS
 10
7.2701259567
 20
11.9359642987
 11
7.2774469348
 21
11.9302445238
  0
LINE
  5
2C0
100
AcDbEntity
  8
0
100
AcDbLine
 62
7
  6
CONTINUOUS
 10
7.2896170983
 20
11.929238572
 11
7.2470645176
 21
11.9624842917
  0
LWPOLYLINE
  5
2C1
100
AcDbEntity
  8
0
100
AcDbPolyline
 62
7
  6
CONTINUOUS
 90
5
 70
0
 10
11.7309987787
 20
2.4973428147
 10
11.7426375461
 20
2.5524179941
 10
11.7526399682
 20
2.6233618427
 10
11.7566507081
 20
2.6931582292
 10
11.7541461963
 20
2.762253232
  0
LINE
  5
2C2
100
AcDbEntity
  8
0
100
AcDbLine
 62
7
  6
CONTINUOUS
 10
14.941403355
 20
11.9704658949
 11
14.9426111709
 21
11.9733113308
  0
LINE
  5
2C3
100
AcDbEntity
  8
0
100
AcDbLine
 62
7
  6
CONTINUOUS
 10
15.1822237288
 20
11.9965919126
 11
15.1795935019
 21
11.9911991483
  0
LINE
  5
2C4
100
AcDbEntity
  8
0
100
AcDbLine
 62
7
  6
CONTINUOUS
 10
15.1598668003
 20
11.9507534162
 11
15.15592146
 21
11.9426642698
  0
LINE
  5
2C5
100
AcDbEntity
  8
0
100
AcDbLine
 62
7
  6
CONTINUOUS
 10
15.1803608232
 20
11.9802259438
 11
15.1689862136
 21
11.9569045382
  0
LINE
  5
2C6
100
AcDbEntity
  8
0
100
AcDbLine
 62
7
  6
CONTINUOUS
 10
15.1956034781
 20
11.9818227814
 11
15.1863179979
 21
11.9627847257
  0
LINE
  5
2C7
100
AcDbEntity
  8
0
100
AcDbLine
 62
7
  6
CONTINUOUS
 10
15.1806705362
 20
11.9512057133
 11
15.1827159263
 21
11.9553993844
  0
LINE
  5
2C8
100
AcDbEntity
  8
0
100
AcDbLine
 62
7
  6
CONTINUOUS
 10
15.1774925171
 20
11.9321433623
 11
15.1814378574
 21
11.9402325087
  0
LINE
  5
2C9
100
AcDbEntity
  8
0
100
AcDbLine
 62
7
  6
CONTINUOUS
 10
15.2098491028
 20
11.916362001
 11
15.2137944431
 21
11.9244511474
  0
LINE
  5
2CA
100
AcDbEntity
  8
0
100
AcDbLine
 62
7
  6
CONTINUOUS
 10
6.8826222376
 20
11.3422239394
 11
6.9139255662
 21
11.3282867996
  0
LINE
  5
2CB
100
AcDbEntity
  8
0
100
AcDbLine
 62
7
  6
CONTINUOUS
 10
6.9106419303
 20
11.3363165862
 11
6.9024200212
 21
11.3399772159
  0
LINE
  5
2CC
100
AcDbEntity
  8
0
100
AcDbLine
 62
7
  6
CONTINUOUS
 10
6.9121817006
 20
11.3619023069
 11
6.9204036097
 21
11.3582416771
  0
LINE
  5
2CD
100
AcDbEntity
  8
0
100
AcDbLine
 62
7
  6
CONTINUOUS
 10
6.9205601659
 20
11.3647397915
 11
6.9146221205
 21
11.3673835797
  0
LINE
  5
2CE
100
AcDbEntity
  8
0
100
AcDbLine
 62
7
  6
CONTINUOUS
 10
15.0418183383
 20
11.3629655713
 11
15.0265536142
 21
11.3210260865
  0
LINE
  5
2CF
100
AcDbEntity
  8
0
100
AcDbLine
 62
7
  6
CONTINUOUS
 10
15.0324720009
 20
11.319743894
 11
15.0332806253
 21
11.3219655713
  0
LINE
  5
2D0
100
AcDbEntity
  8
0
100
AcDbLine
 62
7
  6
CONTINUOUS
 10
15.0365563574
 20
11.3309655713
 11
15.0445937161
 21
11.3530480327
  0
LINE
  5
2D1
100
AcDbEntity
  8
0
100
AcDbLine
 62
7
  6
CONTINUOUS
 10
14.9070264362
 20
11.3970366669
 11
14.9045860163
 21
11.3915553941
  0
LINE
  5
2D2
100
AcDbEntity
  8
0
100
AcDbLine
 62
7
  6
CONTINUOUS
 10
14.8862828674
 20
11.3504458485
 11
14.8826222376
 21
11.3422239394
  0
LINE
  5
2D3
100
AcDbEntity
  8
0
100
AcDbLine
 62
7
  6
CONTINUOUS
 10
14.9064252713
 20
11.3833934617
 11
14.893579067
 21
11.3545404146
  0
LINE
  5
2D4
100
AcDbEntity
  8
0
100
AcDbLine
 62
7
  6
CONTINUOUS
 10
14.9197095525
 20
11.3837273257
 11
14.9136085028
 21
11.3700241439
  0
LINE
  5
2D5
100
AcDbEntity
  8
0
100
AcDbLine
 62
7
  6
CONTINUOUS
 10
14.9095411364
 20
11.3608886893
 11
14.9014064035
 21
11.3426177801
  0
LINE
  5
2D6
100
AcDbEntity
  8
0
100
AcDbLine
 62
7
  6
CONTINUOUS
 10
6.9223501167
 20
11.3847409434
 11
6.9282881622
 21
11.3820971552
  0
LINE
  5
2D7
100
AcDbEntity
  8
0
100
AcDbLine
 62
7
  6
CONTINUOUS
 10
6.9367166636
 20
11.383817726
 11
6.9070264362
 21
11.3970366669
  0
LINE
  5
2D8
100
AcDbEntity
  8
0
100
AcDbLine
 62
7
  6
CONTINUOUS
 10
6.8323183383
 20
11.6364890949
 11
6.818788547
 21
11.6429655713
  0
LINE
  5
2D9
100
AcDbEntity
  8
0
100
AcDbLine
 62
7
  6
CONTINUOUS
 10
7.15592146
 20
11.9426642698
 11
7.1774925171
 21
11.9321433623
  0
LINE
  5
2DA
100
AcDbEntity
  8
0
100
AcDbLine
 62
7
  6
CONTINUOUS
 10
7.194569604
 20
11.9238143105
 11
7.2098491028
 21
11.916362001
  0
LINE
  5
2DB
100
AcDbEntity
  8
0
100
AcDbLine
 62
7
  6
CONTINUOUS
 10
7.1840530915
 20
11.9558598073
 11
7.1863968583
 21
11.9547166759
  0
LINE
  5
2DC
100
AcDbEntity
  8
0
100
AcDbLine
 62
7
  6
CONTINUOUS
 10
7.197482259
 20
11.9562269498
 11
7.1867784208
 21
11.9614475605
  0
LINE
  5
2DD
100
AcDbEntity
  8
0
100
AcDbLine
 62
7
  6
CONTINUOUS
 10
7.1969406433
 20
11.9822832043
 11
7.2076444815
 21
11.9770625936
  0
LINE
  5
2DE
100
AcDbEntity
  8
0
100
AcDbLine
 62
7
  6
CONTINUOUS
 10
7.2163779026
 20
11.979933809
 11
7.1822237288
 21
11.9965919126
  0
LINE
  5
2DF
100
AcDbEntity
  8
0
100
AcDbLine
 62
7
  6
CONTINUOUS
 10
14.9595129934
 20
11.374926995
 11
14.9582655233
 21
11.3690581094
  0
LINE
  5
2E0
100
AcDbEntity
  8
0
100
AcDbLine
 62
7
  6
CONTINUOUS
 10
14.9489094972
 20
11.3250414674
 11
14.947038292
 21
11.316238139
  0
LINE
  5
2E1
100
AcDbEntity
  8
0
100
AcDbLine
 62
7
  6
CONTINUOUS
 10
14.9616647102
 20
11.3585964878
 11
14.9562699339
 21
11.3332160605
  0
LINE
  5
2E2
100
AcDbEntity
  8
0
100
AcDbLine
 62
7
  6
CONTINUOUS
 10
14.9760682832
 20
11.3638334245
 11
14.971664344
 21
11.3431145194
  0
LINE
  5
2E3
100
AcDbEntity
  8
0
100
AcDbLine
 62
7
  6
CONTINUOUS
 10
14.9689858527
 20
11.3305132085
 11
14.969955945
 21
11.3350771343
  0
LINE
  5
2E4
100
AcDbEntity
  8
0
100
AcDbLine
 62
7
  6
CONTINUOUS
 10
14.9705138344
 20
11.3112482584
 11
14.9723850396
 21
11.3200515868
  0
LINE
  5
2E5
100
AcDbEntity
  8
0
100
AcDbLine
 62
7
  6
CONTINUOUS
 10
15.005727148
 20
11.3037634376
 11
15.0075983532
 21
11.312566766
  0
LINE
  5
2E6
100
AcDbEntity
  8
0
100
AcDbLine
 62
7
  6
CONTINUOUS
 10
14.9956243476
 20
12.0135151356
 11
14.9879264339
 21
11.9807193649
  0
LINE
  5
2E7
100
AcDbEntity
  8
0
100
AcDbLine
 62
7
  6
CONTINUOUS
 10
14.9881241101
 20
11.9553047341
 11
14.9958220238
 21
11.9881005048
  0
LINE
  5
2E8
100
AcDbEntity
  8
0
100
AcDbLine
 62
7
  6
CONTINUOUS
 10
15.0183223694
 20
12.007037811
 11
15.0130799491
 21
11.9847032903
  0
LINE
  5
2E9
100
AcDbEntity
  8
0
100
AcDbLine
 62
7
  6
CONTINUOUS
 10
15.0132776253
 20
11.9592886595
 11
15.0257563116
 21
12.0124521723
  0
LINE
  5
2EA
100
AcDbEntity
  8
0
100
AcDbLine
 62
7
  6
CONTINUOUS
 10
15.2869502079
 20
11.9209523003
 11
15.2896170983
 21
11.929238572
  0
LINE
  5
2EB
100
AcDbEntity
  8
0
100
AcDbLine
 62
7
  6
CONTINUOUS
 10
6.947038292
 20
11.316238139
 11
6.9705138344
 21
11.3112482584
  0
LINE
  5
2EC
100
AcDbEntity
  8
0
100
AcDbLine
 62
7
  6
CONTINUOUS
 10
6.9890986388
 20
11.3072979363
 11
7.005727148
 21
11.3037634376
  0
LINE
  5
2ED
100
AcDbEntity
  8
0
100
AcDbLine
 62
7
  6
CONTINUOUS
 10
6.9711420043
 20
11.3358473702
 11
6.9736926997
 21
11.3353052032
  0
LINE
  5
2EE
100
AcDbEntity
  8
0
100
AcDbLine
 62
7
  6
CONTINUOUS
 10
6.9840834484
 20
11.3394524167
 11
6.9724345799
 21
11.3419284601
  0
LINE
  5
2EF
100
AcDbEntity
  8
0
100
AcDbLine
 62
7
  6
CONTINUOUS
 10
6.9772543425
 20
11.3646036604
 11
6.988903211
 21
11.362127617
  0
LINE
  5
2F0
100
AcDbEntity
  8
0
100
AcDbLine
 62
7
  6
CONTINUOUS
 10
6.9966826022
 20
11.3670263508
 11
6.9595129934
 21
11.374926995
  0
LINE
  5
2F1
100
AcDbEntity
  8
0
100
AcDbLine
 62
7
  6
CONTINUOUS
 10
6.833694192
 20
11.9297731582
 11
6.8844942028
 21
11.9142512376
  0
LINE
  5
2F2
100
AcDbEntity
  8
0
100
AcDbLine
 62
7
  6
CONTINUOUS
 10
6.8766068396
 20
11.9302545225
 11
6.8258068287
 21
11.9457764431
  0
LINE
  5
2F3
100
AcDbEntity
  8
0
100
AcDbLine
 62
7
  6
CONTINUOUS
 10
6.9395930201
 20
11.980781516
 11
6.9367475842
 21
11.9819893319
  0
LINE
  5
2F4
100
AcDbEntity
  8
0
100
AcDbLine
 62
7
  6
CONTINUOUS
 10
14.7303183383
 20
11.6129655713
 11
14.7303183383
 21
11.5929655713
  0
LINE
  5
2F5
100
AcDbEntity
  8
0
100
AcDbLine
 62
7
  6
CONTINUOUS
 10
14.7338183383
 20
11.7329655713
 11
14.7338183383
 21
11.7179655713
  0
LINE
  5
2F6
100
AcDbEntity
  8
0
100
AcDbLine
 62
7
  6
CONTINUOUS
 10
14.9575633794
 20
11.9491841021
 11
14.9597260255
 21
11.9651871024
  0
LINE
  5
2F7
100
AcDbEntity
  8
0
100
AcDbLine
 62
7
  6
CONTINUOUS
 10
15.0965327611
 20
11.3269271202
 11
15.0905409839
 21
11.3266131045
  0
LINE
  5
2F8
100
AcDbEntity
  8
0
100
AcDbLine
 62
7
  6
CONTINUOUS
 10
15.1355249818
 20
11.3524887362
 11
15.141516759
 21
11.3528027519
  0
LINE
  5
2F9
100
AcDbEntity
  8
0
100
AcDbLine
 62
7
  6
CONTINUOUS
 10
15.0905409839
 20
11.3266131045
 11
15.0913260232
 21
11.3116336615
  0
LINE
  5
2FA
100
AcDbEntity
  8
0
100
AcDbLine
 62
7
  6
CONTINUOUS
 10
15.141516759
 20
11.3528027519
 11
15.1407317197
 21
11.3677821949
  0
LINE
  5
2FB
100
AcDbEntity
  8
0
100
AcDbLine
 62
7
  6
CONTINUOUS
 10
14.7488183383
 20
11.6978409595
 11
14.7488183383
 21
11.6338162308
  0
LINE
  5
2FC
100
AcDbEntity
  8
0
100
AcDbLine
 62
7
  6
CONTINUOUS
 10
14.7768183383
 20
11.6338162308
 11
14.7768183383
 21
11.6449655713
  0
LINE
  5
2FD
100
AcDbEntity
  8
0
100
AcDbLine
 62
7
  6
CONTINUOUS
 10
14.7768183383
 20
11.6809655713
 11
14.7768183383
 21
11.7029655713
  0
LINE
  5
2FE
100
AcDbEntity
  8
0
100
AcDbLine
 62
7
  6
CONTINUOUS
 10
14.7953183383
 20
11.5929655713
 11
14.7953183383
 21
11.6129655713
  0
LINE
  5
2FF
100
AcDbEntity
  8
0
100
AcDbLine
 62
7
  6
CONTINUOUS
 10
14.8053183383
 20
11.6879655713
 11
14.8053183383
 21
11.6809655713
  0
LINE
  5
300
100
AcDbEntity
  8
0
100
AcDbLine
 62
7
  6
CONTINUOUS
 10
14.8053183383
 20
11.6449655713
 11
14.8053183383
 21
11.6379655713
  0
LINE
  5
301
100
AcDbEntity
  8
0
100
AcDbLine
 62
7
  6
CONTINUOUS
 10
14.8183183383
 20
11.6379655713
 11
14.8183183383
 21
11.6879655713
  0
LINE
  5
302
100
AcDbEntity
  8
0
100
AcDbLine
 62
7
  6
CONTINUOUS
 10
14.8733183383
 20
11.7329655713
 11
14.8733183383
 21
11.7179655713
  0
LINE
  5
303
100
AcDbEntity
  8
0
100
AcDbLine
 62
7
  6
CONTINUOUS
 10
14.8733183383
 20
11.6129655713
 11
14.8733183383
 21
11.5929655713
  0
LINE
  5
304
100
AcDbEntity
  8
0
100
AcDbLine
 62
7
  6
CONTINUOUS
 10
14.8858183383
 20
11.6963149362
 11
14.8858183383
 21
11.6346162064
  0
LINE
  5
305
100
AcDbEntity
  8
0
100
AcDbLine
 62
7
  6
CONTINUOUS
 10
14.9158183383
 20
11.6346162064
 11
14.9158183383
 21
11.6449655713
  0
LINE
  5
306
100
AcDbEntity
  8
0
100
AcDbLine
 62
7
  6
CONTINUOUS
 10
14.9158183383
 20
11.6669655713
 11
14.9158183383
 21
11.7149655713
  0
LINE
  5
307
100
AcDbEntity
  8
0
100
AcDbLine
 62
7
  6
CONTINUOUS
 10
14.9283183383
 20
11.5929655713
 11
14.9283183383
 21
11.6129655713
  0
LINE
  5
308
100
AcDbEntity
  8
0
100
AcDbLine
 62
7
  6
CONTINUOUS
 10
15.0133183383
 20
11.5929655713
 11
15.0133183383
 21
11.6129655713
  0
LINE
  5
309
100
AcDbEntity
  8
0
100
AcDbLine
 62
7
  6
CONTINUOUS
 10
15.0173183383
 20
11.3119655713
 11
15.0173183383
 21
11.3029655713
  0
LINE
  5
30A
100
AcDbEntity
  8
0
100
AcDbLine
 62
7
  6
CONTINUOUS
 10
15.0363183383
 20
11.3029655713
 11
15.0363183383
 21
11.3119655713
  0
LINE
  5
30B
100
AcDbEntity
  8
0
100
AcDbLine
 62
7
  6
CONTINUOUS
 10
15.0528690939
 20
11.3119655713
 11
15.0528690939
 21
11.3029655713
  0
LINE
  5
30C
100
AcDbEntity
  8
0
100
AcDbLine
 62
7
  6
CONTINUOUS
 10
15.0793183383
 20
11.3029655713
 11
15.0793183383
 21
11.3119655713
  0
LINE
  5
30D
100
AcDbEntity
  8
0
100
AcDbLine
 62
7
  6
CONTINUOUS
 10
15.1623183383
 20
11.7329655713
 11
15.1623183383
 21
11.7179655713
  0
LINE
  5
30E
100
AcDbEntity
  8
0
100
AcDbLine
 62
7
  6
CONTINUOUS
 10
15.1623183383
 20
11.6129655713
 11
15.1623183383
 21
11.5929655713
  0
LINE
  5
30F
100
AcDbEntity
  8
0
100
AcDbLine
 62
7
  6
CONTINUOUS
 10
15.1798183383
 20
11.6941170913
 11
15.1798183383
 21
11.6368140513
  0
LINE
  5
310
100
AcDbEntity
  8
0
100
AcDbLine
 62
7
  6
CONTINUOUS
 10
15.2098183383
 20
11.6368140513
 11
15.2098183383
 21
11.6941170913
  0
LINE
  5
311
100
AcDbEntity
  8
0
100
AcDbLine
 62
7
  6
CONTINUOUS
 10
15.2273183383
 20
11.5929655713
 11
15.2273183383
 21
11.6129655713
  0
LINE
  5
312
100
AcDbEntity
  8
0
100
AcDbLine
 62
7
  6
CONTINUOUS
 10
15.2273183383
 20
11.7179655713
 11
15.2273183383
 21
11.7329655713
  0
LINE
  5
313
100
AcDbEntity
  8
0
100
AcDbLine
 62
7
  6
CONTINUOUS
 10
15.2373183383
 20
11.7329655713
 11
15.2373183383
 21
11.7179655713
  0
LINE
  5
314
100
AcDbEntity
  8
0
100
AcDbLine
 62
7
  6
CONTINUOUS
 10
15.2373183383
 20
11.6129655713
 11
15.2373183383
 21
11.5929655713
  0
LINE
  5
315
100
AcDbEntity
  8
0
100
AcDbLine
 62
7
  6
CONTINUOUS
 10
15.2453183383
 20
11.7046990721
 11
15.2453183383
 21
11.6262320705
  0
LINE
  5
316
100
AcDbEntity
  8
0
100
AcDbLine
 62
7
  6
CONTINUOUS
 10
15.2823183383
 20
11.7129655713
 11
15.2823183383
 21
11.6179655713
  0
LINE
  5
317
100
AcDbEntity
  8
0
100
AcDbLine
 62
7
  6
CONTINUOUS
 10
15.0429967339
 20
12.0224962706
 11
15.0427350176
 21
12.0165019813
  0
LINE
  5
318
100
AcDbEntity
  8
0
100
AcDbLine
 62
7
  6
CONTINUOUS
 10
15.0407721452
 20
11.9715448113
 11
15.0403795707
 21
11.9625533773
  0
LINE
  5
319
100
AcDbEntity
  8
0
100
AcDbLine
 62
7
  6
CONTINUOUS
 10
15.0455055093
 20
12.0111799163
 11
15.0439959428
 21
11.97660516
  0
LINE
  5
31A
100
AcDbEntity
  8
0
100
AcDbLine
 62
7
  6
CONTINUOUS
 10
15.0596617904
 20
12.0144538622
 11
15.0589034965
 21
11.9970860768
  0
LINE
  5
31B
100
AcDbEntity
  8
0
100
AcDbLine
 62
7
  6
CONTINUOUS
 10
15.0579826179
 20
11.9759944886
 11
15.0585411139
 21
11.9887861497
  0
LINE
  5
31C
100
AcDbEntity
  8
0
100
AcDbLine
 62
7
  6
CONTINUOUS
 10
15.0607531096
 20
11.9706724236
 11
15.0603605351
 21
11.9616809896
  0
LINE
  5
31D
100
AcDbEntity
  8
0
100
AcDbLine
 62
7
  6
CONTINUOUS
 10
15.0293408009
 20
12.0225807241
 11
15.0111287795
 21
12.0196962233
  0
LINE
  5
31E
100
AcDbEntity
  8
0
100
AcDbLine
 62
7
  6
CONTINUOUS
 10
14.9789686955
 20
12.0146025664
 11
14.9532887987
 21
12.0105352703
  0
LINE
  5
31F
100
AcDbEntity
  8
0
100
AcDbLine
 62
7
  6
CONTINUOUS
 10
15.2829800233
 20
11.9204648229
 11
15.2869502079
 21
11.9209523003
  0
LINE
  5
320
100
AcDbEntity
  8
0
100
AcDbLine
 62
7
  6
CONTINUOUS
 10
15.64731834
 20
11.7867092643
 11
17.8093183383
 21
11.940170708
  0
LINE
  5
321
100
AcDbEntity
  8
0
100
AcDbLine
 62
7
  6
CONTINUOUS
 10
15.6473183401
 20
11.8379655714
 11
17.8877715779
 21
11.9654571679
  0
LINE
  5
322
100
AcDbEntity
  8
0
100
AcDbLine
 62
7
  6
CONTINUOUS
 10
4.2068650986
 20
11.3604739747
 11
6.4473183365
 21
11.4879655712
  0
LINE
  5
323
100
AcDbEntity
  8
0
100
AcDbLine
 62
7
  6
CONTINUOUS
 10
7.0965327611
 20
11.3269271202
 11
7.0905409839
 21
11.3266131045
  0
LINE
  5
324
100
AcDbEntity
  8
0
100
AcDbLine
 62
7
  6
CONTINUOUS
 10
7.1355249818
 20
11.3524887362
 11
7.141516759
 21
11.3528027519
  0
LINE
  5
325
100
AcDbEntity
  8
0
100
AcDbLine
 62
7
  6
CONTINUOUS
 10
15.6473183401
 20
11.6629655713
 11
17.8093183383
 21
11.7569655713
  0
LINE
  5
326
100
AcDbEntity
  8
0
100
AcDbLine
 62
7
  6
CONTINUOUS
 10
4.2853183383
 20
11.5186965095
 11
6.4473183366
 21
11.5392218783
  0
LINE
  5
327
100
AcDbEntity
  8
0
100
AcDbLine
 62
7
  6
CONTINUOUS
 10
17.8093183383
 20
11.8072346331
 11
15.64731834
 21
11.7867092643
  0
LINE
  5
328
100
AcDbEntity
  8
0
100
AcDbLine
 62
7
  6
CONTINUOUS
 10
7.0173183383
 20
11.3029655713
 11
7.0363183383
 21
11.3029655713
  0
LINE
  5
329
100
AcDbEntity
  8
0
100
AcDbLine
 62
7
  6
CONTINUOUS
 10
7.0528690939
 20
11.3029655713
 11
7.0793183383
 21
11.3029655713
  0
LINE
  5
32A
100
AcDbEntity
  8
0
100
AcDbLine
 62
7
  6
CONTINUOUS
 10
15.0173183383
 20
11.3029655713
 11
15.0363183383
 21
11.3029655713
  0
LINE
  5
32B
100
AcDbEntity
  8
0
100
AcDbLine
 62
7
  6
CONTINUOUS
 10
15.0528690939
 20
11.3029655713
 11
15.0793183383
 21
11.3029655713
  0
LINE
  5
32C
100
AcDbEntity
  8
0
100
AcDbLine
 62
7
  6
CONTINUOUS
 10
7.0332806253
 20
11.3219655713
 11
7.0559068068
 21
11.3219655713
  0
LINE
  5
32D
100
AcDbEntity
  8
0
100
AcDbLine
 62
7
  6
CONTINUOUS
 10
15.0332806253
 20
11.3219655713
 11
15.0559068068
 21
11.3219655713
  0
LINE
  5
32E
100
AcDbEntity
  8
0
100
AcDbLine
 62
7
  6
CONTINUOUS
 10
15.0526310747
 20
11.3309655713
 11
15.0365563574
 21
11.3309655713
  0
LINE
  5
32F
100
AcDbEntity
  8
0
100
AcDbLine
 62
7
  6
CONTINUOUS
 10
7.0526310747
 20
11.3309655713
 11
7.0365563574
 21
11.3309655713
  0
LINE
  5
330
100
AcDbEntity
  8
0
100
AcDbLine
 62
7
  6
CONTINUOUS
 10
15.0548183383
 20
11.3629655713
 11
15.0418183383
 21
11.3629655713
  0
LINE
  5
331
100
AcDbEntity
  8
0
100
AcDbLine
 62
7
  6
CONTINUOUS
 10
7.0548183383
 20
11.3629655713
 11
7.0418183383
 21
11.3629655713
  0
LINE
  5
332
100
AcDbEntity
  8
0
100
AcDbLine
 62
7
  6
CONTINUOUS
 10
6.5795573732
 20
11.4879655713
 11
6.4473183383
 21
11.4879655713
  0
LINE
  5
333
100
AcDbEntity
  8
0
100
AcDbLine
 62
7
  6
CONTINUOUS
 10
15.5151571031
 20
11.4879655713
 11
15.6473183383
 21
11.4879655713
  0
LINE
  5
334
100
AcDbEntity
  8
0
100
AcDbLine
 62
7
  6
CONTINUOUS
 10
6.8373183383
 20
11.5929655713
 11
6.8973183383
 21
11.5929655713
  0
LINE
  5
335
100
AcDbEntity
  8
0
100
AcDbLine
 62
7
  6
CONTINUOUS
 10
6.9123183383
 20
11.5929655713
 11
6.9723183383
 21
11.5929655713
  0
LINE
  5
336
100
AcDbEntity
  8
0
100
AcDbLine
 62
7
  6
CONTINUOUS
 10
6.9773183383
 20
11.5929655713
 11
7.0223183383
 21
11.5929655713
  0
LINE
  5
337
100
AcDbEntity
  8
0
100
AcDbLine
 62
7
  6
CONTINUOUS
 10
7.0613556717
 20
11.5929655713
 11
7.1223183383
 21
11.5929655713
  0
LINE
  5
338
100
AcDbEntity
  8
0
100
AcDbLine
 62
7
  6
CONTINUOUS
 10
7.2573183383
 20
11.5929655713
 11
7.3273183383
 21
11.5929655713
  0
LINE
  5
339
100
AcDbEntity
  8
0
100
AcDbLine
 62
7
  6
CONTINUOUS
 10
14.7303183383
 20
11.5929655713
 11
14.7953183383
 21
11.5929655713
  0
LINE
  5
33A
100
AcDbEntity
  8
0
100
AcDbLine
 62
7
  6
CONTINUOUS
 10
14.8733183383
 20
11.5929655713
 11
14.9283183383
 21
11.5929655713
  0
LINE
  5
33B
100
AcDbEntity
  8
0
100
AcDbLine
 62
7
  6
CONTINUOUS
 10
14.9733183383
 20
11.5929655713
 11
15.0133183383
 21
11.5929655713
  0
LINE
  5
33C
100
AcDbEntity
  8
0
100
AcDbLine
 62
7
  6
CONTINUOUS
 10
15.1623183383
 20
11.5929655713
 11
15.2273183383
 21
11.5929655713
  0
LINE
  5
33D
100
AcDbEntity
  8
0
100
AcDbLine
 62
7
  6
CONTINUOUS
 10
15.2373183383
 20
11.5929655713
 11
15.3073183383
 21
11.5929655713
  0
LINE
  5
33E
100
AcDbEntity
  8
0
100
AcDbLine
 62
7
  6
CONTINUOUS
 10
15.3073183383
 20
11.6129655713
 11
15.2873183383
 21
11.6129655713
  0
LINE
  5
33F
100
AcDbEntity
  8
0
100
AcDbLine
 62
7
  6
CONTINUOUS
 10
7.3273183383
 20
11.6129655713
 11
7.3073183383
 21
11.6129655713
  0
LINE
  5
340
100
AcDbEntity
  8
0
100
AcDbLine
 62
7
  6
CONTINUOUS
 10
7.0162038326
 20
11.6379655713
 11
7.0674701774
 21
11.6379655713
  0
LINE
  5
341
100
AcDbEntity
  8
0
100
AcDbLine
 62
7
  6
CONTINUOUS
 10
14.8053183383
 20
11.6379655713
 11
14.8183183383
 21
11.6379655713
  0
LINE
  5
342
100
AcDbEntity
  8
0
100
AcDbLine
 62
7
  6
CONTINUOUS
 10
14.9188183383
 20
11.6479655713
 11
14.925308228
 21
11.6479655713
  0
LINE
  5
343
100
AcDbEntity
  8
0
100
AcDbLine
 62
7
  6
CONTINUOUS
 10
14.7868183383
 20
11.6549655713
 11
14.7953183383
 21
11.6549655713
  0
LINE
  5
344
100
AcDbEntity
  8
0
100
AcDbLine
 62
7
  6
CONTINUOUS
 10
7.0601907727
 20
11.6579655713
 11
7.0234832373
 21
11.6579655713
  0
LINE
  5
345
100
AcDbEntity
  8
0
100
AcDbLine
 62
7
  6
CONTINUOUS
 10
6.9198183383
 20
11.6599655713
 11
6.8898183383
 21
11.6599655713
  0
LINE
  5
346
100
AcDbEntity
  8
0
100
AcDbLine
 62
7
  6
CONTINUOUS
 10
14.9188183383
 20
11.6639655713
 11
14.9463183383
 21
11.6639655713
  0
LINE
  5
347
100
AcDbEntity
  8
0
100
AcDbLine
 62
7
  6
CONTINUOUS
 10
6.9198183383
 20
11.6687366868
 11
6.8898183383
 21
11.6687366868
  0
LINE
  5
348
100
AcDbEntity
  8
0
100
AcDbLine
 62
7
  6
CONTINUOUS
 10
14.7953183383
 20
11.6709655713
 11
14.7868183383
 21
11.6709655713
  0
LINE
  5
349
100
AcDbEntity
  8
0
100
AcDbLine
 62
7
  6
CONTINUOUS
 10
14.8183183383
 20
11.6879655713
 11
14.8053183383
 21
11.6879655713
  0
LINE
  5
34A
100
AcDbEntity
  8
0
100
AcDbLine
 62
7
  6
CONTINUOUS
 10
14.7818183383
 20
11.7079655713
 11
14.8295902981
 21
11.7079655713
  0
LINE
  5
34B
100
AcDbEntity
  8
0
100
AcDbLine
 62
7
  6
CONTINUOUS
 10
7.3073183383
 20
11.7179655713
 11
7.3273183383
 21
11.7179655713
  0
LINE
  5
34C
100
AcDbEntity
  8
0
100
AcDbLine
 62
7
  6
CONTINUOUS
 10
14.9188183383
 20
11.7179655713
 11
14.9463183383
 21
11.7179655713
  0
LINE
  5
34D
100
AcDbEntity
  8
0
100
AcDbLine
 62
7
  6
CONTINUOUS
 10
15.2873183383
 20
11.7179655713
 11
15.3073183383
 21
11.7179655713
  0
LINE
  5
34E
100
AcDbEntity
  8
0
100
AcDbLine
 62
7
  6
CONTINUOUS
 10
15.3073183383
 20
11.7329655713
 11
15.2373183383
 21
11.7329655713
  0
LINE
  5
34F
100
AcDbEntity
  8
0
100
AcDbLine
 62
7
  6
CONTINUOUS
 10
15.2273183383
 20
11.7329655713
 11
15.1623183383
 21
11.7329655713
  0
LINE
  5
350
100
AcDbEntity
  8
0
100
AcDbLine
 62
7
  6
CONTINUOUS
 10
14.9613183383
 20
11.7329655713
 11
14.8733183383
 21
11.7329655713
  0
LINE
  5
351
100
AcDbEntity
  8
0
100
AcDbLine
 62
7
  6
CONTINUOUS
 10
14.8408183383
 20
11.7329655713
 11
14.7338183383
 21
11.7329655713
  0
LINE
  5
352
100
AcDbEntity
  8
0
100
AcDbLine
 62
7
  6
CONTINUOUS
 10
7.3273183383
 20
11.7329655713
 11
7.2573183383
 21
11.7329655713
  0
LINE
  5
353
100
AcDbEntity
  8
0
100
AcDbLine
 62
7
  6
CONTINUOUS
 10
7.2523183383
 20
11.7329655713
 11
7.2023183383
 21
11.7329655713
  0
LINE
  5
354
100
AcDbEntity
  8
0
100
AcDbLine
 62
7
  6
CONTINUOUS
 10
7.1743183383
 20
11.7329655713
 11
7.1123183383
 21
11.7329655713
  0
LINE
  5
355
100
AcDbEntity
  8
0
100
AcDbLine
 62
7
  6
CONTINUOUS
 10
7.0648183383
 20
11.7329655713
 11
7.0348183383
 21
11.7329655713
  0
LINE
  5
356
100
AcDbEntity
  8
0
100
AcDbLine
 62
7
  6
CONTINUOUS
 10
6.9723183383
 20
11.7329655713
 11
6.9123183383
 21
11.7329655713
  0
LINE
  5
357
100
AcDbEntity
  8
0
100
AcDbLine
 62
7
  6
CONTINUOUS
 10
6.8973183383
 20
11.7329655713
 11
6.8373183383
 21
11.7329655713
  0
LINE
  5
358
100
AcDbEntity
  8
0
100
AcDbLine
 62
7
  6
CONTINUOUS
 10
6.8193183383
 20
11.7329655713
 11
6.8043183383
 21
11.7329655713
  0
LINE
  5
359
100
AcDbEntity
  8
0
100
AcDbLine
 62
7
  6
CONTINUOUS
 10
15.6473183401
 20
11.5392218937
 11
17.8093183383
 21
11.5186965095
  0
LINE
  5
35A
100
AcDbEntity
  8
0
100
AcDbLine
 62
7
  6
CONTINUOUS
 10
6.4473183365
 20
11.7867092489
 11
4.2853183383
 21
11.8072346331
  0
LINE
  5
35B
100
AcDbEntity
  8
0
100
AcDbLine
 62
7
  6
CONTINUOUS
 10
4.2853183383
 20
11.7569655713
 11
6.4473183364
 21
11.6629655713
  0
LINE
  5
35C
100
AcDbEntity
  8
0
100
AcDbLine
 62
7
  6
CONTINUOUS
 10
4.2068650986
 20
11.9654571679
 11
6.4473183365
 21
11.8379655714
  0
LINE
  5
35D
100
AcDbEntity
  8
0
100
AcDbLine
 62
7
  6
CONTINUOUS
 10
15.6473183401
 20
11.4879655712
 11
17.8877715779
 21
11.3604739747
  0
LINE
  5
35E
100
AcDbEntity
  8
0
100
AcDbLine
 62
7
  6
CONTINUOUS
 10
4.2853183383
 20
11.940170708
 11
6.4473183365
 21
11.7867092489
  0
LINE
  5
35F
100
AcDbEntity
  8
0
100
AcDbLine
 62
7
  6
CONTINUOUS
 10
6.9597260255
 20
11.9651871024
 11
6.9537800748
 21
11.9659906384
  0
LINE
  5
360
100
AcDbEntity
  8
0
100
AcDbLine
 62
7
  6
CONTINUOUS
 10
7.2829800233
 20
11.9204648229
 11
7.2869502079
 21
11.9209523003
  0
LINE
  5
361
100
AcDbEntity
  8
0
100
AcDbLine
 62
7
  6
CONTINUOUS
 10
6.4473183366
 20
11.5392218783
 11
4.2853183383
 21
11.3857604346
  0
LINE
  5
362
100
AcDbEntity
  8
0
100
AcDbLine
 62
7
  6
CONTINUOUS
 10
6.4473183364
 20
11.6629655713
 11
4.2853183383
 21
11.5689655713
  0
LINE
  5
363
100
AcDbEntity
  8
0
100
AcDbLine
 62
7
  6
CONTINUOUS
 10
6.5794795735
 20
11.8379655713
 11
6.4473183383
 21
11.8379655713
  0
LINE
  5
364
100
AcDbEntity
  8
0
100
AcDbLine
 62
7
  6
CONTINUOUS
 10
15.5150793034
 20
11.8379655713
 11
15.6473183383
 21
11.8379655713
  0
LINE
  5
365
100
AcDbEntity
  8
0
100
AcDbLine
 62
7
  6
CONTINUOUS
 10
17.8093183383
 20
11.5689655713
 11
15.6473183401
 21
11.6629655713
  0
LINE
  5
366
100
AcDbEntity
  8
0
100
AcDbLine
 62
7
  6
CONTINUOUS
 10
7.0403795707
 20
11.9625533773
 11
7.0603605351
 21
11.9616809896
  0
LINE
  5
367
100
AcDbEntity
  8
0
100
AcDbLine
 62
7
  6
CONTINUOUS
 10
7.0595837815
 20
11.9897415785
 11
7.0815628424
 21
11.988781952
  0
LINE
  5
368
100
AcDbEntity
  8
0
100
AcDbLine
 62
7
  6
CONTINUOUS
 10
7.07515219
 20
11.9953756908
 11
7.0598589254
 21
11.9960434092
  0
LINE
  5
369
100
AcDbEntity
  8
0
100
AcDbLine
 62
7
  6
CONTINUOUS
 10
7.060704458
 20
12.015409291
 11
7.0759977227
 21
12.0147415727
  0
LINE
  5
36A
100
AcDbEntity
  8
0
100
AcDbLine
 62
7
  6
CONTINUOUS
 10
7.0829586628
 20
12.0207514951
 11
7.0429967339
 21
12.0224962706
  0
LINE
  5
36B
100
AcDbEntity
  8
0
100
AcDbLine
 62
7
  6
CONTINUOUS
 10
15.0403795707
 20
11.9625533773
 11
15.0603605351
 21
11.9616809896
  0
LINE
  5
36C
100
AcDbEntity
  8
0
100
AcDbLine
 62
7
  6
CONTINUOUS
 10
15.0595837815
 20
11.9897415785
 11
15.0815628424
 21
11.988781952
  0
LINE
  5
36D
100
AcDbEntity
  8
0
100
AcDbLine
 62
7
  6
CONTINUOUS
 10
15.07515219
 20
11.9953756908
 11
15.0598589254
 21
11.9960434092
  0
LINE
  5
36E
100
AcDbEntity
  8
0
100
AcDbLine
 62
7
  6
CONTINUOUS
 10
15.060704458
 20
12.015409291
 11
15.0759977227
 21
12.0147415727
  0
LINE
  5
36F
100
AcDbEntity
  8
0
100
AcDbLine
 62
7
  6
CONTINUOUS
 10
15.0829586628
 20
12.0207514951
 11
15.0429967339
 21
12.0224962706
  0
LINE
  5
370
100
AcDbEntity
  8
0
100
AcDbLine
 62
7
  6
CONTINUOUS
 10
17.8093183383
 20
11.3857604346
 11
15.6473183401
 21
11.5392218937
  0
LINE
  5
371
100
AcDbEntity
  8
0
100
AcDbLine
 62
7
  6
CONTINUOUS
 10
14.947038292
 20
11.316238139
 11
14.9705138344
 21
11.3112482584
  0
LINE
  5
372
100
AcDbEntity
  8
0
100
AcDbLine
 62
7
  6
CONTINUOUS
 10
14.9890986388
 20
11.3072979363
 11
15.005727148
 21
11.3037634376
  0
LINE
  5
373
100
AcDbEntity
  8
0
100
AcDbLine
 62
7
  6
CONTINUOUS
 10
14.9711420043
 20
11.3358473702
 11
14.9736926997
 21
11.3353052032
  0
LINE
  5
374
100
AcDbEntity
  8
0
100
AcDbLine
 62
7
  6
CONTINUOUS
 10
14.9840834484
 20
11.3394524167
 11
14.9724345799
 21
11.3419284601
  0
LINE
  5
375
100
AcDbEntity
  8
0
100
AcDbLine
 62
7
  6
CONTINUOUS
 10
14.9772543425
 20
11.3646036604
 11
14.988903211
 21
11.362127617
  0
LINE
  5
376
100
AcDbEntity
  8
0
100
AcDbLine
 62
7
  6
CONTINUOUS
 10
14.9966826022
 20
11.3670263508
 11
14.9595129934
 21
11.374926995
  0
LINE
  5
377
100
AcDbEntity
  8
0
100
AcDbLine
 62
7
  6
CONTINUOUS
 10
14.9532887987
 20
12.0105352703
 11
14.9542274055
 21
12.0046091403
  0
LINE
  5
378
100
AcDbEntity
  8
0
100
AcDbLine
 62
7
  6
CONTINUOUS
 10
14.9799073023
 20
12.0086764364
 11
14.9789686955
 21
12.0146025664
  0
LINE
  5
379
100
AcDbEntity
  8
0
100
AcDbLine
 62
7
  6
CONTINUOUS
 10
15.0111287795
 20
12.0196962233
 11
15.0120673863
 21
12.0137700933
  0
LINE
  5
37A
100
AcDbEntity
  8
0
100
AcDbLine
 62
7
  6
CONTINUOUS
 10
15.0302794077
 20
12.0166545941
 11
15.0293408009
 21
12.0225807241
  0
LINE
  5
37B
100
AcDbEntity
  8
0
100
AcDbLine
 62
7
  6
CONTINUOUS
 10
15.2396695627
 20
11.9578919888
 11
15.2401570401
 21
11.9539218042
  0
LINE
  5
37C
100
AcDbEntity
  8
0
100
AcDbLine
 62
7
  6
CONTINUOUS
 10
6.8178857093
 20
11.6829655713
 11
6.8323183383
 21
11.6870520393
  0
LINE
  5
37D
100
AcDbEntity
  8
0
100
AcDbLine
 62
7
  6
CONTINUOUS
 10
7.0293408009
 20
12.0225807241
 11
7.0111287795
 21
12.0196962233
  0
LINE
  5
37E
100
AcDbEntity
  8
0
100
AcDbLine
 62
7
  6
CONTINUOUS
 10
6.9789686955
 20
12.0146025664
 11
6.9532887987
 21
12.0105352703
  0
LINE
  5
37F
100
AcDbEntity
  8
0
100
AcDbLine
 62
7
  6
CONTINUOUS
 10
14.9597260255
 20
11.9651871024
 11
14.9537800748
 21
11.9659906384
  0
LINE
  5
380
100
AcDbEntity
  8
0
100
AcDbLine
 62
7
  6
CONTINUOUS
 10
14.833694192
 20
11.9297731582
 11
14.8844942028
 21
11.9142512376
  0
LINE
  5
381
100
AcDbEntity
  8
0
100
AcDbLine
 62
7
  6
CONTINUOUS
 10
14.8766068396
 20
11.9302545225
 11
14.8258068287
 21
11.9457764431
  0
LINE
  5
382
100
AcDbEntity
  8
0
100
AcDbLine
 62
7
  6
CONTINUOUS
 10
14.8826222376
 20
11.3422239394
 11
14.9139255662
 21
11.3282867996
  0
LINE
  5
383
100
AcDbEntity
  8
0
100
AcDbLine
 62
7
  6
CONTINUOUS
 10
14.9106419303
 20
11.3363165862
 11
14.9024200212
 21
11.3399772159
  0
LINE
  5
384
100
AcDbEntity
  8
0
100
AcDbLine
 62
7
  6
CONTINUOUS
 10
14.9121817006
 20
11.3619023069
 11
14.9204036097
 21
11.3582416771
  0
LINE
  5
385
100
AcDbEntity
  8
0
100
AcDbLine
 62
7
  6
CONTINUOUS
 10
14.9205601659
 20
11.3647397915
 11
14.9146221205
 21
11.3673835797
  0
LINE
  5
386
100
AcDbEntity
  8
0
100
AcDbLine
 62
7
  6
CONTINUOUS
 10
14.9223501167
 20
11.3847409434
 11
14.9282881622
 21
11.3820971552
  0
LINE
  5
387
100
AcDbEntity
  8
0
100
AcDbLine
 62
7
  6
CONTINUOUS
 10
14.9367166636
 20
11.383817726
 11
14.9070264362
 21
11.3970366669
  0
LINE
  5
388
100
AcDbEntity
  8
0
100
AcDbLine
 62
7
  6
CONTINUOUS
 10
14.9743662745
 20
11.3347992648
 11
14.9890986388
 21
11.3072979363
  0
LINE
  5
389
100
AcDbEntity
  8
0
100
AcDbLine
 62
7
  6
CONTINUOUS
 10
14.8868734233
 20
11.9853355905
 11
14.8891210629
 21
11.9797724874
  0
LINE
  5
38A
100
AcDbEntity
  8
0
100
AcDbLine
 62
7
  6
CONTINUOUS
 10
14.9059783596
 20
11.9380492139
 11
14.9093498189
 21
11.9297045592
  0
LINE
  5
38B
100
AcDbEntity
  8
0
100
AcDbLine
 62
7
  6
CONTINUOUS
 10
14.8938491274
 20
11.9760785185
 11
14.9068133982
 21
11.9439908223
  0
LINE
  5
38C
100
AcDbEntity
  8
0
100
AcDbLine
 62
7
  6
CONTINUOUS
 10
14.9191023147
 20
11.9487443097
 11
14.9149816422
 21
11.9589433321
  0
LINE
  5
38D
100
AcDbEntity
  8
0
100
AcDbLine
 62
7
  6
CONTINUOUS
 10
14.9097371498
 20
11.971923906
 11
14.9063656905
 21
11.9802685607
  0
LINE
  5
38E
100
AcDbEntity
  8
0
100
AcDbLine
 62
7
  6
CONTINUOUS
 10
14.9426111709
 20
11.9733113308
 11
14.9395930201
 21
11.980781516
  0
LINE
  5
38F
100
AcDbEntity
  8
0
100
AcDbLine
 62
7
  6
CONTINUOUS
 10
15.0445937161
 20
11.3530480327
 11
15.0526310747
 21
11.3309655713
  0
LINE
  5
390
100
AcDbEntity
  8
0
100
AcDbLine
 62
7
  6
CONTINUOUS
 10
15.0559068068
 20
11.3219655713
 11
15.0567154313
 21
11.319743894
  0
LINE
  5
391
100
AcDbEntity
  8
0
100
AcDbLine
 62
7
  6
CONTINUOUS
 10
15.0700830624
 20
11.3210260865
 11
15.0548183383
 21
11.3629655713
  0
LINE
  5
392
100
AcDbEntity
  8
0
100
AcDbLine
 62
7
  6
CONTINUOUS
 10
15.1650960323
 20
11.3449567761
 11
15.1692305926
 21
11.3305378507
  0
LINE
  5
393
100
AcDbEntity
  8
0
100
AcDbLine
 62
7
  6
CONTINUOUS
 10
15.2088739128
 20
11.3819422389
 11
15.2047393525
 21
11.3963611644
  0
LINE
  5
394
100
AcDbEntity
  8
0
100
AcDbLine
 62
7
  6
CONTINUOUS
 10
15.1869280275
 20
11.9540628135
 11
15.194569604
 21
11.9238143105
  0
LINE
  5
395
100
AcDbEntity
  8
0
100
AcDbLine
 62
7
  6
CONTINUOUS
 10
14.9395930201
 20
11.980781516
 11
14.9367475842
 21
11.9819893319
  0
LINE
  5
396
100
AcDbEntity
  8
0
100
AcDbLine
 62
7
  6
CONTINUOUS
 10
15.15592146
 20
11.9426642698
 11
15.1774925171
 21
11.9321433623
  0
LINE
  5
397
100
AcDbEntity
  8
0
100
AcDbLine
 62
7
  6
CONTINUOUS
 10
15.194569604
 20
11.9238143105
 11
15.2098491028
 21
11.916362001
  0
LINE
  5
398
100
AcDbEntity
  8
0
100
AcDbLine
 62
7
  6
CONTINUOUS
 10
15.1840530915
 20
11.9558598073
 11
15.1863968583
 21
11.9547166759
  0
LINE
  5
399
100
AcDbEntity
  8
0
100
AcDbLine
 62
7
  6
CONTINUOUS
 10
15.197482259
 20
11.9562269498
 11
15.1867784208
 21
11.9614475605
  0
LINE
  5
39A
100
AcDbEntity
  8
0
100
AcDbLine
 62
7
  6
CONTINUOUS
 10
15.1969406433
 20
11.9822832043
 11
15.2076444815
 21
11.9770625936
  0
LINE
  5
39B
100
AcDbEntity
  8
0
100
AcDbLine
 62
7
  6
CONTINUOUS
 10
15.2163779026
 20
11.979933809
 11
15.1822237288
 21
11.9965919126
  0
LINE
  5
39C
100
AcDbEntity
  8
0
100
AcDbLine
 62
7
  6
CONTINUOUS
 10
14.9984740028
 20
11.617849764
 11
14.9558183383
 21
11.6493272476
  0
LINE
  5
39D
100
AcDbEntity
  8
0
100
AcDbLine
 62
7
  6
CONTINUOUS
 10
15.2211569796
 20
11.9065843858
 11
15.2416452592
 21
11.8905771875
  0
LINE
  5
39E
100
AcDbEntity
  8
0
100
AcDbLine
 62
7
  6
CONTINUOUS
 10
14.8603183383
 20
11.7130452579
 11
14.8408183383
 21
11.7329655713
  0
LINE
  5
39F
100
AcDbEntity
  8
0
100
AcDbLine
 62
7
  6
CONTINUOUS
 10
15.0017185673
 20
11.3159573231
 11
14.9867886839
 21
11.3325034606
  0
LINE
  5
3A0
100
AcDbEntity
  8
0
100
AcDbLine
 62
7
  6
CONTINUOUS
 10
14.927596707
 20
11.6469053815
 11
14.9733183383
 21
11.5929655713
  0
LINE
  5
3A1
100
AcDbEntity
  8
0
100
AcDbLine
 62
7
  6
CONTINUOUS
 10
14.8120329229
 20
11.9357691147
 11
14.8161474196
 21
11.9301059958
  0
LINE
  5
3A2
100
AcDbEntity
  8
0
100
AcDbLine
 62
7
  6
CONTINUOUS
 10
14.8431855412
 20
11.892891214
 11
14.847300038
 21
11.8872280951
  0
LINE
  5
3A3
100
AcDbEntity
  8
0
100
AcDbLine
 62
7
  6
CONTINUOUS
 10
14.82884009
 20
11.9262464467
 11
14.8434371428
 21
11.9061553271
  0
LINE
  5
3A4
100
AcDbEntity
  8
0
100
AcDbLine
 62
7
  6
CONTINUOUS
 10
14.8482912448
 20
11.9096820386
 11
14.833694192
 21
11.9297731582
  0
LINE
  5
3A5
100
AcDbEntity
  8
0
100
AcDbLine
 62
7
  6
CONTINUOUS
 10
14.8650984119
 20
11.9001593706
 11
14.8609839151
 21
11.9058224896
  0
LINE
  5
3A6
100
AcDbEntity
  8
0
100
AcDbLine
 62
7
  6
CONTINUOUS
 10
14.8452026196
 20
11.9598683101
 11
14.8493171164
 21
11.9542051911
  0
LINE
  5
3A7
100
AcDbEntity
  8
0
100
AcDbLine
 62
7
  6
CONTINUOUS
 10
14.8620097868
 20
11.950345642
 11
14.8766068396
 21
11.9302545225
  0
LINE
  5
3A8
100
AcDbEntity
  8
0
100
AcDbLine
 62
7
  6
CONTINUOUS
 10
14.8814609415
 20
11.933781234
 11
14.8668638887
 21
11.9538723535
  0
LINE
  5
3A9
100
AcDbEntity
  8
0
100
AcDbLine
 62
7
  6
CONTINUOUS
 10
14.8982681087
 20
11.924258566
 11
14.8941536119
 21
11.9299216849
  0
LINE
  5
3AA
100
AcDbEntity
  8
0
100
AcDbLine
 62
7
  6
CONTINUOUS
 10
14.8671154903
 20
11.9671364667
 11
14.8630009935
 21
11.9727995856
  0
LINE
  5
3AB
100
AcDbEntity
  8
0
100
AcDbLine
 62
7
  6
CONTINUOUS
 10
14.9598277453
 20
12.0020101132
 11
14.9881241101
 21
11.9553047341
  0
LINE
  5
3AC
100
AcDbEntity
  8
0
100
AcDbLine
 62
7
  6
CONTINUOUS
 10
14.9879264339
 20
11.9807193649
 11
14.9760388495
 21
12.0003407593
  0
LINE
  5
3AD
100
AcDbEntity
  8
0
100
AcDbLine
 62
7
  6
CONTINUOUS
 10
14.9958220238
 20
11.9881005048
 11
15.0132776253
 21
11.9592886595
  0
LINE
  5
3AE
100
AcDbEntity
  8
0
100
AcDbLine
 62
7
  6
CONTINUOUS
 10
15.0130799491
 20
11.9847032903
 11
14.9956243476
 21
12.0135151356
  0
LINE
  5
3AF
100
AcDbEntity
  8
0
100
AcDbLine
 62
7
  6
CONTINUOUS
 10
15.208909562
 20
11.9291634394
 11
15.1984260329
 21
11.9488299517
  0
LINE
  5
3B0
100
AcDbEntity
  8
0
100
AcDbLine
 62
7
  6
CONTINUOUS
 10
15.2509848173
 20
11.9509189958
 11
15.2583057954
 21
11.9451992209
  0
LINE
  5
3B1
100
AcDbEntity
  8
0
100
AcDbLine
 62
7
  6
CONTINUOUS
 10
15.2701259567
 20
11.9359642987
 11
15.2774469348
 21
11.9302445238
  0
LINE
  5
3B2
100
AcDbEntity
  8
0
100
AcDbLine
 62
7
  6
CONTINUOUS
 10
15.2896170983
 20
11.929238572
 11
15.2470645176
 21
11.9624842917
  0
LINE
  5
3B3
100
AcDbEntity
  8
0
100
AcDbLine
 62
7
  6
CONTINUOUS
 10
17.8093183383
 20
11.3857604346
 11
17.8093183383
 21
11.3649383075
  0
LINE
  5
3B4
100
AcDbEntity
  8
0
100
AcDbLine
 62
7
  6
CONTINUOUS
 10
17.8093183383
 20
11.5186965095
 11
17.8093183383
 21
11.5689655713
  0
LINE
  5
3B5
100
AcDbEntity
  8
0
100
AcDbLine
 62
7
  6
CONTINUOUS
 10
17.8093183383
 20
11.7569655713
 11
17.8093183383
 21
11.8072346331
  0
LINE
  5
3B6
100
AcDbEntity
  8
0
100
AcDbLine
 62
7
  6
CONTINUOUS
 10
17.8093183383
 20
11.940170708
 11
17.8093183383
 21
11.9609928352
  0
ARC
  5
3B7
100
AcDbEntity
  8
0
100
AcDbCircle
 62
9
  6
CONTINUOUS
 10
11.0442381031
 20
-12.40271772
 40
15.2376825826
100
AcDbArc
 50
89.9884178927
 51
92.2755336226
  0
ARC
  5
3B8
100
AcDbEntity
  8
0
100
AcDbCircle
 62
7
  6
CONTINUOUS
 10
4.2853183383
 20
11.6629655713
 40
0.3125
100
AcDbArc
 50
104.539847615
 51
255.460152385
  0
ARC
  5
3B9
100
AcDbEntity
  8
0
100
AcDbCircle
 62
7
  6
CONTINUOUS
 10
4.302343139
 20
11.6630316141
 40
0.0954709261
100
AcDbArc
 50
100.2729000803
 51
259.7270975776
  0
ARC
  5
3BA
100
AcDbEntity
  8
0
100
AcDbCircle
 62
7
  6
CONTINUOUS
 10
7.0124582249
 20
11.3261563887
 40
0.015
100
AcDbArc
 50
288.9054592061
 51
340.0000000002
  0
ARC
  5
3BB
100
AcDbEntity
  8
0
100
AcDbCircle
 62
7
  6
CONTINUOUS
 10
6.9455103102
 20
11.3355030891
 40
0.011
100
AcDbArc
 50
287.9999999995
 51
348.0
  0
ARC
  5
3BC
100
AcDbEntity
  8
0
100
AcDbCircle
 62
7
  6
CONTINUOUS
 10
6.9797454763
 20
11.3282261799
 40
0.011
100
AcDbArc
 50
167.9999999999
 51
227.9999999996
  0
ARC
  5
3BD
100
AcDbEntity
  8
0
100
AcDbCircle
 62
7
  6
CONTINUOUS
 10
7.0098853818
 20
11.3233263896
 40
0.011
100
AcDbArc
 50
222.0605153603
 51
258.0
  0
ARC
  5
3BE
100
AcDbEntity
  8
0
100
AcDbCircle
 62
7
  6
CONTINUOUS
 10
7.0381101566
 20
11.3176917731
 40
0.006
100
AcDbArc
 50
160.0000000005
 51
252.6242801219
  0
ARC
  5
3BF
100
AcDbEntity
  8
0
100
AcDbCircle
 62
7
  6
CONTINUOUS
 10
6.9032334945
 20
11.3418043069
 40
0.002
100
AcDbArc
 50
156.0000000096
 51
246.0000000041
  0
ARC
  5
3C0
100
AcDbEntity
  8
0
100
AcDbCircle
 62
7
  6
CONTINUOUS
 10
6.9709340926
 20
11.3348692226
 40
0.001
100
AcDbArc
 50
78.0000000454
 51
168.0000000039
  0
ARC
  5
3C1
100
AcDbEntity
  8
0
100
AcDbCircle
 62
7
  6
CONTINUOUS
 10
6.973484788
 20
11.3343270556
 40
0.001
100
AcDbArc
 50
28.1777964325
 51
77.9999999905
  0
ARC
  5
3C2
100
AcDbEntity
  8
0
100
AcDbCircle
 62
7
  6
CONTINUOUS
 10
6.9726424916
 20
11.3429066077
 40
0.001
100
AcDbArc
 50
168.0000000039
 51
257.9999999906
  0
ARC
  5
3C3
100
AcDbEntity
  8
0
100
AcDbCircle
 62
7
  6
CONTINUOUS
 10
6.9929401918
 20
11.349419694
 40
0.018
100
AcDbArc
 50
250.0164438527
 51
78.0000000022
  0
ARC
  5
3C4
100
AcDbEntity
  8
0
100
AcDbCircle
 62
7
  6
CONTINUOUS
 10
6.9211387318
 20
11.3444878348
 40
0.0177342409
100
AcDbArc
 50
245.9999999981
 51
42.5194112818
  0
ARC
  5
3C5
100
AcDbEntity
  8
0
100
AcDbCircle
 62
7
  6
CONTINUOUS
 10
6.9308189823
 20
11.3705713168
 40
0.0145
100
AcDbArc
 50
283.5235132019
 51
65.9999999985
  0
ARC
  5
3C6
100
AcDbEntity
  8
0
100
AcDbCircle
 62
7
  6
CONTINUOUS
 10
6.91552277
 20
11.3472791316
 40
0.012
100
AcDbArc
 50
245.9999999996
 51
65.9999999996
  0
ARC
  5
3C7
100
AcDbEntity
  8
0
100
AcDbCircle
 62
7
  6
CONTINUOUS
 10
6.9864933297
 20
11.3507900168
 40
0.0115908889
100
AcDbArc
 50
258.0000000013
 51
77.9999999964
  0
ARC
  5
3C8
100
AcDbEntity
  8
0
100
AcDbCircle
 62
7
  6
CONTINUOUS
 10
6.9509050866
 20
11.3608835164
 40
0.011
100
AcDbArc
 50
348.0
 51
47.9999999996
  0
ARC
  5
3C9
100
AcDbEntity
  8
0
100
AcDbCircle
 62
7
  6
CONTINUOUS
 10
6.9244241641
 20
11.3734184733
 40
0.0095
100
AcDbArc
 50
245.9999999957
 51
66.0000000012
  0
ARC
  5
3CA
100
AcDbEntity
  8
0
100
AcDbCircle
 62
7
  6
CONTINUOUS
 10
6.9000304531
 20
11.3862406182
 40
0.007
100
AcDbArc
 50
336.0
 51
49.3984504
  0
ARC
  5
3CB
100
AcDbEntity
  8
0
100
AcDbCircle
 62
7
  6
CONTINUOUS
 10
6.8871842488
 20
11.3573875711
 40
0.007
100
AcDbArc
 50
262.6015496013
 51
336.0
  0
ARC
  5
3CC
100
AcDbEntity
  8
0
100
AcDbCircle
 62
7
  6
CONTINUOUS
 10
6.9215366434
 20
11.3829138525
 40
0.002
100
AcDbArc
 50
66.0000000041
 51
155.9999999979
  0
ARC
  5
3CD
100
AcDbEntity
  8
0
100
AcDbCircle
 62
7
  6
CONTINUOUS
 10
6.9154355938
 20
11.3692106706
 40
0.002
100
AcDbArc
 50
155.9999999978
 51
246.0000000041
  0
ARC
  5
3CE
100
AcDbEntity
  8
0
100
AcDbCircle
 62
7
  6
CONTINUOUS
 10
6.9113682273
 20
11.360075216
 40
0.002
100
AcDbArc
 50
66.0000000042
 51
155.9999999953
  0
ARC
  5
3CF
100
AcDbEntity
  8
0
100
AcDbCircle
 62
7
  6
CONTINUOUS
 10
6.9770464308
 20
11.3636255128
 40
0.001
100
AcDbArc
 50
78.0000000454
 51
168.0000000039
  0
ARC
  5
3D0
100
AcDbEntity
  8
0
100
AcDbCircle
 62
7
  6
CONTINUOUS
 10
7.1207474314
 20
11.3217765393
 40
0.049
100
AcDbArc
 50
72.2068956489
 51
131.793104351
  0
ARC
  5
3D1
100
AcDbEntity
  8
0
100
AcDbCircle
 62
7
  6
CONTINUOUS
 10
7.1152142482
 20
11.3435404293
 40
0.025
100
AcDbArc
 50
221.6464596392
 51
305.5781784771
  0
ARC
  5
3D2
100
AcDbEntity
  8
0
100
AcDbCircle
 62
7
  6
CONTINUOUS
 10
7.1145637255
 20
11.3388642827
 40
0.025
100
AcDbArc
 50
33.0231697083
 51
118.2602047088
  0
ARC
  5
3D3
100
AcDbEntity
  8
0
100
AcDbCircle
 62
7
  6
CONTINUOUS
 10
7.0841784517
 20
11.3261563887
 40
0.015
100
AcDbArc
 50
199.9999999998
 51
251.0945407939
  0
ARC
  5
3D4
100
AcDbEntity
  8
0
100
AcDbCircle
 62
7
  6
CONTINUOUS
 10
7.1331850055
 20
11.3311406784
 40
0.015
100
AcDbArc
 50
301.4712206346
 51
61.619642743
  0
ARC
  5
3D5
100
AcDbEntity
  8
0
100
AcDbCircle
 62
7
  6
CONTINUOUS
 10
7.0920587266
 20
11.297652848
 40
0.014
100
AcDbArc
 50
76.2146351731
 51
93.0000000024
  0
ARC
  5
3D6
100
AcDbEntity
  8
0
100
AcDbCircle
 62
7
  6
CONTINUOUS
 10
7.1730895156
 20
11.3170801869
 40
0.014
100
AcDbArc
 50
89.2146351755
 51
106.0000000021
  0
ARC
  5
3D7
100
AcDbEntity
  8
0
100
AcDbCircle
 62
7
  6
CONTINUOUS
 10
7.0510772755
 20
11.3176917731
 40
0.006
100
AcDbArc
 50
287.3757198781
 51
20.0000000028
  0
ARC
  5
3D8
100
AcDbEntity
  8
0
100
AcDbCircle
 62
7
  6
CONTINUOUS
 10
7.1096918455
 20
11.3695212911
 40
0.06
100
AcDbArc
 50
256.2146351723
 51
301.4712206346
  0
ARC
  5
3D9
100
AcDbEntity
  8
0
100
AcDbCircle
 62
7
  6
CONTINUOUS
 10
7.1741038168
 20
11.3910732352
 40
0.06
100
AcDbArc
 50
269.2146351718
 51
314.4712206344
  0
ARC
  5
3DA
100
AcDbEntity
  8
0
100
AcDbCircle
 62
7
  6
CONTINUOUS
 10
7.195616281
 20
11.347039144
 40
0.049
100
AcDbArc
 50
85.2068956488
 51
144.7931043506
  0
ARC
  5
3DB
100
AcDbEntity
  8
0
100
AcDbCircle
 62
7
  6
CONTINUOUS
 10
7.1853291029
 20
11.3670005315
 40
0.025
100
AcDbArc
 50
234.6464596386
 51
318.5781784784
  0
ARC
  5
3DC
100
AcDbEntity
  8
0
100
AcDbCircle
 62
7
  6
CONTINUOUS
 10
7.1857471571
 20
11.3622978985
 40
0.025
100
AcDbArc
 50
46.0231697089
 51
131.2602047082
  0
ARC
  5
3DD
100
AcDbEntity
  8
0
100
AcDbCircle
 62
7
  6
CONTINUOUS
 10
7.2056286079
 20
11.3589611262
 40
0.015
100
AcDbArc
 50
314.4712206324
 51
74.6196427433
  0
ARC
  5
3DE
100
AcDbEntity
  8
0
100
AcDbCircle
 62
7
  6
CONTINUOUS
 10
7.1399990163
 20
11.3817630084
 40
0.014
100
AcDbArc
 50
252.2068956489
 51
272.9999999984
  0
ARC
  5
3DF
100
AcDbEntity
  8
0
100
AcDbCircle
 62
7
  6
CONTINUOUS
 10
7.0967554926
 20
11.3486165629
 40
0.013
100
AcDbArc
 50
131.7931043517
 51
243.9826041721
  0
ARC
  5
3E0
100
AcDbEntity
  8
0
100
AcDbCircle
 62
7
  6
CONTINUOUS
 10
7.1662015624
 20
11.3677942476
 40
0.013
100
AcDbArc
 50
144.7931043508
 51
256.982604171
  0
ARC
  5
3E1
100
AcDbEntity
  8
0
100
AcDbCircle
 62
7
  6
CONTINUOUS
 10
7.567039366
 20
10.7860573251
 40
2.3123930429
100
AcDbArc
 50
4.9413993606
 51
5.3482915615
  0
ARC
  5
3E2
100
AcDbEntity
  8
0
100
AcDbCircle
 62
7
  6
CONTINUOUS
 10
6.7673027171
 20
11.6329655713
 40
0.1
100
AcDbArc
 50
72.2472098382
 51
100.0172899058
  0
ARC
  5
3E3
100
AcDbEntity
  8
0
100
AcDbCircle
 62
7
  6
CONTINUOUS
 10
6.7632313948
 20
11.6695598163
 40
0.076594245
100
AcDbArc
 50
259.9827100941
 51
334.4203702628
  0
ARC
  5
3E4
100
AcDbEntity
  8
0
100
AcDbCircle
 62
7
  6
CONTINUOUS
 10
6.7973183383
 20
11.6642874659
 40
0.07
100
AcDbArc
 50
157.8274919951
 51
202.1725080049
  0
ARC
  5
3E5
100
AcDbEntity
  8
0
100
AcDbCircle
 62
7
  6
CONTINUOUS
 10
6.7620350862
 20
11.6627871645
 40
0.0697167479
100
AcDbArc
 50
100.0172899059
 51
259.9827100941
  0
ARC
  5
3E6
100
AcDbEntity
  8
0
100
AcDbCircle
 62
7
  6
CONTINUOUS
 10
6.7710308379
 20
11.6658263583
 40
0.0529472791
100
AcDbArc
 50
263.3735843885
 51
334.4203702626
  0
ARC
  5
3E7
100
AcDbEntity
  8
0
100
AcDbCircle
 62
7
  6
CONTINUOUS
 10
6.7710308379
 20
11.6696990396
 40
0.0486968155
100
AcDbArc
 50
15.8089885519
 51
65.8402771876
  0
ARC
  5
3E8
100
AcDbEntity
  8
0
100
AcDbCircle
 62
7
  6
CONTINUOUS
 10
6.7730413801
 20
11.674181123
 40
0.0437844483
100
AcDbArc
 50
65.8402771868
 51
157.8274919948
  0
ARC
  5
3E9
100
AcDbEntity
  8
0
100
AcDbCircle
 62
7
  6
CONTINUOUS
 10
6.769536785
 20
11.6529655713
 40
0.04
100
AcDbArc
 50
202.1725080051
 51
263.3735843893
  0
ARC
  5
3EA
100
AcDbEntity
  8
0
100
AcDbCircle
 62
7
  6
CONTINUOUS
 10
6.9659430653
 20
11.6460654681
 40
0.035
100
AcDbArc
 50
288.9660475067
 51
340.0000000003
  0
ARC
  5
3EB
100
AcDbEntity
  8
0
100
AcDbCircle
 62
7
  6
CONTINUOUS
 10
6.9853110571
 20
11.6937366868
 40
0.0274927188
100
AcDbArc
 50
118.2023966769
 51
180.0
  0
ARC
  5
3EC
100
AcDbEntity
  8
0
100
AcDbCircle
 62
7
  6
CONTINUOUS
 10
6.8243256195
 20
11.6937366868
 40
0.0274927188
100
AcDbArc
 50
0.0
 51
61.7976033231
  0
ARC
  5
3ED
100
AcDbEntity
  8
0
100
AcDbCircle
 62
7
  6
CONTINUOUS
 10
6.9048183383
 20
11.6937366868
 40
0.02
100
AcDbArc
 50
0.0
 51
67.975687163
  0
ARC
  5
3EE
100
AcDbEntity
  8
0
100
AcDbCircle
 62
7
  6
CONTINUOUS
 10
6.9048183383
 20
11.6937366868
 40
0.02
100
AcDbArc
 50
112.024312837
 51
180.0
  0
ARC
  5
3EF
100
AcDbEntity
  8
0
100
AcDbCircle
 62
7
  6
CONTINUOUS
 10
6.8318183383
 20
11.6321944558
 40
0.02
100
AcDbArc
 50
285.9620141629
 51
360.0
  0
ARC
  5
3F0
100
AcDbEntity
  8
0
100
AcDbCircle
 62
7
  6
CONTINUOUS
 10
6.9048183383
 20
11.6321944558
 40
0.02
100
AcDbArc
 50
180.0
 51
247.975687163
  0
ARC
  5
3F1
100
AcDbEntity
  8
0
100
AcDbCircle
 62
7
  6
CONTINUOUS
 10
6.9048183383
 20
11.6321944558
 40
0.02
100
AcDbArc
 50
292.0243128371
 51
360.0
  0
ARC
  5
3F2
100
AcDbEntity
  8
0
100
AcDbCircle
 62
7
  6
CONTINUOUS
 10
6.9778183383
 20
11.6321944558
 40
0.02
100
AcDbArc
 50
180.0
 51
254.0379858372
  0
ARC
  5
3F3
100
AcDbEntity
  8
0
100
AcDbCircle
 62
7
  6
CONTINUOUS
 10
7.0281042909
 20
11.6268047458
 40
0.015
100
AcDbArc
 50
160.0000000003
 51
247.3109219557
  0
ARC
  5
3F4
100
AcDbEntity
  8
0
100
AcDbCircle
 62
7
  6
CONTINUOUS
 10
6.9198183383
 20
11.6737366868
 40
0.005
100
AcDbArc
 50
270.0
 51
360.0
  0
ARC
  5
3F5
100
AcDbEntity
  8
0
100
AcDbCircle
 62
7
  6
CONTINUOUS
 10
6.8898183383
 20
11.6737366868
 40
0.005
100
AcDbArc
 50
180.0
 51
270.0
  0
ARC
  5
3F6
100
AcDbEntity
  8
0
100
AcDbCircle
 62
7
  6
CONTINUOUS
 10
6.8898183383
 20
11.6549655713
 40
0.005
100
AcDbArc
 50
90.0
 51
180.0
  0
ARC
  5
3F7
100
AcDbEntity
  8
0
100
AcDbCircle
 62
7
  6
CONTINUOUS
 10
6.9198183383
 20
11.6549655713
 40
0.005
100
AcDbArc
 50
0.0
 51
90.0
  0
ARC
  5
3F8
100
AcDbEntity
  8
0
100
AcDbCircle
 62
7
  6
CONTINUOUS
 10
6.7993183383
 20
11.7329655713
 40
0.005
100
AcDbArc
 50
252.2472098366
 51
360.0
  0
ARC
  5
3F9
100
AcDbEntity
  8
0
100
AcDbCircle
 62
7
  6
CONTINUOUS
 10
6.8345379559
 20
11.8996896894
 40
0.011
100
AcDbArc
 50
321.8266201302
 51
36.0
  0
ARC
  5
3FA
100
AcDbEntity
  8
0
100
AcDbCircle
 62
7
  6
CONTINUOUS
 10
6.8571904317
 20
11.9161476764
 40
0.011
100
AcDbArc
 50
216.0000000003
 51
290.1733798712
  0
ARC
  5
3FB
100
AcDbEntity
  8
0
100
AcDbCircle
 62
7
  6
CONTINUOUS
 10
6.8903601285
 20
11.9402468718
 40
0.011
100
AcDbArc
 50
216.0000000003
 51
290.1733798713
  0
ARC
  5
3FC
100
AcDbEntity
  8
0
100
AcDbCircle
 62
7
  6
CONTINUOUS
 10
6.8757630757
 20
11.9603379913
 40
0.011
100
AcDbArc
 50
141.826620133
 51
216.0000000003
  0
ARC
  5
3FD
100
AcDbEntity
  8
0
100
AcDbCircle
 62
7
  6
CONTINUOUS
 10
6.8531105998
 20
11.9438800043
 40
0.011
100
AcDbArc
 50
36.0
 51
110.1733798712
  0
ARC
  5
3FE
100
AcDbEntity
  8
0
100
AcDbCircle
 62
7
  6
CONTINUOUS
 10
6.8199409031
 20
11.9197808089
 40
0.011
100
AcDbArc
 50
36.0
 51
110.1733798663
  0
ARC
  5
3FF
100
AcDbEntity
  8
0
100
AcDbCircle
 62
7
  6
CONTINUOUS
 10
6.9012502951
 20
11.9417431828
 40
0.006
100
AcDbArc
 50
322.0000000018
 51
22.0
  0
ARC
  5
400
100
AcDbEntity
  8
0
100
AcDbCircle
 62
7
  6
CONTINUOUS
 10
6.8882860243
 20
11.9738308789
 40
0.006
100
AcDbArc
 50
22.0
 51
82.0000000071
  0
ARC
  5
401
100
AcDbEntity
  8
0
100
AcDbCircle
 62
7
  6
CONTINUOUS
 10
6.9177631937
 20
11.9600671518
 40
0.003
100
AcDbArc
 50
112.0000000133
 51
201.999999997
  0
ARC
  5
402
100
AcDbEntity
  8
0
100
AcDbCircle
 62
7
  6
CONTINUOUS
 10
6.9091472421
 20
11.9813923805
 40
0.003
100
AcDbArc
 50
111.9999999956
 51
201.9999999987
  0
ARC
  5
403
100
AcDbEntity
  8
0
100
AcDbCircle
 62
7
  6
CONTINUOUS
 10
6.9115915176
 20
11.9726731192
 40
0.002
100
AcDbArc
 50
202.0000000032
 51
292.0000000038
  0
ARC
  5
404
100
AcDbEntity
  8
0
100
AcDbCircle
 62
7
  6
CONTINUOUS
 10
6.9308844078
 20
11.9783108834
 40
0.026
100
AcDbArc
 50
292.0000000003
 51
331.7151372322
  0
ARC
  5
405
100
AcDbEntity
  8
0
100
AcDbCircle
 62
7
  6
CONTINUOUS
 10
6.9375257552
 20
11.9723658839
 40
0.022
100
AcDbArc
 50
87.3800226715
 51
111.9999999996
  0
ARC
  5
406
100
AcDbEntity
  8
0
100
AcDbCircle
 62
7
  6
CONTINUOUS
 10
6.9320274492
 20
11.983086841
 40
0.019
100
AcDbArc
 50
59.9798724439
 51
112.0000000002
  0
ARC
  5
407
100
AcDbEntity
  8
0
100
AcDbCircle
 62
7
  6
CONTINUOUS
 10
6.9359695947
 20
11.9577162026
 40
0.012
100
AcDbArc
 50
75.1301023545
 51
112.0
  0
ARC
  5
408
100
AcDbEntity
  8
0
100
AcDbCircle
 62
7
  6
CONTINUOUS
 10
6.9282621617
 20
11.9848011704
 40
0.007
100
AcDbArc
 50
292.0000000009
 51
328.869897649
  0
ARC
  5
409
100
AcDbEntity
  8
0
100
AcDbCircle
 62
7
  6
CONTINUOUS
 10
7.0395112199
 20
12.0114416326
 40
0.006
100
AcDbArc
 50
357.5
 51
57.5000000008
  0
ARC
  5
40A
100
AcDbEntity
  8
0
100
AcDbCircle
 62
7
  6
CONTINUOUS
 10
7.0380016535
 20
11.9768668763
 40
0.006
100
AcDbArc
 50
297.5000000049
 51
357.5
  0
ARC
  5
40B
100
AcDbEntity
  8
0
100
AcDbCircle
 62
7
  6
CONTINUOUS
 10
7.0311453512
 20
12.011187242
 40
0.0055355033
100
AcDbArc
 50
99.0000000003
 51
166.7905032919
  0
ARC
  5
40C
100
AcDbEntity
  8
0
100
AcDbCircle
 62
7
  6
CONTINUOUS
 10
7.0129333297
 20
12.0083027412
 40
0.0055355033
100
AcDbArc
 50
346.790503292
 51
99.0000000003
  0
ARC
  5
40D
100
AcDbEntity
  8
0
100
AcDbCircle
 62
7
  6
CONTINUOUS
 10
6.9807732458
 20
12.0032090843
 40
0.0055355033
100
AcDbArc
 50
99.0000000001
 51
211.2094967096
  0
ARC
  5
40E
100
AcDbEntity
  8
0
100
AcDbCircle
 62
7
  6
CONTINUOUS
 10
6.955093349
 20
11.9991417882
 40
0.0055355033
100
AcDbArc
 50
31.2094967096
 51
99.0000000003
  0
ARC
  5
40F
100
AcDbEntity
  8
0
100
AcDbCircle
 62
7
  6
CONTINUOUS
 10
6.9218838662
 20
11.9498681294
 40
0.003
100
AcDbArc
 50
201.9999999969
 51
291.9999999956
  0
ARC
  5
410
100
AcDbEntity
  8
0
100
AcDbCircle
 62
7
  6
CONTINUOUS
 10
6.9395623453
 20
11.9712473572
 40
0.002
100
AcDbArc
 50
255.1301023546
 51
337.0000000032
  0
ARC
  5
411
100
AcDbEntity
  8
0
100
AcDbCircle
 62
7
  6
CONTINUOUS
 10
6.935966122
 20
11.9801483222
 40
0.002
100
AcDbArc
 50
66.9999999994
 51
148.8698976467
  0
ARC
  5
412
100
AcDbEntity
  8
0
100
AcDbCircle
 62
7
  6
CONTINUOUS
 10
7.0473183383
 20
11.6629655713
 40
1.3125
100
AcDbArc
 50
189.4161384642
 51
170.5838615358
  0
ARC
  5
413
100
AcDbEntity
  8
0
100
AcDbCircle
 62
7
  6
CONTINUOUS
 10
7.0473183383
 20
11.6629655713
 40
1.2625
100
AcDbArc
 50
189.6629524427
 51
170.3370475573
  0
ARC
  5
414
100
AcDbEntity
  8
0
100
AcDbCircle
 62
9
  6
CONTINUOUS
 10
7.0473183383
 20
11.6629655713
 40
1.1354891084
100
AcDbArc
 50
190.3860323802
 51
169.6139676198
  0
ARC
  5
415
100
AcDbEntity
  8
0
100
AcDbCircle
 62
7
  6
CONTINUOUS
 10
7.0473183383
 20
11.6629655713
 40
1.125
100
AcDbArc
 50
190.4511198533
 51
169.5510862837
  0
ARC
  5
416
100
AcDbEntity
  8
0
100
AcDbCircle
 62
7
  6
CONTINUOUS
 10
7.0473183383
 20
11.6629655713
 40
1.05
100
AcDbArc
 50
190.9737420496
 51
169.0262579504
  0
ARC
  5
417
100
AcDbEntity
  8
0
100
AcDbCircle
 62
7
  6
CONTINUOUS
 10
7.0473183383
 20
11.6629655713
 40
0.6375
100
AcDbArc
 50
196.0510311996
 51
163.9523542236
  0
ARC
  5
418
100
AcDbEntity
  8
0
100
AcDbCircle
 62
7
  6
CONTINUOUS
 10
7.0473183383
 20
11.6629655713
 40
0.5375
100
AcDbArc
 50
199.058806675
 51
160.9450181693
  0
CIRCLE
  5
419
100
AcDbEntity
  8
0
100
AcDbCircle
 62
7
  6
CONTINUOUS
 10
7.0473183383
 20
11.6629655713
 40
0.5
  0
ARC
  5
41A
100
AcDbEntity
  8
0
100
AcDbCircle
 62
7
  6
CONTINUOUS
 10
7.0473183383
 20
11.6629655713
 40
0.425
100
AcDbArc
 50
0.0
 51
359.8990434094
  0
ARC
  5
41B
100
AcDbEntity
  8
0
100
AcDbCircle
 62
7
  6
CONTINUOUS
 10
7.0473183383
 20
11.6629655713
 40
0.425
100
AcDbArc
 50
359.8990434094
 51
360.0
  0
CIRCLE
  5
41C
100
AcDbEntity
  8
0
100
AcDbCircle
 62
7
  6
CONTINUOUS
 10
7.0473183383
 20
11.6629655713
 40
0.4175
  0
CIRCLE
  5
41D
100
AcDbEntity
  8
0
100
AcDbCircle
 62
9
  6
CONTINUOUS
 10
7.0473183383
 20
11.6629655713
 40
0.3951446566
  0
ARC
  5
41E
100
AcDbEntity
  8
0
100
AcDbCircle
 62
7
  6
CONTINUOUS
 10
7.1833183383
 20
11.6479655713
 40
0.055
100
AcDbArc
 50
180.0
 51
360.0
  0
ARC
  5
41F
100
AcDbEntity
  8
0
100
AcDbCircle
 62
7
  6
CONTINUOUS
 10
7.1336936113
 20
11.6460654681
 40
0.035
100
AcDbArc
 50
199.9999999997
 51
251.0339524933
  0
ARC
  5
420
100
AcDbEntity
  8
0
100
AcDbCircle
 62
7
  6
CONTINUOUS
 10
7.1743183383
 20
11.7019655713
 40
0.016
100
AcDbArc
 50
90.0
 51
180.0
  0
ARC
  5
421
100
AcDbEntity
  8
0
100
AcDbCircle
 62
7
  6
CONTINUOUS
 10
7.1123183383
 20
11.7019655713
 40
0.016
100
AcDbArc
 50
0.0
 51
90.0
  0
ARC
  5
422
100
AcDbEntity
  8
0
100
AcDbCircle
 62
7
  6
CONTINUOUS
 10
7.055569719
 20
11.6268047458
 40
0.015
100
AcDbArc
 50
292.6890780444
 51
19.9999999997
  0
ARC
  5
423
100
AcDbEntity
  8
0
100
AcDbCircle
 62
7
  6
CONTINUOUS
 10
7.2008804295
 20
11.4098188281
 40
0.014
100
AcDbArc
 50
265.2068956512
 51
286.0000000023
  0
ARC
  5
424
100
AcDbEntity
  8
0
100
AcDbCircle
 62
7
  6
CONTINUOUS
 10
7.2893216279
 20
11.6654655713
 40
0.08
100
AcDbArc
 50
341.7900431358
 51
18.2099568643
  0
ARC
  5
425
100
AcDbEntity
  8
0
100
AcDbCircle
 62
7
  6
CONTINUOUS
 10
7.3273183383
 20
11.6629655713
 40
0.07
100
AcDbArc
 50
270.0
 51
90.0
  0
ARC
  5
426
100
AcDbEntity
  8
0
100
AcDbCircle
 62
7
  6
CONTINUOUS
 10
7.3273183383
 20
11.6529655713
 40
0.04
100
AcDbArc
 50
270.0
 51
341.7900431358
  0
ARC
  5
427
100
AcDbEntity
  8
0
100
AcDbCircle
 62
7
  6
CONTINUOUS
 10
7.3273183383
 20
11.6779655713
 40
0.04
100
AcDbArc
 50
18.2099568643
 51
90.0
  0
ARC
  5
428
100
AcDbEntity
  8
0
100
AcDbCircle
 62
7
  6
CONTINUOUS
 10
7.1883183383
 20
11.6479655713
 40
0.03
100
AcDbArc
 50
180.0
 51
360.0
  0
ARC
  5
429
100
AcDbEntity
  8
0
100
AcDbCircle
 62
7
  6
CONTINUOUS
 10
7.2023183383
 20
11.7019655713
 40
0.016
100
AcDbArc
 50
0.0
 51
90.0
  0
ARC
  5
42A
100
AcDbEntity
  8
0
100
AcDbCircle
 62
7
  6
CONTINUOUS
 10
7.2503183383
 20
11.7046990721
 40
0.015
100
AcDbArc
 50
0.0
 51
62.1818607153
  0
ARC
  5
42B
100
AcDbEntity
  8
0
100
AcDbCircle
 62
7
  6
CONTINUOUS
 10
7.2503183383
 20
11.6262320705
 40
0.015
100
AcDbArc
 50
297.8181392847
 51
360.0
  0
ARC
  5
42C
100
AcDbEntity
  8
0
100
AcDbCircle
 62
7
  6
CONTINUOUS
 10
7.2523183383
 20
11.7019655713
 40
0.014
100
AcDbArc
 50
90.0
 51
180.0
  0
ARC
  5
42D
100
AcDbEntity
  8
0
100
AcDbCircle
 62
7
  6
CONTINUOUS
 10
7.3073183383
 20
11.6179655713
 40
0.005
100
AcDbArc
 50
179.9999999999
 51
270.0
  0
ARC
  5
42E
100
AcDbEntity
  8
0
100
AcDbCircle
 62
7
  6
CONTINUOUS
 10
7.2084872219
 20
11.9637555162
 40
0.018
100
AcDbArc
 50
236.016443854
 51
64.0000000005
  0
ARC
  5
42F
100
AcDbEntity
  8
0
100
AcDbCircle
 62
7
  6
CONTINUOUS
 10
7.0822607526
 20
12.0047667236
 40
0.016
100
AcDbArc
 50
267.4999999995
 51
87.4999999994
  0
ARC
  5
430
100
AcDbEntity
  8
0
100
AcDbCircle
 62
7
  6
CONTINUOUS
 10
7.2684083358
 20
11.9186756447
 40
0.0146811183
100
AcDbArc
 50
7.0000000003
 51
52.0000000009
  0
ARC
  5
431
100
AcDbEntity
  8
0
100
AcDbCircle
 62
7
  6
CONTINUOUS
 10
7.2419462183
 20
11.9393501167
 40
0.0146811183
100
AcDbArc
 50
52.0000000006
 51
97.0000000004
  0
ARC
  5
432
100
AcDbEntity
  8
0
100
AcDbCircle
 62
7
  6
CONTINUOUS
 10
7.2285071832
 20
11.9265499675
 40
0.013
100
AcDbArc
 50
261.9999999977
 51
322.0
  0
ARC
  5
433
100
AcDbEntity
  8
0
100
AcDbCircle
 62
7
  6
CONTINUOUS
 10
7.2592396026
 20
11.90253917
 40
0.013
100
AcDbArc
 50
142.0000000001
 51
201.9999999989
  0
ARC
  5
434
100
AcDbEntity
  8
0
100
AcDbCircle
 62
7
  6
CONTINUOUS
 10
7.2025633703
 20
11.9666447717
 40
0.0115908889
100
AcDbArc
 50
243.9999999995
 51
63.9999999997
  0
ARC
  5
435
100
AcDbEntity
  8
0
100
AcDbCircle
 62
7
  6
CONTINUOUS
 10
7.2186165257
 20
11.9343378819
 40
0.011
100
AcDbArc
 50
208.0605153629
 51
244.0000000032
  0
ARC
  5
436
100
AcDbEntity
  8
0
100
AcDbCircle
 62
7
  6
CONTINUOUS
 10
7.1704740886
 20
11.9850480264
 40
0.011
100
AcDbArc
 50
334.0
 51
34.0
  0
ARC
  5
437
100
AcDbEntity
  8
0
100
AcDbCircle
 62
7
  6
CONTINUOUS
 10
7.1590994791
 20
11.9617266208
 40
0.011
100
AcDbArc
 50
274.0000000043
 51
334.0
  0
ARC
  5
438
100
AcDbEntity
  8
0
100
AcDbCircle
 62
7
  6
CONTINUOUS
 10
7.1905572707
 20
11.9463836307
 40
0.011
100
AcDbArc
 50
153.9999999992
 51
214.0000000004
  0
ARC
  5
439
100
AcDbEntity
  8
0
100
AcDbCircle
 62
7
  6
CONTINUOUS
 10
7.0755749563
 20
12.0050586317
 40
0.0096921657
100
AcDbArc
 50
267.4999999989
 51
87.4999999989
  0
ARC
  5
43A
100
AcDbEntity
  8
0
100
AcDbCircle
 62
7
  6
CONTINUOUS
 10
7.0639769072
 20
11.9757327722
 40
0.006
100
AcDbArc
 50
177.5000000001
 51
237.5000000008
  0
ARC
  5
43B
100
AcDbEntity
  8
0
100
AcDbCircle
 62
7
  6
CONTINUOUS
 10
7.3073183383
 20
11.7129655713
 40
0.005
100
AcDbArc
 50
90.0
 51
180.0
  0
ARC
  5
43C
100
AcDbEntity
  8
0
100
AcDbCircle
 62
7
  6
CONTINUOUS
 10
7.0599025448
 20
11.9970424574
 40
0.001
100
AcDbArc
 50
177.4999999988
 51
267.4999999638
  0
ARC
  5
43D
100
AcDbEntity
  8
0
100
AcDbCircle
 62
7
  6
CONTINUOUS
 10
7.2695102952
 20
11.935176288
 40
0.001
100
AcDbArc
 50
67.7566689275
 51
142.0000000149
  0
ARC
  5
43E
100
AcDbEntity
  8
0
100
AcDbCircle
 62
7
  6
CONTINUOUS
 10
7.0606608386
 20
12.0144102428
 40
0.001
100
AcDbArc
 50
87.5000000209
 51
177.4999999989
  0
ARC
  5
43F
100
AcDbEntity
  8
0
100
AcDbCircle
 62
7
  6
CONTINUOUS
 10
7.2576901339
 20
11.9444112101
 40
0.001
100
AcDbArc
 50
322.0000000003
 51
52.0000000144
  0
ARC
  5
440
100
AcDbEntity
  8
0
100
AcDbCircle
 62
7
  6
CONTINUOUS
 10
7.0595401621
 20
11.9887425303
 40
0.001
100
AcDbArc
 50
87.5000000209
 51
177.4999999989
  0
ARC
  5
441
100
AcDbEntity
  8
0
100
AcDbCircle
 62
7
  6
CONTINUOUS
 10
7.1836147204
 20
11.9549610132
 40
0.001
100
AcDbArc
 50
63.9999999892
 51
153.9999999916
  0
ARC
  5
442
100
AcDbEntity
  8
0
100
AcDbCircle
 62
7
  6
CONTINUOUS
 10
7.1859584871
 20
11.9538178818
 40
0.001
100
AcDbArc
 50
14.1777964199
 51
63.9999999892
  0
ARC
  5
443
100
AcDbEntity
  8
0
100
AcDbCircle
 62
7
  6
CONTINUOUS
 10
7.1965022722
 20
11.9813844103
 40
0.001
100
AcDbArc
 50
64.0000000406
 51
154.0000000168
  0
ARC
  5
444
100
AcDbEntity
  8
0
100
AcDbCircle
 62
7
  6
CONTINUOUS
 10
7.187216792
 20
11.9623463545
 40
0.001
100
AcDbArc
 50
153.9999999918
 51
243.9999999891
  0
ARC
  5
445
100
AcDbEntity
  8
0
100
AcDbCircle
 62
7
  6
CONTINUOUS
 10
11.0351120191
 20
2.6599421651
 40
0.7692878825
100
AcDbArc
 50
180.0000814558
 51
180.6375415112
  0
ARC
  5
446
100
AcDbEntity
  8
0
100
AcDbCircle
 62
7
  6
CONTINUOUS
 10
11.0347981513
 20
2.6598289247
 40
0.7689775039
100
AcDbArc
 50
154.9950178201
 51
179.9916440139
  0
ARC
  5
447
100
AcDbEntity
  8
0
100
AcDbCircle
 62
7
  6
CONTINUOUS
 10
7.773395961
 20
10.8037959506
 40
2.1052754379
100
AcDbArc
 50
3.5420111125
 51
4.9441805904
  0
ARC
  5
448
100
AcDbEntity
  8
0
100
AcDbCircle
 62
7
  6
CONTINUOUS
 10
11.0473169684
 20
11.6629653746
 40
1.2795259491
100
AcDbArc
 50
89.9999386591
 51
207.6789994035
  0
ARC
  5
449
100
AcDbEntity
  8
0
100
AcDbCircle
 62
9
  6
CONTINUOUS
 10
11.0473182941
 20
11.6629655708
 40
1.2611782772
100
AcDbArc
 50
270.000005844
 51
89.9999972203
  0
ARC
  5
44A
100
AcDbEntity
  8
0
100
AcDbCircle
 62
7
  6
CONTINUOUS
 10
11.0473183018
 20
11.6629655709
 40
0.959999911
100
AcDbArc
 50
270.0000021753
 51
89.9999978251
  0
ARC
  5
44B
100
AcDbEntity
  8
0
100
AcDbCircle
 62
9
  6
CONTINUOUS
 10
11.0503985734
 20
-12.40271772
 40
15.2376825826
100
AcDbArc
 50
87.7244663774
 51
90.0115821073
  0
ARC
  5
44C
100
AcDbEntity
  8
0
100
AcDbCircle
 62
7
  6
CONTINUOUS
 10
11.0595317595
 20
2.6599399633
 40
0.7692807804
100
AcDbArc
 50
359.3625638295
 51
0.0000827763
  0
ARC
  5
44D
100
AcDbEntity
  8
0
100
AcDbCircle
 62
7
  6
CONTINUOUS
 10
11.0598390728
 20
2.6598290007
 40
0.7689769735
100
AcDbArc
 50
0.008350563
 51
24.9954996963
  0
ARC
  5
44E
100
AcDbEntity
  8
0
100
AcDbCircle
 62
7
  6
CONTINUOUS
 10
11.0473183383
 20
11.6629655713
 40
1.425
100
AcDbArc
 50
326.5154179623
 51
213.4845999052
  0
ARC
  5
44F
100
AcDbEntity
  8
0
100
AcDbCircle
 62
7
  6
CONTINUOUS
 10
11.0473183383
 20
11.6629655713
 40
1.375
100
AcDbArc
 50
329.8163583425
 51
210.1943193573
  0
ARC
  5
450
100
AcDbEntity
  8
0
100
AcDbCircle
 62
7
  6
CONTINUOUS
 10
11.0473188856
 20
11.6629655818
 40
1.2795269011
100
AcDbArc
 50
332.3205368127
 51
207.7024006391
  0
ARC
  5
451
100
AcDbEntity
  8
0
100
AcDbCircle
 62
9
  6
CONTINUOUS
 10
11.0473184384
 20
11.6629655708
 40
1.2611782783
100
AcDbArc
 50
90.0000037761
 51
269.9999992883
  0
ARC
  5
452
100
AcDbEntity
  8
0
100
AcDbCircle
 62
7
  6
CONTINUOUS
 10
11.047318369
 20
11.6629655709
 40
0.9599999396
100
AcDbArc
 50
90.000001831
 51
269.9999981694
  0
CIRCLE
  5
453
100
AcDbEntity
  8
0
100
AcDbCircle
 62
9
  6
CONTINUOUS
 10
11.0473183383
 20
11.6629655713
 40
0.91
  0
CIRCLE
  5
454
100
AcDbEntity
  8
0
100
AcDbCircle
 62
7
  6
CONTINUOUS
 10
11.0473183383
 20
11.6629655713
 40
0.885
  0
CIRCLE
  5
455
100
AcDbEntity
  8
0
100
AcDbCircle
 62
9
  6
CONTINUOUS
 10
11.0473183383
 20
11.6629655713
 40
0.525
  0
CIRCLE
  5
456
100
AcDbEntity
  8
0
100
AcDbCircle
 62
7
  6
CONTINUOUS
 10
11.0473183383
 20
11.6629655713
 40
0.5
  0
CIRCLE
  5
457
100
AcDbEntity
  8
0
100
AcDbCircle
 62
7
  6
CONTINUOUS
 10
11.0473183383
 20
11.6629655713
 40
0.4
  0
CIRCLE
  5
458
100
AcDbEntity
  8
0
100
AcDbCircle
 62
9
  6
CONTINUOUS
 10
11.0473183383
 20
11.6629655713
 40
0.3875
  0
CIRCLE
  5
459
100
AcDbEntity
  8
0
100
AcDbCircle
 62
7
  6
CONTINUOUS
 10
11.0473183383
 20
11.6629655713
 40
0.3125
  0
CIRCLE
  5
45A
100
AcDbEntity
  8
0
100
AcDbCircle
 62
7
  6
CONTINUOUS
 10
11.0473183383
 20
11.6629655713
 40
0.2625
  0
ARC
  5
45B
100
AcDbEntity
  8
0
100
AcDbCircle
 62
7
  6
CONTINUOUS
 10
14.2874775121
 20
10.8066547262
 40
2.0714048878
100
AcDbArc
 50
175.0547689635
 51
176.4881118701
  0
ARC
  5
45C
100
AcDbEntity
  8
0
100
AcDbCircle
 62
7
  6
CONTINUOUS
 10
14.526465556
 20
10.7863686788
 40
2.3112521724
100
AcDbArc
 50
174.6565023458
 51
175.0644753358
  0
ARC
  5
45D
100
AcDbEntity
  8
0
100
AcDbCircle
 62
7
  6
CONTINUOUS
 10
15.0124582249
 20
11.3261563887
 40
0.015
100
AcDbArc
 50
288.9054592062
 51
340.0000000002
  0
ARC
  5
45E
100
AcDbEntity
  8
0
100
AcDbCircle
 62
7
  6
CONTINUOUS
 10
14.9455103102
 20
11.3355030891
 40
0.011
100
AcDbArc
 50
287.9999999995
 51
348.0
  0
ARC
  5
45F
100
AcDbEntity
  8
0
100
AcDbCircle
 62
7
  6
CONTINUOUS
 10
14.9797454763
 20
11.3282261799
 40
0.011
100
AcDbArc
 50
167.9999999999
 51
227.9999999996
  0
ARC
  5
460
100
AcDbEntity
  8
0
100
AcDbCircle
 62
7
  6
CONTINUOUS
 10
15.0098853818
 20
11.3233263896
 40
0.011
100
AcDbArc
 50
222.0605153603
 51
258.0
  0
ARC
  5
461
100
AcDbEntity
  8
0
100
AcDbCircle
 62
7
  6
CONTINUOUS
 10
15.0381101566
 20
11.3176917731
 40
0.006
100
AcDbArc
 50
160.0000000005
 51
252.6242801219
  0
ARC
  5
462
100
AcDbEntity
  8
0
100
AcDbCircle
 62
7
  6
CONTINUOUS
 10
14.9032334945
 20
11.3418043069
 40
0.002
100
AcDbArc
 50
156.0000000096
 51
246.0000000042
  0
ARC
  5
463
100
AcDbEntity
  8
0
100
AcDbCircle
 62
7
  6
CONTINUOUS
 10
14.9726424916
 20
11.3429066077
 40
0.001
100
AcDbArc
 50
168.0000000039
 51
257.9999999907
  0
ARC
  5
464
100
AcDbEntity
  8
0
100
AcDbCircle
 62
7
  6
CONTINUOUS
 10
14.9709340926
 20
11.3348692226
 40
0.001
100
AcDbArc
 50
78.0000000453
 51
168.0000000039
  0
ARC
  5
465
100
AcDbEntity
  8
0
100
AcDbCircle
 62
7
  6
CONTINUOUS
 10
14.973484788
 20
11.3343270556
 40
0.001
100
AcDbArc
 50
28.1777964324
 51
77.9999999904
  0
ARC
  5
466
100
AcDbEntity
  8
0
100
AcDbCircle
 62
7
  6
CONTINUOUS
 10
14.9929401918
 20
11.349419694
 40
0.018
100
AcDbArc
 50
250.0164438527
 51
78.0000000022
  0
ARC
  5
467
100
AcDbEntity
  8
0
100
AcDbCircle
 62
7
  6
CONTINUOUS
 10
14.9211387318
 20
11.3444878348
 40
0.0177342409
100
AcDbArc
 50
245.9999999981
 51
42.5194112818
  0
ARC
  5
468
100
AcDbEntity
  8
0
100
AcDbCircle
 62
7
  6
CONTINUOUS
 10
14.9308189823
 20
11.3705713168
 40
0.0145
100
AcDbArc
 50
283.5235132019
 51
65.9999999985
  0
ARC
  5
469
100
AcDbEntity
  8
0
100
AcDbCircle
 62
7
  6
CONTINUOUS
 10
14.91552277
 20
11.3472791316
 40
0.012
100
AcDbArc
 50
245.9999999996
 51
65.9999999996
  0
ARC
  5
46A
100
AcDbEntity
  8
0
100
AcDbCircle
 62
7
  6
CONTINUOUS
 10
14.9864933297
 20
11.3507900168
 40
0.0115908889
100
AcDbArc
 50
258.0000000013
 51
77.9999999964
  0
ARC
  5
46B
100
AcDbEntity
  8
0
100
AcDbCircle
 62
7
  6
CONTINUOUS
 10
14.9509050866
 20
11.3608835164
 40
0.011
100
AcDbArc
 50
348.0
 51
47.9999999996
  0
ARC
  5
46C
100
AcDbEntity
  8
0
100
AcDbCircle
 62
7
  6
CONTINUOUS
 10
14.9244241641
 20
11.3734184733
 40
0.0095
100
AcDbArc
 50
245.9999999957
 51
66.0000000012
  0
ARC
  5
46D
100
AcDbEntity
  8
0
100
AcDbCircle
 62
7
  6
CONTINUOUS
 10
14.9000304531
 20
11.3862406182
 40
0.007
100
AcDbArc
 50
336.0000000001
 51
49.3984504
  0
ARC
  5
46E
100
AcDbEntity
  8
0
100
AcDbCircle
 62
7
  6
CONTINUOUS
 10
14.8871842488
 20
11.3573875711
 40
0.007
100
AcDbArc
 50
262.6015496013
 51
336.0
  0
ARC
  5
46F
100
AcDbEntity
  8
0
100
AcDbCircle
 62
7
  6
CONTINUOUS
 10
14.9215366434
 20
11.3829138525
 40
0.002
100
AcDbArc
 50
66.000000004
 51
155.9999999979
  0
ARC
  5
470
100
AcDbEntity
  8
0
100
AcDbCircle
 62
7
  6
CONTINUOUS
 10
14.9154355938
 20
11.3692106706
 40
0.002
100
AcDbArc
 50
155.9999999978
 51
246.0000000041
  0
ARC
  5
471
100
AcDbEntity
  8
0
100
AcDbCircle
 62
7
  6
CONTINUOUS
 10
14.9113682273
 20
11.360075216
 40
0.002
100
AcDbArc
 50
66.0000000041
 51
155.9999999953
  0
ARC
  5
472
100
AcDbEntity
  8
0
100
AcDbCircle
 62
7
  6
CONTINUOUS
 10
14.9770464308
 20
11.3636255128
 40
0.001
100
AcDbArc
 50
78.0000000453
 51
168.0000000039
  0
ARC
  5
473
100
AcDbEntity
  8
0
100
AcDbCircle
 62
7
  6
CONTINUOUS
 10
15.1207474314
 20
11.3217765393
 40
0.049
100
AcDbArc
 50
72.2068956489
 51
131.793104351
  0
ARC
  5
474
100
AcDbEntity
  8
0
100
AcDbCircle
 62
7
  6
CONTINUOUS
 10
15.1152142482
 20
11.3435404293
 40
0.025
100
AcDbArc
 50
221.6464596392
 51
305.5781784771
  0
ARC
  5
475
100
AcDbEntity
  8
0
100
AcDbCircle
 62
7
  6
CONTINUOUS
 10
15.1145637255
 20
11.3388642827
 40
0.025
100
AcDbArc
 50
33.0231697083
 51
118.2602047088
  0
ARC
  5
476
100
AcDbEntity
  8
0
100
AcDbCircle
 62
7
  6
CONTINUOUS
 10
15.0841784517
 20
11.3261563887
 40
0.015
100
AcDbArc
 50
199.9999999998
 51
251.0945407939
  0
ARC
  5
477
100
AcDbEntity
  8
0
100
AcDbCircle
 62
7
  6
CONTINUOUS
 10
15.1331850055
 20
11.3311406784
 40
0.015
100
AcDbArc
 50
301.4712206346
 51
61.619642743
  0
ARC
  5
478
100
AcDbEntity
  8
0
100
AcDbCircle
 62
7
  6
CONTINUOUS
 10
15.0920587266
 20
11.297652848
 40
0.014
100
AcDbArc
 50
76.214635173
 51
93.0000000024
  0
ARC
  5
479
100
AcDbEntity
  8
0
100
AcDbCircle
 62
7
  6
CONTINUOUS
 10
15.1730895156
 20
11.3170801869
 40
0.014
100
AcDbArc
 50
89.2146351755
 51
106.0000000021
  0
ARC
  5
47A
100
AcDbEntity
  8
0
100
AcDbCircle
 62
7
  6
CONTINUOUS
 10
15.0510772755
 20
11.3176917731
 40
0.006
100
AcDbArc
 50
287.3757198781
 51
20.0000000028
  0
ARC
  5
47B
100
AcDbEntity
  8
0
100
AcDbCircle
 62
7
  6
CONTINUOUS
 10
15.1096918455
 20
11.3695212911
 40
0.06
100
AcDbArc
 50
256.2146351723
 51
301.4712206346
  0
ARC
  5
47C
100
AcDbEntity
  8
0
100
AcDbCircle
 62
7
  6
CONTINUOUS
 10
15.1741038168
 20
11.3910732352
 40
0.06
100
AcDbArc
 50
269.2146351718
 51
314.4712206344
  0
ARC
  5
47D
100
AcDbEntity
  8
0
100
AcDbCircle
 62
7
  6
CONTINUOUS
 10
15.195616281
 20
11.347039144
 40
0.049
100
AcDbArc
 50
85.2068956488
 51
144.7931043506
  0
ARC
  5
47E
100
AcDbEntity
  8
0
100
AcDbCircle
 62
7
  6
CONTINUOUS
 10
15.1853291029
 20
11.3670005315
 40
0.025
100
AcDbArc
 50
234.6464596386
 51
318.5781784785
  0
ARC
  5
47F
100
AcDbEntity
  8
0
100
AcDbCircle
 62
7
  6
CONTINUOUS
 10
15.1857471571
 20
11.3622978985
 40
0.025
100
AcDbArc
 50
46.0231697089
 51
131.2602047082
  0
ARC
  5
480
100
AcDbEntity
  8
0
100
AcDbCircle
 62
7
  6
CONTINUOUS
 10
15.2056286079
 20
11.3589611262
 40
0.015
100
AcDbArc
 50
314.4712206324
 51
74.6196427433
  0
ARC
  5
481
100
AcDbEntity
  8
0
100
AcDbCircle
 62
7
  6
CONTINUOUS
 10
15.1399990163
 20
11.3817630084
 40
0.014
100
AcDbArc
 50
252.2068956489
 51
272.9999999984
  0
ARC
  5
482
100
AcDbEntity
  8
0
100
AcDbCircle
 62
7
  6
CONTINUOUS
 10
15.0967554926
 20
11.3486165629
 40
0.013
100
AcDbArc
 50
131.7931043517
 51
243.9826041721
  0
ARC
  5
483
100
AcDbEntity
  8
0
100
AcDbCircle
 62
7
  6
CONTINUOUS
 10
15.1662015624
 20
11.3677942476
 40
0.013
100
AcDbArc
 50
144.7931043508
 51
256.982604171
  0
ARC
  5
484
100
AcDbEntity
  8
0
100
AcDbCircle
 62
7
  6
CONTINUOUS
 10
14.9613183383
 20
11.6909655713
 40
0.042
100
AcDbArc
 50
262.4753697776
 51
90.0
  0
ARC
  5
485
100
AcDbEntity
  8
0
100
AcDbCircle
 62
7
  6
CONTINUOUS
 10
14.9463183383
 20
11.6909655713
 40
0.027
100
AcDbArc
 50
270.0
 51
90.0
  0
ARC
  5
486
100
AcDbEntity
  8
0
100
AcDbCircle
 62
7
  6
CONTINUOUS
 10
14.8608183383
 20
11.6346162064
 40
0.025
100
AcDbArc
 50
300.0
 51
360.0
  0
ARC
  5
487
100
AcDbEntity
  8
0
100
AcDbCircle
 62
7
  6
CONTINUOUS
 10
14.9408183383
 20
11.6346162064
 40
0.025
100
AcDbArc
 50
180.0
 51
240.0
  0
ARC
  5
488
100
AcDbEntity
  8
0
100
AcDbCircle
 62
7
  6
CONTINUOUS
 10
15.0133183383
 20
11.6379655713
 40
0.025
100
AcDbArc
 50
233.574758698
 51
270.0
  0
ARC
  5
489
100
AcDbEntity
  8
0
100
AcDbCircle
 62
7
  6
CONTINUOUS
 10
14.8295902981
 20
11.6829655713
 40
0.025
100
AcDbArc
 50
44.3891151236
 51
90.0
  0
ARC
  5
48A
100
AcDbEntity
  8
0
100
AcDbCircle
 62
7
  6
CONTINUOUS
 10
14.8608183383
 20
11.6963149362
 40
0.025
100
AcDbArc
 50
0.0
 51
60.0
  0
ARC
  5
48B
100
AcDbEntity
  8
0
100
AcDbCircle
 62
7
  6
CONTINUOUS
 10
14.7278183383
 20
11.6338162308
 40
0.021
100
AcDbArc
 50
276.8371411681
 51
360.0
  0
ARC
  5
48C
100
AcDbEntity
  8
0
100
AcDbCircle
 62
7
  6
CONTINUOUS
 10
14.7978183383
 20
11.6338162308
 40
0.021
100
AcDbArc
 50
180.0
 51
263.1628588319
  0
ARC
  5
48D
100
AcDbEntity
  8
0
100
AcDbCircle
 62
7
  6
CONTINUOUS
 10
14.7278183383
 20
11.6978409595
 40
0.021
100
AcDbArc
 50
0.0
 51
73.398450401
  0
ARC
  5
48E
100
AcDbEntity
  8
0
100
AcDbCircle
 62
7
  6
CONTINUOUS
 10
14.7868183383
 20
11.6449655713
 40
0.01
100
AcDbArc
 50
90.0
 51
180.0
  0
ARC
  5
48F
100
AcDbEntity
  8
0
100
AcDbCircle
 62
7
  6
CONTINUOUS
 10
14.7953183383
 20
11.6449655713
 40
0.01
100
AcDbArc
 50
0.0
 51
90.0
  0
ARC
  5
490
100
AcDbEntity
  8
0
100
AcDbCircle
 62
7
  6
CONTINUOUS
 10
14.7953183383
 20
11.6809655713
 40
0.01
100
AcDbArc
 50
270.0
 51
360.0
  0
ARC
  5
491
100
AcDbEntity
  8
0
100
AcDbCircle
 62
7
  6
CONTINUOUS
 10
14.7868183383
 20
11.6809655713
 40
0.01
100
AcDbArc
 50
180.0
 51
270.0
  0
ARC
  5
492
100
AcDbEntity
  8
0
100
AcDbCircle
 62
7
  6
CONTINUOUS
 10
14.7818183383
 20
11.7029655713
 40
0.005
100
AcDbArc
 50
90.0
 51
179.9999999999
  0
ARC
  5
493
100
AcDbEntity
  8
0
100
AcDbCircle
 62
7
  6
CONTINUOUS
 10
14.9188183383
 20
11.6449655713
 40
0.003
100
AcDbArc
 50
90.0
 51
180.0
  0
ARC
  5
494
100
AcDbEntity
  8
0
100
AcDbCircle
 62
7
  6
CONTINUOUS
 10
14.925308228
 20
11.6449655713
 40
0.003
100
AcDbArc
 50
40.2859999933
 51
90.0
  0
ARC
  5
495
100
AcDbEntity
  8
0
100
AcDbCircle
 62
7
  6
CONTINUOUS
 10
14.9188183383
 20
11.6669655713
 40
0.003
100
AcDbArc
 50
180.0
 51
270.0
  0
ARC
  5
496
100
AcDbEntity
  8
0
100
AcDbCircle
 62
7
  6
CONTINUOUS
 10
14.9308844078
 20
11.9783108834
 40
0.026
100
AcDbArc
 50
292.0000000003
 51
331.7151372322
  0
ARC
  5
497
100
AcDbEntity
  8
0
100
AcDbCircle
 62
7
  6
CONTINUOUS
 10
14.9375257552
 20
11.9723658839
 40
0.022
100
AcDbArc
 50
87.3800226715
 51
111.9999999996
  0
ARC
  5
498
100
AcDbEntity
  8
0
100
AcDbCircle
 62
7
  6
CONTINUOUS
 10
14.9320274492
 20
11.983086841
 40
0.019
100
AcDbArc
 50
59.9798724439
 51
112.0000000002
  0
ARC
  5
499
100
AcDbEntity
  8
0
100
AcDbCircle
 62
7
  6
CONTINUOUS
 10
14.9359695947
 20
11.9577162026
 40
0.012
100
AcDbArc
 50
75.1301023545
 51
112.0
  0
ARC
  5
49A
100
AcDbEntity
  8
0
100
AcDbCircle
 62
7
  6
CONTINUOUS
 10
14.8345379559
 20
11.8996896894
 40
0.011
100
AcDbArc
 50
321.8266201302
 51
36.0
  0
ARC
  5
49B
100
AcDbEntity
  8
0
100
AcDbCircle
 62
7
  6
CONTINUOUS
 10
14.8571904317
 20
11.9161476764
 40
0.011
100
AcDbArc
 50
216.0000000003
 51
290.1733798713
  0
ARC
  5
49C
100
AcDbEntity
  8
0
100
AcDbCircle
 62
7
  6
CONTINUOUS
 10
14.8903601285
 20
11.9402468718
 40
0.011
100
AcDbArc
 50
216.0000000003
 51
290.1733798712
  0
ARC
  5
49D
100
AcDbEntity
  8
0
100
AcDbCircle
 62
7
  6
CONTINUOUS
 10
14.8757630757
 20
11.9603379913
 40
0.011
100
AcDbArc
 50
141.8266201329
 51
216.0000000003
  0
ARC
  5
49E
100
AcDbEntity
  8
0
100
AcDbCircle
 62
7
  6
CONTINUOUS
 10
14.8531105998
 20
11.9438800043
 40
0.011
100
AcDbArc
 50
36.0
 51
110.1733798712
  0
ARC
  5
49F
100
AcDbEntity
  8
0
100
AcDbCircle
 62
7
  6
CONTINUOUS
 10
14.8199409031
 20
11.9197808089
 40
0.011
100
AcDbArc
 50
36.0
 51
110.1733798663
  0
ARC
  5
4A0
100
AcDbEntity
  8
0
100
AcDbCircle
 62
7
  6
CONTINUOUS
 10
14.9282621617
 20
11.9848011704
 40
0.007
100
AcDbArc
 50
292.0000000009
 51
328.869897649
  0
ARC
  5
4A1
100
AcDbEntity
  8
0
100
AcDbCircle
 62
7
  6
CONTINUOUS
 10
14.9012502951
 20
11.9417431828
 40
0.006
100
AcDbArc
 50
322.0000000018
 51
22.0
  0
ARC
  5
4A2
100
AcDbEntity
  8
0
100
AcDbCircle
 62
7
  6
CONTINUOUS
 10
14.8882860243
 20
11.9738308789
 40
0.006
100
AcDbArc
 50
22.0
 51
82.0000000071
  0
ARC
  5
4A3
100
AcDbEntity
  8
0
100
AcDbCircle
 62
7
  6
CONTINUOUS
 10
15.0129333297
 20
12.0083027412
 40
0.0055355033
100
AcDbArc
 50
346.790503292
 51
99.0000000003
  0
ARC
  5
4A4
100
AcDbEntity
  8
0
100
AcDbCircle
 62
7
  6
CONTINUOUS
 10
14.9807732458
 20
12.0032090843
 40
0.0055355033
100
AcDbArc
 50
99.0000000001
 51
211.2094967096
  0
ARC
  5
4A5
100
AcDbEntity
  8
0
100
AcDbCircle
 62
7
  6
CONTINUOUS
 10
14.955093349
 20
11.9991417882
 40
0.0055355033
100
AcDbArc
 50
31.2094967096
 51
99.0000000003
  0
ARC
  5
4A6
100
AcDbEntity
  8
0
100
AcDbCircle
 62
7
  6
CONTINUOUS
 10
14.9218838662
 20
11.9498681294
 40
0.003
100
AcDbArc
 50
201.9999999969
 51
291.9999999957
  0
ARC
  5
4A7
100
AcDbEntity
  8
0
100
AcDbCircle
 62
7
  6
CONTINUOUS
 10
14.9177631937
 20
11.9600671518
 40
0.003
100
AcDbArc
 50
112.0000000133
 51
201.999999997
  0
ARC
  5
4A8
100
AcDbEntity
  8
0
100
AcDbCircle
 62
7
  6
CONTINUOUS
 10
14.9091472421
 20
11.9813923805
 40
0.003
100
AcDbArc
 50
111.9999999956
 51
201.9999999988
  0
ARC
  5
4A9
100
AcDbEntity
  8
0
100
AcDbCircle
 62
7
  6
CONTINUOUS
 10
14.9188183383
 20
11.7149655713
 40
0.003
100
AcDbArc
 50
90.0
 51
179.9999999999
  0
ARC
  5
4AA
100
AcDbEntity
  8
0
100
AcDbCircle
 62
7
  6
CONTINUOUS
 10
14.9395623453
 20
11.9712473572
 40
0.002
100
AcDbArc
 50
255.1301023546
 51
337.0000000032
  0
ARC
  5
4AB
100
AcDbEntity
  8
0
100
AcDbCircle
 62
7
  6
CONTINUOUS
 10
14.935966122
 20
11.9801483222
 40
0.002
100
AcDbArc
 50
66.9999999993
 51
148.8698976467
  0
ARC
  5
4AC
100
AcDbEntity
  8
0
100
AcDbCircle
 62
7
  6
CONTINUOUS
 10
14.9115915176
 20
11.9726731192
 40
0.002
100
AcDbArc
 50
202.0000000032
 51
292.0000000039
  0
ARC
  5
4AD
100
AcDbEntity
  8
0
100
AcDbCircle
 62
7
  6
CONTINUOUS
 10
15.0473183383
 20
11.6629655713
 40
1.3125
100
AcDbArc
 50
9.4161384642
 51
350.5838615358
  0
ARC
  5
4AE
100
AcDbEntity
  8
0
100
AcDbCircle
 62
7
  6
CONTINUOUS
 10
15.0473183383
 20
11.6629655713
 40
1.2625
100
AcDbArc
 50
9.6629524427
 51
350.3370475573
  0
ARC
  5
4AF
100
AcDbEntity
  8
0
100
AcDbCircle
 62
9
  6
CONTINUOUS
 10
15.0473183383
 20
11.6629655713
 40
1.1354891084
100
AcDbArc
 50
10.3860323802
 51
349.6139676198
  0
ARC
  5
4B0
100
AcDbEntity
  8
0
100
AcDbCircle
 62
7
  6
CONTINUOUS
 10
15.0473183383
 20
11.6629655713
 40
1.125
100
AcDbArc
 50
10.4511198557
 51
349.5510862827
  0
ARC
  5
4B1
100
AcDbEntity
  8
0
100
AcDbCircle
 62
7
  6
CONTINUOUS
 10
15.0473183383
 20
11.6629655713
 40
1.05
100
AcDbArc
 50
10.9737420496
 51
349.0262579504
  0
ARC
  5
4B2
100
AcDbEntity
  8
0
100
AcDbCircle
 62
7
  6
CONTINUOUS
 10
15.0473183383
 20
11.6629655713
 40
0.6375
100
AcDbArc
 50
16.0510311996
 51
343.9523542261
  0
ARC
  5
4B3
100
AcDbEntity
  8
0
100
AcDbCircle
 62
7
  6
CONTINUOUS
 10
15.0473183383
 20
11.6629655713
 40
0.5375
100
AcDbArc
 50
19.058806677
 51
340.9450181686
  0
CIRCLE
  5
4B4
100
AcDbEntity
  8
0
100
AcDbCircle
 62
7
  6
CONTINUOUS
 10
15.0473183383
 20
11.6629655713
 40
0.5
  0
ARC
  5
4B5
100
AcDbEntity
  8
0
100
AcDbCircle
 62
7
  6
CONTINUOUS
 10
15.0473183383
 20
11.6629655713
 40
0.425
100
AcDbArc
 50
0.0
 51
359.8990434097
  0
ARC
  5
4B6
100
AcDbEntity
  8
0
100
AcDbCircle
 62
7
  6
CONTINUOUS
 10
15.0473183383
 20
11.6629655713
 40
0.425
100
AcDbArc
 50
359.8990434097
 51
360.0
  0
CIRCLE
  5
4B7
100
AcDbEntity
  8
0
100
AcDbCircle
 62
7
  6
CONTINUOUS
 10
15.0473183383
 20
11.6629655713
 40
0.4175
  0
CIRCLE
  5
4B8
100
AcDbEntity
  8
0
100
AcDbCircle
 62
9
  6
CONTINUOUS
 10
15.0473183383
 20
11.6629655713
 40
0.3951446566
  0
ARC
  5
4B9
100
AcDbEntity
  8
0
100
AcDbCircle
 62
7
  6
CONTINUOUS
 10
15.1548183383
 20
11.6368140513
 40
0.025
100
AcDbArc
 50
287.4576031237
 51
360.0
  0
ARC
  5
4BA
100
AcDbEntity
  8
0
100
AcDbCircle
 62
7
  6
CONTINUOUS
 10
15.1548183383
 20
11.6941170913
 40
0.025
100
AcDbArc
 50
0.0
 51
72.5423968763
  0
ARC
  5
4BB
100
AcDbEntity
  8
0
100
AcDbCircle
 62
7
  6
CONTINUOUS
 10
15.2008804295
 20
11.4098188281
 40
0.014
100
AcDbArc
 50
265.2068956512
 51
286.0000000023
  0
ARC
  5
4BC
100
AcDbEntity
  8
0
100
AcDbCircle
 62
7
  6
CONTINUOUS
 10
15.2693216279
 20
11.6654655713
 40
0.08
100
AcDbArc
 50
341.7900431358
 51
18.2099568643
  0
ARC
  5
4BD
100
AcDbEntity
  8
0
100
AcDbCircle
 62
7
  6
CONTINUOUS
 10
15.3073183383
 20
11.6629655713
 40
0.07
100
AcDbArc
 50
270.0
 51
90.0
  0
ARC
  5
4BE
100
AcDbEntity
  8
0
100
AcDbCircle
 62
7
  6
CONTINUOUS
 10
15.3073183383
 20
11.6529655713
 40
0.04
100
AcDbArc
 50
270.0
 51
341.7900431358
  0
ARC
  5
4BF
100
AcDbEntity
  8
0
100
AcDbCircle
 62
7
  6
CONTINUOUS
 10
15.3073183383
 20
11.6779655713
 40
0.04
100
AcDbArc
 50
18.2099568643
 51
90.0
  0
ARC
  5
4C0
100
AcDbEntity
  8
0
100
AcDbCircle
 62
7
  6
CONTINUOUS
 10
15.2348183383
 20
11.6368140513
 40
0.025
100
AcDbArc
 50
180.0
 51
252.5423968763
  0
ARC
  5
4C1
100
AcDbEntity
  8
0
100
AcDbCircle
 62
7
  6
CONTINUOUS
 10
15.2348183383
 20
11.6941170913
 40
0.025
100
AcDbArc
 50
107.4576031237
 51
180.0
  0
ARC
  5
4C2
100
AcDbEntity
  8
0
100
AcDbCircle
 62
7
  6
CONTINUOUS
 10
15.2303183383
 20
11.6262320705
 40
0.015
100
AcDbArc
 50
297.8181392847
 51
360.0
  0
ARC
  5
4C3
100
AcDbEntity
  8
0
100
AcDbCircle
 62
7
  6
CONTINUOUS
 10
15.2303183383
 20
11.7046990721
 40
0.015
100
AcDbArc
 50
0.0
 51
62.1818607153
  0
ARC
  5
4C4
100
AcDbEntity
  8
0
100
AcDbCircle
 62
7
  6
CONTINUOUS
 10
15.2873183383
 20
11.6179655713
 40
0.005
100
AcDbArc
 50
179.9999999999
 51
270.0000000001
  0
ARC
  5
4C5
100
AcDbEntity
  8
0
100
AcDbCircle
 62
7
  6
CONTINUOUS
 10
15.2084872219
 20
11.9637555162
 40
0.018
100
AcDbArc
 50
236.016443854
 51
64.0000000005
  0
ARC
  5
4C6
100
AcDbEntity
  8
0
100
AcDbCircle
 62
7
  6
CONTINUOUS
 10
15.0822607526
 20
12.0047667236
 40
0.016
100
AcDbArc
 50
267.4999999995
 51
87.4999999994
  0
ARC
  5
4C7
100
AcDbEntity
  8
0
100
AcDbCircle
 62
7
  6
CONTINUOUS
 10
15.2684083358
 20
11.9186756447
 40
0.0146811183
100
AcDbArc
 50
7.0000000003
 51
52.0000000009
  0
ARC
  5
4C8
100
AcDbEntity
  8
0
100
AcDbCircle
 62
7
  6
CONTINUOUS
 10
15.2419462183
 20
11.9393501167
 40
0.0146811183
100
AcDbArc
 50
52.0000000006
 51
97.0000000004
  0
ARC
  5
4C9
100
AcDbEntity
  8
0
100
AcDbCircle
 62
7
  6
CONTINUOUS
 10
15.2285071832
 20
11.9265499675
 40
0.013
100
AcDbArc
 50
261.9999999977
 51
322.0
  0
ARC
  5
4CA
100
AcDbEntity
  8
0
100
AcDbCircle
 62
7
  6
CONTINUOUS
 10
15.2592396026
 20
11.90253917
 40
0.013
100
AcDbArc
 50
142.0000000001
 51
201.9999999989
  0
ARC
  5
4CB
100
AcDbEntity
  8
0
100
AcDbCircle
 62
7
  6
CONTINUOUS
 10
15.2025633703
 20
11.9666447717
 40
0.0115908889
100
AcDbArc
 50
243.9999999995
 51
63.9999999997
  0
ARC
  5
4CC
100
AcDbEntity
  8
0
100
AcDbCircle
 62
7
  6
CONTINUOUS
 10
15.1590994791
 20
11.9617266208
 40
0.011
100
AcDbArc
 50
274.0000000043
 51
334.0
  0
ARC
  5
4CD
100
AcDbEntity
  8
0
100
AcDbCircle
 62
7
  6
CONTINUOUS
 10
15.1905572707
 20
11.9463836307
 40
0.011
100
AcDbArc
 50
153.9999999992
 51
214.0000000004
  0
ARC
  5
4CE
100
AcDbEntity
  8
0
100
AcDbCircle
 62
7
  6
CONTINUOUS
 10
15.2186165257
 20
11.9343378819
 40
0.011
100
AcDbArc
 50
208.0605153629
 51
244.0000000032
  0
ARC
  5
4CF
100
AcDbEntity
  8
0
100
AcDbCircle
 62
7
  6
CONTINUOUS
 10
15.1704740886
 20
11.9850480264
 40
0.011
100
AcDbArc
 50
334.0
 51
34.0
  0
ARC
  5
4D0
100
AcDbEntity
  8
0
100
AcDbCircle
 62
7
  6
CONTINUOUS
 10
15.0755749563
 20
12.0050586317
 40
0.0096921657
100
AcDbArc
 50
267.4999999989
 51
87.4999999989
  0
ARC
  5
4D1
100
AcDbEntity
  8
0
100
AcDbCircle
 62
7
  6
CONTINUOUS
 10
15.0380016535
 20
11.9768668763
 40
0.006
100
AcDbArc
 50
297.5000000049
 51
357.5
  0
ARC
  5
4D2
100
AcDbEntity
  8
0
100
AcDbCircle
 62
7
  6
CONTINUOUS
 10
15.0639769072
 20
11.9757327722
 40
0.006
100
AcDbArc
 50
177.5000000001
 51
237.5000000008
  0
ARC
  5
4D3
100
AcDbEntity
  8
0
100
AcDbCircle
 62
7
  6
CONTINUOUS
 10
15.0395112199
 20
12.0114416326
 40
0.006
100
AcDbArc
 50
357.5000000001
 51
57.5000000008
  0
ARC
  5
4D4
100
AcDbEntity
  8
0
100
AcDbCircle
 62
7
  6
CONTINUOUS
 10
15.0311453512
 20
12.011187242
 40
0.0055355033
100
AcDbArc
 50
99.0000000002
 51
166.7905032918
  0
ARC
  5
4D5
100
AcDbEntity
  8
0
100
AcDbCircle
 62
7
  6
CONTINUOUS
 10
15.2873183383
 20
11.7129655713
 40
0.005
100
AcDbArc
 50
89.9999999999
 51
180.0
  0
ARC
  5
4D6
100
AcDbEntity
  8
0
100
AcDbCircle
 62
7
  6
CONTINUOUS
 10
15.1836147204
 20
11.9549610132
 40
0.001
100
AcDbArc
 50
63.9999999891
 51
153.9999999916
  0
ARC
  5
4D7
100
AcDbEntity
  8
0
100
AcDbCircle
 62
7
  6
CONTINUOUS
 10
15.1859584871
 20
11.9538178818
 40
0.001
100
AcDbArc
 50
14.1777964199
 51
63.9999999892
  0
ARC
  5
4D8
100
AcDbEntity
  8
0
100
AcDbCircle
 62
7
  6
CONTINUOUS
 10
15.2695102952
 20
11.935176288
 40
0.001
100
AcDbArc
 50
52.0000000145
 51
142.0000000149
  0
ARC
  5
4D9
100
AcDbEntity
  8
0
100
AcDbCircle
 62
7
  6
CONTINUOUS
 10
15.2576901339
 20
11.9444112101
 40
0.001
100
AcDbArc
 50
322.0000000003
 51
52.0000000143
  0
ARC
  5
4DA
100
AcDbEntity
  8
0
100
AcDbCircle
 62
7
  6
CONTINUOUS
 10
15.0595401621
 20
11.9887425303
 40
0.001
100
AcDbArc
 50
87.5000000207
 51
177.4999999989
  0
ARC
  5
4DB
100
AcDbEntity
  8
0
100
AcDbCircle
 62
7
  6
CONTINUOUS
 10
15.0599025448
 20
11.9970424574
 40
0.001
100
AcDbArc
 50
177.4999999988
 51
267.4999999639
  0
ARC
  5
4DC
100
AcDbEntity
  8
0
100
AcDbCircle
 62
7
  6
CONTINUOUS
 10
15.0606608386
 20
12.0144102428
 40
0.001
100
AcDbArc
 50
87.5000000207
 51
177.4999999989
  0
ARC
  5
4DD
100
AcDbEntity
  8
0
100
AcDbCircle
 62
7
  6
CONTINUOUS
 10
15.187216792
 20
11.9623463545
 40
0.001
100
AcDbArc
 50
153.9999999917
 51
243.9999999893
  0
ARC
  5
4DE
100
AcDbEntity
  8
0
100
AcDbCircle
 62
7
  6
CONTINUOUS
 10
15.1965022722
 20
11.9813844103
 40
0.001
100
AcDbArc
 50
64.0000000406
 51
154.0000000168
  0
ARC
  5
4DF
100
AcDbEntity
  8
0
100
AcDbCircle
 62
7
  6
CONTINUOUS
 10
17.8093183383
 20
11.6629655713
 40
0.3125
100
AcDbArc
 50
284.539847615
 51
75.460152385
  0
ARC
  5
4E0
100
AcDbEntity
  8
0
100
AcDbCircle
 62
7
  6
CONTINUOUS
 10
17.7922935364
 20
11.6628995271
 40
0.0954709262
100
AcDbArc
 50
280.2729009681
 51
79.7270982673
  0
SPLINE
  5
4E1
100
AcDbEntity
  8
0
100
AcDbSpline
 62
7
  6
CONTINUOUS
 70
0
 71
3
 72
11
 73
7
 74
0
 42
0.0000001
 43
0.0000001
 44
0.0000000001
 40
0.0
 40
0.0
 40
0.0
 40
0.0
 40
0.2734606541
 40
0.500005319
 40
0.7265393459
 40
1.0
 40
1.0
 40
1.0
 40
1.0
 10
15.0223183383
 20
11.6629655713
 30
0.0
 10
15.0223189491
 20
11.6433260464
 30
0.0
 10
15.0335599481
 20
11.6074164094
 30
0.0
 10
15.0873169369
 20
11.5864180218
 30
0.0
 10
15.1410778656
 20
11.6074172159
 30
0.0
 10
15.1523190005
 20
11.6433260252
 30
0.0
 10
15.1523183383
 20
11.6629655713
 30
0.0
  0
SPLINE
  5
4E2
100
AcDbEntity
  8
0
100
AcDbSpline
 62
7
  6
CONTINUOUS
 70
0
 71
3
 72
11
 73
7
 74
0
 42
0.0000001
 43
0.0000001
 44
0.0000000001
 40
0.0
 40
0.0
 40
0.0
 40
0.0
 40
0.2462014344
 40
0.5246240876
 40
0.8727706547
 40
1.0
 40
1.0
 40
1.0
 40
1.0
 10
15.0910531204
 20
11.3369339711
 30
0.0
 10
15.0958122923
 20
11.3346109789
 30
0.0
 10
15.1032090217
 20
11.332361345
 30
0.0
 10
15.1172040853
 20
11.335615396
 30
0.0
 10
15.1359363034
 20
11.3320439374
 30
0.0
 10
15.132269488
 20
11.3250028416
 30
0.0
 10
15.1297595795
 20
11.3232073691
 30
0.0
  0
SPLINE
  5
4E3
100
AcDbEntity
  8
0
100
AcDbSpline
 62
7
  6
CONTINUOUS
 70
0
 71
3
 72
8
 73
4
 74
0
 42
0.0000001
 43
0.0000001
 44
0.0000000001
 40
0.0
 40
0.0
 40
0.0
 40
0.0
 40
1.0
 40
1.0
 40
1.0
 40
1.0
 10
15.1403148447
 20
11.3443378521
 30
0.0
 10
15.1360558906
 20
11.3466387733
 30
0.0
 10
15.1328960957
 20
11.3479723836
 30
0.0
 10
15.1299502439
 20
11.3487518662
 30
0.0
  0
SPLINE
  5
4E4
100
AcDbEntity
  8
0
100
AcDbSpline
 62
7
  6
CONTINUOUS
 70
0
 71
3
 72
12
 73
8
 74
0
 42
0.0000001
 43
0.0000001
 44
0.0000000001
 40
0.0
 40
0.0
 40
0.0
 40
0.0
 40
0.0109931413
 40
0.3825446221
 40
0.6493793617
 40
0.7646529241
 40
1.0
 40
1.0
 40
1.0
 40
1.0
 10
15.1299502439
 20
11.3487518662
 30
0.0
 10
15.129793207
 20
11.3487934187
 30
0.0
 10
15.1243497169
 20
11.3501845867
 30
0.0
 10
15.1160833338
 20
11.3494378982
 30
0.0
 10
15.104076613
 20
11.3473957695
 30
0.0
 10
15.0935490841
 20
11.3520899563
 30
0.0
 10
15.0977065652
 20
11.3581858151
 30
0.0
 10
15.1027268117
 20
11.3608844433
 30
0.0
  0
SPLINE
  5
4E5
100
AcDbEntity
  8
0
100
AcDbSpline
 62
7
  6
CONTINUOUS
 70
0
 71
3
 72
11
 73
7
 74
0
 42
0.0000001
 43
0.0000001
 44
0.0000000001
 40
0.0
 40
0.0
 40
0.0
 40
0.0
 40
0.2462014344
 40
0.5246240876
 40
0.8727706547
 40
1.0
 40
1.0
 40
1.0
 40
1.0
 10
15.163273353
 20
11.3551283252
 30
0.0
 10
15.1684331071
 20
11.3539354519
 30
0.0
 10
15.1761463163
 20
11.353407378
 30
0.0
 10
15.1890506852
 20
11.3597262322
 30
0.0
 10
15.2081062012
 20
11.3604601421
 30
0.0
 10
15.2061172679
 20
11.3527746552
 30
0.0
 10
15.2040755816
 20
11.350460594
 30
0.0
  0
SPLINE
  5
4E6
100
AcDbEntity
  8
0
100
AcDbSpline
 62
7
  6
CONTINUOUS
 70
0
 71
3
 72
8
 73
4
 74
0
 42
0.0000001
 43
0.0000001
 44
0.0000000001
 40
0.0
 40
0.0
 40
0.0
 40
0.0
 40
1.0
 40
1.0
 40
1.0
 40
1.0
 10
15.2096069916
 20
11.373423922
 30
0.0
 10
15.2049404782
 20
11.3747075729
 30
0.0
 10
15.2015620651
 20
11.3752962237
 30
0.0
 10
15.1985168177
 20
11.3753932227
 30
0.0
  0
SPLINE
  5
4E7
100
AcDbEntity
  8
0
100
AcDbSpline
 62
7
  6
CONTINUOUS
 70
0
 71
3
 72
12
 73
8
 74
0
 42
0.0000001
 43
0.0000001
 44
0.0000000001
 40
0.0
 40
0.0
 40
0.0
 40
0.0
 40
0.0110315316
 40
0.3825685898
 40
0.6493929717
 40
0.7646620596
 40
1.0
 40
1.0
 40
1.0
 40
1.0
 10
15.1985168177
 20
11.3753932227
 30
0.0
 10
15.1983538784
 20
11.3753984127
 30
0.0
 10
15.1927362913
 20
11.3755295876
 30
0.0
 10
15.184849272
 20
11.3729423504
 30
0.0
 10
15.1736096617
 20
11.3682516368
 30
0.0
 10
15.1622959904
 20
11.3704573332
 30
0.0
 10
15.1649756457
 20
11.3773321853
 30
0.0
 10
15.1692601643
 20
11.3810909575
 30
0.0
  0
SPLINE
  5
4E8
100
AcDbEntity
  8
0
100
AcDbSpline
 62
7
  6
CONTINUOUS
 70
0
 71
3
 72
11
 73
7
 74
0
 42
0.0000001
 43
0.0000001
 44
0.0000000001
 40
0.0
 40
0.0
 40
0.0
 40
0.0
 40
0.2734597226
 40
0.5000256251
 40
0.7265402774
 40
1.0
 40
1.0
 40
1.0
 40
1.0
 10
15.1523183383
 20
11.6629655713
 30
0.0
 10
15.152317676
 20
11.6826051174
 30
0.0
 10
15.1410733852
 20
11.718516433
 30
0.0
 10
15.0873255456
 20
11.7395130658
 30
0.0
 10
15.0335558002
 20
11.7185125902
 30
0.0
 10
15.0223177275
 20
11.6826050963
 30
0.0
 10
15.0223183383
 20
11.6629655713
 30
0.0
  0
SPLINE
  5
4E9
100
AcDbEntity
  8
0
100
AcDbSpline
 62
7
  6
CONTINUOUS
 70
0
 71
3
 72
11
 73
7
 74
0
 42
0.0000001
 43
0.0000001
 44
0.0000000001
 40
0.0
 40
0.0
 40
0.0
 40
0.0
 40
0.271807482
 40
0.4996953051
 40
0.7275315791
 40
1.0
 40
1.0
 40
1.0
 40
1.0
 10
15.159435689
 20
11.9735296811
 30
0.0
 10
15.161616944
 20
11.9816713293
 30
0.0
 10
15.1611304259
 20
11.9978439538
 30
0.0
 10
15.1409412954
 20
12.0124155513
 30
0.0
 10
15.1162256935
 20
12.0098517199
 30
0.0
 10
15.1075247411
 20
11.9961636529
 30
0.0
 10
15.1053438838
 20
11.9880237011
 30
0.0
  0
SPLINE
  5
4EA
100
AcDbEntity
  8
0
100
AcDbSpline
 62
7
  6
CONTINUOUS
 70
0
 71
3
 72
11
 73
7
 74
0
 42
0.0000001
 43
0.0000001
 44
0.0000000001
 40
0.0
 40
0.0
 40
0.0
 40
0.0
 40
0.3179134958
 40
0.5837816119
 40
0.8496372434
 40
1.0
 40
1.0
 40
1.0
 40
1.0
 10
15.1053438838
 20
11.9880237011
 30
0.0
 10
15.1031629991
 20
11.9798836471
 30
0.0
 10
15.1038551049
 20
11.9636775847
 30
0.0
 10
15.1239725245
 20
11.9491016704
 30
0.0
 10
15.1438806665
 20
11.9511301137
 30
0.0
 10
15.1516914163
 20
11.9584986648
 30
0.0
 10
15.1539547537
 20
11.9616512361
 30
0.0
  0
SPLINE
  5
4EB
100
AcDbEntity
  8
0
100
AcDbSpline
 62
7
  6
CONTINUOUS
 70
0
 71
3
 72
8
 73
4
 74
0
 42
0.0000001
 43
0.0000001
 44
0.0000000001
 40
0.0
 40
0.0
 40
0.0
 40
0.0
 40
1.0
 40
1.0
 40
1.0
 40
1.0
 10
15.1539547537
 20
11.9616512361
 30
0.0
 10
15.1564651453
 20
11.9651479256
 30
0.0
 10
15.1582886184
 20
11.9692481801
 30
0.0
 10
15.159435689
 20
11.9735296811
 30
0.0
  0
SPLINE
  5
4EC
100
AcDbEntity
  8
0
100
AcDbSpline
 62
7
  6
CONTINUOUS
 70
0
 71
3
 72
11
 73
7
 74
0
 42
0.0000001
 43
0.0000001
 44
0.0000000001
 40
0.0
 40
0.0
 40
0.0
 40
0.0
 40
0.2856552383
 40
0.4992298503
 40
0.7128044624
 40
1.0
 40
1.0
 40
1.0
 40
1.0
 10
15.1467820607
 20
11.9769202106
 30
0.0
 10
15.1452646016
 20
11.9712569765
 30
0.0
 10
15.1419338946
 20
11.9615413927
 30
0.0
 10
15.1262796466
 20
11.957763926
 30
0.0
 10
15.1147761229
 20
11.9688544678
 30
0.0
 10
15.116287905
 20
11.9790255716
 30
0.0
 10
15.1178042859
 20
11.9846847819
 30
0.0
  0
SPLINE
  5
4ED
100
AcDbEntity
  8
0
100
AcDbSpline
 62
7
  6
CONTINUOUS
 70
0
 71
3
 72
11
 73
7
 74
0
 42
0.0000001
 43
0.0000001
 44
0.0000000001
 40
0.0
 40
0.0
 40
0.0
 40
0.0
 40
0.2856552383
 40
0.4992298503
 40
0.7128044624
 40
1.0
 40
1.0
 40
1.0
 40
1.0
 10
15.1467820607
 20
11.9769202106
 30
0.0
 10
15.1482995197
 20
11.9825834447
 30
0.0
 10
15.1502728346
 20
11.9926627406
 30
0.0
 10
15.1386045915
 20
12.0037612467
 30
0.0
 10
15.1230969768
 20
11.9999083177
 30
0.0
 10
15.1193206667
 20
11.9903439923
 30
0.0
 10
15.1178042859
 20
11.9846847819
 30
0.0
  0
SPLINE
  5
4EE
100
AcDbEntity
  8
0
100
AcDbSpline
 62
7
  6
CONTINUOUS
 70
0
 71
3
 72
11
 73
7
 74
0
 42
0.0000001
 43
0.0000001
 44
0.0000000001
 40
0.0
 40
0.0
 40
0.0
 40
0.0
 40
0.2906657346
 40
0.5
 40
0.7093342654
 40
1.0
 40
1.0
 40
1.0
 40
1.0
 10
15.0523183383
 20
11.6629655713
 30
0.0
 10
15.0523183383
 20
11.6767062761
 30
0.0
 10
15.0551529711
 20
11.7003428854
 30
0.0
 10
15.0873183383
 20
11.7182502927
 30
0.0
 10
15.1194837054
 20
11.7003428854
 30
0.0
 10
15.1223183383
 20
11.6767062761
 30
0.0
 10
15.1223183383
 20
11.6629655713
 30
0.0
  0
SPLINE
  5
4EF
100
AcDbEntity
  8
0
100
AcDbSpline
 62
7
  6
CONTINUOUS
 70
0
 71
3
 72
11
 73
7
 74
0
 42
0.0000001
 43
0.0000001
 44
0.0000000001
 40
0.0
 40
0.0
 40
0.0
 40
0.0
 40
0.2906657346
 40
0.5
 40
0.7093342654
 40
1.0
 40
1.0
 40
1.0
 40
1.0
 10
15.1223183383
 20
11.6629655713
 30
0.0
 10
15.1223183383
 20
11.6492248665
 30
0.0
 10
15.1194837054
 20
11.6255882572
 30
0.0
 10
15.0873183383
 20
11.6076808499
 30
0.0
 10
15.0551529711
 20
11.6255882572
 30
0.0
 10
15.0523183383
 20
11.6492248665
 30
0.0
 10
15.0523183383
 20
11.6629655713
 30
0.0
  0
SPLINE
  5
4F0
100
AcDbEntity
  8
0
100
AcDbSpline
 62
7
  6
CONTINUOUS
 70
0
 71
3
 72
27
 73
23
 74
0
 42
0.0000001
 43
0.0000001
 44
0.0000000001
 40
0.0
 40
0.0
 40
0.0
 40
0.0
 40
0.0722963492
 40
0.1422514747
 40
0.2089058296
 40
0.2718685827
 40
0.3310939391
 40
0.3869770832
 40
0.4139839437
 40
0.4405436107
 40
0.4668399869
 40
0.4930661587
 40
0.5194222162
 40
0.5461007137
 40
0.5732750473
 40
0.601099932
 40
0.6590842414
 40
0.7207391148
 40
0.786138985
 40
0.854965214
 40
0.9266192393
 40
1.0
 40
1.0
 40
1.0
 40
1.0
 10
17.8093183383
 20
11.3857604346
 30
0.0
 10
17.8146888518
 20
11.3862294713
 30
0.0
 10
17.8252116521
 20
11.3878158329
 30
0.0
 10
17.8402216788
 20
11.3921552349
 30
0.0
 10
17.8538267006
 20
11.3983266079
 30
0.0
 10
17.8656139721
 20
11.4061536802
 30
0.0
 10
17.8752393018
 20
11.415415561
 30
0.0
 10
17.8812616969
 20
11.4242474859
 30
0.0
 10
17.8846394926
 20
11.4316950914
 30
0.0
 10
17.8864414627
 20
11.4373867025
 30
0.0
 10
17.8875290524
 20
11.4431973627
 30
0.0
 10
17.887893409
 20
11.4490829759
 30
0.0
 10
17.8875253338
 20
11.4549966883
 30
0.0
 10
17.8864343907
 20
11.4608915387
 30
0.0
 10
17.8846307964
 20
11.4667233232
 30
0.0
 10
17.8812443304
 20
11.4744541656
 30
0.0
 10
17.8752226145
 20
11.4837538061
 30
0.0
 10
17.8656241344
 20
11.4937625959
 30
0.0
 10
17.8538625932
 20
11.5025250294
 30
0.0
 10
17.8402784439
 20
11.5097888866
 30
0.0
 10
17.8252824337
 20
11.5153409881
 30
0.0
 10
17.8147147022
 20
11.517790943
 30
0.0
 10
17.8093183383
 20
11.5186965095
 30
0.0
  0
SPLINE
  5
4F1
100
AcDbEntity
  8
0
100
AcDbSpline
 62
7
  6
CONTINUOUS
 70
0
 71
3
 72
34
 73
30
 74
0
 42
0.0000001
 43
0.0000001
 44
0.0000000001
 40
0.0
 40
0.0
 40
0.0
 40
0.0
 40
0.0000652169
 40
0.0002606873
 40
0.0005861485
 40
0.001041347
 40
0.0016260384
 40
0.0023399878
 40
0.0041547618
 40
0.00648398
 40
0.0093261003
 40
0.0126797325
 40
0.016543639
 40
0.0257979785
 40
0.0370823887
 40
0.0503925404
 40
0.0657266086
 40
0.0830830647
 40
0.102451766
 40
0.1238174755
 40
0.147163306
 40
0.1997266731
 40
0.260012379
 40
0.3279010067
 40
0.4032319161
 40
0.4858192911
 40
0.5754792364
 40
0.7751626116
 40
1.0
 40
1.0
 40
1.0
 40
1.0
 10
15.6473183401
 20
11.4879655713
 30
0.0
 10
15.6473172446
 20
11.4879657763
 30
0.0
 10
15.6473210214
 20
11.4879723581
 30
0.0
 10
15.647319539
 20
11.4879801575
 30
0.0
 10
15.6473236632
 20
11.48799786
 30
0.0
 10
15.6473261951
 20
11.4880204315
 30
0.0
 10
15.6473305593
 20
11.4880503297
 30
0.0
 10
15.6473373976
 20
11.4881029784
 30
0.0
 10
15.6473477315
 20
11.488185427
 30
0.0
 10
15.6473612794
 20
11.4883040115
 30
0.0
 10
15.6473764601
 20
11.4884489161
 30
0.0
 10
15.6473926742
 20
11.488620059
 30
0.0
 10
15.6474164635
 20
11.4889005469
 30
0.0
 10
15.6474451902
 20
11.4893166046
 30
0.0
 10
15.6474736182
 20
11.4898943893
 30
0.0
 10
15.6474935738
 20
11.4905764864
 30
0.0
 10
15.6475007158
 20
11.4913626192
 30
0.0
 10
15.6474913353
 20
11.4922522515
 30
0.0
 10
15.6474699639
 20
11.4932447472
 30
0.0
 10
15.6474405179
 20
11.4943394254
 30
0.0
 10
15.6473940758
 20
11.4960011123
 30
0.0
 10
15.647337958
 20
11.49832791
 30
0.0
 10
15.6473085009
 20
11.5014166027
 30
0.0
 10
15.6473447529
 20
11.504894265
 30
0.0
 10
15.6474117196
 20
11.5087524922
 30
0.0
 10
15.6474777575
 20
11.5129828698
 30
0.0
 10
15.6475204706
 20
11.5193388886
 30
0.0
 10
15.647397344
 20
11.5281252708
 30
0.0
 10
15.6473183422
 20
11.5353796312
 30
0.0
 10
15.6473183401
 20
11.5392218938
 30
0.0
  0
SPLINE
  5
4F2
100
AcDbEntity
  8
0
100
AcDbSpline
 62
7
  6
CONTINUOUS
 70
0
 71
3
 72
20
 73
16
 74
0
 42
0.0000001
 43
0.0000001
 44
0.0000000001
 40
0.0
 40
0.0
 40
0.0
 40
0.0
 40
0.102784985
 40
0.1575282433
 40
0.2143032496
 40
0.302954857
 40
0.3953599984
 40
0.4428160209
 40
0.4910265484
 40
0.5894591164
 40
0.6901372759
 40
0.7411547277
 40
0.7925324539
 40
0.8960416299
 40
1.0
 40
1.0
 40
1.0
 40
1.0
 10
15.6473183401
 20
11.5392218938
 30
0.0
 10
15.6473183377
 20
11.5434616373
 30
0.0
 10
15.6473897613
 20
11.5499592739
 30
0.0
 10
15.6474768027
 20
11.558798522
 30
0.0
 10
15.64751475
 20
11.5670552915
 30
0.0
 10
15.6474448381
 20
11.5768654432
 30
0.0
 10
15.6473529362
 20
11.5862908152
 30
0.0
 10
15.6473154293
 20
11.5940484689
 30
0.0
 10
15.6473248043
 20
11.6020548438
 30
0.0
 10
15.6474098591
 20
11.6122562004
 30
0.0
 10
15.6474928432
 20
11.6225733591
 30
0.0
 10
15.6475019837
 20
11.630949908
 30
0.0
 10
15.6474634269
 20
11.639443133
 30
0.0
 10
15.6473688859
 20
11.6501197188
 30
0.0
 10
15.6473183401
 20
11.6586774272
 30
0.0
 10
15.6473183401
 20
11.6629655713
 30
0.0
  0
SPLINE
  5
4F3
100
AcDbEntity
  8
0
100
AcDbSpline
 62
7
  6
CONTINUOUS
 70
0
 71
3
 72
22
 73
18
 74
0
 42
0.0000001
 43
0.0000001
 44
0.0000000001
 40
0.0
 40
0.0
 40
0.0
 40
0.0
 40
0.0693226932
 40
0.1385443823
 40
0.207467614
 40
0.2758949266
 40
0.3772048505
 40
0.4764444466
 40
0.5251235717
 40
0.5730893141
 40
0.6666358478
 40
0.7120941283
 40
0.7565933993
 40
0.8000727219
 40
0.8424716793
 40
0.9237773502
 40
1.0
 40
1.0
 40
1.0
 40
1.0
 10
15.6473183401
 20
11.6629655713
 30
0.0
 10
15.6473183401
 20
11.6658250413
 30
0.0
 10
15.6473408379
 20
11.6715398128
 30
0.0
 10
15.6474082291
 20
11.6800973132
 30
0.0
 10
15.6474756154
 20
11.6886178755
 30
0.0
 10
15.6475146693
 20
11.6984623135
 30
0.0
 10
15.6474485018
 20
11.709557202
 30
0.0
 10
15.6473543483
 20
11.7198371045
 30
0.0
 10
15.647315632
 20
11.7279170214
 30
0.0
 10
15.6473239762
 20
11.7357622125
 30
0.0
 10
15.6473906576
 20
11.7434742682
 30
0.0
 10
15.6474580971
 20
11.7510432613
 30
0.0
 10
15.6474948042
 20
11.7565472485
 30
0.0
 10
15.6475021394
 20
11.7619251832
 30
0.0
 10
15.6474649813
 20
11.7688212476
 30
0.0
 10
15.6473728682
 20
11.7770674419
 30
0.0
 10
15.6473183412
 20
11.78356518
 30
0.0
 10
15.64731834
 20
11.7867092642
 30
0.0
  0
SPLINE
  5
4F4
100
AcDbEntity
  8
0
100
AcDbSpline
 62
7
  6
CONTINUOUS
 70
0
 71
3
 72
34
 73
30
 74
0
 42
0.0000001
 43
0.0000001
 44
0.0000000001
 40
0.0
 40
0.0
 40
0.0
 40
0.0
 40
0.2248372075
 40
0.3279802696
 40
0.4245213459
 40
0.5141812177
 40
0.596768517
 40
0.6720993532
 40
0.7399879139
 40
0.8002735592
 40
0.8528368725
 40
0.8975483582
 40
0.9169170396
 40
0.9342734777
 40
0.9496075283
 40
0.9629176626
 40
0.9742020567
 40
0.983456382
 40
0.9873202825
 40
0.9906739095
 40
0.9935160254
 40
0.9958452402
 40
0.9976600119
 40
0.9983739606
 40
0.9989586516
 40
0.9994138499
 40
0.9997393113
 40
0.9999347823
 40
1.0
 40
1.0
 40
1.0
 40
1.0
 10
15.64731834
 20
11.7867092642
 30
0.0
 10
15.6473183386
 20
11.7905515261
 30
0.0
 10
15.6473806811
 20
11.7961562828
 30
0.0
 10
15.6474739327
 20
11.8034103069
 30
0.0
 10
15.6475090884
 20
11.8083549179
 30
0.0
 10
15.6474776482
 20
11.812948277
 30
0.0
 10
15.6474117461
 20
11.8171786618
 30
0.0
 10
15.6473447578
 20
11.8210368857
 30
0.0
 10
15.6473084774
 20
11.8245145476
 30
0.0
 10
15.6473380326
 20
11.8276032377
 30
0.0
 10
15.647402642
 20
11.830295057
 30
0.0
 10
15.6474612755
 20
11.8322875324
 30
0.0
 10
15.6474913516
 20
11.8336788945
 30
0.0
 10
15.6475007161
 20
11.8345685267
 30
0.0
 10
15.6474935807
 20
11.8353546591
 30
0.0
 10
15.6474736253
 20
11.8360367557
 30
0.0
 10
15.647445199
 20
11.83661454
 30
0.0
 10
15.6474164699
 20
11.8370305972
 30
0.0
 10
15.6473926837
 20
11.8373110851
 30
0.0
 10
15.6473764607
 20
11.837482227
 30
0.0
 10
15.647361304
 20
11.8376271337
 30
0.0
 10
15.6473476866
 20
11.8377457117
 30
0.0
 10
15.6473375091
 20
11.8378281747
 30
0.0
 10
15.6473304295
 20
11.837880801
 30
0.0
 10
15.6473265697
 20
11.8379107457
 30
0.0
 10
15.6473227319
 20
11.8379331967
 30
0.0
 10
15.6473215634
 20
11.8379511721
 30
0.0
 10
15.6473178547
 20
11.8379584921
 30
0.0
 10
15.6473194546
 20
11.8379655704
 30
0.0
 10
15.6473183401
 20
11.8379655713
 30
0.0
  0
SPLINE
  5
4F5
100
AcDbEntity
  8
0
100
AcDbSpline
 62
7
  6
CONTINUOUS
 70
0
 71
3
 72
27
 73
23
 74
0
 42
0.0000001
 43
0.0000001
 44
0.0000000001
 40
0.0
 40
0.0
 40
0.0
 40
0.0
 40
0.0733829569
 40
0.1450424829
 40
0.2138717763
 40
0.2792725598
 40
0.3409286795
 40
0.3989131899
 40
0.4267383083
 40
0.4539125344
 40
0.4805909053
 40
0.5069470103
 40
0.5331730398
 40
0.5594693693
 40
0.586029041
 40
0.613035628
 40
0.6689184717
 40
0.7281426261
 40
0.7911045481
 40
0.8577560026
 40
0.927705767
 40
1.0
 40
1.0
 40
1.0
 40
1.0
 10
17.8093183383
 20
11.8072346331
 30
0.0
 10
17.8147148639
 20
11.8081402267
 30
0.0
 10
17.8252830988
 20
11.8105905446
 30
0.0
 10
17.8402799019
 20
11.8161428134
 30
0.0
 10
17.8538645314
 20
11.8234073402
 30
0.0
 10
17.8656260668
 20
11.8321703965
 30
0.0
 10
17.8752245449
 20
11.8421794888
 30
0.0
 10
17.8812455796
 20
11.8514797137
 30
0.0
 10
17.8846319133
 20
11.8592106292
 30
0.0
 10
17.8864352147
 20
11.8650425237
 30
0.0
 10
17.8875255266
 20
11.8709374727
 30
0.0
 10
17.8878934088
 20
11.8768511642
 30
0.0
 10
17.8875288635
 20
11.8827367721
 30
0.0
 10
17.8864406389
 20
11.8885473045
 30
0.0
 10
17.8846383733
 20
11.8942387769
 30
0.0
 10
17.8812604503
 20
11.9016862912
 30
0.0
 10
17.875237363
 20
11.9105175911
 30
0.0
 10
17.8656120356
 20
11.9197791584
 30
0.0
 10
17.8538247601
 20
11.9276056047
 30
0.0
 10
17.8402202332
 20
11.9337763431
 30
0.0
 10
17.8252109825
 20
11.9381156471
 30
0.0
 10
17.8146886947
 20
11.939701685
 30
0.0
 10
17.8093183383
 20
11.940170708
 30
0.0
  0
SPLINE
  5
4F6
100
AcDbEntity
  8
0
100
AcDbSpline
 62
7
  6
CONTINUOUS
 70
0
 71
3
 72
9
 73
5
 74
0
 42
0.0000001
 43
0.0000001
 44
0.0000000001
 40
0.0
 40
0.0
 40
0.0
 40
0.0
 40
0.7018960945
 40
1.0
 40
1.0
 40
1.0
 40
1.0
 10
7.1144638245
 20
11.9568083098
 30
0.0
 10
7.1174763632
 20
11.9545200667
 30
0.0
 10
7.1224799437
 20
11.9520330677
 30
0.0
 10
7.1278993954
 20
11.9510654924
 30
0.0
 10
7.1295235489
 20
11.9509101025
 30
0.0
  0
SPLINE
  5
4F7
100
AcDbEntity
  8
0
100
AcDbSpline
 62
7
  6
CONTINUOUS
 70
0
 71
3
 72
8
 73
4
 74
0
 42
0.0000001
 43
0.0000001
 44
0.0000000001
 40
0.0
 40
0.0
 40
0.0
 40
0.0
 40
1.0
 40
1.0
 40
1.0
 40
1.0
 10
7.1295235489
 20
11.9509101025
 30
0.0
 10
7.1350501392
 20
11.9503813491
 30
0.0
 10
7.1406762335
 20
11.9513931211
 30
0.0
 10
7.1452843405
 20
11.9538675261
 30
0.0
  0
SPLINE
  5
4F8
100
AcDbEntity
  8
0
100
AcDbSpline
 62
7
  6
CONTINUOUS
 70
0
 71
3
 72
11
 73
7
 74
0
 42
0.0000001
 43
0.0000001
 44
0.0000000001
 40
0.0
 40
0.0
 40
0.0
 40
0.0
 40
0.2462014344
 40
0.5246240876
 40
0.8727706547
 40
1.0
 40
1.0
 40
1.0
 40
1.0
 10
7.0910531204
 20
11.3369339711
 30
0.0
 10
7.0958122923
 20
11.3346109789
 30
0.0
 10
7.1032090217
 20
11.332361345
 30
0.0
 10
7.1172040853
 20
11.335615396
 30
0.0
 10
7.1359363034
 20
11.3320439374
 30
0.0
 10
7.132269488
 20
11.3250028416
 30
0.0
 10
7.1297595795
 20
11.3232073691
 30
0.0
  0
SPLINE
  5
4F9
100
AcDbEntity
  8
0
100
AcDbSpline
 62
7
  6
CONTINUOUS
 70
0
 71
3
 72
8
 73
4
 74
0
 42
0.0000001
 43
0.0000001
 44
0.0000000001
 40
0.0
 40
0.0
 40
0.0
 40
0.0
 40
1.0
 40
1.0
 40
1.0
 40
1.0
 10
7.1403148447
 20
11.3443378521
 30
0.0
 10
7.1360744879
 20
11.346628726
 30
0.0
 10
7.1329237121
 20
11.3479607184
 30
0.0
 10
7.1299888467
 20
11.3487416233
 30
0.0
  0
SPLINE
  5
4FA
100
AcDbEntity
  8
0
100
AcDbSpline
 62
7
  6
CONTINUOUS
 70
0
 71
3
 72
12
 73
8
 74
0
 42
0.0000001
 43
0.0000001
 44
0.0000000001
 40
0.0
 40
0.0
 40
0.0
 40
0.0
 40
0.0118829311
 40
0.3831001344
 40
0.6496948081
 40
0.7648646612
 40
1.0
 40
1.0
 40
1.0
 40
1.0
 10
7.1299888467
 20
11.3487416233
 30
0.0
 10
7.1298188375
 20
11.3487868591
 30
0.0
 10
7.1243611798
 20
11.3501856222
 30
0.0
 10
7.1160833338
 20
11.3494378982
 30
0.0
 10
7.104076613
 20
11.3473957695
 30
0.0
 10
7.0935490841
 20
11.3520899563
 30
0.0
 10
7.0977065652
 20
11.3581858151
 30
0.0
 10
7.1027268117
 20
11.3608844433
 30
0.0
  0
SPLINE
  5
4FB
100
AcDbEntity
  8
0
100
AcDbSpline
 62
7
  6
CONTINUOUS
 70
0
 71
3
 72
11
 73
7
 74
0
 42
0.0000001
 43
0.0000001
 44
0.0000000001
 40
0.0
 40
0.0
 40
0.0
 40
0.0
 40
0.2462014344
 40
0.5246240876
 40
0.8727706547
 40
1.0
 40
1.0
 40
1.0
 40
1.0
 10
7.163273353
 20
11.3551283252
 30
0.0
 10
7.1684331071
 20
11.3539354519
 30
0.0
 10
7.1761463163
 20
11.353407378
 30
0.0
 10
7.1890506852
 20
11.3597262322
 30
0.0
 10
7.2081062012
 20
11.3604601421
 30
0.0
 10
7.2061172679
 20
11.3527746552
 30
0.0
 10
7.2040755816
 20
11.350460594
 30
0.0
  0
SPLINE
  5
4FC
100
AcDbEntity
  8
0
100
AcDbSpline
 62
7
  6
CONTINUOUS
 70
0
 71
3
 72
8
 73
4
 74
0
 42
0.0000001
 43
0.0000001
 44
0.0000000001
 40
0.0
 40
0.0
 40
0.0
 40
0.0
 40
1.0
 40
1.0
 40
1.0
 40
1.0
 10
7.2096069916
 20
11.373423922
 30
0.0
 10
7.2049473542
 20
11.3747056815
 30
0.0
 10
7.2015720239
 20
11.3752944875
 30
0.0
 10
7.1985302812
 20
11.3753927907
 30
0.0
  0
SPLINE
  5
4FD
100
AcDbEntity
  8
0
100
AcDbSpline
 62
7
  6
CONTINUOUS
 70
0
 71
3
 72
12
 73
8
 74
0
 42
0.0000001
 43
0.0000001
 44
0.0000000001
 40
0.0
 40
0.0
 40
0.0
 40
0.0
 40
0.011331881
 40
0.3827561036
 40
0.649499451
 40
0.7647335316
 40
1.0
 40
1.0
 40
1.0
 40
1.0
 10
7.1985302812
 20
11.3753927907
 30
0.0
 10
7.1983628007
 20
11.3753982033
 30
0.0
 10
7.1927399809
 20
11.3755307979
 30
0.0
 10
7.184849272
 20
11.3729423504
 30
0.0
 10
7.1736096617
 20
11.3682516368
 30
0.0
 10
7.1622959904
 20
11.3704573332
 30
0.0
 10
7.1649756457
 20
11.3773321853
 30
0.0
 10
7.1692601643
 20
11.3810909575
 30
0.0
  0
SPLINE
  5
4FE
100
AcDbEntity
  8
0
100
AcDbSpline
 62
7
  6
CONTINUOUS
 70
0
 71
3
 72
9
 73
5
 74
0
 42
0.0000001
 43
0.0000001
 44
0.0000000001
 40
0.0
 40
0.0
 40
0.0
 40
0.0
 40
0.0142683293
 40
1.0
 40
1.0
 40
1.0
 40
1.0
 10
7.1452841532
 20
11.9538674255
 30
0.0
 10
7.1453502893
 20
11.9539029377
 30
0.0
 10
7.1499707639
 20
11.956412935
 30
0.0
 10
7.1535450595
 20
11.960401648
 30
0.0
 10
7.1560703642
 20
11.9650254717
 30
0.0
  0
SPLINE
  5
4FF
100
AcDbEntity
  8
0
100
AcDbSpline
 62
7
  6
CONTINUOUS
 70
0
 71
3
 72
8
 73
4
 74
0
 42
0.0000001
 43
0.0000001
 44
0.0000000001
 40
0.0
 40
0.0
 40
0.0
 40
0.0
 40
1.0
 40
1.0
 40
1.0
 40
1.0
 10
7.1560703642
 20
11.9650254717
 30
0.0
 10
7.1575196981
 20
11.9676791965
 30
0.0
 10
7.1586403043
 20
11.9705608662
 30
0.0
 10
7.159435689
 20
11.9735296811
 30
0.0
  0
SPLINE
  5
500
100
AcDbEntity
  8
0
100
AcDbSpline
 62
7
  6
CONTINUOUS
 70
0
 71
3
 72
11
 73
7
 74
0
 42
0.0000001
 43
0.0000001
 44
0.0000000001
 40
0.0
 40
0.0
 40
0.0
 40
0.0
 40
0.271807482
 40
0.4996953051
 40
0.7275315791
 40
1.0
 40
1.0
 40
1.0
 40
1.0
 10
7.159435689
 20
11.9735296811
 30
0.0
 10
7.161616944
 20
11.9816713293
 30
0.0
 10
7.1611304259
 20
11.9978439538
 30
0.0
 10
7.1409412954
 20
12.0124155513
 30
0.0
 10
7.1162256935
 20
12.0098517199
 30
0.0
 10
7.1075247411
 20
11.9961636529
 30
0.0
 10
7.1053438838
 20
11.9880237011
 30
0.0
  0
SPLINE
  5
501
100
AcDbEntity
  8
0
100
AcDbSpline
 62
7
  6
CONTINUOUS
 70
0
 71
3
 72
9
 73
5
 74
0
 42
0.0000001
 43
0.0000001
 44
0.0000000001
 40
0.0
 40
0.0
 40
0.0
 40
0.0
 40
0.7173725647
 40
1.0
 40
1.0
 40
1.0
 40
1.0
 10
7.1053438838
 20
11.9880237011
 30
0.0
 10
7.1031629991
 20
11.9798836471
 30
0.0
 10
7.1036883945
 20
11.967581206
 30
0.0
 10
7.1117805162
 20
11.9588464783
 30
0.0
 10
7.1144638245
 20
11.9568083098
 30
0.0
  0
SPLINE
  5
502
100
AcDbEntity
  8
0
100
AcDbSpline
 62
7
  6
CONTINUOUS
 70
0
 71
3
 72
9
 73
5
 74
0
 42
0.0000001
 43
0.0000001
 44
0.0000000001
 40
0.0
 40
0.0
 40
0.0
 40
0.0
 40
0.5809286259
 40
1.0
 40
1.0
 40
1.0
 40
1.0
 10
7.1467820607
 20
11.9769202106
 30
0.0
 10
7.1452646016
 20
11.9712569765
 30
0.0
 10
7.1419839863
 20
11.961687509
 30
0.0
 10
7.1312981151
 20
11.9589769291
 30
0.0
 10
7.127336121
 20
11.9598808002
 30
0.0
  0
SPLINE
  5
503
100
AcDbEntity
  8
0
100
AcDbSpline
 62
7
  6
CONTINUOUS
 70
0
 71
3
 72
9
 73
5
 74
0
 42
0.0000001
 43
0.0000001
 44
0.0000000001
 40
0.0
 40
0.0
 40
0.0
 40
0.0
 40
0.0339425909
 40
1.0
 40
1.0
 40
1.0
 40
1.0
 10
7.127336121
 20
11.9598808002
 30
0.0
 10
7.1271917644
 20
11.9599137331
 30
0.0
 10
7.1229589875
 20
11.9609637636
 30
0.0
 10
7.119397226
 20
11.9643992655
 30
0.0
 10
7.1177007182
 20
11.9681535504
 30
0.0
  0
SPLINE
  5
504
100
AcDbEntity
  8
0
100
AcDbSpline
 62
7
  6
CONTINUOUS
 70
0
 71
3
 72
8
 73
4
 74
0
 42
0.0000001
 43
0.0000001
 44
0.0000000001
 40
0.0
 40
0.0
 40
0.0
 40
0.0
 40
1.0
 40
1.0
 40
1.0
 40
1.0
 10
7.1177007182
 20
11.9681535504
 30
0.0
 10
7.1154215951
 20
11.9731971332
 30
0.0
 10
7.1162885248
 20
11.9790278845
 30
0.0
 10
7.1178042859
 20
11.9846847819
 30
0.0
  0
SPLINE
  5
505
100
AcDbEntity
  8
0
100
AcDbSpline
 62
7
  6
CONTINUOUS
 70
0
 71
3
 72
11
 73
7
 74
0
 42
0.0000001
 43
0.0000001
 44
0.0000000001
 40
0.0
 40
0.0
 40
0.0
 40
0.0
 40
0.2856552383
 40
0.4992298503
 40
0.7128044624
 40
1.0
 40
1.0
 40
1.0
 40
1.0
 10
7.1467820607
 20
11.9769202106
 30
0.0
 10
7.1482995197
 20
11.9825834447
 30
0.0
 10
7.1502728346
 20
11.9926627406
 30
0.0
 10
7.1386045915
 20
12.0037612467
 30
0.0
 10
7.1230969768
 20
11.9999083177
 30
0.0
 10
7.1193206667
 20
11.9903439923
 30
0.0
 10
7.1178042859
 20
11.9846847819
 30
0.0
  0
SPLINE
  5
506
100
AcDbEntity
  8
0
100
AcDbSpline
 62
7
  6
CONTINUOUS
 70
0
 71
3
 72
27
 73
23
 74
0
 42
0.0000001
 43
0.0000001
 44
0.0000000001
 40
0.0
 40
0.0
 40
0.0
 40
0.0
 40
0.0722963492
 40
0.1422514747
 40
0.2089058296
 40
0.2718685827
 40
0.3310939391
 40
0.3869770832
 40
0.4139839437
 40
0.4405436107
 40
0.4668399869
 40
0.4930661587
 40
0.5194222162
 40
0.5461007137
 40
0.5732750473
 40
0.601099932
 40
0.6590842414
 40
0.7207391148
 40
0.786138985
 40
0.854965214
 40
0.9266192393
 40
1.0
 40
1.0
 40
1.0
 40
1.0
 10
4.2853183383
 20
11.940170708
 30
0.0
 10
4.2799478248
 20
11.9397016713
 30
0.0
 10
4.2694250244
 20
11.9381153098
 30
0.0
 10
4.2544149978
 20
11.9337759078
 30
0.0
 10
4.240809976
 20
11.9276045347
 30
0.0
 10
4.2290227045
 20
11.9197774624
 30
0.0
 10
4.2193973748
 20
11.9105155816
 30
0.0
 10
4.2133749796
 20
11.9016836567
 30
0.0
 10
4.209997184
 20
11.8942360512
 30
0.0
 10
4.2081952139
 20
11.8885444401
 30
0.0
 10
4.2071076241
 20
11.8827337799
 30
0.0
 10
4.2067432676
 20
11.8768481667
 30
0.0
 10
4.2071113428
 20
11.8709344543
 30
0.0
 10
4.2082022859
 20
11.8650396039
 30
0.0
 10
4.2100058802
 20
11.8592078194
 30
0.0
 10
4.2133923462
 20
11.8514769771
 30
0.0
 10
4.219414062
 20
11.8421773365
 30
0.0
 10
4.2290125422
 20
11.8321685467
 30
0.0
 10
4.2407740834
 20
11.8234061132
 30
0.0
 10
4.2543582327
 20
11.816142256
 30
0.0
 10
4.2693542429
 20
11.8105901545
 30
0.0
 10
4.2799219743
 20
11.8081401996
 30
0.0
 10
4.2853183383
 20
11.8072346331
 30
0.0
  0
SPLINE
  5
507
100
AcDbEntity
  8
0
100
AcDbSpline
 62
7
  6
CONTINUOUS
 70
0
 71
3
 72
27
 73
23
 74
0
 42
0.0000001
 43
0.0000001
 44
0.0000000001
 40
0.0
 40
0.0
 40
0.0
 40
0.0
 40
0.0733829569
 40
0.1450424829
 40
0.2138717763
 40
0.2792725598
 40
0.3409286795
 40
0.3989131899
 40
0.4267383083
 40
0.4539125344
 40
0.4805909053
 40
0.5069470103
 40
0.5331730398
 40
0.5594693693
 40
0.586029041
 40
0.613035628
 40
0.6689184717
 40
0.7281426261
 40
0.7911045481
 40
0.8577560026
 40
0.927705767
 40
1.0
 40
1.0
 40
1.0
 40
1.0
 10
4.2853183383
 20
11.5186965095
 30
0.0
 10
4.2799218127
 20
11.5177909159
 30
0.0
 10
4.2693535778
 20
11.515340598
 30
0.0
 10
4.2543567747
 20
11.5097883292
 30
0.0
 10
4.2407721452
 20
11.5025238025
 30
0.0
 10
4.2290106098
 20
11.4937607462
 30
0.0
 10
4.2194121317
 20
11.4837516538
 30
0.0
 10
4.2133910969
 20
11.474451429
 30
0.0
 10
4.2100047633
 20
11.4667205134
 30
0.0
 10
4.2082014619
 20
11.4608886189
 30
0.0
 10
4.20711115
 20
11.4549936699
 30
0.0
 10
4.2067432677
 20
11.4490799784
 30
0.0
 10
4.2071078131
 20
11.4431943705
 30
0.0
 10
4.2081960377
 20
11.4373838382
 30
0.0
 10
4.2099983032
 20
11.4316923657
 30
0.0
 10
4.2133762263
 20
11.4242448514
 30
0.0
 10
4.2193993135
 20
11.4154135515
 30
0.0
 10
4.229024641
 20
11.4061519842
 30
0.0
 10
4.2408119165
 20
11.3983255379
 30
0.0
 10
4.2544164433
 20
11.3921547995
 30
0.0
 10
4.2694256941
 20
11.3878154955
 30
0.0
 10
4.2799479819
 20
11.3862294576
 30
0.0
 10
4.2853183383
 20
11.3857604346
 30
0.0
  0
SPLINE
  5
508
100
AcDbEntity
  8
0
100
AcDbSpline
 62
7
  6
CONTINUOUS
 70
0
 71
3
 72
34
 73
30
 74
0
 42
0.0000001
 43
0.0000001
 44
0.0000000001
 40
0.0
 40
0.0
 40
0.0
 40
0.0
 40
0.2248380444
 40
0.3279815314
 40
0.4245231055
 40
0.5141832161
 40
0.5967703809
 40
0.6721011025
 40
0.7399899273
 40
0.8002757669
 40
0.8528385861
 40
0.8975492364
 40
0.9169176486
 40
0.934274043
 40
0.9496082493
 40
0.9629185803
 40
0.9742030853
 40
0.9834573687
 40
0.9873211849
 40
0.9906746911
 40
0.9935166581
 40
0.9958457073
 40
0.9976603123
 40
0.9983741829
 40
0.998958803
 40
0.9994139404
 40
0.9997393539
 40
0.9999347935
 40
1.0
 40
1.0
 40
1.0
 40
1.0
 10
6.4473183366
 20
11.5392218784
 30
0.0
 10
6.447318338
 20
11.5353796199
 30
0.0
 10
6.4472564779
 20
11.5297748641
 30
0.0
 10
6.4471633146
 20
11.5225208412
 30
0.0
 10
6.4471275352
 20
11.5175762417
 30
0.0
 10
6.4471572532
 20
11.512982886
 30
0.0
 10
6.4472210095
 20
11.5087524883
 30
0.0
 10
6.4472861284
 20
11.5048942489
 30
0.0
 10
6.4473214815
 20
11.5014165946
 30
0.0
 10
6.447292678
 20
11.4983279221
 30
0.0
 10
6.4472298507
 20
11.4956360952
 30
0.0
 10
6.4471730684
 20
11.4936436025
 30
0.0
 10
6.4471443003
 20
11.4922522387
 30
0.0
 10
6.4471356887
 20
11.4913626065
 30
0.0
 10
6.4471433061
 20
11.4905764783
 30
0.0
 10
6.4471635149
 20
11.4898943855
 30
0.0
 10
6.4471920183
 20
11.4893166039
 30
0.0
 10
6.4472207042
 20
11.4889005467
 30
0.0
 10
6.4472444087
 20
11.4886200575
 30
0.0
 10
6.4472605614
 20
11.4884489159
 30
0.0
 10
6.4472756414
 20
11.4883040093
 30
0.0
 10
6.4472891821
 20
11.4881854315
 30
0.0
 10
6.4472992966
 20
11.4881029682
 30
0.0
 10
6.4473063311
 20
11.4880503416
 30
0.0
 10
6.4473101633
 20
11.4880203969
 30
0.0
 10
6.4473139793
 20
11.487997946
 30
0.0
 10
6.4473151292
 20
11.4879799705
 30
0.0
 10
6.4473188298
 20
11.4879726505
 30
0.0
 10
6.4473172222
 20
11.4879655722
 30
0.0
 10
6.4473183365
 20
11.4879655713
 30
0.0
  0
SPLINE
  5
509
100
AcDbEntity
  8
0
100
AcDbSpline
 62
7
  6
CONTINUOUS
 70
0
 71
3
 72
15
 73
11
 74
0
 42
0.0000001
 43
0.0000001
 44
0.0000000001
 40
0.0
 40
0.0
 40
0.0
 40
0.0
 40
0.1385443828
 40
0.2758949989
 40
0.4105409132
 40
0.5411947401
 40
0.6666361109
 40
0.7856967531
 40
0.8972148805
 40
1.0
 40
1.0
 40
1.0
 40
1.0
 10
6.4473183364
 20
11.6629655713
 30
0.0
 10
6.4473183364
 20
11.657250813
 30
0.0
 10
6.4472296668
 20
11.6458708027
 30
0.0
 10
6.4470946909
 20
11.6289367797
 30
0.0
 10
6.4472212627
 20
11.6123282471
 30
0.0
 10
6.4473537747
 20
11.5962109646
 30
0.0
 10
6.4472293242
 20
11.5807365591
 30
0.0
 10
6.4470946869
 20
11.566051492
 30
0.0
 10
6.4472211451
 20
11.5523009352
 30
0.0
 10
6.447318335
 20
11.543461618
 30
0.0
 10
6.4473183366
 20
11.5392218784
 30
0.0
  0
SPLINE
  5
50A
100
AcDbEntity
  8
0
100
AcDbSpline
 62
7
  6
CONTINUOUS
 70
0
 71
3
 72
15
 73
11
 74
0
 42
0.0000001
 43
0.0000001
 44
0.0000000001
 40
0.0
 40
0.0
 40
0.0
 40
0.0
 40
0.10278513
 40
0.2143032679
 40
0.333363914
 40
0.458805283
 40
0.5894591051
 40
0.7241050131
 40
0.8614556225
 40
1.0
 40
1.0
 40
1.0
 40
1.0
 10
6.4473183365
 20
11.7867092489
 30
0.0
 10
6.4473183389
 20
11.7824695093
 30
0.0
 10
6.4472211527
 20
11.7736301923
 30
0.0
 10
6.4470946888
 20
11.7598796362
 30
0.0
 10
6.4472293212
 20
11.7451945704
 30
0.0
 10
6.4473537756
 20
11.729720167
 30
0.0
 10
6.4472212652
 20
11.713602887
 30
0.0
 10
6.44709469
 20
11.6969943572
 30
0.0
 10
6.4472296658
 20
11.6800603371
 30
0.0
 10
6.4473183365
 20
11.6686803286
 30
0.0
 10
6.4473183364
 20
11.6629655713
 30
0.0
  0
SPLINE
  5
50B
100
AcDbEntity
  8
0
100
AcDbSpline
 62
7
  6
CONTINUOUS
 70
0
 71
3
 72
34
 73
30
 74
0
 42
0.0000001
 43
0.0000001
 44
0.0000000001
 40
0.0
 40
0.0
 40
0.0
 40
0.0
 40
0.0000652056
 40
0.0002606448
 40
0.0005860582
 40
0.0010411957
 40
0.0016258162
 40
0.0023396875
 40
0.0041542949
 40
0.0064833476
 40
0.009325319
 40
0.0126788305
 40
0.0165426529
 40
0.0257969505
 40
0.0370814717
 40
0.0503918199
 40
0.0657260434
 40
0.0830824553
 40
0.1024508867
 40
0.1238161878
 40
0.1471615913
 40
0.199724463
 40
0.2600103606
 40
0.3278992484
 40
0.4032300387
 40
0.4858172745
 40
0.5754774536
 40
0.7751617845
 40
1.0
 40
1.0
 40
1.0
 40
1.0
 10
6.4473183365
 20
11.8379655713
 30
0.0
 10
6.4473194318
 20
11.8379653663
 30
0.0
 10
6.4473156636
 20
11.8379587844
 30
0.0
 10
6.4473171533
 20
11.8379509852
 30
0.0
 10
6.4473130481
 20
11.8379332825
 30
0.0
 10
6.4473105379
 20
11.8379107111
 30
0.0
 10
6.4473062013
 20
11.8378808129
 30
0.0
 10
6.4472994081
 20
11.8378281639
 30
0.0
 10
6.4472891372
 20
11.837745715
 30
0.0
 10
6.447275666
 20
11.8376271306
 30
0.0
 10
6.4472605619
 20
11.8374822262
 30
0.0
 10
6.4472444182
 20
11.8373110836
 30
0.0
 10
6.4472207105
 20
11.8370305944
 30
0.0
 10
6.4471920268
 20
11.8366145366
 30
0.0
 10
6.4471635215
 20
11.8360367546
 30
0.0
 10
6.4471433122
 20
11.8353546614
 30
0.0
 10
6.4471356878
 20
11.8345685328
 30
0.0
 10
6.4471443147
 20
11.8336789004
 30
0.0
 10
6.4471647542
 20
11.8326864019
 30
0.0
 10
6.4471931731
 20
11.8315917204
 30
0.0
 10
6.4472381763
 20
11.8299300242
 30
0.0
 10
6.4472927502
 20
11.8276032151
 30
0.0
 10
6.4473214584
 20
11.8245145402
 30
0.0
 10
6.4472861342
 20
11.8210368854
 30
0.0
 10
6.4472210368
 20
11.8171786428
 30
0.0
 10
6.4471571464
 20
11.812948252
 30
0.0
 10
6.4471168044
 20
11.8065922357
 30
0.0
 10
6.4472399326
 20
11.7978058755
 30
0.0
 10
6.4473183344
 20
11.7905515081
 30
0.0
 10
6.4473183365
 20
11.7867092489
 30
0.0
  0
SPLINE
  5
50C
100
AcDbEntity
  8
0
100
AcDbSpline
 62
7
  6
CONTINUOUS
 70
0
 71
3
 72
23
 73
19
 74
0
 42
0.0000001
 43
0.0000001
 44
0.0000000001
 40
0.0
 40
0.0
 40
0.0
 40
0.0
 40
0.0622255147
 40
0.1244614472
 40
0.1867183483
 40
0.2490049704
 40
0.3113305098
 40
0.3737007836
 40
0.4361215083
 40
0.4985932532
 40
0.5611194535
 40
0.6237002513
 40
0.6863326461
 40
0.7490026971
 40
0.8117088319
 40
0.8744676893
 40
0.9372665789
 40
1.0
 40
1.0
 40
1.0
 40
1.0
 10
10.2658241366
 20
2.6513631888
 30
0.0
 10
10.2658241005
 20
2.6260224915
 30
0.0
 10
10.2683298295
 20
2.5753003952
 30
0.0
 10
10.2796134002
 20
2.4999835543
 30
0.0
 10
10.2982705085
 20
2.4261134896
 30
0.0
 10
10.3241603378
 20
2.3544207577
 30
0.0
 10
10.3569994879
 20
2.2855820463
 30
0.0
 10
10.396499605
 20
2.2202732458
 30
0.0
 10
10.442258021
 20
2.1591123406
 30
0.0
 10
10.4938467018
 20
2.1026959365
 30
0.0
 10
10.5507634163
 20
2.0515631098
 30
0.0
 10
10.6124632367
 20
2.0062062654
 30
0.0
 10
10.6783513364
 20
1.967069267
 30
0.0
 10
10.7477818735
 20
1.9345086106
 30
0.0
 10
10.8201061682
 20
1.908861133
 30
0.0
 10
10.8946346374
 20
1.890354239
 30
0.0
 10
10.9706152416
 20
1.8792023766
 30
0.0
 10
11.0217708013
 20
1.8766981495
 30
0.0
 10
11.0473183383
 20
1.8766981495
 30
0.0
  0
SPLINE
  5
50D
100
AcDbEntity
  8
0
100
AcDbSpline
 62
7
  6
CONTINUOUS
 70
0
 71
3
 72
22
 73
18
 74
0
 42
0.0000001
 43
0.0000001
 44
0.0000000001
 40
0.0
 40
0.0
 40
0.0
 40
0.0
 40
0.1254015586
 40
0.1881681265
 40
0.2508824229
 40
0.313561124
 40
0.3762021132
 40
0.4387916176
 40
0.5013268981
 40
0.5638081969
 40
0.6262388734
 40
0.6886192984
 40
0.7509551874
 40
0.813252069
 40
0.8755190959
 40
0.9377648745
 40
1.0
 40
1.0
 40
1.0
 40
1.0
 10
11.0473183383
 20
1.8766981495
 30
0.0
 10
11.0983792753
 20
1.8766981495
 30
0.0
 10
11.1752713978
 20
1.8842071232
 30
0.0
 10
11.2745184328
 20
1.9088591591
 30
0.0
 10
11.3468528601
 20
1.9345069578
 30
0.0
 10
11.4162795854
 20
1.967066626
 30
0.0
 10
11.4821686123
 20
2.0062020964
 30
0.0
 10
11.5438675205
 20
2.0515588871
 30
0.0
 10
11.6007853514
 20
2.1026903053
 30
0.0
 10
11.6523739298
 20
2.1591072721
 30
0.0
 10
11.6981341712
 20
2.220267805
 30
0.0
 10
11.7376345872
 20
2.285577777
 30
0.0
 10
11.7704751724
 20
2.3544171897
 30
0.0
 10
11.7963653541
 20
2.4261111623
 30
0.0
 10
11.8150231018
 20
2.4999821511
 30
0.0
 10
11.8263068001
 20
2.5752998034
 30
0.0
 10
11.8288125039
 20
2.6260223218
 30
0.0
 10
11.82881254
 20
2.6513631856
 30
0.0
  0
SPLINE
  5
50E
100
AcDbEntity
  8
0
100
AcDbSpline
 62
9
  6
CONTINUOUS
 70
0
 71
3
 72
17
 73
13
 74
0
 42
0.0000001
 43
0.0000001
 44
0.0000000001
 40
0.0
 40
0.0
 40
0.0
 40
0.0
 40
0.0605740752
 40
0.1213124095
 40
0.2437807942
 40
0.3677662971
 40
0.4929011623
 40
0.6187926596
 40
0.7453476715
 40
0.8089071302
 40
0.8725858901
 40
1.0
 40
1.0
 40
1.0
 40
1.0
 10
12.1804168504
 20
11.0685938091
 30
0.0
 10
12.1674441165
 20
11.0438632069
 30
0.0
 10
12.1397340585
 20
10.9952169756
 30
0.0
 10
12.0773812847
 20
10.9016219498
 30
0.0
 10
11.9865927625
 20
10.7922720854
 30
0.0
 10
11.8597753
 20
10.6763414344
 30
0.0
 10
11.7173198819
 20
10.5774471515
 30
0.0
 10
11.5618348175
 20
10.4980376344
 30
0.0
 10
11.4239376709
 20
10.4495656645
 30
0.0
 10
11.3101006069
 20
10.422166097
 30
0.0
 10
11.1943077978
 20
10.4024173005
 30
0.0
 10
11.1060604284
 20
10.3963854781
 30
0.0
 10
11.0473184377
 20
10.3963792973
 30
0.0
  0
SPLINE
  5
50F
100
AcDbEntity
  8
0
100
AcDbSpline
 62
7
  6
CONTINUOUS
 70
0
 71
3
 72
23
 73
19
 74
0
 42
0.0000001
 43
0.0000001
 44
0.0000000001
 40
0.0
 40
0.0
 40
0.0
 40
0.0
 40
0.062224075
 40
0.1244598424
 40
0.1867171642
 40
0.2490049998
 40
0.3113319546
 40
0.3737039025
 40
0.4361260578
 40
0.4985990143
 40
0.5611261471
 40
0.6237074932
 40
0.6863396828
 40
0.7490087771
 40
0.811714023
 40
0.874471981
 40
0.9372689232
 40
1.0
 40
1.0
 40
1.0
 40
1.0
 10
11.8287649321
 20
2.6513816142
 30
0.0
 10
11.8284849902
 20
2.6262203847
 30
0.0
 10
11.8254524082
 20
2.5758850436
 30
0.0
 10
11.8134933517
 20
2.5012144342
 30
0.0
 10
11.7942796789
 20
2.4280394211
 30
0.0
 10
11.7679521232
 20
2.3570755153
 30
0.0
 10
11.7347995118
 20
2.288980324
 30
0.0
 10
11.6951029871
 20
2.2244167928
 30
0.0
 10
11.6492679555
 20
2.1639827965
 30
0.0
 10
11.5977109375
 20
2.1082645033
 30
0.0
 10
11.5409321013
 20
2.0577818473
 30
0.0
 10
11.4794630697
 20
2.0130190896
 30
0.0
 10
11.4138919266
 20
1.9744035431
 30
0.0
 10
11.3448496659
 20
1.942285574
 30
0.0
 10
11.2729733493
 20
1.9169905885
 30
0.0
 10
11.1989380459
 20
1.898741266
 30
0.0
 10
11.1234815343
 20
1.8877451866
 30
0.0
 10
11.0726861515
 20
1.8852760354
 30
0.0
 10
11.0473183383
 20
1.8852760354
 30
0.0
  0
SPLINE
  5
510
100
AcDbEntity
  8
0
100
AcDbSpline
 62
9
  6
CONTINUOUS
 70
0
 71
3
 72
11
 73
7
 74
0
 42
0.0000001
 43
0.0000001
 44
0.0000000001
 40
0.0
 40
0.0
 40
0.0
 40
0.0
 40
0.2308027489
 40
0.4702336578
 40
0.7247201086
 40
1.0
 40
1.0
 40
1.0
 40
1.0
 10
11.7523963024
 20
2.7926957893
 30
0.0
 10
11.7524916003
 20
2.7891702485
 30
0.0
 10
11.7519720877
 20
2.7819498792
 30
0.0
 10
11.7490702992
 20
2.7711997939
 30
0.0
 10
11.7440310326
 20
2.7605208039
 30
0.0
 10
11.7394434437
 20
2.7538091909
 30
0.0
 10
11.7368449697
 20
2.750501272
 30
0.0
  0
SPLINE
  5
511
100
AcDbEntity
  8
0
100
AcDbSpline
 62
7
  6
CONTINUOUS
 70
0
 71
3
 72
11
 73
7
 74
0
 42
0.0000001
 43
0.0000001
 44
0.0000000001
 40
0.0
 40
0.0
 40
0.0
 40
0.0
 40
0.2480281678
 40
0.496931204
 40
0.7475141785
 40
1.0
 40
1.0
 40
1.0
 40
1.0
 10
9.8107842569
 20
11.3340679118
 30
0.0
 10
9.8179665384
 20
11.307065138
 30
0.0
 10
9.8311787516
 20
11.2526433202
 30
0.0
 10
9.8474909147
 20
11.1700017461
 30
0.0
 10
9.8603701524
 20
11.0862490427
 30
0.0
 10
9.8667135205
 20
11.029914937
 30
0.0
 10
9.8693653833
 20
11.0015950132
 30
0.0
  0
SPLINE
  5
512
100
AcDbEntity
  8
0
100
AcDbSpline
 62
9
  6
CONTINUOUS
 70
0
 71
3
 72
17
 73
13
 74
0
 42
0.0000001
 43
0.0000001
 44
0.0000000001
 40
0.0
 40
0.0
 40
0.0
 40
0.0
 40
0.0316743457
 40
0.0650438646
 40
0.1012188502
 40
0.1410690039
 40
0.2340868632
 40
0.3476446595
 40
0.4830738469
 40
0.6388037226
 40
0.8121227093
 40
1.0
 40
1.0
 40
1.0
 40
1.0
 10
9.9142333623
 20
11.0685672996
 30
0.0
 10
9.9146486412
 20
11.067776151
 30
0.0
 10
9.9153198803
 20
11.0660502328
 30
0.0
 10
9.9157834523
 20
11.0632154109
 30
0.0
 10
9.9157246634
 20
11.0601155007
 30
0.0
 10
9.9149084591
 20
11.0554022477
 30
0.0
 10
9.912398646
 20
11.048856543
 30
0.0
 10
9.9074679312
 20
11.0405329041
 30
0.0
 10
9.9004878744
 20
11.0314718144
 30
0.0
 10
9.8916457907
 20
11.0217884733
 30
0.0
 10
9.8811403405
 20
11.0116638424
 30
0.0
 10
9.8734427165
 20
11.004981197
 30
0.0
 10
9.8693653321
 20
11.0015953281
 30
0.0
  0
SPLINE
  5
513
100
AcDbEntity
  8
0
100
AcDbSpline
 62
9
  6
CONTINUOUS
 70
0
 71
3
 72
11
 73
7
 74
0
 42
0.0000001
 43
0.0000001
 44
0.0000000001
 40
0.0
 40
0.0
 40
0.0
 40
0.0
 40
0.2391204274
 40
0.4816503892
 40
0.7335076706
 40
1.0
 40
1.0
 40
1.0
 40
1.0
 10
10.2250342014
 20
4.6588719531
 30
0.0
 10
10.2243027874
 20
4.6686789199
 30
0.0
 10
10.2244828116
 20
4.6885965933
 30
0.0
 10
10.2298104599
 20
4.7184212514
 30
0.0
 10
10.240155964
 20
4.7480793274
 30
0.0
 10
10.2500399772
 20
4.7670534106
 30
0.0
 10
10.2556920531
 20
4.7764435012
 30
0.0
  0
SPLINE
  5
514
100
AcDbEntity
  8
0
100
AcDbSpline
 62
9
  6
CONTINUOUS
 70
0
 71
3
 72
11
 73
7
 74
0
 42
0.0000001
 43
0.0000001
 44
0.0000000001
 40
0.0
 40
0.0
 40
0.0
 40
0.0
 40
0.2391205205
 40
0.481650428
 40
0.7335076387
 40
1.0
 40
1.0
 40
1.0
 40
1.0
 10
11.8696023875
 20
4.6588707771
 30
0.0
 10
11.8703338737
 20
4.6686778362
 30
0.0
 10
11.8701539653
 20
4.6885957042
 30
0.0
 10
11.8648263869
 20
4.7184206698
 30
0.0
 10
11.8544808501
 20
4.74807905
 30
0.0
 10
11.844596754
 20
4.7670533198
 30
0.0
 10
11.8389446236
 20
4.776443501
 30
0.0
  0
SPLINE
  5
515
100
AcDbEntity
  8
0
100
AcDbSpline
 62
9
  6
CONTINUOUS
 70
0
 71
3
 72
17
 73
13
 74
0
 42
0.0000001
 43
0.0000001
 44
0.0000000001
 40
0.0
 40
0.0
 40
0.0
 40
0.0
 40
0.0510807476
 40
0.0822479744
 40
0.1181272721
 40
0.159185547
 40
0.2057330006
 40
0.3160438127
 40
0.4501671432
 40
0.6086665031
 40
0.7918743325
 40
1.0
 40
1.0
 40
1.0
 40
1.0
 10
12.2086490146
 20
9.9829256771
 30
0.0
 10
12.2086838404
 20
9.9839021655
 30
0.0
 10
12.2082587552
 20
9.9854882832
 30
0.0
 10
12.2071574357
 20
9.9874583633
 30
0.0
 10
12.2059220736
 20
9.989125514
 30
0.0
 10
12.2043315375
 20
9.9908747666
 30
0.0
 10
12.2015737365
 20
9.9934732003
 30
0.0
 10
12.1971703935
 20
9.9968953939
 30
0.0
 10
12.1907277985
 20
10.0011343465
 30
0.0
 10
12.1828455837
 20
10.0056941877
 30
0.0
 10
12.1735192531
 20
10.0105613015
 30
0.0
 10
12.1667662317
 20
10.0137945564
 30
0.0
 10
12.1631529516
 20
10.0154660761
 30
0.0
  0
SPLINE
  5
516
100
AcDbEntity
  8
0
100
AcDbSpline
 62
9
  6
CONTINUOUS
 70
0
 71
3
 72
18
 73
14
 74
0
 42
0.0000001
 43
0.0000001
 44
0.0000000001
 40
0.0
 40
0.0
 40
0.0
 40
0.0
 40
0.0267612499
 40
0.0561427565
 40
0.0891273628
 40
0.1264127012
 40
0.168481841
 40
0.2156701902
 40
0.3262448699
 40
0.459412203
 40
0.6158464385
 40
0.7959551604
 40
1.0
 40
1.0
 40
1.0
 40
1.0
 10
12.199790734
 20
9.7515762354
 30
0.0
 10
12.1998147812
 20
9.7521644207
 30
0.0
 10
12.1997117649
 20
9.7534074601
 30
0.0
 10
12.1991501009
 20
9.7552965651
 30
0.0
 10
12.1981868213
 20
9.7572744008
 30
0.0
 10
12.1968250107
 20
9.7593427097
 30
0.0
 10
12.1950650608
 20
9.7615041799
 30
0.0
 10
12.1920211081
 20
9.7646806153
 30
0.0
 10
12.1871414849
 20
9.7688433838
 30
0.0
 10
12.179975558
 20
9.7739666149
 30
0.0
 10
12.1712043606
 20
9.7794383056
 30
0.0
 10
12.160822504
 20
9.7852436597
 30
0.0
 10
12.1532937921
 20
9.7890855666
 30
0.0
 10
12.1492663834
 20
9.7910670143
 30
0.0
  0
SPLINE
  5
517
100
AcDbEntity
  8
0
100
AcDbSpline
 62
9
  6
CONTINUOUS
 70
0
 71
3
 72
11
 73
7
 74
0
 42
0.0000001
 43
0.0000001
 44
0.0000000001
 40
0.0
 40
0.0
 40
0.0
 40
0.0
 40
0.2539224373
 40
0.5062656679
 40
0.755474872
 40
1.0
 40
1.0
 40
1.0
 40
1.0
 10
11.0473183383
 20
4.8114035292
 30
0.0
 10
10.9802279777
 20
4.8114035292
 30
0.0
 10
10.8464599445
 20
4.8099315348
 30
0.0
 10
10.6469440284
 20
4.8033587909
 30
0.0
 10
10.450102645
 20
4.7924832671
 30
0.0
 10
10.3200347424
 20
4.7822866362
 30
0.0
 10
10.2556920127
 20
4.7764441516
 30
0.0
  0
SPLINE
  5
518
100
AcDbEntity
  8
0
100
AcDbSpline
 62
9
  6
CONTINUOUS
 70
0
 71
3
 72
11
 73
7
 74
0
 42
0.0000001
 43
0.0000001
 44
0.0000000001
 40
0.0
 40
0.0
 40
0.0
 40
0.0
 40
0.244525128
 40
0.4937343321
 40
0.7460775627
 40
1.0
 40
1.0
 40
1.0
 40
1.0
 10
11.8389446639
 20
4.7764441516
 30
0.0
 10
11.7746019342
 20
4.7822866362
 30
0.0
 10
11.6445340316
 20
4.7924832671
 30
0.0
 10
11.4476926481
 20
4.8033587909
 30
0.0
 10
11.248176732
 20
4.8099315348
 30
0.0
 10
11.1144086988
 20
4.8114035292
 30
0.0
 10
11.0473183383
 20
4.8114035292
 30
0.0
  0
SPLINE
  5
519
100
AcDbEntity
  8
0
100
AcDbSpline
 62
9
  6
CONTINUOUS
 70
0
 71
3
 72
18
 73
14
 74
0
 42
0.0000001
 43
0.0000001
 44
0.0000000001
 40
0.0
 40
0.0
 40
0.0
 40
0.0
 40
0.0267612634
 40
0.0561427947
 40
0.0891274307
 40
0.1264127995
 40
0.1684819673
 40
0.2156703401
 40
0.3262450496
 40
0.4594123846
 40
0.6158465916
 40
0.7959552533
 40
1.0
 40
1.0
 40
1.0
 40
1.0
 10
9.8948459417
 20
9.7515762589
 30
0.0
 10
9.8948218963
 20
9.7521644445
 30
0.0
 10
9.8949249164
 20
9.7534074838
 30
0.0
 10
9.8954865849
 20
9.7552965882
 30
0.0
 10
9.8964498683
 20
9.7572744233
 30
0.0
 10
9.8978116819
 20
9.7593427314
 30
0.0
 10
9.8995716343
 20
9.7615042007
 30
0.0
 10
9.9026155891
 20
9.7646806342
 30
0.0
 10
9.9074952131
 20
9.7688434001
 30
0.0
 10
9.9146611385
 20
9.773966628
 30
0.0
 10
9.9234323318
 20
9.7794383147
 30
0.0
 10
9.9338141815
 20
9.7852436643
 30
0.0
 10
9.9413428878
 20
9.7890855682
 30
0.0
 10
9.9453702932
 20
9.7910670143
 30
0.0
  0
SPLINE
  5
51A
100
AcDbEntity
  8
0
100
AcDbSpline
 62
9
  6
CONTINUOUS
 70
0
 71
3
 72
17
 73
13
 74
0
 42
0.0000001
 43
0.0000001
 44
0.0000000001
 40
0.0
 40
0.0
 40
0.0
 40
0.0
 40
0.0510812552
 40
0.0822488417
 40
0.1181284969
 40
0.1591870939
 40
0.205734814
 40
0.3160459484
 40
0.4501692771
 40
0.6086682874
 40
0.7918754076
 40
1.0
 40
1.0
 40
1.0
 40
1.0
 10
9.8859876551
 20
9.9829258703
 30
0.0
 10
9.8859528673
 20
9.9839023665
 30
0.0
 10
9.8863780027
 20
9.9854884777
 30
0.0
 10
9.8874793647
 20
9.9874585521
 30
0.0
 10
9.8887147556
 20
9.9891256971
 30
0.0
 10
9.890305314
 20
9.9908749429
 30
0.0
 10
9.8930631351
 20
9.9934733622
 30
0.0
 10
9.8974664844
 20
9.9968955349
 30
0.0
 10
9.9039090658
 20
10.00113446
 30
0.0
 10
9.9117912415
 20
10.0056942676
 30
0.0
 10
9.9211175071
 20
10.0105613418
 30
0.0
 10
9.9278704755
 20
10.0137945705
 30
0.0
 10
9.9314837249
 20
10.0154660759
 30
0.0
  0
SPLINE
  5
51B
100
AcDbEntity
  8
0
100
AcDbSpline
 62
9
  6
CONTINUOUS
 70
0
 71
3
 72
21
 73
17
 74
0
 42
0.0000001
 43
0.0000001
 44
0.0000000001
 40
0.0
 40
0.0
 40
0.0
 40
0.0
 40
0.0005781313
 40
0.003042481
 40
0.0074242324
 40
0.0137296555
 40
0.0321308998
 40
0.0582829899
 40
0.0922214525
 40
0.1339819748
 40
0.1836006253
 40
0.2411139218
 40
0.3800569245
 40
0.5518716906
 40
0.7580042642
 40
1.0
 40
1.0
 40
1.0
 40
1.0
 10
9.8623400781
 20
10.9084184585
 30
0.0
 10
9.8623400083
 20
10.9084130551
 30
0.0
 10
9.8623767763
 20
10.9084561985
 30
0.0
 10
9.8623923085
 20
10.908490425
 30
0.0
 10
9.8624708103
 20
10.9086097913
 30
0.0
 10
9.8626012037
 20
10.908833883
 30
0.0
 10
9.8628454157
 20
10.9092529149
 30
0.0
 10
9.8632021511
 20
10.9098886454
 30
0.0
 10
9.8636638635
 20
10.9107233364
 30
0.0
 10
9.8642228145
 20
10.9117519736
 30
0.0
 10
9.8648800372
 20
10.9129790072
 30
0.0
 10
9.8659539352
 20
10.9150129072
 30
0.0
 10
9.86753587
 20
10.9180703591
 30
0.0
 10
9.8696764303
 20
10.9224021306
 30
0.0
 10
9.8721219702
 20
10.9276561175
 30
0.0
 10
9.8737923339
 20
10.9314979914
 30
0.0
 10
9.8746685966
 20
10.933583335
 30
0.0
  0
SPLINE
  5
51C
100
AcDbEntity
  8
0
100
AcDbSpline
 62
9
  6
CONTINUOUS
 70
0
 71
3
 72
17
 73
13
 74
0
 42
0.0000001
 43
0.0000001
 44
0.0000000001
 40
0.0
 40
0.0
 40
0.0
 40
0.0
 40
0.1274147821
 40
0.1910931542
 40
0.2546521569
 40
0.3812069794
 40
0.5070989788
 40
0.6322343159
 40
0.7562195726
 40
0.8786867258
 40
0.9394247259
 40
1.0
 40
1.0
 40
1.0
 40
1.0
 10
11.0473184375
 20
10.3963799644
 30
0.0
 10
10.9885757091
 20
10.3963871959
 30
0.0
 10
10.9003276749
 20
10.4024189814
 30
0.0
 10
10.7845339464
 20
10.4221670786
 30
0.0
 10
10.6706963395
 20
10.4495660231
 30
0.0
 10
10.5327982696
 20
10.4980385505
 30
0.0
 10
10.3773121749
 20
10.5774496704
 30
0.0
 10
10.2348560512
 20
10.676345735
 30
0.0
 10
10.1080385389
 20
10.7922774752
 30
0.0
 10
10.0172502876
 20
10.9016278299
 30
0.0
 10
9.9548977359
 20
10.9952237942
 30
0.0
 10
9.9271877286
 20
11.0438709851
 30
0.0
 10
9.9142148456
 20
11.0686023629
 30
0.0
  0
SPLINE
  5
51D
100
AcDbEntity
  8
0
100
AcDbSpline
 62
9
  6
CONTINUOUS
 70
0
 71
3
 72
25
 73
21
 74
0
 42
0.0000001
 43
0.0000001
 44
0.0000000001
 40
0.0
 40
0.0
 40
0.0
 40
0.0
 40
0.2277837686
 40
0.4300048491
 40
0.604535755
 40
0.7492470873
 40
0.8620087323
 40
0.9057906154
 40
0.9411059833
 40
0.955611776
 40
0.968028778
 40
0.9783667399
 40
0.9866360622
 40
0.9928486634
 40
0.9951886866
 40
0.9970216977
 40
0.9983532216
 40
0.9991966701
 40
0.9996112862
 40
1.0
 40
1.0
 40
1.0
 40
1.0
 10
12.2199642206
 20
10.9335147766
 30
0.0
 10
12.2208552368
 20
10.9315683384
 30
0.0
 10
12.2225487019
 20
10.9278991114
 30
0.0
 10
12.2249634747
 20
10.9227564361
 30
0.0
 10
12.2270768175
 20
10.9183348278
 30
0.0
 10
12.2288556408
 20
10.9146853053
 30
0.0
 10
12.2301189945
 20
10.9121515676
 30
0.0
 10
12.2309414714
 20
10.9105470005
 30
0.0
 10
12.2313498638
 20
10.9097678497
 30
0.0
 10
12.2316267532
 20
10.9092526302
 30
0.0
 10
12.2317951283
 20
10.9089455823
 30
0.0
 10
12.2319380696
 20
10.9086914752
 30
0.0
 10
12.2320557023
 20
10.908489981
 30
0.0
 10
12.2321383236
 20
10.9083553082
 30
0.0
 10
12.2321926738
 20
10.9082739843
 30
0.0
 10
12.2322223583
 20
10.9082320808
 30
0.0
 10
12.2322472104
 20
10.9082024501
 30
0.0
 10
12.2322623346
 20
10.9081858679
 30
0.0
 10
12.232279991
 20
10.9081770627
 30
0.0
 10
12.232283409
 20
10.9081868375
 30
0.0
 10
12.2322837946
 20
10.9081904702
 30
0.0
  0
SPLINE
  5
51E
100
AcDbEntity
  8
0
100
AcDbSpline
 62
9
  6
CONTINUOUS
 70
0
 71
3
 72
28
 73
24
 74
0
 42
0.0000001
 43
0.0000001
 44
0.0000000001
 40
0.0
 40
0.0
 40
0.0
 40
0.0
 40
0.0624087314
 40
0.0935206016
 40
0.1245686024
 40
0.1555612007
 40
0.186514572
 40
0.217454397
 40
0.2484030052
 40
0.2793735551
 40
0.3103749702
 40
0.3724893433
 40
0.4347960427
 40
0.4972815269
 40
0.5599098458
 40
0.622625814
 40
0.685405381
 40
0.7482335583
 40
0.8111397064
 40
0.8426252785
 40
0.8741202834
 40
0.9370898804
 40
1.0
 40
1.0
 40
1.0
 40
1.0
 10
9.8708379538
 20
10.9852394854
 30
0.0
 10
9.8801301924
 20
10.9556506276
 30
0.0
 10
9.8957735734
 20
10.9118137705
 30
0.0
 10
9.9203726099
 20
10.8549900665
 30
0.0
 10
9.9407320389
 20
10.8133951874
 30
0.0
 10
9.9630625375
 20
10.7729141372
 30
0.0
 10
9.9874024758
 20
10.7336688501
 30
0.0
 10
10.0138014884
 20
10.6958031614
 30
0.0
 10
10.0421960057
 20
10.6594005135
 30
0.0
 10
10.0724780192
 20
10.624511461
 30
0.0
 10
10.1152666233
 20
10.580076765
 30
0.0
 10
10.1729872087
 20
10.5285571455
 30
0.0
 10
10.247776416
 20
10.4732819289
 30
0.0
 10
10.3271828895
 20
10.4244108411
 30
0.0
 10
10.4102982372
 20
10.381745348
 30
0.0
 10
10.4963933078
 20
10.3451148609
 30
0.0
 10
10.5848839113
 20
10.3144399386
 30
0.0
 10
10.6752658928
 20
10.2895660833
 30
0.0
 10
10.7517726335
 20
10.2734835149
 30
0.0
 10
10.8134984379
 20
10.2632656887
 30
0.0
 10
10.87552734
 20
10.2548425452
 30
0.0
 10
10.9534688369
 20
10.2478201989
 30
0.0
 10
11.0160566175
 20
10.2462030778
 30
0.0
 10
11.0473183383
 20
10.2464637205
 30
0.0
  0
SPLINE
  5
51F
100
AcDbEntity
  8
0
100
AcDbSpline
 62
7
  6
CONTINUOUS
 70
0
 71
3
 72
22
 73
18
 74
0
 42
0.0000001
 43
0.0000001
 44
0.0000000001
 40
0.0
 40
0.0
 40
0.0
 40
0.0
 40
0.1253991048
 40
0.1881646397
 40
0.2508779049
 40
0.3135555144
 40
0.376196173
 40
0.4387860802
 40
0.5013221464
 40
0.5638044927
 40
0.6262364577
 40
0.6886184069
 40
0.7509555816
 40
0.8132535573
 40
0.8755208987
 40
0.9377664117
 40
1.0
 40
1.0
 40
1.0
 40
1.0
 10
11.0473183383
 20
1.8852760354
 30
0.0
 10
10.9966155708
 20
1.8852760354
 30
0.0
 10
10.9202665821
 20
1.8926795754
 30
0.0
 10
10.8216750589
 20
1.9169886986
 30
0.0
 10
10.7497887974
 20
1.9422839925
 30
0.0
 10
10.6807502776
 20
1.9744010715
 30
0.0
 10
10.6151781864
 20
2.0130150983
 30
0.0
 10
10.5537100661
 20
2.0577778788
 30
0.0
 10
10.4969301402
 20
2.1082591652
 30
0.0
 10
10.4453732086
 20
2.1639780377
 30
0.0
 10
10.3995364532
 20
2.2244117344
 30
0.0
 10
10.3598395237
 20
2.2889764064
 30
0.0
 10
10.3266856499
 20
2.3570724068
 30
0.0
 10
10.3003575829
 20
2.4280375489
 30
0.0
 10
10.2811434836
 20
2.5012136026
 30
0.0
 10
10.2691841364
 20
2.5758850698
 30
0.0
 10
10.2661517505
 20
2.6262209006
 30
0.0
 10
10.2658717606
 20
2.6513823228
 30
0.0
  0
SPLINE
  5
520
100
AcDbEntity
  8
0
100
AcDbSpline
 62
9
  6
CONTINUOUS
 70
0
 71
3
 72
11
 73
7
 74
0
 42
0.0000001
 43
0.0000001
 44
0.0000000001
 40
0.0
 40
0.0
 40
0.0
 40
0.0
 40
0.2346269398
 40
0.4754464012
 40
0.7287629768
 40
1.0
 40
1.0
 40
1.0
 40
1.0
 10
10.3380153998
 20
2.6910903138
 30
0.0
 10
10.3379371445
 20
2.6960619599
 30
0.0
 10
10.3386684447
 20
2.7061715547
 30
0.0
 10
10.3424182359
 20
2.7212233044
 30
0.0
 10
10.348792475
 20
2.7362025767
 30
0.0
 10
10.3545468896
 20
2.7457558092
 30
0.0
 10
10.3577916726
 20
2.7505005069
 30
0.0
  0
SPLINE
  5
521
100
AcDbEntity
  8
0
100
AcDbSpline
 62
9
  6
CONTINUOUS
 70
0
 71
3
 72
17
 73
13
 74
0
 42
0.0000001
 43
0.0000001
 44
0.0000000001
 40
0.0
 40
0.0
 40
0.0
 40
0.0
 40
0.1252930078
 40
0.2506425358
 40
0.3759737862
 40
0.5011823832
 40
0.5637595565
 40
0.6263064044
 40
0.6888196597
 40
0.751284215
 40
0.8759103009
 40
1.0
 40
1.0
 40
1.0
 40
1.0
 10
11.0473183383
 20
9.4037635807
 30
0.0
 10
10.9919544615
 20
9.4037635807
 30
0.0
 10
10.881077454
 20
9.4109912181
 30
0.0
 10
10.7175749566
 20
9.4426942186
 30
0.0
 10
10.5593023111
 20
9.4944502471
 30
0.0
 10
10.433830064
 20
9.5537084822
 30
0.0
 10
10.3387426389
 20
9.6103475609
 30
0.0
 10
10.2702609655
 20
9.6571860909
 30
0.0
 10
10.2048316623
 20
9.708117055
 30
0.0
 10
10.1220236907
 20
9.7810570199
 30
0.0
 10
10.027190626
 20
9.8810944932
 30
0.0
 10
9.9614524378
 20
9.9695494224
 30
0.0
 10
9.9314830003
 20
10.0154667294
 30
0.0
  0
SPLINE
  5
522
100
AcDbEntity
  8
0
100
AcDbSpline
 62
7
  6
CONTINUOUS
 70
0
 71
3
 72
12
 73
8
 74
0
 42
0.0000001
 43
0.0000001
 44
0.0000000001
 40
0.0
 40
0.0
 40
0.0
 40
0.0
 40
0.2480944387
 40
0.3724130145
 40
0.4970295298
 40
0.7475465179
 40
1.0
 40
1.0
 40
1.0
 40
1.0
 10
12.2831132718
 20
11.3312788831
 30
0.0
 10
12.2760320212
 20
11.3044885667
 30
0.0
 10
12.2662429022
 20
11.2640439791
 30
0.0
 10
12.2549343064
 20
11.2096901047
 30
0.0
 10
12.2447608844
 20
11.1548361845
 30
0.0
 10
12.2341665613
 20
11.0855236652
 30
0.0
 10
12.2278838601
 20
11.0296819081
 30
0.0
 10
12.225257123
 20
11.0016072684
 30
0.0
  0
SPLINE
  5
523
100
AcDbEntity
  8
0
100
AcDbSpline
 62
7
  6
CONTINUOUS
 70
0
 71
3
 72
35
 73
31
 74
0
 42
0.0000001
 43
0.0000001
 44
0.0000000001
 40
0.0
 40
0.0
 40
0.0
 40
0.0
 40
0.0310223419
 40
0.0620815597
 40
0.1242748024
 40
0.1554596613
 40
0.1866782133
 40
0.2179290977
 40
0.2492147322
 40
0.2805308307
 40
0.3118679504
 40
0.3432164355
 40
0.374571559
 40
0.4059355224
 40
0.437306941
 40
0.5000000111
 40
0.5626930813
 40
0.5940644996
 40
0.6254284625
 40
0.6567835855
 40
0.6881320701
 40
0.7194691889
 40
0.7507852858
 40
0.7820709183
 40
0.8133218007
 40
0.8445403507
 40
0.8757252075
 40
0.9379184448
 40
0.9689776603
 40
1.0
 40
1.0
 40
1.0
 40
1.0
 10
10.3636387201
 20
2.4973394138
 30
0.0
 10
10.3681827161
 20
2.4785438976
 30
0.0
 10
10.3788502916
 20
2.4412872973
 30
0.0
 10
10.4063647504
 20
2.3688039773
 30
0.0
 10
10.4430744646
 20
2.2999789956
 30
0.0
 10
10.4878849915
 20
2.2364664433
 30
0.0
 10
10.5254297298
 20
2.1916692599
 30
0.0
 10
10.5666500893
 20
2.1501470196
 30
0.0
 10
10.6112661328
 20
2.112202839
 30
0.0
 10
10.6589138281
 20
2.0780543682
 30
0.0
 10
10.7092505444
 20
2.0479342263
 30
0.0
 10
10.7619283234
 20
2.0220669598
 30
0.0
 10
10.8166046184
 20
2.0007009713
 30
0.0
 10
10.8728856608
 20
1.9839565426
 30
0.0
 10
10.9494729259
 20
1.9678872849
 30
0.0
 10
11.0473201164
 20
1.9596851336
 30
0.0
 10
11.1451672652
 20
1.9678877748
 30
0.0
 10
11.2217544503
 20
1.983957412
 30
0.0
 10
11.2780354085
 20
2.000702121
 30
0.0
 10
11.3327115943
 20
2.0220683867
 30
0.0
 10
11.3853892422
 20
2.047935917
 30
0.0
 10
11.4357258069
 20
2.0780563087
 30
0.0
 10
11.4833733296
 20
2.1122050155
 30
0.0
 10
11.5279891797
 20
2.1501494183
 30
0.0
 10
11.569209324
 20
2.1916718669
 30
0.0
 10
11.6067538344
 20
2.2364692362
 30
0.0
 10
11.6515640398
 20
2.2999820081
 30
0.0
 10
11.6882734042
 20
2.3688071698
 30
0.0
 10
11.7157874898
 20
2.441290625
 30
0.0
 10
11.7264548772
 20
2.478547276
 30
0.0
 10
11.7309987785
 20
2.4973428138
 30
0.0
  0
SPLINE
  5
524
100
AcDbEntity
  8
0
100
AcDbSpline
 62
9
  6
CONTINUOUS
 70
0
 71
3
 72
17
 73
13
 74
0
 42
0.0000001
 43
0.0000001
 44
0.0000000001
 40
0.0
 40
0.0
 40
0.0
 40
0.0
 40
0.1240897318
 40
0.2487158303
 40
0.3111803857
 40
0.3736936387
 40
0.4362404833
 40
0.4988176532
 40
0.6240262445
 40
0.7493574859
 40
0.874707003
 40
1.0
 40
1.0
 40
1.0
 40
1.0
 10
12.1631474498
 20
10.0154571897
 30
0.0
 10
12.1331778737
 20
9.9695405178
 30
0.0
 10
12.0674395507
 20
9.8810868494
 30
0.0
 10
11.9726066166
 20
9.7810508619
 30
0.0
 10
11.8897989134
 20
9.708112019
 30
0.0
 10
11.8243698906
 20
9.6571818582
 30
0.0
 10
11.7558885692
 20
9.6103440828
 30
0.0
 10
11.6608016995
 20
9.5537059398
 30
0.0
 10
11.5353303148
 20
9.4944487026
 30
0.0
 10
11.3770589059
 20
9.4426935501
 30
0.0
 10
11.2135577798
 20
9.4109910927
 30
0.0
 10
11.1026817353
 20
9.4037635807
 30
0.0
 10
11.0473183383
 20
9.4037635807
 30
0.0
  0
SPLINE
  5
525
100
AcDbEntity
  8
0
100
AcDbSpline
 62
9
  6
CONTINUOUS
 70
0
 71
3
 72
28
 73
24
 74
0
 42
0.0000001
 43
0.0000001
 44
0.0000000001
 40
0.0
 40
0.0
 40
0.0
 40
0.0
 40
0.0624086341
 40
0.0935233323
 40
0.1245801762
 40
0.1555851404
 40
0.1865496209
 40
0.2174946191
 40
0.2484458165
 40
0.2794199232
 40
0.3104264147
 40
0.3725420083
 40
0.4348500879
 40
0.4973303151
 40
0.5599606428
 40
0.6226765967
 40
0.6854605943
 40
0.7482908403
 40
0.8111799265
 40
0.8426508442
 40
0.874132011
 40
0.9370875283
 40
1.0
 40
1.0
 40
1.0
 40
1.0
 10
12.2237831732
 20
10.9852164806
 30
0.0
 10
12.2145175547
 20
10.95562037
 30
0.0
 10
12.1988778598
 20
10.9117803708
 30
0.0
 10
12.1742553081
 20
10.8549627845
 30
0.0
 10
12.153873072
 20
10.8133674492
 30
0.0
 10
12.1315241314
 20
10.7728800614
 30
0.0
 10
12.1071780664
 20
10.7336241625
 30
0.0
 10
12.0807962067
 20
10.6957367637
 30
0.0
 10
12.0523909958
 20
10.6593363839
 30
0.0
 10
12.022090979
 20
10.6244577741
 30
0.0
 10
11.9792973421
 20
10.5800243587
 30
0.0
 10
11.9215826692
 20
10.5284962496
 30
0.0
 10
11.8467974471
 20
10.4732224711
 30
0.0
 10
11.7673913467
 20
10.4243570024
 30
0.0
 10
11.684262547
 20
10.3817274224
 30
0.0
 10
11.5981650636
 20
10.3451047745
 30
0.0
 10
11.5096840688
 20
10.3144035411
 30
0.0
 10
11.4193212019
 20
10.2894902231
 30
0.0
 10
11.3428237615
 20
10.273435041
 30
0.0
 10
11.2811046937
 20
10.26332587
 30
0.0
 10
11.2190826614
 20
10.2550246525
 30
0.0
 10
11.1411500441
 20
10.248103935
 30
0.0
 10
11.0785811346
 20
10.2463587036
 30
0.0
 10
11.0473183383
 20
10.2464636716
 30
0.0
  0
SPLINE
  5
526
100
AcDbEntity
  8
0
100
AcDbSpline
 62
9
  6
CONTINUOUS
 70
0
 71
3
 72
15
 73
11
 74
0
 42
0.0000001
 43
0.0000001
 44
0.0000000001
 40
0.0
 40
0.0
 40
0.0
 40
0.0
 40
0.1974092508
 40
0.3710909789
 40
0.5218066092
 40
0.6506051761
 40
0.7590467772
 40
0.8497793707
 40
0.9276186884
 40
1.0
 40
1.0
 40
1.0
 40
1.0
 10
11.7368449842
 20
2.7505005556
 30
0.0
 10
11.7382553868
 20
2.7508818046
 30
0.0
 10
11.7408893324
 20
2.7516663002
 30
0.0
 10
11.7445144585
 20
2.7530068163
 30
0.0
 10
11.7475619498
 20
2.7544183053
 30
0.0
 10
11.7500372261
 20
2.7558858523
 30
0.0
 10
11.7519484866
 20
2.7573974474
 30
0.0
 10
11.7533055986
 20
2.7589564419
 30
0.0
 10
11.7540907512
 20
2.7605891591
 30
0.0
 10
11.7541954022
 20
2.7617249411
 30
0.0
 10
11.7541478966
 20
2.7622585233
 30
0.0
  0
SPLINE
  5
527
100
AcDbEntity
  8
0
100
AcDbSpline
 62
9
  6
CONTINUOUS
 70
0
 71
3
 72
14
 73
10
 74
0
 42
0.0000001
 43
0.0000001
 44
0.0000000001
 40
0.0
 40
0.0
 40
0.0
 40
0.0
 40
0.355891884
 40
0.5015677351
 40
0.6275740676
 40
0.7360669884
 40
0.8304176102
 40
0.9160443828
 40
1.0
 40
1.0
 40
1.0
 40
1.0
 10
10.3577916716
 20
2.7505005253
 30
0.0
 10
10.3551399217
 20
2.7509573304
 30
0.0
 10
10.3514225349
 20
2.7518423787
 30
0.0
 10
10.3470439723
 20
2.7536957269
 30
0.0
 10
10.3445578014
 20
2.7551590307
 30
0.0
 10
10.3426412978
 20
2.7567651896
 30
0.0
 10
10.3412944646
 20
2.7585091235
 30
0.0
 10
10.3405468986
 20
2.7603913475
 30
0.0
 10
10.3404706979
 20
2.7616957572
 30
0.0
 10
10.3405263141
 20
2.7623280831
 30
0.0
  0
SPLINE
  5
528
100
AcDbEntity
  8
0
100
AcDbSpline
 62
9
  6
CONTINUOUS
 70
0
 71
3
 72
11
 73
7
 74
0
 42
0.0000001
 43
0.0000001
 44
0.0000000001
 40
0.0
 40
0.0
 40
0.0
 40
0.0
 40
0.2658276233
 40
0.5171520463
 40
0.7599195027
 40
1.0
 40
1.0
 40
1.0
 40
1.0
 10
10.357791683
 20
2.7505015347
 30
0.0
 10
10.3551674111
 20
2.7535425863
 30
0.0
 10
10.3505262615
 20
2.7598866742
 30
0.0
 10
10.3454983203
 20
2.7702822074
 30
0.0
 10
10.3426264347
 20
2.7810664016
 30
0.0
 10
10.342135695
 20
2.7883983996
 30
0.0
 10
10.3422340794
 20
2.7920248252
 30
0.0
  0
SPLINE
  5
529
100
AcDbEntity
  8
0
100
AcDbSpline
 62
9
  6
CONTINUOUS
 70
0
 71
3
 72
17
 73
13
 74
0
 42
0.0000001
 43
0.0000001
 44
0.0000000001
 40
0.0
 40
0.0
 40
0.0
 40
0.0
 40
0.0314826035
 40
0.0646612581
 40
0.1006332817
 40
0.1402672734
 40
0.2328477268
 40
0.346057842
 40
0.4813556883
 40
0.6372551066
 40
0.8111204222
 40
1.0
 40
1.0
 40
1.0
 40
1.0
 10
12.180402397
 20
11.0685662568
 30
0.0
 10
12.1799899603
 20
11.0677799591
 30
0.0
 10
12.179321982
 20
11.0660651785
 30
0.0
 10
12.1788560617
 20
11.0632484218
 30
0.0
 10
12.1789069195
 20
11.0601664424
 30
0.0
 10
12.1797065784
 20
11.0554760539
 30
0.0
 10
12.1821907885
 20
11.0489525017
 30
0.0
 10
12.1870937656
 20
11.0406448842
 30
0.0
 10
12.1940562766
 20
11.0315845234
 30
0.0
 10
12.2028992456
 20
11.0218836625
 30
0.0
 10
12.2134318867
 20
11.0117221546
 30
0.0
 10
12.2211594514
 20
11.0050108731
 30
0.0
 10
12.2252574255
 20
11.0016074865
 30
0.0
  0
SPLINE
  5
52A
100
AcDbEntity
  8
0
100
AcDbSpline
 62
7
  6
CONTINUOUS
 70
0
 71
3
 72
12
 73
8
 74
0
 42
0.0000001
 43
0.0000001
 44
0.0000000001
 40
0.0
 40
0.0
 40
0.0
 40
0.0
 40
0.2610155707
 40
0.3867550274
 40
0.5104273119
 40
0.7547631178
 40
1.0
 40
1.0
 40
1.0
 40
1.0
 10
10.4392960098
 20
2.8229558312
 30
0.0
 10
10.4182732008
 20
2.9923954408
 30
0.0
 10
10.3889009528
 20
3.2436862209
 30
0.0
 10
10.3539822878
 20
3.5757449264
 30
0.0
 10
10.3226258607
 20
3.8971981467
 30
0.0
 10
10.2880798444
 20
4.2968677387
 30
0.0
 10
10.2656916963
 20
4.6163466518
 30
0.0
 10
10.2557843656
 20
4.7764578733
 30
0.0
  0
SPLINE
  5
52B
100
AcDbEntity
  8
0
100
AcDbSpline
 62
7
  6
CONTINUOUS
 70
0
 71
3
 72
12
 73
8
 74
0
 42
0.0000001
 43
0.0000001
 44
0.0000000001
 40
0.0
 40
0.0
 40
0.0
 40
0.0
 40
0.245236882
 40
0.4895726897
 40
0.613244975
 40
0.7389844318
 40
1.0
 40
1.0
 40
1.0
 40
1.0
 10
11.838852264
 20
4.7764578803
 30
0.0
 10
11.8289449337
 20
4.6163466587
 30
0.0
 10
11.8065567868
 20
4.296867744
 30
0.0
 10
11.7720107726
 20
3.8971981498
 30
0.0
 10
11.7406543473
 20
3.5757449271
 30
0.0
 10
11.7057356846
 20
3.243686222
 30
0.0
 10
11.6763634382
 20
2.992395443
 30
0.0
 10
11.6553406302
 20
2.8229558346
 30
0.0
  0
SPLINE
  5
52C
100
AcDbEntity
  8
0
100
AcDbSpline
 62
9
  6
CONTINUOUS
 70
0
 71
3
 72
11
 73
7
 74
0
 42
0.0000001
 43
0.0000001
 44
0.0000000001
 40
0.0
 40
0.0
 40
0.0
 40
0.0
 40
0.2125904573
 40
0.4485513363
 40
0.7104262641
 40
1.0
 40
1.0
 40
1.0
 40
1.0
 10
11.7368449668
 20
2.7505005311
 30
0.0
 10
11.7324581139
 20
2.7569152183
 30
0.0
 10
11.7221427699
 20
2.7697374181
 30
0.0
 10
11.7035219252
 20
2.7879043835
 30
0.0
 10
11.6810389416
 20
2.8059363803
 30
0.0
 10
11.6643486702
 20
2.8172758459
 30
0.0
 10
11.6554126398
 20
2.8229501934
 30
0.0
  0
SPLINE
  5
52D
100
AcDbEntity
  8
0
100
AcDbSpline
 62
9
  6
CONTINUOUS
 70
0
 71
3
 72
22
 73
18
 74
0
 42
0.0000001
 43
0.0000001
 44
0.0000000001
 40
0.0
 40
0.0
 40
0.0
 40
0.0
 40
0.1111287378
 40
0.1698977911
 40
0.2306512274
 40
0.2932049153
 40
0.3572351657
 40
0.4223599211
 40
0.4881848293
 40
0.5543167698
 40
0.6203532014
 40
0.6859214293
 40
0.7507121534
 40
0.8145150891
 40
0.8772577381
 40
0.9390073116
 40
1.0
 40
1.0
 40
1.0
 40
1.0
 10
11.7368443305
 20
2.7505021778
 30
0.0
 10
11.7348994107
 20
2.7120542746
 30
0.0
 10
11.7243758622
 20
2.6534956538
 30
0.0
 10
11.6987972333
 20
2.5777451071
 30
0.0
 10
11.6731407355
 20
2.5200151861
 30
0.0
 10
11.6417100639
 20
2.4631550734
 30
0.0
 10
11.6049328374
 20
2.4077715764
 30
0.0
 10
11.5632479618
 20
2.3545389507
 30
0.0
 10
11.5170978963
 20
2.3041342427
 30
0.0
 10
11.466939111
 20
2.2572501091
 30
0.0
 10
11.4132924958
 20
2.2145367146
 30
0.0
 10
11.3566809402
 20
2.176654514
 30
0.0
 10
11.2976229766
 20
2.1442669313
 30
0.0
 10
11.2366302832
 20
2.1180442278
 30
0.0
 10
11.174244859
 20
2.0985598485
 30
0.0
 10
11.11101135
 20
2.0863870199
 30
0.0
 10
11.0684473416
 20
2.0835292875
 30
0.0
 10
11.0473183384
 20
2.0835292875
 30
0.0
  0
SPLINE
  5
52E
100
AcDbEntity
  8
0
100
AcDbSpline
 62
9
  6
CONTINUOUS
 70
0
 71
3
 72
11
 73
7
 74
0
 42
0.0000001
 43
0.0000001
 44
0.0000000001
 40
0.0
 40
0.0
 40
0.0
 40
0.0
 40
0.2125904321
 40
0.4485512992
 40
0.7104262343
 40
1.0
 40
1.0
 40
1.0
 40
1.0
 10
10.3577916739
 20
2.7505004809
 30
0.0
 10
10.3621785261
 20
2.756915173
 30
0.0
 10
10.3724938711
 20
2.7697373826
 30
0.0
 10
10.3911147224
 20
2.7879043612
 30
0.0
 10
10.4135977181
 20
2.805936371
 30
0.0
 10
10.4302880001
 20
2.8172758443
 30
0.0
 10
10.4392240365
 20
2.8229501956
 30
0.0
  0
SPLINE
  5
52F
100
AcDbEntity
  8
0
100
AcDbSpline
 62
9
  6
CONTINUOUS
 70
0
 71
3
 72
22
 73
18
 74
0
 42
0.0000001
 43
0.0000001
 44
0.0000000001
 40
0.0
 40
0.0
 40
0.0
 40
0.0
 40
0.0609926869
 40
0.1227422583
 40
0.1854849051
 40
0.2492878386
 40
0.3140785608
 40
0.3796467869
 40
0.4456832173
 40
0.5118151571
 40
0.5776400651
 40
0.642764821
 40
0.7067950725
 40
0.7693487619
 40
0.8301022005
 40
0.8888712564
 40
1.0
 40
1.0
 40
1.0
 40
1.0
 10
11.0473183384
 20
2.0835293563
 30
0.0
 10
11.0261893354
 20
2.0835293563
 30
0.0
 10
10.9836253275
 20
2.0863870891
 30
0.0
 10
10.9203918198
 20
2.0985599191
 30
0.0
 10
10.8580063976
 20
2.1180443008
 30
0.0
 10
10.7970137068
 20
2.1442670071
 30
0.0
 10
10.7379557461
 20
2.176654593
 30
0.0
 10
10.6813441936
 20
2.214536797
 30
0.0
 10
10.6276975817
 20
2.2572501952
 30
0.0
 10
10.5775387996
 20
2.3041343327
 30
0.0
 10
10.5313887372
 20
2.3545390447
 30
0.0
 10
10.4897038645
 20
2.4077716745
 30
0.0
 10
10.4529266406
 20
2.4631551758
 30
0.0
 10
10.4214959715
 20
2.5200152928
 30
0.0
 10
10.3958394758
 20
2.5777452182
 30
0.0
 10
10.3702608494
 20
2.653495771
 30
0.0
 10
10.3597373029
 20
2.712054396
 30
0.0
 10
10.3577923846
 20
2.7505023018
 30
0.0
  0
SPLINE
  5
530
100
AcDbEntity
  8
0
100
AcDbSpline
 62
7
  6
CONTINUOUS
 70
0
 71
3
 72
22
 73
18
 74
0
 42
0.0000001
 43
0.0000001
 44
0.0000000001
 40
0.0
 40
0.0
 40
0.0
 40
0.0
 40
0.0580828106
 40
0.1161735946
 40
0.1749012575
 40
0.2346482723
 40
0.3576303462
 40
0.4209597514
 40
0.4852843775
 40
0.5503689745
 40
0.615914994
 40
0.6815985281
 40
0.7470901538
 40
0.8120477559
 40
0.8760752789
 40
0.9388156053
 40
1.0
 40
1.0
 40
1.0
 40
1.0
 10
11.0473183383
 20
2.1768247425
 30
0.0
 10
11.0288381732
 20
2.1768247425
 30
0.0
 10
10.9918240362
 20
2.179552866
 30
0.0
 10
10.9372775768
 20
2.191320639
 30
0.0
 10
10.8841629712
 20
2.2100439372
 30
0.0
 10
10.8149493247
 20
2.2436725963
 30
0.0
 10
10.750104588
 20
2.2884785384
 30
0.0
 10
10.6905633393
 20
2.3415963672
 30
0.0
 10
10.6480385046
 20
2.385869598
 30
0.0
 10
10.6083750115
 20
2.4336240673
 30
0.0
 10
10.5718704406
 20
2.484368797
 30
0.0
 10
10.5388455961
 20
2.5375947592
 30
0.0
 10
10.5096236318
 20
2.5927892564
 30
0.0
 10
10.4845374368
 20
2.6494097751
 30
0.0
 10
10.4640012743
 20
2.7069155044
 30
0.0
 10
10.448454364
 20
2.764727769
 30
0.0
 10
10.4416190491
 20
2.8036308105
 30
0.0
 10
10.4392219603
 20
2.8229496566
 30
0.0
  0
SPLINE
  5
531
100
AcDbEntity
  8
0
100
AcDbSpline
 62
7
  6
CONTINUOUS
 70
0
 71
3
 72
22
 73
18
 74
0
 42
0.0000001
 43
0.0000001
 44
0.0000000001
 40
0.0
 40
0.0
 40
0.0
 40
0.0
 40
0.061184398
 40
0.1239247273
 40
0.1879522526
 40
0.2529098564
 40
0.3184014832
 40
0.3840850178
 40
0.4496310372
 40
0.5147156337
 40
0.5790402588
 40
0.6423696627
 40
0.7653517334
 40
0.8250987466
 40
0.8838264079
 40
0.9419171905
 40
1.0
 40
1.0
 40
1.0
 40
1.0
 10
11.6554146765
 20
2.8229496457
 30
0.0
 10
11.6530175864
 20
2.8036308002
 30
0.0
 10
11.6461822693
 20
2.76472776
 30
0.0
 10
11.6306353568
 20
2.7069154977
 30
0.0
 10
11.610099193
 20
2.6494097713
 30
0.0
 10
11.5850129978
 20
2.5927892558
 30
0.0
 10
11.5557910342
 20
2.5375947622
 30
0.0
 10
11.5227661914
 20
2.4843688037
 30
0.0
 10
11.4862616229
 20
2.4336240779
 30
0.0
 10
11.4465981329
 20
2.3858696125
 30
0.0
 10
11.404073302
 20
2.3415963854
 30
0.0
 10
11.3445320592
 20
2.2884785614
 30
0.0
 10
11.2796873291
 20
2.2436726233
 30
0.0
 10
11.2104736896
 20
2.2100439672
 30
0.0
 10
11.1573590893
 20
2.1913206707
 30
0.0
 10
11.1028126352
 20
2.1795528987
 30
0.0
 10
11.0657985017
 20
2.1768247754
 30
0.0
 10
11.0473183383
 20
2.1768247754
 30
0.0
  0
ENDSEC
  0
SECTION
  2
OBJECTS
  0
DICTIONARY
  5
C
100
AcDbDictionary
280
0
281
1
  3
ACAD_GROUP
350
D
  3
ACAD_MLINESTYLE
350
17
  3
ACAD_LAYOUT
350
1A
  3
ACAD_PLOTSETTINGS
350
19
  3
ACAD_PLOTSTYLENAME
350
E
  0
DICTIONARY
  5
D
102
{ACAD_REACTORS
330
C
102
}
100
AcDbDictionary
280
0
281
1
  0
ACDBDICTIONARYWDFLT
  5
E
102
{ACAD_REACTORS
330
C
102
}
100
AcDbDictionary
281
1
  3
Normal
350
F
100
AcDbDictionaryWithDefault
340
F
  0
DICTIONARY
  5
17
102
{ACAD_REACTORS
330
C
102
}
100
AcDbDictionary
280
0
281
1
  3
Standard
350
18
  0
DICTIONARY
  5
19
102
{ACAD_REACTORS
330
C
102
}
100
AcDbDictionary
281
1
  0
DICTIONARY
  5
1A
102
{ACAD_REACTORS
330
C
102
}
100
AcDbDictionary
281
1
  3
Model
350
532
  3
Layout1
350
533
  0
ACDBPLACEHOLDER
  5
F
102
{ACAD_REACTORS
330
E
102
}
  0
MLINESTYLE
  5
18
102
{ACAD_REACTORS
330
17
102
}
100
AcDbMlineStyle
  2
STANDARD
 70
0
  3

 62
256
 51
90.0
 52
90.0
 71
2
 49
0.5
 62
256
  6
BYLAYER
 49
-0.5
 62
256
  6
BYLAYER
  0
LAYOUT
  5
532
102
{ACAD_REACTORS
330
1A
102
}
100
AcDbPlotSettings
  1

  2
none_device
  4
ANSI_C_(22.00_x_17.00_Inches)
  6

 40
0.0
 41
0.0
 42
0.0
 43
0.0
 44
558.8
 45
431.8
 46
0.0
 47
0.0
 48
0.0
 49
0.0
140
0.0
141
0.0
142
1.0
143
1.0
 70
1024
 72
0
 73
0
 74
0
  7

 75
0
147
1.0
148
0.0
149
0.0
100
AcDbLayout
  1
Model
 70
0
 71
0
 10
0.0
 20
0.0
 11
22.0
 21
17.0
 12
0.0
 22
0.0
 32
0.0
 14
0.0
 24
0.0
 34
0.0
 15
0.0
 25
0.0
 35
0.0
146
0.0
 13
0.0
 23
0.0
 33
0.0
 16
1.0
 26
0.0
 36
0.0
 17
0.0
 27
1.0
 37
0.0
 76
0
330
202
345
0
346
0
  0
LAYOUT
  5
533
102
{ACAD_REACTORS
330
1A
102
}
100
AcDbPlotSettings
  1

  2
none_device
  4
ANSI_C_(22.00_x_17.00_Inches)
  6

 40
0.0
 41
0.0
 42
0.0
 43
0.0
 44
558.8
 45
431.8
 46
0.0
 47
0.0
 48
0.0
 49
0.0
140
0.0
141
0.0
142
1.0
143
1.0
 70
0
 72
0
 73
0
 74
0
  7

 75
0
147
1.0
148
0.0
149
0.0
100
AcDbLayout
  1
Layout1
 70
0
 71
1
 10
0.0
 20
0.0
 11
22.0
 21
17.0
 12
0.0
 22
0.0
 32
0.0
 14
0.0
 24
0.0
 34
0.0
 15
0.0
 25
0.0
 35
0.0
146
0.0
 13
0.0
 23
0.0
 33
0.0
 16
1.0
 26
0.0
 36
0.0
 17
0.0
 27
1.0
 37
0.0
 76
0
330
203
345
0
346
0
  0
ENDSEC
  0
EOF
