999
DXF file: 3-1744tr_TOP.dxf
999
Pro/ENGINEER 2018400 by Parametric Technology Corporation
  0
SECTION
  2
HEADER
  9
$ACADVER
  1
AC1027
  9
$DWGCODEPAGE
  3
ANSI_1252
  9
$EXTMAX
 10
11.0
 20
8.5
 30
0.0
  9
$EXTMIN
 10
0.0
 20
0.0
 30
0.0
  9
$LIMMIN
 10
0.0
 20
0.0
  9
$LIMMAX
 10
11.0
 20
8.5
  9
$VIEWCTR
 10
5.5
 20
4.25
  9
$VIEWSIZE
 40
8.5
  9
$CLAYER
  8
0
  9
$LTSCALE
 40
0.605
  9
$CELTYPE
  6
BYLAYER
  9
$DIMSCALE
 40
1.0
  9
$DIMASZ
 40
0.1
  9
$DIMEXO
 40
0.0625
  9
$DIMDLI
 40
0.418
  9
$DIMEXE
 40
0.125
  9
$DIMCEN
 40
0.099
  9
$DIMLFAC
 40
1.0
  9
$DIMBLK
  1
_FILLED
  9
$DIMALT
 70
1
  9
$DIMALTD
 70
2
  9
$DIMALTTD
 70
2
  9
$DIMALTF
 40
25.4
  9
$DIMTXT
 40
0.08
  9
$DIMTOL
 70
1
  9
$DIMLIM
 70
0
  9
$DIMTFAC
 40
1.0
  9
$DIMTP
 40
0.001
  9
$DIMTM
 40
0.001
  9
$DIMGAP
 40
0.09
  9
$DIMDSEP
 70
46
  9
$AUNITS
 70
0
  9
$PDMODE
 70
3
  9
$PDSIZE
 40
0.3125
  9
$HANDSEED
  5
426
  9
$TILEMODE
 70
1
  9
$MEASUREMENT
 70
0
  9
$INSUNITS
 70
1
  0
ENDSEC
  0
SECTION
  2
CLASSES
  0
CLASS
  1
ACDBDICTIONARYWDFLT
  2
AcDbDictionaryWithDefault
  3
AutoCAD 2000
 90
0
 91
1
280
0
281
0
  0
CLASS
  1
ACDBPLACEHOLDER
  2
AcDbPlaceHolder
  3
AutoCAD 2000
 90
0
 91
1
280
0
281
0
  0
CLASS
  1
LAYOUT
  2
AcDbLayout
  3
AutoCAD 2000
 90
0
 91
0
280
0
281
0
  0
ENDSEC
  0
SECTION
  2
TABLES
  0
TABLE
  2
VPORT
  5
8
100
AcDbSymbolTable
 70
2
  0
VPORT
  5
1F4
100
AcDbSymbolTableRecord
100
AcDbViewportTableRecord
  2
*ACTIVE
 70
0
 10
0.0
 20
0.0
 11
1.0
 21
1.0
 12
5.5
 22
4.25
 13
0.0
 23
0.0
 14
1.0
 24
1.0
 15
0.0
 25
0.0
 16
0.0
 26
0.0
 36
1.0
 17
0.0
 27
0.0
 37
0.0
 40
8.5
 41
1.2941176471
 42
50.0
 43
0.0
 44
0.0
 50
0.0
 51
0.0
 71
0
 72
100
 73
1
 74
1
 75
0
 76
0
 77
0
 78
0
  0
ENDTAB
  0
TABLE
  2
LTYPE
  5
5
100
AcDbSymbolTable
 70
6
  0
LTYPE
  5
14
100
AcDbSymbolTableRecord
100
AcDbLinetypeTableRecord
  2
BYBLOCK
 70
0
  3

 72
65
 73
0
 40
0.0
  0
LTYPE
  5
15
100
AcDbSymbolTableRecord
100
AcDbLinetypeTableRecord
  2
BYLAYER
 70
0
  3

 72
65
 73
0
 40
0.0
  0
LTYPE
  5
16
100
AcDbSymbolTableRecord
100
AcDbLinetypeTableRecord
  2
CONTINUOUS
 70
64
  3
Solid line
 72
65
 73
0
 40
0.0
  0
LTYPE
  5
1F5
100
AcDbSymbolTableRecord
100
AcDbLinetypeTableRecord
  2
CENTER
 70
64
  3
____ _ ____ _ ____ _ ____ _ ____ _ ____ _ ____
 72
65
 73
4
 40
0.6
 49
0.375
 74
0
 49
-0.075
 74
0
 49
0.075
 74
0
 49
-0.075
 74
0
  0
LTYPE
  5
1F6
100
AcDbSymbolTableRecord
100
AcDbLinetypeTableRecord
  2
HIDDEN
 70
64
  3
- - - - - - - - - - - - - - - - - - - -
 72
65
 73
2
 40
0.2
 49
0.1
 74
0
 49
-0.1
 74
0
  0
LTYPE
  5
1F7
100
AcDbSymbolTableRecord
100
AcDbLinetypeTableRecord
  2
PHANTOM
 70
64
  3
_____ _ _ _____ _ _ _____ _ _ _____
 72
65
 73
6
 40
0.8
 49
0.45
 74
0
 49
-0.05
 74
0
 49
0.1
 74
0
 49
-0.05
 74
0
 49
0.1
 74
0
 49
-0.05
 74
0
  0
LTYPE
  5
1F8
100
AcDbSymbolTableRecord
100
AcDbLinetypeTableRecord
  2
DOT
 70
64
  3
. . . . . . . . . . . . . . . . . . . .
 72
65
 73
2
 40
0.2
 49
0.1
 74
0
 49
-0.1
 74
0
  0
LTYPE
  5
1F9
100
AcDbSymbolTableRecord
100
AcDbLinetypeTableRecord
  2
DASHED
 70
64
  3
- - - - - - - - - - - - - - - - - - - -
 72
65
 73
2
 40
0.2
 49
0.1
 74
0
 49
-0.1
 74
0
  0
ENDTAB
  0
TABLE
  2
LAYER
  5
2
100
AcDbSymbolTable
 70
36
  0
LAYER
  5
10
100
AcDbSymbolTableRecord
100
AcDbLayerTableRecord
  2
0
 70
0
 62
7
  6
CONTINUOUS
370
-3
390
F
  0
LAYER
  5
1FA
100
AcDbSymbolTableRecord
100
AcDbLayerTableRecord
  2
DEFAULT_1
 70
0
 62
7
  6
CENTER
370
-3
390
F
  0
LAYER
  5
1FB
100
AcDbSymbolTableRecord
100
AcDbLayerTableRecord
  2
DEFAULT_2
 70
0
 62
8
  6
HIDDEN
370
-3
390
F
  0
LAYER
  5
1FC
100
AcDbSymbolTableRecord
100
AcDbLayerTableRecord
  2
DEFAULT_3
 70
0
 62
7
  6
PHANTOM
370
-3
390
F
  0
LAYER
  5
1FD
100
AcDbSymbolTableRecord
100
AcDbLayerTableRecord
  2
1_PLATE
 70
0
 62
7
  6
CONTINUOUS
370
-3
390
F
  0
LAYER
  5
1FE
100
AcDbSymbolTableRecord
100
AcDbLayerTableRecord
  2
2-265_ASSY_PLANES
 70
0
 62
7
  6
CONTINUOUS
370
-3
390
F
  0
LAYER
  5
1FF
100
AcDbSymbolTableRecord
100
AcDbLayerTableRecord
  2
ALL_ASSEMBLY_MEMBERS
 70
0
 62
7
  6
CONTINUOUS
370
-3
390
F
  0
LAYER
  5
200
100
AcDbSymbolTableRecord
100
AcDbLayerTableRecord
  2
ALL_FEATURES
 70
0
 62
7
  6
CONTINUOUS
370
-3
390
F
  0
LAYER
  5
201
100
AcDbSymbolTableRecord
100
AcDbLayerTableRecord
  2
AXES_FEATURES
 70
0
 62
7
  6
CONTINUOUS
370
-3
390
F
  0
LAYER
  5
202
100
AcDbSymbolTableRecord
100
AcDbLayerTableRecord
  2
CHAMFER_FEATURES
 70
0
 62
7
  6
CONTINUOUS
370
-3
390
F
  0
LAYER
  5
203
100
AcDbSymbolTableRecord
100
AcDbLayerTableRecord
  2
CUT_FEATURES
 70
0
 62
7
  6
CONTINUOUS
370
-3
390
F
  0
LAYER
  5
204
100
AcDbSymbolTableRecord
100
AcDbLayerTableRecord
  2
DATUM_CURVES
 70
0
 62
7
  6
CONTINUOUS
370
-3
390
F
  0
LAYER
  5
205
100
AcDbSymbolTableRecord
100
AcDbLayerTableRecord
  2
DATUM_PLANES
 70
0
 62
7
  6
CONTINUOUS
370
-3
390
F
  0
LAYER
  5
206
100
AcDbSymbolTableRecord
100
AcDbLayerTableRecord
  2
DATUM_POINTS
 70
0
 62
7
  6
CONTINUOUS
370
-3
390
F
  0
LAYER
  5
207
100
AcDbSymbolTableRecord
100
AcDbLayerTableRecord
  2
DEFAULT_COORDINATE_SYSTEM
 70
0
 62
7
  6
CONTINUOUS
370
-3
390
F
  0
LAYER
  5
208
100
AcDbSymbolTableRecord
100
AcDbLayerTableRecord
  2
DEFAULT_DATUM_AXES
 70
0
 62
7
  6
CONTINUOUS
370
-3
390
F
  0
LAYER
  5
209
100
AcDbSymbolTableRecord
100
AcDbLayerTableRecord
  2
DEFAULT_DATUM_CURVES
 70
0
 62
7
  6
CONTINUOUS
370
-3
390
F
  0
LAYER
  5
20A
100
AcDbSymbolTableRecord
100
AcDbLayerTableRecord
  2
DEFAULT_DATUM_PLANES
 70
0
 62
7
  6
CONTINUOUS
370
-3
390
F
  0
LAYER
  5
20B
100
AcDbSymbolTableRecord
100
AcDbLayerTableRecord
  2
DEFAULT_SURFACES
 70
0
 62
7
  6
CONTINUOUS
370
-3
390
F
  0
LAYER
  5
20C
100
AcDbSymbolTableRecord
100
AcDbLayerTableRecord
  2
DIMENSIONS
 70
0
 62
7
  6
CONTINUOUS
370
-3
390
F
  0
LAYER
  5
20D
100
AcDbSymbolTableRecord
100
AcDbLayerTableRecord
  2
HOLE_FEATURES
 70
0
 62
7
  6
CONTINUOUS
370
-3
390
F
  0
LAYER
  5
20E
100
AcDbSymbolTableRecord
100
AcDbLayerTableRecord
  2
NOTES
 70
0
 62
7
  6
CONTINUOUS
370
-3
390
F
  0
LAYER
  5
20F
100
AcDbSymbolTableRecord
100
AcDbLayerTableRecord
  2
PART_REFERENCE_DIMENSIONS
 70
0
 62
7
  6
CONTINUOUS
370
-3
390
F
  0
LAYER
  5
210
100
AcDbSymbolTableRecord
100
AcDbLayerTableRecord
  2
PLATED_SURFACE
 70
0
 62
7
  6
CONTINUOUS
370
-3
390
F
  0
LAYER
  5
211
100
AcDbSymbolTableRecord
100
AcDbLayerTableRecord
  2
PLATED_SURFACE_AREA
 70
0
 62
7
  6
CONTINUOUS
370
-3
390
F
  0
LAYER
  5
212
100
AcDbSymbolTableRecord
100
AcDbLayerTableRecord
  2
POINTS
 70
0
 62
7
  6
CONTINUOUS
370
-3
390
F
  0
LAYER
  5
213
100
AcDbSymbolTableRecord
100
AcDbLayerTableRecord
  2
PROTRUSION
 70
0
 62
7
  6
CONTINUOUS
370
-3
390
F
  0
LAYER
  5
214
100
AcDbSymbolTableRecord
100
AcDbLayerTableRecord
  2
PROTRUSION_FEATURES
 70
0
 62
7
  6
CONTINUOUS
370
-3
390
F
  0
LAYER
  5
215
100
AcDbSymbolTableRecord
100
AcDbLayerTableRecord
  2
QUILT
 70
0
 62
7
  6
CONTINUOUS
370
-3
390
F
  0
LAYER
  5
216
100
AcDbSymbolTableRecord
100
AcDbLayerTableRecord
  2
QUILTS
 70
0
 62
7
  6
CONTINUOUS
370
-3
390
F
  0
LAYER
  5
217
100
AcDbSymbolTableRecord
100
AcDbLayerTableRecord
  2
REFERENCE_DIMENSIONS
 70
0
 62
7
  6
CONTINUOUS
370
-3
390
F
  0
LAYER
  5
218
100
AcDbSymbolTableRecord
100
AcDbLayerTableRecord
  2
ROUND_FEATURES
 70
0
 62
7
  6
CONTINUOUS
370
-3
390
F
  0
LAYER
  5
219
100
AcDbSymbolTableRecord
100
AcDbLayerTableRecord
  2
SHELL_FEATURES
 70
0
 62
7
  6
CONTINUOUS
370
-3
390
F
  0
LAYER
  5
21A
100
AcDbSymbolTableRecord
100
AcDbLayerTableRecord
  2
SURFACE_FEATURES
 70
0
 62
7
  6
CONTINUOUS
370
-3
390
F
  0
LAYER
  5
21B
100
AcDbSymbolTableRecord
100
AcDbLayerTableRecord
  2
XSEC_DATUMS
 70
0
 62
7
  6
CONTINUOUS
370
-3
390
F
  0
ENDTAB
  0
TABLE
  2
STYLE
  5
3
100
AcDbSymbolTable
 70
1
  0
STYLE
  5
11
100
AcDbSymbolTableRecord
100
AcDbTextStyleTableRecord
  2
STANDARD
 70
0
 40
0.0
 41
0.8
 50
0.0
 71
0
 42
0.2
  3
txt
  4

  0
STYLE
  5
21C
100
AcDbSymbolTableRecord
100
AcDbTextStyleTableRecord
  2
TEXTSTYLE_1
 70
0
 40
0.0
 41
0.8
 50
0.0
 71
0
 42
0.2
  3
gdt
  4

  0
ENDTAB
  0
TABLE
  2
VIEW
  5
6
100
AcDbSymbolTable
 70
0
  0
ENDTAB
  0
TABLE
  2
UCS
  5
7
100
AcDbSymbolTable
 70
0
  0
ENDTAB
  0
TABLE
  2
APPID
  5
9
100
AcDbSymbolTable
 70
1
  0
APPID
  5
21D
100
AcDbSymbolTableRecord
100
AcDbRegAppTableRecord
  2
ACAD
 70
0
  0
ENDTAB
  0
TABLE
  2
BLOCK_RECORD
  5
1
100
AcDbSymbolTable
 70
0
  0
BLOCK_RECORD
  5
21E
100
AcDbSymbolTableRecord
100
AcDbBlockTableRecord
  2
*Model_Space
  0
BLOCK_RECORD
  5
21F
100
AcDbSymbolTableRecord
100
AcDbBlockTableRecord
  2
*Paper_Space
  0
BLOCK_RECORD
  5
220
100
AcDbSymbolTableRecord
100
AcDbBlockTableRecord
  2
_FILLED
  0
ENDTAB
  0
TABLE
  2
DIMSTYLE
  5
A
100
AcDbSymbolTable
 70
1
100
AcDbDimStyleTable
 71
0
  0
DIMSTYLE
105
221
100
AcDbSymbolTableRecord
100
AcDbDimStyleTableRecord
  2
STANDARD
 70
0
  3

  4

 40
1.0
 41
0.1
 42
0.0625
 43
0.38
 44
0.125
 45
0.0
 46
0.0
 47
0.001
 48
0.001
140
0.08
141
0.09
142
0.0
143
25.4
144
1.0
145
0.0
146
1.0
147
0.09
 71
1.0
 72
0.0
 73
1
 74
1
 75
0
 76
0
 77
0
 78
4
 79
1
170
1
171
2
172
0
173
0
174
0
175
0
176
0
177
0
178
0
270
2
179
3
271
3
272
3
273
2
274
2
275
0
280
0
281
0
282
0
283
1
284
4
285
0
286
0
287
3
288
0
340
11
278
46
341
220
342
220
343
220
344
220
  0
ENDTAB
  0
ENDSEC
  0
SECTION
  2
BLOCKS
  0
BLOCK
  5
20
100
AcDbEntity
  8
0
100
AcDbBlockBegin
  2
*Model_Space
 70
0
 10
0.0
 20
0.0
 30
0.0
  3
*Model_Space
  1

  0
ENDBLK
  5
21
100
AcDbEntity
  8
0
100
AcDbBlockEnd
  0
BLOCK
  5
1C
100
AcDbEntity
  8
0
100
AcDbBlockBegin
  2
*Paper_Space
 70
0
 10
0.0
 20
0.0
 30
0.0
  3
*Paper_Space
  1

  0
ENDBLK
  5
1D
100
AcDbEntity
  8
0
100
AcDbBlockEnd
  0
BLOCK
  5
222
100
AcDbEntity
  8
0
100
AcDbBlockBegin
  2
_FILLED
 70
64
 10
0.0
 20
0.0
  3
_FILLED
  1

  0
SOLID
  5
223
100
AcDbEntity
  8
0
  6
BYBLOCK
 62
0
100
AcDbTrace
 10
0.0
 20
0.0
 11
-1.0
 21
0.2
 12
-1.0
 22
-0.2
 13
-1.0
 23
-0.2
  0
ENDBLK
  5
224
100
AcDbEntity
  8
0
  6
BYBLOCK
 62
0
100
AcDbBlockEnd
  0
ENDSEC
  0
SECTION
  2
ENTITIES
  0
MTEXT
  5
225
100
AcDbEntity
  8
0
100
AcDbMText
 62
2
  6
CONTINUOUS
  7
STANDARD
 71
3
 72
1
 10
4.9062305901
 20
3.0966264829
 30
0.0
 11
1.0
 21
0.0
 31
0.0
 73
2
 44
0.9
  1
SCALE  .500
 40
0.08
 41
0.704
  0
LINE
  5
226
100
AcDbEntity
  8
0
100
AcDbLine
 62
7
  6
CONTINUOUS
 10
0.0
 20
0.0
 11
0.0
 21
8.5
  0
LINE
  5
227
100
AcDbEntity
  8
0
100
AcDbLine
 62
7
  6
CONTINUOUS
 10
0.0
 20
0.0
 11
11.0
 21
0.0
  0
LINE
  5
228
100
AcDbEntity
  8
0
100
AcDbLine
 62
7
  6
CONTINUOUS
 10
0.0
 20
8.5
 11
11.0
 21
8.5
  0
LINE
  5
229
100
AcDbEntity
  8
0
100
AcDbLine
 62
7
  6
CONTINUOUS
 10
11.0
 20
0.0
 11
11.0
 21
8.5
  0
LINE
  5
22A
100
AcDbEntity
  8
1_PLATE
100
AcDbLine
 62
7
  6
CONTINUOUS
 10
3.0312305901
 20
5.6491941693
 11
3.0312305901
 21
5.5736941693
  0
LINE
  5
22B
100
AcDbEntity
  8
ALL_ASSEMBLY_MEMBERS
100
AcDbLine
 62
7
  6
CONTINUOUS
 10
5.0631824294
 20
3.2865664492
 11
5.0599752748
 21
3.285796189
  0
LINE
  5
22C
100
AcDbEntity
  8
ALL_ASSEMBLY_MEMBERS
100
AcDbLine
 62
7
  6
CONTINUOUS
 10
4.7492787508
 20
3.2865664492
 11
4.7524859053
 21
3.285796189
  0
LINE
  5
22D
100
AcDbEntity
  8
ALL_ASSEMBLY_MEMBERS
100
AcDbLine
 62
7
  6
CONTINUOUS
 10
4.9624805901
 20
3.1982553558
 11
4.9596145277
 21
3.2000113435
  0
LINE
  5
22E
100
AcDbEntity
  8
ALL_ASSEMBLY_MEMBERS
100
AcDbLine
 62
7
  6
CONTINUOUS
 10
4.7492787508
 20
3.441371102
 11
4.7524859053
 21
3.4421413621
  0
LINE
  5
22F
100
AcDbEntity
  8
ALL_ASSEMBLY_MEMBERS
100
AcDbLine
 62
7
  6
CONTINUOUS
 10
4.8087305901
 20
3.5889687756
 11
5.0037305901
 21
3.5889687756
  0
LINE
  5
230
100
AcDbEntity
  8
ALL_ASSEMBLY_MEMBERS
100
AcDbLine
 62
7
  6
CONTINUOUS
 10
5.0631824294
 20
3.441371102
 11
5.0599752748
 21
3.4421413621
  0
LINE
  5
231
100
AcDbEntity
  8
ALL_ASSEMBLY_MEMBERS
100
AcDbLine
 62
7
  6
CONTINUOUS
 10
4.7799805901
 20
3.6964687756
 11
5.0324805901
 21
3.6964687756
  0
LINE
  5
232
100
AcDbEntity
  8
ALL_ASSEMBLY_MEMBERS
100
AcDbLine
 62
7
  6
CONTINUOUS
 10
4.7781055901
 20
3.7564101245
 11
5.0343555901
 21
3.7564101245
  0
LINE
  5
233
100
AcDbEntity
  8
ALL_ASSEMBLY_MEMBERS
100
AcDbLine
 62
7
  6
CONTINUOUS
 10
4.7874805901
 20
3.7663905741
 11
5.0249805901
 21
3.7663905741
  0
LINE
  5
234
100
AcDbEntity
  8
ALL_ASSEMBLY_MEMBERS
100
AcDbLine
 62
7
  6
CONTINUOUS
 10
4.7874805901
 20
3.7913905741
 11
5.0249805901
 21
3.7913905741
  0
LINE
  5
235
100
AcDbEntity
  8
ALL_ASSEMBLY_MEMBERS
100
AcDbLine
 62
7
  6
CONTINUOUS
 10
4.7485881445
 20
3.9309946511
 11
5.0638730356
 21
3.9309946511
  0
LINE
  5
236
100
AcDbEntity
  8
ALL_ASSEMBLY_MEMBERS
100
AcDbLine
 62
7
  6
CONTINUOUS
 10
4.7405171703
 20
3.4202187756
 11
4.742273158
 21
3.4173527132
  0
LINE
  5
237
100
AcDbEntity
  8
ALL_ASSEMBLY_MEMBERS
100
AcDbLine
 62
7
  6
CONTINUOUS
 10
4.4137305901
 20
5.2433191693
 11
4.4137305901
 21
5.3710440152
  0
LINE
  5
238
100
AcDbEntity
  8
ALL_ASSEMBLY_MEMBERS
100
AcDbLine
 62
7
  6
CONTINUOUS
 10
4.4212305901
 20
4.6190048502
 11
4.4212305901
 21
5.0464687756
  0
LINE
  5
239
100
AcDbEntity
  8
ALL_ASSEMBLY_MEMBERS
100
AcDbLine
 62
7
  6
CONTINUOUS
 10
4.4214805901
 20
5.1941065709
 11
4.4214805901
 21
5.1055238937
  0
LINE
  5
23A
100
AcDbEntity
  8
ALL_ASSEMBLY_MEMBERS
100
AcDbLine
 62
7
  6
CONTINUOUS
 10
4.4216494891
 20
5.1941065709
 11
4.4216494891
 21
5.1055238937
  0
LINE
  5
23B
100
AcDbEntity
  8
ALL_ASSEMBLY_MEMBERS
100
AcDbLine
 62
7
  6
CONTINUOUS
 10
4.4239471255
 20
5.2433191693
 11
4.4239471255
 21
5.1941065709
  0
LINE
  5
23C
100
AcDbEntity
  8
ALL_ASSEMBLY_MEMBERS
100
AcDbLine
 62
7
  6
CONTINUOUS
 10
4.4239471255
 20
5.1055238937
 11
4.4239471255
 21
5.0464687756
  0
LINE
  5
23D
100
AcDbEntity
  8
ALL_ASSEMBLY_MEMBERS
100
AcDbLine
 62
7
  6
CONTINUOUS
 10
4.4241168886
 20
5.1941065709
 11
4.4241168886
 21
5.1055238937
  0
LINE
  5
23E
100
AcDbEntity
  8
ALL_ASSEMBLY_MEMBERS
100
AcDbLine
 62
7
  6
CONTINUOUS
 10
4.4362363909
 20
5.1328840036
 11
4.4362363909
 21
5.1274119821
  0
LINE
  5
23F
100
AcDbEntity
  8
ALL_ASSEMBLY_MEMBERS
100
AcDbLine
 62
7
  6
CONTINUOUS
 10
4.4365411972
 20
5.1693641492
 11
4.4365411972
 21
5.1638921277
  0
LINE
  5
240
100
AcDbEntity
  8
ALL_ASSEMBLY_MEMBERS
100
AcDbLine
 62
7
  6
CONTINUOUS
 10
4.4377902778
 20
5.1328840036
 11
4.4377902778
 21
5.1274119821
  0
LINE
  5
241
100
AcDbEntity
  8
ALL_ASSEMBLY_MEMBERS
100
AcDbLine
 62
7
  6
CONTINUOUS
 10
4.4381100011
 20
5.1693641492
 11
4.4381100011
 21
5.1657161349
  0
LINE
  5
242
100
AcDbEntity
  8
ALL_ASSEMBLY_MEMBERS
100
AcDbLine
 62
7
  6
CONTINUOUS
 10
4.4401173052
 20
5.1328840036
 11
4.4401173052
 21
5.1274119821
  0
LINE
  5
243
100
AcDbEntity
  8
ALL_ASSEMBLY_MEMBERS
100
AcDbLine
 62
7
  6
CONTINUOUS
 10
4.440436504
 20
5.1693641492
 11
4.440436504
 21
5.1657161349
  0
LINE
  5
244
100
AcDbEntity
  8
ALL_ASSEMBLY_MEMBERS
100
AcDbLine
 62
7
  6
CONTINUOUS
 10
4.4466727844
 20
5.1693641492
 11
4.4466727844
 21
5.1657161349
  0
LINE
  5
245
100
AcDbEntity
  8
ALL_ASSEMBLY_MEMBERS
100
AcDbLine
 62
7
  6
CONTINUOUS
 10
4.4470664891
 20
5.1328840036
 11
4.4470664891
 21
5.1274119821
  0
LINE
  5
246
100
AcDbEntity
  8
ALL_ASSEMBLY_MEMBERS
100
AcDbLine
 62
7
  6
CONTINUOUS
 10
4.4486707682
 20
5.1693641492
 11
4.4486707682
 21
5.1638921277
  0
LINE
  5
247
100
AcDbEntity
  8
ALL_ASSEMBLY_MEMBERS
100
AcDbLine
 62
7
  6
CONTINUOUS
 10
4.4490792
 20
5.1328840036
 11
4.4490792
 21
5.1274119821
  0
LINE
  5
248
100
AcDbEntity
  8
ALL_ASSEMBLY_MEMBERS
100
AcDbLine
 62
7
  6
CONTINUOUS
 10
4.4509887367
 20
5.1693641492
 11
4.4509887367
 21
5.1638921277
  0
LINE
  5
249
100
AcDbEntity
  8
ALL_ASSEMBLY_MEMBERS
100
AcDbLine
 62
7
  6
CONTINUOUS
 10
4.4513971016
 20
5.1328840036
 11
4.4513971016
 21
5.1274119821
  0
LINE
  5
24A
100
AcDbEntity
  8
ALL_ASSEMBLY_MEMBERS
100
AcDbLine
 62
7
  6
CONTINUOUS
 10
4.4524526468
 20
5.1912522401
 11
4.4524526468
 21
5.143828049
  0
LINE
  5
24B
100
AcDbEntity
  8
ALL_ASSEMBLY_MEMBERS
100
AcDbLine
 62
7
  6
CONTINUOUS
 10
4.4546567454
 20
5.1821322044
 11
4.4546567454
 21
5.1529480848
  0
LINE
  5
24C
100
AcDbEntity
  8
ALL_ASSEMBLY_MEMBERS
100
AcDbLine
 62
7
  6
CONTINUOUS
 10
4.4569751496
 20
5.1821322044
 11
4.4569751496
 21
5.1584201063
  0
LINE
  5
24D
100
AcDbEntity
  8
ALL_ASSEMBLY_MEMBERS
100
AcDbLine
 62
7
  6
CONTINUOUS
 10
4.8827153957
 20
5.1803081972
 11
4.878589719
 21
5.1766601829
  0
LINE
  5
24E
100
AcDbEntity
  8
ALL_ASSEMBLY_MEMBERS
100
AcDbLine
 62
7
  6
CONTINUOUS
 10
4.9432253176
 20
5.1803081972
 11
4.9390996409
 21
5.1766601829
  0
LINE
  5
24F
100
AcDbEntity
  8
ALL_ASSEMBLY_MEMBERS
100
AcDbLine
 62
7
  6
CONTINUOUS
 10
4.9005933266
 20
5.1201159522
 11
4.8964676499
 21
5.1164679379
  0
LINE
  5
250
100
AcDbEntity
  8
ALL_ASSEMBLY_MEMBERS
100
AcDbLine
 62
7
  6
CONTINUOUS
 10
4.8813401714
 20
5.189428233
 11
4.8744640423
 21
5.1839562115
  0
LINE
  5
251
100
AcDbEntity
  8
ALL_ASSEMBLY_MEMBERS
100
AcDbLine
 62
7
  6
CONTINUOUS
 10
4.9418500973
 20
5.189428233
 11
4.9349739642
 21
5.1839562115
  0
LINE
  5
252
100
AcDbEntity
  8
ALL_ASSEMBLY_MEMBERS
100
AcDbLine
 62
7
  6
CONTINUOUS
 10
4.9047190072
 20
5.1128199229
 11
4.8978428781
 21
5.107347901
  0
LINE
  5
253
100
AcDbEntity
  8
ALL_ASSEMBLY_MEMBERS
100
AcDbLine
 62
7
  6
CONTINUOUS
 10
4.7559805901
 20
4.0664580796
 11
5.0564805901
 21
4.0664580796
  0
LINE
  5
254
100
AcDbEntity
  8
ALL_ASSEMBLY_MEMBERS
100
AcDbLine
 62
7
  6
CONTINUOUS
 10
5.0719440099
 20
3.3077187756
 11
5.0701880221
 21
3.3105848379
  0
LINE
  5
255
100
AcDbEntity
  8
ALL_ASSEMBLY_MEMBERS
100
AcDbLine
 62
7
  6
CONTINUOUS
 10
4.4673079871
 20
5.1347080107
 11
4.4673079871
 21
5.1310599964
  0
LINE
  5
256
100
AcDbEntity
  8
ALL_ASSEMBLY_MEMBERS
100
AcDbLine
 62
7
  6
CONTINUOUS
 10
4.4688968005
 20
5.1912522401
 11
4.4688968005
 21
5.1821322044
  0
LINE
  5
257
100
AcDbEntity
  8
ALL_ASSEMBLY_MEMBERS
100
AcDbLine
 62
7
  6
CONTINUOUS
 10
4.4699709338
 20
5.1365320179
 11
4.4699709338
 21
5.1292359892
  0
LINE
  5
258
100
AcDbEntity
  8
ALL_ASSEMBLY_MEMBERS
100
AcDbLine
 62
7
  6
CONTINUOUS
 10
4.4712255716
 20
5.1912522401
 11
4.4712255716
 21
5.1821322044
  0
LINE
  5
259
100
AcDbEntity
  8
ALL_ASSEMBLY_MEMBERS
100
AcDbLine
 62
7
  6
CONTINUOUS
 10
4.4723008991
 20
5.1365320179
 11
4.4723008991
 21
5.1292359892
  0
LINE
  5
25A
100
AcDbEntity
  8
ALL_ASSEMBLY_MEMBERS
100
AcDbLine
 62
7
  6
CONTINUOUS
 10
4.6178050129
 20
5.1941065709
 11
4.6178050129
 21
5.1055238937
  0
LINE
  5
25B
100
AcDbEntity
  8
ALL_ASSEMBLY_MEMBERS
100
AcDbLine
 62
7
  6
CONTINUOUS
 10
4.878589719
 20
5.1766601829
 11
4.8730888181
 21
5.1657161349
  0
LINE
  5
25C
100
AcDbEntity
  8
ALL_ASSEMBLY_MEMBERS
100
AcDbLine
 62
7
  6
CONTINUOUS
 10
4.8455843056
 20
5.1912522401
 11
4.8373329523
 21
5.1784841901
  0
LINE
  5
25D
100
AcDbEntity
  8
ALL_ASSEMBLY_MEMBERS
100
AcDbLine
 62
7
  6
CONTINUOUS
 10
4.8455843056
 20
5.1766601829
 11
4.8373329523
 21
5.1638921277
  0
LINE
  5
25E
100
AcDbEntity
  8
ALL_ASSEMBLY_MEMBERS
100
AcDbLine
 62
7
  6
CONTINUOUS
 10
4.8744640423
 20
5.1839562115
 11
4.8703383657
 21
5.1784841901
  0
LINE
  5
25F
100
AcDbEntity
  8
ALL_ASSEMBLY_MEMBERS
100
AcDbLine
 62
7
  6
CONTINUOUS
 10
4.9349739642
 20
5.1839562115
 11
4.9308482876
 21
5.1784841901
  0
LINE
  5
260
100
AcDbEntity
  8
ALL_ASSEMBLY_MEMBERS
100
AcDbLine
 62
7
  6
CONTINUOUS
 10
4.9088446839
 20
5.118291945
 11
4.9047190072
 21
5.1128199229
  0
LINE
  5
261
100
AcDbEntity
  8
ALL_ASSEMBLY_MEMBERS
100
AcDbLine
 62
7
  6
CONTINUOUS
 10
4.9693546058
 20
5.118291945
 11
4.9652289291
 21
5.1128199229
  0
LINE
  5
262
100
AcDbEntity
  8
ALL_ASSEMBLY_MEMBERS
100
AcDbLine
 62
7
  6
CONTINUOUS
 10
4.9611032525
 20
5.1201159522
 11
4.9569775758
 21
5.1164679379
  0
LINE
  5
263
100
AcDbEntity
  8
ALL_ASSEMBLY_MEMBERS
100
AcDbLine
 62
7
  6
CONTINUOUS
 10
4.9652289291
 20
5.1128199229
 11
4.958352804
 21
5.107347901
  0
LINE
  5
264
100
AcDbEntity
  8
ALL_ASSEMBLY_MEMBERS
100
AcDbLine
 62
7
  6
CONTINUOUS
 10
4.7299805901
 20
4.0964687756
 11
5.0824805901
 21
4.0964687756
  0
LINE
  5
265
100
AcDbEntity
  8
ALL_ASSEMBLY_MEMBERS
100
AcDbLine
 62
7
  6
CONTINUOUS
 10
4.7559805901
 20
4.0664580796
 11
4.7299805901
 21
4.0964687756
  0
LINE
  5
266
100
AcDbEntity
  8
ALL_ASSEMBLY_MEMBERS
100
AcDbLine
 62
7
  6
CONTINUOUS
 10
4.8288282636
 20
3.2070169363
 11
4.8280580035
 21
3.2102240908
  0
LINE
  5
267
100
AcDbEntity
  8
ALL_ASSEMBLY_MEMBERS
100
AcDbLine
 62
7
  6
CONTINUOUS
 10
4.6387675652
 20
5.1941065709
 11
4.6387675652
 21
5.1055238937
  0
LINE
  5
268
100
AcDbEntity
  8
ALL_ASSEMBLY_MEMBERS
100
AcDbLine
 62
7
  6
CONTINUOUS
 10
4.6401828074
 20
5.1941065709
 11
4.6401828074
 21
5.1055238937
  0
LINE
  5
269
100
AcDbEntity
  8
ALL_ASSEMBLY_MEMBERS
100
AcDbLine
 62
7
  6
CONTINUOUS
 10
4.7299805901
 20
4.0964687756
 11
4.7299805901
 21
4.2964687756
  0
LINE
  5
26A
100
AcDbEntity
  8
ALL_ASSEMBLY_MEMBERS
100
AcDbLine
 62
7
  6
CONTINUOUS
 10
4.866212689
 20
5.1657161349
 11
4.8648374628
 21
5.1565960991
  0
LINE
  5
26B
100
AcDbEntity
  8
ALL_ASSEMBLY_MEMBERS
100
AcDbLine
 62
7
  6
CONTINUOUS
 10
4.8675879152
 20
5.1711881615
 11
4.866212689
 21
5.1657161349
  0
LINE
  5
26C
100
AcDbEntity
  8
ALL_ASSEMBLY_MEMBERS
100
AcDbLine
 62
7
  6
CONTINUOUS
 10
4.9129703606
 20
5.1310599964
 11
4.9115951324
 21
5.1255879749
  0
LINE
  5
26D
100
AcDbEntity
  8
ALL_ASSEMBLY_MEMBERS
100
AcDbLine
 62
7
  6
CONTINUOUS
 10
4.9280978391
 20
5.1711881615
 11
4.9267226109
 21
5.1657161349
  0
LINE
  5
26E
100
AcDbEntity
  8
ALL_ASSEMBLY_MEMBERS
100
AcDbLine
 62
7
  6
CONTINUOUS
 10
4.8703383657
 20
5.1784841901
 11
4.8675879152
 21
5.1711881615
  0
LINE
  5
26F
100
AcDbEntity
  8
ALL_ASSEMBLY_MEMBERS
100
AcDbLine
 62
7
  6
CONTINUOUS
 10
4.9308482876
 20
5.1784841901
 11
4.9280978391
 21
5.1711881615
  0
LINE
  5
270
100
AcDbEntity
  8
ALL_ASSEMBLY_MEMBERS
100
AcDbLine
 62
7
  6
CONTINUOUS
 10
4.9115951324
 20
5.1255879749
 11
4.9088446839
 21
5.118291945
  0
LINE
  5
271
100
AcDbEntity
  8
ALL_ASSEMBLY_MEMBERS
100
AcDbLine
 62
7
  6
CONTINUOUS
 10
4.9721050622
 20
5.1255879749
 11
4.9693546058
 21
5.118291945
  0
LINE
  5
272
100
AcDbEntity
  8
ALL_ASSEMBLY_MEMBERS
100
AcDbLine
 62
7
  6
CONTINUOUS
 10
4.9060942275
 20
5.1310599964
 11
4.9005933266
 21
5.1201159522
  0
LINE
  5
273
100
AcDbEntity
  8
ALL_ASSEMBLY_MEMBERS
100
AcDbLine
 62
7
  6
CONTINUOUS
 10
4.9390996409
 20
5.1766601829
 11
4.9335987439
 21
5.1657161349
  0
LINE
  5
274
100
AcDbEntity
  8
ALL_ASSEMBLY_MEMBERS
100
AcDbLine
 62
7
  6
CONTINUOUS
 10
4.9666041573
 20
5.1310599964
 11
4.9611032525
 21
5.1201159522
  0
LINE
  5
275
100
AcDbEntity
  8
ALL_ASSEMBLY_MEMBERS
100
AcDbLine
 62
7
  6
CONTINUOUS
 10
4.7299853941
 20
4.2964687756
 11
5.082475786
 21
4.2964687756
  0
LINE
  5
276
100
AcDbEntity
  8
ALL_ASSEMBLY_MEMBERS
100
AcDbLine
 62
7
  6
CONTINUOUS
 10
4.6999805901
 20
4.3188013209
 11
5.1124805901
 21
4.3188013209
  0
LINE
  5
277
100
AcDbEntity
  8
ALL_ASSEMBLY_MEMBERS
100
AcDbLine
 62
7
  6
CONTINUOUS
 10
4.7874805901
 20
3.7663905741
 11
4.7874805901
 21
3.7913905741
  0
LINE
  5
278
100
AcDbEntity
  8
ALL_ASSEMBLY_MEMBERS
100
AcDbLine
 62
7
  6
CONTINUOUS
 10
4.8087305901
 20
3.3639687756
 11
4.8087305901
 21
3.6964687756
  0
LINE
  5
279
100
AcDbEntity
  8
ALL_ASSEMBLY_MEMBERS
100
AcDbLine
 62
7
  6
CONTINUOUS
 10
4.8373329523
 20
5.1784841901
 11
4.8373329523
 21
5.1638921277
  0
LINE
  5
27A
100
AcDbEntity
  8
ALL_ASSEMBLY_MEMBERS
100
AcDbLine
 62
7
  6
CONTINUOUS
 10
4.8455843056
 20
5.1766601829
 11
4.8455843056
 21
5.1055238937
  0
LINE
  5
27B
100
AcDbEntity
  8
ALL_ASSEMBLY_MEMBERS
100
AcDbLine
 62
7
  6
CONTINUOUS
 10
4.853835659
 20
5.1912522401
 11
4.853835659
 21
5.1055238937
  0
LINE
  5
27C
100
AcDbEntity
  8
ALL_ASSEMBLY_MEMBERS
100
AcDbLine
 62
7
  6
CONTINUOUS
 10
4.8648374628
 20
5.1565960991
 11
4.8648374628
 21
5.1401800347
  0
LINE
  5
27D
100
AcDbEntity
  8
ALL_ASSEMBLY_MEMBERS
100
AcDbLine
 62
7
  6
CONTINUOUS
 10
4.8717135899
 20
5.154772092
 11
4.8717135899
 21
5.1420040419
  0
LINE
  5
27E
100
AcDbEntity
  8
ALL_ASSEMBLY_MEMBERS
100
AcDbLine
 62
7
  6
CONTINUOUS
 10
4.8767305901
 20
4.7763889793
 11
4.8767305901
 21
4.7819169857
  0
LINE
  5
27F
100
AcDbEntity
  8
ALL_ASSEMBLY_MEMBERS
100
AcDbLine
 62
7
  6
CONTINUOUS
 10
4.8962311054
 20
5.3710440152
 11
4.8962311054
 21
5.2983191693
  0
LINE
  5
280
100
AcDbEntity
  8
ALL_ASSEMBLY_MEMBERS
100
AcDbLine
 62
7
  6
CONTINUOUS
 10
4.9074694557
 20
5.154772092
 11
4.9074694557
 21
5.1420040419
  0
LINE
  5
281
100
AcDbEntity
  8
ALL_ASSEMBLY_MEMBERS
100
AcDbLine
 62
7
  6
CONTINUOUS
 10
4.9143455809
 20
5.1565960991
 11
4.9143455809
 21
5.1401800347
  0
LINE
  5
282
100
AcDbEntity
  8
ALL_ASSEMBLY_MEMBERS
100
AcDbLine
 62
7
  6
CONTINUOUS
 10
4.9162300747
 20
5.3710440152
 11
4.9162300747
 21
5.2983191693
  0
LINE
  5
283
100
AcDbEntity
  8
ALL_ASSEMBLY_MEMBERS
100
AcDbLine
 62
7
  6
CONTINUOUS
 10
4.9253473906
 20
5.1565960991
 11
4.9253473906
 21
5.1401800347
  0
LINE
  5
284
100
AcDbEntity
  8
ALL_ASSEMBLY_MEMBERS
100
AcDbLine
 62
7
  6
CONTINUOUS
 10
4.8730888181
 20
5.1657161349
 11
4.8717135899
 21
5.154772092
  0
LINE
  5
285
100
AcDbEntity
  8
ALL_ASSEMBLY_MEMBERS
100
AcDbLine
 62
7
  6
CONTINUOUS
 10
4.9074694557
 20
5.1420040419
 11
4.9060942275
 21
5.1310599964
  0
LINE
  5
286
100
AcDbEntity
  8
ALL_ASSEMBLY_MEMBERS
100
AcDbLine
 62
7
  6
CONTINUOUS
 10
4.9335987439
 20
5.1657161349
 11
4.9322235158
 21
5.154772092
  0
LINE
  5
287
100
AcDbEntity
  8
ALL_ASSEMBLY_MEMBERS
100
AcDbLine
 62
7
  6
CONTINUOUS
 10
4.9679793776
 20
5.1420040419
 11
4.9666041573
 21
5.1310599964
  0
LINE
  5
288
100
AcDbEntity
  8
ALL_ASSEMBLY_MEMBERS
100
AcDbLine
 62
7
  6
CONTINUOUS
 10
4.9143455809
 20
5.1401800347
 11
4.9129703606
 21
5.1310599964
  0
LINE
  5
289
100
AcDbEntity
  8
ALL_ASSEMBLY_MEMBERS
100
AcDbLine
 62
7
  6
CONTINUOUS
 10
4.9267226109
 20
5.1657161349
 11
4.9253473906
 21
5.1565960991
  0
LINE
  5
28A
100
AcDbEntity
  8
ALL_ASSEMBLY_MEMBERS
100
AcDbLine
 62
7
  6
CONTINUOUS
 10
4.9748555028
 20
5.1401800347
 11
4.9734802825
 21
5.1310599964
  0
LINE
  5
28B
100
AcDbEntity
  8
ALL_ASSEMBLY_MEMBERS
100
AcDbLine
 62
7
  6
CONTINUOUS
 10
4.9734802825
 20
5.1310599964
 11
4.9721050622
 21
5.1255879749
  0
LINE
  5
28C
100
AcDbEntity
  8
ALL_ASSEMBLY_MEMBERS
100
AcDbLine
 62
7
  6
CONTINUOUS
 10
4.5829593793
 20
4.4214687756
 11
5.2295018009
 21
4.4214687756
  0
LINE
  5
28D
100
AcDbEntity
  8
ALL_ASSEMBLY_MEMBERS
100
AcDbLine
 62
7
  6
CONTINUOUS
 10
4.9322235158
 20
5.154772092
 11
4.9322235158
 21
5.1420040419
  0
LINE
  5
28E
100
AcDbEntity
  8
ALL_ASSEMBLY_MEMBERS
100
AcDbLine
 62
7
  6
CONTINUOUS
 10
4.9357305901
 20
4.7763889793
 11
4.9357305901
 21
4.7819169857
  0
LINE
  5
28F
100
AcDbEntity
  8
ALL_ASSEMBLY_MEMBERS
100
AcDbLine
 62
7
  6
CONTINUOUS
 10
4.9679793776
 20
5.154772092
 11
4.9679793776
 21
5.1420040419
  0
LINE
  5
290
100
AcDbEntity
  8
ALL_ASSEMBLY_MEMBERS
100
AcDbLine
 62
7
  6
CONTINUOUS
 10
4.9748555028
 20
5.1565960991
 11
4.9748555028
 21
5.1401800347
  0
LINE
  5
291
100
AcDbEntity
  8
ALL_ASSEMBLY_MEMBERS
100
AcDbLine
 62
7
  6
CONTINUOUS
 10
5.0037305901
 20
3.3639687756
 11
5.0037305901
 21
3.6964687756
  0
LINE
  5
292
100
AcDbEntity
  8
ALL_ASSEMBLY_MEMBERS
100
AcDbLine
 62
7
  6
CONTINUOUS
 10
5.0249805901
 20
3.7663905741
 11
5.0249805901
 21
3.7913905741
  0
LINE
  5
293
100
AcDbEntity
  8
ALL_ASSEMBLY_MEMBERS
100
AcDbLine
 62
7
  6
CONTINUOUS
 10
4.4212305901
 20
4.6190048502
 11
5.3912305901
 21
4.6190048502
  0
LINE
  5
294
100
AcDbEntity
  8
ALL_ASSEMBLY_MEMBERS
100
AcDbLine
 62
7
  6
CONTINUOUS
 10
4.8703383657
 20
5.118291945
 11
4.8675879152
 21
5.1255879749
  0
LINE
  5
295
100
AcDbEntity
  8
ALL_ASSEMBLY_MEMBERS
100
AcDbLine
 62
7
  6
CONTINUOUS
 10
4.8675879152
 20
5.1255879749
 11
4.866212689
 21
5.1310599964
  0
LINE
  5
296
100
AcDbEntity
  8
ALL_ASSEMBLY_MEMBERS
100
AcDbLine
 62
7
  6
CONTINUOUS
 10
4.9129703606
 20
5.1657161349
 11
4.9115951324
 21
5.1711881615
  0
LINE
  5
297
100
AcDbEntity
  8
ALL_ASSEMBLY_MEMBERS
100
AcDbLine
 62
7
  6
CONTINUOUS
 10
4.9280978391
 20
5.1255879749
 11
4.9267226109
 21
5.1310599964
  0
LINE
  5
298
100
AcDbEntity
  8
ALL_ASSEMBLY_MEMBERS
100
AcDbLine
 62
7
  6
CONTINUOUS
 10
4.866212689
 20
5.1310599964
 11
4.8648374628
 21
5.1401800347
  0
LINE
  5
299
100
AcDbEntity
  8
ALL_ASSEMBLY_MEMBERS
100
AcDbLine
 62
7
  6
CONTINUOUS
 10
4.9143455809
 20
5.1565960991
 11
4.9129703606
 21
5.1657161349
  0
LINE
  5
29A
100
AcDbEntity
  8
ALL_ASSEMBLY_MEMBERS
100
AcDbLine
 62
7
  6
CONTINUOUS
 10
4.9267226109
 20
5.1310599964
 11
4.9253473906
 21
5.1401800347
  0
LINE
  5
29B
100
AcDbEntity
  8
ALL_ASSEMBLY_MEMBERS
100
AcDbLine
 62
7
  6
CONTINUOUS
 10
4.9748555028
 20
5.1565960991
 11
4.9734802825
 21
5.1657161349
  0
LINE
  5
29C
100
AcDbEntity
  8
ALL_ASSEMBLY_MEMBERS
100
AcDbLine
 62
7
  6
CONTINUOUS
 10
4.8730888181
 20
5.1310599964
 11
4.8717135899
 21
5.1420040419
  0
LINE
  5
29D
100
AcDbEntity
  8
ALL_ASSEMBLY_MEMBERS
100
AcDbLine
 62
7
  6
CONTINUOUS
 10
4.9074694557
 20
5.154772092
 11
4.9060942275
 21
5.1657161349
  0
LINE
  5
29E
100
AcDbEntity
  8
ALL_ASSEMBLY_MEMBERS
100
AcDbLine
 62
7
  6
CONTINUOUS
 10
4.9335987439
 20
5.1310599964
 11
4.9322235158
 21
5.1420040419
  0
LINE
  5
29F
100
AcDbEntity
  8
ALL_ASSEMBLY_MEMBERS
100
AcDbLine
 62
7
  6
CONTINUOUS
 10
4.9679793776
 20
5.154772092
 11
4.9666041573
 21
5.1657161349
  0
LINE
  5
2A0
100
AcDbEntity
  8
ALL_ASSEMBLY_MEMBERS
100
AcDbLine
 62
7
  6
CONTINUOUS
 10
5.0824805901
 20
4.0964687756
 11
5.0824805901
 21
4.2964687756
  0
LINE
  5
2A1
100
AcDbEntity
  8
ALL_ASSEMBLY_MEMBERS
100
AcDbLine
 62
7
  6
CONTINUOUS
 10
5.1722783727
 20
5.1941065709
 11
5.1722783727
 21
5.1055238937
  0
LINE
  5
2A2
100
AcDbEntity
  8
ALL_ASSEMBLY_MEMBERS
100
AcDbLine
 62
7
  6
CONTINUOUS
 10
5.1736936149
 20
5.1941065709
 11
5.1736936149
 21
5.1055238937
  0
LINE
  5
2A3
100
AcDbEntity
  8
ALL_ASSEMBLY_MEMBERS
100
AcDbLine
 62
7
  6
CONTINUOUS
 10
5.1946561672
 20
5.1941065709
 11
5.1946561672
 21
5.1055238937
  0
LINE
  5
2A4
100
AcDbEntity
  8
ALL_ASSEMBLY_MEMBERS
100
AcDbLine
 62
7
  6
CONTINUOUS
 10
4.932746856
 20
4.7832187756
 11
4.9116371967
 21
4.7832187756
  0
LINE
  5
2A5
100
AcDbEntity
  8
ALL_ASSEMBLY_MEMBERS
100
AcDbLine
 62
7
  6
CONTINUOUS
 10
4.9008239835
 20
4.7832187756
 11
4.8797143241
 21
4.7832187756
  0
LINE
  5
2A6
100
AcDbEntity
  8
ALL_ASSEMBLY_MEMBERS
100
AcDbLine
 62
7
  6
CONTINUOUS
 10
4.8744640423
 20
5.1128199229
 11
4.8703383657
 21
5.118291945
  0
LINE
  5
2A7
100
AcDbEntity
  8
ALL_ASSEMBLY_MEMBERS
100
AcDbLine
 62
7
  6
CONTINUOUS
 10
4.878589719
 20
5.1201159522
 11
4.8730888181
 21
5.1310599964
  0
LINE
  5
2A8
100
AcDbEntity
  8
ALL_ASSEMBLY_MEMBERS
100
AcDbLine
 62
7
  6
CONTINUOUS
 10
4.9060942275
 20
5.1657161349
 11
4.9005933266
 21
5.1766601829
  0
LINE
  5
2A9
100
AcDbEntity
  8
ALL_ASSEMBLY_MEMBERS
100
AcDbLine
 62
7
  6
CONTINUOUS
 10
4.9390996409
 20
5.1201159522
 11
4.9335987439
 21
5.1310599964
  0
LINE
  5
2AA
100
AcDbEntity
  8
ALL_ASSEMBLY_MEMBERS
100
AcDbLine
 62
7
  6
CONTINUOUS
 10
4.9308482876
 20
5.118291945
 11
4.9280978391
 21
5.1255879749
  0
LINE
  5
2AB
100
AcDbEntity
  8
ALL_ASSEMBLY_MEMBERS
100
AcDbLine
 62
7
  6
CONTINUOUS
 10
4.9115951324
 20
5.1711881615
 11
4.9088446839
 21
5.1784841901
  0
LINE
  5
2AC
100
AcDbEntity
  8
ALL_ASSEMBLY_MEMBERS
100
AcDbLine
 62
7
  6
CONTINUOUS
 10
4.9721050622
 20
5.1711881615
 11
4.9693546058
 21
5.1784841901
  0
LINE
  5
2AD
100
AcDbEntity
  8
ALL_ASSEMBLY_MEMBERS
100
AcDbLine
 62
7
  6
CONTINUOUS
 10
4.9734802825
 20
5.1657161349
 11
4.9721050622
 21
5.1711881615
  0
LINE
  5
2AE
100
AcDbEntity
  8
ALL_ASSEMBLY_MEMBERS
100
AcDbLine
 62
7
  6
CONTINUOUS
 10
5.3312161132
 20
5.1784841901
 11
5.3312161132
 21
5.1638921277
  0
LINE
  5
2AF
100
AcDbEntity
  8
ALL_ASSEMBLY_MEMBERS
100
AcDbLine
 62
7
  6
CONTINUOUS
 10
5.3335577934
 20
5.1784841901
 11
5.3335577934
 21
5.1638921277
  0
LINE
  5
2B0
100
AcDbEntity
  8
ALL_ASSEMBLY_MEMBERS
100
AcDbLine
 62
7
  6
CONTINUOUS
 10
5.336219636
 20
5.1706224366
 11
5.336219636
 21
5.1055238937
  0
LINE
  5
2B1
100
AcDbEntity
  8
ALL_ASSEMBLY_MEMBERS
100
AcDbLine
 62
7
  6
CONTINUOUS
 10
5.3385543857
 20
5.1766601829
 11
5.3385543857
 21
5.1055238937
  0
LINE
  5
2B2
100
AcDbEntity
  8
ALL_ASSEMBLY_MEMBERS
100
AcDbLine
 62
7
  6
CONTINUOUS
 10
5.3433234434
 20
5.1912522401
 11
5.3433234434
 21
5.1055238937
  0
LINE
  5
2B3
100
AcDbEntity
  8
ALL_ASSEMBLY_MEMBERS
100
AcDbLine
 62
7
  6
CONTINUOUS
 10
5.3470077997
 20
5.1784841901
 11
5.3470077997
 21
5.1638921277
  0
LINE
  5
2B4
100
AcDbEntity
  8
ALL_ASSEMBLY_MEMBERS
100
AcDbLine
 62
7
  6
CONTINUOUS
 10
5.3493310607
 20
5.1784841901
 11
5.3493310607
 21
5.1638921277
  0
LINE
  5
2B5
100
AcDbEntity
  8
ALL_ASSEMBLY_MEMBERS
100
AcDbLine
 62
7
  6
CONTINUOUS
 10
5.3512547621
 20
5.1695984207
 11
5.3512547621
 21
5.1055238937
  0
LINE
  5
2B6
100
AcDbEntity
  8
ALL_ASSEMBLY_MEMBERS
100
AcDbLine
 62
7
  6
CONTINUOUS
 10
5.3535750522
 20
5.1766601829
 11
5.3535750522
 21
5.1055238937
  0
LINE
  5
2B7
100
AcDbEntity
  8
ALL_ASSEMBLY_MEMBERS
100
AcDbLine
 62
7
  6
CONTINUOUS
 10
5.3575956901
 20
5.1912522401
 11
5.3575956901
 21
5.1055238937
  0
LINE
  5
2B8
100
AcDbEntity
  8
ALL_ASSEMBLY_MEMBERS
100
AcDbLine
 62
7
  6
CONTINUOUS
 10
5.3602921417
 20
5.1912522401
 11
5.3602921417
 21
5.143828049
  0
LINE
  5
2B9
100
AcDbEntity
  8
ALL_ASSEMBLY_MEMBERS
100
AcDbLine
 62
7
  6
CONTINUOUS
 10
5.3626099589
 20
5.1912522401
 11
5.3626099589
 21
5.143828049
  0
LINE
  5
2BA
100
AcDbEntity
  8
ALL_ASSEMBLY_MEMBERS
100
AcDbLine
 62
7
  6
CONTINUOUS
 10
5.3655428844
 20
5.1821322044
 11
5.3655428844
 21
5.1529480848
  0
LINE
  5
2BB
100
AcDbEntity
  8
ALL_ASSEMBLY_MEMBERS
100
AcDbLine
 62
7
  6
CONTINUOUS
 10
5.3759559837
 20
5.1347080107
 11
5.3759559837
 21
5.1310599964
  0
LINE
  5
2BC
100
AcDbEntity
  8
ALL_ASSEMBLY_MEMBERS
100
AcDbLine
 62
7
  6
CONTINUOUS
 10
5.378290573
 20
5.1347080107
 11
5.378290573
 21
5.1310599964
  0
LINE
  5
2BD
100
AcDbEntity
  8
ALL_ASSEMBLY_MEMBERS
100
AcDbLine
 62
7
  6
CONTINUOUS
 10
5.3794888398
 20
5.1912522401
 11
5.3794888398
 21
5.1821322044
  0
LINE
  5
2BE
100
AcDbEntity
  8
ALL_ASSEMBLY_MEMBERS
100
AcDbLine
 62
7
  6
CONTINUOUS
 10
5.3802559758
 20
5.1365320179
 11
5.3802559758
 21
5.1292359892
  0
LINE
  5
2BF
100
AcDbEntity
  8
ALL_ASSEMBLY_MEMBERS
100
AcDbLine
 62
7
  6
CONTINUOUS
 10
4.9836329165
 20
3.2070169363
 11
4.9844031766
 21
3.2102240908
  0
LINE
  5
2C0
100
AcDbEntity
  8
ALL_ASSEMBLY_MEMBERS
100
AcDbLine
 62
7
  6
CONTINUOUS
 10
5.0564805901
 20
4.0664580796
 11
5.0824805901
 21
4.0964687756
  0
LINE
  5
2C1
100
AcDbEntity
  8
ALL_ASSEMBLY_MEMBERS
100
AcDbLine
 62
7
  6
CONTINUOUS
 10
4.8813401714
 20
5.107347901
 11
4.8744640423
 21
5.1128199229
  0
LINE
  5
2C2
100
AcDbEntity
  8
ALL_ASSEMBLY_MEMBERS
100
AcDbLine
 62
7
  6
CONTINUOUS
 10
4.9418500973
 20
5.107347901
 11
4.9349739642
 21
5.1128199229
  0
LINE
  5
2C3
100
AcDbEntity
  8
ALL_ASSEMBLY_MEMBERS
100
AcDbLine
 62
7
  6
CONTINUOUS
 10
4.8827153957
 20
5.1164679379
 11
4.878589719
 21
5.1201159522
  0
LINE
  5
2C4
100
AcDbEntity
  8
ALL_ASSEMBLY_MEMBERS
100
AcDbLine
 62
7
  6
CONTINUOUS
 10
4.9432253176
 20
5.1164679379
 11
4.9390996409
 21
5.1201159522
  0
LINE
  5
2C5
100
AcDbEntity
  8
ALL_ASSEMBLY_MEMBERS
100
AcDbLine
 62
7
  6
CONTINUOUS
 10
4.9005933266
 20
5.1766601829
 11
4.8964676499
 21
5.1803081972
  0
LINE
  5
2C6
100
AcDbEntity
  8
ALL_ASSEMBLY_MEMBERS
100
AcDbLine
 62
7
  6
CONTINUOUS
 10
4.9349739642
 20
5.1128199229
 11
4.9308482876
 21
5.118291945
  0
LINE
  5
2C7
100
AcDbEntity
  8
ALL_ASSEMBLY_MEMBERS
100
AcDbLine
 62
7
  6
CONTINUOUS
 10
4.9088446839
 20
5.1784841901
 11
4.9047190072
 21
5.1839562115
  0
LINE
  5
2C8
100
AcDbEntity
  8
ALL_ASSEMBLY_MEMBERS
100
AcDbLine
 62
7
  6
CONTINUOUS
 10
4.9693546058
 20
5.1784841901
 11
4.9652289291
 21
5.1839562115
  0
LINE
  5
2C9
100
AcDbEntity
  8
ALL_ASSEMBLY_MEMBERS
100
AcDbLine
 62
7
  6
CONTINUOUS
 10
4.9666041573
 20
5.1657161349
 11
4.9611032525
 21
5.1766601829
  0
LINE
  5
2CA
100
AcDbEntity
  8
ALL_ASSEMBLY_MEMBERS
100
AcDbLine
 62
7
  6
CONTINUOUS
 10
5.3883442915
 20
5.1941065709
 11
5.3883442915
 21
5.1055238937
  0
LINE
  5
2CB
100
AcDbEntity
  8
ALL_ASSEMBLY_MEMBERS
100
AcDbLine
 62
7
  6
CONTINUOUS
 10
5.3885140546
 20
5.2433191693
 11
5.3885140546
 21
5.1941065709
  0
LINE
  5
2CC
100
AcDbEntity
  8
ALL_ASSEMBLY_MEMBERS
100
AcDbLine
 62
7
  6
CONTINUOUS
 10
5.3885140546
 20
5.1055238937
 11
5.3885140546
 21
5.0464687756
  0
LINE
  5
2CD
100
AcDbEntity
  8
ALL_ASSEMBLY_MEMBERS
100
AcDbLine
 62
7
  6
CONTINUOUS
 10
5.390811691
 20
5.1941065709
 11
5.390811691
 21
5.1055238937
  0
LINE
  5
2CE
100
AcDbEntity
  8
ALL_ASSEMBLY_MEMBERS
100
AcDbLine
 62
7
  6
CONTINUOUS
 10
5.3909805901
 20
5.1941065709
 11
5.3909805901
 21
5.1055238937
  0
LINE
  5
2CF
100
AcDbEntity
  8
ALL_ASSEMBLY_MEMBERS
100
AcDbLine
 62
7
  6
CONTINUOUS
 10
5.3912305901
 20
4.6190048502
 11
5.3912305901
 21
5.0464687756
  0
LINE
  5
2D0
100
AcDbEntity
  8
ALL_ASSEMBLY_MEMBERS
100
AcDbLine
 62
7
  6
CONTINUOUS
 10
5.3987305901
 20
5.2433191693
 11
5.3987305901
 21
5.3710440152
  0
LINE
  5
2D1
100
AcDbEntity
  8
ALL_ASSEMBLY_MEMBERS
100
AcDbLine
 62
7
  6
CONTINUOUS
 10
4.7405171703
 20
3.3077187756
 11
4.742273158
 21
3.3105848379
  0
LINE
  5
2D2
100
AcDbEntity
  8
ALL_ASSEMBLY_MEMBERS
100
AcDbLine
 62
7
  6
CONTINUOUS
 10
4.9569775758
 20
5.1164679379
 11
4.9501014506
 21
5.1146439307
  0
LINE
  5
2D3
100
AcDbEntity
  8
ALL_ASSEMBLY_MEMBERS
100
AcDbLine
 62
7
  6
CONTINUOUS
 10
4.8964676499
 20
5.1164679379
 11
4.8895915248
 21
5.1146439307
  0
LINE
  5
2D4
100
AcDbEntity
  8
ALL_ASSEMBLY_MEMBERS
100
AcDbLine
 62
7
  6
CONTINUOUS
 10
4.9501014506
 20
5.1821322044
 11
4.9432253176
 21
5.1803081972
  0
LINE
  5
2D5
100
AcDbEntity
  8
ALL_ASSEMBLY_MEMBERS
100
AcDbLine
 62
7
  6
CONTINUOUS
 10
4.8895915248
 20
5.1821322044
 11
4.8827153957
 21
5.1803081972
  0
LINE
  5
2D6
100
AcDbEntity
  8
ALL_ASSEMBLY_MEMBERS
100
AcDbLine
 62
7
  6
CONTINUOUS
 10
4.958352804
 20
5.107347901
 11
4.9501014506
 21
5.1055238937
  0
LINE
  5
2D7
100
AcDbEntity
  8
ALL_ASSEMBLY_MEMBERS
100
AcDbLine
 62
7
  6
CONTINUOUS
 10
4.8978428781
 20
5.107347901
 11
4.8895915248
 21
5.1055238937
  0
LINE
  5
2D8
100
AcDbEntity
  8
ALL_ASSEMBLY_MEMBERS
100
AcDbLine
 62
7
  6
CONTINUOUS
 10
4.9501014506
 20
5.1912522401
 11
4.9418500973
 21
5.189428233
  0
LINE
  5
2D9
100
AcDbEntity
  8
ALL_ASSEMBLY_MEMBERS
100
AcDbLine
 62
7
  6
CONTINUOUS
 10
4.4212305901
 20
5.0464687756
 11
5.3912305901
 21
5.0464687756
  0
LINE
  5
2DA
100
AcDbEntity
  8
ALL_ASSEMBLY_MEMBERS
100
AcDbLine
 62
7
  6
CONTINUOUS
 10
5.3909805901
 20
5.1055238937
 11
5.3883442915
 21
5.1055238937
  0
LINE
  5
2DB
100
AcDbEntity
  8
ALL_ASSEMBLY_MEMBERS
100
AcDbLine
 62
7
  6
CONTINUOUS
 10
5.3738868299
 20
5.1055238937
 11
5.3686221993
 21
5.1055238937
  0
LINE
  5
2DC
100
AcDbEntity
  8
ALL_ASSEMBLY_MEMBERS
100
AcDbLine
 62
7
  6
CONTINUOUS
 10
5.3575956901
 20
5.1055238937
 11
5.3512547621
 21
5.1055238937
  0
LINE
  5
2DD
100
AcDbEntity
  8
ALL_ASSEMBLY_MEMBERS
100
AcDbLine
 62
7
  6
CONTINUOUS
 10
5.3433234434
 20
5.1055238937
 11
5.336219636
 21
5.1055238937
  0
LINE
  5
2DE
100
AcDbEntity
  8
ALL_ASSEMBLY_MEMBERS
100
AcDbLine
 62
7
  6
CONTINUOUS
 10
5.1946561672
 20
5.1055238937
 11
5.1722783727
 21
5.1055238937
  0
LINE
  5
2DF
100
AcDbEntity
  8
ALL_ASSEMBLY_MEMBERS
100
AcDbLine
 62
7
  6
CONTINUOUS
 10
4.853835659
 20
5.1055238937
 11
4.8455843056
 21
5.1055238937
  0
LINE
  5
2E0
100
AcDbEntity
  8
ALL_ASSEMBLY_MEMBERS
100
AcDbLine
 62
7
  6
CONTINUOUS
 10
4.4216494891
 20
5.1055238937
 11
4.4241168886
 21
5.1055238937
  0
LINE
  5
2E1
100
AcDbEntity
  8
ALL_ASSEMBLY_MEMBERS
100
AcDbLine
 62
7
  6
CONTINUOUS
 10
4.4411212612
 20
5.1055238937
 11
4.4455826162
 21
5.1055238937
  0
LINE
  5
2E2
100
AcDbEntity
  8
ALL_ASSEMBLY_MEMBERS
100
AcDbLine
 62
7
  6
CONTINUOUS
 10
4.4592860052
 20
5.1055238937
 11
4.4645278489
 21
5.1055238937
  0
LINE
  5
2E3
100
AcDbEntity
  8
ALL_ASSEMBLY_MEMBERS
100
AcDbLine
 62
7
  6
CONTINUOUS
 10
4.6178050129
 20
5.1055238937
 11
4.6401828074
 21
5.1055238937
  0
LINE
  5
2E4
100
AcDbEntity
  8
ALL_ASSEMBLY_MEMBERS
100
AcDbLine
 62
7
  6
CONTINUOUS
 10
5.3683210776
 20
5.107347901
 11
5.3660012262
 21
5.107347901
  0
LINE
  5
2E5
100
AcDbEntity
  8
ALL_ASSEMBLY_MEMBERS
100
AcDbLine
 62
7
  6
CONTINUOUS
 10
4.4451274384
 20
5.107347901
 11
4.4474466866
 21
5.107347901
  0
LINE
  5
2E6
100
AcDbEntity
  8
ALL_ASSEMBLY_MEMBERS
100
AcDbLine
 62
7
  6
CONTINUOUS
 10
4.4647195287
 20
5.107347901
 11
4.4670441491
 21
5.107347901
  0
LINE
  5
2E7
100
AcDbEntity
  8
ALL_ASSEMBLY_MEMBERS
100
AcDbLine
 62
7
  6
CONTINUOUS
 10
5.3655428844
 20
5.1128199229
 11
5.3632244465
 21
5.1128199229
  0
LINE
  5
2E8
100
AcDbEntity
  8
ALL_ASSEMBLY_MEMBERS
100
AcDbLine
 62
7
  6
CONTINUOUS
 10
4.4470664891
 20
5.1128199229
 11
4.4493848753
 21
5.1128199229
  0
LINE
  5
2E9
100
AcDbEntity
  8
ALL_ASSEMBLY_MEMBERS
100
AcDbLine
 62
7
  6
CONTINUOUS
 10
4.4673079871
 20
5.1128199229
 11
4.4696350848
 21
5.1128199229
  0
LINE
  5
2EA
100
AcDbEntity
  8
ALL_ASSEMBLY_MEMBERS
100
AcDbLine
 62
7
  6
CONTINUOUS
 10
5.3738868299
 20
5.1146439307
 11
5.3709442613
 21
5.1146439307
  0
LINE
  5
2EB
100
AcDbEntity
  8
ALL_ASSEMBLY_MEMBERS
100
AcDbLine
 62
7
  6
CONTINUOUS
 10
4.4622053193
 20
5.1146439307
 11
4.4592860052
 21
5.1146439307
  0
LINE
  5
2EC
100
AcDbEntity
  8
ALL_ASSEMBLY_MEMBERS
100
AcDbLine
 62
7
  6
CONTINUOUS
 10
4.4428979239
 20
5.1146439307
 11
4.4414706758
 21
5.1146439307
  0
LINE
  5
2ED
100
AcDbEntity
  8
ALL_ASSEMBLY_MEMBERS
100
AcDbLine
 62
7
  6
CONTINUOUS
 10
5.3757236577
 20
5.1164679379
 11
5.3733947529
 21
5.1164679379
  0
LINE
  5
2EE
100
AcDbEntity
  8
ALL_ASSEMBLY_MEMBERS
100
AcDbLine
 62
7
  6
CONTINUOUS
 10
4.4400907947
 20
5.1164679379
 11
4.4424144766
 21
5.1164679379
  0
LINE
  5
2EF
100
AcDbEntity
  8
ALL_ASSEMBLY_MEMBERS
100
AcDbLine
 62
7
  6
CONTINUOUS
 10
4.4573989022
 20
5.1164679379
 11
4.459718398
 21
5.1164679379
  0
LINE
  5
2F0
100
AcDbEntity
  8
ALL_ASSEMBLY_MEMBERS
100
AcDbLine
 62
7
  6
CONTINUOUS
 10
4.44826528
 20
5.118291945
 11
4.4505833303
 21
5.118291945
  0
LINE
  5
2F1
100
AcDbEntity
  8
ALL_ASSEMBLY_MEMBERS
100
AcDbLine
 62
7
  6
CONTINUOUS
 10
5.3770354399
 20
5.1201159522
 11
5.3747038429
 21
5.1201159522
  0
LINE
  5
2F2
100
AcDbEntity
  8
ALL_ASSEMBLY_MEMBERS
100
AcDbLine
 62
7
  6
CONTINUOUS
 10
5.3638016857
 20
5.1201159522
 11
5.3614837152
 21
5.1201159522
  0
LINE
  5
2F3
100
AcDbEntity
  8
ALL_ASSEMBLY_MEMBERS
100
AcDbLine
 62
7
  6
CONTINUOUS
 10
4.4387583772
 20
5.1201159522
 11
4.4410838778
 21
5.1201159522
  0
LINE
  5
2F4
100
AcDbEntity
  8
ALL_ASSEMBLY_MEMBERS
100
AcDbLine
 62
7
  6
CONTINUOUS
 10
4.4560145571
 20
5.1201159522
 11
4.458333439
 21
5.1201159522
  0
LINE
  5
2F5
100
AcDbEntity
  8
ALL_ASSEMBLY_MEMBERS
100
AcDbLine
 62
7
  6
CONTINUOUS
 10
4.4688968005
 20
5.1201159522
 11
4.4712255716
 21
5.1201159522
  0
LINE
  5
2F6
100
AcDbEntity
  8
ALL_ASSEMBLY_MEMBERS
100
AcDbLine
 62
7
  6
CONTINUOUS
 10
5.3778785041
 20
5.1255879749
 11
5.3755449458
 21
5.1255879749
  0
LINE
  5
2F7
100
AcDbEntity
  8
ALL_ASSEMBLY_MEMBERS
100
AcDbLine
 62
7
  6
CONTINUOUS
 10
5.3661109079
 20
5.1274119821
 11
5.3602921417
 21
5.1274119821
  0
LINE
  5
2F8
100
AcDbEntity
  8
ALL_ASSEMBLY_MEMBERS
100
AcDbLine
 62
7
  6
CONTINUOUS
 10
4.4377902778
 20
5.1274119821
 11
4.4401173052
 21
5.1274119821
  0
LINE
  5
2F9
100
AcDbEntity
  8
ALL_ASSEMBLY_MEMBERS
100
AcDbLine
 62
7
  6
CONTINUOUS
 10
4.4490792
 20
5.1274119821
 11
4.4513971016
 21
5.1274119821
  0
LINE
  5
2FA
100
AcDbEntity
  8
ALL_ASSEMBLY_MEMBERS
100
AcDbLine
 62
7
  6
CONTINUOUS
 10
4.4524526468
 20
5.1274119821
 11
4.4574249488
 21
5.1274119821
  0
LINE
  5
2FB
100
AcDbEntity
  8
ALL_ASSEMBLY_MEMBERS
100
AcDbLine
 62
7
  6
CONTINUOUS
 10
4.4699709338
 20
5.1292359892
 11
4.4723008991
 21
5.1292359892
  0
LINE
  5
2FC
100
AcDbEntity
  8
ALL_ASSEMBLY_MEMBERS
100
AcDbLine
 62
7
  6
CONTINUOUS
 10
5.378290573
 20
5.1310599964
 11
5.3759559837
 21
5.1310599964
  0
LINE
  5
2FD
100
AcDbEntity
  8
ALL_ASSEMBLY_MEMBERS
100
AcDbLine
 62
7
  6
CONTINUOUS
 10
4.4377902778
 20
5.1328840036
 11
4.4401173052
 21
5.1328840036
  0
LINE
  5
2FE
100
AcDbEntity
  8
ALL_ASSEMBLY_MEMBERS
100
AcDbLine
 62
7
  6
CONTINUOUS
 10
4.4490792
 20
5.1328840036
 11
4.4513971016
 21
5.1328840036
  0
LINE
  5
2FF
100
AcDbEntity
  8
ALL_ASSEMBLY_MEMBERS
100
AcDbLine
 62
7
  6
CONTINUOUS
 10
5.378290573
 20
5.1347080107
 11
5.3759559837
 21
5.1347080107
  0
LINE
  5
300
100
AcDbEntity
  8
ALL_ASSEMBLY_MEMBERS
100
AcDbLine
 62
7
  6
CONTINUOUS
 10
4.4699709338
 20
5.1365320179
 11
4.4723008991
 21
5.1365320179
  0
LINE
  5
301
100
AcDbEntity
  8
ALL_ASSEMBLY_MEMBERS
100
AcDbLine
 62
7
  6
CONTINUOUS
 10
5.3778785041
 20
5.1401800347
 11
5.3755449458
 21
5.1401800347
  0
LINE
  5
302
100
AcDbEntity
  8
ALL_ASSEMBLY_MEMBERS
100
AcDbLine
 62
7
  6
CONTINUOUS
 10
4.4387583772
 20
5.1401800347
 11
4.4410838778
 21
5.1401800347
  0
LINE
  5
303
100
AcDbEntity
  8
ALL_ASSEMBLY_MEMBERS
100
AcDbLine
 62
7
  6
CONTINUOUS
 10
4.44826528
 20
5.1420040419
 11
4.4505833303
 21
5.1420040419
  0
LINE
  5
304
100
AcDbEntity
  8
ALL_ASSEMBLY_MEMBERS
100
AcDbLine
 62
7
  6
CONTINUOUS
 10
5.3666727425
 20
5.143828049
 11
5.3602921417
 21
5.143828049
  0
LINE
  5
305
100
AcDbEntity
  8
ALL_ASSEMBLY_MEMBERS
100
AcDbLine
 62
7
  6
CONTINUOUS
 10
4.4400907947
 20
5.143828049
 11
4.4424144766
 21
5.143828049
  0
LINE
  5
306
100
AcDbEntity
  8
ALL_ASSEMBLY_MEMBERS
100
AcDbLine
 62
7
  6
CONTINUOUS
 10
4.4524526468
 20
5.143828049
 11
4.4578777126
 21
5.143828049
  0
LINE
  5
307
100
AcDbEntity
  8
ALL_ASSEMBLY_MEMBERS
100
AcDbLine
 62
7
  6
CONTINUOUS
 10
5.3770354399
 20
5.1456520562
 11
5.3747038429
 21
5.1456520562
  0
LINE
  5
308
100
AcDbEntity
  8
ALL_ASSEMBLY_MEMBERS
100
AcDbLine
 62
7
  6
CONTINUOUS
 10
4.4428979239
 20
5.1456520562
 11
4.4414706758
 21
5.1456520562
  0
LINE
  5
309
100
AcDbEntity
  8
ALL_ASSEMBLY_MEMBERS
100
AcDbLine
 62
7
  6
CONTINUOUS
 10
4.4688968005
 20
5.1456520562
 11
4.4712255716
 21
5.1456520562
  0
LINE
  5
30A
100
AcDbEntity
  8
ALL_ASSEMBLY_MEMBERS
100
AcDbLine
 62
7
  6
CONTINUOUS
 10
4.4466727844
 20
5.1474760633
 11
4.4489913128
 21
5.1474760633
  0
LINE
  5
30B
100
AcDbEntity
  8
ALL_ASSEMBLY_MEMBERS
100
AcDbLine
 62
7
  6
CONTINUOUS
 10
5.3757236577
 20
5.1493000705
 11
5.3733947529
 21
5.1493000705
  0
LINE
  5
30C
100
AcDbEntity
  8
ALL_ASSEMBLY_MEMBERS
100
AcDbLine
 62
7
  6
CONTINUOUS
 10
4.4458942147
 20
5.1493000705
 11
4.4482130728
 21
5.1493000705
  0
LINE
  5
30D
100
AcDbEntity
  8
ALL_ASSEMBLY_MEMBERS
100
AcDbLine
 62
7
  6
CONTINUOUS
 10
4.4573989022
 20
5.1493000705
 11
4.459718398
 21
5.1493000705
  0
LINE
  5
30E
100
AcDbEntity
  8
ALL_ASSEMBLY_MEMBERS
100
AcDbLine
 62
7
  6
CONTINUOUS
 10
5.3738868299
 20
5.1511240776
 11
5.3709442613
 21
5.1511240776
  0
LINE
  5
30F
100
AcDbEntity
  8
ALL_ASSEMBLY_MEMBERS
100
AcDbLine
 62
7
  6
CONTINUOUS
 10
4.4622053193
 20
5.1511240776
 11
4.4592860052
 21
5.1511240776
  0
LINE
  5
310
100
AcDbEntity
  8
ALL_ASSEMBLY_MEMBERS
100
AcDbLine
 62
7
  6
CONTINUOUS
 10
4.4466727844
 20
5.1511240776
 11
4.4489913128
 21
5.1511240776
  0
LINE
  5
311
100
AcDbEntity
  8
ALL_ASSEMBLY_MEMBERS
100
AcDbLine
 62
7
  6
CONTINUOUS
 10
4.4428979239
 20
5.1529480848
 11
4.4414706758
 21
5.1529480848
  0
LINE
  5
312
100
AcDbEntity
  8
ALL_ASSEMBLY_MEMBERS
100
AcDbLine
 62
7
  6
CONTINUOUS
 10
4.4673079871
 20
5.1529480848
 11
4.4696350848
 21
5.1529480848
  0
LINE
  5
313
100
AcDbEntity
  8
ALL_ASSEMBLY_MEMBERS
100
AcDbLine
 62
7
  6
CONTINUOUS
 10
4.4400907947
 20
5.154772092
 11
4.4424144766
 21
5.154772092
  0
LINE
  5
314
100
AcDbEntity
  8
ALL_ASSEMBLY_MEMBERS
100
AcDbLine
 62
7
  6
CONTINUOUS
 10
4.4478627379
 20
5.1565960991
 11
4.4501808851
 21
5.1565960991
  0
LINE
  5
315
100
AcDbEntity
  8
ALL_ASSEMBLY_MEMBERS
100
AcDbLine
 62
7
  6
CONTINUOUS
 10
5.3683210776
 20
5.1584201063
 11
5.3660012262
 21
5.1584201063
  0
LINE
  5
316
100
AcDbEntity
  8
ALL_ASSEMBLY_MEMBERS
100
AcDbLine
 62
7
  6
CONTINUOUS
 10
4.4647195287
 20
5.1584201063
 11
4.4670441491
 21
5.1584201063
  0
LINE
  5
317
100
AcDbEntity
  8
ALL_ASSEMBLY_MEMBERS
100
AcDbLine
 62
7
  6
CONTINUOUS
 10
5.3738868299
 20
5.1602441134
 11
5.3686221993
 21
5.1602441134
  0
LINE
  5
318
100
AcDbEntity
  8
ALL_ASSEMBLY_MEMBERS
100
AcDbLine
 62
7
  6
CONTINUOUS
 10
4.4387583772
 20
5.1602441134
 11
4.4410838778
 21
5.1602441134
  0
LINE
  5
319
100
AcDbEntity
  8
ALL_ASSEMBLY_MEMBERS
100
AcDbLine
 62
7
  6
CONTINUOUS
 10
4.4592860052
 20
5.1602441134
 11
4.4645278489
 21
5.1602441134
  0
LINE
  5
31A
100
AcDbEntity
  8
ALL_ASSEMBLY_MEMBERS
100
AcDbLine
 62
7
  6
CONTINUOUS
 10
5.3493310607
 20
5.1638921277
 11
5.3470077997
 21
5.1638921277
  0
LINE
  5
31B
100
AcDbEntity
  8
ALL_ASSEMBLY_MEMBERS
100
AcDbLine
 62
7
  6
CONTINUOUS
 10
5.3335577934
 20
5.1638921277
 11
5.3312161132
 21
5.1638921277
  0
LINE
  5
31C
100
AcDbEntity
  8
ALL_ASSEMBLY_MEMBERS
100
AcDbLine
 62
7
  6
CONTINUOUS
 10
4.4486707682
 20
5.1638921277
 11
4.4509887367
 21
5.1638921277
  0
LINE
  5
31D
100
AcDbEntity
  8
ALL_ASSEMBLY_MEMBERS
100
AcDbLine
 62
7
  6
CONTINUOUS
 10
4.4381100011
 20
5.1657161349
 11
4.440436504
 21
5.1657161349
  0
LINE
  5
31E
100
AcDbEntity
  8
ALL_ASSEMBLY_MEMBERS
100
AcDbLine
 62
7
  6
CONTINUOUS
 10
4.8895915248
 20
5.1055238937
 11
4.8813401714
 21
5.107347901
  0
LINE
  5
31F
100
AcDbEntity
  8
ALL_ASSEMBLY_MEMBERS
100
AcDbLine
 62
7
  6
CONTINUOUS
 10
4.9501014506
 20
5.1055238937
 11
4.9418500973
 21
5.107347901
  0
LINE
  5
320
100
AcDbEntity
  8
ALL_ASSEMBLY_MEMBERS
100
AcDbLine
 62
7
  6
CONTINUOUS
 10
4.8895915248
 20
5.1146439307
 11
4.8827153957
 21
5.1164679379
  0
LINE
  5
321
100
AcDbEntity
  8
ALL_ASSEMBLY_MEMBERS
100
AcDbLine
 62
7
  6
CONTINUOUS
 10
4.9501014506
 20
5.1146439307
 11
4.9432253176
 21
5.1164679379
  0
LINE
  5
322
100
AcDbEntity
  8
ALL_ASSEMBLY_MEMBERS
100
AcDbLine
 62
7
  6
CONTINUOUS
 10
4.8964676499
 20
5.1803081972
 11
4.8895915248
 21
5.1821322044
  0
LINE
  5
323
100
AcDbEntity
  8
ALL_ASSEMBLY_MEMBERS
100
AcDbLine
 62
7
  6
CONTINUOUS
 10
4.9047190072
 20
5.1839562115
 11
4.8978428781
 21
5.189428233
  0
LINE
  5
324
100
AcDbEntity
  8
ALL_ASSEMBLY_MEMBERS
100
AcDbLine
 62
7
  6
CONTINUOUS
 10
4.9652289291
 20
5.1839562115
 11
4.958352804
 21
5.189428233
  0
LINE
  5
325
100
AcDbEntity
  8
ALL_ASSEMBLY_MEMBERS
100
AcDbLine
 62
7
  6
CONTINUOUS
 10
4.9611032525
 20
5.1766601829
 11
4.9569775758
 21
5.1803081972
  0
LINE
  5
326
100
AcDbEntity
  8
ALL_ASSEMBLY_MEMBERS
100
AcDbLine
 62
7
  6
CONTINUOUS
 10
5.0719440099
 20
3.4202187756
 11
5.0701880221
 21
3.4173527132
  0
LINE
  5
327
100
AcDbEntity
  8
ALL_ASSEMBLY_MEMBERS
100
AcDbLine
 62
7
  6
CONTINUOUS
 10
4.8895915248
 20
5.1912522401
 11
4.8813401714
 21
5.189428233
  0
LINE
  5
328
100
AcDbEntity
  8
ALL_ASSEMBLY_MEMBERS
100
AcDbLine
 62
7
  6
CONTINUOUS
 10
4.4381100011
 20
5.1693641492
 11
4.440436504
 21
5.1693641492
  0
LINE
  5
329
100
AcDbEntity
  8
ALL_ASSEMBLY_MEMBERS
100
AcDbLine
 62
7
  6
CONTINUOUS
 10
4.4486707682
 20
5.1693641492
 11
4.4509887367
 21
5.1693641492
  0
LINE
  5
32A
100
AcDbEntity
  8
ALL_ASSEMBLY_MEMBERS
100
AcDbLine
 62
7
  6
CONTINUOUS
 10
4.4387583772
 20
5.1748361758
 11
4.4410838778
 21
5.1748361758
  0
LINE
  5
32B
100
AcDbEntity
  8
ALL_ASSEMBLY_MEMBERS
100
AcDbLine
 62
7
  6
CONTINUOUS
 10
5.3493310607
 20
5.1784841901
 11
5.3470077997
 21
5.1784841901
  0
LINE
  5
32C
100
AcDbEntity
  8
ALL_ASSEMBLY_MEMBERS
100
AcDbLine
 62
7
  6
CONTINUOUS
 10
5.3335577934
 20
5.1784841901
 11
5.3312161132
 21
5.1784841901
  0
LINE
  5
32D
100
AcDbEntity
  8
ALL_ASSEMBLY_MEMBERS
100
AcDbLine
 62
7
  6
CONTINUOUS
 10
4.4478627379
 20
5.1784841901
 11
4.4501808851
 21
5.1784841901
  0
LINE
  5
32E
100
AcDbEntity
  8
ALL_ASSEMBLY_MEMBERS
100
AcDbLine
 62
7
  6
CONTINUOUS
 10
4.4400907947
 20
5.1803081972
 11
4.4424144766
 21
5.1803081972
  0
LINE
  5
32F
100
AcDbEntity
  8
ALL_ASSEMBLY_MEMBERS
100
AcDbLine
 62
7
  6
CONTINUOUS
 10
5.3794888398
 20
5.1821322044
 11
5.3655428844
 21
5.1821322044
  0
LINE
  5
330
100
AcDbEntity
  8
ALL_ASSEMBLY_MEMBERS
100
AcDbLine
 62
7
  6
CONTINUOUS
 10
4.4428979239
 20
5.1821322044
 11
4.4414706758
 21
5.1821322044
  0
LINE
  5
331
100
AcDbEntity
  8
ALL_ASSEMBLY_MEMBERS
100
AcDbLine
 62
7
  6
CONTINUOUS
 10
4.4546567454
 20
5.1821322044
 11
4.4712255716
 21
5.1821322044
  0
LINE
  5
332
100
AcDbEntity
  8
ALL_ASSEMBLY_MEMBERS
100
AcDbLine
 62
7
  6
CONTINUOUS
 10
4.4466727844
 20
5.1839562115
 11
4.4489913128
 21
5.1839562115
  0
LINE
  5
333
100
AcDbEntity
  8
ALL_ASSEMBLY_MEMBERS
100
AcDbLine
 62
7
  6
CONTINUOUS
 10
4.4447484731
 20
5.189428233
 11
4.447067939
 21
5.189428233
  0
LINE
  5
334
100
AcDbEntity
  8
ALL_ASSEMBLY_MEMBERS
100
AcDbLine
 62
7
  6
CONTINUOUS
 10
5.3794888398
 20
5.1912522401
 11
5.3602921417
 21
5.1912522401
  0
LINE
  5
335
100
AcDbEntity
  8
ALL_ASSEMBLY_MEMBERS
100
AcDbLine
 62
7
  6
CONTINUOUS
 10
5.3575956901
 20
5.1912522401
 11
5.3512547621
 21
5.1912522401
  0
LINE
  5
336
100
AcDbEntity
  8
ALL_ASSEMBLY_MEMBERS
100
AcDbLine
 62
7
  6
CONTINUOUS
 10
5.3433234434
 20
5.1912522401
 11
5.336219636
 21
5.1912522401
  0
LINE
  5
337
100
AcDbEntity
  8
ALL_ASSEMBLY_MEMBERS
100
AcDbLine
 62
7
  6
CONTINUOUS
 10
4.853835659
 20
5.1912522401
 11
4.8455843056
 21
5.1912522401
  0
LINE
  5
338
100
AcDbEntity
  8
ALL_ASSEMBLY_MEMBERS
100
AcDbLine
 62
7
  6
CONTINUOUS
 10
4.4414706758
 20
5.1912522401
 11
4.4452187063
 21
5.1912522401
  0
LINE
  5
339
100
AcDbEntity
  8
ALL_ASSEMBLY_MEMBERS
100
AcDbLine
 62
7
  6
CONTINUOUS
 10
4.4524526468
 20
5.1912522401
 11
4.4712255716
 21
5.1912522401
  0
LINE
  5
33A
100
AcDbEntity
  8
ALL_ASSEMBLY_MEMBERS
100
AcDbLine
 62
7
  6
CONTINUOUS
 10
5.3909805901
 20
5.1941065709
 11
5.3883442915
 21
5.1941065709
  0
LINE
  5
33B
100
AcDbEntity
  8
ALL_ASSEMBLY_MEMBERS
100
AcDbLine
 62
7
  6
CONTINUOUS
 10
5.1946561672
 20
5.1941065709
 11
5.1722783727
 21
5.1941065709
  0
LINE
  5
33C
100
AcDbEntity
  8
ALL_ASSEMBLY_MEMBERS
100
AcDbLine
 62
7
  6
CONTINUOUS
 10
4.4216494891
 20
5.1941065709
 11
4.4241168886
 21
5.1941065709
  0
LINE
  5
33D
100
AcDbEntity
  8
ALL_ASSEMBLY_MEMBERS
100
AcDbLine
 62
7
  6
CONTINUOUS
 10
4.6178050129
 20
5.1941065709
 11
4.6401828074
 21
5.1941065709
  0
LINE
  5
33E
100
AcDbEntity
  8
ALL_ASSEMBLY_MEMBERS
100
AcDbLine
 62
7
  6
CONTINUOUS
 10
4.4137305901
 20
5.2433191693
 11
5.3987305901
 21
5.2433191693
  0
LINE
  5
33F
100
AcDbEntity
  8
ALL_ASSEMBLY_MEMBERS
100
AcDbLine
 62
7
  6
CONTINUOUS
 10
4.9162300747
 20
5.2983191693
 11
4.8962311054
 21
5.2983191693
  0
LINE
  5
340
100
AcDbEntity
  8
ALL_ASSEMBLY_MEMBERS
100
AcDbLine
 62
7
  6
CONTINUOUS
 10
4.8978428781
 20
5.189428233
 11
4.8895915248
 21
5.1912522401
  0
LINE
  5
341
100
AcDbEntity
  8
ALL_ASSEMBLY_MEMBERS
100
AcDbLine
 62
7
  6
CONTINUOUS
 10
4.958352804
 20
5.189428233
 11
4.9501014506
 21
5.1912522401
  0
LINE
  5
342
100
AcDbEntity
  8
ALL_ASSEMBLY_MEMBERS
100
AcDbLine
 62
7
  6
CONTINUOUS
 10
4.9569775758
 20
5.1803081972
 11
4.9501014506
 21
5.1821322044
  0
LINE
  5
343
100
AcDbEntity
  8
1_PLATE
100
AcDbLine
 62
7
  6
CONTINUOUS
 10
3.7187305901
 20
5.3710440152
 11
6.0937305901
 21
5.3710440152
  0
LINE
  5
344
100
AcDbEntity
  8
1_PLATE
100
AcDbLine
 62
7
  6
CONTINUOUS
 10
3.4102305901
 20
5.4022776243
 11
6.4022305901
 21
5.4022776243
  0
LINE
  5
345
100
AcDbEntity
  8
1_PLATE
100
AcDbLine
 62
7
  6
CONTINUOUS
 10
6.4848945975
 20
5.4335415928
 11
3.3275665826
 21
5.4335415928
  0
LINE
  5
346
100
AcDbEntity
  8
1_PLATE
100
AcDbLine
 62
7
  6
CONTINUOUS
 10
3.1562305901
 20
5.4486941693
 11
6.6562305901
 21
5.4486941693
  0
LINE
  5
347
100
AcDbEntity
  8
1_PLATE
100
AcDbLine
 62
7
  6
CONTINUOUS
 10
6.7812305901
 20
5.5736941693
 11
3.0312305901
 21
5.5736941693
  0
LINE
  5
348
100
AcDbEntity
  8
ALL_ASSEMBLY_MEMBERS
100
AcDbLine
 62
7
  6
CONTINUOUS
 10
4.8499805901
 20
3.1982553558
 11
4.8528466524
 21
3.2000113435
  0
LINE
  5
349
100
AcDbEntity
  8
1_PLATE
100
AcDbLine
 62
7
  6
CONTINUOUS
 10
6.7812305901
 20
5.6491941693
 11
3.0312305901
 21
5.6491941693
  0
LINE
  5
34A
100
AcDbEntity
  8
1_PLATE
100
AcDbLine
 62
7
  6
CONTINUOUS
 10
6.7812305901
 20
5.6491941693
 11
6.7812305901
 21
5.5736941693
  0
ARC
  5
34B
100
AcDbEntity
  8
ALL_ASSEMBLY_MEMBERS
100
AcDbCircle
 62
7
  6
CONTINUOUS
 10
4.5174805901
 20
3.7913905741
 40
0.27
100
AcDbArc
 50
0.0
 51
31.1347215689
  0
ARC
  5
34C
100
AcDbEntity
  8
ALL_ASSEMBLY_MEMBERS
100
AcDbCircle
 62
7
  6
CONTINUOUS
 10
4.5521194205
 20
4.268292539
 40
0.15625
100
AcDbArc
 50
18.8599610433
 51
78.6164589941
  0
ARC
  5
34D
100
AcDbEntity
  8
ALL_ASSEMBLY_MEMBERS
100
AcDbCircle
 62
7
  6
CONTINUOUS
 10
4.8517305901
 20
3.9932994335
 40
0.1205
100
AcDbArc
 50
142.6180391693
 51
211.1347215689
  0
ARC
  5
34E
100
AcDbEntity
  8
ALL_ASSEMBLY_MEMBERS
100
AcDbCircle
 62
7
  6
CONTINUOUS
 10
4.7312088691
 20
4.3294687756
 40
0.033
100
AcDbArc
 50
198.8599610433
 51
267.8686358817
  0
ARC
  5
34F
100
AcDbEntity
  8
ALL_ASSEMBLY_MEMBERS
100
AcDbCircle
 62
7
  6
CONTINUOUS
 10
4.7799805901
 20
3.7264687756
 40
0.03
100
AcDbArc
 50
93.5833216985
 51
270.0
  0
ARC
  5
350
100
AcDbEntity
  8
ALL_ASSEMBLY_MEMBERS
100
AcDbCircle
 62
7
  6
CONTINUOUS
 10
4.7774805901
 20
3.7663905741
 40
0.01
100
AcDbArc
 50
273.5833216985
 51
360.0
  0
ARC
  5
351
100
AcDbEntity
  8
ALL_ASSEMBLY_MEMBERS
100
AcDbCircle
 62
7
  6
CONTINUOUS
 10
4.6227305901
 20
4.6190048502
 40
0.2015
100
AcDbArc
 50
180.0
 51
258.6164589941
  0
ARC
  5
352
100
AcDbEntity
  8
1_PLATE
100
AcDbCircle
 62
7
  6
CONTINUOUS
 10
3.7187305901
 20
5.5586941693
 40
0.1876501541
100
AcDbArc
 50
236.5042044368
 51
270.0
  0
ARC
  5
353
100
AcDbEntity
  8
1_PLATE
100
AcDbCircle
 62
7
  6
CONTINUOUS
 10
3.2447305901
 20
5.3396941693
 40
0.1251764377
100
AcDbArc
 50
48.5662292994
 51
60.6409205307
  0
ARC
  5
354
100
AcDbEntity
  8
1_PLATE
100
AcDbCircle
 62
7
  6
CONTINUOUS
 10
3.1562305901
 20
5.5736941693
 40
0.125
100
AcDbArc
 50
180.0
 51
270.0
  0
ARC
  5
355
100
AcDbEntity
  8
1_PLATE
100
AcDbCircle
 62
7
  6
CONTINUOUS
 10
3.4102305901
 20
5.5271941693
 40
0.124916545
100
AcDbArc
 50
228.5662292994
 51
270.0
  0
ARC
  5
356
100
AcDbEntity
  8
ALL_ASSEMBLY_MEMBERS
100
AcDbCircle
 62
7
  6
CONTINUOUS
 10
5.2949805901
 20
3.7913905741
 40
0.27
100
AcDbArc
 50
148.8652784311
 51
180.0
  0
ARC
  5
357
100
AcDbEntity
  8
ALL_ASSEMBLY_MEMBERS
100
AcDbCircle
 62
7
  6
CONTINUOUS
 10
4.9062305901
 20
3.3639687756
 40
0.175
100
AcDbArc
 50
243.749340847
 51
251.250659153
  0
ARC
  5
358
100
AcDbEntity
  8
ALL_ASSEMBLY_MEMBERS
100
AcDbCircle
 62
7
  6
CONTINUOUS
 10
4.9062305901
 20
3.3639687756
 40
0.175
100
AcDbArc
 50
198.749340847
 51
206.250659153
  0
ARC
  5
359
100
AcDbEntity
  8
ALL_ASSEMBLY_MEMBERS
100
AcDbCircle
 62
7
  6
CONTINUOUS
 10
4.9062305901
 20
3.3639687756
 40
0.175
100
AcDbArc
 50
153.749340847
 51
161.250659153
  0
ARC
  5
35A
100
AcDbEntity
  8
ALL_ASSEMBLY_MEMBERS
100
AcDbCircle
 62
7
  6
CONTINUOUS
 10
4.9062305901
 20
3.3639687756
 40
0.175
100
AcDbArc
 50
18.749340847
 51
26.250659153
  0
ARC
  5
35B
100
AcDbEntity
  8
ALL_ASSEMBLY_MEMBERS
100
AcDbCircle
 62
7
  6
CONTINUOUS
 10
4.9062305901
 20
3.3639687756
 40
0.175
100
AcDbArc
 50
333.749340847
 51
341.250659153
  0
ARC
  5
35C
100
AcDbEntity
  8
ALL_ASSEMBLY_MEMBERS
100
AcDbCircle
 62
7
  6
CONTINUOUS
 10
4.9062305901
 20
3.3639687756
 40
0.175
100
AcDbArc
 50
288.749340847
 51
296.250659153
  0
ARC
  5
35D
100
AcDbEntity
  8
ALL_ASSEMBLY_MEMBERS
100
AcDbCircle
 62
7
  6
CONTINUOUS
 10
4.9062305901
 20
3.3639687756
 40
0.1725
100
AcDbArc
 50
124.4322169014
 51
55.5677830986
  0
ARC
  5
35E
100
AcDbEntity
  8
ALL_ASSEMBLY_MEMBERS
100
AcDbCircle
 62
7
  6
CONTINUOUS
 10
5.2603417596
 20
4.268292539
 40
0.15625
100
AcDbArc
 50
101.3835410059
 51
161.1400389567
  0
ARC
  5
35F
100
AcDbEntity
  8
ALL_ASSEMBLY_MEMBERS
100
AcDbCircle
 62
7
  6
CONTINUOUS
 10
4.9062305901
 20
3.3639687756
 40
0.1559455576
100
AcDbArc
 50
128.7010511477
 51
51.2989488523
  0
ARC
  5
360
100
AcDbEntity
  8
ALL_ASSEMBLY_MEMBERS
100
AcDbCircle
 62
7
  6
CONTINUOUS
 10
4.9607305901
 20
3.9932994335
 40
0.1205
100
AcDbArc
 50
328.8652784311
 51
37.3819608307
  0
ARC
  5
361
100
AcDbEntity
  8
ALL_ASSEMBLY_MEMBERS
100
AcDbCircle
 62
7
  6
CONTINUOUS
 10
4.9062305901
 20
3.3639687756
 40
0.1126345598
100
AcDbArc
 50
149.9571776322
 51
30.0428272481
  0
ARC
  5
362
100
AcDbEntity
  8
ALL_ASSEMBLY_MEMBERS
100
AcDbCircle
 62
7
  6
CONTINUOUS
 10
4.9062305901
 20
3.3639687756
 40
0.1076426906
100
AcDbArc
 50
154.9820085924
 51
25.0180615926
  0
ARC
  5
363
100
AcDbEntity
  8
ALL_ASSEMBLY_MEMBERS
100
AcDbCircle
 62
7
  6
CONTINUOUS
 10
4.9062305901
 20
3.3639687756
 40
0.0975
100
AcDbArc
 50
180.0
 51
360.0
  0
ARC
  5
364
100
AcDbEntity
  8
ALL_ASSEMBLY_MEMBERS
100
AcDbCircle
 62
7
  6
CONTINUOUS
 10
5.0812523111
 20
4.3294687756
 40
0.033
100
AcDbArc
 50
272.1313641183
 51
341.1400389567
  0
ARC
  5
365
100
AcDbEntity
  8
ALL_ASSEMBLY_MEMBERS
100
AcDbCircle
 62
7
  6
CONTINUOUS
 10
5.0324805901
 20
3.7264687756
 40
0.03
100
AcDbArc
 50
270.0
 51
86.4166783015
  0
ARC
  5
366
100
AcDbEntity
  8
ALL_ASSEMBLY_MEMBERS
100
AcDbCircle
 62
7
  6
CONTINUOUS
 10
5.0349805901
 20
3.7663905741
 40
0.01
100
AcDbArc
 50
180.0
 51
266.4166783015
  0
ARC
  5
367
100
AcDbEntity
  8
ALL_ASSEMBLY_MEMBERS
100
AcDbCircle
 62
7
  6
CONTINUOUS
 10
5.1897305901
 20
4.6190048502
 40
0.2015
100
AcDbArc
 50
281.3835410059
 51
360.0
  0
ARC
  5
368
100
AcDbEntity
  8
1_PLATE
100
AcDbCircle
 62
7
  6
CONTINUOUS
 10
6.0937305901
 20
5.5586941693
 40
0.1876501541
100
AcDbArc
 50
270.0
 51
303.4957955632
  0
ARC
  5
369
100
AcDbEntity
  8
1_PLATE
100
AcDbCircle
 62
7
  6
CONTINUOUS
 10
6.5677305901
 20
5.3396941693
 40
0.1251764377
100
AcDbArc
 50
119.3590794693
 51
131.4337707006
  0
ARC
  5
36A
100
AcDbEntity
  8
1_PLATE
100
AcDbCircle
 62
7
  6
CONTINUOUS
 10
6.6562305901
 20
5.5736941693
 40
0.125
100
AcDbArc
 50
270.0
 51
360.0
  0
ARC
  5
36B
100
AcDbEntity
  8
1_PLATE
100
AcDbCircle
 62
7
  6
CONTINUOUS
 10
6.4022305901
 20
5.5271941693
 40
0.124916545
100
AcDbArc
 50
270.0
 51
311.4337707006
  0
CIRCLE
  5
36C
100
AcDbEntity
  8
ALL_ASSEMBLY_MEMBERS
100
AcDbCircle
 62
7
  6
CONTINUOUS
 10
4.9062305901
 20
4.7184687756
 40
0.07
  0
CIRCLE
  5
36D
100
AcDbEntity
  8
ALL_ASSEMBLY_MEMBERS
100
AcDbCircle
 62
7
  6
CONTINUOUS
 10
4.9062305901
 20
4.7184687756
 40
0.065
  0
CIRCLE
  5
36E
100
AcDbEntity
  8
ALL_ASSEMBLY_MEMBERS
100
AcDbCircle
 62
7
  6
CONTINUOUS
 10
4.9062305901
 20
4.7184687756
 40
0.0445454545
  0
SPLINE
  5
36F
100
AcDbEntity
  8
ALL_ASSEMBLY_MEMBERS
100
AcDbSpline
 62
7
  6
CONTINUOUS
 70
0
 71
3
 72
16
 73
12
 74
0
 42
0.0000001
 43
0.0000001
 44
0.0000000001
 40
0.0
 40
0.0
 40
0.0
 40
0.0
 40
0.0333232834
 40
0.0708086986
 40
0.1581315468
 40
0.2616278122
 40
0.380792094
 40
0.5149793488
 40
0.6634960038
 40
0.8254860775
 40
1.0
 40
1.0
 40
1.0
 40
1.0
 10
4.8288282636
 20
3.2070169363
 30
0.0
 10
4.8286374743
 20
3.2071110259
 30
0.0
 10
4.8282371019
 20
3.2073212166
 30
0.0
 10
4.8273611652
 20
3.2078233057
 30
0.0
 10
4.8261306057
 20
3.2086055494
 30
0.0
 10
4.8245037206
 20
3.2097326521
 30
0.0
 10
4.822670417
 20
3.2110853247
 30
0.0
 10
4.820641415
 20
3.2126555148
 30
0.0
 10
4.8184289565
 20
3.2144344919
 30
0.0
 10
4.8160460938
 20
3.2164117216
 30
0.0
 10
4.814411075
 20
3.2178051385
 30
0.0
 10
4.8135672144
 20
3.2185324803
 30
0.0
  0
SPLINE
  5
370
100
AcDbEntity
  8
ALL_ASSEMBLY_MEMBERS
100
AcDbSpline
 62
7
  6
CONTINUOUS
 70
0
 71
3
 72
16
 73
12
 74
0
 42
0.0000001
 43
0.0000001
 44
0.0000000001
 40
0.0
 40
0.0
 40
0.0
 40
0.0
 40
0.1745139225
 40
0.3365039962
 40
0.4850206512
 40
0.619207906
 40
0.7383721878
 40
0.8418684532
 40
0.9291913014
 40
0.9666767166
 40
1.0
 40
1.0
 40
1.0
 40
1.0
 10
4.7607942948
 20
3.2713053999
 30
0.0
 10
4.760066953
 20
3.2721492605
 30
0.0
 10
4.7586735361
 20
3.2737842793
 30
0.0
 10
4.7566963064
 20
3.276167142
 30
0.0
 10
4.7549173293
 20
3.2783796006
 30
0.0
 10
4.7533471391
 20
3.2804086025
 30
0.0
 10
4.7519944666
 20
3.2822419061
 30
0.0
 10
4.7508673639
 20
3.2838687912
 30
0.0
 10
4.7500851202
 20
3.2850993507
 30
0.0
 10
4.7495830311
 20
3.2859752874
 30
0.0
 10
4.7493728404
 20
3.2863756598
 30
0.0
 10
4.7492787508
 20
3.2865664492
 30
0.0
  0
SPLINE
  5
371
100
AcDbEntity
  8
ALL_ASSEMBLY_MEMBERS
100
AcDbSpline
 62
7
  6
CONTINUOUS
 70
0
 71
3
 72
15
 73
11
 74
0
 42
0.0000001
 43
0.0000001
 44
0.0000000001
 40
0.0
 40
0.0
 40
0.0
 40
0.0
 40
0.3364912891
 40
0.4850132127
 40
0.6192027705
 40
0.7383563932
 40
0.8418511449
 40
0.9291768888
 40
0.9666674647
 40
1.0
 40
1.0
 40
1.0
 40
1.0
 10
4.8689069751
 20
3.1956074505
 30
0.0
 10
4.8667656338
 20
3.1957662922
 30
0.0
 10
4.8636811762
 20
3.1960273237
 30
0.0
 10
4.8597528357
 20
3.1964538998
 30
0.0
 10
4.8572088671
 20
3.1967782669
 30
0.0
 10
4.8549570239
 20
3.1971180691
 30
0.0
 10
4.8530104946
 20
3.1974712857
 30
0.0
 10
4.8515877663
 20
3.1977882151
 30
0.0
 10
4.8506136491
 20
3.198052524
 30
0.0
 10
4.850182005
 20
3.1981869872
 30
0.0
 10
4.8499805901
 20
3.1982553558
 30
0.0
  0
SPLINE
  5
372
100
AcDbEntity
  8
ALL_ASSEMBLY_MEMBERS
100
AcDbSpline
 62
7
  6
CONTINUOUS
 70
0
 71
3
 72
16
 73
12
 74
0
 42
0.0000001
 43
0.0000001
 44
0.0000000001
 40
0.0
 40
0.0
 40
0.0
 40
0.0
 40
0.0333232834
 40
0.0708086986
 40
0.1581315468
 40
0.2616278122
 40
0.380792094
 40
0.5149793488
 40
0.6634960038
 40
0.8254860775
 40
1.0
 40
1.0
 40
1.0
 40
1.0
 10
4.7492787508
 20
3.441371102
 30
0.0
 10
4.7493728404
 20
3.4415618914
 30
0.0
 10
4.7495830311
 20
3.4419622637
 30
0.0
 10
4.7500851202
 20
3.4428382004
 30
0.0
 10
4.7508673639
 20
3.44406876
 30
0.0
 10
4.7519944666
 20
3.4456956451
 30
0.0
 10
4.7533471391
 20
3.4475289487
 30
0.0
 10
4.7549173293
 20
3.4495579506
 30
0.0
 10
4.7566963064
 20
3.4517704091
 30
0.0
 10
4.7586735361
 20
3.4541532718
 30
0.0
 10
4.760066953
 20
3.4557882907
 30
0.0
 10
4.7607942948
 20
3.4566321512
 30
0.0
  0
SPLINE
  5
373
100
AcDbEntity
  8
ALL_ASSEMBLY_MEMBERS
100
AcDbSpline
 62
7
  6
CONTINUOUS
 70
0
 71
3
 72
16
 73
12
 74
0
 42
0.0000001
 43
0.0000001
 44
0.0000000001
 40
0.0
 40
0.0
 40
0.0
 40
0.0
 40
0.0333217836
 40
0.0708059696
 40
0.158127138
 40
0.2616226858
 40
0.3807870643
 40
0.5149750871
 40
0.6634930043
 40
0.825484561
 40
1.0
 40
1.0
 40
1.0
 40
1.0
 10
4.7405171703
 20
3.3077187756
 30
0.0
 10
4.7404487847
 20
3.3079202407
 30
0.0
 10
4.7403142895
 20
3.3083520314
 30
0.0
 10
4.7400499077
 20
3.3093265834
 30
0.0
 10
4.7397328649
 20
3.3107500733
 30
0.0
 10
4.7393794285
 20
3.312697758
 30
0.0
 10
4.7390395378
 20
3.3149509721
 30
0.0
 10
4.7387150803
 20
3.3174964361
 30
0.0
 10
4.7384085394
 20
3.3203193142
 30
0.0
 10
4.738121696
 20
3.3234029209
 30
0.0
 10
4.7379508505
 20
3.3255447343
 30
0.0
 10
4.7378684567
 20
3.3266559421
 30
0.0
  0
SPLINE
  5
374
100
AcDbEntity
  8
ALL_ASSEMBLY_MEMBERS
100
AcDbSpline
 62
7
  6
CONTINUOUS
 70
0
 71
3
 72
16
 73
12
 74
0
 42
0.0000001
 43
0.0000001
 44
0.0000000001
 40
0.0
 40
0.0
 40
0.0
 40
0.0
 40
0.174515439
 40
0.3365069957
 40
0.4850249129
 40
0.6192129357
 40
0.7383773142
 40
0.841872862
 40
0.9291940304
 40
0.9666782164
 40
1.0
 40
1.0
 40
1.0
 40
1.0
 10
4.7378684567
 20
3.401281609
 30
0.0
 10
4.7379508505
 20
3.4023928168
 30
0.0
 10
4.738121696
 20
3.4045346303
 30
0.0
 10
4.7384085394
 20
3.407618237
 30
0.0
 10
4.7387150803
 20
3.410441115
 30
0.0
 10
4.7390395378
 20
3.4129865791
 30
0.0
 10
4.7393794285
 20
3.4152397931
 30
0.0
 10
4.7397328649
 20
3.4171874779
 30
0.0
 10
4.7400499077
 20
3.4186109678
 30
0.0
 10
4.7403142895
 20
3.4195855198
 30
0.0
 10
4.7404487847
 20
3.4200173105
 30
0.0
 10
4.7405171703
 20
3.4202187756
 30
0.0
  0
SPLINE
  5
375
100
AcDbEntity
  8
ALL_ASSEMBLY_MEMBERS
100
AcDbSpline
 62
7
  6
CONTINUOUS
 70
0
 71
3
 72
15
 73
11
 74
0
 42
0.0000001
 43
0.0000001
 44
0.0000000001
 40
0.0
 40
0.0
 40
0.0
 40
0.0
 40
0.0333325353
 40
0.0708231112
 40
0.1581488551
 40
0.2616436068
 40
0.3807972295
 40
0.5149867873
 40
0.6635087109
 40
1.0
 40
1.0
 40
1.0
 40
1.0
 10
4.9624805901
 20
3.1982553558
 30
0.0
 10
4.9622791751
 20
3.1981869872
 30
0.0
 10
4.961847531
 20
3.198052524
 30
0.0
 10
4.9608734138
 20
3.1977882151
 30
0.0
 10
4.9594506855
 20
3.1974712857
 30
0.0
 10
4.9575041562
 20
3.1971180691
 30
0.0
 10
4.955252313
 20
3.1967782669
 30
0.0
 10
4.9527083444
 20
3.1964538998
 30
0.0
 10
4.9487800039
 20
3.1960273237
 30
0.0
 10
4.9456955463
 20
3.1957662922
 30
0.0
 10
4.943554205
 20
3.1956074505
 30
0.0
  0
SPLINE
  5
376
100
AcDbEntity
  8
ALL_ASSEMBLY_MEMBERS
100
AcDbSpline
 62
7
  6
CONTINUOUS
 70
0
 71
3
 72
16
 73
12
 74
0
 42
0.0000001
 43
0.0000001
 44
0.0000000001
 40
0.0
 40
0.0
 40
0.0
 40
0.0
 40
0.0333232834
 40
0.0708086986
 40
0.1581315468
 40
0.2616278122
 40
0.380792094
 40
0.5149793488
 40
0.6634960038
 40
0.8254860775
 40
1.0
 40
1.0
 40
1.0
 40
1.0
 10
5.0631824294
 20
3.2865664492
 30
0.0
 10
5.0630883397
 20
3.2863756598
 30
0.0
 10
5.0628781491
 20
3.2859752874
 30
0.0
 10
5.0623760599
 20
3.2850993507
 30
0.0
 10
5.0615938162
 20
3.2838687912
 30
0.0
 10
5.0604667135
 20
3.2822419061
 30
0.0
 10
5.059114041
 20
3.2804086025
 30
0.0
 10
5.0575438508
 20
3.2783796006
 30
0.0
 10
5.0557648737
 20
3.276167142
 30
0.0
 10
5.0537876441
 20
3.2737842793
 30
0.0
 10
5.0523942271
 20
3.2721492605
 30
0.0
 10
5.0516668853
 20
3.2713053999
 30
0.0
  0
SPLINE
  5
377
100
AcDbEntity
  8
ALL_ASSEMBLY_MEMBERS
100
AcDbSpline
 62
7
  6
CONTINUOUS
 70
0
 71
3
 72
16
 73
12
 74
0
 42
0.0000001
 43
0.0000001
 44
0.0000000001
 40
0.0
 40
0.0
 40
0.0
 40
0.0
 40
0.1745139225
 40
0.3365039962
 40
0.4850206512
 40
0.619207906
 40
0.7383721878
 40
0.8418684532
 40
0.9291913014
 40
0.9666767166
 40
1.0
 40
1.0
 40
1.0
 40
1.0
 10
4.9988939657
 20
3.2185324803
 30
0.0
 10
4.9980501052
 20
3.2178051385
 30
0.0
 10
4.9964150863
 20
3.2164117216
 30
0.0
 10
4.9940322236
 20
3.2144344919
 30
0.0
 10
4.9918197651
 20
3.2126555148
 30
0.0
 10
4.9897907631
 20
3.2110853247
 30
0.0
 10
4.9879574596
 20
3.2097326521
 30
0.0
 10
4.9863305745
 20
3.2086055494
 30
0.0
 10
4.9851000149
 20
3.2078233057
 30
0.0
 10
4.9842240782
 20
3.2073212166
 30
0.0
 10
4.9838237058
 20
3.2071110259
 30
0.0
 10
4.9836329165
 20
3.2070169363
 30
0.0
  0
SPLINE
  5
378
100
AcDbEntity
  8
ALL_ASSEMBLY_MEMBERS
100
AcDbSpline
 62
7
  6
CONTINUOUS
 70
0
 71
3
 72
16
 73
12
 74
0
 42
0.0000001
 43
0.0000001
 44
0.0000000001
 40
0.0
 40
0.0
 40
0.0
 40
0.0
 40
0.0333217836
 40
0.0708059696
 40
0.158127138
 40
0.2616226858
 40
0.3807870643
 40
0.5149750871
 40
0.6634930043
 40
0.825484561
 40
1.0
 40
1.0
 40
1.0
 40
1.0
 10
5.0719440099
 20
3.4202187756
 30
0.0
 10
5.0720123955
 20
3.4200173105
 30
0.0
 10
5.0721468906
 20
3.4195855198
 30
0.0
 10
5.0724112724
 20
3.4186109678
 30
0.0
 10
5.0727283153
 20
3.4171874779
 30
0.0
 10
5.0730817516
 20
3.4152397931
 30
0.0
 10
5.0734216423
 20
3.4129865791
 30
0.0
 10
5.0737460998
 20
3.410441115
 30
0.0
 10
5.0740526407
 20
3.407618237
 30
0.0
 10
5.0743394841
 20
3.4045346303
 30
0.0
 10
5.0745103296
 20
3.4023928168
 30
0.0
 10
5.0745927234
 20
3.401281609
 30
0.0
  0
SPLINE
  5
379
100
AcDbEntity
  8
ALL_ASSEMBLY_MEMBERS
100
AcDbSpline
 62
7
  6
CONTINUOUS
 70
0
 71
3
 72
16
 73
12
 74
0
 42
0.0000001
 43
0.0000001
 44
0.0000000001
 40
0.0
 40
0.0
 40
0.0
 40
0.0
 40
0.174515439
 40
0.3365069957
 40
0.4850249129
 40
0.6192129357
 40
0.7383773142
 40
0.841872862
 40
0.9291940304
 40
0.9666782164
 40
1.0
 40
1.0
 40
1.0
 40
1.0
 10
5.0745927234
 20
3.3266559421
 30
0.0
 10
5.0745103296
 20
3.3255447343
 30
0.0
 10
5.0743394841
 20
3.3234029209
 30
0.0
 10
5.0740526407
 20
3.3203193142
 30
0.0
 10
5.0737460998
 20
3.3174964361
 30
0.0
 10
5.0734216423
 20
3.3149509721
 30
0.0
 10
5.0730817516
 20
3.312697758
 30
0.0
 10
5.0727283153
 20
3.3107500733
 30
0.0
 10
5.0724112724
 20
3.3093265834
 30
0.0
 10
5.0721468906
 20
3.3083520314
 30
0.0
 10
5.0720123955
 20
3.3079202407
 30
0.0
 10
5.0719440099
 20
3.3077187756
 30
0.0
  0
SPLINE
  5
37A
100
AcDbEntity
  8
ALL_ASSEMBLY_MEMBERS
100
AcDbSpline
 62
7
  6
CONTINUOUS
 70
0
 71
3
 72
16
 73
12
 74
0
 42
0.0000001
 43
0.0000001
 44
0.0000000001
 40
0.0
 40
0.0
 40
0.0
 40
0.0
 40
0.1745139225
 40
0.3365039962
 40
0.4850206512
 40
0.619207906
 40
0.7383721878
 40
0.8418684532
 40
0.9291913014
 40
0.9666767166
 40
1.0
 40
1.0
 40
1.0
 40
1.0
 10
5.0516668853
 20
3.4566321512
 30
0.0
 10
5.0523942271
 20
3.4557882907
 30
0.0
 10
5.0537876441
 20
3.4541532718
 30
0.0
 10
5.0557648737
 20
3.4517704091
 30
0.0
 10
5.0575438508
 20
3.4495579506
 30
0.0
 10
5.059114041
 20
3.4475289487
 30
0.0
 10
5.0604667135
 20
3.4456956451
 30
0.0
 10
5.0615938162
 20
3.44406876
 30
0.0
 10
5.0623760599
 20
3.4428382004
 30
0.0
 10
5.0628781491
 20
3.4419622637
 30
0.0
 10
5.0630883397
 20
3.4415618914
 30
0.0
 10
5.0631824294
 20
3.441371102
 30
0.0
  0
SPLINE
  5
37B
100
AcDbEntity
  8
ALL_ASSEMBLY_MEMBERS
100
AcDbSpline
 62
7
  6
CONTINUOUS
 70
0
 71
3
 72
19
 73
15
 74
0
 42
0.0000001
 43
0.0000001
 44
0.0000000001
 40
0.0
 40
0.0
 40
0.0
 40
0.0
 40
0.1248897374
 40
0.1874284864
 40
0.2499423405
 40
0.3748263175
 40
0.4996987803
 40
0.5622219563
 40
0.6247539668
 40
0.6872683074
 40
0.7497784126
 40
0.8123512284
 40
0.8750150897
 40
1.0
 40
1.0
 40
1.0
 40
1.0
 10
4.8962311054
 20
5.2983191693
 30
0.0
 10
4.8962311054
 20
5.2976661222
 30
0.0
 10
4.8963279709
 20
5.2966825411
 30
0.0
 10
4.8966458133
 20
5.2954132867
 30
0.0
 10
4.8970863375
 20
5.2941808174
 30
0.0
 10
4.8978606072
 20
5.2927305758
 30
0.0
 10
4.8989033298
 20
5.2914594156
 30
0.0
 10
4.8998724479
 20
5.2905800501
 30
0.0
 10
4.9006610932
 20
5.2899941969
 30
0.0
 10
4.9015034265
 20
5.2894887753
 30
0.0
 10
4.9023918267
 20
5.2890692138
 30
0.0
 10
4.9033174498
 20
5.2887371862
 30
0.0
 10
4.9045864255
 20
5.2884136264
 30
0.0
 10
4.905570869
 20
5.2883094514
 30
0.0
 10
4.9062244138
 20
5.2883094514
 30
0.0
  0
SPLINE
  5
37C
100
AcDbEntity
  8
ALL_ASSEMBLY_MEMBERS
100
AcDbSpline
 62
7
  6
CONTINUOUS
 70
0
 71
3
 72
19
 73
15
 74
0
 42
0.0000001
 43
0.0000001
 44
0.0000000001
 40
0.0
 40
0.0
 40
0.0
 40
0.0
 40
0.1249225465
 40
0.1875115499
 40
0.2500366903
 40
0.3125439719
 40
0.3750791332
 40
0.4376254688
 40
0.5001629066
 40
0.625079081
 40
0.7499938268
 40
0.8125248195
 40
0.8750850005
 40
1.0
 40
1.0
 40
1.0
 40
1.0
 10
4.9062244138
 20
5.2883094514
 30
0.0
 10
4.9068781352
 20
5.2883094514
 30
0.0
 10
4.9078624676
 20
5.2884136752
 30
0.0
 10
4.9091321712
 20
5.2887343134
 30
0.0
 10
4.9100587091
 20
5.2890641782
 30
0.0
 10
4.9109480673
 20
5.2894832003
 30
0.0
 10
4.9117915212
 20
5.2899885327
 30
0.0
 10
4.9125815755
 20
5.2905741848
 30
0.0
 10
4.9135524803
 20
5.2914536531
 30
0.0
 10
4.9145972485
 20
5.2927254045
 30
0.0
 10
4.9153730996
 20
5.2941768085
 30
0.0
 10
4.9158145474
 20
5.2954104096
 30
0.0
 10
4.9161329659
 20
5.2966809056
 30
0.0
 10
4.9162300747
 20
5.2976654873
 30
0.0
 10
4.9162300747
 20
5.2983191693
 30
0.0
  0
SPLINE
  5
37D
100
AcDbEntity
  8
ALL_ASSEMBLY_MEMBERS
100
AcDbSpline
 62
7
  6
CONTINUOUS
 70
0
 71
3
 72
23
 73
19
 74
0
 42
0.0000001
 43
0.0000001
 44
0.0000000001
 40
0.0
 40
0.0
 40
0.0
 40
0.0
 40
0.0625896051
 40
0.1251105549
 40
0.1875529431
 40
0.2499536192
 40
0.312371529
 40
0.3748505889
 40
0.4374004402
 40
0.4999979437
 40
0.5625956039
 40
0.6251456092
 40
0.6876247296
 40
0.7500420843
 40
0.8124423434
 40
0.8748846849
 40
0.9374075992
 40
1.0
 40
1.0
 40
1.0
 40
1.0
 10
4.9062305901
 20
4.8059687756
 30
0.0
 10
4.9117355224
 20
4.8059687756
 30
0.0
 10
4.9227781819
 20
4.8047301129
 30
0.0
 10
4.9384863926
 20
4.799300432
 30
0.0
 10
4.9526759266
 20
4.7906851731
 30
0.0
 10
4.9648183805
 20
4.7793987673
 30
0.0
 10
4.9745625708
 20
4.7659945441
 30
0.0
 10
4.9816725224
 20
4.7510188757
 30
0.0
 10
4.985996667
 20
4.7350032211
 30
0.0
 10
4.9874476988
 20
4.7184693105
 30
0.0
 10
4.9859968551
 20
4.7019353695
 30
0.0
 10
4.9816728811
 20
4.6859196341
 30
0.0
 10
4.9745631049
 20
4.6709439172
 30
0.0
 10
4.9648191371
 20
4.657539632
 30
0.0
 10
4.9526768977
 20
4.6462531372
 30
0.0
 10
4.9384874126
 20
4.6376375333
 30
0.0
 10
4.9227788396
 20
4.6322076056
 30
0.0
 10
4.9117357683
 20
4.6309687756
 30
0.0
 10
4.9062305901
 20
4.6309687756
 30
0.0
  0
SPLINE
  5
37E
100
AcDbEntity
  8
ALL_ASSEMBLY_MEMBERS
100
AcDbSpline
 62
7
  6
CONTINUOUS
 70
0
 71
3
 72
23
 73
19
 74
0
 42
0.0000001
 43
0.0000001
 44
0.0000000001
 40
0.0
 40
0.0
 40
0.0
 40
0.0
 40
0.0625893598
 40
0.125110194
 40
0.187552642
 40
0.249953392
 40
0.3123713752
 40
0.3748504743
 40
0.437400375
 40
0.4999979289
 40
0.5625956395
 40
0.6251456932
 40
0.687624854
 40
0.7500422825
 40
0.8124426153
 40
0.874885017
 40
0.937407823
 40
1.0
 40
1.0
 40
1.0
 40
1.0
 10
4.9062305901
 20
4.6309687756
 30
0.0
 10
4.9007256793
 20
4.6309687756
 30
0.0
 10
4.889683051
 20
4.6322074245
 30
0.0
 10
4.8739748627
 20
4.6376370881
 30
0.0
 10
4.8597853156
 20
4.6462523283
 30
0.0
 10
4.8476428396
 20
4.6575387382
 30
0.0
 10
4.8378986309
 20
4.6709429686
 30
0.0
 10
4.8307886675
 20
4.6859186476
 30
0.0
 10
4.8264645154
 20
4.701934313
 30
0.0
 10
4.8250134805
 20
4.7184682368
 30
0.0
 10
4.8264643259
 20
4.7350021911
 30
0.0
 10
4.830788306
 20
4.7510179378
 30
0.0
 10
4.8378980929
 20
4.7659936658
 30
0.0
 10
4.8476420778
 20
4.7793979593
 30
0.0
 10
4.8597843383
 20
4.7906844592
 30
0.0
 10
4.8739738362
 20
4.7993000463
 30
0.0
 10
4.8896823887
 20
4.8047299591
 30
0.0
 10
4.9007254315
 20
4.8059687756
 30
0.0
 10
4.9062305901
 20
4.8059687756
 30
0.0
  0
ELLIPSE
  5
37F
100
AcDbEntity
  8
ALL_ASSEMBLY_MEMBERS
100
AcDbEllipse
 62
7
  6
CONTINUOUS
 10
4.9062305901
 20
5.1430263286
 30
0.0
 11
0.4356620756
 21
0.3097087495
 31
0.0
 40
0.6863174071
 41
-3.9803437747
 42
-3.9676270558
  0
ELLIPSE
  5
380
100
AcDbEntity
  8
ALL_ASSEMBLY_MEMBERS
100
AcDbEllipse
 62
7
  6
CONTINUOUS
 10
4.9062305901
 20
5.153288847
 30
0.0
 11
0.4845296417
 21
0.0531218498
 31
0.0
 40
0.2751161207
 41
2.7138845034
 42
2.7266070117
  0
ELLIPSE
  5
381
100
AcDbEntity
  8
ALL_ASSEMBLY_MEMBERS
100
AcDbEllipse
 62
7
  6
CONTINUOUS
 10
4.9062305901
 20
5.1124791607
 30
0.0
 11
0.4845296416
 21
-0.0531218552
 31
0.0
 40
0.2751161442
 41
-2.726607006
 42
-2.7138844977
  0
ELLIPSE
  5
382
100
AcDbEntity
  8
ALL_ASSEMBLY_MEMBERS
100
AcDbEllipse
 62
7
  6
CONTINUOUS
 10
4.9062305901
 20
5.12274168
 30
0.0
 11
-0.4356620527
 21
0.3097088087
 31
0.0
 40
0.6863174268
 41
0.8260345095
 42
0.8387512283
  0
ELLIPSE
  5
383
100
AcDbEntity
  8
ALL_ASSEMBLY_MEMBERS
100
AcDbEllipse
 62
7
  6
CONTINUOUS
 10
4.9062305901
 20
5.1348682426
 30
0.0
 11
-0.2110172983
 21
0.9517381511
 31
0.0
 40
0.4585406789
 41
1.4848993014
 42
1.4925274221
  0
ELLIPSE
  5
384
100
AcDbEntity
  8
ALL_ASSEMBLY_MEMBERS
100
AcDbEllipse
 62
7
  6
CONTINUOUS
 10
4.9062305901
 20
5.1422444319
 30
0.0
 11
-0.1839239125
 21
1.4338152941
 31
0.0
 40
0.3128035903
 41
1.5410292945
 42
1.5461141727
  0
ELLIPSE
  5
385
100
AcDbEntity
  8
ALL_ASSEMBLY_MEMBERS
100
AcDbEllipse
 62
7
  6
CONTINUOUS
 10
4.9062305901
 20
5.1032138458
 30
0.0
 11
0.4841680723
 21
0.069531332
 31
0.0
 40
0.3415053426
 41
2.6695629887
 42
2.6797561081
  0
ELLIPSE
  5
386
100
AcDbEntity
  8
ALL_ASSEMBLY_MEMBERS
100
AcDbEllipse
 62
7
  6
CONTINUOUS
 10
4.9062305901
 20
5.0811236755
 30
0.0
 11
0.4021127937
 21
0.3867250719
 31
0.0
 40
0.7000252448
 41
-4.164805553
 42
-4.15715572
  0
ELLIPSE
  5
387
100
AcDbEntity
  8
ALL_ASSEMBLY_MEMBERS
100
AcDbEllipse
 62
7
  6
CONTINUOUS
 10
4.9062305901
 20
5.0323832254
 30
0.0
 11
0.2001645895
 21
1.0730713555
 31
0.0
 40
0.4114299686
 41
1.5606800957
 42
1.5657826121
  0
ELLIPSE
  5
388
100
AcDbEntity
  8
ALL_ASSEMBLY_MEMBERS
100
AcDbEllipse
 62
7
  6
CONTINUOUS
 10
4.9062305901
 20
4.9391790527
 30
0.0
 11
0.173492527
 21
2.1521377604
 31
0.0
 40
0.2103210759
 41
1.498485551
 42
1.5010376571
  0
ELLIPSE
  5
389
100
AcDbEntity
  8
ALL_ASSEMBLY_MEMBERS
100
AcDbEllipse
 62
7
  6
CONTINUOUS
 10
4.9062305901
 20
5.326589044
 30
0.0
 11
-0.1734925196
 21
2.1521387659
 31
0.0
 40
0.210320979
 41
-4.6426302942
 42
-4.6400781881
  0
ELLIPSE
  5
38A
100
AcDbEntity
  8
ALL_ASSEMBLY_MEMBERS
100
AcDbEllipse
 62
7
  6
CONTINUOUS
 10
4.9062305901
 20
5.2333847625
 30
0.0
 11
-0.2001646079
 21
1.0730711015
 31
0.0
 40
0.4114300582
 41
-4.7073753074
 42
-4.7022727909
  0
ELLIPSE
  5
38B
100
AcDbEntity
  8
ALL_ASSEMBLY_MEMBERS
100
AcDbEllipse
 62
7
  6
CONTINUOUS
 10
4.9062305901
 20
5.1846443329
 30
0.0
 11
-0.4021127937
 21
0.3867250719
 31
0.0
 40
0.7000252448
 41
1.0155630664
 42
1.0232128994
  0
ELLIPSE
  5
38C
100
AcDbEntity
  8
ALL_ASSEMBLY_MEMBERS
100
AcDbEllipse
 62
7
  6
CONTINUOUS
 10
4.9062305901
 20
5.1625541626
 30
0.0
 11
0.4841680723
 21
-0.069531332
 31
0.0
 40
0.3415053426
 41
-2.6797561081
 42
-2.6695629887
  0
ELLIPSE
  5
38D
100
AcDbEntity
  8
ALL_ASSEMBLY_MEMBERS
100
AcDbEllipse
 62
7
  6
CONTINUOUS
 10
4.9062305901
 20
5.1620380732
 30
0.0
 11
0.4841680714
 21
0.0695313633
 31
0.0
 40
0.3415054598
 41
2.7840417005
 42
2.7942212431
  0
ELLIPSE
  5
38E
100
AcDbEntity
  8
ALL_ASSEMBLY_MEMBERS
100
AcDbEllipse
 62
7
  6
CONTINUOUS
 10
4.9062305901
 20
5.1765700434
 30
0.0
 11
0.3546536662
 21
0.4793660332
 31
0.0
 40
0.6893673371
 41
-4.2104130135
 42
-4.2002376741
  0
ELLIPSE
  5
38F
100
AcDbEntity
  8
ALL_ASSEMBLY_MEMBERS
100
AcDbEllipse
 62
7
  6
CONTINUOUS
 10
4.9062305901
 20
5.19289595
 30
0.0
 11
0.2001647206
 21
1.0730695455
 31
0.0
 40
0.4114306072
 41
-4.6105355829
 42
-4.6054491537
  0
ELLIPSE
  5
390
100
AcDbEntity
  8
ALL_ASSEMBLY_MEMBERS
100
AcDbEllipse
 62
7
  6
CONTINUOUS
 10
4.9062305901
 20
5.1421843087
 30
0.0
 11
-0.200164647
 21
1.0730705612
 31
0.0
 40
0.4114302488
 41
1.4638566668
 42
1.468943096
  0
ELLIPSE
  5
391
100
AcDbEntity
  8
ALL_ASSEMBLY_MEMBERS
100
AcDbEllipse
 62
7
  6
CONTINUOUS
 10
4.9062305901
 20
5.1585102458
 30
0.0
 11
-0.3546536662
 21
0.4793660332
 31
0.0
 40
0.6893673371
 41
1.0586450205
 42
1.06882036
  0
ELLIPSE
  5
392
100
AcDbEntity
  8
ALL_ASSEMBLY_MEMBERS
100
AcDbEllipse
 62
7
  6
CONTINUOUS
 10
4.9062305901
 20
5.173042216
 30
0.0
 11
0.4841680714
 21
-0.0695313633
 31
0.0
 40
0.3415054598
 41
-2.7942212431
 42
-2.7840417005
  0
ELLIPSE
  5
393
100
AcDbEntity
  8
ALL_ASSEMBLY_MEMBERS
100
AcDbEllipse
 62
7
  6
CONTINUOUS
 10
4.9062305901
 20
5.1237339191
 30
0.0
 11
0.4841680714
 21
0.0695313633
 31
0.0
 40
0.3415054598
 41
2.7840417005
 42
2.7942212431
  0
ELLIPSE
  5
394
100
AcDbEntity
  8
ALL_ASSEMBLY_MEMBERS
100
AcDbEllipse
 62
7
  6
CONTINUOUS
 10
4.9062305901
 20
5.1309999055
 30
0.0
 11
0.4668511673
 21
0.2089255909
 31
0.0
 40
0.6246664746
 41
2.5502781873
 42
2.5604535267
  0
ELLIPSE
  5
395
100
AcDbEntity
  8
ALL_ASSEMBLY_MEMBERS
100
AcDbEllipse
 62
7
  6
CONTINUOUS
 10
4.9062305901
 20
5.1491398258
 30
0.0
 11
0.2110171867
 21
0.9517391668
 31
0.0
 40
0.4585402462
 41
-4.5883562274
 42
-4.5807268405
  0
ELLIPSE
  5
396
100
AcDbEntity
  8
ALL_ASSEMBLY_MEMBERS
100
AcDbEllipse
 62
7
  6
CONTINUOUS
 10
4.9062305901
 20
5.111156156
 30
0.0
 11
-0.211017168
 21
0.9517393376
 31
0.0
 40
0.4585401734
 41
1.4391342299
 42
1.4467636167
  0
ELLIPSE
  5
397
100
AcDbEntity
  8
ALL_ASSEMBLY_MEMBERS
100
AcDbEllipse
 62
7
  6
CONTINUOUS
 10
4.9062305901
 20
5.1292960814
 30
0.0
 11
0.4668511673
 21
-0.2089255909
 31
0.0
 40
0.6246664746
 41
-2.5604535267
 42
-2.5502781873
  0
ELLIPSE
  5
398
100
AcDbEntity
  8
ALL_ASSEMBLY_MEMBERS
100
AcDbEllipse
 62
7
  6
CONTINUOUS
 10
4.9062305901
 20
5.1365620678
 30
0.0
 11
0.4841680714
 21
-0.0695313633
 31
0.0
 40
0.3415054598
 41
-2.7942212431
 42
-2.7840417005
  0
ELLIPSE
  5
399
100
AcDbEntity
  8
ALL_ASSEMBLY_MEMBERS
100
AcDbEllipse
 62
7
  6
CONTINUOUS
 10
4.9062305901
 20
5.1201760528
 30
0.0
 11
0.4668512029
 21
-0.2089254365
 31
0.0
 40
0.6246663258
 41
-2.6063101801
 42
-2.6012078026
  0
ELLIPSE
  5
39A
100
AcDbEntity
  8
ALL_ASSEMBLY_MEMBERS
100
AcDbEllipse
 62
7
  6
CONTINUOUS
 10
4.9062305901
 20
5.0892280206
 30
0.0
 11
-0.2578960711
 21
0.7014332479
 31
0.0
 40
0.5851642007
 41
1.2648458323
 42
1.272503669
  0
ELLIPSE
  5
39B
100
AcDbEntity
  8
ALL_ASSEMBLY_MEMBERS
100
AcDbEllipse
 62
7
  6
CONTINUOUS
 10
4.9062305901
 20
5.02185994
 30
0.0
 11
-0.1839239562
 21
1.4338136914
 31
0.0
 40
0.3128039274
 41
1.4315508783
 42
1.436659149
  0
ELLIPSE
  5
39C
100
AcDbEntity
  8
ALL_ASSEMBLY_MEMBERS
100
AcDbEllipse
 62
7
  6
CONTINUOUS
 10
4.9062305901
 20
5.2459829533
 30
0.0
 11
0.3259986888
 21
0.53452672
 31
0.0
 40
0.6711697407
 41
-1.3248817727
 42
-1.3025825674
  0
ELLIPSE
  5
39D
100
AcDbEntity
  8
ALL_ASSEMBLY_MEMBERS
100
AcDbEllipse
 62
7
  6
CONTINUOUS
 10
4.9062305901
 20
5.3469044833
 30
0.0
 11
0.1770586083
 21
1.7931568303
 31
0.0
 40
0.2516550235
 41
-4.5935119134
 42
-4.5884036427
  0
ELLIPSE
  5
39E
100
AcDbEntity
  8
ALL_ASSEMBLY_MEMBERS
100
AcDbEllipse
 62
7
  6
CONTINUOUS
 10
4.9062305901
 20
5.2458522686
 30
0.0
 11
0.2578960711
 21
0.7014332479
 31
0.0
 40
0.5851642007
 41
-4.4140963225
 42
-4.4064384859
  0
ELLIPSE
  5
39F
100
AcDbEntity
  8
ALL_ASSEMBLY_MEMBERS
100
AcDbEllipse
 62
7
  6
CONTINUOUS
 10
4.9062305901
 20
5.221093844
 30
0.0
 11
0.4356621873
 21
0.3097084593
 31
0.0
 40
0.6863173103
 41
-3.8709533301
 42
-3.8582013196
  0
ELLIPSE
  5
3A0
100
AcDbEntity
  8
ALL_ASSEMBLY_MEMBERS
100
AcDbEllipse
 62
7
  6
CONTINUOUS
 10
4.9062305901
 20
5.1999834367
 30
0.0
 11
0.4845296421
 21
0.0531218233
 31
0.0
 40
0.2751160055
 41
2.8232569308
 42
2.835996958
  0
ELLIPSE
  5
3A1
100
AcDbEntity
  8
ALL_ASSEMBLY_MEMBERS
100
AcDbEllipse
 62
7
  6
CONTINUOUS
 10
4.9062305901
 20
5.2034227609
 30
0.0
 11
0.3259987817
 21
0.5345265359
 31
0.0
 40
0.671169814
 41
-1.2507643659
 42
-1.2286210799
  0
ELLIPSE
  5
3A2
100
AcDbEntity
  8
ALL_ASSEMBLY_MEMBERS
100
AcDbEllipse
 62
7
  6
CONTINUOUS
 10
4.9062305901
 20
5.1323044452
 30
0.0
 11
0.4630591816
 21
0.2245111552
 31
0.0
 40
0.6386464466
 41
-0.6183052266
 42
-0.6035566623
  0
ELLIPSE
  5
3A3
100
AcDbEntity
  8
ALL_ASSEMBLY_MEMBERS
100
AcDbEllipse
 62
7
  6
CONTINUOUS
 10
4.9062305901
 20
5.1436348661
 30
0.0
 11
0.4846322909
 21
0.0448829864
 31
0.0
 40
0.2379966242
 41
-0.3253141803
 42
-0.3105556307
  0
ELLIPSE
  5
3A4
100
AcDbEntity
  8
ALL_ASSEMBLY_MEMBERS
100
AcDbEllipse
 62
7
  6
CONTINUOUS
 10
4.9062305901
 20
5.1221331423
 30
0.0
 11
0.4846322909
 21
-0.0448829864
 31
0.0
 40
0.2379966242
 41
0.3105556307
 42
0.3253141803
  0
ELLIPSE
  5
3A5
100
AcDbEntity
  8
ALL_ASSEMBLY_MEMBERS
100
AcDbEllipse
 62
7
  6
CONTINUOUS
 10
4.9062305901
 20
5.1315751567
 30
0.0
 11
0.4734427814
 21
-0.1768432279
 31
0.0
 40
0.588594106
 41
0.5196885314
 42
0.5307507159
  0
ELLIPSE
  5
3A6
100
AcDbEntity
  8
ALL_ASSEMBLY_MEMBERS
100
AcDbEllipse
 62
7
  6
CONTINUOUS
 10
4.9062305901
 20
5.1544935554
 30
0.0
 11
-0.207495773
 21
0.9858241387
 31
0.0
 40
0.4443956471
 41
-1.6987885097
 42
-1.6914161614
  0
ELLIPSE
  5
3A7
100
AcDbEntity
  8
ALL_ASSEMBLY_MEMBERS
100
AcDbEllipse
 62
7
  6
CONTINUOUS
 10
4.9062305901
 20
5.0973437092
 30
0.0
 11
0.4847035227
 21
0.0351495033
 31
0.0
 40
0.1909698234
 41
-0.2802019056
 42
-0.2617015349
  0
ELLIPSE
  5
3A8
100
AcDbEntity
  8
ALL_ASSEMBLY_MEMBERS
100
AcDbEllipse
 62
7
  6
CONTINUOUS
 10
4.9062305901
 20
5.0773353256
 30
0.0
 11
0.4782981758
 21
0.1456294577
 31
0.0
 40
0.5412725914
 41
-0.4111891223
 42
-0.3926539211
  0
ELLIPSE
  5
3A9
100
AcDbEntity
  8
ALL_ASSEMBLY_MEMBERS
100
AcDbEllipse
 62
7
  6
CONTINUOUS
 10
4.9062305901
 20
5.0339652922
 30
0.0
 11
0.2800134072
 21
0.636735321
 31
0.0
 40
0.6214444929
 41
-1.1842741772
 42
-1.1731335909
  0
ELLIPSE
  5
3AA
100
AcDbEntity
  8
ALL_ASSEMBLY_MEMBERS
100
AcDbEllipse
 62
7
  6
CONTINUOUS
 10
4.9062305901
 20
4.9585837644
 30
0.0
 11
0.190868369
 21
1.2357421379
 31
0.0
 40
0.3605861895
 41
-1.3842710587
 42
-1.3768349866
  0
ELLIPSE
  5
3AB
100
AcDbEntity
  8
ALL_ASSEMBLY_MEMBERS
100
AcDbEllipse
 62
7
  6
CONTINUOUS
 10
4.9062305901
 20
5.3071842666
 30
0.0
 11
-0.1908683611
 21
1.2357423122
 31
0.0
 40
0.3605861413
 41
-1.7647576494
 42
-1.7573215773
  0
ELLIPSE
  5
3AC
100
AcDbEntity
  8
ALL_ASSEMBLY_MEMBERS
100
AcDbEllipse
 62
7
  6
CONTINUOUS
 10
4.9062305901
 20
5.2318027086
 30
0.0
 11
-0.2800134331
 21
0.6367352539
 31
0.0
 40
0.6214445296
 41
-1.968459128
 42
-1.9573185418
  0
ELLIPSE
  5
3AD
100
AcDbEntity
  8
ALL_ASSEMBLY_MEMBERS
100
AcDbEllipse
 62
7
  6
CONTINUOUS
 10
4.9062305901
 20
5.1884326791
 30
0.0
 11
0.4782981788
 21
-0.1456294353
 31
0.0
 40
0.541272552
 41
0.3926538838
 42
0.411189085
  0
ELLIPSE
  5
3AE
100
AcDbEntity
  8
ALL_ASSEMBLY_MEMBERS
100
AcDbEllipse
 62
7
  6
CONTINUOUS
 10
4.9062305901
 20
5.1684242972
 30
0.0
 11
0.4847035227
 21
-0.0351495
 31
0.0
 40
0.1909698069
 41
0.2617015324
 42
0.2802019031
  0
ELLIPSE
  5
3AF
100
AcDbEntity
  8
ALL_ASSEMBLY_MEMBERS
100
AcDbEllipse
 62
7
  6
CONTINUOUS
 10
4.9062305901
 20
5.0964278948
 30
0.0
 11
0.484529642
 21
-0.0531218287
 31
0.0
 40
0.275116029
 41
-2.8385463295
 42
-2.8258040739
  0
ELLIPSE
  5
3B0
100
AcDbEntity
  8
ALL_ASSEMBLY_MEMBERS
100
AcDbEllipse
 62
7
  6
CONTINUOUS
 10
4.9062305901
 20
5.07458788
 30
0.0
 11
-0.4356621459
 21
0.3097085669
 31
0.0
 40
0.6863173461
 41
0.7140568349
 42
0.7268114943
  0
ELLIPSE
  5
3B1
100
AcDbEntity
  8
ALL_ASSEMBLY_MEMBERS
100
AcDbEllipse
 62
7
  6
CONTINUOUS
 10
4.9062305901
 20
5.0490998473
 30
0.0
 11
-0.2578960294
 21
0.701433387
 31
0.0
 40
0.5851641221
 41
1.2622921148
 42
1.2699517446
  0
ELLIPSE
  5
3B2
100
AcDbEntity
  8
ALL_ASSEMBLY_MEMBERS
100
AcDbEllipse
 62
7
  6
CONTINUOUS
 10
4.9062305901
 20
4.945311712
 30
0.0
 11
-0.1770586193
 21
1.7931559956
 31
0.0
 40
0.2516551382
 41
1.4442558639
 42
1.4493654161
  0
ELLIPSE
  5
3B3
100
AcDbEntity
  8
ALL_ASSEMBLY_MEMBERS
100
AcDbEllipse
 62
7
  6
CONTINUOUS
 10
4.9062305901
 20
5.3149842991
 30
0.0
 11
0.177058616
 21
1.7931562471
 31
0.0
 40
0.2516551037
 41
-4.5909580771
 42
-4.5858485249
  0
ELLIPSE
  5
3B4
100
AcDbEntity
  8
ALL_ASSEMBLY_MEMBERS
100
AcDbEllipse
 62
7
  6
CONTINUOUS
 10
4.9062305901
 20
5.1938981068
 30
0.0
 11
0.3546537589
 21
0.4793658574
 31
0.0
 40
0.6893673822
 41
-4.1543810131
 42
-4.1441693573
  0
ELLIPSE
  5
3B5
100
AcDbEntity
  8
ALL_ASSEMBLY_MEMBERS
100
AcDbEllipse
 62
7
  6
CONTINUOUS
 10
4.9062305901
 20
5.1784240882
 30
0.0
 11
0.4668512029
 21
0.2089254365
 31
0.0
 40
0.6246663258
 41
2.6012078026
 42
2.6063101801
  0
ELLIPSE
  5
3B6
100
AcDbEntity
  8
ALL_ASSEMBLY_MEMBERS
100
AcDbEllipse
 62
7
  6
CONTINUOUS
 10
4.9062305901
 20
5.1233380187
 30
0.0
 11
0.4817044942
 21
-0.0691776629
 31
0.0
 40
0.3415058114
 41
-2.7050160301
 42
-2.6947853447
  0
ELLIPSE
  5
3B7
100
AcDbEntity
  8
ALL_ASSEMBLY_MEMBERS
100
AcDbEllipse
 62
7
  6
CONTINUOUS
 10
4.9062305901
 20
5.0909919293
 30
0.0
 11
0.4644757236
 21
-0.2078624458
 31
0.0
 40
0.6246664002
 41
-2.6016242452
 42
-2.5913732513
  0
ELLIPSE
  5
3B8
100
AcDbEntity
  8
ALL_ASSEMBLY_MEMBERS
100
AcDbEllipse
 62
7
  6
CONTINUOUS
 10
4.9062305901
 20
5.0909919293
 30
0.0
 11
0.4668511851
 21
-0.2089255137
 31
0.0
 40
0.6246664002
 41
-2.601207666
 42
-2.5910091369
  0
ELLIPSE
  5
3B9
100
AcDbEntity
  8
ALL_ASSEMBLY_MEMBERS
100
AcDbEllipse
 62
7
  6
CONTINUOUS
 10
4.9062305901
 20
5.1037299359
 30
0.0
 11
0.4817044969
 21
-0.0691775694
 31
0.0
 40
0.3415054598
 41
-2.8149612884
 42
-2.8098396765
  0
ELLIPSE
  5
3BA
100
AcDbEntity
  8
ALL_ASSEMBLY_MEMBERS
100
AcDbEllipse
 62
7
  6
CONTINUOUS
 10
4.9062305901
 20
5.1037299359
 30
0.0
 11
0.4841680714
 21
-0.0695313633
 31
0.0
 40
0.3415054598
 41
-2.8145971741
 42
-2.804406043
  0
ELLIPSE
  5
3BB
100
AcDbEntity
  8
ALL_ASSEMBLY_MEMBERS
100
AcDbEllipse
 62
7
  6
CONTINUOUS
 10
4.9062305901
 20
5.1233380187
 30
0.0
 11
0.4841680686
 21
-0.0695314572
 31
0.0
 40
0.3415058114
 41
-2.7052120566
 42
-2.6950335265
  0
ELLIPSE
  5
3BC
100
AcDbEntity
  8
ALL_ASSEMBLY_MEMBERS
100
AcDbEllipse
 62
7
  6
CONTINUOUS
 10
4.9062305901
 20
5.2605749828
 30
0.0
 11
0.3259988447
 21
0.534526411
 31
0.0
 40
0.6711698637
 41
-1.3248813381
 42
-1.3025821329
  0
ELLIPSE
  5
3BD
100
AcDbEntity
  8
ALL_ASSEMBLY_MEMBERS
100
AcDbEllipse
 62
7
  6
CONTINUOUS
 10
4.9062305901
 20
5.2605749828
 30
0.0
 11
0.3243400769
 21
0.5318066001
 31
0.0
 40
0.6711698637
 41
-1.3256157268
 42
-1.3032004624
  0
ELLIPSE
  5
3BE
100
AcDbEntity
  8
ALL_ASSEMBLY_MEMBERS
100
AcDbEllipse
 62
7
  6
CONTINUOUS
 10
4.9062305901
 20
5.1693881788
 30
0.0
 11
0.4820642286
 21
-0.0528514816
 31
0.0
 40
0.2751158134
 41
-2.6982804374
 42
-2.6854723786
  0
ELLIPSE
  5
3BF
100
AcDbEntity
  8
ALL_ASSEMBLY_MEMBERS
100
AcDbEllipse
 62
7
  6
CONTINUOUS
 10
4.9062305901
 20
5.1693881788
 30
0.0
 11
0.4845296428
 21
-0.0531217792
 31
0.0
 40
0.2751158134
 41
-2.6986070031
 42
-2.6858644385
  0
ELLIPSE
  5
3C0
100
AcDbEntity
  8
ALL_ASSEMBLY_MEMBERS
100
AcDbEllipse
 62
7
  6
CONTINUOUS
 10
4.9062305901
 20
5.1913243614
 30
0.0
 11
-0.4334453124
 21
0.30813287
 31
0.0
 40
0.6863174071
 41
0.879885828
 42
0.8927065257
  0
ELLIPSE
  5
3C1
100
AcDbEntity
  8
ALL_ASSEMBLY_MEMBERS
100
AcDbEllipse
 62
7
  6
CONTINUOUS
 10
4.9062305901
 20
5.1913243614
 30
0.0
 11
-0.4356620756
 21
0.3097087495
 31
0.0
 40
0.6863174071
 41
0.879493768
 42
0.8922487784
  0
ELLIPSE
  5
3C2
100
AcDbEntity
  8
ALL_ASSEMBLY_MEMBERS
100
AcDbEllipse
 62
7
  6
CONTINUOUS
 10
4.9062305901
 20
5.2382286669
 30
0.0
 11
-0.2099434945
 21
0.9468962978
 31
0.0
 40
0.4585403189
 41
1.5591997581
 42
1.5668991476
  0
ELLIPSE
  5
3C3
100
AcDbEntity
  8
ALL_ASSEMBLY_MEMBERS
100
AcDbEllipse
 62
7
  6
CONTINUOUS
 10
4.9062305901
 20
5.2382286669
 30
0.0
 11
-0.2110172055
 21
0.951738996
 31
0.0
 40
0.4585403189
 41
1.5587420108
 42
1.5664018812
  0
ELLIPSE
  5
3C4
100
AcDbEntity
  8
ALL_ASSEMBLY_MEMBERS
100
AcDbEllipse
 62
7
  6
CONTINUOUS
 10
4.9062305901
 20
5.2180148074
 30
0.0
 11
0.3259989376
 21
0.5345262269
 31
0.0
 40
0.6711699369
 41
-1.2507639313
 42
-1.2286206453
  0
ELLIPSE
  5
3C5
100
AcDbEntity
  8
ALL_ASSEMBLY_MEMBERS
100
AcDbEllipse
 62
7
  6
CONTINUOUS
 10
4.9062305901
 20
5.2180148074
 30
0.0
 11
0.3243401693
 21
0.5318064169
 31
0.0
 40
0.6711699369
 41
-1.2511147927
 42
-1.2288578778
  0
ELLIPSE
  5
3C6
100
AcDbEntity
  8
ALL_ASSEMBLY_MEMBERS
100
AcDbEllipse
 62
7
  6
CONTINUOUS
 10
4.9062305901
 20
5.1424299897
 30
0.0
 11
0.4817044942
 21
0.0691776629
 31
0.0
 40
0.3415058114
 41
8.9779706519
 42
8.9882013373
  0
ELLIPSE
  5
3C7
100
AcDbEntity
  8
ALL_ASSEMBLY_MEMBERS
100
AcDbEllipse
 62
7
  6
CONTINUOUS
 10
4.9062305901
 20
5.1839802479
 30
0.0
 11
0.4820642278
 21
-0.0528515343
 31
0.0
 40
0.2751160439
 41
-2.8133316337
 42
-2.8005427031
  0
ELLIPSE
  5
3C8
100
AcDbEntity
  8
ALL_ASSEMBLY_MEMBERS
100
AcDbEllipse
 62
7
  6
CONTINUOUS
 10
4.9062305901
 20
5.1424299897
 30
0.0
 11
0.4841680686
 21
0.0695314572
 31
0.0
 40
0.3415058114
 41
2.6950335265
 42
2.7052120566
  0
ELLIPSE
  5
3C9
100
AcDbEntity
  8
ALL_ASSEMBLY_MEMBERS
100
AcDbEllipse
 62
7
  6
CONTINUOUS
 10
4.9062305901
 20
5.1839802479
 30
0.0
 11
0.484529642
 21
-0.0531218322
 31
0.0
 40
0.2751160439
 41
-2.8130721217
 42
-2.8003483937
  0
ELLIPSE
  5
3CA
100
AcDbEntity
  8
ALL_ASSEMBLY_MEMBERS
100
AcDbEllipse
 62
7
  6
CONTINUOUS
 10
4.9062305901
 20
5.1286898576
 30
0.0
 11
0.3528493905
 21
0.4769263331
 31
0.0
 40
0.6893674814
 41
-4.2792623293
 42
-4.2690356602
  0
ELLIPSE
  5
3CB
100
AcDbEntity
  8
ALL_ASSEMBLY_MEMBERS
100
AcDbEllipse
 62
7
  6
CONTINUOUS
 10
4.9062305901
 20
5.1730842824
 30
0.0
 11
-0.4334454607
 21
0.308132485
 31
0.0
 40
0.686317278
 41
0.7648147469
 42
0.777597438
  0
ELLIPSE
  5
3CC
100
AcDbEntity
  8
ALL_ASSEMBLY_MEMBERS
100
AcDbEllipse
 62
7
  6
CONTINUOUS
 10
4.9062305901
 20
5.1730842824
 30
0.0
 11
-0.4356622246
 21
0.3097083626
 31
0.0
 40
0.686317278
 41
0.7650090563
 42
0.7777266395
  0
ELLIPSE
  5
3CD
100
AcDbEntity
  8
ALL_ASSEMBLY_MEMBERS
100
AcDbEllipse
 62
7
  6
CONTINUOUS
 10
4.9062305901
 20
5.1286898576
 30
0.0
 11
0.3546539631
 21
0.4793654706
 31
0.0
 40
0.6893674814
 41
-4.2790663028
 42
-4.2688917277
  0
ELLIPSE
  5
3CE
100
AcDbEntity
  8
ALL_ASSEMBLY_MEMBERS
100
AcDbEllipse
 62
7
  6
CONTINUOUS
 10
4.9062305901
 20
5.1658363262
 30
0.0
 11
-0.2565838281
 21
0.6978641712
 31
0.0
 40
0.5851642007
 41
1.3334926163
 42
1.3411601046
  0
ELLIPSE
  5
3CF
100
AcDbEntity
  8
ALL_ASSEMBLY_MEMBERS
100
AcDbEllipse
 62
7
  6
CONTINUOUS
 10
4.9062305901
 20
5.3192334154
 30
0.0
 11
-0.176157672
 21
1.7840339535
 31
0.0
 40
0.251654861
 41
-4.6398114528
 42
-4.6346753393
  0
ELLIPSE
  5
3D0
100
AcDbEntity
  8
ALL_ASSEMBLY_MEMBERS
100
AcDbEllipse
 62
7
  6
CONTINUOUS
 10
4.9062305901
 20
5.1658363262
 30
0.0
 11
-0.2578960711
 21
0.7014332479
 31
0.0
 40
0.5851642007
 41
1.3336218178
 42
1.3412502738
  0
ELLIPSE
  5
3D1
100
AcDbEntity
  8
ALL_ASSEMBLY_MEMBERS
100
AcDbEllipse
 62
7
  6
CONTINUOUS
 10
4.9062305901
 20
5.1613493132
 30
0.0
 11
0.4846322902
 21
-0.0448830582
 31
0.0
 40
0.2379969588
 41
0.2735943692
 42
0.2883920801
  0
ELLIPSE
  5
3D2
100
AcDbEntity
  8
ALL_ASSEMBLY_MEMBERS
100
AcDbEllipse
 62
7
  6
CONTINUOUS
 10
4.9062305901
 20
5.1613493132
 30
0.0
 11
0.4821663537
 21
-0.0446546814
 31
0.0
 40
0.2379969588
 41
6.5562793864
 42
6.5711534012
  0
ELLIPSE
  5
3D3
100
AcDbEntity
  8
ALL_ASSEMBLY_MEMBERS
100
AcDbEllipse
 62
7
  6
CONTINUOUS
 10
4.9062305901
 20
5.1468645276
 30
0.0
 11
-0.1761576992
 21
1.7840318986
 31
0.0
 40
0.2516551449
 41
1.5282335062
 42
1.533344561
  0
ELLIPSE
  5
3D4
100
AcDbEntity
  8
ALL_ASSEMBLY_MEMBERS
100
AcDbEllipse
 62
7
  6
CONTINUOUS
 10
4.9062305901
 20
5.1814313538
 30
0.0
 11
0.4734427814
 21
-0.1768432279
 31
0.0
 40
0.588594106
 41
0.4568564648
 42
0.4679686539
  0
ELLIPSE
  5
3D5
100
AcDbEntity
  8
ALL_ASSEMBLY_MEMBERS
100
AcDbEllipse
 62
7
  6
CONTINUOUS
 10
4.9062305901
 20
5.1814313538
 30
0.0
 11
0.47103378
 21
-0.175943403
 31
0.0
 40
0.588594106
 41
0.4562987307
 42
0.467468364
  0
ELLIPSE
  5
3D6
100
AcDbEntity
  8
ALL_ASSEMBLY_MEMBERS
100
AcDbEllipse
 62
7
  6
CONTINUOUS
 10
4.9062305901
 20
5.2261553222
 30
0.0
 11
-0.2501318493
 21
0.728790877
 31
0.0
 40
0.569753021
 41
-1.8799443451
 42
-1.8725288025
  0
ELLIPSE
  5
3D7
100
AcDbEntity
  8
ALL_ASSEMBLY_MEMBERS
100
AcDbEllipse
 62
7
  6
CONTINUOUS
 10
4.9062305901
 20
5.2261553222
 30
0.0
 11
-0.2488591127
 21
0.7250825974
 31
0.0
 40
0.569753021
 41
-1.880540491
 42
-1.8730865367
  0
ELLIPSE
  5
3D8
100
AcDbEntity
  8
ALL_ASSEMBLY_MEMBERS
100
AcDbEllipse
 62
7
  6
CONTINUOUS
 10
4.9062305901
 20
5.3121316739
 30
0.0
 11
-0.1826258381
 21
1.484169538
 31
0.0
 40
0.3025481177
 41
-1.7277547305
 42
-1.7240446013
  0
ELLIPSE
  5
3D9
100
AcDbEntity
  8
ALL_ASSEMBLY_MEMBERS
100
AcDbEllipse
 62
7
  6
CONTINUOUS
 10
4.9062305901
 20
5.3121316739
 30
0.0
 11
-0.1816965899
 21
1.4766176932
 31
0.0
 40
0.3025481177
 41
-1.7283701194
 42
-1.7246407472
  0
ELLIPSE
  5
3DA
100
AcDbEntity
  8
ALL_ASSEMBLY_MEMBERS
100
AcDbEllipse
 62
7
  6
CONTINUOUS
 10
4.9062305901
 20
4.953636416
 30
0.0
 11
0.1826258551
 21
1.4841688429
 31
0.0
 40
0.3025482548
 41
-1.4175480146
 42
-1.4138378854
  0
ELLIPSE
  5
3DB
100
AcDbEntity
  8
ALL_ASSEMBLY_MEMBERS
100
AcDbEllipse
 62
7
  6
CONTINUOUS
 10
4.9062305901
 20
4.953636416
 30
0.0
 11
0.1816966067
 21
1.4766170017
 31
0.0
 40
0.3025482548
 41
-1.4169518687
 42
-1.4132224965
  0
ELLIPSE
  5
3DC
100
AcDbEntity
  8
ALL_ASSEMBLY_MEMBERS
100
AcDbEllipse
 62
7
  6
CONTINUOUS
 10
4.9062305901
 20
5.0396126674
 30
0.0
 11
0.250131799
 21
0.7287910644
 31
0.0
 40
0.5697529161
 41
-1.269063972
 42
-1.2616484294
  0
ELLIPSE
  5
3DD
100
AcDbEntity
  8
ALL_ASSEMBLY_MEMBERS
100
AcDbEllipse
 62
7
  6
CONTINUOUS
 10
4.9062305901
 20
5.0396126674
 30
0.0
 11
0.2488590627
 21
0.7250827838
 31
0.0
 40
0.5697529161
 41
-1.2685062378
 42
-1.2610522835
  0
ELLIPSE
  5
3DE
100
AcDbEntity
  8
ALL_ASSEMBLY_MEMBERS
100
AcDbEllipse
 62
7
  6
CONTINUOUS
 10
4.9062305901
 20
5.0843366546
 30
0.0
 11
0.4734427814
 21
0.1768432279
 31
0.0
 40
0.588594106
 41
-0.4679686539
 42
-0.4568564648
  0
ELLIPSE
  5
3DF
100
AcDbEntity
  8
ALL_ASSEMBLY_MEMBERS
100
AcDbEllipse
 62
7
  6
CONTINUOUS
 10
4.9062305901
 20
5.0843366546
 30
0.0
 11
0.47103378
 21
0.175943403
 31
0.0
 40
0.588594106
 41
-0.467468364
 42
-0.4562987307
  0
ELLIPSE
  5
3E0
100
AcDbEntity
  8
ALL_ASSEMBLY_MEMBERS
100
AcDbEllipse
 62
7
  6
CONTINUOUS
 10
4.9062305901
 20
5.1044186952
 30
0.0
 11
0.4846322902
 21
0.0448830582
 31
0.0
 40
0.2379969588
 41
-0.2883920801
 42
-0.2735943692
  0
ELLIPSE
  5
3E1
100
AcDbEntity
  8
ALL_ASSEMBLY_MEMBERS
100
AcDbEllipse
 62
7
  6
CONTINUOUS
 10
4.9062305901
 20
5.1044186952
 30
0.0
 11
0.4821663537
 21
0.0446546814
 31
0.0
 40
0.2379969588
 41
-0.287968094
 42
-0.2730940792
  0
ELLIPSE
  5
3E2
100
AcDbEntity
  8
ALL_ASSEMBLY_MEMBERS
100
AcDbEllipse
 62
7
  6
CONTINUOUS
 10
4.9062305901
 20
5.3192334154
 30
0.0
 11
-0.1770585927
 21
1.7931580129
 31
0.0
 40
0.251654861
 41
-4.6403087193
 42
-4.6351990007
  0
ELLIPSE
  5
3E3
100
AcDbEntity
  8
ALL_ASSEMBLY_MEMBERS
100
AcDbEllipse
 62
7
  6
CONTINUOUS
 10
4.9062305901
 20
5.1468645276
 30
0.0
 11
-0.17705862
 21
1.7931559474
 31
0.0
 40
0.2516551449
 41
1.5283236754
 42
1.5334087178
  0
ELLIPSE
  5
3E4
100
AcDbEntity
  8
ALL_ASSEMBLY_MEMBERS
100
AcDbEllipse
 62
7
  6
CONTINUOUS
 10
4.9062305901
 20
5.1818918149
 30
0.0
 11
0.182988122
 21
1.4265173665
 31
0.0
 40
0.3128040763
 41
-4.6596770866
 42
-4.6545660318
  0
ELLIPSE
  5
3E5
100
AcDbEntity
  8
ALL_ASSEMBLY_MEMBERS
100
AcDbEllipse
 62
7
  6
CONTINUOUS
 10
4.9062305901
 20
5.1930461992
 30
0.0
 11
0.4817044969
 21
0.0691775694
 31
0.0
 40
0.3415054598
 41
9.0930249837
 42
9.0981465956
  0
ELLIPSE
  5
3E6
100
AcDbEntity
  8
ALL_ASSEMBLY_MEMBERS
100
AcDbEllipse
 62
7
  6
CONTINUOUS
 10
4.9062305901
 20
5.1818918149
 30
0.0
 11
0.1839239755
 21
1.4338129838
 31
0.0
 40
0.3128040763
 41
-4.6597412434
 42
-4.654656201
  0
ELLIPSE
  5
3E7
100
AcDbEntity
  8
ALL_ASSEMBLY_MEMBERS
100
AcDbEllipse
 62
7
  6
CONTINUOUS
 10
4.9062305901
 20
5.1930461992
 30
0.0
 11
0.4841680714
 21
0.0695313633
 31
0.0
 40
0.3415054598
 41
2.804406043
 42
2.8145971741
  0
ELLIPSE
  5
3E8
100
AcDbEntity
  8
ALL_ASSEMBLY_MEMBERS
100
AcDbEllipse
 62
7
  6
CONTINUOUS
 10
4.9062305901
 20
5.169243963
 30
0.0
 11
0.2565838281
 21
0.6978641712
 31
0.0
 40
0.5851642007
 41
-4.4827527582
 42
-4.4750852699
  0
ELLIPSE
  5
3E9
100
AcDbEntity
  8
ALL_ASSEMBLY_MEMBERS
100
AcDbEllipse
 62
7
  6
CONTINUOUS
 10
4.9062305901
 20
5.169243963
 30
0.0
 11
0.2578960711
 21
0.7014332479
 31
0.0
 40
0.5851642007
 41
-4.4828429274
 42
-4.4752144714
  0
ELLIPSE
  5
3EA
100
AcDbEntity
  8
ALL_ASSEMBLY_MEMBERS
100
AcDbEllipse
 62
7
  6
CONTINUOUS
 10
4.9062305901
 20
5.1326054762
 30
0.0
 11
-0.207495773
 21
0.9858241387
 31
0.0
 40
0.4443956471
 41
-1.6766755349
 42
-1.6693064443
  0
ELLIPSE
  5
3EB
100
AcDbEntity
  8
ALL_ASSEMBLY_MEMBERS
100
AcDbEllipse
 62
7
  6
CONTINUOUS
 10
4.9062305901
 20
5.1326054762
 30
0.0
 11
-0.2064399799
 21
0.9808080064
 31
0.0
 40
0.4443956471
 41
-1.676740052
 42
-1.6693332706
  0
ELLIPSE
  5
3EC
100
AcDbEntity
  8
ALL_ASSEMBLY_MEMBERS
100
AcDbEllipse
 62
7
  6
CONTINUOUS
 10
4.9062305901
 20
5.1284423048
 30
0.0
 11
-0.2800134072
 21
0.636735321
 31
0.0
 40
0.6214444929
 41
-1.8612406191
 42
-1.8501855787
  0
ELLIPSE
  5
3ED
100
AcDbEntity
  8
ALL_ASSEMBLY_MEMBERS
100
AcDbEllipse
 62
7
  6
CONTINUOUS
 10
4.9062305901
 20
5.1284423048
 30
0.0
 11
-0.2785886254
 21
0.6334954443
 31
0.0
 40
0.6214444929
 41
-1.8613616941
 42
-1.8502500958
  0
ELLIPSE
  5
3EE
100
AcDbEntity
  8
ALL_ASSEMBLY_MEMBERS
100
AcDbEllipse
 62
7
  6
CONTINUOUS
 10
4.9062305901
 20
5.1198499974
 30
0.0
 11
0.4782981758
 21
-0.1456294577
 31
0.0
 40
0.5412725914
 41
0.4702996175
 42
0.4887317785
  0
ELLIPSE
  5
3EF
100
AcDbEntity
  8
ALL_ASSEMBLY_MEMBERS
100
AcDbEllipse
 62
7
  6
CONTINUOUS
 10
4.9062305901
 20
5.1198499974
 30
0.0
 11
0.475864469
 21
-0.1448884567
 31
0.0
 40
0.5412725914
 41
0.4700841696
 42
0.4886107035
  0
ELLIPSE
  5
3F0
100
AcDbEntity
  8
ALL_ASSEMBLY_MEMBERS
100
AcDbEllipse
 62
7
  6
CONTINUOUS
 10
4.9062305901
 20
5.1115152617
 30
0.0
 11
0.4847035229
 21
-0.0351494601
 31
0.0
 40
0.1909696071
 41
0.3023654898
 42
0.3208119973
  0
ELLIPSE
  5
3F1
100
AcDbEntity
  8
ALL_ASSEMBLY_MEMBERS
100
AcDbEllipse
 62
7
  6
CONTINUOUS
 10
4.9062305901
 20
5.1115152617
 30
0.0
 11
0.482237224
 21
-0.0349706104
 31
0.0
 40
0.1909696071
 41
0.3020554476
 42
0.3205965494
  0
ELLIPSE
  5
3F2
100
AcDbEntity
  8
ALL_ASSEMBLY_MEMBERS
100
AcDbEllipse
 62
7
  6
CONTINUOUS
 10
4.9062305901
 20
5.2185222101
 30
0.0
 11
0.3528491689
 21
0.4769267529
 31
0.0
 40
0.6893673732
 41
-4.1693178615
 42
-4.1590668675
  0
ELLIPSE
  5
3F3
100
AcDbEntity
  8
ALL_ASSEMBLY_MEMBERS
100
AcDbEllipse
 62
7
  6
CONTINUOUS
 10
4.9062305901
 20
5.160184016
 30
0.0
 11
0.4644757768
 21
0.2078622154
 31
0.0
 40
0.6246661769
 41
2.545321506
 42
2.5504339689
  0
ELLIPSE
  5
3F4
100
AcDbEntity
  8
ALL_ASSEMBLY_MEMBERS
100
AcDbEllipse
 62
7
  6
CONTINUOUS
 10
4.9062305901
 20
5.160184016
 30
0.0
 11
0.4668512386
 21
0.2089252821
 31
0.0
 40
0.6246661769
 41
2.5451923044
 42
2.5502787336
  0
ELLIPSE
  5
3F5
100
AcDbEntity
  8
ALL_ASSEMBLY_MEMBERS
100
AcDbEllipse
 62
7
  6
CONTINUOUS
 10
4.9062305901
 20
5.2185222101
 30
0.0
 11
0.3546537404
 21
0.4793658925
 31
0.0
 40
0.6893673732
 41
-4.1696819759
 42
-4.1594834467
  0
ELLIPSE
  5
3F6
100
AcDbEntity
  8
ALL_ASSEMBLY_MEMBERS
100
AcDbEllipse
 62
7
  6
CONTINUOUS
 10
4.9062305901
 20
5.138416125
 30
0.0
 11
0.4644757768
 21
-0.2078622154
 31
0.0
 40
0.6246661769
 41
-2.5504339689
 42
-2.545321506
  0
ELLIPSE
  5
3F7
100
AcDbEntity
  8
ALL_ASSEMBLY_MEMBERS
100
AcDbEllipse
 62
7
  6
CONTINUOUS
 10
4.9062305901
 20
5.138416125
 30
0.0
 11
0.4668512386
 21
-0.2089252821
 31
0.0
 40
0.6246661769
 41
-2.5502787336
 42
-2.5451923044
  0
ELLIPSE
  5
3F8
100
AcDbEntity
  8
ALL_ASSEMBLY_MEMBERS
100
AcDbEllipse
 62
7
  6
CONTINUOUS
 10
4.9062305901
 20
5.1338861461
 30
0.0
 11
-0.3528490951
 21
0.4769268928
 31
0.0
 40
0.6893673371
 41
1.0737775876
 42
1.0840006492
  0
ELLIPSE
  5
3F9
100
AcDbEntity
  8
ALL_ASSEMBLY_MEMBERS
100
AcDbEllipse
 62
7
  6
CONTINUOUS
 10
4.9062305901
 20
5.1338861461
 30
0.0
 11
-0.3546536662
 21
0.4793660332
 31
0.0
 40
0.6893673371
 41
1.0739067891
 42
1.0840778115
  0
ELLIPSE
  5
3FA
100
AcDbEntity
  8
ALL_ASSEMBLY_MEMBERS
100
AcDbEllipse
 62
7
  6
CONTINUOUS
 10
4.9062305901
 20
5.2622083104
 30
0.0
 11
0.1991461286
 21
1.0676108832
 31
0.0
 40
0.4114301116
 41
-4.5541034629
 42
-4.5489748047
  0
ELLIPSE
  5
3FB
100
AcDbEntity
  8
ALL_ASSEMBLY_MEMBERS
100
AcDbEllipse
 62
7
  6
CONTINUOUS
 10
4.9062305901
 20
5.114944401
 30
0.0
 11
-0.1761577058
 21
1.7840313981
 31
0.0
 40
0.251655214
 41
1.5307890648
 42
1.5358999382
  0
ELLIPSE
  5
3FC
100
AcDbEntity
  8
ALL_ASSEMBLY_MEMBERS
100
AcDbEllipse
 62
7
  6
CONTINUOUS
 10
4.9062305901
 20
5.2622083104
 30
0.0
 11
0.2001646188
 21
1.0730709503
 31
0.0
 40
0.4114301116
 41
-4.5545200421
 42
-4.5494176646
  0
ELLIPSE
  5
3FD
100
AcDbEntity
  8
ALL_ASSEMBLY_MEMBERS
100
AcDbEllipse
 62
7
  6
CONTINUOUS
 10
4.9062305901
 20
5.114944401
 30
0.0
 11
-0.1770586266
 21
1.7931554444
 31
0.0
 40
0.251655214
 41
1.530866227
 42
1.5359510908
  0
ELLIPSE
  5
3FE
100
AcDbEntity
  8
ALL_ASSEMBLY_MEMBERS
100
AcDbEllipse
 62
7
  6
CONTINUOUS
 10
4.9062305901
 20
5.1453515822
 30
0.0
 11
0.1761577091
 21
1.7840311479
 31
0.0
 40
0.2516552486
 41
1.6056927228
 42
1.6108035962
  0
ELLIPSE
  5
3FF
100
AcDbEntity
  8
ALL_ASSEMBLY_MEMBERS
100
AcDbEllipse
 62
7
  6
CONTINUOUS
 10
4.9062305901
 20
5.1453515822
 30
0.0
 11
0.1770586299
 21
1.7931551929
 31
0.0
 40
0.2516552486
 41
-4.677543737
 42
-4.6724588732
  0
ELLIPSE
  5
400
100
AcDbEntity
  8
ALL_ASSEMBLY_MEMBERS
100
AcDbEllipse
 62
7
  6
CONTINUOUS
 10
4.9062305901
 20
5.1291158048
 30
0.0
 11
0.2565838006
 21
0.6978642627
 31
0.0
 40
0.5851641487
 41
-4.4853083988
 42
-4.4776413078
  0
ELLIPSE
  5
401
100
AcDbEntity
  8
ALL_ASSEMBLY_MEMBERS
100
AcDbEllipse
 62
7
  6
CONTINUOUS
 10
4.9062305901
 20
5.1291158048
 30
0.0
 11
0.2578960435
 21
0.70143334
 31
0.0
 40
0.5851641487
 41
-4.485385561
 42
-4.4777574963
  0
ELLIPSE
  5
402
100
AcDbEntity
  8
ALL_ASSEMBLY_MEMBERS
100
AcDbEllipse
 62
7
  6
CONTINUOUS
 10
4.9062305901
 20
5.1542527459
 30
0.0
 11
0.4847035229
 21
0.0351494568
 31
0.0
 40
0.1909695906
 41
-0.3208119948
 42
-0.3023654873
  0
ELLIPSE
  5
403
100
AcDbEntity
  8
ALL_ASSEMBLY_MEMBERS
100
AcDbEllipse
 62
7
  6
CONTINUOUS
 10
4.9062305901
 20
5.1542527459
 30
0.0
 11
0.482237224
 21
0.0349706071
 31
0.0
 40
0.1909695906
 41
-0.3205965469
 42
-0.3020554451
  0
ELLIPSE
  5
404
100
AcDbEntity
  8
ALL_ASSEMBLY_MEMBERS
100
AcDbEllipse
 62
7
  6
CONTINUOUS
 10
4.9062305901
 20
5.1459180109
 30
0.0
 11
0.4782981788
 21
0.1456294353
 31
0.0
 40
0.541272552
 41
-0.4887317412
 42
-0.4702995801
  0
ELLIPSE
  5
405
100
AcDbEntity
  8
ALL_ASSEMBLY_MEMBERS
100
AcDbEllipse
 62
7
  6
CONTINUOUS
 10
4.9062305901
 20
5.1459180109
 30
0.0
 11
0.4758644719
 21
0.1448884344
 31
0.0
 40
0.541272552
 41
-0.4732157386
 42
-0.4700841322
  0
ELLIPSE
  5
406
100
AcDbEntity
  8
ALL_ASSEMBLY_MEMBERS
100
AcDbEllipse
 62
7
  6
CONTINUOUS
 10
4.9062305901
 20
5.1225974555
 30
0.0
 11
0.4334452897
 21
0.3081329288
 31
0.0
 40
0.6863174268
 41
-3.9217468707
 42
-3.9089651839
  0
ELLIPSE
  5
407
100
AcDbEntity
  8
ALL_ASSEMBLY_MEMBERS
100
AcDbEllipse
 62
7
  6
CONTINUOUS
 10
4.9062305901
 20
5.1225974555
 30
0.0
 11
0.4356620527
 21
0.3097088087
 31
0.0
 40
0.6863174268
 41
-3.9218630593
 42
-3.9091464651
  0
ELLIPSE
  5
408
100
AcDbEntity
  8
ALL_ASSEMBLY_MEMBERS
100
AcDbEllipse
 62
7
  6
CONTINUOUS
 10
4.9062305901
 20
5.0728720603
 30
0.0
 11
-0.1991462019
 21
1.0676098726
 31
0.0
 40
0.41143047
 41
1.4073819844
 42
1.4125106426
  0
ELLIPSE
  5
409
100
AcDbEntity
  8
ALL_ASSEMBLY_MEMBERS
100
AcDbEllipse
 62
7
  6
CONTINUOUS
 10
4.9062305901
 20
5.0728720603
 30
0.0
 11
-0.2001646924
 21
1.0730699345
 31
0.0
 40
0.41143047
 41
1.4078248443
 42
1.4129272218
  0
ELLIPSE
  5
40A
100
AcDbEntity
  8
ALL_ASSEMBLY_MEMBERS
100
AcDbEllipse
 62
7
  6
CONTINUOUS
 10
4.9062305901
 20
5.1124310829
 30
0.0
 11
0.482064228
 21
0.0528515221
 31
0.0
 40
0.2751159905
 41
2.797985741
 42
2.8107732586
  0
ELLIPSE
  5
40B
100
AcDbEntity
  8
ALL_ASSEMBLY_MEMBERS
100
AcDbEllipse
 62
7
  6
CONTINUOUS
 10
4.9062305901
 20
5.1124310829
 30
0.0
 11
0.4845296422
 21
0.0531218199
 31
0.0
 40
0.2751159905
 41
2.7978044598
 42
2.8105267963
  0
ELLIPSE
  5
40C
100
AcDbEntity
  8
ALL_ASSEMBLY_MEMBERS
100
AcDbEllipse
 62
7
  6
CONTINUOUS
 10
4.9062305901
 20
4.9465346173
 30
0.0
 11
0.1761576753
 21
1.7840337033
 31
0.0
 40
0.2516548955
 41
1.4930826931
 42
1.4982188066
  0
ELLIPSE
  5
40D
100
AcDbEntity
  8
ALL_ASSEMBLY_MEMBERS
100
AcDbEllipse
 62
7
  6
CONTINUOUS
 10
4.9062305901
 20
5.1165580791
 30
0.0
 11
-0.3528491689
 21
0.4769267529
 31
0.0
 40
0.6893673732
 41
1.017474214
 42
1.0277252079
  0
ELLIPSE
  5
40E
100
AcDbEntity
  8
ALL_ASSEMBLY_MEMBERS
100
AcDbEllipse
 62
7
  6
CONTINUOUS
 10
4.9062305901
 20
5.1165580791
 30
0.0
 11
-0.3546537404
 21
0.4793658925
 31
0.0
 40
0.6893673732
 41
1.0178907931
 42
1.0280893223
  0
ELLIPSE
  5
40F
100
AcDbEntity
  8
ALL_ASSEMBLY_MEMBERS
100
AcDbEllipse
 62
7
  6
CONTINUOUS
 10
4.9062305901
 20
5.1420340899
 30
0.0
 11
0.4817044969
 21
-0.0691775694
 31
0.0
 40
0.3415054598
 41
-2.8149612884
 42
-2.8098396765
  0
ELLIPSE
  5
410
100
AcDbEntity
  8
ALL_ASSEMBLY_MEMBERS
100
AcDbEllipse
 62
7
  6
CONTINUOUS
 10
4.9062305901
 20
4.9465346173
 30
0.0
 11
0.177058596
 21
1.7931577614
 31
0.0
 40
0.2516548955
 41
1.4936063544
 42
1.498716073
  0
ELLIPSE
  5
411
100
AcDbEntity
  8
ALL_ASSEMBLY_MEMBERS
100
AcDbEllipse
 62
7
  6
CONTINUOUS
 10
4.9062305901
 20
5.1420340899
 30
0.0
 11
0.4841680714
 21
-0.0695313633
 31
0.0
 40
0.3415054598
 41
-2.8145971741
 42
-2.804406043
  0
ELLIPSE
  5
412
100
AcDbEntity
  8
ALL_ASSEMBLY_MEMBERS
100
AcDbEllipse
 62
7
  6
CONTINUOUS
 10
4.9062305901
 20
5.0275393334
 30
0.0
 11
0.2099434851
 21
0.9468963828
 31
0.0
 40
0.4585402825
 41
-4.7084918227
 42
-4.7007924332
  0
ELLIPSE
  5
413
100
AcDbEntity
  8
ALL_ASSEMBLY_MEMBERS
100
AcDbEllipse
 62
7
  6
CONTINUOUS
 10
4.9062305901
 20
5.0275393334
 30
0.0
 11
0.2110171961
 21
0.9517390814
 31
0.0
 40
0.4585402825
 41
-4.7079945563
 42
-4.7003346858
  0
ELLIPSE
  5
414
100
AcDbEntity
  8
ALL_ASSEMBLY_MEMBERS
100
AcDbEllipse
 62
7
  6
CONTINUOUS
 10
4.9062305901
 20
5.074443643
 30
0.0
 11
0.4334452897
 21
0.3081329288
 31
0.0
 40
0.6863174268
 41
-4.0342992866
 42
-4.0214785888
  0
ELLIPSE
  5
415
100
AcDbEntity
  8
ALL_ASSEMBLY_MEMBERS
100
AcDbEllipse
 62
7
  6
CONTINUOUS
 10
4.9062305901
 20
5.074443643
 30
0.0
 11
0.4356620527
 21
0.3097088087
 31
0.0
 40
0.6863174268
 41
-4.0338415392
 42
-4.0210865289
  0
ELLIPSE
  5
416
100
AcDbEntity
  8
ALL_ASSEMBLY_MEMBERS
100
AcDbEllipse
 62
7
  6
CONTINUOUS
 10
4.9062305901
 20
5.0963798276
 30
0.0
 11
0.4820642285
 21
0.052851487
 31
0.0
 40
0.2751158369
 41
2.6854723729
 42
2.6982804317
  0
ELLIPSE
  5
417
100
AcDbEntity
  8
ALL_ASSEMBLY_MEMBERS
100
AcDbEllipse
 62
7
  6
CONTINUOUS
 10
4.9062305901
 20
5.0963798276
 30
0.0
 11
0.4845296427
 21
0.0531217846
 31
0.0
 40
0.2751158369
 41
2.6858644329
 42
2.6986069975
  0
ELLIPSE
  5
418
100
AcDbEntity
  8
ALL_ASSEMBLY_MEMBERS
100
AcDbEllipse
 62
7
  6
CONTINUOUS
 10
4.9062305901
 20
5.1565660511
 30
0.0
 11
0.4817044969
 21
0.0691775694
 31
0.0
 40
0.3415054598
 41
9.0930249837
 42
9.0981465956
  0
ELLIPSE
  5
419
100
AcDbEntity
  8
ALL_ASSEMBLY_MEMBERS
100
AcDbEllipse
 62
7
  6
CONTINUOUS
 10
4.9062305901
 20
5.1641324269
 30
0.0
 11
-0.182988171
 21
1.4265155693
 31
0.0
 40
0.3128044563
 41
1.5564159305
 42
1.5615284492
  0
ELLIPSE
  5
41A
100
AcDbEntity
  8
ALL_ASSEMBLY_MEMBERS
100
AcDbEllipse
 62
7
  6
CONTINUOUS
 10
4.9062305901
 20
5.1565660511
 30
0.0
 11
0.4841680714
 21
0.0695313633
 31
0.0
 40
0.3415054598
 41
2.804406043
 42
2.8145971741
  0
ELLIPSE
  5
41B
100
AcDbEntity
  8
ALL_ASSEMBLY_MEMBERS
100
AcDbEllipse
 62
7
  6
CONTINUOUS
 10
4.9062305901
 20
5.1641324269
 30
0.0
 11
-0.1839240248
 21
1.4338111775
 31
0.0
 40
0.3128044563
 41
1.556285014
 42
1.5613714981
  0
ELLIPSE
  5
41C
100
AcDbEntity
  8
ALL_ASSEMBLY_MEMBERS
100
AcDbEllipse
 62
7
  6
CONTINUOUS
 10
4.9062305901
 20
5.1693040576
 30
0.0
 11
0.4644757236
 21
0.2078624458
 31
0.0
 40
0.6246664002
 41
2.5913732513
 42
2.6016242452
  0
ELLIPSE
  5
41D
100
AcDbEntity
  8
ALL_ASSEMBLY_MEMBERS
100
AcDbEllipse
 62
7
  6
CONTINUOUS
 10
4.9062305901
 20
5.1693040576
 30
0.0
 11
0.4668511851
 21
0.2089255137
 31
0.0
 40
0.6246664002
 41
2.5910091369
 42
2.601207666
  0
ELLIPSE
  5
41E
100
AcDbEntity
  8
ALL_ASSEMBLY_MEMBERS
100
AcDbEllipse
 62
7
  6
CONTINUOUS
 10
4.9062305901
 20
5.2178441091
 30
0.0
 11
0.2099434699
 21
0.946896522
 31
0.0
 40
0.4585402229
 41
-4.5293809328
 42
-4.5216870953
  0
ELLIPSE
  5
41F
100
AcDbEntity
  8
ALL_ASSEMBLY_MEMBERS
100
AcDbEllipse
 62
7
  6
CONTINUOUS
 10
4.9062305901
 20
5.2178441091
 30
0.0
 11
0.2110171808
 21
0.9517392213
 31
0.0
 40
0.4585402229
 41
-4.529797512
 42
-4.5221431086
  0
ELLIPSE
  5
420
100
AcDbEntity
  8
ALL_ASSEMBLY_MEMBERS
100
AcDbEllipse
 62
7
  6
CONTINUOUS
 10
4.9062305901
 20
5.1347881359
 30
0.0
 11
-0.4000667381
 21
0.3847573131
 31
0.0
 40
0.7000252448
 41
0.972439552
 42
0.9801098693
  0
ELLIPSE
  5
421
100
AcDbEntity
  8
ALL_ASSEMBLY_MEMBERS
100
AcDbEllipse
 62
7
  6
CONTINUOUS
 10
4.9062305901
 20
5.0424518914
 30
0.0
 11
-0.2099434885
 21
0.9468963521
 31
0.0
 40
0.4585402957
 41
1.3800943987
 42
1.3877882363
  0
ELLIPSE
  5
422
100
AcDbEntity
  8
ALL_ASSEMBLY_MEMBERS
100
AcDbEllipse
 62
7
  6
CONTINUOUS
 10
4.9062305901
 20
5.1347881359
 30
0.0
 11
-0.4021127937
 21
0.3867250719
 31
0.0
 40
0.7000252448
 41
0.9722826009
 42
0.9799138428
  0
ELLIPSE
  5
423
100
AcDbEntity
  8
ALL_ASSEMBLY_MEMBERS
100
AcDbEllipse
 62
7
  6
CONTINUOUS
 10
4.9062305901
 20
5.0424518914
 30
0.0
 11
-0.2110171995
 21
0.9517390505
 31
0.0
 40
0.4585402957
 41
1.380550412
 42
1.3882048155
  0
ENDSEC
  0
SECTION
  2
OBJECTS
  0
DICTIONARY
  5
C
100
AcDbDictionary
280
0
281
1
  3
ACAD_GROUP
350
D
  3
ACAD_MLINESTYLE
350
17
  3
ACAD_LAYOUT
350
1A
  3
ACAD_PLOTSETTINGS
350
19
  3
ACAD_PLOTSTYLENAME
350
E
  0
DICTIONARY
  5
D
102
{ACAD_REACTORS
330
C
102
}
100
AcDbDictionary
280
0
281
1
  0
ACDBDICTIONARYWDFLT
  5
E
102
{ACAD_REACTORS
330
C
102
}
100
AcDbDictionary
281
1
  3
Normal
350
F
100
AcDbDictionaryWithDefault
340
F
  0
DICTIONARY
  5
17
102
{ACAD_REACTORS
330
C
102
}
100
AcDbDictionary
280
0
281
1
  3
Standard
350
18
  0
DICTIONARY
  5
19
102
{ACAD_REACTORS
330
C
102
}
100
AcDbDictionary
281
1
  0
DICTIONARY
  5
1A
102
{ACAD_REACTORS
330
C
102
}
100
AcDbDictionary
281
1
  3
Model
350
424
  3
Layout1
350
425
  0
ACDBPLACEHOLDER
  5
F
102
{ACAD_REACTORS
330
E
102
}
  0
MLINESTYLE
  5
18
102
{ACAD_REACTORS
330
17
102
}
100
AcDbMlineStyle
  2
STANDARD
 70
0
  3

 62
256
 51
90.0
 52
90.0
 71
2
 49
0.5
 62
256
  6
BYLAYER
 49
-0.5
 62
256
  6
BYLAYER
  0
LAYOUT
  5
424
102
{ACAD_REACTORS
330
1A
102
}
100
AcDbPlotSettings
  1

  2
none_device
  4
ANSI_A_(11.00_x_8.50_Inches)
  6

 40
0.0
 41
0.0
 42
0.0
 43
0.0
 44
279.4
 45
215.9
 46
0.0
 47
0.0
 48
0.0
 49
0.0
140
0.0
141
0.0
142
1.0
143
1.0
 70
1024
 72
0
 73
0
 74
0
  7

 75
0
147
1.0
148
0.0
149
0.0
100
AcDbLayout
  1
Model
 70
0
 71
0
 10
0.0
 20
0.0
 11
11.0
 21
8.5
 12
0.0
 22
0.0
 32
0.0
 14
0.0
 24
0.0
 34
0.0
 15
0.0
 25
0.0
 35
0.0
146
0.0
 13
0.0
 23
0.0
 33
0.0
 16
1.0
 26
0.0
 36
0.0
 17
0.0
 27
1.0
 37
0.0
 76
0
330
21E
345
0
346
0
  0
LAYOUT
  5
425
102
{ACAD_REACTORS
330
1A
102
}
100
AcDbPlotSettings
  1

  2
none_device
  4
ANSI_A_(11.00_x_8.50_Inches)
  6

 40
0.0
 41
0.0
 42
0.0
 43
0.0
 44
279.4
 45
215.9
 46
0.0
 47
0.0
 48
0.0
 49
0.0
140
0.0
141
0.0
142
1.0
143
1.0
 70
0
 72
0
 73
0
 74
0
  7

 75
0
147
1.0
148
0.0
149
0.0
100
AcDbLayout
  1
Layout1
 70
0
 71
1
 10
0.0
 20
0.0
 11
11.0
 21
8.5
 12
0.0
 22
0.0
 32
0.0
 14
0.0
 24
0.0
 34
0.0
 15
0.0
 25
0.0
 35
0.0
146
0.0
 13
0.0
 23
0.0
 33
0.0
 16
1.0
 26
0.0
 36
0.0
 17
0.0
 27
1.0
 37
0.0
 76
0
330
21F
345
0
346
0
  0
ENDSEC
  0
EOF
