999
DXF file: 3-1744ts_FRONT.dxf
999
Pro/ENGINEER 2018400 by Parametric Technology Corporation
  0
SECTION
  2
HEADER
  9
$ACADVER
  1
AC1027
  9
$DWGCODEPAGE
  3
ANSI_1252
  9
$EXTMAX
 10
11.0
 20
8.5
 30
0.0
  9
$EXTMIN
 10
0.0
 20
0.0
 30
0.0
  9
$LIMMIN
 10
0.0
 20
0.0
  9
$LIMMAX
 10
11.0
 20
8.5
  9
$VIEWCTR
 10
5.5
 20
4.25
  9
$VIEWSIZE
 40
8.5
  9
$CLAYER
  8
0
  9
$LTSCALE
 40
0.605
  9
$CELTYPE
  6
BYLAYER
  9
$DIMSCALE
 40
1.0
  9
$DIMASZ
 40
0.1
  9
$DIMEXO
 40
0.0625
  9
$DIMDLI
 40
0.418
  9
$DIMEXE
 40
0.125
  9
$DIMCEN
 40
0.099
  9
$DIMLFAC
 40
1.0
  9
$DIMBLK
  1
_FILLED
  9
$DIMALT
 70
1
  9
$DIMALTD
 70
2
  9
$DIMALTTD
 70
2
  9
$DIMALTF
 40
25.4
  9
$DIMTXT
 40
0.08
  9
$DIMTOL
 70
1
  9
$DIMLIM
 70
0
  9
$DIMTFAC
 40
1.0
  9
$DIMTP
 40
0.001
  9
$DIMTM
 40
0.001
  9
$DIMGAP
 40
0.09
  9
$DIMDSEP
 70
46
  9
$AUNITS
 70
0
  9
$PDMODE
 70
3
  9
$PDSIZE
 40
0.3125
  9
$HANDSEED
  5
289
  9
$TILEMODE
 70
1
  9
$MEASUREMENT
 70
0
  9
$INSUNITS
 70
1
  0
ENDSEC
  0
SECTION
  2
CLASSES
  0
CLASS
  1
ACDBDICTIONARYWDFLT
  2
AcDbDictionaryWithDefault
  3
AutoCAD 2000
 90
0
 91
1
280
0
281
0
  0
CLASS
  1
ACDBPLACEHOLDER
  2
AcDbPlaceHolder
  3
AutoCAD 2000
 90
0
 91
1
280
0
281
0
  0
CLASS
  1
LAYOUT
  2
AcDbLayout
  3
AutoCAD 2000
 90
0
 91
0
280
0
281
0
  0
ENDSEC
  0
SECTION
  2
TABLES
  0
TABLE
  2
VPORT
  5
8
100
AcDbSymbolTable
 70
2
  0
VPORT
  5
1F4
100
AcDbSymbolTableRecord
100
AcDbViewportTableRecord
  2
*ACTIVE
 70
0
 10
0.0
 20
0.0
 11
1.0
 21
1.0
 12
5.5
 22
4.25
 13
0.0
 23
0.0
 14
1.0
 24
1.0
 15
0.0
 25
0.0
 16
0.0
 26
0.0
 36
1.0
 17
0.0
 27
0.0
 37
0.0
 40
8.5
 41
1.2941176471
 42
50.0
 43
0.0
 44
0.0
 50
0.0
 51
0.0
 71
0
 72
100
 73
1
 74
1
 75
0
 76
0
 77
0
 78
0
  0
ENDTAB
  0
TABLE
  2
LTYPE
  5
5
100
AcDbSymbolTable
 70
6
  0
LTYPE
  5
14
100
AcDbSymbolTableRecord
100
AcDbLinetypeTableRecord
  2
BYBLOCK
 70
0
  3

 72
65
 73
0
 40
0.0
  0
LTYPE
  5
15
100
AcDbSymbolTableRecord
100
AcDbLinetypeTableRecord
  2
BYLAYER
 70
0
  3

 72
65
 73
0
 40
0.0
  0
LTYPE
  5
16
100
AcDbSymbolTableRecord
100
AcDbLinetypeTableRecord
  2
CONTINUOUS
 70
64
  3
Solid line
 72
65
 73
0
 40
0.0
  0
LTYPE
  5
1F5
100
AcDbSymbolTableRecord
100
AcDbLinetypeTableRecord
  2
CENTER
 70
64
  3
____ _ ____ _ ____ _ ____ _ ____ _ ____ _ ____
 72
65
 73
4
 40
0.6
 49
0.375
 74
0
 49
-0.075
 74
0
 49
0.075
 74
0
 49
-0.075
 74
0
  0
LTYPE
  5
1F6
100
AcDbSymbolTableRecord
100
AcDbLinetypeTableRecord
  2
HIDDEN
 70
64
  3
- - - - - - - - - - - - - - - - - - - -
 72
65
 73
2
 40
0.2
 49
0.1
 74
0
 49
-0.1
 74
0
  0
LTYPE
  5
1F7
100
AcDbSymbolTableRecord
100
AcDbLinetypeTableRecord
  2
PHANTOM
 70
64
  3
_____ _ _ _____ _ _ _____ _ _ _____
 72
65
 73
6
 40
0.8
 49
0.45
 74
0
 49
-0.05
 74
0
 49
0.1
 74
0
 49
-0.05
 74
0
 49
0.1
 74
0
 49
-0.05
 74
0
  0
LTYPE
  5
1F8
100
AcDbSymbolTableRecord
100
AcDbLinetypeTableRecord
  2
DOT
 70
64
  3
. . . . . . . . . . . . . . . . . . . .
 72
65
 73
2
 40
0.2
 49
0.1
 74
0
 49
-0.1
 74
0
  0
LTYPE
  5
1F9
100
AcDbSymbolTableRecord
100
AcDbLinetypeTableRecord
  2
DASHED
 70
64
  3
- - - - - - - - - - - - - - - - - - - -
 72
65
 73
2
 40
0.2
 49
0.1
 74
0
 49
-0.1
 74
0
  0
ENDTAB
  0
TABLE
  2
LAYER
  5
2
100
AcDbSymbolTable
 70
36
  0
LAYER
  5
10
100
AcDbSymbolTableRecord
100
AcDbLayerTableRecord
  2
0
 70
0
 62
7
  6
CONTINUOUS
370
-3
390
F
  0
LAYER
  5
1FA
100
AcDbSymbolTableRecord
100
AcDbLayerTableRecord
  2
DEFAULT_1
 70
0
 62
7
  6
CENTER
370
-3
390
F
  0
LAYER
  5
1FB
100
AcDbSymbolTableRecord
100
AcDbLayerTableRecord
  2
DEFAULT_2
 70
0
 62
8
  6
HIDDEN
370
-3
390
F
  0
LAYER
  5
1FC
100
AcDbSymbolTableRecord
100
AcDbLayerTableRecord
  2
DEFAULT_3
 70
0
 62
7
  6
PHANTOM
370
-3
390
F
  0
LAYER
  5
1FD
100
AcDbSymbolTableRecord
100
AcDbLayerTableRecord
  2
2-265_ASSY_PLANES
 70
0
 62
7
  6
CONTINUOUS
370
-3
390
F
  0
LAYER
  5
1FE
100
AcDbSymbolTableRecord
100
AcDbLayerTableRecord
  2
AA
 70
0
 62
7
  6
CONTINUOUS
370
-3
390
F
  0
LAYER
  5
1FF
100
AcDbSymbolTableRecord
100
AcDbLayerTableRecord
  2
ALL_ASSEMBLY_MEMBERS
 70
0
 62
7
  6
CONTINUOUS
370
-3
390
F
  0
LAYER
  5
200
100
AcDbSymbolTableRecord
100
AcDbLayerTableRecord
  2
ALL_FEATURES
 70
0
 62
7
  6
CONTINUOUS
370
-3
390
F
  0
LAYER
  5
201
100
AcDbSymbolTableRecord
100
AcDbLayerTableRecord
  2
AXES_FEATURES
 70
0
 62
7
  6
CONTINUOUS
370
-3
390
F
  0
LAYER
  5
202
100
AcDbSymbolTableRecord
100
AcDbLayerTableRecord
  2
CHAMFER_FEATURES
 70
0
 62
7
  6
CONTINUOUS
370
-3
390
F
  0
LAYER
  5
203
100
AcDbSymbolTableRecord
100
AcDbLayerTableRecord
  2
CURVE
 70
0
 62
7
  6
CONTINUOUS
370
-3
390
F
  0
LAYER
  5
204
100
AcDbSymbolTableRecord
100
AcDbLayerTableRecord
  2
CUT_FEATURES
 70
0
 62
7
  6
CONTINUOUS
370
-3
390
F
  0
LAYER
  5
205
100
AcDbSymbolTableRecord
100
AcDbLayerTableRecord
  2
DATUM_CURVES
 70
0
 62
7
  6
CONTINUOUS
370
-3
390
F
  0
LAYER
  5
206
100
AcDbSymbolTableRecord
100
AcDbLayerTableRecord
  2
DATUM_PLANES
 70
0
 62
7
  6
CONTINUOUS
370
-3
390
F
  0
LAYER
  5
207
100
AcDbSymbolTableRecord
100
AcDbLayerTableRecord
  2
DATUM_POINTS
 70
0
 62
7
  6
CONTINUOUS
370
-3
390
F
  0
LAYER
  5
208
100
AcDbSymbolTableRecord
100
AcDbLayerTableRecord
  2
DEFAULT_COORDINATE_SYSTEM
 70
0
 62
7
  6
CONTINUOUS
370
-3
390
F
  0
LAYER
  5
209
100
AcDbSymbolTableRecord
100
AcDbLayerTableRecord
  2
DEFAULT_DATUM_AXES
 70
0
 62
7
  6
CONTINUOUS
370
-3
390
F
  0
LAYER
  5
20A
100
AcDbSymbolTableRecord
100
AcDbLayerTableRecord
  2
DEFAULT_DATUM_CURVES
 70
0
 62
7
  6
CONTINUOUS
370
-3
390
F
  0
LAYER
  5
20B
100
AcDbSymbolTableRecord
100
AcDbLayerTableRecord
  2
DEFAULT_DATUM_PLANES
 70
0
 62
7
  6
CONTINUOUS
370
-3
390
F
  0
LAYER
  5
20C
100
AcDbSymbolTableRecord
100
AcDbLayerTableRecord
  2
DEFAULT_SURFACES
 70
0
 62
7
  6
CONTINUOUS
370
-3
390
F
  0
LAYER
  5
20D
100
AcDbSymbolTableRecord
100
AcDbLayerTableRecord
  2
DIMENSIONS
 70
0
 62
7
  6
CONTINUOUS
370
-3
390
F
  0
LAYER
  5
20E
100
AcDbSymbolTableRecord
100
AcDbLayerTableRecord
  2
HOLE_FEATURES
 70
0
 62
7
  6
CONTINUOUS
370
-3
390
F
  0
LAYER
  5
20F
100
AcDbSymbolTableRecord
100
AcDbLayerTableRecord
  2
LAY0001
 70
0
 62
7
  6
CONTINUOUS
370
-3
390
F
  0
LAYER
  5
210
100
AcDbSymbolTableRecord
100
AcDbLayerTableRecord
  2
NOTES
 70
0
 62
7
  6
CONTINUOUS
370
-3
390
F
  0
LAYER
  5
211
100
AcDbSymbolTableRecord
100
AcDbLayerTableRecord
  2
PART_REFERENCE_DIMENSIONS
 70
0
 62
7
  6
CONTINUOUS
370
-3
390
F
  0
LAYER
  5
212
100
AcDbSymbolTableRecord
100
AcDbLayerTableRecord
  2
PLATED_SURFACE
 70
0
 62
7
  6
CONTINUOUS
370
-3
390
F
  0
LAYER
  5
213
100
AcDbSymbolTableRecord
100
AcDbLayerTableRecord
  2
PLATED_SURFACE_AREA
 70
0
 62
7
  6
CONTINUOUS
370
-3
390
F
  0
LAYER
  5
214
100
AcDbSymbolTableRecord
100
AcDbLayerTableRecord
  2
POINTS
 70
0
 62
7
  6
CONTINUOUS
370
-3
390
F
  0
LAYER
  5
215
100
AcDbSymbolTableRecord
100
AcDbLayerTableRecord
  2
PROTRUSION
 70
0
 62
7
  6
CONTINUOUS
370
-3
390
F
  0
LAYER
  5
216
100
AcDbSymbolTableRecord
100
AcDbLayerTableRecord
  2
PROTRUSION_FEATURES
 70
0
 62
7
  6
CONTINUOUS
370
-3
390
F
  0
LAYER
  5
217
100
AcDbSymbolTableRecord
100
AcDbLayerTableRecord
  2
QUILT
 70
0
 62
7
  6
CONTINUOUS
370
-3
390
F
  0
LAYER
  5
218
100
AcDbSymbolTableRecord
100
AcDbLayerTableRecord
  2
QUILTS
 70
0
 62
7
  6
CONTINUOUS
370
-3
390
F
  0
LAYER
  5
219
100
AcDbSymbolTableRecord
100
AcDbLayerTableRecord
  2
REFERENCE_DIMENSIONS
 70
0
 62
7
  6
CONTINUOUS
370
-3
390
F
  0
LAYER
  5
21A
100
AcDbSymbolTableRecord
100
AcDbLayerTableRecord
  2
ROUND_FEATURES
 70
0
 62
7
  6
CONTINUOUS
370
-3
390
F
  0
LAYER
  5
21B
100
AcDbSymbolTableRecord
100
AcDbLayerTableRecord
  2
SHELL_FEATURES
 70
0
 62
7
  6
CONTINUOUS
370
-3
390
F
  0
LAYER
  5
21C
100
AcDbSymbolTableRecord
100
AcDbLayerTableRecord
  2
SURFACE_FEATURES
 70
0
 62
7
  6
CONTINUOUS
370
-3
390
F
  0
LAYER
  5
21D
100
AcDbSymbolTableRecord
100
AcDbLayerTableRecord
  2
XSEC_DATUMS
 70
0
 62
7
  6
CONTINUOUS
370
-3
390
F
  0
ENDTAB
  0
TABLE
  2
STYLE
  5
3
100
AcDbSymbolTable
 70
1
  0
STYLE
  5
11
100
AcDbSymbolTableRecord
100
AcDbTextStyleTableRecord
  2
STANDARD
 70
0
 40
0.0
 41
0.8
 50
0.0
 71
0
 42
0.2
  3
txt
  4

  0
STYLE
  5
21E
100
AcDbSymbolTableRecord
100
AcDbTextStyleTableRecord
  2
TEXTSTYLE_1
 70
0
 40
0.0
 41
0.8
 50
0.0
 71
0
 42
0.2
  3
gdt
  4

  0
ENDTAB
  0
TABLE
  2
VIEW
  5
6
100
AcDbSymbolTable
 70
0
  0
ENDTAB
  0
TABLE
  2
UCS
  5
7
100
AcDbSymbolTable
 70
0
  0
ENDTAB
  0
TABLE
  2
APPID
  5
9
100
AcDbSymbolTable
 70
1
  0
APPID
  5
21F
100
AcDbSymbolTableRecord
100
AcDbRegAppTableRecord
  2
ACAD
 70
0
  0
ENDTAB
  0
TABLE
  2
BLOCK_RECORD
  5
1
100
AcDbSymbolTable
 70
0
  0
BLOCK_RECORD
  5
220
100
AcDbSymbolTableRecord
100
AcDbBlockTableRecord
  2
*Model_Space
  0
BLOCK_RECORD
  5
221
100
AcDbSymbolTableRecord
100
AcDbBlockTableRecord
  2
*Paper_Space
  0
BLOCK_RECORD
  5
222
100
AcDbSymbolTableRecord
100
AcDbBlockTableRecord
  2
_FILLED
  0
ENDTAB
  0
TABLE
  2
DIMSTYLE
  5
A
100
AcDbSymbolTable
 70
1
100
AcDbDimStyleTable
 71
0
  0
DIMSTYLE
105
223
100
AcDbSymbolTableRecord
100
AcDbDimStyleTableRecord
  2
STANDARD
 70
0
  3

  4

 40
1.0
 41
0.1
 42
0.0625
 43
0.38
 44
0.125
 45
0.0
 46
0.0
 47
0.001
 48
0.001
140
0.08
141
0.09
142
0.0
143
25.4
144
1.0
145
0.0
146
1.0
147
0.09
 71
1.0
 72
0.0
 73
1
 74
1
 75
0
 76
0
 77
0
 78
4
 79
1
170
1
171
2
172
0
173
0
174
0
175
0
176
0
177
0
178
0
270
2
179
3
271
3
272
3
273
2
274
2
275
0
280
0
281
0
282
0
283
1
284
4
285
0
286
0
287
3
288
0
340
11
278
46
341
222
342
222
343
222
344
222
  0
ENDTAB
  0
ENDSEC
  0
SECTION
  2
BLOCKS
  0
BLOCK
  5
20
100
AcDbEntity
  8
0
100
AcDbBlockBegin
  2
*Model_Space
 70
0
 10
0.0
 20
0.0
 30
0.0
  3
*Model_Space
  1

  0
ENDBLK
  5
21
100
AcDbEntity
  8
0
100
AcDbBlockEnd
  0
BLOCK
  5
1C
100
AcDbEntity
  8
0
100
AcDbBlockBegin
  2
*Paper_Space
 70
0
 10
0.0
 20
0.0
 30
0.0
  3
*Paper_Space
  1

  0
ENDBLK
  5
1D
100
AcDbEntity
  8
0
100
AcDbBlockEnd
  0
BLOCK
  5
224
100
AcDbEntity
  8
0
100
AcDbBlockBegin
  2
_FILLED
 70
64
 10
0.0
 20
0.0
  3
_FILLED
  1

  0
SOLID
  5
225
100
AcDbEntity
  8
0
  6
BYBLOCK
 62
0
100
AcDbTrace
 10
0.0
 20
0.0
 11
-1.0
 21
0.2
 12
-1.0
 22
-0.2
 13
-1.0
 23
-0.2
  0
ENDBLK
  5
226
100
AcDbEntity
  8
0
  6
BYBLOCK
 62
0
100
AcDbBlockEnd
  0
ENDSEC
  0
SECTION
  2
ENTITIES
  0
MTEXT
  5
227
100
AcDbEntity
  8
0
100
AcDbMText
 62
2
  6
CONTINUOUS
  7
STANDARD
 71
3
 72
1
 10
5.0907026398
 20
2.8470613354
 30
0.0
 11
1.0
 21
0.0
 31
0.0
 73
2
 44
0.9
  1
SCALE  .500
 40
0.08
 41
0.704
  0
LINE
  5
228
100
AcDbEntity
  8
0
100
AcDbLine
 62
7
  6
CONTINUOUS
 10
0.0
 20
0.0
 11
0.0
 21
8.5
  0
LINE
  5
229
100
AcDbEntity
  8
0
100
AcDbLine
 62
7
  6
CONTINUOUS
 10
0.0
 20
0.0
 11
11.0
 21
0.0
  0
LINE
  5
22A
100
AcDbEntity
  8
0
100
AcDbLine
 62
7
  6
CONTINUOUS
 10
0.0
 20
8.5
 11
11.0
 21
8.5
  0
LINE
  5
22B
100
AcDbEntity
  8
0
100
AcDbLine
 62
7
  6
CONTINUOUS
 10
11.0
 20
0.0
 11
11.0
 21
8.5
  0
LINE
  5
22C
100
AcDbEntity
  8
ALL_ASSEMBLY_MEMBERS
100
AcDbLine
 62
7
  6
CONTINUOUS
 10
3.4657026398
 20
6.1920613354
 11
3.4657026398
 21
2.9420613354
  0
LINE
  5
22D
100
AcDbEntity
  8
ALL_ASSEMBLY_MEMBERS
100
AcDbLine
 62
7
  6
CONTINUOUS
 10
3.5232026398
 20
6.1345613354
 11
3.5232026398
 21
2.9995613354
  0
LINE
  5
22E
100
AcDbEntity
  8
ALL_ASSEMBLY_MEMBERS
100
AcDbLine
 62
7
  6
CONTINUOUS
 10
3.4657026398
 20
2.9420613354
 11
6.7157026398
 21
2.9420613354
  0
LINE
  5
22F
100
AcDbEntity
  8
ALL_ASSEMBLY_MEMBERS
100
AcDbLine
 62
7
  6
CONTINUOUS
 10
3.5232026398
 20
2.9995613354
 11
6.6582026398
 21
2.9995613354
  0
LINE
  5
230
100
AcDbEntity
  8
ALL_ASSEMBLY_MEMBERS
100
AcDbLine
 62
7
  6
CONTINUOUS
 10
5.2564160595
 20
3.5070613354
 11
5.2476544791
 21
3.5070613354
  0
LINE
  5
231
100
AcDbEntity
  8
ALL_ASSEMBLY_MEMBERS
100
AcDbLine
 62
7
  6
CONTINUOUS
 10
5.1681049662
 20
3.5070613354
 11
5.1469526398
 21
3.5070613354
  0
LINE
  5
232
100
AcDbEntity
  8
ALL_ASSEMBLY_MEMBERS
100
AcDbLine
 62
7
  6
CONTINUOUS
 10
5.0344526398
 20
3.5070613354
 11
5.0133003133
 21
3.5070613354
  0
LINE
  5
233
100
AcDbEntity
  8
ALL_ASSEMBLY_MEMBERS
100
AcDbLine
 62
7
  6
CONTINUOUS
 10
4.92498922
 20
3.5070613354
 11
4.9337508004
 21
3.5070613354
  0
LINE
  5
234
100
AcDbEntity
  8
ALL_ASSEMBLY_MEMBERS
100
AcDbLine
 62
7
  6
CONTINUOUS
 10
5.2219526398
 20
3.8945613354
 11
4.9594526398
 21
3.8945613354
  0
LINE
  5
235
100
AcDbEntity
  8
ALL_ASSEMBLY_MEMBERS
100
AcDbLine
 62
7
  6
CONTINUOUS
 10
5.2316987965
 20
3.9770613354
 11
4.9497026398
 21
3.9770613354
  0
LINE
  5
236
100
AcDbEntity
  8
ALL_ASSEMBLY_MEMBERS
100
AcDbLine
 62
7
  6
CONTINUOUS
 10
4.9347570822
 20
4.0362900265
 11
5.2466481973
 21
4.0362900265
  0
LINE
  5
237
100
AcDbEntity
  8
ALL_ASSEMBLY_MEMBERS
100
AcDbLine
 62
7
  6
CONTINUOUS
 10
4.97806808
 20
4.1043464998
 11
5.2033371996
 21
4.1043464998
  0
LINE
  5
238
100
AcDbEntity
  8
ALL_ASSEMBLY_MEMBERS
100
AcDbLine
 62
7
  6
CONTINUOUS
 10
4.9830599415
 20
4.1090613354
 11
5.1983424477
 21
4.1090613354
  0
LWPOLYLINE
  5
239
100
AcDbEntity
  8
ALL_ASSEMBLY_MEMBERS
100
AcDbPolyline
 62
7
  6
CONTINUOUS
 90
7
 70
0
 10
3.5232026398
 20
2.9995613354
 10
3.5230784646
 20
2.9993993618
 10
3.5225671046
 20
2.9988962464
 10
3.5216685595
 20
2.9980272552
 10
3.5203762458
 20
2.9967588531
 10
3.5186967471
 20
2.9950757143
 10
3.5166498148
 20
2.9930085105
  0
LWPOLYLINE
  5
23A
100
AcDbEntity
  8
ALL_ASSEMBLY_MEMBERS
100
AcDbPolyline
 62
7
  6
CONTINUOUS
 90
7
 70
0
 10
6.6582026398
 20
2.9995613354
 10
6.6583646134
 20
2.9994371603
 10
6.6588677288
 20
2.9989258002
 10
6.65973672
 20
2.9980272552
 10
6.661005122
 20
2.9967349414
 10
6.6626882609
 20
2.9950554427
 10
6.6647554647
 20
2.9930085105
  0
LWPOLYLINE
  5
23B
100
AcDbEntity
  8
ALL_ASSEMBLY_MEMBERS
100
AcDbPolyline
 62
7
  6
CONTINUOUS
 90
7
 70
0
 10
3.5232026398
 20
6.1345613354
 10
3.5230784646
 20
6.134723309
 10
3.5225671046
 20
6.1352264244
 10
3.5216685595
 20
6.1360954156
 10
3.5203762458
 20
6.1373638177
 10
3.5186967471
 20
6.1390469565
 10
3.5166498148
 20
6.1411141603
  0
LINE
  5
23C
100
AcDbEntity
  8
ALL_ASSEMBLY_MEMBERS
100
AcDbLine
 62
7
  6
CONTINUOUS
 10
4.9932026398
 20
4.3420613354
 11
5.1882026398
 21
4.3420613354
  0
LINE
  5
23D
100
AcDbEntity
  8
ALL_ASSEMBLY_MEMBERS
100
AcDbLine
 62
7
  6
CONTINUOUS
 10
5.0133003133
 20
3.5070613354
 11
4.9978948747
 21
3.8945613354
  0
LINE
  5
23E
100
AcDbEntity
  8
ALL_ASSEMBLY_MEMBERS
100
AcDbLine
 62
7
  6
CONTINUOUS
 10
4.9594526398
 20
3.9770613354
 11
4.9594526398
 21
3.8945613354
  0
LINE
  5
23F
100
AcDbEntity
  8
ALL_ASSEMBLY_MEMBERS
100
AcDbLine
 62
7
  6
CONTINUOUS
 10
4.9932026398
 20
4.1090613354
 11
4.9932026398
 21
4.5670613354
  0
LINE
  5
240
100
AcDbEntity
  8
ALL_ASSEMBLY_MEMBERS
100
AcDbLine
 62
7
  6
CONTINUOUS
 10
5.0257026398
 20
5.047597088
 11
5.0257026398
 21
5.1628446035
  0
LINE
  5
241
100
AcDbEntity
  8
ALL_ASSEMBLY_MEMBERS
100
AcDbLine
 62
7
  6
CONTINUOUS
 10
4.921139915
 20
3.4637804978
 11
4.9594526398
 21
3.8945613354
  0
LINE
  5
242
100
AcDbEntity
  8
ALL_ASSEMBLY_MEMBERS
100
AcDbLine
 62
7
  6
CONTINUOUS
 10
4.9337508004
 20
3.5070613354
 11
4.9978948747
 21
3.8945613354
  0
LWPOLYLINE
  5
243
100
AcDbEntity
  8
ALL_ASSEMBLY_MEMBERS
100
AcDbPolyline
 62
7
  6
CONTINUOUS
 90
7
 70
0
 10
3.5009548483
 20
2.977325578
 10
3.4923261396
 20
2.9686787426
 10
3.4875604761
 20
2.9639309225
 10
3.4825130491
 20
2.9588717448
 10
3.4771913429
 20
2.9535074999
 10
3.4715878732
 20
2.9478906558
 10
3.4657026398
 20
2.9420613354
  0
LWPOLYLINE
  5
244
100
AcDbEntity
  8
ALL_ASSEMBLY_MEMBERS
100
AcDbPolyline
 62
7
  6
CONTINUOUS
 90
7
 70
0
 10
6.6804504312
 20
6.1567970928
 10
6.6890791399
 20
6.1654439282
 10
6.6938448034
 20
6.1701917483
 10
6.6988922304
 20
6.1752509261
 10
6.7042139366
 20
6.1806151709
 10
6.7098174063
 20
6.186232015
 10
6.7157026398
 20
6.1920613354
  0
LINE
  5
245
100
AcDbEntity
  8
ALL_ASSEMBLY_MEMBERS
100
AcDbLine
 62
7
  6
CONTINUOUS
 10
3.5232026398
 20
2.9995613354
 11
3.4657026398
 21
2.9420613354
  0
LINE
  5
246
100
AcDbEntity
  8
ALL_ASSEMBLY_MEMBERS
100
AcDbLine
 62
7
  6
CONTINUOUS
 10
6.6582026398
 20
6.1345613354
 11
6.7157026398
 21
6.1920613354
  0
LINE
  5
247
100
AcDbEntity
  8
ALL_ASSEMBLY_MEMBERS
100
AcDbLine
 62
7
  6
CONTINUOUS
 10
6.6765873858
 20
6.1529455417
 11
6.6804504312
 21
6.1567970928
  0
LINE
  5
248
100
AcDbEntity
  8
ALL_ASSEMBLY_MEMBERS
100
AcDbLine
 62
7
  6
CONTINUOUS
 10
3.5048178937
 20
2.9811771291
 11
3.5009548483
 21
2.977325578
  0
LWPOLYLINE
  5
249
100
AcDbEntity
  8
ALL_ASSEMBLY_MEMBERS
100
AcDbPolyline
 62
7
  6
CONTINUOUS
 90
6
 70
0
 10
3.4923261396
 20
6.1654439282
 10
3.4875604761
 20
6.1701917483
 10
3.4825130491
 20
6.1752509261
 10
3.4771913429
 20
6.1806151709
 10
3.4715878732
 20
6.186232015
 10
3.4657026398
 20
6.1920613354
  0
LWPOLYLINE
  5
24A
100
AcDbEntity
  8
ALL_ASSEMBLY_MEMBERS
100
AcDbPolyline
 62
7
  6
CONTINUOUS
 90
7
 70
0
 10
6.6804383972
 20
2.977313544
 10
6.6890852326
 20
2.9686848352
 10
6.6938330527
 20
2.9639191718
 10
6.6988922304
 20
2.9588717448
 10
6.7042564752
 20
2.9535500386
 10
6.7098733194
 20
2.9479465688
 10
6.7157026398
 20
2.9420613354
  0
LINE
  5
24B
100
AcDbEntity
  8
ALL_ASSEMBLY_MEMBERS
100
AcDbLine
 62
7
  6
CONTINUOUS
 10
3.5232026398
 20
6.1345613354
 11
3.4657026398
 21
6.1920613354
  0
LINE
  5
24C
100
AcDbEntity
  8
ALL_ASSEMBLY_MEMBERS
100
AcDbLine
 62
7
  6
CONTINUOUS
 10
6.6582026398
 20
2.9995613354
 11
6.7157026398
 21
2.9420613354
  0
LWPOLYLINE
  5
24D
100
AcDbEntity
  8
ALL_ASSEMBLY_MEMBERS
100
AcDbPolyline
 62
7
  6
CONTINUOUS
 90
4
 70
0
 10
3.5083241683
 20
6.1494398068
 10
3.5048178937
 20
6.1529455417
 10
3.5009548483
 20
6.1567970928
 10
3.4967875858
 20
6.1609763893
  0
LINE
  5
24E
100
AcDbEntity
  8
ALL_ASSEMBLY_MEMBERS
100
AcDbLine
 62
7
  6
CONTINUOUS
 10
6.6765868461
 20
2.9811765893
 11
6.6804383972
 21
2.977313544
  0
LINE
  5
24F
100
AcDbEntity
  8
ALL_ASSEMBLY_MEMBERS
100
AcDbLine
 62
7
  6
CONTINUOUS
 10
5.2476544791
 20
3.5070613354
 11
5.1835104048
 21
3.8945613354
  0
LINE
  5
250
100
AcDbEntity
  8
ALL_ASSEMBLY_MEMBERS
100
AcDbLine
 62
7
  6
CONTINUOUS
 10
5.1469526398
 20
3.5070613354
 11
5.0907026398
 21
3.8945613354
  0
LINE
  5
251
100
AcDbEntity
  8
ALL_ASSEMBLY_MEMBERS
100
AcDbLine
 62
7
  6
CONTINUOUS
 10
5.2602653645
 20
3.4637804978
 11
5.2219526398
 21
3.8945613354
  0
LINE
  5
252
100
AcDbEntity
  8
ALL_ASSEMBLY_MEMBERS
100
AcDbLine
 62
7
  6
CONTINUOUS
 10
5.1557026398
 20
5.047597088
 11
5.1557026398
 21
5.1628446035
  0
LINE
  5
253
100
AcDbEntity
  8
ALL_ASSEMBLY_MEMBERS
100
AcDbLine
 62
7
  6
CONTINUOUS
 10
5.1882026398
 20
4.1090613354
 11
5.1882026398
 21
4.5670613354
  0
LINE
  5
254
100
AcDbEntity
  8
ALL_ASSEMBLY_MEMBERS
100
AcDbLine
 62
7
  6
CONTINUOUS
 10
5.2219526398
 20
3.9770613354
 11
5.2219526398
 21
3.8945613354
  0
LINE
  5
255
100
AcDbEntity
  8
ALL_ASSEMBLY_MEMBERS
100
AcDbLine
 62
7
  6
CONTINUOUS
 10
5.1681049662
 20
3.5070613354
 11
5.1835104048
 21
3.8945613354
  0
LINE
  5
256
100
AcDbEntity
  8
ALL_ASSEMBLY_MEMBERS
100
AcDbLine
 62
7
  6
CONTINUOUS
 10
5.0344526398
 20
3.5070613354
 11
5.0907026398
 21
3.8945613354
  0
LWPOLYLINE
  5
257
100
AcDbEntity
  8
ALL_ASSEMBLY_MEMBERS
100
AcDbPolyline
 62
7
  6
CONTINUOUS
 90
7
 70
0
 10
6.6582026398
 20
6.1345613354
 10
6.6583268149
 20
6.134723309
 10
6.658838175
 20
6.1352264244
 10
6.65973672
 20
6.1360954156
 10
6.6610290337
 20
6.1373638177
 10
6.6627085324
 20
6.1390469565
 10
6.6647554647
 20
6.1411141603
  0
LINE
  5
258
100
AcDbEntity
  8
ALL_ASSEMBLY_MEMBERS
100
AcDbLine
 62
7
  6
CONTINUOUS
 10
5.0257026398
 20
5.1628446035
 11
5.1557026398
 21
5.1628446035
  0
LINE
  5
259
100
AcDbEntity
  8
ALL_ASSEMBLY_MEMBERS
100
AcDbLine
 62
7
  6
CONTINUOUS
 10
5.0461571852
 20
5.1912854948
 11
5.1352480943
 21
5.1912854948
  0
LINE
  5
25A
100
AcDbEntity
  8
ALL_ASSEMBLY_MEMBERS
100
AcDbLine
 62
7
  6
CONTINUOUS
 10
4.521967347
 20
5.2420613354
 11
4.6749379325
 21
5.2420613354
  0
LINE
  5
25B
100
AcDbEntity
  8
ALL_ASSEMBLY_MEMBERS
100
AcDbLine
 62
7
  6
CONTINUOUS
 10
5.506467347
 20
5.2420613354
 11
5.6594379325
 21
5.2420613354
  0
LINE
  5
25C
100
AcDbEntity
  8
ALL_ASSEMBLY_MEMBERS
100
AcDbLine
 62
7
  6
CONTINUOUS
 10
5.6594379325
 20
5.2670613354
 11
5.506467347
 21
5.2670613354
  0
LINE
  5
25D
100
AcDbEntity
  8
ALL_ASSEMBLY_MEMBERS
100
AcDbLine
 62
7
  6
CONTINUOUS
 10
4.6749379325
 20
5.2670613354
 11
4.521967347
 21
5.2670613354
  0
LINE
  5
25E
100
AcDbEntity
  8
ALL_ASSEMBLY_MEMBERS
100
AcDbLine
 62
7
  6
CONTINUOUS
 10
6.6582026398
 20
2.9995613354
 11
6.6582026398
 21
6.1345613354
  0
LINE
  5
25F
100
AcDbEntity
  8
ALL_ASSEMBLY_MEMBERS
100
AcDbLine
 62
7
  6
CONTINUOUS
 10
6.7157026398
 20
2.9420613354
 11
6.7157026398
 21
6.1920613354
  0
LINE
  5
260
100
AcDbEntity
  8
ALL_ASSEMBLY_MEMBERS
100
AcDbLine
 62
7
  6
CONTINUOUS
 10
6.6582026398
 20
6.1345613354
 11
3.5232026398
 21
6.1345613354
  0
LINE
  5
261
100
AcDbEntity
  8
ALL_ASSEMBLY_MEMBERS
100
AcDbLine
 62
7
  6
CONTINUOUS
 10
6.7157026398
 20
6.1920613354
 11
3.4657026398
 21
6.1920613354
  0
ARC
  5
262
100
AcDbEntity
  8
ALL_ASSEMBLY_MEMBERS
100
AcDbCircle
 62
7
  6
CONTINUOUS
 10
4.8955338898
 20
4.1090613354
 40
0.08266875
100
AcDbArc
 50
298.3243361106
 51
356.7304834094
  0
ARC
  5
263
100
AcDbEntity
  8
ALL_ASSEMBLY_MEMBERS
100
AcDbCircle
 62
7
  6
CONTINUOUS
 10
4.9497026398
 20
4.0085613354
 40
0.0315
100
AcDbArc
 50
118.3243361106
 51
270.0
  0
ARC
  5
264
100
AcDbEntity
  8
ALL_ASSEMBLY_MEMBERS
100
AcDbCircle
 62
7
  6
CONTINUOUS
 10
4.9830599415
 20
4.1040613354
 40
0.005
100
AcDbArc
 50
90.0
 51
176.7304834094
  0
CIRCLE
  5
265
100
AcDbEntity
  8
ALL_ASSEMBLY_MEMBERS
100
AcDbCircle
 62
7
  6
CONTINUOUS
 10
4.5984526398
 20
5.2545613354
 40
0.07825
  0
ARC
  5
266
100
AcDbEntity
  8
ALL_ASSEMBLY_MEMBERS
100
AcDbCircle
 62
7
  6
CONTINUOUS
 10
4.5984526398
 20
5.2545613354
 40
0.0775
100
AcDbArc
 50
189.2817990867
 51
350.7182009133
  0
ARC
  5
267
100
AcDbEntity
  8
ALL_ASSEMBLY_MEMBERS
100
AcDbCircle
 62
7
  6
CONTINUOUS
 10
4.5984526398
 20
5.2545613354
 40
0.0775
100
AcDbArc
 50
9.2817990867
 51
170.7182009133
  0
ARC
  5
268
100
AcDbEntity
  8
ALL_ASSEMBLY_MEMBERS
100
AcDbCircle
 62
7
  6
CONTINUOUS
 10
5.0557026398
 20
5.1628446035
 40
0.03
100
AcDbArc
 50
108.553004535
 51
180.0
  0
ARC
  5
269
100
AcDbEntity
  8
ALL_ASSEMBLY_MEMBERS
100
AcDbCircle
 62
7
  6
CONTINUOUS
 10
5.0907026398
 20
3.5070613354
 40
0.175
100
AcDbArc
 50
194.3196531649
 51
345.6803468351
  0
ARC
  5
26A
100
AcDbEntity
  8
ALL_ASSEMBLY_MEMBERS
100
AcDbCircle
 62
7
  6
CONTINUOUS
 10
5.2858713898
 20
4.1090613354
 40
0.08266875
100
AcDbArc
 50
183.2695165906
 51
241.6756638894
  0
ARC
  5
26B
100
AcDbEntity
  8
ALL_ASSEMBLY_MEMBERS
100
AcDbCircle
 62
7
  6
CONTINUOUS
 10
5.2317026398
 20
4.0085613354
 40
0.0315
100
AcDbArc
 50
270.0
 51
61.6756638894
  0
ARC
  5
26C
100
AcDbEntity
  8
ALL_ASSEMBLY_MEMBERS
100
AcDbCircle
 62
7
  6
CONTINUOUS
 10
5.198345338
 20
4.1040613354
 40
0.005
100
AcDbArc
 50
3.2695165906
 51
90.0
  0
ARC
  5
26D
100
AcDbEntity
  8
ALL_ASSEMBLY_MEMBERS
100
AcDbCircle
 62
7
  6
CONTINUOUS
 10
5.0907026398
 20
4.5670613354
 40
0.56
100
AcDbArc
 50
96.6656940154
 51
253.0997842782
  0
ARC
  5
26E
100
AcDbEntity
  8
ALL_ASSEMBLY_MEMBERS
100
AcDbCircle
 62
7
  6
CONTINUOUS
 10
5.0907026398
 20
4.5670613354
 40
0.56
100
AcDbArc
 50
286.9002157218
 51
83.3343059847
  0
ARC
  5
26F
100
AcDbEntity
  8
ALL_ASSEMBLY_MEMBERS
100
AcDbCircle
 62
7
  6
CONTINUOUS
 10
5.0907026398
 20
4.5670613354
 40
0.53
100
AcDbArc
 50
97.0458462332
 51
255.4235922861
  0
ARC
  5
270
100
AcDbEntity
  8
ALL_ASSEMBLY_MEMBERS
100
AcDbCircle
 62
7
  6
CONTINUOUS
 10
5.0907026398
 20
4.5670613354
 40
0.53
100
AcDbArc
 50
284.5764077139
 51
82.9541537668
  0
ARC
  5
271
100
AcDbEntity
  8
ALL_ASSEMBLY_MEMBERS
100
AcDbCircle
 62
7
  6
CONTINUOUS
 10
5.0907026398
 20
4.5670613354
 40
0.5
100
AcDbArc
 50
97.4709326377
 51
256.4167343495
  0
ARC
  5
272
100
AcDbEntity
  8
ALL_ASSEMBLY_MEMBERS
100
AcDbCircle
 62
7
  6
CONTINUOUS
 10
5.0907026398
 20
4.5670613354
 40
0.5
100
AcDbArc
 50
283.5832656505
 51
82.5290673623
  0
ARC
  5
273
100
AcDbEntity
  8
ALL_ASSEMBLY_MEMBERS
100
AcDbCircle
 62
7
  6
CONTINUOUS
 10
5.0907026398
 20
4.5670613354
 40
0.4925
100
AcDbArc
 50
283.5256588574
 51
82.4134534849
  0
ARC
  5
274
100
AcDbEntity
  8
ALL_ASSEMBLY_MEMBERS
100
AcDbCircle
 62
7
  6
CONTINUOUS
 10
5.0907026398
 20
4.5670613354
 40
0.4925
100
AcDbArc
 50
97.5865465151
 51
256.4743411426
  0
ARC
  5
275
100
AcDbEntity
  8
ALL_ASSEMBLY_MEMBERS
100
AcDbCircle
 62
7
  6
CONTINUOUS
 10
5.0907026398
 20
4.5670613354
 40
0.485
100
AcDbArc
 50
283.5532231303
 51
256.4467768697
  0
ARC
  5
276
100
AcDbEntity
  8
ALL_ASSEMBLY_MEMBERS
100
AcDbCircle
 62
7
  6
CONTINUOUS
 10
5.0907026398
 20
4.5670613354
 40
0.3232712108
100
AcDbArc
 50
287.5590766387
 51
252.4409233613
  0
ARC
  5
277
100
AcDbEntity
  8
ALL_ASSEMBLY_MEMBERS
100
AcDbCircle
 62
7
  6
CONTINUOUS
 10
5.0907026398
 20
4.5670613354
 40
0.20625
100
AcDbArc
 50
298.2217111389
 51
241.7782888611
  0
ARC
  5
278
100
AcDbEntity
  8
ALL_ASSEMBLY_MEMBERS
100
AcDbCircle
 62
7
  6
CONTINUOUS
 10
5.0907026398
 20
4.5670613354
 40
0.17625
100
AcDbArc
 50
303.604238652
 51
236.395761348
  0
ARC
  5
279
100
AcDbEntity
  8
ALL_ASSEMBLY_MEMBERS
100
AcDbCircle
 62
7
  6
CONTINUOUS
 10
5.0907026398
 20
4.5670613354
 40
0.175
100
AcDbArc
 50
303.8673620827
 51
236.1326379173
  0
ARC
  5
27A
100
AcDbEntity
  8
ALL_ASSEMBLY_MEMBERS
100
AcDbCircle
 62
7
  6
CONTINUOUS
 10
5.0907026398
 20
4.5670613354
 40
0.1576424456
100
AcDbArc
 50
308.2177802306
 51
231.7822197694
  0
ARC
  5
27B
100
AcDbEntity
  8
ALL_ASSEMBLY_MEMBERS
100
AcDbCircle
 62
7
  6
CONTINUOUS
 10
5.0907026398
 20
4.5670613354
 40
0.15625
100
AcDbArc
 50
308.6275101155
 51
231.3724898845
  0
ARC
  5
27C
100
AcDbEntity
  8
ALL_ASSEMBLY_MEMBERS
100
AcDbCircle
 62
7
  6
CONTINUOUS
 10
5.0907026398
 20
4.5670613354
 40
0.12625
100
AcDbArc
 50
320.5982710967
 51
219.4017289033
  0
ARC
  5
27D
100
AcDbEntity
  8
ALL_ASSEMBLY_MEMBERS
100
AcDbCircle
 62
7
  6
CONTINUOUS
 10
5.0907026398
 20
4.5670613354
 40
0.0975
100
AcDbArc
 50
0.0
 51
180.0
  0
ARC
  5
27E
100
AcDbEntity
  8
ALL_ASSEMBLY_MEMBERS
100
AcDbCircle
 62
7
  6
CONTINUOUS
 10
5.0907026398
 20
5.0585613354
 40
0.14
100
AcDbArc
 50
71.446995465
 51
108.553004535
  0
ARC
  5
27F
100
AcDbEntity
  8
ALL_ASSEMBLY_MEMBERS
100
AcDbCircle
 62
7
  6
CONTINUOUS
 10
5.1257026398
 20
5.1628446035
 40
0.03
100
AcDbArc
 50
0.0
 51
71.446995465
  0
CIRCLE
  5
280
100
AcDbEntity
  8
ALL_ASSEMBLY_MEMBERS
100
AcDbCircle
 62
7
  6
CONTINUOUS
 10
5.5829526398
 20
5.2545613354
 40
0.07825
  0
ARC
  5
281
100
AcDbEntity
  8
ALL_ASSEMBLY_MEMBERS
100
AcDbCircle
 62
7
  6
CONTINUOUS
 10
5.5829526398
 20
5.2545613354
 40
0.0775
100
AcDbArc
 50
189.2817990867
 51
350.7182009133
  0
ARC
  5
282
100
AcDbEntity
  8
ALL_ASSEMBLY_MEMBERS
100
AcDbCircle
 62
7
  6
CONTINUOUS
 10
5.5829526398
 20
5.2545613354
 40
0.0775
100
AcDbArc
 50
9.2817990867
 51
170.7182009133
  0
SPLINE
  5
283
100
AcDbEntity
  8
ALL_ASSEMBLY_MEMBERS
100
AcDbSpline
 62
7
  6
CONTINUOUS
 70
0
 71
3
 72
21
 73
17
 74
0
 42
0.0000001
 43
0.0000001
 44
0.0000000001
 40
0.0
 40
0.0
 40
0.0
 40
0.0
 40
0.1251077912
 40
0.1877257968
 40
0.2503135447
 40
0.312887147
 40
0.3754528998
 40
0.4380031106
 40
0.5005338697
 40
0.5630456342
 40
0.6255393257
 40
0.6880117978
 40
0.750457883
 40
0.812888276
 40
0.8753230684
 40
1.0
 40
1.0
 40
1.0
 40
1.0
 10
5.0907026398
 20
3.4637783434
 30
0.0
 10
5.0875200694
 20
3.4637783434
 30
0.0
 10
5.08273249
 20
3.4641716151
 30
0.0
 10
5.0764932144
 20
3.4654674005
 30
0.0
 10
5.0719057317
 20
3.4668197738
 30
0.0
 10
5.0674462436
 20
3.4685427327
 30
0.0
 10
5.0631435795
 20
3.4706247638
 30
0.0
 10
5.0590265932
 20
3.4730512236
 30
0.0
 10
5.0551240833
 20
3.4758070544
 30
0.0
 10
5.0514613551
 20
3.4788721744
 30
0.0
 10
5.048064421
 20
3.4822273527
 30
0.0
 10
5.0449549966
 20
3.4858484168
 30
0.0
 10
5.0421548986
 20
3.4897115134
 30
0.0
 10
5.0396823667
 20
3.4937916107
 30
0.0
 10
5.0368482176
 20
3.499477204
 30
0.0
 10
5.0352565059
 20
3.5039932891
 30
0.0
 10
5.0344526398
 20
3.5070613354
 30
0.0
  0
SPLINE
  5
284
100
AcDbEntity
  8
ALL_ASSEMBLY_MEMBERS
100
AcDbSpline
 62
7
  6
CONTINUOUS
 70
0
 71
3
 72
21
 73
17
 74
0
 42
0.0000001
 43
0.0000001
 44
0.0000000001
 40
0.0
 40
0.0
 40
0.0
 40
0.0
 40
0.1246769316
 40
0.187111724
 40
0.249542117
 40
0.3119882022
 40
0.3744606743
 40
0.4369543658
 40
0.4994661303
 40
0.5619968894
 40
0.6245471002
 40
0.687112853
 40
0.7496864553
 40
0.8122742032
 40
0.8748922088
 40
1.0
 40
1.0
 40
1.0
 40
1.0
 10
5.1469526398
 20
3.5070613354
 30
0.0
 10
5.1461487736
 20
3.5039932891
 30
0.0
 10
5.1445570619
 20
3.499477204
 30
0.0
 10
5.1417229128
 20
3.4937916107
 30
0.0
 10
5.1392503809
 20
3.4897115134
 30
0.0
 10
5.1364502829
 20
3.4858484168
 30
0.0
 10
5.1333408585
 20
3.4822273527
 30
0.0
 10
5.1299439244
 20
3.4788721744
 30
0.0
 10
5.1262811962
 20
3.4758070544
 30
0.0
 10
5.1223786863
 20
3.4730512236
 30
0.0
 10
5.1182617
 20
3.4706247638
 30
0.0
 10
5.1139590359
 20
3.4685427327
 30
0.0
 10
5.1094995478
 20
3.4668197738
 30
0.0
 10
5.1049120651
 20
3.4654674005
 30
0.0
 10
5.0986727895
 20
3.4641716151
 30
0.0
 10
5.0938852101
 20
3.4637783434
 30
0.0
 10
5.0907026398
 20
3.4637783434
 30
0.0
  0
SPLINE
  5
285
100
AcDbEntity
  8
ALL_ASSEMBLY_MEMBERS
100
AcDbSpline
 62
7
  6
CONTINUOUS
 70
0
 71
3
 72
35
 73
31
 74
0
 42
0.0000001
 43
0.0000001
 44
0.0000000001
 40
0.0
 40
0.0
 40
0.0
 40
0.0
 40
0.0361597854
 40
0.0717516815
 40
0.1066383386
 40
0.1407267115
 40
0.1739660971
 40
0.2063204934
 40
0.2377691001
 40
0.2683088675
 40
0.2979674817
 40
0.3268008868
 40
0.3548913476
 40
0.38235086
 40
0.4093137813
 40
0.4359381273
 40
0.4623957324
 40
0.4888670783
 40
0.5155311724
 40
0.5425588531
 40
0.5701041806
 40
0.598298991
 40
0.6569713067
 40
0.6876441238
 40
0.719226517
 40
0.7850460068
 40
0.8541896005
 40
0.9261112675
 40
0.9628892548
 40
1.0
 40
1.0
 40
1.0
 40
1.0
 10
5.2476544791
 20
3.5070613354
 30
0.0
 10
5.2474681202
 20
3.5055385735
 30
0.0
 10
5.2470056384
 20
3.502527414
 30
0.0
 10
5.2460380485
 20
3.498104794
 30
0.0
 10
5.2448066394
 20
3.4938392248
 30
0.0
 10
5.2433194872
 20
3.4897618519
 30
0.0
 10
5.2415876125
 20
3.4858993734
 30
0.0
 10
5.2396209815
 20
3.4822775704
 30
0.0
 10
5.2374340232
 20
3.4789198543
 30
0.0
 10
5.2350399292
 20
3.4758497668
 30
0.0
 10
5.2324546717
 20
3.47308841
 30
0.0
 10
5.2296959613
 20
3.4706539383
 30
0.0
 10
5.2267809104
 20
3.4685646391
 30
0.0
 10
5.2237302533
 20
3.4668336226
 30
0.0
 10
5.2205637025
 20
3.4654747908
 30
0.0
 10
5.2173035281
 20
3.4644974543
 30
0.0
 10
5.2139723537
 20
3.4639083523
 30
0.0
 10
5.2105934818
 20
3.4637132209
 30
0.0
 10
5.2071907004
 20
3.4639111776
 30
0.0
 10
5.2037879528
 20
3.4645024965
 30
0.0
 10
5.2004082778
 20
3.4654812261
 30
0.0
 10
5.1959066639
 20
3.4673164415
 30
0.0
 10
5.1915967961
 20
3.4698954074
 30
0.0
 10
5.1875766524
 20
3.4730895953
 30
0.0
 10
5.1836161995
 20
3.4768185822
 30
0.0
 10
5.1790735598
 20
3.4822691679
 30
0.0
 10
5.1744511295
 20
3.4897604569
 30
0.0
 10
5.1713461409
 20
3.4966610962
 30
0.0
 10
5.1693289078
 20
3.5025119611
 30
0.0
 10
5.168484183
 20
3.5055332169
 30
0.0
 10
5.1681049662
 20
3.5070613354
 30
0.0
  0
SPLINE
  5
286
100
AcDbEntity
  8
ALL_ASSEMBLY_MEMBERS
100
AcDbSpline
 62
7
  6
CONTINUOUS
 70
0
 71
3
 72
35
 73
31
 74
0
 42
0.0000001
 43
0.0000001
 44
0.0000000001
 40
0.0
 40
0.0
 40
0.0
 40
0.0
 40
0.0371107452
 40
0.0738887325
 40
0.1458103995
 40
0.2149539932
 40
0.280773483
 40
0.3123558762
 40
0.3430286933
 40
0.401701009
 40
0.4298958194
 40
0.4574411469
 40
0.4844688276
 40
0.5111329217
 40
0.5376042676
 40
0.5640618727
 40
0.5906862187
 40
0.61764914
 40
0.6451086524
 40
0.6731991132
 40
0.7020325183
 40
0.7316911325
 40
0.7622308999
 40
0.7936795066
 40
0.8260339029
 40
0.8592732885
 40
0.8933616614
 40
0.9282483185
 40
0.9638402146
 40
1.0
 40
1.0
 40
1.0
 40
1.0
 10
5.0133003133
 20
3.5070613354
 30
0.0
 10
5.0129210965
 20
3.5055332169
 30
0.0
 10
5.0120763717
 20
3.5025119611
 30
0.0
 10
5.0100591386
 20
3.4966610962
 30
0.0
 10
5.00695415
 20
3.4897604569
 30
0.0
 10
5.0023317197
 20
3.4822691679
 30
0.0
 10
4.99778908
 20
3.4768185822
 30
0.0
 10
4.9938286271
 20
3.4730895953
 30
0.0
 10
4.9898084834
 20
3.4698954074
 30
0.0
 10
4.9854986156
 20
3.4673164415
 30
0.0
 10
4.9809970017
 20
3.4654812261
 30
0.0
 10
4.9776173267
 20
3.4645024965
 30
0.0
 10
4.9742145791
 20
3.4639111776
 30
0.0
 10
4.9708117977
 20
3.4637132209
 30
0.0
 10
4.9674329258
 20
3.4639083523
 30
0.0
 10
4.9641017514
 20
3.4644974543
 30
0.0
 10
4.960841577
 20
3.4654747908
 30
0.0
 10
4.9576750262
 20
3.4668336226
 30
0.0
 10
4.9546243691
 20
3.4685646391
 30
0.0
 10
4.9517093182
 20
3.4706539383
 30
0.0
 10
4.9489506078
 20
3.47308841
 30
0.0
 10
4.9463653503
 20
3.4758497668
 30
0.0
 10
4.9439712563
 20
3.4789198543
 30
0.0
 10
4.941784298
 20
3.4822775704
 30
0.0
 10
4.939817667
 20
3.4858993734
 30
0.0
 10
4.9380857923
 20
3.4897618519
 30
0.0
 10
4.9365986401
 20
3.4938392248
 30
0.0
 10
4.935367231
 20
3.498104794
 30
0.0
 10
4.9343996411
 20
3.502527414
 30
0.0
 10
4.9339371593
 20
3.5055385735
 30
0.0
 10
4.9337508004
 20
3.5070613354
 30
0.0
  0
ENDSEC
  0
SECTION
  2
OBJECTS
  0
DICTIONARY
  5
C
100
AcDbDictionary
280
0
281
1
  3
ACAD_GROUP
350
D
  3
ACAD_MLINESTYLE
350
17
  3
ACAD_LAYOUT
350
1A
  3
ACAD_PLOTSETTINGS
350
19
  3
ACAD_PLOTSTYLENAME
350
E
  0
DICTIONARY
  5
D
102
{ACAD_REACTORS
330
C
102
}
100
AcDbDictionary
280
0
281
1
  0
ACDBDICTIONARYWDFLT
  5
E
102
{ACAD_REACTORS
330
C
102
}
100
AcDbDictionary
281
1
  3
Normal
350
F
100
AcDbDictionaryWithDefault
340
F
  0
DICTIONARY
  5
17
102
{ACAD_REACTORS
330
C
102
}
100
AcDbDictionary
280
0
281
1
  3
Standard
350
18
  0
DICTIONARY
  5
19
102
{ACAD_REACTORS
330
C
102
}
100
AcDbDictionary
281
1
  0
DICTIONARY
  5
1A
102
{ACAD_REACTORS
330
C
102
}
100
AcDbDictionary
281
1
  3
Model
350
287
  3
Layout1
350
288
  0
ACDBPLACEHOLDER
  5
F
102
{ACAD_REACTORS
330
E
102
}
  0
MLINESTYLE
  5
18
102
{ACAD_REACTORS
330
17
102
}
100
AcDbMlineStyle
  2
STANDARD
 70
0
  3

 62
256
 51
90.0
 52
90.0
 71
2
 49
0.5
 62
256
  6
BYLAYER
 49
-0.5
 62
256
  6
BYLAYER
  0
LAYOUT
  5
287
102
{ACAD_REACTORS
330
1A
102
}
100
AcDbPlotSettings
  1

  2
none_device
  4
ANSI_A_(11.00_x_8.50_Inches)
  6

 40
0.0
 41
0.0
 42
0.0
 43
0.0
 44
279.4
 45
215.9
 46
0.0
 47
0.0
 48
0.0
 49
0.0
140
0.0
141
0.0
142
1.0
143
1.0
 70
1024
 72
0
 73
0
 74
0
  7

 75
0
147
1.0
148
0.0
149
0.0
100
AcDbLayout
  1
Model
 70
0
 71
0
 10
0.0
 20
0.0
 11
11.0
 21
8.5
 12
0.0
 22
0.0
 32
0.0
 14
0.0
 24
0.0
 34
0.0
 15
0.0
 25
0.0
 35
0.0
146
0.0
 13
0.0
 23
0.0
 33
0.0
 16
1.0
 26
0.0
 36
0.0
 17
0.0
 27
1.0
 37
0.0
 76
0
330
220
345
0
346
0
  0
LAYOUT
  5
288
102
{ACAD_REACTORS
330
1A
102
}
100
AcDbPlotSettings
  1

  2
none_device
  4
ANSI_A_(11.00_x_8.50_Inches)
  6

 40
0.0
 41
0.0
 42
0.0
 43
0.0
 44
279.4
 45
215.9
 46
0.0
 47
0.0
 48
0.0
 49
0.0
140
0.0
141
0.0
142
1.0
143
1.0
 70
0
 72
0
 73
0
 74
0
  7

 75
0
147
1.0
148
0.0
149
0.0
100
AcDbLayout
  1
Layout1
 70
0
 71
1
 10
0.0
 20
0.0
 11
11.0
 21
8.5
 12
0.0
 22
0.0
 32
0.0
 14
0.0
 24
0.0
 34
0.0
 15
0.0
 25
0.0
 35
0.0
146
0.0
 13
0.0
 23
0.0
 33
0.0
 16
1.0
 26
0.0
 36
0.0
 17
0.0
 27
1.0
 37
0.0
 76
0
330
221
345
0
346
0
  0
ENDSEC
  0
EOF
