999
DXF file: 3-1761_RIGHT.dxf
999
Pro/ENGINEER 2018400 by Parametric Technology Corporation
  0
SECTION
  2
HEADER
  9
$ACADVER
  1
AC1027
  9
$DWGCODEPAGE
  3
ANSI_1252
  9
$EXTMAX
 10
11.0
 20
8.5
 30
0.0
  9
$EXTMIN
 10
0.0
 20
0.0
 30
0.0
  9
$LIMMIN
 10
0.0
 20
0.0
  9
$LIMMAX
 10
11.0
 20
8.5
  9
$VIEWCTR
 10
5.5
 20
4.25
  9
$VIEWSIZE
 40
8.5
  9
$CLAYER
  8
0
  9
$LTSCALE
 40
0.605
  9
$CELTYPE
  6
BYLAYER
  9
$DIMSCALE
 40
1.0
  9
$DIMASZ
 40
0.1
  9
$DIMEXO
 40
0.0625
  9
$DIMDLI
 40
0.418
  9
$DIMEXE
 40
0.125
  9
$DIMCEN
 40
0.099
  9
$DIMLFAC
 40
1.0
  9
$DIMBLK
  1
_FILLED
  9
$DIMALT
 70
1
  9
$DIMALTD
 70
2
  9
$DIMALTTD
 70
2
  9
$DIMALTF
 40
25.4
  9
$DIMTXT
 40
0.08
  9
$DIMTOL
 70
1
  9
$DIMLIM
 70
0
  9
$DIMTFAC
 40
1.0
  9
$DIMTP
 40
0.001
  9
$DIMTM
 40
0.001
  9
$DIMGAP
 40
0.09
  9
$DIMDSEP
 70
46
  9
$AUNITS
 70
0
  9
$PDMODE
 70
3
  9
$PDSIZE
 40
0.3125
  9
$HANDSEED
  5
3DA
  9
$TILEMODE
 70
1
  9
$MEASUREMENT
 70
0
  9
$INSUNITS
 70
1
  0
ENDSEC
  0
SECTION
  2
CLASSES
  0
CLASS
  1
ACDBDICTIONARYWDFLT
  2
AcDbDictionaryWithDefault
  3
AutoCAD 2000
 90
0
 91
1
280
0
281
0
  0
CLASS
  1
ACDBPLACEHOLDER
  2
AcDbPlaceHolder
  3
AutoCAD 2000
 90
0
 91
1
280
0
281
0
  0
CLASS
  1
LAYOUT
  2
AcDbLayout
  3
AutoCAD 2000
 90
0
 91
0
280
0
281
0
  0
ENDSEC
  0
SECTION
  2
TABLES
  0
TABLE
  2
VPORT
  5
8
100
AcDbSymbolTable
 70
2
  0
VPORT
  5
1F4
100
AcDbSymbolTableRecord
100
AcDbViewportTableRecord
  2
*ACTIVE
 70
0
 10
0.0
 20
0.0
 11
1.0
 21
1.0
 12
5.5
 22
4.25
 13
0.0
 23
0.0
 14
1.0
 24
1.0
 15
0.0
 25
0.0
 16
0.0
 26
0.0
 36
1.0
 17
0.0
 27
0.0
 37
0.0
 40
8.5
 41
1.2941176471
 42
50.0
 43
0.0
 44
0.0
 50
0.0
 51
0.0
 71
0
 72
100
 73
1
 74
1
 75
0
 76
0
 77
0
 78
0
  0
ENDTAB
  0
TABLE
  2
LTYPE
  5
5
100
AcDbSymbolTable
 70
6
  0
LTYPE
  5
14
100
AcDbSymbolTableRecord
100
AcDbLinetypeTableRecord
  2
BYBLOCK
 70
0
  3

 72
65
 73
0
 40
0.0
  0
LTYPE
  5
15
100
AcDbSymbolTableRecord
100
AcDbLinetypeTableRecord
  2
BYLAYER
 70
0
  3

 72
65
 73
0
 40
0.0
  0
LTYPE
  5
16
100
AcDbSymbolTableRecord
100
AcDbLinetypeTableRecord
  2
CONTINUOUS
 70
64
  3
Solid line
 72
65
 73
0
 40
0.0
  0
LTYPE
  5
1F5
100
AcDbSymbolTableRecord
100
AcDbLinetypeTableRecord
  2
CENTER
 70
64
  3
____ _ ____ _ ____ _ ____ _ ____ _ ____ _ ____
 72
65
 73
4
 40
0.6
 49
0.375
 74
0
 49
-0.075
 74
0
 49
0.075
 74
0
 49
-0.075
 74
0
  0
LTYPE
  5
1F6
100
AcDbSymbolTableRecord
100
AcDbLinetypeTableRecord
  2
HIDDEN
 70
64
  3
- - - - - - - - - - - - - - - - - - - -
 72
65
 73
2
 40
0.2
 49
0.1
 74
0
 49
-0.1
 74
0
  0
LTYPE
  5
1F7
100
AcDbSymbolTableRecord
100
AcDbLinetypeTableRecord
  2
PHANTOM
 70
64
  3
_____ _ _ _____ _ _ _____ _ _ _____
 72
65
 73
6
 40
0.8
 49
0.45
 74
0
 49
-0.05
 74
0
 49
0.1
 74
0
 49
-0.05
 74
0
 49
0.1
 74
0
 49
-0.05
 74
0
  0
LTYPE
  5
1F8
100
AcDbSymbolTableRecord
100
AcDbLinetypeTableRecord
  2
DOT
 70
64
  3
. . . . . . . . . . . . . . . . . . . .
 72
65
 73
2
 40
0.2
 49
0.1
 74
0
 49
-0.1
 74
0
  0
LTYPE
  5
1F9
100
AcDbSymbolTableRecord
100
AcDbLinetypeTableRecord
  2
DASHED
 70
64
  3
- - - - - - - - - - - - - - - - - - - -
 72
65
 73
2
 40
0.2
 49
0.1
 74
0
 49
-0.1
 74
0
  0
ENDTAB
  0
TABLE
  2
LAYER
  5
2
100
AcDbSymbolTable
 70
36
  0
LAYER
  5
10
100
AcDbSymbolTableRecord
100
AcDbLayerTableRecord
  2
0
 70
0
 62
7
  6
CONTINUOUS
370
-3
390
F
  0
LAYER
  5
1FA
100
AcDbSymbolTableRecord
100
AcDbLayerTableRecord
  2
DEFAULT_1
 70
0
 62
7
  6
CENTER
370
-3
390
F
  0
LAYER
  5
1FB
100
AcDbSymbolTableRecord
100
AcDbLayerTableRecord
  2
DEFAULT_2
 70
0
 62
8
  6
HIDDEN
370
-3
390
F
  0
LAYER
  5
1FC
100
AcDbSymbolTableRecord
100
AcDbLayerTableRecord
  2
DEFAULT_3
 70
0
 62
7
  6
PHANTOM
370
-3
390
F
  0
LAYER
  5
1FD
100
AcDbSymbolTableRecord
100
AcDbLayerTableRecord
  2
ALL_ASSEMBLY_MEMBERS
 70
0
 62
7
  6
CONTINUOUS
370
-3
390
F
  0
LAYER
  5
1FE
100
AcDbSymbolTableRecord
100
AcDbLayerTableRecord
  2
ALL_FEATURES
 70
0
 62
7
  6
CONTINUOUS
370
-3
390
F
  0
LAYER
  5
1FF
100
AcDbSymbolTableRecord
100
AcDbLayerTableRecord
  2
AXES_FEATURES
 70
0
 62
7
  6
CONTINUOUS
370
-3
390
F
  0
LAYER
  5
200
100
AcDbSymbolTableRecord
100
AcDbLayerTableRecord
  2
CHAMFER_FEATURES
 70
0
 62
7
  6
CONTINUOUS
370
-3
390
F
  0
LAYER
  5
201
100
AcDbSymbolTableRecord
100
AcDbLayerTableRecord
  2
CURVE2
 70
0
 62
7
  6
CONTINUOUS
370
-3
390
F
  0
LAYER
  5
202
100
AcDbSymbolTableRecord
100
AcDbLayerTableRecord
  2
CUT_FEATURES
 70
0
 62
7
  6
CONTINUOUS
370
-3
390
F
  0
LAYER
  5
203
100
AcDbSymbolTableRecord
100
AcDbLayerTableRecord
  2
DATUM_CURVES
 70
0
 62
7
  6
CONTINUOUS
370
-3
390
F
  0
LAYER
  5
204
100
AcDbSymbolTableRecord
100
AcDbLayerTableRecord
  2
DATUM_PLANES
 70
0
 62
7
  6
CONTINUOUS
370
-3
390
F
  0
LAYER
  5
205
100
AcDbSymbolTableRecord
100
AcDbLayerTableRecord
  2
DATUM_POINTS
 70
0
 62
7
  6
CONTINUOUS
370
-3
390
F
  0
LAYER
  5
206
100
AcDbSymbolTableRecord
100
AcDbLayerTableRecord
  2
DEFAULT_COORDINATE_SYSTEM
 70
0
 62
7
  6
CONTINUOUS
370
-3
390
F
  0
LAYER
  5
207
100
AcDbSymbolTableRecord
100
AcDbLayerTableRecord
  2
DEFAULT_DATUM_AXES
 70
0
 62
7
  6
CONTINUOUS
370
-3
390
F
  0
LAYER
  5
208
100
AcDbSymbolTableRecord
100
AcDbLayerTableRecord
  2
DEFAULT_DATUM_PLANES
 70
0
 62
7
  6
CONTINUOUS
370
-3
390
F
  0
LAYER
  5
209
100
AcDbSymbolTableRecord
100
AcDbLayerTableRecord
  2
DEFAULT_SURFACES
 70
0
 62
7
  6
CONTINUOUS
370
-3
390
F
  0
LAYER
  5
20A
100
AcDbSymbolTableRecord
100
AcDbLayerTableRecord
  2
DIMENSIONS
 70
0
 62
7
  6
CONTINUOUS
370
-3
390
F
  0
LAYER
  5
20B
100
AcDbSymbolTableRecord
100
AcDbLayerTableRecord
  2
HOLE_FEATURES
 70
0
 62
7
  6
CONTINUOUS
370
-3
390
F
  0
LAYER
  5
20C
100
AcDbSymbolTableRecord
100
AcDbLayerTableRecord
  2
NOTES
 70
0
 62
7
  6
CONTINUOUS
370
-3
390
F
  0
LAYER
  5
20D
100
AcDbSymbolTableRecord
100
AcDbLayerTableRecord
  2
PART_REFERENCE_DIMENSIONS
 70
0
 62
7
  6
CONTINUOUS
370
-3
390
F
  0
LAYER
  5
20E
100
AcDbSymbolTableRecord
100
AcDbLayerTableRecord
  2
POINTS
 70
0
 62
7
  6
CONTINUOUS
370
-3
390
F
  0
LAYER
  5
20F
100
AcDbSymbolTableRecord
100
AcDbLayerTableRecord
  2
PROTRUSION_FEATURES
 70
0
 62
7
  6
CONTINUOUS
370
-3
390
F
  0
LAYER
  5
210
100
AcDbSymbolTableRecord
100
AcDbLayerTableRecord
  2
QUILT
 70
0
 62
7
  6
CONTINUOUS
370
-3
390
F
  0
LAYER
  5
211
100
AcDbSymbolTableRecord
100
AcDbLayerTableRecord
  2
QUILTS
 70
0
 62
7
  6
CONTINUOUS
370
-3
390
F
  0
LAYER
  5
212
100
AcDbSymbolTableRecord
100
AcDbLayerTableRecord
  2
REFERENCE_DIMENSIONS
 70
0
 62
7
  6
CONTINUOUS
370
-3
390
F
  0
LAYER
  5
213
100
AcDbSymbolTableRecord
100
AcDbLayerTableRecord
  2
ROUND_FEATURES
 70
0
 62
7
  6
CONTINUOUS
370
-3
390
F
  0
LAYER
  5
214
100
AcDbSymbolTableRecord
100
AcDbLayerTableRecord
  2
WETTED_SURFACES
 70
0
 62
7
  6
CONTINUOUS
370
-3
390
F
  0
LAYER
  5
215
100
AcDbSymbolTableRecord
100
AcDbLayerTableRecord
  2
XSEC_DATUMS
 70
0
 62
7
  6
CONTINUOUS
370
-3
390
F
  0
ENDTAB
  0
TABLE
  2
STYLE
  5
3
100
AcDbSymbolTable
 70
1
  0
STYLE
  5
11
100
AcDbSymbolTableRecord
100
AcDbTextStyleTableRecord
  2
STANDARD
 70
0
 40
0.0
 41
0.8
 50
0.0
 71
0
 42
0.2
  3
txt
  4

  0
STYLE
  5
216
100
AcDbSymbolTableRecord
100
AcDbTextStyleTableRecord
  2
TEXTSTYLE_1
 70
0
 40
0.0
 41
0.8
 50
0.0
 71
0
 42
0.2
  3
gdt
  4

  0
ENDTAB
  0
TABLE
  2
VIEW
  5
6
100
AcDbSymbolTable
 70
0
  0
ENDTAB
  0
TABLE
  2
UCS
  5
7
100
AcDbSymbolTable
 70
0
  0
ENDTAB
  0
TABLE
  2
APPID
  5
9
100
AcDbSymbolTable
 70
1
  0
APPID
  5
217
100
AcDbSymbolTableRecord
100
AcDbRegAppTableRecord
  2
ACAD
 70
0
  0
ENDTAB
  0
TABLE
  2
BLOCK_RECORD
  5
1
100
AcDbSymbolTable
 70
0
  0
BLOCK_RECORD
  5
218
100
AcDbSymbolTableRecord
100
AcDbBlockTableRecord
  2
*Model_Space
  0
BLOCK_RECORD
  5
219
100
AcDbSymbolTableRecord
100
AcDbBlockTableRecord
  2
*Paper_Space
  0
BLOCK_RECORD
  5
21A
100
AcDbSymbolTableRecord
100
AcDbBlockTableRecord
  2
_FILLED
  0
ENDTAB
  0
TABLE
  2
DIMSTYLE
  5
A
100
AcDbSymbolTable
 70
1
100
AcDbDimStyleTable
 71
0
  0
DIMSTYLE
105
21B
100
AcDbSymbolTableRecord
100
AcDbDimStyleTableRecord
  2
STANDARD
 70
0
  3

  4

 40
1.0
 41
0.1
 42
0.0625
 43
0.38
 44
0.125
 45
0.0
 46
0.0
 47
0.001
 48
0.001
140
0.08
141
0.09
142
0.0
143
25.4
144
1.0
145
0.0
146
1.0
147
0.09
 71
1.0
 72
0.0
 73
1
 74
1
 75
0
 76
0
 77
0
 78
4
 79
1
170
1
171
2
172
0
173
0
174
0
175
0
176
0
177
0
178
0
270
2
179
3
271
3
272
3
273
2
274
2
275
0
280
0
281
0
282
0
283
1
284
4
285
0
286
0
287
3
288
0
340
11
278
46
341
21A
342
21A
343
21A
344
21A
  0
ENDTAB
  0
ENDSEC
  0
SECTION
  2
BLOCKS
  0
BLOCK
  5
20
100
AcDbEntity
  8
0
100
AcDbBlockBegin
  2
*Model_Space
 70
0
 10
0.0
 20
0.0
 30
0.0
  3
*Model_Space
  1

  0
ENDBLK
  5
21
100
AcDbEntity
  8
0
100
AcDbBlockEnd
  0
BLOCK
  5
1C
100
AcDbEntity
  8
0
100
AcDbBlockBegin
  2
*Paper_Space
 70
0
 10
0.0
 20
0.0
 30
0.0
  3
*Paper_Space
  1

  0
ENDBLK
  5
1D
100
AcDbEntity
  8
0
100
AcDbBlockEnd
  0
BLOCK
  5
21C
100
AcDbEntity
  8
0
100
AcDbBlockBegin
  2
_FILLED
 70
64
 10
0.0
 20
0.0
  3
_FILLED
  1

  0
SOLID
  5
21D
100
AcDbEntity
  8
0
  6
BYBLOCK
 62
0
100
AcDbTrace
 10
0.0
 20
0.0
 11
-1.0
 21
0.2
 12
-1.0
 22
-0.2
 13
-1.0
 23
-0.2
  0
ENDBLK
  5
21E
100
AcDbEntity
  8
0
  6
BYBLOCK
 62
0
100
AcDbBlockEnd
  0
ENDSEC
  0
SECTION
  2
ENTITIES
  0
MTEXT
  5
21F
100
AcDbEntity
  8
0
100
AcDbMText
 62
2
  6
CONTINUOUS
  7
STANDARD
 71
3
 72
1
 10
3.5101429523
 20
1.927388691
 30
0.0
 11
1.0
 21
0.0
 31
0.0
 73
2
 44
0.9
  1
SCALE  .500
 40
0.08
 41
0.704
  0
LINE
  5
220
100
AcDbEntity
  8
0
100
AcDbLine
 62
7
  6
CONTINUOUS
 10
0.0
 20
0.0
 11
0.0
 21
8.5
  0
LINE
  5
221
100
AcDbEntity
  8
0
100
AcDbLine
 62
7
  6
CONTINUOUS
 10
0.0
 20
0.0
 11
11.0
 21
0.0
  0
LINE
  5
222
100
AcDbEntity
  8
0
100
AcDbLine
 62
7
  6
CONTINUOUS
 10
0.0
 20
8.5
 11
11.0
 21
8.5
  0
LINE
  5
223
100
AcDbEntity
  8
0
100
AcDbLine
 62
7
  6
CONTINUOUS
 10
11.0
 20
0.0
 11
11.0
 21
8.5
  0
LINE
  5
224
100
AcDbEntity
  8
ALL_ASSEMBLY_MEMBERS
100
AcDbLine
 62
7
  6
CONTINUOUS
 10
3.1743326491
 20
3.8646198879
 11
3.1503648199
 21
3.5906663459
  0
LINE
  5
225
100
AcDbEntity
  8
ALL_ASSEMBLY_MEMBERS
100
AcDbLine
 62
7
  6
CONTINUOUS
 10
3.2412422952
 20
4.1704521119
 11
3.2296505814
 21
4.0379582171
  0
LINE
  5
226
100
AcDbEntity
  8
ALL_ASSEMBLY_MEMBERS
100
AcDbLine
 62
7
  6
CONTINUOUS
 10
3.2330453422
 20
3.9237071678
 11
3.2287782696
 21
3.8749343055
  0
LINE
  5
227
100
AcDbEntity
  8
ALL_ASSEMBLY_MEMBERS
100
AcDbLine
 62
7
  6
CONTINUOUS
 10
3.2513434787
 20
3.9221062883
 11
3.2470764062
 21
3.873333426
  0
LINE
  5
228
100
AcDbEntity
  8
ALL_ASSEMBLY_MEMBERS
100
AcDbLine
 62
7
  6
CONTINUOUS
 10
3.2709656652
 20
3.9203895694
 11
3.2666985926
 21
3.8716167072
  0
LINE
  5
229
100
AcDbEntity
  8
ALL_ASSEMBLY_MEMBERS
100
AcDbLine
 62
7
  6
CONTINUOUS
 10
3.2917444994
 20
3.918571657
 11
3.2874774268
 21
3.8697987947
  0
LINE
  5
22A
100
AcDbEntity
  8
ALL_ASSEMBLY_MEMBERS
100
AcDbLine
 62
7
  6
CONTINUOUS
 10
3.3135027115
 20
3.9166680601
 11
3.309235639
 21
3.8678951978
  0
LINE
  5
22B
100
AcDbEntity
  8
ALL_ASSEMBLY_MEMBERS
100
AcDbLine
 62
7
  6
CONTINUOUS
 10
3.3360546765
 20
3.9146950188
 11
3.331787604
 21
3.8659221566
  0
LINE
  5
22C
100
AcDbEntity
  8
ALL_ASSEMBLY_MEMBERS
100
AcDbLine
 62
7
  6
CONTINUOUS
 10
3.3592079974
 20
3.9126693657
 11
3.3549409249
 21
3.8638965035
  0
LINE
  5
22D
100
AcDbEntity
  8
ALL_ASSEMBLY_MEMBERS
100
AcDbLine
 62
7
  6
CONTINUOUS
 10
3.382765147
 20
3.9106083822
 11
3.3784980745
 21
3.8618355199
  0
LINE
  5
22E
100
AcDbEntity
  8
ALL_ASSEMBLY_MEMBERS
100
AcDbLine
 62
7
  6
CONTINUOUS
 10
3.406525153
 20
3.908529651
 11
3.4022580805
 21
3.8597567887
  0
LINE
  5
22F
100
AcDbEntity
  8
ALL_ASSEMBLY_MEMBERS
100
AcDbLine
 62
7
  6
CONTINUOUS
 10
3.4302853124
 20
3.9064509064
 11
3.4260182399
 21
3.8576780442
  0
LINE
  5
230
100
AcDbEntity
  8
ALL_ASSEMBLY_MEMBERS
100
AcDbLine
 62
7
  6
CONTINUOUS
 10
3.4538429209
 20
3.9043898827
 11
3.4495758483
 21
3.8556170205
  0
LINE
  5
231
100
AcDbEntity
  8
ALL_ASSEMBLY_MEMBERS
100
AcDbLine
 62
7
  6
CONTINUOUS
 10
3.4769970021
 20
3.9023641631
 11
3.4727299296
 21
3.8535913009
  0
LINE
  5
232
100
AcDbEntity
  8
ALL_ASSEMBLY_MEMBERS
100
AcDbLine
 62
7
  6
CONTINUOUS
 10
3.4995500224
 20
3.9003910295
 11
3.4952829499
 21
3.8516181672
  0
LINE
  5
233
100
AcDbEntity
  8
ALL_ASSEMBLY_MEMBERS
100
AcDbLine
 62
7
  6
CONTINUOUS
 10
3.521309576
 20
3.8984873152
 11
3.5170425035
 21
3.849714453
  0
LINE
  5
234
100
AcDbEntity
  8
ALL_ASSEMBLY_MEMBERS
100
AcDbLine
 62
7
  6
CONTINUOUS
 10
3.5420900263
 20
3.8966692614
 11
3.5378229537
 21
3.8478963992
  0
LINE
  5
235
100
AcDbEntity
  8
ALL_ASSEMBLY_MEMBERS
100
AcDbLine
 62
7
  6
CONTINUOUS
 10
3.5617140895
 20
3.8949523783
 11
3.557447017
 21
3.8461795161
  0
LINE
  5
236
100
AcDbEntity
  8
ALL_ASSEMBLY_MEMBERS
100
AcDbLine
 62
7
  6
CONTINUOUS
 10
3.5800143477
 20
3.8933513132
 11
3.5757472752
 21
3.844578451
  0
LINE
  5
237
100
AcDbEntity
  8
ALL_ASSEMBLY_MEMBERS
100
AcDbLine
 62
7
  6
CONTINUOUS
 10
3.614815307
 20
4.1377687084
 11
3.6032235932
 21
4.0052748136
  0
LINE
  5
238
100
AcDbEntity
  8
ALL_ASSEMBLY_MEMBERS
100
AcDbLine
 62
7
  6
CONTINUOUS
 10
3.6276012368
 20
3.8249640249
 11
3.6036334075
 21
3.551010483
  0
LINE
  5
239
100
AcDbEntity
  8
ALL_ASSEMBLY_MEMBERS
100
AcDbLine
 62
7
  6
CONTINUOUS
 10
3.6640594591
 20
3.8859983187
 11
3.6640830403
 21
3.8859612556
  0
LINE
  5
23A
100
AcDbEntity
  8
ALL_ASSEMBLY_MEMBERS
100
AcDbLine
 62
7
  6
CONTINUOUS
 10
3.5819663987
 20
3.5328297039
 11
3.168545599
 21
3.5689993371
  0
LINE
  5
23B
100
AcDbEntity
  8
ALL_ASSEMBLY_MEMBERS
100
AcDbLine
 62
7
  6
CONTINUOUS
 10
3.1503648199
 20
3.5906663459
 11
3.6036334075
 21
3.551010483
  0
LINE
  5
23C
100
AcDbEntity
  8
ALL_ASSEMBLY_MEMBERS
100
AcDbLine
 62
7
  6
CONTINUOUS
 10
3.6598220455
 20
3.8372578617
 11
3.6597923866
 21
3.8372254565
  0
LINE
  5
23D
100
AcDbEntity
  8
ALL_ASSEMBLY_MEMBERS
100
AcDbLine
 62
7
  6
CONTINUOUS
 10
3.6276012368
 20
3.8249640249
 11
3.1743326491
 21
3.8646198879
  0
LINE
  5
23E
100
AcDbEntity
  8
ALL_ASSEMBLY_MEMBERS
100
AcDbLine
 62
7
  6
CONTINUOUS
 10
3.6344865404
 20
3.9036634061
 11
3.1812179528
 21
3.943319269
  0
LINE
  5
23F
100
AcDbEntity
  8
ALL_ASSEMBLY_MEMBERS
100
AcDbLine
 62
7
  6
CONTINUOUS
 10
3.198504361
 20
4.0198014324
 11
3.63074374
 21
3.9819853868
  0
LINE
  5
240
100
AcDbEntity
  8
ALL_ASSEMBLY_MEMBERS
100
AcDbLine
 62
7
  6
CONTINUOUS
 10
3.6126489188
 20
4.0044502044
 11
3.2202252558
 21
4.0387828262
  0
LINE
  5
241
100
AcDbEntity
  8
ALL_ASSEMBLY_MEMBERS
100
AcDbLine
 62
7
  6
CONTINUOUS
 10
4.8217615518
 20
4.5251824686
 11
5.1065228553
 21
4.7691824686
  0
LINE
  5
242
100
AcDbEntity
  8
ALL_ASSEMBLY_MEMBERS
100
AcDbLine
 62
7
  6
CONTINUOUS
 10
3.614815307
 20
4.1377687084
 11
3.2412422952
 21
4.1704521119
  0
LINE
  5
243
100
AcDbEntity
  8
ALL_ASSEMBLY_MEMBERS
100
AcDbLine
 62
7
  6
CONTINUOUS
 10
6.4256449999
 20
4.1147385476
 11
6.4703663594
 21
4.1147385476
  0
LINE
  5
244
100
AcDbEntity
  8
ALL_ASSEMBLY_MEMBERS
100
AcDbLine
 62
7
  6
CONTINUOUS
 10
6.4256449999
 20
4.132647585
 11
6.4703663594
 21
4.132647585
  0
LINE
  5
245
100
AcDbEntity
  8
ALL_ASSEMBLY_MEMBERS
100
AcDbLine
 62
7
  6
CONTINUOUS
 10
6.4256449999
 20
4.1518868019
 11
6.4703663594
 21
4.1518868019
  0
LINE
  5
246
100
AcDbEntity
  8
ALL_ASSEMBLY_MEMBERS
100
AcDbLine
 62
7
  6
CONTINUOUS
 10
6.4256449999
 20
4.1723012869
 11
6.4703663594
 21
4.1723012869
  0
LINE
  5
247
100
AcDbEntity
  8
ALL_FEATURES
100
AcDbLine
 62
7
  6
CONTINUOUS
 10
6.3200056797
 20
4.1728491353
 11
6.1415056797
 21
4.1728491353
  0
LINE
  5
248
100
AcDbEntity
  8
ALL_ASSEMBLY_MEMBERS
100
AcDbLine
 62
7
  6
CONTINUOUS
 10
6.4256449999
 20
4.1937266656
 11
6.4703663594
 21
4.1937266656
  0
LINE
  5
249
100
AcDbEntity
  8
ALL_ASSEMBLY_MEMBERS
100
AcDbLine
 62
7
  6
CONTINUOUS
 10
7.2275056797
 20
3.7065991353
 11
7.1604438801
 21
3.7221811416
  0
LINE
  5
24A
100
AcDbEntity
  8
ALL_ASSEMBLY_MEMBERS
100
AcDbLine
 62
7
  6
CONTINUOUS
 10
7.2275056797
 20
3.6128491353
 11
7.1631539915
 21
3.6290395281
  0
LINE
  5
24B
100
AcDbEntity
  8
ALL_ASSEMBLY_MEMBERS
100
AcDbLine
 62
7
  6
CONTINUOUS
 10
6.4256449999
 20
4.2159904236
 11
6.4703663594
 21
4.2159904236
  0
LINE
  5
24C
100
AcDbEntity
  8
ALL_ASSEMBLY_MEMBERS
100
AcDbLine
 62
7
  6
CONTINUOUS
 10
6.4256449999
 20
4.2389132965
 11
6.4703663594
 21
4.2389132965
  0
LINE
  5
24D
100
AcDbEntity
  8
ALL_ASSEMBLY_MEMBERS
100
AcDbLine
 62
7
  6
CONTINUOUS
 10
6.4256449999
 20
4.2623107125
 11
6.4703663594
 21
4.2623107125
  0
LINE
  5
24E
100
AcDbEntity
  8
ALL_ASSEMBLY_MEMBERS
100
AcDbLine
 62
7
  6
CONTINUOUS
 10
6.4256449999
 20
4.2859942788
 11
6.4703663594
 21
4.2859942788
  0
LINE
  5
24F
100
AcDbEntity
  8
ALL_ASSEMBLY_MEMBERS
100
AcDbLine
 62
7
  6
CONTINUOUS
 10
6.4256449999
 20
4.3097732987
 11
6.4703663594
 21
4.3097732987
  0
LINE
  5
250
100
AcDbEntity
  8
ALL_ASSEMBLY_MEMBERS
100
AcDbLine
 62
7
  6
CONTINUOUS
 10
6.4256449999
 20
4.333456307
 11
6.4703663594
 21
4.333456307
  0
LINE
  5
251
100
AcDbEntity
  8
ALL_ASSEMBLY_MEMBERS
100
AcDbLine
 62
7
  6
CONTINUOUS
 10
7.2275056797
 20
4.9828491353
 11
7.1631539915
 21
4.9666587424
  0
LINE
  5
252
100
AcDbEntity
  8
ALL_ASSEMBLY_MEMBERS
100
AcDbLine
 62
7
  6
CONTINUOUS
 10
7.2275056797
 20
4.8890991353
 11
7.1604438801
 21
4.8735171289
  0
LINE
  5
253
100
AcDbEntity
  8
ALL_ASSEMBLY_MEMBERS
100
AcDbLine
 62
7
  6
CONTINUOUS
 10
6.4256449999
 20
4.3568526113
 11
6.4703663594
 21
4.3568526113
  0
LINE
  5
254
100
AcDbEntity
  8
ALL_ASSEMBLY_MEMBERS
100
AcDbLine
 62
7
  6
CONTINUOUS
 10
6.4256449999
 20
4.379773828
 11
6.4703663594
 21
4.379773828
  0
LINE
  5
255
100
AcDbEntity
  8
ALL_ASSEMBLY_MEMBERS
100
AcDbLine
 62
7
  6
CONTINUOUS
 10
6.4256449999
 20
4.4020353986
 11
6.4703663594
 21
4.4020353986
  0
LINE
  5
256
100
AcDbEntity
  8
ALL_FEATURES
100
AcDbLine
 62
7
  6
CONTINUOUS
 10
6.3200056797
 20
4.4228491353
 11
6.1415056797
 21
4.4228491353
  0
LINE
  5
257
100
AcDbEntity
  8
ALL_ASSEMBLY_MEMBERS
100
AcDbLine
 62
7
  6
CONTINUOUS
 10
6.4256449999
 20
4.4234580761
 11
6.4703663594
 21
4.4234580761
  0
LINE
  5
258
100
AcDbEntity
  8
ALL_ASSEMBLY_MEMBERS
100
AcDbLine
 62
7
  6
CONTINUOUS
 10
6.4256449999
 20
4.4438693681
 11
6.4703663594
 21
4.4438693681
  0
LINE
  5
259
100
AcDbEntity
  8
ALL_ASSEMBLY_MEMBERS
100
AcDbLine
 62
7
  6
CONTINUOUS
 10
6.4256449999
 20
4.4631049258
 11
6.4703663594
 21
4.4631049258
  0
LINE
  5
25A
100
AcDbEntity
  8
ALL_ASSEMBLY_MEMBERS
100
AcDbLine
 62
7
  6
CONTINUOUS
 10
6.4256449999
 20
4.4810098671
 11
6.4703663594
 21
4.4810098671
  0
LINE
  5
25B
100
AcDbEntity
  8
ALL_FEATURES
100
AcDbLine
 62
7
  6
CONTINUOUS
 10
5.9924006565
 20
4.6169987028
 11
6.012919101
 21
4.6317919658
  0
LINE
  5
25C
100
AcDbEntity
  8
ALL_FEATURES
100
AcDbLine
 62
7
  6
CONTINUOUS
 10
5.9924006565
 20
3.9786995677
 11
6.012919101
 21
3.9639063047
  0
LINE
  5
25D
100
AcDbEntity
  8
ALL_FEATURES
100
AcDbLine
 62
7
  6
CONTINUOUS
 10
5.6803499167
 20
4.1045902067
 11
5.6803499167
 21
4.4911080638
  0
LINE
  5
25E
100
AcDbEntity
  8
0
100
AcDbLine
 62
7
  6
CONTINUOUS
 10
5.7025056797
 20
4.0705004727
 11
5.7025056797
 21
4.5252146836
  0
LINE
  5
25F
100
AcDbEntity
  8
0
100
AcDbLine
 62
7
  6
CONTINUOUS
 10
5.7095871911
 20
4.0625364882
 11
5.7095871911
 21
4.5331617824
  0
LINE
  5
260
100
AcDbEntity
  8
ALL_FEATURES
100
AcDbLine
 62
7
  6
CONTINUOUS
 10
5.7478528642
 20
4.0366042739
 11
5.7478528642
 21
4.5590939967
  0
LINE
  5
261
100
AcDbEntity
  8
ALL_FEATURES
100
AcDbLine
 62
7
  6
CONTINUOUS
 10
5.7754553529
 20
4.0287786272
 11
5.7754553529
 21
4.5669196433
  0
LINE
  5
262
100
AcDbEntity
  8
ALL_FEATURES
100
AcDbLine
 62
7
  6
CONTINUOUS
 10
5.7825056788
 20
4.0328491348
 11
5.7825056788
 21
4.5628491358
  0
LINE
  5
263
100
AcDbEntity
  8
ALL_FEATURES
100
AcDbLine
 62
7
  6
CONTINUOUS
 10
5.7825056788
 20
4.0328491348
 11
5.7754553529
 21
4.0287786272
  0
LINE
  5
264
100
AcDbEntity
  8
ALL_FEATURES
100
AcDbLine
 62
7
  6
CONTINUOUS
 10
5.7825056788
 20
4.5628491358
 11
5.7754553529
 21
4.5669196433
  0
LINE
  5
265
100
AcDbEntity
  8
ALL_FEATURES
100
AcDbLine
 62
7
  6
CONTINUOUS
 10
5.8067407574
 20
4.0089697812
 11
5.8067407574
 21
4.5867284893
  0
LINE
  5
266
100
AcDbEntity
  8
ALL_FEATURES
100
AcDbLine
 62
7
  6
CONTINUOUS
 10
5.8345056797
 20
4.0904879588
 11
5.8345056797
 21
4.0998592365
  0
LINE
  5
267
100
AcDbEntity
  8
ALL_FEATURES
100
AcDbLine
 62
7
  6
CONTINUOUS
 10
5.8345056797
 20
4.495839034
 11
5.8345056797
 21
4.5052103117
  0
LINE
  5
268
100
AcDbEntity
  8
ALL_FEATURES
100
AcDbLine
 62
7
  6
CONTINUOUS
 10
5.8726107028
 20
3.9786995677
 11
5.8520922583
 21
3.9639063047
  0
LINE
  5
269
100
AcDbEntity
  8
ALL_FEATURES
100
AcDbLine
 62
7
  6
CONTINUOUS
 10
5.9921429999
 20
4.0318815166
 11
5.9920629354
 21
4.0318345499
  0
LINE
  5
26A
100
AcDbEntity
  8
ALL_FEATURES
100
AcDbLine
 62
7
  6
CONTINUOUS
 10
5.9921426545
 20
4.0318818106
 11
5.9920616623
 21
4.0318356362
  0
LINE
  5
26B
100
AcDbEntity
  8
0
100
AcDbLine
 62
7
  6
CONTINUOUS
 10
5.9923996
 20
4.0313099261
 11
5.992171665
 21
4.0312006663
  0
LINE
  5
26C
100
AcDbEntity
  8
0
100
AcDbLine
 62
7
  6
CONTINUOUS
 10
5.9923997424
 20
4.0313104746
 11
5.9921669547
 21
4.0312058228
  0
LINE
  5
26D
100
AcDbEntity
  8
ALL_FEATURES
100
AcDbLine
 62
7
  6
CONTINUOUS
 10
5.8726107028
 20
4.6169987028
 11
5.8520922583
 21
4.6317919658
  0
LINE
  5
26E
100
AcDbEntity
  8
ALL_FEATURES
100
AcDbLine
 62
7
  6
CONTINUOUS
 10
6.0305056797
 20
4.0904879588
 11
6.0305056797
 21
4.0998592365
  0
LINE
  5
26F
100
AcDbEntity
  8
ALL_FEATURES
100
AcDbLine
 62
7
  6
CONTINUOUS
 10
6.0305056797
 20
4.495839034
 11
6.0305056797
 21
4.5052103117
  0
LINE
  5
270
100
AcDbEntity
  8
ALL_FEATURES
100
AcDbLine
 62
7
  6
CONTINUOUS
 10
6.0556388209
 20
4.008070806
 11
6.0556388209
 21
4.5876274646
  0
LINE
  5
271
100
AcDbEntity
  8
ALL_FEATURES
100
AcDbLine
 62
7
  6
CONTINUOUS
 10
6.0825056797
 20
4.0454977651
 11
6.0825056797
 21
4.5502005054
  0
LINE
  5
272
100
AcDbEntity
  8
ALL_FEATURES
100
AcDbLine
 62
7
  6
CONTINUOUS
 10
6.0296255634
 20
4.4959742894
 11
6.0296023042
 21
4.49582294
  0
LINE
  5
273
100
AcDbEntity
  8
ALL_FEATURES
100
AcDbLine
 62
7
  6
CONTINUOUS
 10
6.0296310892
 20
4.4959737637
 11
6.0296021608
 21
4.4958229539
  0
LINE
  5
274
100
AcDbEntity
  8
ALL_FEATURES
100
AcDbLine
 62
7
  6
CONTINUOUS
 10
6.1415056797
 20
4.4228491353
 11
6.1415056797
 21
4.1728491353
  0
LINE
  5
275
100
AcDbEntity
  8
ALL_ASSEMBLY_MEMBERS
100
AcDbLine
 62
7
  6
CONTINUOUS
 10
6.3200056797
 20
4.1528291333
 11
6.3200056797
 21
4.4428691373
  0
LINE
  5
276
100
AcDbEntity
  8
ALL_ASSEMBLY_MEMBERS
100
AcDbLine
 62
7
  6
CONTINUOUS
 10
6.4180056797
 20
4.0528491353
 11
6.4180056797
 21
4.5428491353
  0
LINE
  5
277
100
AcDbEntity
  8
ALL_ASSEMBLY_MEMBERS
100
AcDbLine
 62
7
  6
CONTINUOUS
 10
6.4780056797
 20
4.0528491353
 11
6.4780056797
 21
4.5428491353
  0
LINE
  5
278
100
AcDbEntity
  8
ALL_ASSEMBLY_MEMBERS
100
AcDbLine
 62
7
  6
CONTINUOUS
 10
6.4882621626
 20
3.96336428
 11
6.4882621626
 21
4.055183228
  0
LINE
  5
279
100
AcDbEntity
  8
ALL_ASSEMBLY_MEMBERS
100
AcDbLine
 62
7
  6
CONTINUOUS
 10
6.4882621626
 20
4.5405150426
 11
6.4882621626
 21
4.6323339906
  0
LINE
  5
27A
100
AcDbEntity
  8
ALL_ASSEMBLY_MEMBERS
100
AcDbLine
 62
7
  6
CONTINUOUS
 10
6.8075056797
 20
3.8628491353
 11
6.8075056797
 21
4.0244974303
  0
LINE
  5
27B
100
AcDbEntity
  8
ALL_ASSEMBLY_MEMBERS
100
AcDbLine
 62
7
  6
CONTINUOUS
 10
6.8075056797
 20
4.5712008403
 11
6.8075056797
 21
4.7328491353
  0
LINE
  5
27C
100
AcDbEntity
  8
ALL_ASSEMBLY_MEMBERS
100
AcDbLine
 62
7
  6
CONTINUOUS
 10
6.9100127115
 20
3.9645991353
 11
6.9100127115
 21
4.6310991353
  0
LINE
  5
27D
100
AcDbEntity
  8
ALL_ASSEMBLY_MEMBERS
100
AcDbLine
 62
7
  6
CONTINUOUS
 10
6.9305207066
 20
4.7785591661
 11
6.9305207066
 21
4.7614958694
  0
LINE
  5
27E
100
AcDbEntity
  8
ALL_ASSEMBLY_MEMBERS
100
AcDbLine
 62
7
  6
CONTINUOUS
 10
6.9305207066
 20
3.8342024012
 11
6.9305207066
 21
3.8171391044
  0
LINE
  5
27F
100
AcDbEntity
  8
ALL_ASSEMBLY_MEMBERS
100
AcDbLine
 62
7
  6
CONTINUOUS
 10
6.9553211717
 20
4.7816935682
 11
6.9553211717
 21
4.7645148124
  0
LINE
  5
280
100
AcDbEntity
  8
ALL_ASSEMBLY_MEMBERS
100
AcDbLine
 62
7
  6
CONTINUOUS
 10
6.9553211717
 20
3.8311827136
 11
6.9553211717
 21
3.8140047023
  0
LINE
  5
281
100
AcDbEntity
  8
ALL_ASSEMBLY_MEMBERS
100
AcDbLine
 62
7
  6
CONTINUOUS
 10
6.9900056797
 20
3.9653491353
 11
6.9900056797
 21
4.6303491353
  0
LINE
  5
282
100
AcDbEntity
  8
ALL_ASSEMBLY_MEMBERS
100
AcDbLine
 62
7
  6
CONTINUOUS
 10
7.0167176755
 20
3.7593174067
 11
7.0167176755
 21
3.899664646
  0
LINE
  5
283
100
AcDbEntity
  8
ALL_ASSEMBLY_MEMBERS
100
AcDbLine
 62
7
  6
CONTINUOUS
 10
7.0167176755
 20
4.6960336245
 11
7.0167176755
 21
4.8363808639
  0
LINE
  5
284
100
AcDbEntity
  8
ALL_ASSEMBLY_MEMBERS
100
AcDbLine
 62
7
  6
CONTINUOUS
 10
7.0361166484
 20
3.8834105411
 11
7.0361166484
 21
4.7122877294
  0
LINE
  5
285
100
AcDbEntity
  8
ALL_ASSEMBLY_MEMBERS
100
AcDbLine
 62
7
  6
CONTINUOUS
 10
7.1386233839
 20
3.7432888764
 11
7.1386233839
 21
4.8524093942
  0
LINE
  5
286
100
AcDbEntity
  8
ALL_ASSEMBLY_MEMBERS
100
AcDbLine
 62
7
  6
CONTINUOUS
 10
7.1434414476
 20
3.6451228808
 11
7.1434414457
 21
3.7333513627
  0
LINE
  5
287
100
AcDbEntity
  8
ALL_ASSEMBLY_MEMBERS
100
AcDbLine
 62
7
  6
CONTINUOUS
 10
7.1434414462
 20
4.8623469085
 11
7.1434414476
 21
4.9505753897
  0
LINE
  5
288
100
AcDbEntity
  8
ALL_ASSEMBLY_MEMBERS
100
AcDbLine
 62
7
  6
CONTINUOUS
 10
7.1604438801
 20
3.7221811416
 11
7.1604438801
 21
4.8735171289
  0
LINE
  5
289
100
AcDbEntity
  8
ALL_ASSEMBLY_MEMBERS
100
AcDbLine
 62
7
  6
CONTINUOUS
 10
7.1631539915
 20
3.6290395281
 11
7.1631539897
 21
3.7215514397
  0
LINE
  5
28A
100
AcDbEntity
  8
ALL_ASSEMBLY_MEMBERS
100
AcDbLine
 62
7
  6
CONTINUOUS
 10
7.1631539902
 20
4.874146831
 11
7.1631539915
 21
4.9666587424
  0
LINE
  5
28B
100
AcDbEntity
  8
ALL_ASSEMBLY_MEMBERS
100
AcDbLine
 62
7
  6
CONTINUOUS
 10
7.2275056797
 20
3.6128491353
 11
7.2275056797
 21
4.9828491353
  0
LINE
  5
28C
100
AcDbEntity
  8
ALL_ASSEMBLY_MEMBERS
100
AcDbLine
 62
7
  6
CONTINUOUS
 10
7.2390056797
 20
3.7753491353
 11
7.2390056797
 21
4.8203491353
  0
ARC
  5
28D
100
AcDbEntity
  8
ALL_ASSEMBLY_MEMBERS
100
AcDbCircle
 62
7
  6
CONTINUOUS
 10
3.5837095136
 20
3.5527535978
 40
0.02
100
AcDbArc
 50
265.0
 51
355.0
  0
ARC
  5
28E
100
AcDbEntity
  8
ALL_ASSEMBLY_MEMBERS
100
AcDbCircle
 62
7
  6
CONTINUOUS
 10
3.1702887138
 20
3.5889232311
 40
0.02
100
AcDbArc
 50
175.0
 51
265.0
  0
ARC
  5
28F
100
AcDbEntity
  8
ALL_ASSEMBLY_MEMBERS
100
AcDbCircle
 62
7
  6
CONTINUOUS
 10
4.2996991619
 20
4.0778491353
 40
1.0625
100
AcDbArc
 50
40.5918845591
 51
175.0
  0
ARC
  5
290
100
AcDbEntity
  8
ALL_ASSEMBLY_MEMBERS
100
AcDbCircle
 62
7
  6
CONTINUOUS
 10
4.2996991619
 20
4.0778491353
 40
0.6875
100
AcDbArc
 50
40.5918845591
 51
175.0
  0
ARC
  5
291
100
AcDbEntity
  8
ALL_ASSEMBLY_MEMBERS
100
AcDbCircle
 62
7
  6
CONTINUOUS
 10
2.973754336
 20
4.0304045589
 40
0.225
100
AcDbArc
 50
337.2291992837
 51
357.2989356305
  0
ARC
  5
292
100
AcDbEntity
  8
ALL_ASSEMBLY_MEMBERS
100
AcDbCircle
 62
7
  6
CONTINUOUS
 10
3.8539205206
 20
3.9533999958
 40
0.225
100
AcDbArc
 50
172.7010643695
 51
192.7708007163
  0
ARC
  5
293
100
AcDbEntity
  8
ALL_ASSEMBLY_MEMBERS
100
AcDbCircle
 62
7
  6
CONTINUOUS
 10
3.177775301
 20
3.9039695785
 40
0.0395
100
AcDbArc
 50
213.2757536188
 51
265.0
  0
ARC
  5
294
100
AcDbEntity
  8
ALL_ASSEMBLY_MEMBERS
100
AcDbCircle
 62
7
  6
CONTINUOUS
 10
3.177775301
 20
3.9039695785
 40
0.0395
100
AcDbArc
 50
85.0
 51
136.7242463812
  0
ARC
  5
295
100
AcDbEntity
  8
ALL_ASSEMBLY_MEMBERS
100
AcDbCircle
 62
7
  6
CONTINUOUS
 10
3.6310438886
 20
3.8643137155
 40
0.0395
100
AcDbArc
 50
265.0
 51
316.7665340297
  0
ARC
  5
296
100
AcDbEntity
  8
ALL_ASSEMBLY_MEMBERS
100
AcDbCircle
 62
7
  6
CONTINUOUS
 10
3.6310438886
 20
3.8643137155
 40
0.0395
100
AcDbArc
 50
33.2334659703
 51
85.0
  0
ARC
  5
297
100
AcDbEntity
  8
ALL_ASSEMBLY_MEMBERS
100
AcDbCircle
 62
7
  6
CONTINUOUS
 10
3.6109058039
 20
3.9845263105
 40
0.02
100
AcDbArc
 50
352.7010643695
 51
85.0
  0
ARC
  5
298
100
AcDbEntity
  8
ALL_ASSEMBLY_MEMBERS
100
AcDbCircle
 62
7
  6
CONTINUOUS
 10
3.218482141
 20
4.0188589323
 40
0.02
100
AcDbArc
 50
85.0
 51
177.2989356305
  0
ARC
  5
299
100
AcDbEntity
  8
ALL_ASSEMBLY_MEMBERS
100
AcDbCircle
 62
7
  6
CONTINUOUS
 10
6.4164078486
 20
1.9225267961
 40
1.9772008702
100
AcDbArc
 50
79.6905768358
 51
81.16732927
  0
ARC
  5
29A
100
AcDbEntity
  8
ALL_ASSEMBLY_MEMBERS
100
AcDbCircle
 62
7
  6
CONTINUOUS
 10
6.1551384927
 20
3.4643366049
 40
0.6
100
AcDbArc
 50
56.2750872469
 51
96.9544005215
  0
ARC
  5
29B
100
AcDbEntity
  8
ALL_ASSEMBLY_MEMBERS
100
AcDbCircle
 62
7
  6
CONTINUOUS
 10
6.6011886682
 20
3.5543431661
 40
0.5135
100
AcDbArc
 50
53.0290504961
 51
103.8799876593
  0
ARC
  5
29C
100
AcDbEntity
  8
ALL_ASSEMBLY_MEMBERS
100
AcDbCircle
 62
7
  6
CONTINUOUS
 10
6.9406998999
 20
3.5475479618
 40
0.225
100
AcDbArc
 50
25.7004592384
 51
70.2536487606
  0
ARC
  5
29D
100
AcDbEntity
  8
ALL_FEATURES
100
AcDbCircle
 62
7
  6
CONTINUOUS
 10
5.9325056797
 20
3.8523718631
 40
0.1375
100
AcDbArc
 50
125.7906197353
 51
54.2093802648
  0
ARC
  5
29E
100
AcDbEntity
  8
0
100
AcDbCircle
 62
7
  6
CONTINUOUS
 10
5.9441213404
 20
4.1317430753
 40
0.1114343291
100
AcDbArc
 50
294.3593095402
 51
295.5436492108
  0
ARC
  5
29F
100
AcDbEntity
  8
0
100
AcDbCircle
 62
7
  6
CONTINUOUS
 10
5.9208027909
 20
4.1315480122
 40
0.1112206512
100
AcDbArc
 50
243.7688457583
 51
245.6341324006
  0
ARC
  5
2A0
100
AcDbEntity
  8
ALL_FEATURES
100
AcDbCircle
 62
7
  6
CONTINUOUS
 10
5.9422261962
 20
4.1188604368
 40
0.1004329347
100
AcDbArc
 50
298.5530815526
 51
299.8436466909
  0
ARC
  5
2A1
100
AcDbEntity
  8
ALL_FEATURES
100
AcDbCircle
 62
7
  6
CONTINUOUS
 10
5.9223097219
 20
4.1180123598
 40
0.099460762
100
AcDbArc
 50
239.4643152206
 51
241.4630364549
  0
ARC
  5
2A2
100
AcDbEntity
  8
ALL_FEATURES
100
AcDbCircle
 62
7
  6
CONTINUOUS
 10
5.9441439809
 20
4.1136187325
 40
0.0947886002
100
AcDbArc
 50
299.1399214622
 51
300.366872974
  0
ARC
  5
2A3
100
AcDbEntity
  8
ALL_FEATURES
100
AcDbCircle
 62
7
  6
CONTINUOUS
 10
5.9207520303
 20
4.1134119256
 40
0.0945518247
100
AcDbArc
 50
238.8474324973
 51
240.8718922754
  0
ARC
  5
2A4
100
AcDbEntity
  8
0
100
AcDbCircle
 62
7
  6
CONTINUOUS
 10
5.981621974
 20
4.1002021597
 40
0.0534143554
100
AcDbArc
 50
346.0017740443
 51
347.5859986448
  0
ARC
  5
2A5
100
AcDbEntity
  8
0
100
AcDbCircle
 62
7
  6
CONTINUOUS
 10
5.8833893852
 20
4.1002021597
 40
0.0534143553
100
AcDbArc
 50
192.4140008282
 51
193.9982259561
  0
ARC
  5
2A6
100
AcDbEntity
  8
ALL_FEATURES
100
AcDbCircle
 62
7
  6
CONTINUOUS
 10
5.8874107143
 20
3.9507191846
 40
0.0529050346
100
AcDbArc
 50
180.0006776197
 51
182.0220225079
  0
ARC
  5
2A7
100
AcDbEntity
  8
ALL_FEATURES
100
AcDbCircle
 62
7
  6
CONTINUOUS
 10
5.9776023597
 20
3.9507191914
 40
0.05290332
100
AcDbArc
 50
357.9766857168
 51
359.9993150525
  0
ARC
  5
2A8
100
AcDbEntity
  8
0
100
AcDbCircle
 62
7
  6
CONTINUOUS
 10
5.9826963695
 20
4.0999721481
 40
0.0523156333
100
AcDbArc
 50
347.5790625437
 51
353.8027522894
  0
ARC
  5
2A9
100
AcDbEntity
  8
0
100
AcDbCircle
 62
7
  6
CONTINUOUS
 10
5.8823147212
 20
4.0999720955
 40
0.0523153597
100
AcDbArc
 50
186.1944680785
 51
192.4209439198
  0
ARC
  5
2AA
100
AcDbEntity
  8
ALL_FEATURES
100
AcDbCircle
 62
7
  6
CONTINUOUS
 10
5.8848739378
 20
4.0903109462
 40
0.0503810618
100
AcDbArc
 50
168.7239619406
 51
169.2543895128
  0
ARC
  5
2AB
100
AcDbEntity
  8
ALL_FEATURES
100
AcDbCircle
 62
7
  6
CONTINUOUS
 10
5.7038466426
 20
4.0128671203
 40
0.05
100
AcDbArc
 50
28.3426227079
 51
83.407276973
  0
ARC
  5
2AC
100
AcDbEntity
  8
ALL_FEATURES
100
AcDbCircle
 62
7
  6
CONTINUOUS
 10
5.9810581731
 20
4.0904683366
 40
0.0494475104
100
AcDbArc
 50
0.0227366431
 51
11.6827205819
  0
ARC
  5
2AD
100
AcDbEntity
  8
ALL_FEATURES
100
AcDbCircle
 62
7
  6
CONTINUOUS
 10
5.88388702
 20
4.0904724574
 40
0.0493813428
100
AcDbArc
 50
169.2249991247
 51
179.9820141536
  0
ARC
  5
2AE
100
AcDbEntity
  8
ALL_FEATURES
100
AcDbCircle
 62
7
  6
CONTINUOUS
 10
5.8196438962
 20
4.0463028632
 40
0.0395
100
AcDbArc
 50
199.9134773481
 51
250.9336918347
  0
ARC
  5
2AF
100
AcDbEntity
  8
ALL_FEATURES
100
AcDbCircle
 62
7
  6
CONTINUOUS
 10
6.0430056797
 20
4.0454961148
 40
0.0395
100
AcDbArc
 50
288.6524229102
 51
360.0
  0
ARC
  5
2B0
100
AcDbEntity
  8
ALL_FEATURES
100
AcDbCircle
 62
7
  6
CONTINUOUS
 10
5.7039463169
 20
4.1128491353
 40
0.025
100
AcDbArc
 50
199.2904540361
 51
266.6957145819
  0
ARC
  5
2B1
100
AcDbEntity
  8
ALL_FEATURES
100
AcDbCircle
 62
7
  6
CONTINUOUS
 10
5.7654553529
 20
4.0460991353
 40
0.02
100
AcDbArc
 50
208.3426227079
 51
300.0
  0
ARC
  5
2B2
100
AcDbEntity
  8
0
100
AcDbCircle
 62
7
  6
CONTINUOUS
 10
5.7105056797
 20
4.0704835869
 40
0.008
100
AcDbArc
 50
180.0
 51
263.407276973
  0
ARC
  5
2B3
100
AcDbEntity
  8
ALL_FEATURES
100
AcDbCircle
 62
7
  6
CONTINUOUS
 10
5.9325056797
 20
4.3728491353
 40
0.385
100
AcDbArc
 50
281.4652320118
 51
288.6524229102
  0
ARC
  5
2B4
100
AcDbEntity
  8
ALL_FEATURES
100
AcDbCircle
 62
7
  6
CONTINUOUS
 10
5.9325056797
 20
4.3728491353
 40
0.385
100
AcDbArc
 50
250.9336918347
 51
258.5301479547
  0
ARC
  5
2B5
100
AcDbEntity
  8
ALL_FEATURES
100
AcDbCircle
 62
7
  6
CONTINUOUS
 10
5.9325056797
 20
4.2228491353
 40
0.385
100
AcDbArc
 50
71.3475770898
 51
78.5346791814
  0
ARC
  5
2B6
100
AcDbEntity
  8
ALL_FEATURES
100
AcDbCircle
 62
7
  6
CONTINUOUS
 10
5.9325056797
 20
4.2228491353
 40
0.385
100
AcDbArc
 50
101.469802014
 51
109.0663081681
  0
ARC
  5
2B7
100
AcDbEntity
  8
0
100
AcDbCircle
 62
7
  6
CONTINUOUS
 10
5.9441438288
 20
4.4640037462
 40
0.1113807436
100
AcDbArc
 50
63.8230129351
 51
65.6521810153
  0
ARC
  5
2B8
100
AcDbEntity
  8
ALL_FEATURES
100
AcDbCircle
 62
7
  6
CONTINUOUS
 10
5.9427050267
 20
4.4776933773
 40
0.099452618
100
AcDbArc
 50
59.4550480771
 51
61.4572636159
  0
ARC
  5
2B9
100
AcDbEntity
  8
ALL_ASSEMBLY_MEMBERS
100
AcDbCircle
 62
7
  6
CONTINUOUS
 10
6.4200056797
 20
4.1528291333
 40
0.1
100
AcDbArc
 50
180.0
 51
268.8540080016
  0
ARC
  5
2BA
100
AcDbEntity
  8
ALL_FEATURES
100
AcDbCircle
 62
7
  6
CONTINUOUS
 10
6.1415056797
 20
4.1138491353
 40
0.059
100
AcDbArc
 50
90.0
 51
180.0
  0
ARC
  5
2BB
100
AcDbEntity
  8
ALL_ASSEMBLY_MEMBERS
100
AcDbCircle
 62
7
  6
CONTINUOUS
 10
6.4480056797
 20
4.0528491353
 40
0.03
100
AcDbArc
 50
180.0
 51
221.7510942136
  0
ARC
  5
2BC
100
AcDbEntity
  8
ALL_ASSEMBLY_MEMBERS
100
AcDbCircle
 62
7
  6
CONTINUOUS
 10
6.4480056797
 20
4.0528491353
 40
0.03
100
AcDbArc
 50
318.2489057864
 51
360.0
  0
ARC
  5
2BD
100
AcDbEntity
  8
ALL_ASSEMBLY_MEMBERS
100
AcDbCircle
 62
7
  6
CONTINUOUS
 10
6.4485818086
 20
4.0524593214
 40
0.0293202185
100
AcDbArc
 50
300.5714904286
 51
304.0212847676
  0
ARC
  5
2BE
100
AcDbEntity
  8
ALL_ASSEMBLY_MEMBERS
100
AcDbCircle
 62
7
  6
CONTINUOUS
 10
6.4486112612
 20
4.0524341562
 40
0.0292820463
100
AcDbArc
 50
304.0004835032
 51
304.7811337208
  0
ARC
  5
2BF
100
AcDbEntity
  8
ALL_ASSEMBLY_MEMBERS
100
AcDbCircle
 62
7
  6
CONTINUOUS
 10
6.4473127232
 20
4.0523093963
 40
0.0291297256
100
AcDbArc
 50
231.7198069796
 51
235.1879660988
  0
ARC
  5
2C0
100
AcDbEntity
  8
ALL_ASSEMBLY_MEMBERS
100
AcDbCircle
 62
7
  6
CONTINUOUS
 10
6.4487233352
 20
4.0522452841
 40
0.0290636339
100
AcDbArc
 50
304.0261198465
 51
304.8125140774
  0
ARC
  5
2C1
100
AcDbEntity
  8
ALL_ASSEMBLY_MEMBERS
100
AcDbCircle
 62
7
  6
CONTINUOUS
 10
6.447203228
 20
4.0521675852
 40
0.0289505722
100
AcDbArc
 50
230.8813579374
 51
231.7160458926
  0
ARC
  5
2C2
100
AcDbEntity
  8
ALL_ASSEMBLY_MEMBERS
100
AcDbCircle
 62
7
  6
CONTINUOUS
 10
6.4488582997
 20
4.0520994936
 40
0.0288662566
100
AcDbArc
 50
304.7573232903
 51
313.5938781025
  0
ARC
  5
2C3
100
AcDbEntity
  8
ALL_ASSEMBLY_MEMBERS
100
AcDbCircle
 62
7
  6
CONTINUOUS
 10
6.4471022706
 20
4.0520449411
 40
0.028791723
100
AcDbArc
 50
226.3796909671
 51
230.8832430734
  0
ARC
  5
2C4
100
AcDbEntity
  8
ALL_ASSEMBLY_MEMBERS
100
AcDbCircle
 62
7
  6
CONTINUOUS
 10
6.4468737468
 20
4.0518025139
 40
0.0284585702
100
AcDbArc
 50
221.7590071171
 51
226.3760466428
  0
ARC
  5
2C5
100
AcDbEntity
  8
ALL_ASSEMBLY_MEMBERS
100
AcDbCircle
 62
7
  6
CONTINUOUS
 10
6.4491822924
 20
4.0517592068
 40
0.0283963988
100
AcDbArc
 50
313.593861735
 51
318.2461346699
  0
ARC
  5
2C6
100
AcDbEntity
  8
ALL_FEATURES
100
AcDbCircle
 62
7
  6
CONTINUOUS
 10
6.2325056796
 20
4.2978491353
 40
0.585
100
AcDbArc
 50
160.7095459639
 51
199.2904540361
  0
ARC
  5
2C7
100
AcDbEntity
  8
ALL_ASSEMBLY_MEMBERS
100
AcDbCircle
 62
7
  6
CONTINUOUS
 10
6.4200056797
 20
4.4428691373
 40
0.1
100
AcDbArc
 50
91.1459919984
 51
180.0
  0
ARC
  5
2C8
100
AcDbEntity
  8
ALL_ASSEMBLY_MEMBERS
100
AcDbCircle
 62
7
  6
CONTINUOUS
 10
5.7235056797
 20
5.2978491353
 40
1.1875
100
AcDbArc
 50
220.5918845591
 51
267.8064716482
  0
ARC
  5
2C9
100
AcDbEntity
  8
ALL_ASSEMBLY_MEMBERS
100
AcDbCircle
 62
7
  6
CONTINUOUS
 10
5.7235056797
 20
5.2978491353
 40
0.8125
100
AcDbArc
 50
220.5918845591
 51
266.8495041608
  0
ARC
  5
2CA
100
AcDbEntity
  8
ALL_ASSEMBLY_MEMBERS
100
AcDbCircle
 62
7
  6
CONTINUOUS
 10
6.1551384927
 20
5.1313616657
 40
0.6
100
AcDbArc
 50
263.0455994785
 51
303.7249127531
  0
ARC
  5
2CB
100
AcDbEntity
  8
ALL_FEATURES
100
AcDbCircle
 62
7
  6
CONTINUOUS
 10
5.9325056797
 20
4.7433264074
 40
0.1375
100
AcDbArc
 50
305.7906197352
 51
234.2093802648
  0
ARC
  5
2CC
100
AcDbEntity
  8
ALL_FEATURES
100
AcDbCircle
 62
7
  6
CONTINUOUS
 10
5.9443051269
 20
4.4823743852
 40
0.0944527321
100
AcDbArc
 50
58.8632832905
 51
60.8770869665
  0
ARC
  5
2CD
100
AcDbEntity
  8
ALL_FEATURES
100
AcDbCircle
 62
7
  6
CONTINUOUS
 10
5.920290664
 20
4.483085978
 40
0.0936288352
100
AcDbArc
 50
119.1244034717
 51
121.3393379954
  0
ARC
  5
2CE
100
AcDbEntity
  8
ALL_FEATURES
100
AcDbCircle
 62
7
  6
CONTINUOUS
 10
5.919070696
 20
4.5409968154
 40
0.0912797565
100
AcDbArc
 50
237.6329445909
 51
238.3942198439
  0
ARC
  5
2CF
100
AcDbEntity
  8
ALL_FEATURES
100
AcDbCircle
 62
7
  6
CONTINUOUS
 10
6.1415056797
 20
4.4818491353
 40
0.059
100
AcDbArc
 50
180.0
 51
270.0
  0
ARC
  5
2D0
100
AcDbEntity
  8
0
100
AcDbCircle
 62
7
  6
CONTINUOUS
 10
5.8832994046
 20
4.4955172256
 40
0.0533219393
100
AcDbArc
 50
166.000400915
 51
167.5869642745
  0
ARC
  5
2D1
100
AcDbEntity
  8
0
100
AcDbCircle
 62
7
  6
CONTINUOUS
 10
5.9817119548
 20
4.4955172256
 40
0.0533219393
100
AcDbArc
 50
12.4130357253
 51
13.9995990852
  0
ARC
  5
2D2
100
AcDbEntity
  8
0
100
AcDbCircle
 62
7
  6
CONTINUOUS
 10
5.8820662872
 20
4.4957668332
 40
0.0520639973
100
AcDbArc
 50
167.5635291981
 51
173.7488271777
  0
ARC
  5
2D3
100
AcDbEntity
  8
0
100
AcDbCircle
 62
7
  6
CONTINUOUS
 10
5.9829451985
 20
4.495766855
 40
0.0520638692
100
AcDbArc
 50
6.249987632
 51
12.4364773886
  0
ARC
  5
2D4
100
AcDbEntity
  8
ALL_FEATURES
100
AcDbCircle
 62
7
  6
CONTINUOUS
 10
5.8849080195
 20
4.5053962854
 40
0.0504161024
100
AcDbArc
 50
190.7634985594
 51
191.3543347722
  0
ARC
  5
2D5
100
AcDbEntity
  8
ALL_FEATURES
100
AcDbCircle
 62
7
  6
CONTINUOUS
 10
5.7038466426
 20
4.5828311502
 40
0.05
100
AcDbArc
 50
276.592723027
 51
331.6573772921
  0
ARC
  5
2D6
100
AcDbEntity
  8
ALL_FEATURES
100
AcDbCircle
 62
7
  6
CONTINUOUS
 10
5.8838582799
 20
4.5052225688
 40
0.0493523954
100
AcDbArc
 50
180.014229689
 51
190.79296855
  0
ARC
  5
2D7
100
AcDbEntity
  8
ALL_FEATURES
100
AcDbCircle
 62
7
  6
CONTINUOUS
 10
5.9811575102
 20
4.5052222096
 40
0.0493479646
100
AcDbArc
 50
349.1981568413
 51
359.9861861252
  0
ARC
  5
2D8
100
AcDbEntity
  8
ALL_FEATURES
100
AcDbCircle
 62
7
  6
CONTINUOUS
 10
5.8196438962
 20
4.5493954074
 40
0.0395
100
AcDbArc
 50
109.0663081681
 51
160.0865226333
  0
ARC
  5
2D9
100
AcDbEntity
  8
ALL_FEATURES
100
AcDbCircle
 62
7
  6
CONTINUOUS
 10
6.0430056797
 20
4.5502021557
 40
0.0395
100
AcDbArc
 50
0.0
 51
71.3475770898
  0
ARC
  5
2DA
100
AcDbEntity
  8
ALL_ASSEMBLY_MEMBERS
100
AcDbCircle
 62
7
  6
CONTINUOUS
 10
6.4480056797
 20
4.5428491353
 40
0.03
100
AcDbArc
 50
138.1896851042
 51
180.0
  0
ARC
  5
2DB
100
AcDbEntity
  8
ALL_ASSEMBLY_MEMBERS
100
AcDbCircle
 62
7
  6
CONTINUOUS
 10
6.4480056797
 20
4.5428491353
 40
0.03
100
AcDbArc
 50
0.0
 51
41.8103148958
  0
ARC
  5
2DC
100
AcDbEntity
  8
ALL_ASSEMBLY_MEMBERS
100
AcDbCircle
 62
7
  6
CONTINUOUS
 10
6.4487770341
 20
4.5435129806
 40
0.0289833974
100
AcDbArc
 50
46.3818913239
 51
55.1896909477
  0
ARC
  5
2DD
100
AcDbEntity
  8
ALL_ASSEMBLY_MEMBERS
100
AcDbCircle
 62
7
  6
CONTINUOUS
 10
6.4472079674
 20
4.5435453152
 40
0.0289418043
100
AcDbArc
 50
124.8042716297
 51
133.5985287587
  0
ARC
  5
2DE
100
AcDbEntity
  8
ALL_ASSEMBLY_MEMBERS
100
AcDbCircle
 62
7
  6
CONTINUOUS
 10
6.4488945664
 20
4.5436424836
 40
0.0288085641
100
AcDbArc
 50
41.8128292962
 51
46.3734397617
  0
ARC
  5
2DF
100
AcDbEntity
  8
ALL_ASSEMBLY_MEMBERS
100
AcDbCircle
 62
7
  6
CONTINUOUS
 10
6.447102028
 20
4.5436567572
 40
0.0287880432
100
AcDbArc
 50
133.5987881316
 51
138.188752531
  0
ARC
  5
2E0
100
AcDbEntity
  8
ALL_FEATURES
100
AcDbCircle
 62
7
  6
CONTINUOUS
 10
5.7039463169
 20
4.4828491353
 40
0.025
100
AcDbArc
 50
93.3042854181
 51
160.7095459639
  0
ARC
  5
2E1
100
AcDbEntity
  8
ALL_FEATURES
100
AcDbCircle
 62
7
  6
CONTINUOUS
 10
5.7654553529
 20
4.5495991353
 40
0.02
100
AcDbArc
 50
60.0
 51
151.6573772921
  0
ARC
  5
2E2
100
AcDbEntity
  8
0
100
AcDbCircle
 62
7
  6
CONTINUOUS
 10
5.7105056797
 20
4.5252146836
 40
0.008
100
AcDbArc
 50
96.592723027
 51
180.0
  0
ARC
  5
2E3
100
AcDbEntity
  8
ALL_ASSEMBLY_MEMBERS
100
AcDbCircle
 62
7
  6
CONTINUOUS
 10
6.8075056797
 20
4.4415991353
 40
0.575
100
AcDbArc
 50
266.2856287694
 51
270.0
  0
ARC
  5
2E4
100
AcDbEntity
  8
ALL_ASSEMBLY_MEMBERS
100
AcDbCircle
 62
7
  6
CONTINUOUS
 10
6.8075056797
 20
4.4415991353
 40
0.575
100
AcDbArc
 50
236.2750872469
 51
256.1391194293
  0
ARC
  5
2E5
100
AcDbEntity
  8
ALL_ASSEMBLY_MEMBERS
100
AcDbCircle
 62
7
  6
CONTINUOUS
 10
6.8075056797
 20
4.1540991353
 40
0.575
100
AcDbArc
 50
90.0
 51
123.7249127531
  0
ARC
  5
2E6
100
AcDbEntity
  8
ALL_ASSEMBLY_MEMBERS
100
AcDbCircle
 62
7
  6
CONTINUOUS
 10
6.9067829733
 20
3.6812403146
 40
0.24
100
AcDbArc
 50
14.9831919527
 51
57.3918704587
  0
ARC
  5
2E7
100
AcDbEntity
  8
ALL_ASSEMBLY_MEMBERS
100
AcDbCircle
 62
7
  6
CONTINUOUS
 10
6.7686881918
 20
3.9010266111
 40
0.1717879011
100
AcDbArc
 50
8.0720562936
 51
8.7201192624
  0
ARC
  5
2E8
100
AcDbEntity
  8
ALL_ASSEMBLY_MEMBERS
100
AcDbCircle
 62
7
  6
CONTINUOUS
 10
7.0538819214
 20
3.8628491353
 40
0.11
100
AcDbArc
 50
206.3619537489
 51
250.2536487606
  0
ARC
  5
2E9
100
AcDbEntity
  8
ALL_ASSEMBLY_MEMBERS
100
AcDbCircle
 62
7
  6
CONTINUOUS
 10
7.0900056797
 20
3.9676481355
 40
0.1
100
AcDbArc
 50
181.3167405562
 51
237.3918704587
  0
ARC
  5
2EA
100
AcDbEntity
  8
ALL_ASSEMBLY_MEMBERS
100
AcDbCircle
 62
7
  6
CONTINUOUS
 10
6.8775056797
 20
3.8628491353
 40
0.07
100
AcDbArc
 50
180.0
 51
319.2317939005
  0
ARC
  5
2EB
100
AcDbEntity
  8
ALL_ASSEMBLY_MEMBERS
100
AcDbCircle
 62
7
  6
CONTINUOUS
 10
6.9500056797
 20
3.9653491353
 40
0.04
100
AcDbArc
 50
181.0743588229
 51
360.0
  0
ARC
  5
2EC
100
AcDbEntity
  8
ALL_ASSEMBLY_MEMBERS
100
AcDbCircle
 62
7
  6
CONTINUOUS
 10
7.170473654
 20
3.65813287
 40
0.03
100
AcDbArc
 50
205.7004592382
 51
255.8779202224
  0
ARC
  5
2ED
100
AcDbEntity
  8
ALL_ASSEMBLY_MEMBERS
100
AcDbCircle
 62
7
  6
CONTINUOUS
 10
7.1671204343
 20
3.7509156788
 40
0.0295
100
AcDbArc
 50
194.9831919527
 51
256.9192612079
  0
ARC
  5
2EE
100
AcDbEntity
  8
ALL_ASSEMBLY_MEMBERS
100
AcDbCircle
 62
7
  6
CONTINUOUS
 10
7.2132556797
 20
3.7753491353
 40
0.02575
100
AcDbArc
 50
303.6249326038
 51
360.0
  0
ARC
  5
2EF
100
AcDbEntity
  8
ALL_ASSEMBLY_MEMBERS
100
AcDbCircle
 62
7
  6
CONTINUOUS
 10
6.9418810695
 20
3.8073440978
 40
0.015
100
AcDbArc
 50
26.3619537489
 51
139.2317939005
  0
ARC
  5
2F0
100
AcDbEntity
  8
ALL_ASSEMBLY_MEMBERS
100
AcDbCircle
 62
7
  6
CONTINUOUS
 10
6.6011886682
 20
5.0413551045
 40
0.5135
100
AcDbArc
 50
256.1200123407
 51
306.9709495039
  0
ARC
  5
2F1
100
AcDbEntity
  8
ALL_ASSEMBLY_MEMBERS
100
AcDbCircle
 62
7
  6
CONTINUOUS
 10
6.9067829733
 20
4.9144579559
 40
0.24
100
AcDbArc
 50
302.6081295413
 51
345.0168080473
  0
ARC
  5
2F2
100
AcDbEntity
  8
ALL_ASSEMBLY_MEMBERS
100
AcDbCircle
 62
7
  6
CONTINUOUS
 10
6.9406998999
 20
5.0481503088
 40
0.225
100
AcDbArc
 50
289.7463512394
 51
334.2995407616
  0
ARC
  5
2F3
100
AcDbEntity
  8
ALL_ASSEMBLY_MEMBERS
100
AcDbCircle
 62
7
  6
CONTINUOUS
 10
6.7699688274
 20
4.6944636739
 40
0.1704907508
100
AcDbArc
 50
351.2837281064
 51
351.9367146669
  0
ARC
  5
2F4
100
AcDbEntity
  8
ALL_ASSEMBLY_MEMBERS
100
AcDbCircle
 62
7
  6
CONTINUOUS
 10
7.0538819214
 20
4.7328491353
 40
0.11
100
AcDbArc
 50
109.7463512394
 51
153.6380462511
  0
ARC
  5
2F5
100
AcDbEntity
  8
ALL_ASSEMBLY_MEMBERS
100
AcDbCircle
 62
7
  6
CONTINUOUS
 10
7.0900056797
 20
4.628050135
 40
0.1
100
AcDbArc
 50
122.6081295413
 51
178.6832594438
  0
ARC
  5
2F6
100
AcDbEntity
  8
ALL_ASSEMBLY_MEMBERS
100
AcDbCircle
 62
7
  6
CONTINUOUS
 10
6.8775056797
 20
4.7328491353
 40
0.07
100
AcDbArc
 50
40.7682060995
 51
180.0
  0
ARC
  5
2F7
100
AcDbEntity
  8
ALL_ASSEMBLY_MEMBERS
100
AcDbCircle
 62
7
  6
CONTINUOUS
 10
6.9500056797
 20
4.6303491353
 40
0.04
100
AcDbArc
 50
0.0
 51
178.9256411771
  0
ARC
  5
2F8
100
AcDbEntity
  8
ALL_ASSEMBLY_MEMBERS
100
AcDbCircle
 62
7
  6
CONTINUOUS
 10
7.170473654
 20
4.9375654005
 40
0.03
100
AcDbArc
 50
104.1220797776
 51
154.2995407618
  0
ARC
  5
2F9
100
AcDbEntity
  8
ALL_ASSEMBLY_MEMBERS
100
AcDbCircle
 62
7
  6
CONTINUOUS
 10
7.1671204343
 20
4.8447825918
 40
0.0295
100
AcDbArc
 50
103.0807387921
 51
165.0168080473
  0
ARC
  5
2FA
100
AcDbEntity
  8
ALL_ASSEMBLY_MEMBERS
100
AcDbCircle
 62
7
  6
CONTINUOUS
 10
7.2132556797
 20
4.8203491353
 40
0.02575
100
AcDbArc
 50
0.0
 51
56.3750673962
  0
ARC
  5
2FB
100
AcDbEntity
  8
ALL_ASSEMBLY_MEMBERS
100
AcDbCircle
 62
7
  6
CONTINUOUS
 10
6.9418810695
 20
4.7883541727
 40
0.015
100
AcDbArc
 50
220.7682060995
 51
333.6380462511
  0
SPLINE
  5
2FC
100
AcDbEntity
  8
ALL_ASSEMBLY_MEMBERS
100
AcDbSpline
 62
7
  6
CONTINUOUS
 70
0
 71
3
 72
15
 73
11
 74
0
 42
0.0000001
 43
0.0000001
 44
0.0000000001
 40
0.0
 40
0.0
 40
0.0
 40
0.0
 40
0.1040343866
 40
0.2244627889
 40
0.358323824
 40
0.5000000029
 40
0.6416761802
 40
0.7755372127
 40
0.8959656139
 40
1.0
 40
1.0
 40
1.0
 40
1.0
 10
3.5925676038
 20
3.8431068629
 30
0.0
 10
3.5928024136
 20
3.8447889491
 30
0.0
 10
3.5932768386
 20
3.8484227068
 30
0.0
 10
3.5939549082
 20
3.8542331761
 30
0.0
 10
3.5946262596
 20
3.8606626432
 30
0.0
 10
3.5952572785
 20
3.8674446383
 30
0.0
 10
3.5958135273
 20
3.8742331749
 30
0.0
 10
3.5962688404
 20
3.8806815429
 30
0.0
 10
3.5966100496
 20
3.8865214836
 30
0.0
 10
3.5967738277
 20
3.8901824193
 30
0.0
 10
3.5968346764
 20
3.8918797251
 30
0.0
  0
SPLINE
  5
2FD
100
AcDbEntity
  8
ALL_ASSEMBLY_MEMBERS
100
AcDbSpline
 62
7
  6
CONTINUOUS
 70
0
 71
3
 72
17
 73
13
 74
0
 42
0.0000001
 43
0.0000001
 44
0.0000000001
 40
0.0
 40
0.0
 40
0.0
 40
0.0
 40
0.0501722731
 40
0.1045318235
 40
0.2250443657
 40
0.3586940172
 40
0.5000000029
 40
0.641305987
 40
0.774955636
 40
0.895468177
 40
0.9498277271
 40
1.0
 40
1.0
 40
1.0
 40
1.0
 10
3.6077645042
 20
3.8417773064
 30
0.0
 10
3.6079599341
 20
3.8425750447
 30
0.0
 10
3.6083459989
 20
3.8442423208
 30
0.0
 10
3.6090973758
 20
3.8478491348
 30
0.0
 10
3.6099702007
 20
3.8528251379
 30
0.0
 10
3.6108578481
 20
3.8592391165
 30
0.0
 10
3.6115638243
 20
3.8660180004
 30
0.0
 10
3.6120457143
 20
3.8728164893
 30
0.0
 10
3.612285328
 20
3.8792871634
 30
0.0
 10
3.6122898371
 20
3.8843391343
 30
0.0
 10
3.6121761919
 20
3.8880216278
 30
0.0
 10
3.6120855118
 20
3.8897306137
 30
0.0
 10
3.6120315767
 20
3.8905501686
 30
0.0
  0
SPLINE
  5
2FE
100
AcDbEntity
  8
ALL_ASSEMBLY_MEMBERS
100
AcDbSpline
 62
7
  6
CONTINUOUS
 70
0
 71
3
 72
19
 73
15
 74
0
 42
0.0000001
 43
0.0000001
 44
0.0000000001
 40
0.0
 40
0.0
 40
0.0
 40
0.0
 40
0.050757892
 40
0.1054853965
 40
0.164043697
 40
0.226175128
 40
0.3594140012
 40
0.5000000028
 40
0.640586003
 40
0.7738248737
 40
0.8359563039
 40
0.894514604
 40
0.9492421081
 40
1.0
 40
1.0
 40
1.0
 40
1.0
 10
3.6212083275
 20
3.8406011243
 30
0.0
 10
3.6214849373
 20
3.8413893748
 30
0.0
 10
3.6220267065
 20
3.8430392648
 30
0.0
 10
3.6227771694
 20
3.8456332212
 30
0.0
 10
3.6234861982
 20
3.848432377
 30
0.0
 10
3.6243839338
 20
3.852514575
 30
0.0
 10
3.6253224729
 20
3.8579670157
 30
0.0
 10
3.6261032089
 20
3.8647459691
 30
0.0
 10
3.6265114869
 20
3.8715575084
 30
0.0
 10
3.6265340128
 20
3.8770900897
 30
0.0
 10
3.626358782
 20
3.88126616
 30
0.0
 10
3.6261465933
 20
3.8841459119
 30
0.0
 10
3.6258579673
 20
3.8868307768
 30
0.0
 10
3.6256109293
 20
3.8885496785
 30
0.0
 10
3.6254754
 20
3.8893739865
 30
0.0
  0
SPLINE
  5
2FF
100
AcDbEntity
  8
ALL_ASSEMBLY_MEMBERS
100
AcDbSpline
 62
7
  6
CONTINUOUS
 70
0
 71
3
 72
19
 73
15
 74
0
 42
0.0000001
 43
0.0000001
 44
0.0000000001
 40
0.0
 40
0.0
 40
0.0
 40
0.0
 40
0.0515814423
 40
0.1068308759
 40
0.1656359224
 40
0.2277713102
 40
0.3604334921
 40
0.5000000028
 40
0.639566512
 40
0.7722286915
 40
0.8343640785
 40
0.8931691246
 40
0.9484185579
 40
1.0
 40
1.0
 40
1.0
 40
1.0
 10
3.6327843808
 20
3.8395883508
 30
0.0
 10
3.6331395922
 20
3.8403665522
 30
0.0
 10
3.6338326698
 20
3.8419979999
 30
0.0
 10
3.6347855876
 20
3.844575334
 30
0.0
 10
3.6356740929
 20
3.8473599856
 30
0.0
 10
3.6367791359
 20
3.851419139
 30
0.0
 10
3.6378967867
 20
3.8568572011
 30
0.0
 10
3.6387513331
 20
3.8636394016
 30
0.0
 10
3.6390874859
 20
3.8704669556
 30
0.0
 10
3.6389311243
 20
3.8760164793
 30
0.0
 10
3.638547734
 20
3.8802058537
 30
0.0
 10
3.6381562768
 20
3.8831024875
 30
0.0
 10
3.6376653853
 20
3.8858061385
 30
0.0
 10
3.637266135
 20
3.8875331525
 30
0.0
 10
3.6370514533
 20
3.8883612131
 30
0.0
  0
SPLINE
  5
300
100
AcDbEntity
  8
ALL_ASSEMBLY_MEMBERS
100
AcDbSpline
 62
7
  6
CONTINUOUS
 70
0
 71
3
 72
19
 73
15
 74
0
 42
0.0000001
 43
0.0000001
 44
0.0000000001
 40
0.0
 40
0.0
 40
0.0
 40
0.0
 40
0.0525861007
 40
0.1084786031
 40
0.1675920337
 40
0.2297372692
 40
0.3616934262
 40
0.5000000028
 40
0.6383065779
 40
0.7702627324
 40
0.8324079672
 40
0.8915213974
 40
0.9474138994
 40
1.0
 40
1.0
 40
1.0
 40
1.0
 10
3.6423939057
 20
3.8387476263
 30
0.0
 10
3.642824439
 20
3.8395156284
 30
0.0
 10
3.6436629895
 20
3.8411281413
 30
0.0
 10
3.644812659
 20
3.8436893223
 30
0.0
 10
3.6458756103
 20
3.8464599997
 30
0.0
 10
3.6471810044
 20
3.8504953642
 30
0.0
 10
3.6484733557
 20
3.8559194765
 30
0.0
 10
3.6494003629
 20
3.8627077322
 30
0.0
 10
3.6496662073
 20
3.8695538322
 30
0.0
 10
3.6493353769
 20
3.8751199544
 30
0.0
 10
3.6487505483
 20
3.8793206919
 30
0.0
 10
3.6481848687
 20
3.882233856
 30
0.0
 10
3.6474974097
 20
3.8849557649
 30
0.0
 10
3.6469516086
 20
3.8866893928
 30
0.0
 10
3.6466609782
 20
3.8875204886
 30
0.0
  0
SPLINE
  5
301
100
AcDbEntity
  8
ALL_ASSEMBLY_MEMBERS
100
AcDbSpline
 62
7
  6
CONTINUOUS
 70
0
 71
3
 72
19
 73
15
 74
0
 42
0.0000001
 43
0.0000001
 44
0.0000000001
 40
0.0
 40
0.0
 40
0.0
 40
0.0
 40
0.110271523
 40
0.2318426122
 40
0.2964257037
 40
0.3630651647
 40
0.4311475315
 40
0.5000000028
 40
0.5688524739
 40
0.6369348393
 40
0.7035742987
 40
0.7681573895
 40
0.8897284775
 40
1.0
 40
1.0
 40
1.0
 40
1.0
 10
3.6499549208
 20
3.8380861232
 30
0.0
 10
3.6509856076
 20
3.8396423669
 30
0.0
 10
3.6529204704
 20
3.843072006
 30
0.0
 10
3.6548130799
 20
3.8477333949
 30
0.0
 10
3.656061708
 20
3.8518285288
 30
0.0
 10
3.65684871
 20
3.8551113356
 30
0.0
 10
3.6574531482
 20
3.8585059173
 30
0.0
 10
3.657858241
 20
3.8619677638
 30
0.0
 10
3.6580604458
 20
3.8654473607
 30
0.0
 10
3.6580546533
 20
3.8688953305
 30
0.0
 10
3.6578496611
 20
3.8722649256
 30
0.0
 10
3.657331115
 20
3.8765146671
 30
0.0
 10
3.6562767001
 20
3.8814338872
 30
0.0
 10
3.6549667828
 20
3.8851474077
 30
0.0
 10
3.6542219933
 20
3.8868589855
 30
0.0
  0
SPLINE
  5
302
100
AcDbEntity
  8
ALL_ASSEMBLY_MEMBERS
100
AcDbSpline
 62
7
  6
CONTINUOUS
 70
0
 71
3
 72
19
 73
15
 74
0
 42
0.0000001
 43
0.0000001
 44
0.0000000001
 40
0.0
 40
0.0
 40
0.0
 40
0.0
 40
0.112219447
 40
0.2341834826
 40
0.2984804155
 40
0.3645825158
 40
0.4319519328
 40
0.5000000027
 40
0.5680480724
 40
0.6354174881
 40
0.701519587
 40
0.765816519
 40
0.8877805535
 40
1.0
 40
1.0
 40
1.0
 40
1.0
 10
3.655402921
 20
3.837609485
 30
0.0
 10
3.656566571
 20
3.8391395981
 30
0.0
 10
3.6587534217
 20
3.8425220323
 30
0.0
 10
3.6608977645
 20
3.847182807
 30
0.0
 10
3.6622936252
 20
3.8512772683
 30
0.0
 10
3.6631615672
 20
3.8545548996
 30
0.0
 10
3.663815845
 20
3.8579471158
 30
0.0
 10
3.6642376486
 20
3.861409638
 30
0.0
 10
3.6644235138
 20
3.864892802
 30
0.0
 10
3.6643682281
 20
3.8683470969
 30
0.0
 10
3.6640826268
 20
3.8717256501
 30
0.0
 10
3.6634189681
 20
3.876000296
 30
0.0
 10
3.6621165377
 20
3.8809626242
 30
0.0
 10
3.6605502638
 20
3.8846734142
 30
0.0
 10
3.6596699935
 20
3.8863823472
 30
0.0
  0
SPLINE
  5
303
100
AcDbEntity
  8
ALL_ASSEMBLY_MEMBERS
100
AcDbSpline
 62
7
  6
CONTINUOUS
 70
0
 71
3
 72
19
 73
15
 74
0
 42
0.0000001
 43
0.0000001
 44
0.0000000001
 40
0.0
 40
0.0
 40
0.0
 40
0.0
 40
0.1141920642
 40
0.2365714736
 40
0.3005818485
 40
0.3661372669
 40
0.4327771023
 40
0.5000000027
 40
0.567222903
 40
0.6338627371
 40
0.6994181539
 40
0.763428528
 40
0.8858079363
 40
1.0
 40
1.0
 40
1.0
 40
1.0
 10
3.658691428
 20
3.8373217779
 30
0.0
 10
3.6599776795
 20
3.8388276776
 30
0.0
 10
3.6623977282
 20
3.8421640142
 30
0.0
 10
3.6647819804
 20
3.8468241258
 30
0.0
 10
3.6663174026
 20
3.8509188892
 30
0.0
 10
3.6672615867
 20
3.8541917914
 30
0.0
 10
3.6679628313
 20
3.8575820083
 30
0.0
 10
3.6684004051
 20
3.861045444
 30
0.0
 10
3.6685708983
 20
3.8645322461
 30
0.0
 10
3.6684690122
 20
3.8679927278
 30
0.0
 10
3.6681075058
 20
3.871379863
 30
0.0
 10
3.6673064584
 20
3.875679041
 30
0.0
 10
3.6657676481
 20
3.8806823761
 30
0.0
 10
3.6639637143
 20
3.8843882632
 30
0.0
 10
3.6629585005
 20
3.8860946401
 30
0.0
  0
SPLINE
  5
304
100
AcDbEntity
  8
ALL_ASSEMBLY_MEMBERS
100
AcDbSpline
 62
7
  6
CONTINUOUS
 70
0
 71
3
 72
19
 73
15
 74
0
 42
0.0000001
 43
0.0000001
 44
0.0000000001
 40
0.0
 40
0.0
 40
0.0
 40
0.0
 40
0.1161159509
 40
0.2389173711
 40
0.3026515672
 40
0.3676714727
 40
0.4335923239
 40
0.5000000027
 40
0.5664076812
 40
0.6323285312
 40
0.6973484351
 40
0.7610826306
 40
0.8838840496
 40
1.0
 40
1.0
 40
1.0
 40
1.0
 10
3.6597923866
 20
3.8372254565
 30
0.0
 10
3.6611905317
 20
3.8387094454
 30
0.0
 10
3.6638235454
 20
3.8420020512
 30
0.0
 10
3.6664328926
 20
3.8466609442
 30
0.0
 10
3.6680987873
 20
3.8507566217
 30
0.0
 10
3.6691138213
 20
3.8540252245
 30
0.0
 10
3.6698587374
 20
3.8574137676
 30
0.0
 10
3.6703109958
 20
3.8608782889
 30
0.0
 10
3.670467216
 20
3.8643687102
 30
0.0
 10
3.6703220312
 20
3.867835127
 30
0.0
 10
3.6698900047
 20
3.8712303312
 30
0.0
 10
3.6689606257
 20
3.8755530656
 30
0.0
 10
3.6671999286
 20
3.8805942879
 30
0.0
 10
3.6651786713
 20
3.8842940896
 30
0.0
 10
3.6640594591
 20
3.8859983187
 30
0.0
  0
SPLINE
  5
305
100
AcDbEntity
  8
ALL_ASSEMBLY_MEMBERS
100
AcDbSpline
 62
7
  6
CONTINUOUS
 70
0
 71
3
 72
19
 73
15
 74
0
 42
0.0000001
 43
0.0000001
 44
0.0000000001
 40
0.0
 40
0.0
 40
0.0
 40
0.0
 40
0.1141950309
 40
0.2365750927
 40
0.3005850402
 40
0.3661396309
 40
0.4327783575
 40
0.4999999977
 40
0.5672216379
 40
0.6338603657
 40
0.6994149577
 40
0.7634249058
 40
0.8858049687
 40
1.0
 40
1.0
 40
1.0
 40
1.0
 10
3.1501244429
 20
3.9309618065
 30
0.0
 10
3.148838014
 20
3.9294559416
 30
0.0
 10
3.1464176277
 20
3.9261196729
 30
0.0
 10
3.1440330234
 20
3.9214595621
 30
0.0
 10
3.1424973967
 20
3.9173647975
 30
0.0
 10
3.1415531015
 20
3.9140919024
 30
0.0
 10
3.1408517885
 20
3.9107016887
 30
0.0
 10
3.1404141915
 20
3.9072382521
 30
0.0
 10
3.140243721
 20
3.903751445
 30
0.0
 10
3.140345675
 20
3.9002909545
 30
0.0
 10
3.1407072919
 20
3.8969038068
 30
0.0
 10
3.1415085406
 20
3.892604592
 30
0.0
 10
3.1430476976
 20
3.8876011966
 30
0.0
 10
3.1448519759
 20
3.8838953176
 30
0.0
 10
3.1458573703
 20
3.8821889442
 30
0.0
  0
SPLINE
  5
306
100
AcDbEntity
  8
ALL_ASSEMBLY_MEMBERS
100
AcDbSpline
 62
7
  6
CONTINUOUS
 70
0
 71
3
 72
19
 73
15
 74
0
 42
0.0000001
 43
0.0000001
 44
0.0000000001
 40
0.0
 40
0.0
 40
0.0
 40
0.0
 40
0.1122224354
 40
0.2341871016
 40
0.2984835989
 40
0.3645848694
 40
0.4319531811
 40
0.4999999976
 40
0.5680468143
 40
0.6354151272
 40
0.701516399
 40
0.765812897
 40
0.8877775642
 40
1.0
 40
1.0
 40
1.0
 40
1.0
 10
3.1534096606
 20
3.9306743871
 30
0.0
 10
3.1522458173
 20
3.9291443121
 30
0.0
 10
3.1500585994
 20
3.9257619485
 30
0.0
 10
3.1479138845
 20
3.9211011741
 30
0.0
 10
3.1465178066
 20
3.9170067128
 30
0.0
 10
3.1456497459
 20
3.9137290892
 30
0.0
 10
3.144995395
 20
3.9103368767
 30
0.0
 10
3.1445735667
 20
3.9068743539
 30
0.0
 10
3.1443877257
 20
3.903391185
 30
0.0
 10
3.144443084
 20
3.8999368809
 30
0.0
 10
3.1447288035
 20
3.8965583146
 30
0.0
 10
3.1453926761
 20
3.8922836309
 30
0.0
 10
3.1466954731
 20
3.8873212383
 30
0.0
 10
3.1482621209
 20
3.883610454
 30
0.0
 10
3.1491425881
 20
3.8819015249
 30
0.0
  0
SPLINE
  5
307
100
AcDbEntity
  8
ALL_ASSEMBLY_MEMBERS
100
AcDbSpline
 62
7
  6
CONTINUOUS
 70
0
 71
3
 72
19
 73
15
 74
0
 42
0.0000001
 43
0.0000001
 44
0.0000000001
 40
0.0
 40
0.0
 40
0.0
 40
0.0
 40
0.110274412
 40
0.2318460862
 40
0.2964287521
 40
0.3630674144
 40
0.4311487233
 40
0.4999999976
 40
0.568851272
 40
0.636932582
 40
0.7035712458
 40
0.7681539123
 40
0.8897255876
 40
1.0
 40
1.0
 40
1.0
 40
1.0
 10
3.158854428
 20
3.9301980317
 30
0.0
 10
3.1578235325
 20
3.9286418286
 30
0.0
 10
3.1558882755
 20
3.9252122607
 30
0.0
 10
3.1539952782
 20
3.9205508726
 30
0.0
 10
3.1527464223
 20
3.9164557405
 30
0.0
 10
3.151959295
 20
3.913172942
 30
0.0
 10
3.1513547797
 20
3.9097783647
 30
0.0
 10
3.150949661
 20
3.906316518
 30
0.0
 10
3.1507474817
 20
3.9028369164
 30
0.0
 10
3.1507533509
 20
3.8993889373
 30
0.0
 10
3.1509584679
 20
3.8960193285
 30
0.0
 10
3.1514772386
 20
3.8917695492
 30
0.0
 10
3.1525320355
 20
3.8868502625
 30
0.0
 10
3.1538423535
 20
3.8831367435
 30
0.0
 10
3.1545873555
 20
3.8814251695
 30
0.0
  0
SPLINE
  5
308
100
AcDbEntity
  8
ALL_ASSEMBLY_MEMBERS
100
AcDbSpline
 62
7
  6
CONTINUOUS
 70
0
 71
3
 72
19
 73
15
 74
0
 42
0.0000001
 43
0.0000001
 44
0.0000000001
 40
0.0
 40
0.0
 40
0.0
 40
0.0
 40
0.0525877269
 40
0.1084812789
 40
0.1675952213
 40
0.2297404869
 40
0.361695495
 40
0.4999999976
 40
0.6383045014
 40
0.7702595116
 40
0.8324047779
 40
0.8915187207
 40
0.947412273
 40
1.0
 40
1.0
 40
1.0
 40
1.0
 10
3.1664122942
 20
3.9295368041
 30
0.0
 10
3.1659816498
 20
3.9287688173
 30
0.0
 10
3.1651428845
 20
3.927156333
 30
0.0
 10
3.1639929228
 20
3.9245951759
 30
0.0
 10
3.1629297124
 20
3.9218245189
 30
0.0
 10
3.1616240218
 20
3.9177891905
 30
0.0
 10
3.1603314106
 20
3.9123650994
 30
0.0
 10
3.1594042952
 20
3.9055768333
 30
0.0
 10
3.1591385556
 20
3.8987307043
 30
0.0
 10
3.1594696455
 20
3.8931645577
 30
0.0
 10
3.1600547724
 20
3.8889638041
 30
0.0
 10
3.1606207107
 20
3.8860506151
 30
0.0
 10
3.1613084616
 20
3.8833286789
 30
0.0
 10
3.1618544792
 20
3.8815950418
 30
0.0
 10
3.1621452217
 20
3.8807639419
 30
0.0
  0
SPLINE
  5
309
100
AcDbEntity
  8
ALL_ASSEMBLY_MEMBERS
100
AcDbSpline
 62
7
  6
CONTINUOUS
 70
0
 71
3
 72
19
 73
15
 74
0
 42
0.0000001
 43
0.0000001
 44
0.0000000001
 40
0.0
 40
0.0
 40
0.0
 40
0.0
 40
0.0515828405
 40
0.1068331675
 40
0.1656386438
 40
0.2277740512
 40
0.3604352484
 40
0.4999999975
 40
0.639564748
 40
0.7722259474
 40
0.8343613554
 40
0.8931668321
 40
0.9484171594
 40
1.0
 40
1.0
 40
1.0
 40
1.0
 10
3.176018781
 20
3.9286963454
 30
0.0
 10
3.1756634531
 20
3.9279181594
 30
0.0
 10
3.1749701509
 20
3.92628674
 30
0.0
 10
3.174016931
 20
3.9237094305
 30
0.0
 10
3.1731281578
 20
3.9209248
 30
0.0
 10
3.1720228064
 20
3.9168656819
 30
0.0
 10
3.170904888
 20
3.9114276414
 30
0.0
 10
3.1700502309
 20
3.9046454346
 30
0.0
 10
3.1697141859
 20
3.8978178551
 30
0.0
 10
3.1698708148
 20
3.8922683061
 30
0.0
 10
3.1702545151
 20
3.8880789128
 30
0.0
 10
3.1706462397
 20
3.8851822533
 30
0.0
 10
3.171137433
 20
3.8824785739
 30
0.0
 10
3.1715369094
 20
3.8807515488
 30
0.0
 10
3.1717517085
 20
3.8799234832
 30
0.0
  0
SPLINE
  5
30A
100
AcDbEntity
  8
ALL_ASSEMBLY_MEMBERS
100
AcDbSpline
 62
7
  6
CONTINUOUS
 70
0
 71
3
 72
19
 73
15
 74
0
 42
0.0000001
 43
0.0000001
 44
0.0000000001
 40
0.0
 40
0.0
 40
0.0
 40
0.0
 40
0.050758972
 40
0.105487161
 40
0.1640457878
 40
0.2261772314
 40
0.3594153456
 40
0.4999999975
 40
0.6405846507
 40
0.7738227672
 40
0.8359542115
 40
0.8945128386
 40
0.9492410279
 40
1.0
 40
1.0
 40
1.0
 40
1.0
 10
3.187591933
 20
3.9276838258
 30
0.0
 10
3.1873152022
 20
3.9268955901
 30
0.0
 10
3.1867732007
 20
3.9252457273
 30
0.0
 10
3.1860224283
 20
3.9226517962
 30
0.0
 10
3.1853131252
 20
3.9198526623
 30
0.0
 10
3.184415072
 20
3.9157704982
 30
0.0
 10
3.1834762598
 20
3.91031808
 30
0.0
 10
3.1826954115
 20
3.9035391247
 30
0.0
 10
3.1822872437
 20
3.896727564
 30
0.0
 10
3.1822649908
 20
3.8911949572
 30
0.0
 10
3.1824405402
 20
3.887018865
 30
0.0
 10
3.1826530029
 20
3.884139087
 30
0.0
 10
3.1829419379
 20
3.8814541933
 30
0.0
 10
3.1831892095
 20
3.879735278
 30
0.0
 10
3.1833248605
 20
3.8789109636
 30
0.0
  0
SPLINE
  5
30B
100
AcDbEntity
  8
ALL_ASSEMBLY_MEMBERS
100
AcDbSpline
 62
7
  6
CONTINUOUS
 70
0
 71
3
 72
17
 73
13
 74
0
 42
0.0000001
 43
0.0000001
 44
0.0000000001
 40
0.0
 40
0.0
 40
0.0
 40
0.0
 40
0.0501729583
 40
0.1045329419
 40
0.2250456908
 40
0.3586948644
 40
0.4999999975
 40
0.6413051319
 40
0.7749543077
 40
0.8954670577
 40
0.9498270416
 40
1.0
 40
1.0
 40
1.0
 40
1.0
 10
3.2010330164
 20
3.9265078834
 30
0.0
 10
3.2008374623
 20
3.9257101587
 30
0.0
 10
3.2004511596
 20
3.9240429077
 30
0.0
 10
3.1996993506
 20
3.9204361381
 30
0.0
 10
3.1988260904
 20
3.9154601742
 30
0.0
 10
3.1979381171
 20
3.9090462165
 30
0.0
 10
3.1972320279
 20
3.9022673355
 30
0.0
 10
3.1967502497
 20
3.8954688298
 30
0.0
 10
3.1965109606
 20
3.8889981196
 30
0.0
 10
3.1965068869
 20
3.8839461117
 30
0.0
 10
3.1966209653
 20
3.8802635867
 30
0.0
 10
3.1967118841
 20
3.8785545842
 30
0.0
 10
3.1967659439
 20
3.8777350211
 30
0.0
  0
SPLINE
  5
30C
100
AcDbEntity
  8
ALL_ASSEMBLY_MEMBERS
100
AcDbSpline
 62
7
  6
CONTINUOUS
 70
0
 71
3
 72
15
 73
11
 74
0
 42
0.0000001
 43
0.0000001
 44
0.0000000001
 40
0.0
 40
0.0
 40
0.0
 40
0.0
 40
0.1040347693
 40
0.2244632535
 40
0.358324123
 40
0.4999999975
 40
0.6416758733
 40
0.775536745
 40
0.8959652303
 40
1.0
 40
1.0
 40
1.0
 40
1.0
 10
3.2162273618
 20
3.9251785504
 30
0.0
 10
3.2159922894
 20
3.923496491
 30
0.0
 10
3.2155173948
 20
3.9198627783
 30
0.0
 10
3.2148388152
 20
3.9140523505
 30
0.0
 10
3.2141671365
 20
3.9076229095
 30
0.0
 10
3.2135360043
 20
3.9008409224
 30
0.0
 10
3.2129798685
 20
3.894052374
 30
0.0
 10
3.2125248821
 20
3.8876039748
 30
0.0
 10
3.2121841824
 20
3.8817639863
 30
0.0
 10
3.2120208747
 20
3.8781030132
 30
0.0
 10
3.2119602893
 20
3.8764056882
 30
0.0
  0
SPLINE
  5
30D
100
AcDbEntity
  8
ALL_ASSEMBLY_MEMBERS
100
AcDbSpline
 62
7
  6
CONTINUOUS
 70
0
 71
3
 72
19
 73
15
 74
0
 42
0.0000001
 43
0.0000001
 44
0.0000000001
 40
0.0
 40
0.0
 40
0.0
 40
0.0
 40
0.116126576
 40
0.2389311999
 40
0.3026641528
 40
0.3676810324
 40
0.43359747
 40
0.4999999977
 40
0.5664025255
 40
0.6323189642
 40
0.6973358451
 40
0.7610687987
 40
0.8838734236
 40
1.0
 40
1.0
 40
1.0
 40
1.0
 10
3.1490168179
 20
3.931047238
 30
0.0
 10
3.1476197654
 20
3.9295634573
 30
0.0
 10
3.1449889224
 20
3.926271708
 30
0.0
 10
3.1423817957
 20
3.9216146075
 30
0.0
 10
3.1407173791
 20
3.9175208989
 30
0.0
 10
3.13970326
 20
3.9142540869
 30
0.0
 10
3.1389589953
 20
3.9108675252
 30
0.0
 10
3.1385070822
 20
3.9074051026
 30
0.0
 10
3.1383508864
 20
3.903916808
 30
0.0
 10
3.1384957738
 20
3.9004524555
 30
0.0
 10
3.13892721
 20
3.8970591738
 30
0.0
 10
3.1398554754
 20
3.8927386349
 30
0.0
 10
3.141614297
 20
3.8876995633
 30
0.0
 10
3.1436335653
 20
3.8840009819
 30
0.0
 10
3.1447517376
 20
3.8822971476
 30
0.0
  0
SPLINE
  5
30E
100
AcDbEntity
  8
ALL_ASSEMBLY_MEMBERS
100
AcDbSpline
 62
7
  6
CONTINUOUS
 70
0
 71
3
 72
23
 73
19
 74
0
 42
0.0000001
 43
0.0000001
 44
0.0000000001
 40
0.0
 40
0.0
 40
0.0
 40
0.0
 40
0.0615153353
 40
0.1233863604
 40
0.18555808
 40
0.2480040447
 40
0.3107005643
 40
0.3736584773
 40
0.436780892
 40
0.5000000025
 40
0.5632191129
 40
0.6263415264
 40
0.689299438
 40
0.7519959569
 40
0.8144419209
 40
0.8766136401
 40
0.9384846649
 40
1.0
 40
1.0
 40
1.0
 40
1.0
 10
3.1717517085
 20
3.8799234832
 30
0.0
 10
3.1709972977
 20
3.8807720869
 30
0.0
 10
3.1695527013
 20
3.8825367961
 30
0.0
 10
3.1676168571
 20
3.885367597
 30
0.0
 10
3.1659420727
 20
3.8883809827
 30
0.0
 10
3.16456441
 20
3.8915584693
 30
0.0
 10
3.1635172787
 20
3.8948756783
 30
0.0
 10
3.1628344513
 20
3.898299758
 30
0.0
 10
3.162534967
 20
3.9017886006
 30
0.0
 10
3.1626404116
 20
3.9052937098
 30
0.0
 10
3.1631452248
 20
3.9087638789
 30
0.0
 10
3.1640459904
 20
3.9121477131
 30
0.0
 10
3.1653130294
 20
3.9154012015
 30
0.0
 10
3.1669202796
 20
3.9184861823
 30
0.0
 10
3.1688287773
 20
3.921376167
 30
0.0
 10
3.1710013869
 20
3.9240529493
 30
0.0
 10
3.1733993847
 20
3.9265045882
 30
0.0
 10
3.1751284729
 20
3.927991636
 30
0.0
 10
3.176018781
 20
3.9286963454
 30
0.0
  0
SPLINE
  5
30F
100
AcDbEntity
  8
ALL_ASSEMBLY_MEMBERS
100
AcDbSpline
 62
7
  6
CONTINUOUS
 70
0
 71
3
 72
19
 73
15
 74
0
 42
0.0000001
 43
0.0000001
 44
0.0000000001
 40
0.0
 40
0.0
 40
0.0
 40
0.0
 40
0.1122231751
 40
0.2341879791
 40
0.2984843673
 40
0.3645854369
 40
0.4319534823
 40
0.5000000027
 40
0.568046523
 40
0.6354145671
 40
0.7015156351
 40
0.7658120225
 40
0.8877768254
 40
1.0
 40
1.0
 40
1.0
 40
1.0
 10
3.4495758483
 20
3.8556170205
 30
0.0
 10
3.448695332
 20
3.8573259484
 30
0.0
 10
3.4471285909
 20
3.8610367309
 30
0.0
 10
3.4458257021
 20
3.865999139
 30
0.0
 10
3.4451617762
 20
3.8702738318
 30
0.0
 10
3.4448760269
 20
3.8736524017
 30
0.0
 10
3.4448206503
 20
3.8771067085
 30
0.0
 10
3.4450064856
 20
3.8805898794
 30
0.0
 10
3.4454283199
 20
3.884052403
 30
0.0
 10
3.4460826893
 20
3.8874446151
 30
0.0
 10
3.4469507799
 20
3.890722237
 30
0.0
 10
3.4483469118
 20
3.894816698
 30
0.0
 10
3.4504917199
 20
3.8994774717
 30
0.0
 10
3.4526790293
 20
3.9028598173
 30
0.0
 10
3.4538429209
 20
3.9043898827
 30
0.0
  0
SPLINE
  5
310
100
AcDbEntity
  8
ALL_ASSEMBLY_MEMBERS
100
AcDbSpline
 62
7
  6
CONTINUOUS
 70
0
 71
3
 72
23
 73
19
 74
0
 42
0.0000001
 43
0.0000001
 44
0.0000000001
 40
0.0
 40
0.0
 40
0.0
 40
0.0
 40
0.0619712298
 40
0.1241599095
 40
0.1865045511
 40
0.248979623
 40
0.3115711682
 40
0.3743095305
 40
0.4371287752
 40
0.5000000025
 40
0.5628712297
 40
0.6256904731
 40
0.6884288341
 40
0.7510203786
 40
0.8134954498
 40
0.875840091
 40
0.9380287704
 40
1.0
 40
1.0
 40
1.0
 40
1.0
 10
3.1833248605
 20
3.8789109636
 30
0.0
 10
3.1825493685
 20
3.8797605589
 30
0.0
 10
3.181064014
 20
3.8815267938
 30
0.0
 10
3.1790701879
 20
3.8843623107
 30
0.0
 10
3.1773437449
 20
3.8873800252
 30
0.0
 10
3.1759217867
 20
3.8905614421
 30
0.0
 10
3.1748387302
 20
3.8938821558
 30
0.0
 10
3.1741294189
 20
3.8973093004
 30
0.0
 10
3.1738136242
 20
3.9008006022
 30
0.0
 10
3.1739137023
 20
3.9043074247
 30
0.0
 10
3.174424098
 20
3.907778349
 30
0.0
 10
3.1753413532
 20
3.911161773
 30
0.0
 10
3.176635006
 20
3.9144136808
 30
0.0
 10
3.1782782442
 20
3.9174958745
 30
0.0
 10
3.1802310469
 20
3.9203820381
 30
0.0
 10
3.182455282
 20
3.9230541131
 30
0.0
 10
3.1849111997
 20
3.9255003278
 30
0.0
 10
3.1866806919
 20
3.9269818005
 30
0.0
 10
3.187591933
 20
3.9276838258
 30
0.0
  0
SPLINE
  5
311
100
AcDbEntity
  8
ALL_ASSEMBLY_MEMBERS
100
AcDbSpline
 62
7
  6
CONTINUOUS
 70
0
 71
3
 72
21
 73
17
 74
0
 42
0.0000001
 43
0.0000001
 44
0.0000000001
 40
0.0
 40
0.0
 40
0.0
 40
0.0
 40
0.1195643136
 40
0.1809314999
 40
0.2432682914
 40
0.3064955753
 40
0.3705250058
 40
0.4351101399
 40
0.4999999977
 40
0.5648898557
 40
0.6294749908
 40
0.6935044226
 40
0.7567317071
 40
0.8190684993
 40
0.880435686
 40
1.0
 40
1.0
 40
1.0
 40
1.0
 10
3.6596699935
 20
3.8863823472
 30
0.0
 10
3.6609830387
 20
3.8846808227
 30
0.0
 10
3.662762814
 20
3.8819342882
 30
0.0
 10
3.6646429632
 20
3.8779814889
 30
0.0
 10
3.6658053711
 20
3.8748232507
 30
0.0
 10
3.6666779414
 20
3.8715234411
 30
0.0
 10
3.6672323224
 20
3.8681142392
 30
0.0
 10
3.6674527664
 20
3.8646370865
 30
0.0
 10
3.6673213146
 20
3.8611398521
 30
0.0
 10
3.666843481
 20
3.8576729222
 30
0.0
 10
3.6660225848
 20
3.8542868749
 30
0.0
 10
3.6648846244
 20
3.8510257336
 30
0.0
 10
3.6634523045
 20
3.8479275758
 30
0.0
 10
3.6617591339
 20
3.8450191683
 30
0.0
 10
3.6592211519
 20
3.8414529054
 30
0.0
 10
3.6569914847
 20
3.8390571516
 30
0.0
 10
3.655402921
 20
3.837609485
 30
0.0
  0
SPLINE
  5
312
100
AcDbEntity
  8
ALL_ASSEMBLY_MEMBERS
100
AcDbSpline
 62
7
  6
CONTINUOUS
 70
0
 71
3
 72
23
 73
19
 74
0
 42
0.0000001
 43
0.0000001
 44
0.0000000001
 40
0.0
 40
0.0
 40
0.0
 40
0.0
 40
0.0622770674
 40
0.1246794551
 40
0.187140974
 40
0.2496363308
 40
0.3121577697
 40
0.3747485283
 40
0.4373634612
 40
0.5000000025
 40
0.5626365436
 40
0.6252514754
 40
0.6878422327
 40
0.7503636708
 40
0.8128590269
 40
0.8753205454
 40
0.9377229328
 40
1.0
 40
1.0
 40
1.0
 40
1.0
 10
3.1967659439
 20
3.8777350211
 30
0.0
 10
3.1959763087
 20
3.878585295
 30
0.0
 10
3.1944636202
 20
3.8803525726
 30
0.0
 10
3.1924308678
 20
3.8831912433
 30
0.0
 10
3.1906697379
 20
3.8862118476
 30
0.0
 10
3.1892180284
 20
3.8893958868
 30
0.0
 10
3.188110833
 20
3.8927189422
 30
0.0
 10
3.1873837183
 20
3.8961481441
 30
0.0
 10
3.1870569554
 20
3.899641108
 30
0.0
 10
3.1871534247
 20
3.9031490991
 30
0.0
 10
3.1876675773
 20
3.9066205477
 30
0.0
 10
3.1885959227
 20
3.9100037038
 30
0.0
 10
3.1899074656
 20
3.9132545461
 30
0.0
 10
3.1915748827
 20
3.9163348544
 30
0.0
 10
3.1935574401
 20
3.9192184341
 30
0.0
 10
3.1958163369
 20
3.9218873316
 30
0.0
 10
3.1983111372
 20
3.9243298928
 30
0.0
 10
3.2001077291
 20
3.9258076458
 30
0.0
 10
3.2010330164
 20
3.9265078834
 30
0.0
  0
SPLINE
  5
313
100
AcDbEntity
  8
ALL_ASSEMBLY_MEMBERS
100
AcDbSpline
 62
7
  6
CONTINUOUS
 70
0
 71
3
 72
21
 73
17
 74
0
 42
0.0000001
 43
0.0000001
 44
0.0000000001
 40
0.0
 40
0.0
 40
0.0
 40
0.0
 40
0.12102876
 40
0.1827133999
 40
0.2450951044
 40
0.3081181164
 40
0.3717338991
 40
0.4357545747
 40
0.4999999978
 40
0.5642454209
 40
0.6282660976
 40
0.6918818815
 40
0.7549048941
 40
0.8172865993
 40
0.8789712396
 40
1.0
 40
1.0
 40
1.0
 40
1.0
 10
3.4769970021
 20
3.9023641631
 30
0.0
 10
3.4783887579
 20
3.9006632728
 30
0.0
 10
3.4802843432
 20
3.8979142239
 30
0.0
 10
3.4823000969
 20
3.8939410255
 30
0.0
 10
3.4835474052
 20
3.890775004
 30
0.0
 10
3.4844886915
 20
3.8874683207
 30
0.0
 10
3.4850936242
 20
3.8840532544
 30
0.0
 10
3.4853451568
 20
3.8805715553
 30
0.0
 10
3.4852239367
 20
3.8770713083
 30
0.0
 10
3.4847355037
 20
3.8736031883
 30
0.0
 10
3.4838832018
 20
3.8702180622
 30
0.0
 10
3.4826944393
 20
3.8669599239
 30
0.0
 10
3.4811932537
 20
3.8638669291
 30
0.0
 10
3.4794151209
 20
3.8609655994
 30
0.0
 10
3.4767400524
 20
3.8574027947
 30
0.0
 10
3.474395898
 20
3.8550246749
 30
0.0
 10
3.4727299296
 20
3.8535913009
 30
0.0
  0
SPLINE
  5
314
100
AcDbEntity
  8
ALL_ASSEMBLY_MEMBERS
100
AcDbSpline
 62
7
  6
CONTINUOUS
 70
0
 71
3
 72
23
 73
19
 74
0
 42
0.0000001
 43
0.0000001
 44
0.0000000001
 40
0.0
 40
0.0
 40
0.0
 40
0.0
 40
0.0624305515
 40
0.1249403711
 40
0.187460808
 40
0.2499665752
 40
0.312452929
 40
0.3749695182
 40
0.4374816358
 40
0.5000000025
 40
0.562518369
 40
0.6250304855
 40
0.6875470733
 40
0.7500334264
 40
0.812539193
 40
0.8750596294
 40
0.9375694487
 40
1.0
 40
1.0
 40
1.0
 40
1.0
 10
3.2119602893
 20
3.8764056882
 30
0.0
 10
3.2111635539
 20
3.8772563067
 30
0.0
 10
3.2096371463
 20
3.8790241137
 30
0.0
 10
3.2075848446
 20
3.8818643647
 30
0.0
 10
3.2058062929
 20
3.8848864154
 30
0.0
 10
3.204339638
 20
3.8880717665
 30
0.0
 10
3.2032203137
 20
3.8913959946
 30
0.0
 10
3.2024842507
 20
3.8948262293
 30
0.0
 10
3.202151974
 20
3.8983200312
 30
0.0
 10
3.2022466291
 20
3.9018286148
 30
0.0
 10
3.2027626712
 20
3.9053003319
 30
0.0
 10
3.2036965922
 20
3.9086833557
 30
0.0
 10
3.2050171268
 20
3.9119336614
 30
0.0
 10
3.2066966921
 20
3.9150130183
 30
0.0
 10
3.2086941957
 20
3.9178952948
 30
0.0
 10
3.2109705008
 20
3.9205625915
 30
0.0
 10
3.2134848277
 20
3.9230033142
 30
0.0
 10
3.2152950222
 20
3.9244792064
 30
0.0
 10
3.2162273618
 20
3.9251785504
 30
0.0
  0
SPLINE
  5
315
100
AcDbEntity
  8
ALL_ASSEMBLY_MEMBERS
100
AcDbSpline
 62
7
  6
CONTINUOUS
 70
0
 71
3
 72
15
 73
11
 74
0
 42
0.0000001
 43
0.0000001
 44
0.0000000001
 40
0.0
 40
0.0
 40
0.0
 40
0.0
 40
0.1040344864
 40
0.2244629218
 40
0.3583239117
 40
0.4999999975
 40
0.6416760846
 40
0.7755370768
 40
0.8959655131
 40
1.0
 40
1.0
 40
1.0
 40
1.0
 10
3.2330453422
 20
3.9237071678
 30
0.0
 10
3.2329845593
 20
3.9220098571
 30
0.0
 10
3.2328208988
 20
3.9183489117
 30
0.0
 10
3.232479817
 20
3.9125089588
 30
0.0
 10
3.2320245855
 20
3.9060605832
 30
0.0
 10
3.231468365
 20
3.8992720442
 30
0.0
 10
3.2308373179
 20
3.8924900516
 30
0.0
 10
3.2301658846
 20
3.8860605911
 30
0.0
 10
3.2294876875
 20
3.8802501319
 30
0.0
 10
3.2290131451
 20
3.8766163851
 30
0.0
 10
3.2287782696
 20
3.8749343055
 30
0.0
  0
SPLINE
  5
316
100
AcDbEntity
  8
ALL_ASSEMBLY_MEMBERS
100
AcDbSpline
 62
7
  6
CONTINUOUS
 70
0
 71
3
 72
23
 73
19
 74
0
 42
0.0000001
 43
0.0000001
 44
0.0000000001
 40
0.0
 40
0.0
 40
0.0
 40
0.0
 40
0.0624306385
 40
0.124940519
 40
0.1874609894
 40
0.2499667626
 40
0.3124530965
 40
0.3749696436
 40
0.4374817029
 40
0.5000000025
 40
0.5625183019
 40
0.6250303601
 40
0.6875469058
 40
0.750033239
 40
0.8125390115
 40
0.8750594815
 40
0.9375693617
 40
1.0
 40
1.0
 40
1.0
 40
1.0
 10
3.2287782696
 20
3.8749343055
 30
0.0
 10
3.2279815302
 20
3.8757849242
 30
0.0
 10
3.2264551148
 20
3.8775527316
 30
0.0
 10
3.224402802
 20
3.8803929835
 30
0.0
 10
3.2226242405
 20
3.883415035
 30
0.0
 10
3.2211575771
 20
3.8866003869
 30
0.0
 10
3.2200382459
 20
3.8899246156
 30
0.0
 10
3.2193021778
 20
3.8933548509
 30
0.0
 10
3.218969898
 20
3.8968486532
 30
0.0
 10
3.219064552
 20
3.9003572372
 30
0.0
 10
3.2195805952
 20
3.9038289544
 30
0.0
 10
3.2205145194
 20
3.9072119782
 30
0.0
 10
3.2218350591
 20
3.9104622836
 30
0.0
 10
3.2235146313
 20
3.9135416399
 30
0.0
 10
3.2255121434
 20
3.9164239157
 30
0.0
 10
3.2277884583
 20
3.9190912115
 30
0.0
 10
3.2303027964
 20
3.9215319332
 30
0.0
 10
3.2321129986
 20
3.9230078243
 30
0.0
 10
3.2330453422
 20
3.9237071678
 30
0.0
  0
SPLINE
  5
317
100
AcDbEntity
  8
ALL_ASSEMBLY_MEMBERS
100
AcDbSpline
 62
7
  6
CONTINUOUS
 70
0
 71
3
 72
17
 73
13
 74
0
 42
0.0000001
 43
0.0000001
 44
0.0000000001
 40
0.0
 40
0.0
 40
0.0
 40
0.0
 40
0.0501724829
 40
0.1045322345
 40
0.2250451379
 40
0.3586946127
 40
0.5000000005
 40
0.641305388
 40
0.774954862
 40
0.8954677654
 40
0.9498275171
 40
1.0
 40
1.0
 40
1.0
 40
1.0
 10
3.2513434787
 20
3.9221062883
 30
0.0
 10
3.251397445
 20
3.9212867307
 30
0.0
 10
3.2514881848
 20
3.9195777385
 30
0.0
 10
3.2516019385
 20
3.9158952299
 30
0.0
 10
3.2515975373
 20
3.910843244
 30
0.0
 10
3.2513580046
 20
3.904372563
 30
0.0
 10
3.2508761438
 20
3.8975740834
 30
0.0
 10
3.2501701404
 20
3.8907952137
 30
0.0
 10
3.2492824122
 20
3.8843812425
 30
0.0
 10
3.2484094784
 20
3.8794052434
 30
0.0
 10
3.2476579919
 20
3.8757984335
 30
0.0
 10
3.2472718673
 20
3.8741311616
 30
0.0
 10
3.2470764062
 20
3.873333426
 30
0.0
  0
SPLINE
  5
318
100
AcDbEntity
  8
ALL_ASSEMBLY_MEMBERS
100
AcDbSpline
 62
7
  6
CONTINUOUS
 70
0
 71
3
 72
23
 73
19
 74
0
 42
0.0000001
 43
0.0000001
 44
0.0000000001
 40
0.0
 40
0.0
 40
0.0
 40
0.0
 40
0.0622773279
 40
0.1246798978
 40
0.1871415166
 40
0.2496368909
 40
0.3121582702
 40
0.374748903
 40
0.4373636616
 40
0.5000000025
 40
0.5626363433
 40
0.6252511007
 40
0.6878417321
 40
0.7503631107
 40
0.8128584844
 40
0.8753201027
 40
0.9377226723
 40
1.0
 40
1.0
 40
1.0
 40
1.0
 10
3.2470764062
 20
3.873333426
 30
0.0
 10
3.2462867589
 20
3.8741837005
 30
0.0
 10
3.2447740471
 20
3.8759509789
 30
0.0
 10
3.2427412616
 20
3.8787896523
 30
0.0
 10
3.2409801021
 20
3.8818102591
 30
0.0
 10
3.2395283672
 20
3.8849943005
 30
0.0
 10
3.2384211513
 20
3.888317358
 30
0.0
 10
3.2376940213
 20
3.8917465615
 30
0.0
 10
3.2373672492
 20
3.8952395269
 30
0.0
 10
3.2374637154
 20
3.898747519
 30
0.0
 10
3.2379778712
 20
3.902218968
 30
0.0
 10
3.238906226
 20
3.9056021239
 30
0.0
 10
3.2402177842
 20
3.9088529653
 30
0.0
 10
3.2418852219
 20
3.911933272
 30
0.0
 10
3.2438678046
 20
3.9148168495
 30
0.0
 10
3.2461267309
 20
3.9174857443
 30
0.0
 10
3.2486215644
 20
3.9199283023
 30
0.0
 10
3.2504181794
 20
3.9214060522
 30
0.0
 10
3.2513434787
 20
3.9221062883
 30
0.0
  0
SPLINE
  5
319
100
AcDbEntity
  8
ALL_ASSEMBLY_MEMBERS
100
AcDbSpline
 62
7
  6
CONTINUOUS
 70
0
 71
3
 72
19
 73
15
 74
0
 42
0.0000001
 43
0.0000001
 44
0.0000000001
 40
0.0
 40
0.0
 40
0.0
 40
0.0
 40
0.0507581631
 40
0.1054858418
 40
0.1640442289
 40
0.2261756704
 40
0.3594143502
 40
0.4999999975
 40
0.6405856462
 40
0.7738243281
 40
0.8359557703
 40
0.8945141578
 40
0.9492418367
 40
1.0
 40
1.0
 40
1.0
 40
1.0
 10
3.2709656652
 20
3.9203895694
 30
0.0
 10
3.2711012249
 20
3.9195652597
 30
0.0
 10
3.2713483213
 20
3.9178463546
 30
0.0
 10
3.2716370245
 20
3.9151614824
 30
0.0
 10
3.2718492817
 20
3.9122817237
 30
0.0
 10
3.2720245921
 20
3.9081056477
 30
0.0
 10
3.2720021345
 20
3.9025730602
 30
0.0
 10
3.2715938841
 20
3.8957615161
 30
0.0
 10
3.2708131201
 20
3.8889825628
 30
0.0
 10
3.2698745128
 20
3.8835301279
 30
0.0
 10
3.2689766977
 20
3.8794479382
 30
0.0
 10
3.2682676003
 20
3.8766487875
 30
0.0
 10
3.26751706
 20
3.8740548373
 30
0.0
 10
3.2669752327
 20
3.872404954
 30
0.0
 10
3.2666985926
 20
3.8716167072
 30
0.0
  0
SPLINE
  5
31A
100
AcDbEntity
  8
ALL_ASSEMBLY_MEMBERS
100
AcDbSpline
 62
7
  6
CONTINUOUS
 70
0
 71
3
 72
23
 73
19
 74
0
 42
0.0000001
 43
0.0000001
 44
0.0000000001
 40
0.0
 40
0.0
 40
0.0
 40
0.0
 40
0.0619716619
 40
0.1241606432
 40
0.1865054495
 40
0.2489805496
 40
0.3115719956
 40
0.3743101496
 40
0.4371291061
 40
0.5000000025
 40
0.5628708988
 40
0.6256898541
 40
0.6884280067
 40
0.751019452
 40
0.8134945514
 40
0.8758393573
 40
0.9380283382
 40
1.0
 40
1.0
 40
1.0
 40
1.0
 10
3.2666985926
 20
3.8716167072
 30
0.0
 10
3.2659230807
 20
3.8724663034
 30
0.0
 10
3.2644376875
 20
3.8742325398
 30
0.0
 10
3.2624438065
 20
3.8770680611
 30
0.0
 10
3.2607173145
 20
3.8800857798
 30
0.0
 10
3.2592953143
 20
3.8832672004
 30
0.0
 10
3.2582122237
 20
3.8865879174
 30
0.0
 10
3.2575028873
 20
3.8900150649
 30
0.0
 10
3.2571870771
 20
3.8935063691
 30
0.0
 10
3.2572871501
 20
3.8970131932
 30
0.0
 10
3.2577975511
 20
3.9004841182
 30
0.0
 10
3.258714822
 20
3.9038675418
 30
0.0
 10
3.2600085
 20
3.9071194481
 30
0.0
 10
3.2616517723
 20
3.9102016392
 30
0.0
 10
3.2636046171
 20
3.9130877991
 30
0.0
 10
3.2658289011
 20
3.9157598696
 30
0.0
 10
3.2682848738
 20
3.9182060792
 30
0.0
 10
3.2700544042
 20
3.9196875467
 30
0.0
 10
3.2709656652
 20
3.9203895694
 30
0.0
  0
SPLINE
  5
31B
100
AcDbEntity
  8
ALL_ASSEMBLY_MEMBERS
100
AcDbSpline
 62
7
  6
CONTINUOUS
 70
0
 71
3
 72
19
 73
15
 74
0
 42
0.0000001
 43
0.0000001
 44
0.0000000001
 40
0.0
 40
0.0
 40
0.0
 40
0.0
 40
0.051581793
 40
0.1068314531
 40
0.165636612
 40
0.227772012
 40
0.360433944
 40
0.4999999975
 40
0.6395660524
 40
0.7722279865
 40
0.8343633872
 40
0.8931685465
 40
0.9484182069
 40
1.0
 40
1.0
 40
1.0
 40
1.0
 10
3.2917444994
 20
3.918571657
 30
0.0
 10
3.2919592105
 20
3.9177435951
 30
0.0
 10
3.2923585173
 20
3.9160165783
 30
0.0
 10
3.2928494842
 20
3.91331292
 30
0.0
 10
3.2932410083
 20
3.9104162795
 30
0.0
 10
3.2936244761
 20
3.9062269002
 30
0.0
 10
3.2937809045
 20
3.9006773704
 30
0.0
 10
3.2934447787
 20
3.8938498106
 30
0.0
 10
3.2925902047
 20
3.887067609
 30
0.0
 10
3.291472487
 20
3.8816295524
 30
0.0
 10
3.2903673669
 20
3.8775704077
 30
0.0
 10
3.2894787946
 20
3.8747857611
 30
0.0
 10
3.2885258012
 20
3.872208433
 30
0.0
 10
3.2878326674
 20
3.8705769923
 30
0.0
 10
3.2874774268
 20
3.8697987947
 30
0.0
  0
SPLINE
  5
31C
100
AcDbEntity
  8
ALL_ASSEMBLY_MEMBERS
100
AcDbSpline
 62
7
  6
CONTINUOUS
 70
0
 71
3
 72
23
 73
19
 74
0
 42
0.0000001
 43
0.0000001
 44
0.0000000001
 40
0.0
 40
0.0
 40
0.0
 40
0.0
 40
0.0615159356
 40
0.1233873783
 40
0.1855593246
 40
0.2480053267
 40
0.3107017078
 40
0.373659332
 40
0.4367813486
 40
0.5000000025
 40
0.5632186563
 40
0.6263406717
 40
0.6892982946
 40
0.7519946749
 40
0.8144406764
 40
0.8766126222
 40
0.9384840646
 40
1.0
 40
1.0
 40
1.0
 40
1.0
 10
3.2874774268
 20
3.8697987947
 30
0.0
 10
3.2867229882
 20
3.8706473997
 30
0.0
 10
3.2852783382
 20
3.872412111
 30
0.0
 10
3.2833424176
 20
3.8752429181
 30
0.0
 10
3.2816675652
 20
3.8782563095
 30
0.0
 10
3.2802898442
 20
3.8814338012
 30
0.0
 10
3.2792426657
 20
3.8847510149
 30
0.0
 10
3.2785598035
 20
3.8881750986
 30
0.0
 10
3.2782602976
 20
3.8916639444
 30
0.0
 10
3.2783657353
 20
3.8951690559
 30
0.0
 10
3.2788705557
 20
3.898639226
 30
0.0
 10
3.2797713431
 20
3.9020230597
 30
0.0
 10
3.281038417
 20
3.905276546
 30
0.0
 10
3.2826457147
 20
3.9083615231
 30
0.0
 10
3.2845542706
 20
3.9112515028
 30
0.0
 10
3.2867269481
 20
3.9139282789
 30
0.0
 10
3.2891250223
 20
3.9163799106
 30
0.0
 10
3.2908541637
 20
3.9178669511
 30
0.0
 10
3.2917444994
 20
3.918571657
 30
0.0
  0
SPLINE
  5
31D
100
AcDbEntity
  8
ALL_ASSEMBLY_MEMBERS
100
AcDbSpline
 62
7
  6
CONTINUOUS
 70
0
 71
3
 72
19
 73
15
 74
0
 42
0.0000001
 43
0.0000001
 44
0.0000000001
 40
0.0
 40
0.0
 40
0.0
 40
0.0
 40
0.0525865084
 40
0.1084792764
 40
0.1675928399
 40
0.2297380901
 40
0.3616939561
 40
0.4999999976
 40
0.6383060403
 40
0.7702619084
 40
0.8324071593
 40
0.8915207232
 40
0.9474134915
 40
1.0
 40
1.0
 40
1.0
 40
1.0
 10
3.3135027115
 20
3.9166680601
 30
0.0
 10
3.3137933699
 20
3.9158369632
 30
0.0
 10
3.3143392252
 20
3.9141033329
 30
0.0
 10
3.3150267572
 20
3.911381417
 30
0.0
 10
3.3155925015
 20
3.9084682464
 30
0.0
 10
3.3161774046
 20
3.9042675047
 30
0.0
 10
3.3165082998
 20
3.8987013766
 30
0.0
 10
3.3162424818
 20
3.89185527
 30
0.0
 10
3.3153154475
 20
3.8850670122
 30
0.0
 10
3.3140230313
 20
3.8796429054
 30
0.0
 10
3.3127175631
 20
3.8756075497
 30
0.0
 10
3.3116545469
 20
3.8728368771
 30
0.0
 10
3.3105048043
 20
3.8702757019
 30
0.0
 10
3.3096662001
 20
3.8686631961
 30
0.0
 10
3.309235639
 20
3.8678951978
 30
0.0
  0
SPLINE
  5
31E
100
AcDbEntity
  8
ALL_ASSEMBLY_MEMBERS
100
AcDbSpline
 62
7
  6
CONTINUOUS
 70
0
 71
3
 72
21
 73
17
 74
0
 42
0.0000001
 43
0.0000001
 44
0.0000000001
 40
0.0
 40
0.0
 40
0.0
 40
0.0
 40
0.1222824605
 40
0.1842425455
 40
0.2466663032
 40
0.3095163133
 40
0.3727771872
 40
0.4363112527
 40
0.5000000025
 40
0.5636887523
 40
0.6272228165
 40
0.690483689
 40
0.7533336984
 40
0.8157574555
 40
0.87771754
 40
1.0
 40
1.0
 40
1.0
 40
1.0
 10
3.309235639
 20
3.8678951978
 30
0.0
 10
3.3077773873
 20
3.8695957932
 30
0.0
 10
3.3057838067
 20
3.8723468638
 30
0.0
 10
3.30365239
 20
3.8763372199
 30
0.0
 10
3.3023328959
 20
3.8795097735
 30
0.0
 10
3.3013331378
 20
3.8828222533
 30
0.0
 10
3.3006851564
 20
3.886242314
 30
0.0
 10
3.3004071364
 20
3.8897279386
 30
0.0
 10
3.3005196408
 20
3.8932308404
 30
0.0
 10
3.3010171181
 20
3.8967000613
 30
0.0
 10
3.3018961868
 20
3.9000844538
 30
0.0
 10
3.3031282111
 20
3.9033400352
 30
0.0
 10
3.3046879868
 20
3.9064285848
 30
0.0
 10
3.3065383429
 20
3.9093238123
 30
0.0
 10
3.3093302966
 20
3.9128834294
 30
0.0
 10
3.3117713087
 20
3.9152465233
 30
0.0
 10
3.3135027115
 20
3.9166680601
 30
0.0
  0
SPLINE
  5
31F
100
AcDbEntity
  8
ALL_ASSEMBLY_MEMBERS
100
AcDbSpline
 62
7
  6
CONTINUOUS
 70
0
 71
3
 72
19
 73
15
 74
0
 42
0.0000001
 43
0.0000001
 44
0.0000000001
 40
0.0
 40
0.0
 40
0.0
 40
0.0
 40
0.1102722496
 40
0.2318434971
 40
0.2964264823
 40
0.3630657398
 40
0.4311478361
 40
0.4999999976
 40
0.5688521593
 40
0.6369342567
 40
0.7035735156
 40
0.7681565015
 40
0.88972775
 40
1.0
 40
1.0
 40
1.0
 40
1.0
 10
3.3360546765
 20
3.9146950188
 30
0.0
 10
3.3367995192
 20
3.9129834419
 30
0.0
 10
3.3381095367
 20
3.9092699215
 30
0.0
 10
3.339164047
 20
3.9043506844
 30
0.0
 10
3.3396826493
 20
3.9001009333
 30
0.0
 10
3.3398876727
 20
3.8967313349
 30
0.0
 10
3.3398934843
 20
3.8932833631
 30
0.0
 10
3.339691286
 20
3.8898037655
 30
0.0
 10
3.3392861867
 20
3.8863419193
 30
0.0
 10
3.3386817293
 20
3.8829473391
 30
0.0
 10
3.3378946961
 20
3.8796645343
 30
0.0
 10
3.336646011
 20
3.8755694008
 30
0.0
 10
3.3347533045
 20
3.8709080117
 30
0.0
 10
3.332818343
 20
3.8674783902
 30
0.0
 10
3.331787604
 20
3.8659221566
 30
0.0
  0
SPLINE
  5
320
100
AcDbEntity
  8
ALL_ASSEMBLY_MEMBERS
100
AcDbSpline
 62
7
  6
CONTINUOUS
 70
0
 71
3
 72
21
 73
17
 74
0
 42
0.0000001
 43
0.0000001
 44
0.0000000001
 40
0.0
 40
0.0
 40
0.0
 40
0.0
 40
0.1210308137
 40
0.182715897
 40
0.2450976593
 40
0.3081203853
 40
0.3717355909
 40
0.4357554773
 40
0.5000000026
 40
0.5642445276
 40
0.6282644129
 40
0.691879617
 40
0.7549023423
 40
0.8172841039
 40
0.8789691868
 40
1.0
 40
1.0
 40
1.0
 40
1.0
 10
3.331787604
 20
3.8659221566
 30
0.0
 10
3.3303957383
 20
3.8676230461
 30
0.0
 10
3.3284999915
 20
3.8703720982
 30
0.0
 10
3.3264840477
 20
3.8743453247
 30
0.0
 10
3.3252366203
 20
3.8775113566
 30
0.0
 10
3.3242952378
 20
3.8808180495
 30
0.0
 10
3.323690234
 20
3.8842331242
 30
0.0
 10
3.3234386577
 20
3.8877148302
 30
0.0
 10
3.3235598637
 20
3.891215082
 30
0.0
 10
3.3240483115
 20
3.8946832044
 30
0.0
 10
3.3249006577
 20
3.8980683296
 30
0.0
 10
3.3260894916
 20
3.9013264637
 30
0.0
 10
3.3275907736
 20
3.9044194512
 30
0.0
 10
3.3293690254
 20
3.9073207705
 30
0.0
 10
3.332044286
 20
3.9108835697
 30
0.0
 10
3.3343886001
 20
3.9132616646
 30
0.0
 10
3.3360546765
 20
3.9146950188
 30
0.0
  0
SPLINE
  5
321
100
AcDbEntity
  8
ALL_ASSEMBLY_MEMBERS
100
AcDbSpline
 62
7
  6
CONTINUOUS
 70
0
 71
3
 72
21
 73
17
 74
0
 42
0.0000001
 43
0.0000001
 44
0.0000000001
 40
0.0
 40
0.0
 40
0.0
 40
0.0
 40
0.1195637155
 40
0.180930768
 40
0.2432675336
 40
0.3064949002
 40
0.3705245032
 40
0.4351098723
 40
0.5000000026
 40
0.5648901327
 40
0.6294755006
 40
0.6935051021
 40
0.7567324681
 40
0.8190692329
 40
0.880436285
 40
1.0
 40
1.0
 40
1.0
 40
1.0
 10
3.3549409249
 20
3.8638965035
 30
0.0
 10
3.3536279118
 20
3.8655980282
 30
0.0
 10
3.3518481838
 20
3.8683445615
 30
0.0
 10
3.3499680897
 20
3.8722973521
 30
0.0
 10
3.3488057162
 20
3.8754555867
 30
0.0
 10
3.347933174
 20
3.8787553934
 30
0.0
 10
3.3473788132
 20
3.8821645932
 30
0.0
 10
3.3471583817
 20
3.8856417445
 30
0.0
 10
3.347289838
 20
3.8891389783
 30
0.0
 10
3.3477676671
 20
3.8926059084
 30
0.0
 10
3.3485885508
 20
3.8959919564
 30
0.0
 10
3.3497264909
 20
3.8992530989
 30
0.0
 10
3.3511587826
 20
3.9023512588
 30
0.0
 10
3.3528519188
 20
3.9052596686
 30
0.0
 10
3.3553898449
 20
3.9088259325
 30
0.0
 10
3.3576194653
 20
3.9112216933
 30
0.0
 10
3.3592079974
 20
3.9126693657
 30
0.0
  0
SPLINE
  5
322
100
AcDbEntity
  8
ALL_ASSEMBLY_MEMBERS
100
AcDbSpline
 62
7
  6
CONTINUOUS
 70
0
 71
3
 72
19
 73
15
 74
0
 42
0.0000001
 43
0.0000001
 44
0.0000000001
 40
0.0
 40
0.0
 40
0.0
 40
0.0
 40
0.112220199
 40
0.2341844051
 40
0.2984812299
 40
0.3645831202
 40
0.4319522561
 40
0.5000000024
 40
0.5680477485
 40
0.6354168833
 40
0.7015187723
 40
0.7658155963
 40
0.8877798014
 40
1.0
 40
1.0
 40
1.0
 40
1.0
 10
3.3549409249
 20
3.8638965035
 30
0.0
 10
3.3561046233
 20
3.8654266072
 30
0.0
 10
3.358291566
 20
3.8688090239
 30
0.0
 10
3.3604360018
 20
3.8734697989
 30
0.0
 10
3.3618319169
 20
3.8775642604
 30
0.0
 10
3.3626998884
 20
3.8808418897
 30
0.0
 10
3.3633541844
 20
3.8842341047
 30
0.0
 10
3.3637759942
 20
3.8876966265
 30
0.0
 10
3.3639618532
 20
3.8911797914
 30
0.0
 10
3.3639065494
 20
3.8946340883
 30
0.0
 10
3.3636209187
 20
3.8980126446
 30
0.0
 10
3.3629572064
 20
3.9022873001
 30
0.0
 10
3.3616546845
 20
3.9072496448
 30
0.0
 10
3.3600883169
 20
3.9109604336
 30
0.0
 10
3.3592079974
 20
3.9126693657
 30
0.0
  0
SPLINE
  5
323
100
AcDbEntity
  8
ALL_ASSEMBLY_MEMBERS
100
AcDbSpline
 62
7
  6
CONTINUOUS
 70
0
 71
3
 72
19
 73
15
 74
0
 42
0.0000001
 43
0.0000001
 44
0.0000000001
 40
0.0
 40
0.0
 40
0.0
 40
0.0
 40
0.1141928107
 40
0.2365723961
 40
0.3005826649
 40
0.3661378737
 40
0.4327774271
 40
0.5000000023
 40
0.5672225775
 40
0.6338621297
 40
0.6994173372
 40
0.7634276054
 40
0.8858071897
 40
1.0
 40
1.0
 40
1.0
 40
1.0
 10
3.3784980745
 20
3.8618355199
 30
0.0
 10
3.3797843704
 20
3.863341411
 30
0.0
 10
3.3822045037
 20
3.8666777308
 30
0.0
 10
3.3845888439
 20
3.8713378426
 30
0.0
 10
3.3861243174
 20
3.8754326065
 30
0.0
 10
3.3870685291
 20
3.8787055068
 30
0.0
 10
3.3877697906
 20
3.8820957226
 30
0.0
 10
3.3882073703
 20
3.8855591581
 30
0.0
 10
3.3883778577
 20
3.8890459611
 30
0.0
 10
3.3882759547
 20
3.8925064446
 30
0.0
 10
3.3879144209
 20
3.8958935828
 30
0.0
 10
3.3871133229
 20
3.9001927701
 30
0.0
 10
3.3855744261
 20
3.9051961207
 30
0.0
 10
3.383770406
 20
3.908902006
 30
0.0
 10
3.382765147
 20
3.9106083822
 30
0.0
  0
SPLINE
  5
324
100
AcDbEntity
  8
ALL_ASSEMBLY_MEMBERS
100
AcDbSpline
 62
7
  6
CONTINUOUS
 70
0
 71
3
 72
21
 73
17
 74
0
 42
0.0000001
 43
0.0000001
 44
0.0000000001
 40
0.0
 40
0.0
 40
0.0
 40
0.0
 40
0.1179067158
 40
0.1789202168
 40
0.2412116057
 40
0.3046728494
 40
0.36916922
 40
0.4343881551
 40
0.4999999974
 40
0.5656118398
 40
0.6308307762
 40
0.6953271483
 40
0.7587883927
 40
0.8210797823
 40
0.8820932837
 40
1.0
 40
1.0
 40
1.0
 40
1.0
 10
3.382765147
 20
3.9106083822
 30
0.0
 10
3.3812659891
 20
3.9091438476
 30
0.0
 10
3.3791683225
 20
3.9067280056
 30
0.0
 10
3.3767868926
 20
3.9031581212
 30
0.0
 10
3.3751911193
 20
3.9002417268
 30
0.0
 10
3.3738376708
 20
3.8971377245
 30
0.0
 10
3.3727578373
 20
3.8938731346
 30
0.0
 10
3.3719728448
 20
3.8904859473
 30
0.0
 10
3.3715071134
 20
3.8870202413
 30
0.0
 10
3.3713639557
 20
3.8835263136
 30
0.0
 10
3.3715488435
 20
3.8800542728
 30
0.0
 10
3.3720453818
 20
3.8766517681
 30
0.0
 10
3.372839264
 20
3.8733598987
 30
0.0
 10
3.3739043674
 20
3.8702107077
 30
0.0
 10
3.3756297141
 20
3.8662815269
 30
0.0
 10
3.3772760059
 20
3.863538131
 30
0.0
 10
3.3784980745
 20
3.8618355199
 30
0.0
  0
SPLINE
  5
325
100
AcDbEntity
  8
ALL_ASSEMBLY_MEMBERS
100
AcDbSpline
 62
7
  6
CONTINUOUS
 70
0
 71
3
 72
21
 73
17
 74
0
 42
0.0000001
 43
0.0000001
 44
0.0000000001
 40
0.0
 40
0.0
 40
0.0
 40
0.0
 40
0.1160883221
 40
0.1767279181
 40
0.2389764311
 40
0.3026951254
 40
0.3677005809
 40
0.4336072005
 40
0.4999999899
 40
0.5663927791
 40
0.632299401
 40
0.6973048577
 40
0.7610235516
 40
0.8232720679
 40
0.8839116675
 40
1.0
 40
1.0
 40
1.0
 40
1.0
 10
3.406525153
 20
3.908529651
 30
0.0
 10
3.4051257412
 20
3.9070468617
 30
0.0
 10
3.4031770644
 20
3.9046080926
 30
0.0
 10
3.4009703378
 20
3.9010341324
 30
0.0
 10
3.3994831068
 20
3.8981089741
 30
0.0
 10
3.3982174383
 20
3.8949986032
 30
0.0
 10
3.3972023584
 20
3.8917301334
 30
0.0
 10
3.3964573719
 20
3.8883415098
 30
0.0
 10
3.396005112
 20
3.8848769445
 30
0.0
 10
3.3958488855
 20
3.8813864796
 30
0.0
 10
3.3959941256
 20
3.8779199712
 30
0.0
 10
3.3964262202
 20
3.8745248899
 30
0.0
 10
3.3971325501
 20
3.8712419914
 30
0.0
 10
3.3980892382
 20
3.8681030177
 30
0.0
 10
3.3996418281
 20
3.8642001597
 30
0.0
 10
3.4011374125
 20
3.8614600566
 30
0.0
 10
3.4022580805
 20
3.8597567887
 30
0.0
  0
SPLINE
  5
326
100
AcDbEntity
  8
ALL_ASSEMBLY_MEMBERS
100
AcDbSpline
 62
7
  6
CONTINUOUS
 70
0
 71
3
 72
21
 73
17
 74
0
 42
0.0000001
 43
0.0000001
 44
0.0000000001
 40
0.0
 40
0.0
 40
0.0
 40
0.0
 40
0.1179073801
 40
0.1789210272
 40
0.2412124425
 40
0.3046735937
 40
0.3691697754
 40
0.4343884535
 40
0.4999999977
 40
0.565611542
 40
0.6308302212
 40
0.6953264042
 40
0.7587875561
 40
0.821078972
 40
0.8820926195
 40
1.0
 40
1.0
 40
1.0
 40
1.0
 10
3.6629585005
 20
3.8860946401
 30
0.0
 10
3.6641806057
 20
3.8843920295
 30
0.0
 10
3.6658269512
 20
3.8816486321
 30
0.0
 10
3.6675523599
 20
3.8777194414
 30
0.0
 10
3.6686175021
 20
3.8745702464
 30
0.0
 10
3.6694114159
 20
3.8712783738
 30
0.0
 10
3.6699079771
 20
3.8678758666
 30
0.0
 10
3.670092879
 20
3.8644038242
 30
0.0
 10
3.6699497263
 20
3.8609098959
 30
0.0
 10
3.6694839899
 20
3.85744419
 30
0.0
 10
3.6686989832
 20
3.8540570035
 30
0.0
 10
3.6676191268
 20
3.850792415
 30
0.0
 10
3.6662656466
 20
3.8476884149
 30
0.0
 10
3.6646698343
 20
3.8447720233
 30
0.0
 10
3.6622883416
 20
3.8412021399
 30
0.0
 10
3.6601906219
 20
3.8387863057
 30
0.0
 10
3.658691428
 20
3.8373217779
 30
0.0
  0
SPLINE
  5
327
100
AcDbEntity
  8
ALL_ASSEMBLY_MEMBERS
100
AcDbSpline
 62
7
  6
CONTINUOUS
 70
0
 71
3
 72
19
 73
15
 74
0
 42
0.0000001
 43
0.0000001
 44
0.0000000001
 40
0.0
 40
0.0
 40
0.0
 40
0.0
 40
0.110275127
 40
0.2318469274
 40
0.2964294866
 40
0.3630679558
 40
0.4311490103
 40
0.5000000028
 40
0.5688509951
 40
0.6369320482
 40
0.7035705158
 40
0.7681530742
 40
0.8897248735
 40
1.0
 40
1.0
 40
1.0
 40
1.0
 10
3.4727299296
 20
3.8535913009
 30
0.0
 10
3.4719848745
 20
3.8553028739
 30
0.0
 10
3.4706744566
 20
3.8590163919
 30
0.0
 10
3.469619564
 20
3.8639356947
 30
0.0
 10
3.4691007374
 20
3.8681854832
 30
0.0
 10
3.4688955888
 20
3.8715550956
 30
0.0
 10
3.4688897004
 20
3.8750030775
 30
0.0
 10
3.4690918735
 20
3.878482681
 30
0.0
 10
3.4694969987
 20
3.8819445285
 30
0.0
 10
3.4701015334
 20
3.8853391053
 30
0.0
 10
3.4708886923
 20
3.8886219019
 30
0.0
 10
3.4721376049
 20
3.8927170332
 30
0.0
 10
3.4740306992
 20
3.8973784205
 30
0.0
 10
3.4759660546
 20
3.9008079702
 30
0.0
 10
3.4769970021
 20
3.9023641631
 30
0.0
  0
SPLINE
  5
328
100
AcDbEntity
  8
ALL_ASSEMBLY_MEMBERS
100
AcDbSpline
 62
7
  6
CONTINUOUS
 70
0
 71
3
 72
21
 73
17
 74
0
 42
0.0000001
 43
0.0000001
 44
0.0000000001
 40
0.0
 40
0.0
 40
0.0
 40
0.0
 40
0.1222807477
 40
0.184240459
 40
0.2466641653
 40
0.3095144117
 40
0.3727757672
 40
0.4363104943
 40
0.4999999978
 40
0.5636895014
 40
0.6272242296
 40
0.6904855862
 40
0.7533358333
 40
0.8157595402
 40
0.8777192519
 40
1.0
 40
1.0
 40
1.0
 40
1.0
 10
3.4995500224
 20
3.9003910295
 30
0.0
 10
3.5010081835
 20
3.8986904338
 30
0.0
 10
3.5030016305
 20
3.8959393657
 30
0.0
 10
3.5051328888
 20
3.8919490326
 30
0.0
 10
3.506452284
 20
3.8887764875
 30
0.0
 10
3.5074519623
 20
3.8854640156
 30
0.0
 10
3.5080998844
 20
3.8820439619
 30
0.0
 10
3.508377868
 20
3.8785583432
 30
0.0
 10
3.508265352
 20
3.8750554457
 30
0.0
 10
3.5077678869
 20
3.8715862269
 30
0.0
 10
3.5068888551
 20
3.8682018338
 30
0.0
 10
3.5056568903
 20
3.8649462489
 30
0.0
 10
3.5040971947
 20
3.8618576931
 30
0.0
 10
3.5022469374
 20
3.8589624567
 30
0.0
 10
3.4994551435
 20
3.8554028348
 30
0.0
 10
3.4970142636
 20
3.8530397201
 30
0.0
 10
3.4952829499
 20
3.8516181672
 30
0.0
  0
SPLINE
  5
329
100
AcDbEntity
  8
ALL_ASSEMBLY_MEMBERS
100
AcDbSpline
 62
7
  6
CONTINUOUS
 70
0
 71
3
 72
19
 73
15
 74
0
 42
0.0000001
 43
0.0000001
 44
0.0000000001
 40
0.0
 40
0.0
 40
0.0
 40
0.0
 40
0.0525881315
 40
0.1084819407
 40
0.1675960027
 40
0.2297412638
 40
0.361695991
 40
0.5000000028
 40
0.6383040131
 40
0.7702587378
 40
0.8324039982
 40
0.8915180598
 40
0.9474118687
 40
1.0
 40
1.0
 40
1.0
 40
1.0
 10
3.4952829499
 20
3.8516181672
 30
0.0
 10
3.4949921795
 20
3.8524492682
 30
0.0
 10
3.4944461078
 20
3.8541829075
 30
0.0
 10
3.493758284
 20
3.8569048502
 30
0.0
 10
3.493192281
 20
3.859818045
 30
0.0
 10
3.4926070794
 20
3.8640188022
 30
0.0
 10
3.4922759246
 20
3.8695849553
 30
0.0
 10
3.4925416381
 20
3.8764310924
 30
0.0
 10
3.4934687806
 20
3.883219362
 30
0.0
 10
3.4947614568
 20
3.8886434481
 30
0.0
 10
3.4960672217
 20
3.8926787672
 30
0.0
 10
3.4971304968
 20
3.8954494186
 30
0.0
 10
3.4982805314
 20
3.8980105696
 30
0.0
 10
3.4991193503
 20
3.8996230466
 30
0.0
 10
3.4995500224
 20
3.9003910295
 30
0.0
  0
SPLINE
  5
32A
100
AcDbEntity
  8
ALL_ASSEMBLY_MEMBERS
100
AcDbSpline
 62
7
  6
CONTINUOUS
 70
0
 71
3
 72
23
 73
19
 74
0
 42
0.0000001
 43
0.0000001
 44
0.0000000001
 40
0.0
 40
0.0
 40
0.0
 40
0.0
 40
0.0615151369
 40
0.1233860273
 40
0.1855576777
 40
0.2480036383
 40
0.3107002044
 40
0.3736582081
 40
0.4367807479
 40
0.4999999978
 40
0.5632192478
 40
0.6263417887
 40
0.6892997935
 40
0.7519963603
 40
0.8144423215
 40
0.8766139723
 40
0.938484863
 40
1.0
 40
1.0
 40
1.0
 40
1.0
 10
3.521309576
 20
3.8984873152
 30
0.0
 10
3.5220639776
 20
3.8976387119
 30
0.0
 10
3.5235085561
 20
3.8958740033
 30
0.0
 10
3.5254443751
 20
3.8930432042
 30
0.0
 10
3.5271191369
 20
3.8900298201
 30
0.0
 10
3.52849678
 20
3.8868523349
 30
0.0
 10
3.5295438958
 20
3.8835351274
 30
0.0
 10
3.5302267112
 20
3.8801110492
 30
0.0
 10
3.5305261883
 20
3.8766222082
 30
0.0
 10
3.5304207415
 20
3.8731171003
 30
0.0
 10
3.5299159307
 20
3.8696469322
 30
0.0
 10
3.5290151725
 20
3.8662630981
 30
0.0
 10
3.5277481456
 20
3.863009609
 30
0.0
 10
3.5261409109
 20
3.859924627
 30
0.0
 10
3.5242324328
 20
3.8570346401
 30
0.0
 10
3.5220598456
 20
3.8543578554
 30
0.0
 10
3.519661873
 20
3.851906214
 30
0.0
 10
3.5179328025
 20
3.8504191636
 30
0.0
 10
3.5170425035
 20
3.849714453
 30
0.0
  0
SPLINE
  5
32B
100
AcDbEntity
  8
ALL_ASSEMBLY_MEMBERS
100
AcDbSpline
 62
7
  6
CONTINUOUS
 70
0
 71
3
 72
19
 73
15
 74
0
 42
0.0000001
 43
0.0000001
 44
0.0000000001
 40
0.0
 40
0.0
 40
0.0
 40
0.0
 40
0.0515831882
 40
0.1068337334
 40
0.1656393087
 40
0.2277747088
 40
0.3604356662
 40
0.5000000028
 40
0.639564338
 40
0.7722252928
 40
0.8343606922
 40
0.8931662671
 40
0.948416812
 40
1.0
 40
1.0
 40
1.0
 40
1.0
 10
3.5170425035
 20
3.849714453
 30
0.0
 10
3.5168276751
 20
3.8505425199
 30
0.0
 10
3.5164281421
 20
3.8522695477
 30
0.0
 10
3.5159368735
 20
3.8549732338
 30
0.0
 10
3.515545082
 20
3.8578698993
 30
0.0
 10
3.5151613042
 20
3.862059297
 30
0.0
 10
3.5150046084
 20
3.8676088526
 30
0.0
 10
3.5153406266
 20
3.8744364394
 30
0.0
 10
3.5161953113
 20
3.8812186487
 30
0.0
 10
3.5173132967
 20
3.8866566841
 30
0.0
 10
3.5184187253
 20
3.890715793
 30
0.0
 10
3.5193075653
 20
3.8935004178
 30
0.0
 10
3.5202608607
 20
3.8960777209
 30
0.0
 10
3.520954219
 20
3.8977091331
 30
0.0
 10
3.521309576
 20
3.8984873152
 30
0.0
  0
SPLINE
  5
32C
100
AcDbEntity
  8
ALL_ASSEMBLY_MEMBERS
100
AcDbSpline
 62
7
  6
CONTINUOUS
 70
0
 71
3
 72
23
 73
19
 74
0
 42
0.0000001
 43
0.0000001
 44
0.0000000001
 40
0.0
 40
0.0
 40
0.0
 40
0.0
 40
0.0619710874
 40
0.1241596711
 40
0.1865042642
 40
0.248979335
 40
0.3115709135
 40
0.3743093398
 40
0.4371286729
 40
0.4999999978
 40
0.5628713228
 40
0.625690657
 40
0.6884290844
 40
0.7510206636
 40
0.813495735
 40
0.8758403285
 40
0.9380289124
 40
1.0
 40
1.0
 40
1.0
 40
1.0
 10
3.5420900263
 20
3.8966692614
 30
0.0
 10
3.5428655116
 20
3.8958196664
 30
0.0
 10
3.5443508533
 20
3.8940534319
 30
0.0
 10
3.5463446612
 20
3.8912179163
 30
0.0
 10
3.548071088
 20
3.8882002027
 30
0.0
 10
3.5494930321
 20
3.8850187867
 30
0.0
 10
3.5505760773
 20
3.8816980741
 30
0.0
 10
3.55128538
 20
3.8782709307
 30
0.0
 10
3.5516011694
 20
3.8747796301
 30
0.0
 10
3.5515010898
 20
3.8712728088
 30
0.0
 10
3.5509906958
 20
3.8678018853
 30
0.0
 10
3.550073446
 20
3.8644184616
 30
0.0
 10
3.5487798021
 20
3.8611665533
 30
0.0
 10
3.547136575
 20
3.8580843586
 30
0.0
 10
3.5451837863
 20
3.8551981934
 30
0.0
 10
3.5429595673
 20
3.8525261165
 30
0.0
 10
3.5405036677
 20
3.8500798999
 30
0.0
 10
3.5387341883
 20
3.8485984253
 30
0.0
 10
3.5378229537
 20
3.8478963992
 30
0.0
  0
SPLINE
  5
32D
100
AcDbEntity
  8
ALL_ASSEMBLY_MEMBERS
100
AcDbSpline
 62
7
  6
CONTINUOUS
 70
0
 71
3
 72
19
 73
15
 74
0
 42
0.0000001
 43
0.0000001
 44
0.0000000001
 40
0.0
 40
0.0
 40
0.0
 40
0.0
 40
0.0507592402
 40
0.1054875951
 40
0.164046295
 40
0.2261777295
 40
0.3594156603
 40
0.5000000028
 40
0.6405843439
 40
0.7738222722
 40
0.8359537058
 40
0.8945124054
 40
0.94924076
 40
1.0
 40
1.0
 40
1.0
 40
1.0
 10
3.5378229537
 20
3.8478963992
 30
0.0
 10
3.5376872724
 20
3.8487207152
 30
0.0
 10
3.5374399424
 20
3.8504396337
 30
0.0
 10
3.5371509301
 20
3.8531245344
 30
0.0
 10
3.5369383989
 20
3.8560043184
 30
0.0
 10
3.5367627698
 20
3.8601804157
 30
0.0
 10
3.5367849544
 20
3.8657130292
 30
0.0
 10
3.5371930948
 20
3.8725245962
 30
0.0
 10
3.5379739712
 20
3.8793035528
 30
0.0
 10
3.5389128518
 20
3.8847559658
 30
0.0
 10
3.5398109845
 20
3.8888381211
 30
0.0
 10
3.540520356
 20
3.891637249
 30
0.0
 10
3.5412712057
 20
3.8942311735
 30
0.0
 10
3.5418132652
 20
3.8958810294
 30
0.0
 10
3.5420900263
 20
3.8966692614
 30
0.0
  0
SPLINE
  5
32E
100
AcDbEntity
  8
ALL_ASSEMBLY_MEMBERS
100
AcDbSpline
 62
7
  6
CONTINUOUS
 70
0
 71
3
 72
23
 73
19
 74
0
 42
0.0000001
 43
0.0000001
 44
0.0000000001
 40
0.0
 40
0.0
 40
0.0
 40
0.0
 40
0.0622769822
 40
0.1246793137
 40
0.1871408057
 40
0.2496361649
 40
0.3121576239
 40
0.374748419
 40
0.4373634024
 40
0.4999999978
 40
0.5626365934
 40
0.6252515778
 40
0.687842374
 40
0.7503638337
 40
0.8128591935
 40
0.8753206859
 40
0.9377230176
 40
1.0
 40
1.0
 40
1.0
 40
1.0
 10
3.5617140895
 20
3.8949523783
 30
0.0
 10
3.5625037207
 20
3.8941021047
 30
0.0
 10
3.5640164016
 20
3.8923348273
 30
0.0
 10
3.566049143
 20
3.8894961573
 30
0.0
 10
3.5678102632
 20
3.8864755534
 30
0.0
 10
3.5692619642
 20
3.8832915146
 30
0.0
 10
3.5703691528
 20
3.8799684598
 30
0.0
 10
3.5710962622
 20
3.8765392588
 30
0.0
 10
3.5714230218
 20
3.8730462958
 30
0.0
 10
3.5713265517
 20
3.8695383056
 30
0.0
 10
3.5708124001
 20
3.8660668578
 30
0.0
 10
3.5698840581
 20
3.862683702
 30
0.0
 10
3.5685725207
 20
3.8594328593
 30
0.0
 10
3.5669051102
 20
3.8563525505
 30
0.0
 10
3.5649225613
 20
3.8534689696
 30
0.0
 10
3.5626636741
 20
3.8508000708
 30
0.0
 10
3.5601688847
 20
3.8483575084
 30
0.0
 10
3.5583723004
 20
3.8468797542
 30
0.0
 10
3.557447017
 20
3.8461795161
 30
0.0
  0
SPLINE
  5
32F
100
AcDbEntity
  8
ALL_ASSEMBLY_MEMBERS
100
AcDbSpline
 62
7
  6
CONTINUOUS
 70
0
 71
3
 72
17
 73
13
 74
0
 42
0.0000001
 43
0.0000001
 44
0.0000000001
 40
0.0
 40
0.0
 40
0.0
 40
0.0
 40
0.0501731665
 40
0.1045333465
 40
0.2250464361
 40
0.358695442
 40
0.4999999995
 40
0.6413045574
 40
0.774953564
 40
0.8954666536
 40
0.9498268335
 40
1.0
 40
1.0
 40
1.0
 40
1.0
 10
3.557447017
 20
3.8461795161
 30
0.0
 10
3.557392926
 20
3.8469990817
 30
0.0
 10
3.5573019476
 20
3.8487080904
 30
0.0
 10
3.5571877607
 20
3.85239063
 30
0.0
 10
3.5571917263
 20
3.8574426525
 30
0.0
 10
3.5574309345
 20
3.8639133697
 30
0.0
 10
3.5579126834
 20
3.8707118669
 30
0.0
 10
3.5586188
 20
3.8774907345
 30
0.0
 10
3.5595068541
 20
3.883904685
 30
0.0
 10
3.5603802233
 20
3.8888806446
 30
0.0
 10
3.5611321417
 20
3.8924874098
 30
0.0
 10
3.5615185042
 20
3.8941546565
 30
0.0
 10
3.5617140895
 20
3.8949523783
 30
0.0
  0
SPLINE
  5
330
100
AcDbEntity
  8
ALL_ASSEMBLY_MEMBERS
100
AcDbSpline
 62
7
  6
CONTINUOUS
 70
0
 71
3
 72
23
 73
19
 74
0
 42
0.0000001
 43
0.0000001
 44
0.0000000001
 40
0.0
 40
0.0
 40
0.0
 40
0.0
 40
0.0624305241
 40
0.1249403279
 40
0.18746076
 40
0.2499665335
 40
0.3124528943
 40
0.3749694919
 40
0.4374816214
 40
0.4999999978
 40
0.5625183744
 40
0.6250305049
 40
0.6875471036
 40
0.750033465
 40
0.8125392392
 40
0.8750596717
 40
0.9375694757
 40
1.0
 40
1.0
 40
1.0
 40
1.0
 10
3.5800143477
 20
3.8933513132
 30
0.0
 10
3.5808110818
 20
3.8925006948
 30
0.0
 10
3.5823374869
 20
3.8907328877
 30
0.0
 10
3.584389785
 20
3.8878926368
 30
0.0
 10
3.5861683335
 20
3.8848705861
 30
0.0
 10
3.5876349855
 20
3.8816852348
 30
0.0
 10
3.5887543077
 20
3.878361007
 30
0.0
 10
3.5894903687
 20
3.8749307726
 30
0.0
 10
3.5898226442
 20
3.8714369714
 30
0.0
 10
3.5897279891
 20
3.8679283885
 30
0.0
 10
3.5892119471
 20
3.8644566721
 30
0.0
 10
3.5882780274
 20
3.8610736486
 30
0.0
 10
3.586957495
 20
3.8578233427
 30
0.0
 10
3.5852779316
 20
3.8547439856
 30
0.0
 10
3.5832804309
 20
3.8518617084
 30
0.0
 10
3.5810041289
 20
3.8491944111
 30
0.0
 10
3.5784898055
 20
3.8467536878
 30
0.0
 10
3.5766796135
 20
3.8452777952
 30
0.0
 10
3.5757472752
 20
3.844578451
 30
0.0
  0
SPLINE
  5
331
100
AcDbEntity
  8
ALL_ASSEMBLY_MEMBERS
100
AcDbSpline
 62
7
  6
CONTINUOUS
 70
0
 71
3
 72
15
 73
11
 74
0
 42
0.0000001
 43
0.0000001
 44
0.0000000001
 40
0.0
 40
0.0
 40
0.0
 40
0.0
 40
0.104034858
 40
0.2244633418
 40
0.3583241762
 40
0.5000000029
 40
0.641675828
 40
0.7755366598
 40
0.8959651425
 40
1.0
 40
1.0
 40
1.0
 40
1.0
 10
3.5757472752
 20
3.844578451
 30
0.0
 10
3.5758077947
 20
3.8462757807
 30
0.0
 10
3.5759709849
 20
3.8499367626
 30
0.0
 10
3.5763115571
 20
3.8557767626
 30
0.0
 10
3.5767664619
 20
3.8622251698
 30
0.0
 10
3.5773225695
 20
3.869013722
 30
0.0
 10
3.5779537301
 20
3.875795708
 30
0.0
 10
3.5786254906
 20
3.8822251426
 30
0.0
 10
3.5793041977
 20
3.8880355596
 30
0.0
 10
3.5797792096
 20
3.8916692606
 30
0.0
 10
3.5800143477
 20
3.8933513132
 30
0.0
  0
SPLINE
  5
332
100
AcDbEntity
  8
ALL_ASSEMBLY_MEMBERS
100
AcDbSpline
 62
7
  6
CONTINUOUS
 70
0
 71
3
 72
23
 73
19
 74
0
 42
0.0000001
 43
0.0000001
 44
0.0000000001
 40
0.0
 40
0.0
 40
0.0
 40
0.0
 40
0.0624306692
 40
0.1249405745
 40
0.1874610624
 40
0.2499668458
 40
0.3124531734
 40
0.3749697009
 40
0.4374817332
 40
0.4999999978
 40
0.5625182626
 40
0.6250302959
 40
0.6875468245
 40
0.7500331527
 40
0.8125389368
 40
0.875059425
 40
0.9375693307
 40
1.0
 40
1.0
 40
1.0
 40
1.0
 10
3.5968346764
 20
3.8918797251
 30
0.0
 10
3.5976314172
 20
3.8910291064
 30
0.0
 10
3.5991578352
 20
3.8892612988
 30
0.0
 10
3.6012101518
 20
3.8864210464
 30
0.0
 10
3.6029887168
 20
3.8833989943
 30
0.0
 10
3.6044553829
 20
3.8802136418
 30
0.0
 10
3.6055747166
 20
3.8768894129
 30
0.0
 10
3.606310786
 20
3.8734591775
 30
0.0
 10
3.6066430667
 20
3.8699653756
 30
0.0
 10
3.6065484133
 20
3.866456792
 30
0.0
 10
3.6060323696
 20
3.8629850754
 30
0.0
 10
3.6050984446
 20
3.859602052
 30
0.0
 10
3.6037779036
 20
3.8563517467
 30
0.0
 10
3.6020983288
 20
3.8532723905
 30
0.0
 10
3.600100814
 20
3.8503901145
 30
0.0
 10
3.5978244956
 20
3.8477228187
 30
0.0
 10
3.5953101536
 20
3.8452820971
 30
0.0
 10
3.5934999488
 20
3.8438062063
 30
0.0
 10
3.5925676038
 20
3.8431068629
 30
0.0
  0
SPLINE
  5
333
100
AcDbEntity
  8
ALL_ASSEMBLY_MEMBERS
100
AcDbSpline
 62
7
  6
CONTINUOUS
 70
0
 71
3
 72
23
 73
19
 74
0
 42
0.0000001
 43
0.0000001
 44
0.0000000001
 40
0.0
 40
0.0
 40
0.0
 40
0.0
 40
0.0622774164
 40
0.1246800516
 40
0.18714171
 40
0.2496370984
 40
0.3121584581
 40
0.3747490434
 40
0.4373637363
 40
0.4999999978
 40
0.5626362595
 40
0.6252509534
 40
0.6878415398
 40
0.7503629002
 40
0.8128582892
 40
0.875319948
 40
0.9377225835
 40
1.0
 40
1.0
 40
1.0
 40
1.0
 10
3.6120315767
 20
3.8905501686
 30
0.0
 10
3.612821228
 20
3.889699894
 30
0.0
 10
3.6143339476
 20
3.8879326151
 30
0.0
 10
3.6163667444
 20
3.8850939406
 30
0.0
 10
3.6181279138
 20
3.8820733327
 30
0.0
 10
3.619579657
 20
3.8788892902
 30
0.0
 10
3.62068688
 20
3.8755662321
 30
0.0
 10
3.6214140147
 20
3.8721370281
 30
0.0
 10
3.6217407898
 20
3.8686440628
 30
0.0
 10
3.6216443249
 20
3.8651360709
 30
0.0
 10
3.6211301679
 20
3.8616646223
 30
0.0
 10
3.6202018102
 20
3.8582814669
 30
0.0
 10
3.6188902473
 20
3.8550306258
 30
0.0
 10
3.6172228025
 20
3.8519503196
 30
0.0
 10
3.6152402114
 20
3.8490667424
 30
0.0
 10
3.612981275
 20
3.8463978481
 30
0.0
 10
3.6104864303
 20
3.8439552909
 30
0.0
 10
3.6086898075
 20
3.8424775419
 30
0.0
 10
3.6077645042
 20
3.8417773064
 30
0.0
  0
SPLINE
  5
334
100
AcDbEntity
  8
ALL_ASSEMBLY_MEMBERS
100
AcDbSpline
 62
7
  6
CONTINUOUS
 70
0
 71
3
 72
21
 73
17
 74
0
 42
0.0000001
 43
0.0000001
 44
0.0000000001
 40
0.0
 40
0.0
 40
0.0
 40
0.0
 40
0.1160924998
 40
0.1767193317
 40
0.2389681937
 40
0.3026922317
 40
0.3676993074
 40
0.4336057907
 40
0.4999999908
 40
0.5663941906
 40
0.632300676
 40
0.6973077529
 40
0.7610317906
 40
0.8232806552
 40
0.8839074901
 40
1.0
 40
1.0
 40
1.0
 40
1.0
 10
3.406525153
 20
3.908529651
 30
0.0
 10
3.4076430941
 20
3.9068245547
 30
0.0
 10
3.409140015
 20
3.9040858969
 30
0.0
 10
3.4106938621
 20
3.9001836341
 30
0.0
 10
3.4116500894
 20
3.8970447135
 30
0.0
 10
3.412355925
 20
3.8937616544
 30
0.0
 10
3.4127879388
 20
3.8903665234
 30
0.0
 10
3.4129332116
 20
3.8869000363
 30
0.0
 10
3.4127769872
 20
3.8834095955
 30
0.0
 10
3.4123247296
 20
3.8799450542
 30
0.0
 10
3.4115797147
 20
3.8765564571
 30
0.0
 10
3.410564706
 20
3.8732879241
 30
0.0
 10
3.4092994963
 20
3.8701773091
 30
0.0
 10
3.4078127285
 20
3.8672521227
 30
0.0
 10
3.4056048668
 20
3.8636789666
 30
0.0
 10
3.4036551245
 20
3.8612418525
 30
0.0
 10
3.4022580805
 20
3.8597567887
 30
0.0
  0
SPLINE
  5
335
100
AcDbEntity
  8
ALL_ASSEMBLY_MEMBERS
100
AcDbSpline
 62
7
  6
CONTINUOUS
 70
0
 71
3
 72
23
 73
19
 74
0
 42
0.0000001
 43
0.0000001
 44
0.0000000001
 40
0.0
 40
0.0
 40
0.0
 40
0.0
 40
0.0619718077
 40
0.124160894
 40
0.1865057615
 40
0.2489808793
 40
0.3115722925
 40
0.3743103715
 40
0.4371292243
 40
0.4999999978
 40
0.5628707714
 40
0.6256896253
 40
0.6884277054
 40
0.7510191192
 40
0.8134942377
 40
0.8758391056
 40
0.9380281922
 40
1.0
 40
1.0
 40
1.0
 40
1.0
 10
3.6254754
 20
3.8893739865
 30
0.0
 10
3.6262509186
 20
3.8885243899
 30
0.0
 10
3.6277363247
 20
3.886758153
 30
0.0
 10
3.6297302242
 20
3.8839226299
 30
0.0
 10
3.6314567327
 20
3.8809049095
 30
0.0
 10
3.6328787467
 20
3.8777234873
 30
0.0
 10
3.6339618488
 20
3.8744027692
 30
0.0
 10
3.6346711934
 20
3.870975621
 30
0.0
 10
3.6349870086
 20
3.8674843165
 30
0.0
 10
3.6348869375
 20
3.8639774924
 30
0.0
 10
3.6343765347
 20
3.8605065677
 30
0.0
 10
3.6334592588
 20
3.8571231447
 30
0.0
 10
3.6321655727
 20
3.8538712388
 30
0.0
 10
3.6305222887
 20
3.8507890486
 30
0.0
 10
3.6285694301
 20
3.8479028894
 30
0.0
 10
3.6263451295
 20
3.84523082
 30
0.0
 10
3.6238891384
 20
3.8427846119
 30
0.0
 10
3.6221195951
 20
3.8413031462
 30
0.0
 10
3.6212083275
 20
3.8406011243
 30
0.0
  0
SPLINE
  5
336
100
AcDbEntity
  8
ALL_ASSEMBLY_MEMBERS
100
AcDbSpline
 62
7
  6
CONTINUOUS
 70
0
 71
3
 72
21
 73
17
 74
0
 42
0.0000001
 43
0.0000001
 44
0.0000000001
 40
0.0
 40
0.0
 40
0.0
 40
0.0
 40
0.117904091
 40
0.1789170423
 40
0.2412083732
 40
0.3046699915
 40
0.3691670984
 40
0.4343870287
 40
0.4999999977
 40
0.5656129668
 40
0.6308328983
 40
0.6953300064
 40
0.7587916253
 40
0.8210829569
 40
0.8820959086
 40
1.0
 40
1.0
 40
1.0
 40
1.0
 10
3.4302853124
 20
3.9064509064
 30
0.0
 10
3.4315072347
 20
3.9047482932
 30
0.0
 10
3.4331533122
 20
3.9020049024
 30
0.0
 10
3.4348784117
 20
3.8980757592
 30
0.0
 10
3.4359433592
 20
3.8949265825
 30
0.0
 10
3.4367371156
 20
3.8916347258
 30
0.0
 10
3.4372335611
 20
3.888232232
 30
0.0
 10
3.4374183919
 20
3.8847601997
 30
0.0
 10
3.4372752158
 20
3.8812662779
 30
0.0
 10
3.4368095036
 20
3.8778005742
 30
0.0
 10
3.4360245687
 20
3.8744133854
 30
0.0
 10
3.4349448285
 20
3.8711487899
 30
0.0
 10
3.4335915061
 20
3.8680447782
 30
0.0
 10
3.4319958888
 20
3.8651283707
 30
0.0
 10
3.4296147088
 20
3.8615584804
 30
0.0
 10
3.4275172541
 20
3.8591426062
 30
0.0
 10
3.4260182399
 20
3.8576780442
 30
0.0
  0
SPLINE
  5
337
100
AcDbEntity
  8
ALL_ASSEMBLY_MEMBERS
100
AcDbSpline
 62
7
  6
CONTINUOUS
 70
0
 71
3
 72
23
 73
19
 74
0
 42
0.0000001
 43
0.0000001
 44
0.0000000001
 40
0.0
 40
0.0
 40
0.0
 40
0.0
 40
0.0615161374
 40
0.1233877237
 40
0.1855597519
 40
0.248005775
 40
0.3107021101
 40
0.3736596326
 40
0.4367815088
 40
0.4999999978
 40
0.5632184869
 40
0.6263403642
 40
0.6892978878
 40
0.7519942236
 40
0.8144402472
 40
0.8766122758
 40
0.9384838625
 40
1.0
 40
1.0
 40
1.0
 40
1.0
 10
3.6370514533
 20
3.8883612131
 30
0.0
 10
3.6378059012
 20
3.8875126076
 30
0.0
 10
3.6392505691
 20
3.8857478956
 30
0.0
 10
3.6411865153
 20
3.8829170862
 30
0.0
 10
3.6428613905
 20
3.8799036926
 30
0.0
 10
3.6442391308
 20
3.8767261987
 30
0.0
 10
3.6452863253
 20
3.8734089835
 30
0.0
 10
3.6459691988
 20
3.8699848986
 30
0.0
 10
3.6462687116
 20
3.8664960522
 30
0.0
 10
3.6461632767
 20
3.8629909406
 30
0.0
 10
3.6456584536
 20
3.8595207708
 30
0.0
 10
3.6447576592
 20
3.8561369377
 30
0.0
 10
3.643490574
 20
3.852883452
 30
0.0
 10
3.6418832604
 20
3.8497984761
 30
0.0
 10
3.639974685
 20
3.8469084976
 30
0.0
 10
3.6378019846
 20
3.8442317232
 30
0.0
 10
3.6354038849
 20
3.8417800936
 30
0.0
 10
3.6336747257
 20
3.8402930556
 30
0.0
 10
3.6327843808
 20
3.8395883508
 30
0.0
  0
SPLINE
  5
338
100
AcDbEntity
  8
ALL_ASSEMBLY_MEMBERS
100
AcDbSpline
 62
7
  6
CONTINUOUS
 70
0
 71
3
 72
21
 73
17
 74
0
 42
0.0000001
 43
0.0000001
 44
0.0000000001
 40
0.0
 40
0.0
 40
0.0
 40
0.0
 40
0.1179047428
 40
0.1789178268
 40
0.2412091657
 40
0.3046706904
 40
0.3691676176
 40
0.4343873053
 40
0.5000000026
 40
0.5656126998
 40
0.6308323863
 40
0.6953293119
 40
0.7587908359
 40
0.8210821741
 40
0.8820952577
 40
1.0
 40
1.0
 40
1.0
 40
1.0
 10
3.1458573703
 20
3.8821889442
 30
0.0
 10
3.1446354115
 20
3.8838915568
 30
0.0
 10
3.1429892805
 20
3.8866349487
 30
0.0
 10
3.1412641193
 20
3.890564101
 30
0.0
 10
3.1401991327
 20
3.8937132811
 30
0.0
 10
3.139405345
 20
3.897005141
 30
0.0
 10
3.1389088761
 20
3.9004076376
 30
0.0
 10
3.1387240309
 20
3.9038796724
 30
0.0
 10
3.1388672026
 20
3.9073735961
 30
0.0
 10
3.1393329195
 20
3.9108393008
 30
0.0
 10
3.140117869
 20
3.9142264895
 30
0.0
 10
3.1411976328
 20
3.9174910836
 30
0.0
 10
3.1425509865
 20
3.9205950929
 30
0.0
 10
3.1441466429
 20
3.9235114968
 30
0.0
 10
3.1465278852
 20
3.9270813853
 30
0.0
 10
3.1486253928
 20
3.9294972513
 30
0.0
 10
3.1501244429
 20
3.9309618065
 30
0.0
  0
SPLINE
  5
339
100
AcDbEntity
  8
ALL_ASSEMBLY_MEMBERS
100
AcDbSpline
 62
7
  6
CONTINUOUS
 70
0
 71
3
 72
19
 73
15
 74
0
 42
0.0000001
 43
0.0000001
 44
0.0000000001
 40
0.0
 40
0.0
 40
0.0
 40
0.0
 40
0.1141957652
 40
0.2365759704
 40
0.3005858108
 40
0.3661402012
 40
0.4327786606
 40
0.5000000027
 40
0.5672213447
 40
0.6338598027
 40
0.6994141916
 40
0.7634240312
 40
0.8858042353
 40
1.0
 40
1.0
 40
1.0
 40
1.0
 10
3.4260182399
 20
3.8576780442
 30
0.0
 10
3.4250128003
 20
3.8593844166
 30
0.0
 10
3.4232084363
 20
3.8630902931
 30
0.0
 10
3.4216691924
 20
3.868093703
 30
0.0
 10
3.4208678935
 20
3.8723929266
 30
0.0
 10
3.4205062487
 20
3.8757800777
 30
0.0
 10
3.4204042776
 20
3.8792405709
 30
0.0
 10
3.4205747427
 20
3.8827273799
 30
0.0
 10
3.4210123454
 20
3.8861908175
 30
0.0
 10
3.4217136757
 20
3.8895810309
 30
0.0
 10
3.4226579989
 20
3.8928539244
 30
0.0
 10
3.4241936766
 20
3.8969486891
 30
0.0
 10
3.4265783689
 20
3.901608799
 30
0.0
 10
3.4289988393
 20
3.9049450504
 30
0.0
 10
3.4302853124
 20
3.9064509064
 30
0.0
  0
SPLINE
  5
33A
100
AcDbEntity
  8
ALL_ASSEMBLY_MEMBERS
100
AcDbSpline
 62
7
  6
CONTINUOUS
 70
0
 71
3
 72
21
 73
17
 74
0
 42
0.0000001
 43
0.0000001
 44
0.0000000001
 40
0.0
 40
0.0
 40
0.0
 40
0.0
 40
0.1195619394
 40
0.1809286097
 40
0.2432653235
 40
0.3064929393
 40
0.3705230434
 40
0.4351090945
 40
0.5000000026
 40
0.5648909105
 40
0.6294769604
 40
0.693507063
 40
0.7567346781
 40
0.8190713913
 40
0.8804380611
 40
1.0
 40
1.0
 40
1.0
 40
1.0
 10
3.1491425881
 20
3.8819015249
 30
0.0
 10
3.1478296713
 20
3.8836030506
 30
0.0
 10
3.1460500849
 20
3.8863495807
 30
0.0
 10
3.1441701558
 20
3.8903023463
 30
0.0
 10
3.1430078857
 20
3.8934605714
 30
0.0
 10
3.1421354273
 20
3.8967603697
 30
0.0
 10
3.141581128
 20
3.9001695623
 30
0.0
 10
3.1413607343
 20
3.9036467081
 30
0.0
 10
3.1414922031
 20
3.9071439383
 30
0.0
 10
3.1419700193
 20
3.9106108671
 30
0.0
 10
3.1427908648
 20
3.9139969163
 30
0.0
 10
3.1439287431
 20
3.9172580624
 30
0.0
 10
3.1453609508
 20
3.9203562285
 30
0.0
 10
3.1470539834
 20
3.9232646469
 30
0.0
 10
3.1495917427
 20
3.9268309149
 30
0.0
 10
3.1518212232
 20
3.9292266971
 30
0.0
 10
3.1534096606
 20
3.9306743871
 30
0.0
  0
SPLINE
  5
33B
100
AcDbEntity
  8
ALL_ASSEMBLY_MEMBERS
100
AcDbSpline
 62
7
  6
CONTINUOUS
 70
0
 71
3
 72
21
 73
17
 74
0
 42
0.0000001
 43
0.0000001
 44
0.0000000001
 40
0.0
 40
0.0
 40
0.0
 40
0.0
 40
0.1222828963
 40
0.1842430827
 40
0.2466668639
 40
0.3095168153
 40
0.3727775619
 40
0.4363114524
 40
0.4999999978
 40
0.5636885433
 40
0.6272224348
 40
0.6904831826
 40
0.7533331347
 40
0.8157569165
 40
0.8777171032
 40
1.0
 40
1.0
 40
1.0
 40
1.0
 10
3.6466609782
 20
3.8875204886
 30
0.0
 10
3.6481192527
 20
3.8858198932
 30
0.0
 10
3.6501128669
 20
3.8830688217
 30
0.0
 10
3.6522443233
 20
3.8790784594
 30
0.0
 10
3.6535638419
 20
3.8759059033
 30
0.0
 10
3.6545636202
 20
3.8725934215
 30
0.0
 10
3.655211616
 20
3.8691733593
 30
0.0
 10
3.655489645
 20
3.8656877337
 30
0.0
 10
3.6553771439
 20
3.8621848317
 30
0.0
 10
3.6548796633
 20
3.8587156109
 30
0.0
 10
3.6540005857
 20
3.855331219
 30
0.0
 10
3.6527685469
 20
3.8520756385
 30
0.0
 10
3.651208751
 20
3.8489870904
 30
0.0
 10
3.6493583702
 20
3.8460918645
 30
0.0
 10
3.6465663762
 20
3.8425322482
 30
0.0
 10
3.644125331
 20
3.8401691592
 30
0.0
 10
3.6423939057
 20
3.8387476263
 30
0.0
  0
SPLINE
  5
33C
100
AcDbEntity
  8
ALL_ASSEMBLY_MEMBERS
100
AcDbSpline
 62
7
  6
CONTINUOUS
 70
0
 71
3
 72
21
 73
17
 74
0
 42
0.0000001
 43
0.0000001
 44
0.0000000001
 40
0.0
 40
0.0
 40
0.0
 40
0.0
 40
0.1210292689
 40
0.1827140148
 40
0.2450957274
 40
0.3081186676
 40
0.3717343101
 40
0.4357547942
 40
0.5000000026
 40
0.5642452108
 40
0.6282656937
 40
0.6918813347
 40
0.7549042743
 40
0.8172859861
 40
0.8789707316
 40
1.0
 40
1.0
 40
1.0
 40
1.0
 10
3.1545873555
 20
3.8814251695
 30
0.0
 10
3.1531955722
 20
3.8831260595
 30
0.0
 10
3.1512999467
 20
3.8858751091
 30
0.0
 10
3.1492841455
 20
3.8898483142
 30
0.0
 10
3.1480368074
 20
3.893014338
 30
0.0
 10
3.1470954971
 20
3.8963210238
 30
0.0
 10
3.1464905464
 20
3.8997360923
 30
0.0
 10
3.1462390028
 20
3.9032177935
 30
0.0
 10
3.1463602196
 20
3.9067180421
 30
0.0
 10
3.1468486562
 20
3.9101861631
 30
0.0
 10
3.1477009693
 20
3.9135712893
 30
0.0
 10
3.1488897499
 20
3.9168294266
 30
0.0
 10
3.1503909595
 20
3.9199224195
 30
0.0
 10
3.1521691221
 20
3.9228237463
 30
0.0
 10
3.1548442384
 20
3.9263865492
 30
0.0
 10
3.1571884326
 20
3.9287646627
 30
0.0
 10
3.158854428
 20
3.9301980317
 30
0.0
  0
SPLINE
  5
33D
100
AcDbEntity
  8
ALL_ASSEMBLY_MEMBERS
100
AcDbSpline
 62
7
  6
CONTINUOUS
 70
0
 71
3
 72
21
 73
17
 74
0
 42
0.0000001
 43
0.0000001
 44
0.0000000001
 40
0.0
 40
0.0
 40
0.0
 40
0.0
 40
0.1195613534
 40
0.1809279027
 40
0.243264608
 40
0.3064923071
 40
0.3705225728
 40
0.4351088435
 40
0.4999999977
 40
0.5648911521
 40
0.6294774239
 40
0.6935076908
 40
0.7567353905
 40
0.8190720965
 40
0.8804386462
 40
1.0
 40
1.0
 40
1.0
 40
1.0
 10
3.4538429209
 20
3.9043898827
 30
0.0
 10
3.4551558056
 20
3.9026883566
 30
0.0
 10
3.4569353449
 20
3.8999418274
 30
0.0
 10
3.4588152192
 20
3.8959890697
 30
0.0
 10
3.4599774546
 20
3.8928308475
 30
0.0
 10
3.4608498853
 20
3.8895310519
 30
0.0
 10
3.4614041638
 20
3.8861218619
 30
0.0
 10
3.4616245447
 20
3.8826447184
 30
0.0
 10
3.4614930721
 20
3.87914749
 30
0.0
 10
3.46101526
 20
3.8756805623
 30
0.0
 10
3.4601944275
 20
3.8722945131
 30
0.0
 10
3.4590565702
 20
3.8690333657
 30
0.0
 10
3.4576243902
 20
3.8659351974
 30
0.0
 10
3.4559313922
 20
3.8630267757
 30
0.0
 10
3.4533936882
 20
3.8594605061
 30
0.0
 10
3.4511642543
 20
3.8570647165
 30
0.0
 10
3.4495758483
 20
3.8556170205
 30
0.0
  0
SPLINE
  5
33E
100
AcDbEntity
  8
ALL_ASSEMBLY_MEMBERS
100
AcDbSpline
 62
7
  6
CONTINUOUS
 70
0
 71
3
 72
21
 73
17
 74
0
 42
0.0000001
 43
0.0000001
 44
0.0000000001
 40
0.0
 40
0.0
 40
0.0
 40
0.0
 40
0.1222811713
 40
0.1842409713
 40
0.246664684
 40
0.3095148712
 40
0.3727761103
 40
0.4363106778
 40
0.5000000025
 40
0.5636893271
 40
0.6272238934
 40
0.6904851312
 40
0.7533353176
 40
0.8157590297
 40
0.8777188292
 40
1.0
 40
1.0
 40
1.0
 40
1.0
 10
3.1621452217
 20
3.8807639419
 30
0.0
 10
3.160687038
 20
3.8824645374
 30
0.0
 10
3.1586935577
 20
3.885215606
 30
0.0
 10
3.1565622599
 20
3.8892059446
 30
0.0
 10
3.1552428399
 20
3.8923784915
 30
0.0
 10
3.1542431417
 20
3.8956909654
 30
0.0
 10
3.1535952046
 20
3.8991110209
 30
0.0
 10
3.1533172118
 20
3.9025966415
 30
0.0
 10
3.1534297251
 20
3.9060995405
 30
0.0
 10
3.1539271932
 20
3.9095687603
 30
0.0
 10
3.1548062343
 20
3.9129531535
 30
0.0
 10
3.1560382143
 20
3.9162087375
 30
0.0
 10
3.1575979297
 20
3.9192972917
 30
0.0
 10
3.1594482118
 20
3.9221925256
 30
0.0
 10
3.1622400454
 20
3.925752146
 30
0.0
 10
3.1646809583
 20
3.9281152554
 30
0.0
 10
3.1664122942
 20
3.9295368041
 30
0.0
  0
SPLINE
  5
33F
100
AcDbEntity
  8
ALL_ASSEMBLY_MEMBERS
100
AcDbSpline
 62
7
  6
CONTINUOUS
 70
0
 71
3
 72
21
 73
17
 74
0
 42
0.0000001
 43
0.0000001
 44
0.0000000001
 40
0.0
 40
0.0
 40
0.0
 40
0.0
 40
0.1210313347
 40
0.1827165369
 40
0.2450983244
 40
0.3081209792
 40
0.3717360337
 40
0.4357557132
 40
0.4999999978
 40
0.5642442824
 40
0.628263963
 40
0.6918790187
 40
0.7549016742
 40
0.8172834623
 40
0.8789686648
 40
1.0
 40
1.0
 40
1.0
 40
1.0
 10
3.6542219933
 20
3.8868589855
 30
0.0
 10
3.6556138864
 20
3.885158096
 30
0.0
 10
3.6575096739
 20
3.8824090428
 30
0.0
 10
3.6595256654
 20
3.8784358089
 30
0.0
 10
3.6607731223
 20
3.8752697739
 30
0.0
 10
3.661714529
 20
3.8719630786
 30
0.0
 10
3.6623195503
 20
3.868548002
 30
0.0
 10
3.6625711373
 20
3.8650662949
 30
0.0
 10
3.6624499352
 20
3.8615660426
 30
0.0
 10
3.6619614836
 20
3.8580979204
 30
0.0
 10
3.6611091266
 20
3.8547127959
 30
0.0
 10
3.6599202752
 20
3.8514546628
 30
0.0
 10
3.6584189689
 20
3.8483616771
 30
0.0
 10
3.6566406874
 20
3.8454603598
 30
0.0
 10
3.6539653785
 20
3.8418975615
 30
0.0
 10
3.6516210243
 20
3.8395194726
 30
0.0
 10
3.6499549208
 20
3.8380861232
 30
0.0
  0
SPLINE
  5
340
100
AcDbEntity
  8
ALL_FEATURES
100
AcDbSpline
 62
7
  6
CONTINUOUS
 70
0
 71
3
 72
18
 73
14
 74
0
 42
0.0000001
 43
0.0000001
 44
0.0000000001
 40
0.0
 40
0.0
 40
0.0
 40
0.0
 40
0.059670732
 40
0.1193569148
 40
0.1791696894
 40
0.2392102357
 40
0.3601828236
 40
0.4828524533
 40
0.5450346997
 40
0.6078360499
 40
0.7354647856
 40
0.8661288082
 40
1.0
 40
1.0
 40
1.0
 40
1.0
 10
5.8345056797
 20
4.0904879588
 30
0.0
 10
5.8345056797
 20
4.0890502213
 30
0.0
 10
5.8346153716
 20
4.0861731773
 30
0.0
 10
5.8351061871
 20
4.081880289
 30
0.0
 10
5.8359197859
 20
4.077627228
 30
0.0
 10
5.837432558
 20
4.0720206875
 30
0.0
 10
5.840108922
 20
4.0651816131
 30
0.0
 10
5.8437381741
 20
4.0587414302
 30
0.0
 10
5.8471642588
 20
4.0538517281
 30
0.0
 10
5.8509692934
 20
4.0490965161
 30
0.0
 10
5.8563549113
 20
4.043514174
 30
0.0
 10
5.8636633664
 20
4.0374969416
 30
0.0
 10
5.8689980624
 20
4.0339844781
 30
0.0
 10
5.871776205
 20
4.0323455234
 30
0.0
  0
SPLINE
  5
341
100
AcDbEntity
  8
ALL_FEATURES
100
AcDbSpline
 62
7
  6
CONTINUOUS
 70
0
 71
3
 72
20
 73
16
 74
0
 42
0.0000001
 43
0.0000001
 44
0.0000000001
 40
0.0
 40
0.0
 40
0.0
 40
0.0
 40
0.1340490227
 40
0.2648372005
 40
0.3290815473
 40
0.3925844727
 40
0.4553910339
 40
0.517561609
 40
0.6401626311
 40
0.7008137262
 40
0.7610962767
 40
0.8210687554
 40
0.8808078767
 40
0.9404145648
 40
1.0
 40
1.0
 40
1.0
 40
1.0
 10
5.9922051258
 20
4.0317462533
 30
0.0
 10
5.9950530822
 20
4.033380389
 30
0.0
 10
6.0005238873
 20
4.0368909092
 30
0.0
 10
6.0068159763
 20
4.0419576387
 30
0.0
 10
6.0113863612
 20
4.0463458433
 30
0.0
 10
6.014555887
 20
4.0497761637
 30
0.0
 10
6.0174748818
 20
4.0533573079
 30
0.0
 10
6.0209979736
 20
4.0582969571
 30
0.0
 10
6.0239980591
 20
4.063532504
 30
0.0
 10
6.026397359
 20
4.06899848
 30
0.0
 10
6.0278820261
 20
4.0731779851
 30
0.0
 10
6.0290484125
 20
4.0774339883
 30
0.0
 10
6.0298867785
 20
4.0817499642
 30
0.0
 10
6.0303926093
 20
4.0861076249
 30
0.0
 10
6.0305056797
 20
4.0890284352
 30
0.0
 10
6.0305056797
 20
4.0904879588
 30
0.0
  0
SPLINE
  5
342
100
AcDbEntity
  8
ALL_FEATURES
100
AcDbSpline
 62
7
  6
CONTINUOUS
 70
0
 71
3
 72
11
 73
7
 74
0
 42
0.0000001
 43
0.0000001
 44
0.0000000001
 40
0.0
 40
0.0
 40
0.0
 40
0.0
 40
0.2480554316
 40
0.49703125
 40
0.7474930008
 40
1.0
 40
1.0
 40
1.0
 40
1.0
 10
5.8345056797
 20
4.0998592365
 30
0.0
 10
5.8345056797
 20
4.101101753
 30
0.0
 10
5.8346009739
 20
4.1035924131
 30
0.0
 10
5.8350276318
 20
4.1073156792
 30
0.0
 10
5.8357366354
 20
4.1110183208
 30
0.0
 10
5.8363938623
 20
4.1134532504
 30
0.0
 10
5.836767538
 20
4.1146616056
 30
0.0
  0
SPLINE
  5
343
100
AcDbEntity
  8
ALL_FEATURES
100
AcDbSpline
 62
7
  6
CONTINUOUS
 70
0
 71
3
 72
11
 73
7
 74
0
 42
0.0000001
 43
0.0000001
 44
0.0000000001
 40
0.0
 40
0.0
 40
0.0
 40
0.0
 40
0.2525070379
 40
0.5029687949
 40
0.7519445973
 40
1.0
 40
1.0
 40
1.0
 40
1.0
 10
6.0282437825
 20
4.1146617314
 30
0.0
 10
6.0286174645
 20
4.1134533664
 30
0.0
 10
6.0292747027
 20
4.1110184166
 30
0.0
 10
6.0299837185
 20
4.1073157435
 30
0.0
 10
6.0304103838
 20
4.1035924455
 30
0.0
 10
6.0305056797
 20
4.1011017637
 30
0.0
 10
6.0305056797
 20
4.0998592365
 30
0.0
  0
SPLINE
  5
344
100
AcDbEntity
  8
ALL_FEATURES
100
AcDbSpline
 62
7
  6
CONTINUOUS
 70
0
 71
3
 72
14
 73
10
 74
0
 42
0.0000001
 43
0.0000001
 44
0.0000000001
 40
0.0
 40
0.0
 40
0.0
 40
0.0
 40
0.1077950011
 40
0.2225025545
 40
0.3428959677
 40
0.467942251
 40
0.5968911283
 40
0.7290260587
 40
1.0
 40
1.0
 40
1.0
 40
1.0
 10
5.8749914515
 20
4.0087740687
 30
0.0
 10
5.8751219908
 20
4.0091429552
 30
0.0
 10
5.8753752313
 20
4.0099102086
 30
0.0
 10
5.8757166071
 20
4.0111075725
 30
0.0
 10
5.8760209999
 20
4.0123794428
 30
0.0
 10
5.8762786748
 20
4.0137142696
 30
0.0
 10
5.8764860994
 20
4.0151009651
 30
0.0
 10
5.8766918303
 20
4.0170217387
 30
0.0
 10
5.8767556797
 20
4.0184860428
 30
0.0
 10
5.8767556797
 20
4.0194696953
 30
0.0
  0
SPLINE
  5
345
100
AcDbEntity
  8
ALL_FEATURES
100
AcDbSpline
 62
7
  6
CONTINUOUS
 70
0
 71
3
 72
13
 73
9
 74
0
 42
0.0000001
 43
0.0000001
 44
0.0000000001
 40
0.0
 40
0.0
 40
0.0
 40
0.0
 40
0.2713759394
 40
0.5324754804
 40
0.6574339044
 40
0.7776752622
 40
0.8922692156
 40
1.0
 40
1.0
 40
1.0
 40
1.0
 10
5.9882556797
 20
4.0194696953
 30
0.0
 10
5.9882556797
 20
4.0184839649
 30
0.0
 10
5.9883406012
 20
4.0165489439
 30
0.0
 10
5.9886436182
 20
4.0141773485
 30
0.0
 10
5.9889922987
 20
4.0123711482
 30
0.0
 10
5.9892961422
 20
4.0110996031
 30
0.0
 10
5.9896383761
 20
4.0099029015
 30
0.0
 10
5.989892408
 20
4.0091360579
 30
0.0
 10
5.9900232911
 20
4.00876728
 30
0.0
  0
SPLINE
  5
346
100
AcDbEntity
  8
ALL_FEATURES
100
AcDbSpline
 62
7
  6
CONTINUOUS
 70
0
 71
3
 72
18
 73
14
 74
0
 42
0.0000001
 43
0.0000001
 44
0.0000000001
 40
0.0
 40
0.0
 40
0.0
 40
0.0
 40
0.1662291351
 40
0.3273516122
 40
0.4051957737
 40
0.4807722301
 40
0.5537351637
 40
0.623620411
 40
0.7518231499
 40
0.8605656841
 40
0.9449293168
 40
0.9764533211
 40
1.0
 40
1.0
 40
1.0
 40
1.0
 10
5.8767556797
 20
4.0194696953
 30
0.0
 10
5.8767556797
 20
4.0203317951
 30
0.0
 10
5.8766904001
 20
4.0220301141
 30
0.0
 10
5.8764562607
 20
4.02412039
 30
0.0
 10
5.8761855109
 20
4.0257293748
 30
0.0
 10
5.8759478757
 20
4.0268794412
 30
0.0
 10
5.8756758329
 20
4.0279793934
 30
0.0
 10
5.875286485
 20
4.029330397
 30
0.0
 10
5.8747659482
 20
4.0308356275
 30
0.0
 10
5.8741117089
 20
4.0323698568
 30
0.0
 10
5.8735719554
 20
4.0334036796
 30
0.0
 10
5.87320138
 20
4.0340247714
 30
0.0
 10
5.8730468141
 20
4.0342650282
 30
0.0
 10
5.8729785454
 20
4.0343662814
 30
0.0
  0
SPLINE
  5
347
100
AcDbEntity
  8
ALL_FEATURES
100
AcDbSpline
 62
7
  6
CONTINUOUS
 70
0
 71
3
 72
45
 73
41
 74
0
 42
0.0000001
 43
0.0000001
 44
0.0000000001
 40
0.0
 40
0.0
 40
0.0
 40
0.0
 40
0.0135108578
 40
0.0270385559
 40
0.0406054212
 40
0.0542329222
 40
0.0817368845
 40
0.0956631968
 40
0.1097221468
 40
0.1382902854
 40
0.1675603697
 40
0.1976093881
 40
0.2284807196
 40
0.2601840791
 40
0.2926965515
 40
0.3259628263
 40
0.3599013018
 40
0.3944060981
 40
0.4293526875
 40
0.4646016428
 40
0.5000041634
 40
0.5354065684
 40
0.5706553528
 40
0.6056015392
 40
0.6401059225
 40
0.6740437185
 40
0.7073093468
 40
0.7398210258
 40
0.77152362
 40
0.8023941004
 40
0.8324423398
 40
0.86171167
 40
0.8902791677
 40
0.9043378005
 40
0.9182637801
 40
0.9457673419
 40
0.9593948171
 40
0.9729617264
 40
0.9864893958
 40
1.0
 40
1.0
 40
1.0
 40
1.0
 10
6.0305056797
 20
3.950718559
 30
0.0
 10
6.0305056797
 20
3.9519262644
 30
0.0
 10
6.0304226897
 20
3.9543439977
 30
0.0
 10
6.0300510872
 20
3.9579571751
 30
0.0
 10
6.0294343084
 20
3.9615475872
 30
0.0
 10
6.0282843101
 20
3.9663027138
 30
0.0
 10
6.0266523113
 20
3.9709631689
 30
0.0
 10
6.024576648
 20
3.9754706955
 30
0.0
 10
6.0221803462
 20
3.9799251571
 30
0.0
 10
6.0186266617
 20
3.9852992393
 30
0.0
 10
6.0135693848
 20
3.9913310013
 30
0.0
 10
6.0077546053
 20
3.9969357566
 30
0.0
 10
6.0012428067
 20
4.0020695554
 30
0.0
 10
5.9940988737
 20
4.0066959686
 30
0.0
 10
5.9863895515
 20
4.0107798489
 30
0.0
 10
5.978186436
 20
4.0142914763
 30
0.0
 10
5.9695642796
 20
4.0172034188
 30
0.0
 10
5.9606017998
 20
4.019492892
 30
0.0
 10
5.9513810344
 20
4.0211420235
 30
0.0
 10
5.9419864418
 20
4.0221364459
 30
0.0
 10
5.9325045694
 20
4.0224693136
 30
0.0
 10
5.9230227215
 20
4.0221362698
 30
0.0
 10
5.9136281967
 20
4.0211417678
 30
0.0
 10
5.9044075642
 20
4.0194924052
 30
0.0
 10
5.8954452219
 20
4.0172029304
 30
0.0
 10
5.886823296
 20
4.0142907931
 30
0.0
 10
5.8786203674
 20
4.0107792126
 30
0.0
 10
5.8709113194
 20
4.0066952341
 30
0.0
 10
5.8637675974
 20
4.002068896
 30
0.0
 10
5.857256047
 20
3.9969351256
 30
0.0
 10
5.8514414798
 20
3.9913304616
 30
0.0
 10
5.8463843676
 20
3.9852988143
 30
0.0
 10
5.8428308259
 20
3.9799248221
 30
0.0
 10
5.8404345951
 20
3.9754704545
 30
0.0
 10
5.8383589592
 20
3.9709630184
 30
0.0
 10
5.836727017
 20
3.9663026144
 30
0.0
 10
5.8355770389
 20
3.9615475187
 30
0.0
 10
5.8349602697
 20
3.9579571059
 30
0.0
 10
5.8345886714
 20
3.9543439497
 30
0.0
 10
5.8345056797
 20
3.9519262417
 30
0.0
 10
5.8345056797
 20
3.950718559
 30
0.0
  0
SPLINE
  5
348
100
AcDbEntity
  8
ALL_FEATURES
100
AcDbSpline
 62
7
  6
CONTINUOUS
 70
0
 71
3
 72
39
 73
35
 74
0
 42
0.0000001
 43
0.0000001
 44
0.0000000001
 40
0.0
 40
0.0
 40
0.0
 40
0.0
 40
0.0272117338
 40
0.049311968
 40
0.058484327
 40
0.0664241735
 40
0.0731453085
 40
0.0786608754
 40
0.0829850132
 40
0.0861410757
 40
0.0881555626
 40
0.089054557
 40
0.0905015769
 40
0.0927975986
 40
0.0961097307
 40
0.1004144505
 40
0.1056888139
 40
0.1119104836
 40
0.1190577579
 40
0.1360378678
 40
0.156429262
 40
0.1800289759
 40
0.2066395404
 40
0.2360697795
 40
0.2681356131
 40
0.3026593081
 40
0.33945674
 40
0.419115795
 40
0.5056426688
 40
0.5976216763
 40
0.6938816407
 40
0.79356981
 40
0.8958721995
 40
1.0
 40
1.0
 40
1.0
 40
1.0
 10
5.9911279868
 20
4.0335228679
 30
0.0
 10
5.9912447625
 20
4.0336294727
 30
0.0
 10
5.991454174
 20
4.0338250873
 30
0.0
 10
5.9916966014
 20
4.0340633181
 30
0.0
 10
5.9918558435
 20
4.0342262473
 30
0.0
 10
5.9919514285
 20
4.0343265604
 30
0.0
 10
5.9920311269
 20
4.0344122647
 30
0.0
 10
5.9920961681
 20
4.0344839668
 30
0.0
 10
5.992145382
 20
4.0345392548
 30
0.0
 10
5.9921837898
 20
4.0345836072
 30
0.0
 10
5.992202454
 20
4.034605196
 30
0.0
 10
5.9922265962
 20
4.0346343535
 30
0.0
 10
5.9921963445
 20
4.0345955828
 30
0.0
 10
5.9921786249
 20
4.0345716407
 30
0.0
 10
5.9921413427
 20
4.0345212902
 30
0.0
 10
5.9920989474
 20
4.0344619782
 30
0.0
 10
5.9920459942
 20
4.0343860836
 30
0.0
 10
5.9919854213
 20
4.0342965663
 30
0.0
 10
5.9918885738
 20
4.0341490601
 30
0.0
 10
5.9917515526
 20
4.0339296799
 30
0.0
 10
5.9915715952
 20
4.0336244361
 30
0.0
 10
5.9913721543
 20
4.033265898
 30
0.0
 10
5.9911573851
 20
4.0328559333
 30
0.0
 10
5.9909314973
 20
4.0323964429
 30
0.0
 10
5.9906986477
 20
4.0318893427
 30
0.0
 10
5.9904631867
 20
4.0313365811
 30
0.0
 10
5.9901409971
 20
4.0305205027
 30
0.0
 10
5.9897510224
 20
4.0294067963
 30
0.0
 10
5.9893261003
 20
4.0279674867
 30
0.0
 10
5.9889542466
 20
4.0264140325
 30
0.0
 10
5.9886528012
 20
4.0247675882
 30
0.0
 10
5.9884282043
 20
4.0230484185
 30
0.0
 10
5.9882879957
 20
4.0212744676
 30
0.0
 10
5.9882556797
 20
4.020074744
 30
0.0
 10
5.9882556797
 20
4.0194696953
 30
0.0
  0
SPLINE
  5
349
100
AcDbEntity
  8
ALL_FEATURES
100
AcDbSpline
 62
7
  6
CONTINUOUS
 70
0
 71
3
 72
19
 73
15
 74
0
 42
0.0000001
 43
0.0000001
 44
0.0000000001
 40
0.0
 40
0.0
 40
0.0
 40
0.0
 40
0.1169997193
 40
0.1473654263
 40
0.1781204123
 40
0.2406801544
 40
0.3690703479
 40
0.5
 40
0.6309296521
 40
0.7593198456
 40
0.8218795877
 40
0.8526345737
 40
0.8830002807
 40
1.0
 40
1.0
 40
1.0
 40
1.0
 10
5.8726107841
 20
3.9786995113
 30
0.0
 10
5.8766236513
 20
3.9815923769
 30
0.0
 10
5.8820448657
 20
3.9847547236
 30
0.0
 10
5.8889010051
 20
3.987869553
 30
0.0
 10
5.8937473598
 20
3.9898387852
 30
0.0
 10
5.9026353584
 20
3.9928446289
 30
0.0
 10
5.9159927211
 20
3.9957179037
 30
0.0
 10
5.9325056797
 20
3.9968702041
 30
0.0
 10
5.9490186382
 20
3.9957179037
 30
0.0
 10
5.9623760009
 20
3.9928446289
 30
0.0
 10
5.9712639996
 20
3.9898387852
 30
0.0
 10
5.9761103542
 20
3.987869553
 30
0.0
 10
5.9829664937
 20
3.9847547236
 30
0.0
 10
5.988387708
 20
3.9815923769
 30
0.0
 10
5.9924005752
 20
3.9786995113
 30
0.0
  0
SPLINE
  5
34A
100
AcDbEntity
  8
ALL_FEATURES
100
AcDbSpline
 62
7
  6
CONTINUOUS
 70
0
 71
3
 72
33
 73
29
 74
0
 42
0.0000001
 43
0.0000001
 44
0.0000000001
 40
0.0
 40
0.0
 40
0.0
 40
0.0
 40
0.0257445882
 40
0.0520110357
 40
0.0789446109
 40
0.1066531963
 40
0.1352112826
 40
0.1646632701
 40
0.195024454
 40
0.2262825013
 40
0.2912693794
 40
0.3249030803
 40
0.3591607808
 40
0.4290637467
 40
0.5000328945
 40
0.5710002731
 40
0.6408980679
 40
0.6751520336
 40
0.7087813235
 40
0.773757753
 40
0.8050100406
 40
0.8353652827
 40
0.8648113495
 40
0.8933636979
 40
0.9210669453
 40
0.9479957592
 40
0.9742582928
 40
1.0
 40
1.0
 40
1.0
 40
1.0
 10
5.8434148818
 20
3.9570963915
 30
0.0
 10
5.843872554
 20
3.9589453327
 30
0.0
 10
5.845025471
 20
3.9626278329
 30
0.0
 10
5.8474087992
 20
3.9679732663
 30
0.0
 10
5.8504426712
 20
3.9731472983
 30
0.0
 10
5.8541006059
 20
3.9781113753
 30
0.0
 10
5.8583554382
 20
3.9828274365
 30
0.0
 10
5.8631730022
 20
3.9872607528
 30
0.0
 10
5.8685170857
 20
3.9913783499
 30
0.0
 10
5.8763887491
 20
3.9964710261
 30
0.0
 10
5.8850521718
 20
4.0007245423
 30
0.0
 10
5.8942847757
 20
4.0041177498
 30
0.0
 10
5.9040769206
 20
4.0069804926
 30
0.0
 10
5.9168486958
 20
4.0093813608
 30
0.0
 10
5.9325314485
 20
4.0103416758
 30
0.0
 10
5.9482134343
 20
4.0093750739
 30
0.0
 10
5.9609834447
 20
4.0069690497
 30
0.0
 10
5.9707734028
 20
4.00410233
 30
0.0
 10
5.9800031823
 20
4.000705424
 30
0.0
 10
5.9886632098
 20
3.9964484131
 30
0.0
 10
5.9965308459
 20
3.9913525206
 30
0.0
 10
6.0018716111
 20
3.9872327471
 30
0.0
 10
6.0066856169
 20
3.9827974807
 30
0.0
 10
6.0109366436
 20
3.9780796735
 30
0.0
 10
6.0145905881
 20
3.9731141058
 30
0.0
 10
6.0176202808
 20
3.9679388193
 30
0.0
 10
6.0199992975
 20
3.9625923953
 30
0.0
 10
6.0211492085
 20
3.958909478
 30
0.0
 10
6.0216053754
 20
3.9570603843
 30
0.0
  0
SPLINE
  5
34B
100
AcDbEntity
  8
ALL_FEATURES
100
AcDbSpline
 62
7
  6
CONTINUOUS
 70
0
 71
3
 72
36
 73
32
 74
0
 42
0.0000001
 43
0.0000001
 44
0.0000000001
 40
0.0
 40
0.0
 40
0.0
 40
0.0
 40
0.0256709619
 40
0.0518296644
 40
0.0786286976
 40
0.1061917637
 40
0.1346098326
 40
0.1639395243
 40
0.1789589671
 40
0.194212332
 40
0.2254045443
 40
0.2574886872
 40
0.2904055769
 40
0.3240755283
 40
0.3584003651
 40
0.42851349
 40
0.4997600232
 40
0.571020997
 40
0.6411763059
 40
0.675531188
 40
0.7092359102
 40
0.7421911605
 40
0.7743161273
 40
0.8055504561
 40
0.8358585011
 40
0.8652309613
 40
0.8936903037
 40
0.9212917979
 40
0.9481244305
 40
0.9743099956
 40
1.0
 40
1.0
 40
1.0
 40
1.0
 10
5.8354654059
 20
4.1001622585
 30
0.0
 10
5.8358750288
 20
4.1022167134
 30
0.0
 10
5.8369624238
 20
4.1063170709
 30
0.0
 10
5.8393449038
 20
4.112290046
 30
0.0
 10
5.8424706635
 20
4.1180858076
 30
0.0
 10
5.8463130901
 20
4.1236572696
 30
0.0
 10
5.8508405352
 20
4.128960793
 30
0.0
 10
5.85512005
 20
4.1330910175
 30
0.0
 10
5.8588409531
 20
4.136225505
 30
0.0
 10
5.8628164036
 20
4.1392864384
 30
0.0
 10
5.8681419476
 20
4.1428655701
 30
0.0
 10
5.8749946182
 20
4.1467105592
 30
0.0
 10
5.8823029183
 20
4.1501082537
 30
0.0
 10
5.8900089945
 20
4.1530320643
 30
0.0
 10
5.900806148
 20
4.1562896509
 30
0.0
 10
5.9149240702
 20
4.159031654
 30
0.0
 10
5.9322840811
 20
4.1601493855
 30
0.0
 10
5.9496509887
 20
4.1590868931
 30
0.0
 10
5.9637847287
 20
4.1563901175
 30
0.0
 10
5.9746014419
 20
4.1531674754
 30
0.0
 10
5.9823258827
 20
4.1502684913
 30
0.0
 10
5.9896552952
 20
4.146894519
 30
0.0
 10
5.9965320474
 20
4.1430719093
 30
0.0
 10
6.0029012799
 20
4.1388301482
 30
0.0
 10
6.0087128407
 20
4.1342030076
 30
0.0
 10
6.0139198793
 20
4.1292258846
 30
0.0
 10
6.0184809795
 20
4.1239378855
 30
0.0
 10
6.0223591066
 20
4.1183800831
 30
0.0
 10
6.0255223507
 20
4.1125955508
 30
0.0
 10
6.0279437495
 20
4.106631303
 30
0.0
 10
6.0290581439
 20
4.1025343521
 30
0.0
 10
6.0294813251
 20
4.1004810604
 30
0.0
  0
SPLINE
  5
34C
100
AcDbEntity
  8
ALL_FEATURES
100
AcDbSpline
 62
7
  6
CONTINUOUS
 70
0
 71
3
 72
33
 73
29
 74
0
 42
0.0000001
 43
0.0000001
 44
0.0000000001
 40
0.0
 40
0.0
 40
0.0
 40
0.0
 40
0.0247995211
 40
0.0497303434
 40
0.0749151852
 40
0.1004702689
 40
0.1264980539
 40
0.1530866963
 40
0.1803079117
 40
0.2082163123
 40
0.236847902
 40
0.2662223507
 40
0.3271550002
 40
0.3587080033
 40
0.390925637
 40
0.4237584325
 40
0.4571456795
 40
0.4910198116
 40
0.5253046292
 40
0.5599191444
 40
0.5947778292
 40
0.6648475749
 40
0.7348071747
 40
0.8039332776
 40
0.8715465962
 40
0.9046084741
 40
0.9370776984
 40
1.0
 40
1.0
 40
1.0
 40
1.0
 10
5.8391667117
 20
4.0826532038
 30
0.0
 10
5.8391667117
 20
4.0842453687
 30
0.0
 10
5.8393306061
 20
4.0874405154
 30
0.0
 10
5.8400660718
 20
4.0922015398
 30
0.0
 10
5.8412873655
 20
4.0969120529
 30
0.0
 10
5.8429874144
 20
4.101546267
 30
0.0
 10
5.845157
 20
4.1060798269
 30
0.0
 10
5.847784178
 20
4.110488906
 30
0.0
 10
5.8508546244
 20
4.114750805
 30
0.0
 10
5.8543523425
 20
4.1188430835
 30
0.0
 10
5.8582585556
 20
4.1227453994
 30
0.0
 10
5.8640536828
 20
4.1277265082
 30
0.0
 10
5.8705244382
 20
4.1321750706
 30
0.0
 10
5.8775281025
 20
4.1360611138
 30
0.0
 10
5.8831306364
 20
4.1387312409
 30
0.0
 10
5.8889905742
 20
4.1411072615
 30
0.0
 10
5.8950775707
 20
4.1431781703
 30
0.0
 10
5.9013600857
 20
4.1449318553
 30
0.0
 10
5.9078049347
 20
4.1463606127
 30
0.0
 10
5.9143789532
 20
4.1474558039
 30
0.0
 10
5.9232839563
 20
4.1484664258
 30
0.0
 10
5.9345262675
 20
4.1488677499
 30
0.0
 10
5.9479478919
 20
4.1479768123
 30
0.0
 10
5.9610512619
 20
4.1457324515
 30
0.0
 10
5.9715614936
 20
4.1427491069
 30
0.0
 10
5.9795597873
 20
4.1397200491
 30
0.0
 10
5.9870907167
 20
4.1363518501
 30
0.0
 10
5.9924521571
 20
4.1333473508
 30
0.0
 10
5.9958344254
 20
4.1311384016
 30
0.0
  0
SPLINE
  5
34D
100
AcDbEntity
  8
ALL_FEATURES
100
AcDbSpline
 62
7
  6
CONTINUOUS
 70
0
 71
3
 72
20
 73
16
 74
0
 42
0.0000001
 43
0.0000001
 44
0.0000000001
 40
0.0
 40
0.0
 40
0.0
 40
0.0
 40
0.1396838166
 40
0.2077141813
 40
0.2745186642
 40
0.4044714854
 40
0.5298756444
 40
0.5910574287
 40
0.6513178572
 40
0.7107578909
 40
0.7694913899
 40
0.8276433504
 40
0.8853484779
 40
0.942752685
 40
1.0
 40
1.0
 40
1.0
 40
1.0
 10
5.9958344254
 20
4.1311384016
 30
0.0
 10
5.9981518057
 20
4.1296249276
 30
0.0
 10
6.0014965999
 20
4.1272115275
 30
0.0
 10
6.0056522916
 20
4.1236986935
 30
0.0
 10
6.0094770192
 20
4.120103951
 30
0.0
 10
6.0137691108
 20
4.1153596623
 30
0.0
 10
6.0174130188
 20
4.1102338431
 30
0.0
 10
6.019857368
 20
4.1059938181
 30
0.0
 10
6.0214437109
 20
4.1027768426
 30
0.0
 10
6.0227933254
 20
4.0995060102
 30
0.0
 10
6.0239026509
 20
4.0961899609
 30
0.0
 10
6.0247686286
 20
4.0928376341
 30
0.0
 10
6.0253888727
 20
4.0894579264
 30
0.0
 10
6.0257616834
 20
4.0860602339
 30
0.0
 10
6.0258446476
 20
4.0837875552
 30
0.0
 10
6.0258446476
 20
4.0826532038
 30
0.0
  0
SPLINE
  5
34E
100
AcDbEntity
  8
ALL_FEATURES
100
AcDbSpline
 62
7
  6
CONTINUOUS
 70
0
 71
3
 72
19
 73
15
 74
0
 42
0.0000001
 43
0.0000001
 44
0.0000000001
 40
0.0
 40
0.0
 40
0.0
 40
0.0
 40
0.0567514144
 40
0.113681133
 40
0.1709466249
 40
0.2287112709
 40
0.287124685
 40
0.3463233434
 40
0.4064295478
 40
0.467550961
 40
0.593118707
 40
0.723607556
 40
0.8592481185
 40
1.0
 40
1.0
 40
1.0
 40
1.0
 10
6.0258446476
 20
4.0826532038
 30
0.0
 10
6.0258446476
 20
4.0814466487
 30
0.0
 10
6.0257507328
 20
4.0790287057
 30
0.0
 10
6.025328864
 20
4.0754154395
 30
0.0
 10
6.024627168
 20
4.0718238258
 30
0.0
 10
6.0236477435
 20
4.0682652454
 30
0.0
 10
6.0223938894
 20
4.0647502707
 30
0.0
 10
6.0208691654
 20
4.0612897524
 30
0.0
 10
6.019078551
 20
4.0578938346
 30
0.0
 10
6.016319432
 20
4.0534268965
 30
0.0
 10
6.0122115979
 20
4.0480540405
 30
0.0
 10
6.0063731522
 20
4.0420898131
 30
0.0
 10
5.9996519972
 20
4.0366179406
 30
0.0
 10
5.9947233622
 20
4.0333969025
 30
0.0
 10
5.9921429999
 20
4.0318815166
 30
0.0
  0
SPLINE
  5
34F
100
AcDbEntity
  8
ALL_FEATURES
100
AcDbSpline
 62
7
  6
CONTINUOUS
 70
0
 71
3
 72
20
 73
16
 74
0
 42
0.0000001
 43
0.0000001
 44
0.0000000001
 40
0.0
 40
0.0
 40
0.0
 40
0.0
 40
0.1404601434
 40
0.2088229176
 40
0.2759088856
 40
0.4062420652
 40
0.5317566431
 40
0.5928908839
 40
0.6530365599
 40
0.7122987558
 40
0.770798074
 40
0.8286680088
 40
0.8860534099
 40
0.9431116174
 40
1.0
 40
1.0
 40
1.0
 40
1.0
 10
5.8718386018
 20
4.0324951532
 30
0.0
 10
5.8693311313
 20
4.0340114786
 30
0.0
 10
5.8657065708
 20
4.036445785
 30
0.0
 10
5.8611925256
 20
4.040020694
 30
0.0
 10
5.8570358357
 20
4.0436939269
 30
0.0
 10
5.8523638235
 20
4.0485695432
 30
0.0
 10
5.8483858068
 20
4.0538758296
 30
0.0
 10
5.8457148958
 20
4.0582813613
 30
0.0
 10
5.8439813164
 20
4.0616285854
 30
0.0
 10
5.8425057095
 20
4.0650374775
 30
0.0
 10
5.8412922093
 20
4.06849812
 30
0.0
 10
5.8403446142
 20
4.0720003573
 30
0.0
 10
5.8396656951
 20
4.0755339725
 30
0.0
 10
5.8392575502
 20
4.0790882287
 30
0.0
 10
5.8391667117
 20
4.0814663905
 30
0.0
 10
5.8391667117
 20
4.0826532038
 30
0.0
  0
SPLINE
  5
350
100
AcDbEntity
  8
ALL_FEATURES
100
AcDbSpline
 62
7
  6
CONTINUOUS
 70
0
 71
3
 72
39
 73
35
 74
0
 42
0.0000001
 43
0.0000001
 44
0.0000000001
 40
0.0
 40
0.0
 40
0.0
 40
0.0
 40
0.0256712488
 40
0.0517602471
 40
0.0784477313
 40
0.1058841757
 40
0.1341758209
 40
0.1633940248
 40
0.1935740357
 40
0.2247175079
 40
0.2567939869
 40
0.2897457518
 40
0.3234911308
 40
0.3579279116
 40
0.3929375603
 40
0.4283879052
 40
0.4641374183
 40
0.5000377541
 40
0.5359375409
 40
0.5716854088
 40
0.6071330585
 40
0.6421390081
 40
0.6765711849
 40
0.7103111448
 40
0.7432568312
 40
0.7753267095
 40
0.8064632707
 40
0.8366362488
 40
0.8658475647
 40
0.8941327002
 40
0.9215632836
 40
0.9482458269
 40
0.9743311244
 40
1.0
 40
1.0
 40
1.0
 40
1.0
 10
5.838421045
 20
3.9526523162
 30
0.0
 10
5.8387084027
 20
3.9547042848
 30
0.0
 10
5.8395570879
 20
3.9588086447
 30
0.0
 10
5.841615053
 20
3.9648128027
 30
0.0
 10
5.8444439966
 20
3.9706531574
 30
0.0
 10
5.848018532
 20
3.9762793815
 30
0.0
 10
5.8523061988
 20
3.9816456073
 30
0.0
 10
5.8572702888
 20
3.9867065036
 30
0.0
 10
5.8628675887
 20
3.991420913
 30
0.0
 10
5.8690506048
 20
3.995750076
 30
0.0
 10
5.8757672408
 20
3.9996581141
 30
0.0
 10
5.8829606594
 20
4.0031132761
 30
0.0
 10
5.8905707225
 20
4.0060861771
 30
0.0
 10
5.8985330911
 20
4.0085532402
 30
0.0
 10
5.9067812424
 20
4.0104926038
 30
0.0
 10
5.9152455195
 20
4.0118896626
 30
0.0
 10
5.9238550316
 20
4.0127310418
 30
0.0
 10
5.9325372274
 20
4.0130115502
 30
0.0
 10
5.9412191576
 20
4.0127269515
 30
0.0
 10
5.9498278762
 20
4.0118815119
 30
0.0
 10
5.9582908387
 20
4.0104804692
 30
0.0
 10
5.9665371632
 20
4.0085372109
 30
0.0
 10
5.9744972136
 20
4.0060664016
 30
0.0
 10
5.9821044777
 20
4.0030899012
 30
0.0
 10
5.9892946529
 20
3.9996313529
 30
0.0
 10
5.9960076102
 20
3.9957201288
 30
0.0
 10
6.0021865652
 20
3.9913880481
 30
0.0
 10
6.0077794266
 20
3.9866709705
 30
0.0
 10
6.0127387674
 20
3.9816077165
 30
0.0
 10
6.0170213732
 20
3.9762394281
 30
0.0
 10
6.0205906191
 20
3.9706114906
 30
0.0
 10
6.0234140428
 20
3.9647697556
 30
0.0
 10
6.0254663345
 20
3.9587645877
 30
0.0
 10
6.0263111013
 20
3.9546599171
 30
0.0
 10
6.0265965173
 20
3.9526078708
 30
0.0
  0
SPLINE
  5
351
100
AcDbEntity
  8
ALL_FEATURES
100
AcDbSpline
 62
7
  6
CONTINUOUS
 70
0
 71
3
 72
25
 73
21
 74
0
 42
0.0000001
 43
0.0000001
 44
0.0000000001
 40
0.0
 40
0.0
 40
0.0
 40
0.0
 40
0.0576243491
 40
0.1170481843
 40
0.1781213781
 40
0.2092227007
 40
0.2406578981
 40
0.3043920894
 40
0.3690623402
 40
0.4343698138
 40
0.5
 40
0.5656301862
 40
0.6309376598
 40
0.6956079106
 40
0.7593421019
 40
0.7907772993
 40
0.8218786219
 40
0.8829518157
 40
0.9423756509
 40
1.0
 40
1.0
 40
1.0
 40
1.0
 10
5.8520924599
 20
3.9639061649
 30
0.0
 10
5.8547473527
 20
3.9658202276
 30
0.0
 10
5.8603287836
 20
3.9694522646
 30
0.0
 10
5.8692725805
 20
3.9742052264
 30
0.0
 10
5.8771947961
 20
3.9776047402
 30
0.0
 10
5.8838003322
 20
3.979987637
 30
0.0
 10
5.8906372019
 20
3.9821592602
 30
0.0
 10
5.899441643
 20
3.9844106288
 30
0.0
 10
5.9102811496
 20
3.9863505948
 30
0.0
 10
5.9213387852
 20
3.9875216407
 30
0.0
 10
5.9325056797
 20
3.9879138954
 30
0.0
 10
5.9436725742
 20
3.9875216407
 30
0.0
 10
5.9547302097
 20
3.9863505948
 30
0.0
 10
5.9655697164
 20
3.9844106288
 30
0.0
 10
5.9743741574
 20
3.9821592602
 30
0.0
 10
5.9812110271
 20
3.979987637
 30
0.0
 10
5.9878165633
 20
3.9776047402
 30
0.0
 10
5.9957387789
 20
3.9742052264
 30
0.0
 10
6.0046825758
 20
3.9694522646
 30
0.0
 10
6.0102640067
 20
3.9658202276
 30
0.0
 10
6.0129188994
 20
3.9639061649
 30
0.0
  0
SPLINE
  5
352
100
AcDbEntity
  8
ALL_FEATURES
100
AcDbSpline
 62
7
  6
CONTINUOUS
 70
0
 71
3
 72
22
 73
18
 74
0
 42
0.0000001
 43
0.0000001
 44
0.0000000001
 40
0.0
 40
0.0
 40
0.0
 40
0.0
 40
0.0676411571
 40
0.1344463504
 40
0.2004120926
 40
0.2655482976
 40
0.3933787739
 40
0.4562075373
 40
0.518367224
 40
0.5799199858
 40
0.6409327861
 40
0.7014907302
 40
0.7616627391
 40
0.8215092505
 40
0.8811092721
 40
0.9405674135
 40
1.0
 40
1.0
 40
1.0
 40
1.0
 10
5.8747868423
 20
4.5650588249
 30
0.0
 10
5.8732863997
 20
4.5642424457
 30
0.0
 10
5.8703444798
 20
4.5625439883
 30
0.0
 10
5.8660989001
 20
4.559784985
 30
0.0
 10
5.8620606204
 20
4.5568356565
 30
0.0
 10
5.8570041764
 20
4.5526858292
 30
0.0
 10
5.8523744865
 20
4.5481535725
 30
0.0
 10
5.848255147
 20
4.5432711297
 30
0.0
 10
5.8454576649
 20
4.5394763984
 30
0.0
 10
5.8429486106
 20
4.5355393872
 30
0.0
 10
5.8407403028
 20
4.531471786
 30
0.0
 10
5.8388468517
 20
4.5272864398
 30
0.0
 10
5.8372790358
 20
4.5229997441
 30
0.0
 10
5.8360464596
 20
4.5186298629
 30
0.0
 10
5.8351601118
 20
4.5141949788
 30
0.0
 10
5.8346252688
 20
4.5097149003
 30
0.0
 10
5.8345056797
 20
4.5067111766
 30
0.0
 10
5.8345056797
 20
4.5052103117
 30
0.0
  0
SPLINE
  5
353
100
AcDbEntity
  8
ALL_FEATURES
100
AcDbSpline
 62
7
  6
CONTINUOUS
 70
0
 71
3
 72
18
 73
14
 74
0
 42
0.0000001
 43
0.0000001
 44
0.0000000001
 40
0.0
 40
0.0
 40
0.0
 40
0.0
 40
0.0596697824
 40
0.119357651
 40
0.1791727972
 40
0.2392147358
 40
0.3601861266
 40
0.4828543503
 40
0.5450357803
 40
0.6078365305
 40
0.7354657551
 40
0.866130385
 40
1.0
 40
1.0
 40
1.0
 40
1.0
 10
6.0305056797
 20
4.5052103117
 30
0.0
 10
6.0305056797
 20
4.5066477242
 30
0.0
 10
6.0303960228
 20
4.5095241803
 30
0.0
 10
6.0299054042
 20
4.5138162509
 30
0.0
 10
6.0290921126
 20
4.5180685757
 30
0.0
 10
6.0275799741
 20
4.523674086
 30
0.0
 10
6.0249046245
 20
4.5305118608
 30
0.0
 10
6.0212768001
 20
4.536950957
 30
0.0
 10
6.0178520219
 20
4.5418399594
 30
0.0
 10
6.0140483472
 20
4.5465945893
 30
0.0
 10
6.0086646321
 20
4.5521765128
 30
0.0
 10
6.001358528
 20
4.5581934516
 30
0.0
 10
5.9960255212
 20
4.5617059856
 30
0.0
 10
5.9932482599
 20
4.5633450253
 30
0.0
  0
SPLINE
  5
354
100
AcDbEntity
  8
ALL_FEATURES
100
AcDbSpline
 62
7
  6
CONTINUOUS
 70
0
 71
3
 72
26
 73
22
 74
0
 42
0.0000001
 43
0.0000001
 44
0.0000000001
 40
0.0
 40
0.0
 40
0.0
 40
0.0
 40
0.0270680406
 40
0.054157816
 40
0.0813112519
 40
0.1085683037
 40
0.1635269286
 40
0.1913381248
 40
0.2194066402
 40
0.2764260167
 40
0.3348418115
 40
0.394822833
 40
0.4564700968
 40
0.519812714
 40
0.5848114986
 40
0.6513601877
 40
0.7192931799
 40
0.7883877643
 40
0.858401454
 40
0.9290667365
 40
1.0
 40
1.0
 40
1.0
 40
1.0
 10
5.8345387033
 20
4.6468482662
 30
0.0
 10
5.8344953599
 20
4.6456224169
 30
0.0
 10
5.8344941452
 20
4.6431658425
 30
0.0
 10
5.8347485509
 20
4.6394871704
 30
0.0
 10
5.835256999
 20
4.6358259376
 30
0.0
 10
5.8362734993
 20
4.6309720441
 30
0.0
 10
5.8377929402
 20
4.6262048177
 30
0.0
 10
5.8397760718
 20
4.6215873437
 30
0.0
 10
5.8420912154
 20
4.6170214954
 30
0.0
 10
5.8455685249
 20
4.611505985
 30
0.0
 10
5.8505715001
 20
4.6053076335
 30
0.0
 10
5.8563667473
 20
4.599542982
 30
0.0
 10
5.8628907595
 20
4.5942586429
 30
0.0
 10
5.8700759873
 20
4.589493458
 30
0.0
 10
5.8778529135
 20
4.5852846953
 30
0.0
 10
5.8861468866
 20
4.5816639405
 30
0.0
 10
5.8948795732
 20
4.5786604393
 30
0.0
 10
5.9039686773
 20
4.5762977091
 30
0.0
 10
5.9133299341
 20
4.5745953552
 30
0.0
 10
5.9228722517
 20
4.5735694316
 30
0.0
 10
5.9292912678
 20
4.5733401013
 30
0.0
 10
5.9325056797
 20
4.5733401013
 30
0.0
  0
SPLINE
  5
355
100
AcDbEntity
  8
ALL_FEATURES
100
AcDbSpline
 62
7
  6
CONTINUOUS
 70
0
 71
3
 72
44
 73
40
 74
0
 42
0.0000001
 43
0.0000001
 44
0.0000000001
 40
0.0
 40
0.0
 40
0.0
 40
0.0
 40
0.0005533916
 40
0.0008314054
 40
0.000868141
 40
0.000899154
 40
0.0009974475
 40
0.0011626655
 40
0.0016924003
 40
0.0024854454
 40
0.0035389446
 40
0.0048496603
 40
0.0064134377
 40
0.0082260264
 40
0.0125807624
 40
0.0178805434
 40
0.024092597
 40
0.0311847734
 40
0.03912559
 40
0.0478842773
 40
0.057430828
 40
0.0787708372
 40
0.1029183174
 40
0.1296404802
 40
0.1587067888
 40
0.1898927025
 40
0.2229811175
 40
0.2577640403
 40
0.2940465489
 40
0.370349269
 40
0.4504136249
 40
0.4914122234
 40
0.5328230924
 40
0.6162072258
 40
0.6992290771
 40
0.780527574
 40
0.8587411364
 40
0.9324146845
 40
1.0
 40
1.0
 40
1.0
 40
1.0
 10
5.8728064942
 20
4.561089412
 30
0.0
 10
5.8728033514
 20
4.5610855986
 30
0.0
 10
5.8727979262
 20
4.5610788652
 30
0.0
 10
5.8727946041
 20
4.5610748734
 30
0.0
 10
5.8727916112
 20
4.5610709257
 30
0.0
 10
5.8727930943
 20
4.5610726653
 30
0.0
 10
5.8727943302
 20
4.5610742537
 30
0.0
 10
5.8727990658
 20
4.5610801948
 30
0.0
 10
5.8728069034
 20
4.5610903875
 30
0.0
 10
5.8728198612
 20
4.5611074734
 30
0.0
 10
5.8728365921
 20
4.5611300527
 30
0.0
 10
5.8728572414
 20
4.5611584491
 30
0.0
 10
5.8728815639
 20
4.5611924971
 30
0.0
 10
5.8729212545
 20
4.5612489907
 30
0.0
 10
5.8729791131
 20
4.5613334778
 30
0.0
 10
5.8730574622
 20
4.5614515358
 30
0.0
 10
5.8731472896
 20
4.5615912923
 30
0.0
 10
5.8732474854
 20
4.5617523968
 30
0.0
 10
5.8733569369
 20
4.5619344972
 30
0.0
 10
5.8734745321
 20
4.5621372431
 30
0.0
 10
5.8736472297
 20
4.5624463009
 30
0.0
 10
5.8738758627
 20
4.5628814392
 30
0.0
 10
5.8741559636
 20
4.5634623706
 30
0.0
 10
5.8744453361
 20
4.5641150221
 30
0.0
 10
5.8747378121
 20
4.5648346444
 30
0.0
 10
5.8750273169
 20
4.5656164091
 30
0.0
 10
5.8753078407
 20
4.5664554725
 30
0.0
 10
5.8755730304
 20
4.5673471253
 30
0.0
 10
5.8759057892
 20
4.5686205328
 30
0.0
 10
5.876259771
 20
4.5703052722
 30
0.0
 10
5.8765141792
 20
4.5720505116
 30
0.0
 10
5.8766536259
 20
4.5734948899
 30
0.0
 10
5.8767459028
 20
4.5749727519
 30
0.0
 10
5.8767711354
 20
4.5768296982
 30
0.0
 10
5.8766630832
 20
4.5790403968
 30
0.0
 10
5.876419474
 20
4.5811940375
 30
0.0
 10
5.8760463272
 20
4.5832441686
 30
0.0
 10
5.87557513
 20
4.5851477049
 30
0.0
 10
5.8751962366
 20
4.5863519576
 30
0.0
 10
5.8749949246
 20
4.5869209132
 30
0.0
  0
SPLINE
  5
356
100
AcDbEntity
  8
ALL_FEATURES
100
AcDbSpline
 62
7
  6
CONTINUOUS
 70
0
 71
3
 72
11
 73
7
 74
0
 42
0.0000001
 43
0.0000001
 44
0.0000000001
 40
0.0
 40
0.0
 40
0.0
 40
0.0
 40
0.2482114859
 40
0.4971482339
 40
0.7475162577
 40
1.0
 40
1.0
 40
1.0
 40
1.0
 10
5.8345056797
 20
4.495839034
 30
0.0
 10
5.8345056797
 20
4.494588227
 30
0.0
 10
5.834601988
 20
4.4920819174
 30
0.0
 10
5.835033812
 20
4.4883362927
 30
0.0
 10
5.8357515166
 20
4.4846128945
 30
0.0
 10
5.8364165559
 20
4.4821648854
 30
0.0
 10
5.8367946085
 20
4.4809500128
 30
0.0
  0
SPLINE
  5
357
100
AcDbEntity
  8
ALL_FEATURES
100
AcDbSpline
 62
7
  6
CONTINUOUS
 70
0
 71
3
 72
11
 73
7
 74
0
 42
0.0000001
 43
0.0000001
 44
0.0000000001
 40
0.0
 40
0.0
 40
0.0
 40
0.0
 40
0.2482205045
 40
0.4971625823
 40
0.7475287053
 40
1.0
 40
1.0
 40
1.0
 40
1.0
 10
6.0305056797
 20
4.495839034
 30
0.0
 10
6.0305056797
 20
4.4945914614
 30
0.0
 10
6.0304098702
 20
4.4920916569
 30
0.0
 10
6.0299802782
 20
4.4883556818
 30
0.0
 10
6.0292662782
 20
4.48464176
 30
0.0
 10
6.0286046492
 20
4.482199806
 30
0.0
 10
6.0282285232
 20
4.4809878938
 30
0.0
  0
SPLINE
  5
358
100
AcDbEntity
  8
ALL_FEATURES
100
AcDbSpline
 62
7
  6
CONTINUOUS
 70
0
 71
3
 72
23
 73
19
 74
0
 42
0.0000001
 43
0.0000001
 44
0.0000000001
 40
0.0
 40
0.0
 40
0.0
 40
0.0
 40
0.0618976863
 40
0.1289845603
 40
0.2001110382
 40
0.2741549112
 40
0.3119358934
 40
0.3500476928
 40
0.4267514878
 40
0.5032508775
 40
0.5785105954
 40
0.7210841498
 40
0.7862285258
 40
0.845673591
 40
0.8981748262
 40
0.9423727173
 40
0.9768037363
 40
1.0
 40
1.0
 40
1.0
 40
1.0
 10
5.9900172563
 20
4.5869208291
 30
0.0
 10
5.9898342331
 20
4.5864062344
 30
0.0
 10
5.98948574
 20
4.5853219024
 30
0.0
 10
5.9890489741
 20
4.5836100009
 30
0.0
 10
5.9886897751
 20
4.5817708604
 30
0.0
 10
5.9884710133
 20
4.5801704167
 30
0.0
 10
5.9883503072
 20
4.5788527428
 30
0.0
 10
5.9882687762
 20
4.5775085461
 30
0.0
 10
5.9882412939
 20
4.5758196316
 30
0.0
 10
5.9883233976
 20
4.573804265
 30
0.0
 10
5.9885778112
 20
4.571218453
 30
0.0
 10
5.9890450857
 20
4.5687585468
 30
0.0
 10
5.9896830446
 20
4.5664881682
 30
0.0
 10
5.9901931049
 20
4.565010051
 30
0.0
 10
5.9907220109
 20
4.5637369554
 30
0.0
 10
5.9912253232
 20
4.5626944607
 30
0.0
 10
5.9916602066
 20
4.5619076347
 30
0.0
 10
5.9919336077
 20
4.5614784578
 30
0.0
 10
5.9920496646
 20
4.5613098624
 30
0.0
  0
SPLINE
  5
359
100
AcDbEntity
  8
ALL_FEATURES
100
AcDbSpline
 62
7
  6
CONTINUOUS
 70
0
 71
3
 72
26
 73
22
 74
0
 42
0.0000001
 43
0.0000001
 44
0.0000000001
 40
0.0
 40
0.0
 40
0.0
 40
0.0
 40
0.0709361275
 40
0.1416038494
 40
0.2116194582
 40
0.2807156171
 40
0.3486496687
 40
0.4151987665
 40
0.4801974965
 40
0.5435396359
 40
0.6051860803
 40
0.6651659623
 40
0.6945709164
 40
0.7236041401
 40
0.7806224442
 40
0.808690969
 40
0.8365020279
 40
0.891460508
 40
0.9458404772
 40
0.9729308415
 40
1.0
 40
1.0
 40
1.0
 40
1.0
 10
5.9325056797
 20
4.5733401013
 30
0.0
 10
5.9357205642
 20
4.5733401013
 30
0.0
 10
5.9421405061
 20
4.573569497
 30
0.0
 10
5.9516841532
 20
4.5745957166
 30
0.0
 10
5.961046632
 20
4.5762985426
 30
0.0
 10
5.9701368172
 20
4.5786619269
 30
0.0
 10
5.9788704257
 20
4.5816662053
 30
0.0
 10
5.9871651161
 20
4.5852879169
 30
0.0
 10
5.9949425312
 20
4.5894976963
 30
0.0
 10
6.002128097
 20
4.5942641162
 30
0.0
 10
6.0086518906
 20
4.5995493904
 30
0.0
 10
6.0135138343
 20
4.6043872105
 30
0.0
 10
6.016996052
 20
4.6084743333
 30
0.0
 10
6.0201606553
 20
4.6126441019
 30
0.0
 10
6.0229263605
 20
4.6170320348
 30
0.0
 10
6.0252405253
 20
4.6215986452
 30
0.0
 10
6.0272230104
 20
4.6262173716
 30
0.0
 10
6.0291155181
 20
4.6321582329
 30
0.0
 10
6.0301796434
 20
4.6382703268
 30
0.0
 10
6.030517842
 20
4.6431809134
 30
0.0
 10
6.0305157636
 20
4.6456379217
 30
0.0
 10
6.0304720307
 20
4.6468639388
 30
0.0
  0
SPLINE
  5
35A
100
AcDbEntity
  8
ALL_FEATURES
100
AcDbSpline
 62
7
  6
CONTINUOUS
 70
0
 71
3
 72
26
 73
22
 74
0
 42
0.0000001
 43
0.0000001
 44
0.0000000001
 40
0.0
 40
0.0
 40
0.0
 40
0.0
 40
0.0255896578
 40
0.0513436681
 40
0.0773111214
 40
0.1035373396
 40
0.1569075658
 40
0.2117697523
 40
0.2398404922
 40
0.2683600514
 40
0.3267847581
 40
0.3871334268
 40
0.449409257
 40
0.5135514079
 40
0.5794455639
 40
0.6469299323
 40
0.7157961774
 40
0.7858025087
 40
0.8567029936
 40
0.9282274894
 40
1.0
 40
1.0
 40
1.0
 40
1.0
 10
6.0265960525
 20
4.643084924
 30
0.0
 10
6.0264536383
 20
4.6420618686
 30
0.0
 10
6.0261015206
 20
4.6400178142
 30
0.0
 10
6.0253760973
 20
4.6369806273
 30
0.0
 10
6.0244533201
 20
4.6339704137
 30
0.0
 10
6.0229551449
 20
4.6299789934
 30
0.0
 10
6.0205872709
 20
4.6250801662
 30
0.0
 10
6.0176333235
 20
4.6204244636
 30
0.0
 10
6.0149247259
 20
4.6168302864
 30
0.0
 10
6.0119384145
 20
4.6132732041
 30
0.0
 10
6.0077703155
 20
4.6090187063
 30
0.0
 10
6.002175441
 20
4.6043016411
 30
0.0
 10
5.9959941203
 20
4.599969472
 30
0.0
 10
5.9892788078
 20
4.5960584605
 30
0.0
 10
5.982086141
 20
4.5926003029
 30
0.0
 10
5.9744763229
 20
4.589624605
 30
0.0
 10
5.9665140834
 20
4.5871548397
 30
0.0
 10
5.9582656721
 20
4.585212497
 30
0.0
 10
5.9497993918
 20
4.5838128485
 30
0.0
 10
5.9411886507
 20
4.5829696581
 30
0.0
 10
5.9354027593
 20
4.5827810337
 30
0.0
 10
5.9325056797
 20
4.5827810337
 30
0.0
  0
SPLINE
  5
35B
100
AcDbEntity
  8
ALL_FEATURES
100
AcDbSpline
 62
7
  6
CONTINUOUS
 70
0
 71
3
 72
14
 73
10
 74
0
 42
0.0000001
 43
0.0000001
 44
0.0000000001
 40
0.0
 40
0.0
 40
0.0
 40
0.0
 40
0.2339249847
 40
0.3561061634
 40
0.481187021
 40
0.6086735993
 40
0.7380524514
 40
0.8687585588
 40
1.0
 40
1.0
 40
1.0
 40
1.0
 10
5.8726108429
 20
4.6169988
 30
0.0
 10
5.8766234134
 20
4.61410558
 30
0.0
 10
5.8831730177
 20
4.6102854442
 30
0.0
 10
5.8925300533
 20
4.6062717549
 30
0.0
 10
5.9000455503
 20
4.6037292284
 30
0.0
 10
5.9078777423
 20
4.6017263449
 30
0.0
 10
5.9159528064
 20
4.6002809609
 30
0.0
 10
5.9241888773
 20
4.5994095645
 30
0.0
 10
5.9297302887
 20
4.5992144842
 30
0.0
 10
5.9325056797
 20
4.5992144842
 30
0.0
  0
SPLINE
  5
35C
100
AcDbEntity
  8
ALL_FEATURES
100
AcDbSpline
 62
7
  6
CONTINUOUS
 70
0
 71
3
 72
35
 73
31
 74
0
 42
0.0000001
 43
0.0000001
 44
0.0000000001
 40
0.0
 40
0.0
 40
0.0
 40
0.0
 40
0.0651971212
 40
0.096566875
 40
0.1271059683
 40
0.1568415091
 40
0.1858228028
 40
0.2141200469
 40
0.2418263904
 40
0.2690536701
 40
0.2959326982
 40
0.3226065526
 40
0.3492268279
 40
0.3759465467
 40
0.4029155382
 40
0.4302736143
 40
0.4581463852
 40
0.4866397169
 40
0.5158402592
 40
0.5458110261
 40
0.5765950361
 40
0.6082122279
 40
0.64066405
 40
0.7079402047
 40
0.742716858
 40
0.7781600446
 40
0.8507086348
 40
0.8876680299
 40
0.92494416
 40
1.0
 40
1.0
 40
1.0
 40
1.0
 10
5.9931449291
 20
4.5632198695
 30
0.0
 10
5.9966534015
 20
4.5610996255
 30
0.0
 10
6.0016537425
 20
4.5576064874
 30
0.0
 10
6.007644593
 20
4.5523075748
 30
0.0
 10
6.0116489346
 20
4.5481545923
 30
0.0
 10
6.0151957399
 20
4.543796521
 30
0.0
 10
6.0182655057
 20
4.539258615
 30
0.0
 10
6.0208383376
 20
4.5345660201
 30
0.0
 10
6.0229002778
 20
4.5297466948
 30
0.0
 10
6.0244367359
 20
4.5248278801
 30
0.0
 10
6.0254398513
 20
4.5198390891
 30
0.0
 10
6.0259015132
 20
4.5148095172
 30
0.0
 10
6.0258201853
 20
4.509769435
 30
0.0
 10
6.0251953726
 20
4.5047489568
 30
0.0
 10
6.0240316153
 20
4.4997780644
 30
0.0
 10
6.0223362783
 20
4.4948860808
 30
0.0
 10
6.0201196059
 20
4.4901019192
 30
0.0
 10
6.0173960702
 20
4.4854528882
 30
0.0
 10
6.0141811028
 20
4.4809665063
 30
0.0
 10
6.010495151
 20
4.47666745
 30
0.0
 10
6.0063588982
 20
4.4725812975
 30
0.0
 10
6.0017973157
 20
4.468729923
 30
0.0
 10
5.9951043261
 20
4.4638816276
 30
0.0
 10
5.9877393712
 20
4.4596627713
 30
0.0
 10
5.9798600778
 20
4.4560955168
 30
0.0
 10
5.971465209
 20
4.452902205
 30
0.0
 10
5.9626674698
 20
4.4504317566
 30
0.0
 10
5.9536008781
 20
4.4486869939
 30
0.0
 10
5.9442958612
 20
4.4474229684
 30
0.0
 10
5.9372249289
 20
4.4470444496
 30
0.0
 10
5.9325056797
 20
4.4470444496
 30
0.0
  0
SPLINE
  5
35D
100
AcDbEntity
  8
ALL_FEATURES
100
AcDbSpline
 62
7
  6
CONTINUOUS
 70
0
 71
3
 72
23
 73
19
 74
0
 42
0.0000001
 43
0.0000001
 44
0.0000000001
 40
0.0
 40
0.0
 40
0.0
 40
0.0
 40
0.1424085834
 40
0.2129548222
 40
0.2826781451
 40
0.351329082
 40
0.4186830773
 40
0.4845441673
 40
0.5487504822
 40
0.6111813076
 40
0.6717610646
 40
0.7304755753
 40
0.7591531789
 40
0.7873872533
 40
0.8425738942
 40
0.89623078
 40
0.9486042398
 40
1.0
 40
1.0
 40
1.0
 40
1.0
 10
5.9325056797
 20
4.4359138472
 30
0.0
 10
5.9266899739
 20
4.4359138472
 30
0.0
 10
5.9179794907
 20
4.4364607881
 30
0.0
 10
5.906575411
 20
4.4382882438
 30
0.0
 10
5.898250507
 20
4.4401868443
 30
0.0
 10
5.8901970166
 20
4.4426024635
 30
0.0
 10
5.8824778721
 20
4.4455162784
 30
0.0
 10
5.875154507
 20
4.4489058301
 30
0.0
 10
5.8682852228
 20
4.4527448412
 30
0.0
 10
5.861924544
 20
4.4570029621
 30
0.0
 10
5.8561244007
 20
4.4616474867
 30
0.0
 10
5.8517613955
 20
4.4658425182
 30
0.0
 10
5.8486046291
 20
4.4693565316
 30
0.0
 10
5.8457178215
 20
4.4729115024
 30
0.0
 10
5.8425247974
 20
4.4775232391
 30
0.0
 10
5.8393837721
 20
4.4833251671
 30
0.0
 10
5.8369867846
 20
4.4893058855
 30
0.0
 10
5.8358918601
 20
4.4934127344
 30
0.0
 10
5.835478641
 20
4.4954705652
 30
0.0
  0
SPLINE
  5
35E
100
AcDbEntity
  8
ALL_FEATURES
100
AcDbSpline
 62
7
  6
CONTINUOUS
 70
0
 71
3
 72
13
 73
9
 74
0
 42
0.0000001
 43
0.0000001
 44
0.0000000001
 40
0.0
 40
0.0
 40
0.0
 40
0.0
 40
0.1281117173
 40
0.2559280852
 40
0.4463917944
 40
0.6344957164
 40
0.819307519
 40
1.0
 40
1.0
 40
1.0
 40
1.0
 10
5.9325056797
 20
4.4470444496
 30
0.0
 10
5.9303422308
 20
4.4470444496
 30
0.0
 10
5.9260195078
 20
4.4471506879
 30
0.0
 10
5.9184991178
 20
4.4477070047
 30
0.0
 10
5.9100179475
 20
4.4488654508
 30
0.0
 10
5.900707051
 20
4.4508655087
 30
0.0
 10
5.8917389392
 20
4.4535394655
 30
0.0
 10
5.8859789867
 20
4.4557814168
 30
0.0
 10
5.8831861096
 20
4.4570105728
 30
0.0
  0
SPLINE
  5
35F
100
AcDbEntity
  8
ALL_FEATURES
100
AcDbSpline
 62
7
  6
CONTINUOUS
 70
0
 71
3
 72
9
 73
5
 74
0
 42
0.0000001
 43
0.0000001
 44
0.0000000001
 40
0.0
 40
0.0
 40
0.0
 40
0.0
 40
0.2543319096
 40
1.0
 40
1.0
 40
1.0
 40
1.0
 10
5.8831861096
 20
4.4570105728
 30
0.0
 10
5.8821392104
 20
4.4574713171
 30
0.0
 10
5.8780528017
 20
4.4593496693
 30
0.0
 10
5.8740896051
 20
4.4614987284
 30
0.0
 10
5.8712335472
 20
4.4632562138
 30
0.0
  0
SPLINE
  5
360
100
AcDbEntity
  8
ALL_FEATURES
100
AcDbSpline
 62
7
  6
CONTINUOUS
 70
0
 71
3
 72
33
 73
29
 74
0
 42
0.0000001
 43
0.0000001
 44
0.0000000001
 40
0.0
 40
0.0
 40
0.0
 40
0.0
 40
0.0698370985
 40
0.1038324694
 40
0.1372021295
 40
0.1699516997
 40
0.20209444
 40
0.2646256023
 40
0.3250896283
 40
0.354683282
 40
0.3839173979
 40
0.4128593329
 40
0.4415810486
 40
0.4701585741
 40
0.4986711701
 40
0.5271986709
 40
0.5558209295
 40
0.5846162878
 40
0.6136592317
 40
0.6430203392
 40
0.6727641522
 40
0.7029474328
 40
0.7336207281
 40
0.7648268738
 40
0.7965993427
 40
0.8619156014
 40
0.9297162193
 40
1.0
 40
1.0
 40
1.0
 40
1.0
 10
5.8702048794
 20
4.4638986578
 30
0.0
 10
5.8677871141
 20
4.4654311464
 30
0.0
 10
5.864296447
 20
4.4678825183
 30
0.0
 10
5.8599604248
 20
4.4714668157
 30
0.0
 10
5.8569408995
 20
4.4742487872
 30
0.0
 10
5.8541341135
 20
4.4771405334
 30
0.0
 10
5.8507185586
 20
4.4810950197
 30
0.0
 10
5.8469974809
 20
4.4862726997
 30
0.0
 10
5.8440249397
 20
4.4917985893
 30
0.0
 10
5.8421660413
 20
4.4963248034
 30
0.0
 10
5.8410370527
 20
4.4997439777
 30
0.0
 10
5.8401665064
 20
4.5032010053
 30
0.0
 10
5.839556662
 20
4.5066862148
 30
0.0
 10
5.8392101955
 20
4.5101897385
 30
0.0
 10
5.8391275948
 20
4.5137014233
 30
0.0
 10
5.8393087422
 20
4.5172112466
 30
0.0
 10
5.8397539208
 20
4.5207090944
 30
0.0
 10
5.840461474
 20
4.5241849209
 30
0.0
 10
5.8414288172
 20
4.5276289677
 30
0.0
 10
5.8426538129
 20
4.5310312637
 30
0.0
 10
5.8441327286
 20
4.5343821264
 30
0.0
 10
5.845860697
 20
4.5376723538
 30
0.0
 10
5.8478332316
 20
4.5408923843
 30
0.0
 10
5.850044816
 20
4.5440331252
 30
0.0
 10
5.8533325197
 20
4.5481408521
 30
0.0
 10
5.8580239178
 20
4.5530288608
 30
0.0
 10
5.8644332244
 20
4.5583832279
 30
0.0
 10
5.8691333373
 20
4.5615560504
 30
0.0
 10
5.8715937786
 20
4.5630545476
 30
0.0
  0
SPLINE
  5
361
100
AcDbEntity
  8
ALL_FEATURES
100
AcDbSpline
 62
7
  6
CONTINUOUS
 70
0
 71
3
 72
16
 73
12
 74
0
 42
0.0000001
 43
0.0000001
 44
0.0000000001
 40
0.0
 40
0.0
 40
0.0
 40
0.0
 40
0.1152484333
 40
0.2340953091
 40
0.3562435732
 40
0.4184481244
 40
0.4813188413
 40
0.6087765015
 40
0.7381164383
 40
0.8687812347
 40
1.0
 40
1.0
 40
1.0
 40
1.0
 10
5.8520924588
 20
4.6317921049
 30
0.0
 10
5.8547473478
 20
4.6298780502
 30
0.0
 10
5.8603287565
 20
4.6262460385
 30
0.0
 10
5.8692725386
 20
4.6214930001
 30
0.0
 10
5.8771948609
 20
4.61809351
 30
0.0
 10
5.8838005358
 20
4.6157106588
 30
0.0
 10
5.8906371848
 20
4.6135391353
 30
0.0
 10
5.8994412098
 20
4.611287539
 30
0.0
 10
5.9102819238
 20
4.6093473036
 30
0.0
 10
5.9213394092
 20
4.6081770469
 30
0.0
 10
5.9287792149
 20
4.6079153414
 30
0.0
 10
5.9325056797
 20
4.6079153414
 30
0.0
  0
SPLINE
  5
362
100
AcDbEntity
  8
ALL_FEATURES
100
AcDbSpline
 62
7
  6
CONTINUOUS
 70
0
 71
3
 72
24
 73
20
 74
0
 42
0.0000001
 43
0.0000001
 44
0.0000000001
 40
0.0
 40
0.0
 40
0.0
 40
0.0
 40
0.0514640817
 40
0.1039854749
 40
0.1578368904
 40
0.2132342365
 40
0.2703295754
 40
0.3292132524
 40
0.3593447177
 40
0.3899291189
 40
0.452423257
 40
0.5166353716
 40
0.5824453586
 40
0.6496952276
 40
0.7181855215
 40
0.7877031851
 40
0.8580309683
 40
0.928913392
 40
1.0
 40
1.0
 40
1.0
 40
1.0
 10
5.8434095542
 20
4.6386241453
 30
0.0
 10
5.8438665306
 20
4.6367754362
 30
0.0
 10
5.8450168294
 20
4.6330924064
 30
0.0
 10
5.8473984112
 20
4.6277464945
 30
0.0
 10
5.8504289502
 20
4.6225705983
 30
0.0
 10
5.8540855116
 20
4.6176058383
 30
0.0
 10
5.858337786
 20
4.6128884017
 30
0.0
 10
5.8623208584
 20
4.6092207431
 30
0.0
 10
5.8657654355
 20
4.6064403569
 30
0.0
 10
5.8694320798
 20
4.6037286957
 30
0.0
 10
5.8743236489
 20
4.6005619724
 30
0.0
 10
5.8805922284
 20
4.5971638777
 30
0.0
 10
5.8872545841
 20
4.5941650832
 30
0.0
 10
5.8942599661
 20
4.5915891629
 30
0.0
 10
5.9015547192
 20
4.5894537923
 30
0.0
 10
5.9090846926
 20
4.5877765842
 30
0.0
 10
5.9167936081
 20
4.5865689423
 30
0.0
 10
5.9246204566
 20
4.5858419448
 30
0.0
 10
5.9298752266
 20
4.5856791679
 30
0.0
 10
5.9325056797
 20
4.5856791679
 30
0.0
  0
SPLINE
  5
363
100
AcDbEntity
  8
ALL_FEATURES
100
AcDbSpline
 62
7
  6
CONTINUOUS
 70
0
 71
3
 72
24
 73
20
 74
0
 42
0.0000001
 43
0.0000001
 44
0.0000000001
 40
0.0
 40
0.0
 40
0.0
 40
0.0
 40
0.0513887991
 40
0.0774354257
 40
0.1037645474
 40
0.1573920339
 40
0.2125450754
 40
0.2407620956
 40
0.2694229925
 40
0.3281059572
 40
0.3886591068
 40
0.4510694462
 40
0.515265159
 40
0.5811262803
 40
0.6484915527
 40
0.717164355
 40
0.7869182663
 40
0.8575026095
 40
1.0
 40
1.0
 40
1.0
 40
1.0
 10
6.0296021608
 20
4.4958229539
 30
0.0
 10
6.0292024934
 20
4.4937564315
 30
0.0
 10
6.0284035664
 20
4.4906762268
 30
0.0
 10
6.0269685991
 20
4.4866739333
 30
0.0
 10
6.0252629601
 20
4.4826786667
 30
0.0
 10
6.0226489215
 20
4.4777867223
 30
0.0
 10
6.0194702106
 20
4.4731491677
 30
0.0
 10
6.0165917511
 20
4.4695735521
 30
0.0
 10
6.013441288
 20
4.4660387729
 30
0.0
 10
6.0090822844
 20
4.4618181231
 30
0.0
 10
6.0032811633
 20
4.457144799
 30
0.0
 10
5.9969143911
 20
4.4528593156
 30
0.0
 10
5.990033792
 20
4.4489954351
 30
0.0
 10
5.9826946203
 20
4.4455831703
 30
0.0
 10
5.9749554559
 20
4.4426494548
 30
0.0
 10
5.9668782981
 20
4.4402171448
 30
0.0
 10
5.9585267437
 20
4.4383052
 30
0.0
 10
5.9470836699
 20
4.4364646967
 30
0.0
 10
5.9383421798
 20
4.4359138472
 30
0.0
 10
5.9325056797
 20
4.4359138472
 30
0.0
  0
SPLINE
  5
364
100
AcDbEntity
  8
ALL_FEATURES
100
AcDbSpline
 62
7
  6
CONTINUOUS
 70
0
 71
3
 72
24
 73
20
 74
0
 42
0.0000001
 43
0.0000001
 44
0.0000000001
 40
0.0
 40
0.0
 40
0.0
 40
0.0
 40
0.0514646475
 40
0.1039870177
 40
0.1578396367
 40
0.2132382634
 40
0.270334808
 40
0.3292195152
 40
0.3593513948
 40
0.3899361353
 40
0.452430715
 40
0.5166429177
 40
0.5824526388
 40
0.649701894
 40
0.7181912602
 40
0.787707738
 40
0.858034133
 40
0.9289150123
 40
1.0
 40
1.0
 40
1.0
 40
1.0
 10
6.0215990924
 20
4.6386131764
 30
0.0
 10
6.0211417159
 20
4.6367647441
 30
0.0
 10
6.019990678
 20
4.6330823004
 30
0.0
 10
6.0176082021
 20
4.6277373324
 30
0.0
 10
6.0145769737
 20
4.6225624037
 30
0.0
 10
6.0109199176
 20
4.6175986225
 30
0.0
 10
6.006667347
 20
4.6128821524
 30
0.0
 10
6.0026841772
 20
4.6092152718
 30
0.0
 10
5.9992396093
 20
4.6064354865
 30
0.0
 10
5.995573042
 20
4.6037244273
 30
0.0
 10
5.9906816773
 20
4.6005584236
 30
0.0
 10
5.9844134898
 20
4.5971611112
 30
0.0
 10
5.977751665
 20
4.5941630231
 30
0.0
 10
5.9707469388
 20
4.5915877173
 30
0.0
 10
5.9634529462
 20
4.5894528642
 30
0.0
 10
5.9559238194
 20
4.587776066
 30
0.0
 10
5.9482158158
 20
4.586568722
 30
0.0
 10
5.9403899237
 20
4.5858419044
 30
0.0
 10
5.9351358054
 20
4.5856791679
 30
0.0
 10
5.9325056797
 20
4.5856791679
 30
0.0
  0
SPLINE
  5
365
100
AcDbEntity
  8
ALL_FEATURES
100
AcDbSpline
 62
7
  6
CONTINUOUS
 70
0
 71
3
 72
26
 73
22
 74
0
 42
0.0000001
 43
0.0000001
 44
0.0000000001
 40
0.0
 40
0.0
 40
0.0
 40
0.0
 40
0.0255896891
 40
0.0513436004
 40
0.0773108436
 40
0.1035367607
 40
0.1569061731
 40
0.2117673998
 40
0.2398376493
 40
0.2683567275
 40
0.3267805559
 40
0.387128525
 40
0.4494039009
 40
0.5135458724
 40
0.5794401405
 40
0.6469249037
 40
0.7157918092
 40
0.7857990231
 40
0.8567005621
 40
0.9282262401
 40
1.0
 40
1.0
 40
1.0
 40
1.0
 10
5.8384140098
 20
4.643094248
 30
0.0
 10
5.8385562346
 20
4.642071084
 30
0.0
 10
5.8389079864
 20
4.6400268056
 30
0.0
 10
5.8396329033
 20
4.6369892595
 30
0.0
 10
5.8405552186
 20
4.6339786737
 30
0.0
 10
5.8420528314
 20
4.6299867452
 30
0.0
 10
5.8444201106
 20
4.6250872498
 30
0.0
 10
5.8473736248
 20
4.6204308691
 30
0.0
 10
5.8500819579
 20
4.6168361519
 30
0.0
 10
5.8530680596
 20
4.6132785194
 30
0.0
 10
5.857236011
 20
4.6090233414
 30
0.0
 10
5.8628308669
 20
4.6043054954
 30
0.0
 10
5.8690123247
 20
4.5999725899
 30
0.0
 10
5.8757279152
 20
4.5960608942
 30
0.0
 10
5.8829209902
 20
4.5926021202
 30
0.0
 10
5.8905313303
 20
4.5896258807
 30
0.0
 10
5.8984941901
 20
4.5871556607
 30
0.0
 10
5.9067433012
 20
4.5852129554
 30
0.0
 10
5.9152103424
 20
4.5838130438
 30
0.0
 10
5.9238218854
 20
4.5829696938
 30
0.0
 10
5.9296083246
 20
4.5827810337
 30
0.0
 10
5.9325056797
 20
4.5827810337
 30
0.0
  0
SPLINE
  5
366
100
AcDbEntity
  8
ALL_FEATURES
100
AcDbSpline
 62
7
  6
CONTINUOUS
 70
0
 71
3
 72
14
 73
10
 74
0
 42
0.0000001
 43
0.0000001
 44
0.0000000001
 40
0.0
 40
0.0
 40
0.0
 40
0.0
 40
0.2339249847
 40
0.3561061634
 40
0.481187021
 40
0.6086735993
 40
0.7380524514
 40
0.8687585588
 40
1.0
 40
1.0
 40
1.0
 40
1.0
 10
5.9924005164
 20
4.6169988
 30
0.0
 10
5.988387946
 20
4.61410558
 30
0.0
 10
5.9818383417
 20
4.6102854442
 30
0.0
 10
5.9724813061
 20
4.6062717549
 30
0.0
 10
5.964965809
 20
4.6037292284
 30
0.0
 10
5.957133617
 20
4.6017263449
 30
0.0
 10
5.949058553
 20
4.6002809609
 30
0.0
 10
5.940822482
 20
4.5994095645
 30
0.0
 10
5.9352810707
 20
4.5992144842
 30
0.0
 10
5.9325056797
 20
4.5992144842
 30
0.0
  0
SPLINE
  5
367
100
AcDbEntity
  8
ALL_FEATURES
100
AcDbSpline
 62
7
  6
CONTINUOUS
 70
0
 71
3
 72
16
 73
12
 74
0
 42
0.0000001
 43
0.0000001
 44
0.0000000001
 40
0.0
 40
0.0
 40
0.0
 40
0.0
 40
0.1152484333
 40
0.2340953091
 40
0.3562435732
 40
0.4184481244
 40
0.4813188413
 40
0.6087765015
 40
0.7381164383
 40
0.8687812347
 40
1.0
 40
1.0
 40
1.0
 40
1.0
 10
6.0129189005
 20
4.6317921049
 30
0.0
 10
6.0102640116
 20
4.6298780502
 30
0.0
 10
6.0046826028
 20
4.6262460385
 30
0.0
 10
5.9957388207
 20
4.6214930001
 30
0.0
 10
5.9878164985
 20
4.61809351
 30
0.0
 10
5.9812108235
 20
4.6157106588
 30
0.0
 10
5.9743741745
 20
4.6135391353
 30
0.0
 10
5.9655701495
 20
4.611287539
 30
0.0
 10
5.9547294355
 20
4.6093473036
 30
0.0
 10
5.9436719501
 20
4.6081770469
 30
0.0
 10
5.9362321444
 20
4.6079153414
 30
0.0
 10
5.9325056797
 20
4.6079153414
 30
0.0
  0
SPLINE
  5
368
100
AcDbEntity
  8
ALL_ASSEMBLY_MEMBERS
100
AcDbSpline
 62
7
  6
CONTINUOUS
 70
0
 71
3
 72
10
 73
6
 74
0
 42
0.0000001
 43
0.0000001
 44
0.0000000001
 40
0.0
 40
0.0
 40
0.0
 40
0.0
 40
0.2457858108
 40
0.4935381656
 40
1.0
 40
1.0
 40
1.0
 40
1.0
 10
6.9387740627
 20
3.8651458581
 30
0.0
 10
6.9384051461
 20
3.8625416482
 30
0.0
 10
6.9375452291
 20
3.8573272536
 30
0.0
 10
6.9352292474
 20
3.8468786709
 30
0.0
 10
6.9326918454
 20
3.8391682857
 30
0.0
 10
6.9305207065
 20
3.834202401
 30
0.0
  0
SPLINE
  5
369
100
AcDbEntity
  8
ALL_ASSEMBLY_MEMBERS
100
AcDbSpline
 62
7
  6
CONTINUOUS
 70
0
 71
3
 72
11
 73
7
 74
0
 42
0.0000001
 43
0.0000001
 44
0.0000000001
 40
0.0
 40
0.0
 40
0.0
 40
0.0
 40
0.2502432161
 40
0.4999986594
 40
0.7497545614
 40
1.0
 40
1.0
 40
1.0
 40
1.0
 10
6.9387740629
 20
3.9251487883
 30
0.0
 10
6.938250387
 20
3.9201630773
 30
0.0
 10
6.9375021033
 20
3.9101684756
 30
0.0
 10
6.9371433489
 20
3.8951473945
 30
0.0
 10
6.9375020595
 20
3.8801262662
 30
0.0
 10
6.9382503838
 20
3.8701316136
 30
0.0
 10
6.9387740627
 20
3.8651458581
 30
0.0
  0
SPLINE
  5
36A
100
AcDbEntity
  8
ALL_ASSEMBLY_MEMBERS
100
AcDbSpline
 62
7
  6
CONTINUOUS
 70
0
 71
3
 72
14
 73
10
 74
0
 42
0.0000001
 43
0.0000001
 44
0.0000000001
 40
0.0
 40
0.0
 40
0.0
 40
0.0
 40
0.1295334096
 40
0.2593583564
 40
0.3882294421
 40
0.515325992
 40
0.6403556217
 40
0.7631538962
 40
1.0
 40
1.0
 40
1.0
 40
1.0
 10
6.9387740462
 20
4.6705493856
 30
0.0
 10
6.9395045055
 20
4.6705685741
 30
0.0
 10
6.9409661298
 20
4.6707021936
 30
0.0
 10
6.9431105396
 20
4.6711727887
 30
0.0
 10
6.9451659706
 20
4.6719068249
 30
0.0
 10
6.9470826662
 20
4.6728925715
 30
0.0
 10
6.9488235499
 20
4.6741067133
 30
0.0
 10
6.9508285813
 20
4.6759733405
 30
0.0
 10
6.952011088
 20
4.6776713556
 30
0.0
 10
6.9525870053
 20
4.6788769305
 30
0.0
  0
SPLINE
  5
36B
100
AcDbEntity
  8
ALL_ASSEMBLY_MEMBERS
100
AcDbSpline
 62
7
  6
CONTINUOUS
 70
0
 71
3
 72
14
 73
10
 74
0
 42
0.0000001
 43
0.0000001
 44
0.0000000001
 40
0.0
 40
0.0
 40
0.0
 40
0.0
 40
0.1314989811
 40
0.2624486339
 40
0.3916707627
 40
0.5184759658
 40
0.6427693588
 40
0.7646242465
 40
1.0
 40
1.0
 40
1.0
 40
1.0
 10
6.9387740616
 20
4.7305523989
 30
0.0
 10
6.939502069
 20
4.7305332821
 30
0.0
 10
6.9409591415
 20
4.7305893325
 30
0.0
 10
6.9431043008
 20
4.7309465354
 30
0.0
 10
6.9451609562
 20
4.7315721447
 30
0.0
 10
6.9470793596
 20
4.7324572674
 30
0.0
 10
6.948822096
 20
4.7335807396
 30
0.0
 10
6.9508303345
 20
4.735344309
 30
0.0
 10
6.9520134206
 20
4.7369838413
 30
0.0
 10
6.9525870048
 20
4.7381544057
 30
0.0
  0
SPLINE
  5
36C
100
AcDbEntity
  8
ALL_ASSEMBLY_MEMBERS
100
AcDbSpline
 62
7
  6
CONTINUOUS
 70
0
 71
3
 72
14
 73
10
 74
0
 42
0.0000001
 43
0.0000001
 44
0.0000000001
 40
0.0
 40
0.0
 40
0.0
 40
0.0
 40
0.1314993854
 40
0.2624493673
 40
0.3916717172
 40
0.5184770036
 40
0.6427703334
 40
0.7646250117
 40
1.0
 40
1.0
 40
1.0
 40
1.0
 10
6.9387740506
 20
3.8651457787
 30
0.0
 10
6.9395020587
 20
3.8651648986
 30
0.0
 10
6.9409591327
 20
3.8651088547
 30
0.0
 10
6.9431042948
 20
3.8647516626
 30
0.0
 10
6.945160953
 20
3.8641260651
 30
0.0
 10
6.9470793589
 20
3.8632409545
 30
0.0
 10
6.9488220975
 20
3.8621174949
 30
0.0
 10
6.9508303371
 20
3.8603539435
 30
0.0
 10
6.952013425
 20
3.8587144234
 30
0.0
 10
6.9525870093
 20
3.8575438666
 30
0.0
  0
LINE
  5
36D
100
AcDbEntity
  8
ALL_ASSEMBLY_MEMBERS
100
AcDbLine
 62
7
  6
CONTINUOUS
 10
6.9525870048
 20
4.6788769306
 11
6.9534292717
 21
4.6701760751
  0
SPLINE
  5
36E
100
AcDbEntity
  8
ALL_ASSEMBLY_MEMBERS
100
AcDbSpline
 62
7
  6
CONTINUOUS
 70
0
 71
3
 72
11
 73
7
 74
0
 42
0.0000001
 43
0.0000001
 44
0.0000000001
 40
0.0
 40
0.0
 40
0.0
 40
0.0
 40
0.2457984585
 40
0.4941267343
 40
0.7454205562
 40
1.0
 40
1.0
 40
1.0
 40
1.0
 10
6.9525870048
 20
4.7381544057
 30
0.0
 10
6.9521225039
 20
4.7333136813
 30
0.0
 10
6.9514633725
 20
4.7235548511
 30
0.0
 10
6.9511522593
 20
4.70880618
 30
0.0
 10
6.9514707499
 20
4.6938839593
 30
0.0
 10
6.9521276664
 20
4.6838926267
 30
0.0
 10
6.9525870048
 20
4.6788769306
 30
0.0
  0
SPLINE
  5
36F
100
AcDbEntity
  8
ALL_ASSEMBLY_MEMBERS
100
AcDbSpline
 62
7
  6
CONTINUOUS
 70
0
 71
3
 72
16
 73
12
 74
0
 42
0.0000001
 43
0.0000001
 44
0.0000000001
 40
0.0
 40
0.0
 40
0.0
 40
0.0
 40
0.0423071869
 40
0.0892466056
 40
0.1401690873
 40
0.1944595011
 40
0.3116047879
 40
0.4379478424
 40
0.5714450867
 40
0.7104341278
 40
1.0
 40
1.0
 40
1.0
 40
1.0
 10
6.9553211717
 20
4.7645148124
 30
0.0
 10
6.9553217856
 20
4.764140982
 30
0.0
 10
6.9553009657
 20
4.7633523514
 30
0.0
 10
6.955225794
 20
4.7621159704
 30
0.0
 10
6.9551141517
 20
4.7607761013
 30
0.0
 10
6.9549236927
 20
4.7588205343
 30
0.0
 10
6.954629153
 20
4.7562057635
 30
0.0
 10
6.9542321646
 20
4.7528984349
 30
0.0
 10
6.9538089406
 20
4.7493998308
 30
0.0
 10
6.9532322224
 20
4.7444670817
 30
0.0
 10
6.9528314121
 20
4.740701341
 30
0.0
 10
6.9525870048
 20
4.7381544057
 30
0.0
  0
SPLINE
  5
370
100
AcDbEntity
  8
ALL_ASSEMBLY_MEMBERS
100
AcDbSpline
 62
7
  6
CONTINUOUS
 70
0
 71
3
 72
11
 73
7
 74
0
 42
0.0000001
 43
0.0000001
 44
0.0000000001
 40
0.0
 40
0.0
 40
0.0
 40
0.0
 40
0.2502437198
 40
0.4999980748
 40
0.7497542353
 40
1.0
 40
1.0
 40
1.0
 40
1.0
 10
6.9387740623
 20
4.7305524076
 30
0.0
 10
6.9382503904
 20
4.7255666862
 30
0.0
 10
6.9375021288
 20
4.7155720952
 30
0.0
 10
6.9371433501
 20
4.7005510237
 30
0.0
 10
6.9375020086
 20
4.6855299029
 30
0.0
 10
6.9382503984
 20
4.6755352445
 30
0.0
 10
6.9387740628
 20
4.6705494812
 30
0.0
  0
SPLINE
  5
371
100
AcDbEntity
  8
ALL_ASSEMBLY_MEMBERS
100
AcDbSpline
 62
7
  6
CONTINUOUS
 70
0
 71
3
 72
14
 73
10
 74
0
 42
0.0000001
 43
0.0000001
 44
0.0000000001
 40
0.0
 40
0.0
 40
0.0
 40
0.0
 40
0.1295336883
 40
0.2593587412
 40
0.3882298221
 40
0.5153263207
 40
0.6403558772
 40
0.7631540512
 40
1.0
 40
1.0
 40
1.0
 40
1.0
 10
6.9387740616
 20
3.9251487734
 30
0.0
 10
6.93950452
 20
3.9251295923
 30
0.0
 10
6.9409661427
 20
3.9249959874
 30
0.0
 10
6.9431105511
 20
3.9245254115
 30
0.0
 10
6.9451659801
 20
3.9237913915
 30
0.0
 10
6.9470826731
 20
3.922805658
 30
0.0
 10
6.9488235542
 20
3.9215915276
 30
0.0
 10
6.950828583
 20
3.9197249147
 30
0.0
 10
6.9520110886
 20
3.9180269091
 30
0.0
 10
6.9525870048
 20
3.9168213399
 30
0.0
  0
SPLINE
  5
372
100
AcDbEntity
  8
ALL_ASSEMBLY_MEMBERS
100
AcDbSpline
 62
7
  6
CONTINUOUS
 70
0
 71
3
 72
19
 73
15
 74
0
 42
0.0000001
 43
0.0000001
 44
0.0000000001
 40
0.0
 40
0.0
 40
0.0
 40
0.0
 40
0.1240312138
 40
0.1866617957
 40
0.2494559804
 40
0.3124009633
 40
0.3754767431
 40
0.501572436
 40
0.6274009327
 40
0.6901594086
 40
0.7526858458
 40
0.8149846813
 40
0.8770716938
 40
1.0
 40
1.0
 40
1.0
 40
1.0
 10
6.9305207066
 20
3.8342024012
 30
0.0
 10
6.9313258395
 20
3.8351030574
 30
0.0
 10
6.9327151057
 20
3.8363125047
 30
0.0
 10
6.9348076594
 20
3.8375549944
 30
0.0
 10
6.936491556
 20
3.8382954997
 30
0.0
 10
6.9382554252
 20
3.8388315131
 30
0.0
 10
6.940678182
 20
3.8392607405
 30
0.0
 10
6.9437770792
 20
3.8392553687
 30
0.0
 10
6.9467840002
 20
3.8385175411
 30
0.0
 10
6.9490224357
 20
3.8375195602
 30
0.0
 10
6.95059296
 20
3.8365770984
 30
0.0
 10
6.9520332936
 20
3.8354556237
 30
0.0
 10
6.9537398936
 20
3.8337498912
 30
0.0
 10
6.9547739748
 20
3.8322442259
 30
0.0
 10
6.9553211717
 20
3.8311792579
 30
0.0
  0
SPLINE
  5
373
100
AcDbEntity
  8
ALL_ASSEMBLY_MEMBERS
100
AcDbSpline
 62
7
  6
CONTINUOUS
 70
0
 71
3
 72
16
 73
12
 74
0
 42
0.0000001
 43
0.0000001
 44
0.0000000001
 40
0.0
 40
0.0
 40
0.0
 40
0.0
 40
0.2895748306
 40
0.4285749646
 40
0.5620630643
 40
0.6884114128
 40
0.8055589357
 40
0.8598411875
 40
0.9107454711
 40
0.9576878562
 40
1.0
 40
1.0
 40
1.0
 40
1.0
 10
6.9525870048
 20
3.8575438648
 30
0.0
 10
6.9528314435
 20
3.854996783
 30
0.0
 10
6.9532321019
 20
3.8512307429
 30
0.0
 10
6.9538091958
 20
3.8462978046
 30
0.0
 10
6.9542320333
 20
3.842798993
 30
0.0
 10
6.9546293189
 20
3.8394916233
 30
0.0
 10
6.9549239593
 20
3.8368767964
 30
0.0
 10
6.9551142214
 20
3.8349213682
 30
0.0
 10
6.955225353
 20
3.833581628
 30
0.0
 10
6.9553005632
 20
3.8323453106
 30
0.0
 10
6.9553216192
 20
3.8315565982
 30
0.0
 10
6.9553211717
 20
3.8311827136
 30
0.0
  0
SPLINE
  5
374
100
AcDbEntity
  8
ALL_ASSEMBLY_MEMBERS
100
AcDbSpline
 62
7
  6
CONTINUOUS
 70
0
 71
3
 72
11
 73
7
 74
0
 42
0.0000001
 43
0.0000001
 44
0.0000000001
 40
0.0
 40
0.0
 40
0.0
 40
0.0
 40
0.2545772719
 40
0.5058704658
 40
0.7542000228
 40
1.0
 40
1.0
 40
1.0
 40
1.0
 10
6.9525870048
 20
3.9168213399
 30
0.0
 10
6.9521276552
 20
3.9118056881
 30
0.0
 10
6.9514708399
 20
3.9018144041
 30
0.0
 10
6.9511522573
 20
3.8868922186
 30
0.0
 10
6.9514633094
 20
3.8721435007
 30
0.0
 10
6.9521224991
 20
3.8623846189
 30
0.0
 10
6.9525870048
 20
3.8575438648
 30
0.0
  0
LINE
  5
375
100
AcDbEntity
  8
ALL_ASSEMBLY_MEMBERS
100
AcDbLine
 62
7
  6
CONTINUOUS
 10
6.9534297697
 20
3.9255268941
 11
6.9525870048
 21
3.9168213399
  0
SPLINE
  5
376
100
AcDbEntity
  8
ALL_ASSEMBLY_MEMBERS
100
AcDbSpline
 62
7
  6
CONTINUOUS
 70
0
 71
3
 72
31
 73
27
 74
0
 42
0.0000001
 43
0.0000001
 44
0.0000000001
 40
0.0
 40
0.0
 40
0.0
 40
0.0
 40
0.0266552964
 40
0.0518630234
 40
0.0979681333
 40
0.1191467481
 40
0.1392768256
 40
0.1769744652
 40
0.1948079022
 40
0.2120948176
 40
0.2453378644
 40
0.3080959825
 40
0.3679423029
 40
0.426233635
 40
0.4836967813
 40
0.5122526291
 40
0.5407323417
 40
0.5691589766
 40
0.5975500268
 40
0.6542736713
 40
0.7109947755
 40
0.7393821959
 40
0.7678033331
 40
0.8248131205
 40
0.8822375188
 40
1.0
 40
1.0
 40
1.0
 40
1.0
 10
6.8682504199
 20
3.9928443565
 30
0.0
 10
6.8666248306
 20
3.9925645288
 30
0.0
 10
6.8634840315
 20
3.991877633
 30
0.0
 10
6.8576958672
 20
3.990056071
 30
0.0
 10
6.8524590822
 20
3.9876762073
 30
0.0
 10
6.8478224819
 20
3.9848831024
 30
0.0
 10
6.8438148818
 20
3.9820769865
 30
0.0
 10
6.8402472667
 20
3.9790231755
 30
0.0
 10
6.8370928048
 20
3.9758029334
 30
0.0
 10
6.8343011177
 20
3.9726217088
 30
0.0
 10
6.8300775608
 20
3.967013037
 30
0.0
 10
6.8253277063
 20
3.9585678889
 30
0.0
 10
6.8212375403
 20
3.9481201309
 30
0.0
 10
6.8183713001
 20
3.9376219964
 30
0.0
 10
6.8167323656
 20
3.9288351585
 30
0.0
 10
6.8157727818
 20
3.9218142117
 30
0.0
 10
6.8152073365
 20
3.9165551689
 30
0.0
 10
6.8147825348
 20
3.911293315
 30
0.0
 10
6.8143843167
 20
3.9042778208
 30
0.0
 10
6.8141862996
 20
3.8954999374
 30
0.0
 10
6.8143586647
 20
3.8867218267
 30
0.0
 10
6.8147355126
 20
3.8797057605
 30
0.0
 10
6.8152790616
 20
3.8726831715
 30
0.0
 10
6.8163058203
 20
3.8638953421
 30
0.0
 10
6.8188703015
 20
3.849758587
 30
0.0
 10
6.8221212471
 20
3.8393038333
 30
0.0
 10
6.825171687
 20
3.8326855508
 30
0.0
  0
SPLINE
  5
377
100
AcDbEntity
  8
ALL_ASSEMBLY_MEMBERS
100
AcDbSpline
 62
7
  6
CONTINUOUS
 70
0
 71
3
 72
19
 73
15
 74
0
 42
0.0000001
 43
0.0000001
 44
0.0000000001
 40
0.0
 40
0.0
 40
0.0
 40
0.0
 40
0.1240312214
 40
0.1866618123
 40
0.2494560054
 40
0.3124009949
 40
0.3754767792
 40
0.5015724808
 40
0.6274009785
 40
0.6901594529
 40
0.7526858836
 40
0.8149847084
 40
0.8770717071
 40
1.0
 40
1.0
 40
1.0
 40
1.0
 10
6.9305207066
 20
4.7614958694
 30
0.0
 10
6.9313258396
 20
4.7605952131
 30
0.0
 10
6.932715106
 20
4.7593857658
 30
0.0
 10
6.9348076598
 20
4.7581432759
 30
0.0
 10
6.9364915566
 20
4.7574027706
 30
0.0
 10
6.9382554261
 20
4.7568667573
 30
0.0
 10
6.9406781831
 20
4.7564375299
 30
0.0
 10
6.9437770804
 20
4.7564429019
 30
0.0
 10
6.9467840015
 20
4.75718073
 30
0.0
 10
6.9490224369
 20
4.7581787109
 30
0.0
 10
6.9505929609
 20
4.7591211728
 30
0.0
 10
6.9520332941
 20
4.7602426474
 30
0.0
 10
6.9537398939
 20
4.7619483795
 30
0.0
 10
6.9547739749
 20
4.7634540448
 30
0.0
 10
6.9553211717
 20
4.7645190127
 30
0.0
  0
SPLINE
  5
378
100
AcDbEntity
  8
ALL_ASSEMBLY_MEMBERS
100
AcDbSpline
 62
7
  6
CONTINUOUS
 70
0
 71
3
 72
51
 73
47
 74
0
 42
0.0000001
 43
0.0000001
 44
0.0000000001
 40
0.0
 40
0.0
 40
0.0
 40
0.0
 40
0.0284877566
 40
0.0581405061
 40
0.0735897939
 40
0.0895830492
 40
0.1062520685
 40
0.1237601586
 40
0.1423083808
 40
0.1621392946
 40
0.183514247
 40
0.2066382074
 40
0.218878197
 40
0.2315209425
 40
0.2444687815
 40
0.257619219
 40
0.2838805524
 40
0.2967044882
 40
0.3091798967
 40
0.3328004186
 40
0.3439486902
 40
0.3546587733
 40
0.3937285661
 40
0.4115040119
 40
0.4283889028
 40
0.4445557735
 40
0.460145379
 40
0.4900015818
 40
0.5186243992
 40
0.5464338376
 40
0.5737049514
 40
0.6006197774
 40
0.6272999341
 40
0.6538266371
 40
0.6802545232
 40
0.7066209837
 40
0.7329519584
 40
0.7592670812
 40
0.7855827829
 40
0.8119155933
 40
0.8382854883
 40
0.8647189036
 40
0.8912542826
 40
0.9179476517
 40
0.9448826205
 40
1.0
 40
1.0
 40
1.0
 40
1.0
 10
6.9305207064
 20
4.7614958697
 30
0.0
 10
6.9295171568
 20
4.7637910245
 30
0.0
 10
6.9272621853
 20
4.7683883588
 30
0.0
 10
6.9238240348
 20
4.7738876096
 30
0.0
 10
6.9205741298
 20
4.7781692576
 30
0.0
 10
6.9177995332
 20
4.7813673741
 30
0.0
 10
6.9146714118
 20
4.7844838589
 30
0.0
 10
6.9111408443
 20
4.7874966452
 30
0.0
 10
6.9071383707
 20
4.790358853
 30
0.0
 10
6.9025972129
 20
4.7930178397
 30
0.0
 10
6.8974438032
 20
4.7953740625
 30
0.0
 10
6.8926990611
 20
4.7969534297
 30
0.0
 10
6.8885911367
 20
4.7979343163
 30
0.0
 10
6.8853131612
 20
4.798512306
 30
0.0
 10
6.881926017
 20
4.7988974602
 30
0.0
 10
6.8773251355
 20
4.7991218859
 30
0.0
 10
6.8727218776
 20
4.7989154758
 30
0.0
 10
6.8682306541
 20
4.7982785559
 30
0.0
 10
6.8640135709
 20
4.7974193417
 30
0.0
 10
6.860021445
 20
4.7962312663
 30
0.0
 10
6.856297408
 20
4.7947693753
 30
0.0
 10
6.8514190592
 20
4.792552153
 30
0.0
 10
6.8463118553
 20
4.7894325183
 30
0.0
 10
6.8412811793
 20
4.7853355314
 30
0.0
 10
6.8380459114
 20
4.7822451228
 30
0.0
 10
6.8351781657
 20
4.7790670984
 30
0.0
 10
6.8318244827
 20
4.7748079754
 30
0.0
 10
6.828276154
 20
4.7693275212
 30
0.0
 10
6.8248396011
 20
4.7625504566
 30
0.0
 10
6.8221011758
 20
4.7557099239
 30
0.0
 10
6.8199261268
 20
4.7488300495
 30
0.0
 10
6.8182110002
 20
4.741925338
 30
0.0
 10
6.816874935
 20
4.7350051543
 30
0.0
 10
6.8158598304
 20
4.7280747032
 30
0.0
 10
6.8151152541
 20
4.721138233
 30
0.0
 10
6.8146106394
 20
4.7141977681
 30
0.0
 10
6.8143177231
 20
4.7072552532
 30
0.0
 10
6.8142281483
 20
4.7003116952
 30
0.0
 10
6.8143311842
 20
4.6933681593
 30
0.0
 10
6.8146383759
 20
4.6864257327
 30
0.0
 10
6.8151585094
 20
4.6794854596
 30
0.0
 10
6.8159205883
 20
4.6725492476
 30
0.0
 10
6.816956061
 20
4.665619532
 30
0.0
 10
6.8183165356
 20
4.6586994941
 30
0.0
 10
6.8206583536
 20
4.6494270931
 30
0.0
 10
6.8231004717
 20
4.6425993357
 30
0.0
 10
6.8251230058
 20
4.6381949837
 30
0.0
  0
SPLINE
  5
379
100
AcDbEntity
  8
ALL_ASSEMBLY_MEMBERS
100
AcDbSpline
 62
7
  6
CONTINUOUS
 70
0
 71
3
 72
10
 73
6
 74
0
 42
0.0000001
 43
0.0000001
 44
0.0000000001
 40
0.0
 40
0.0
 40
0.0
 40
0.0
 40
0.5064614588
 40
0.7542149333
 40
1.0
 40
1.0
 40
1.0
 40
1.0
 10
6.9305207064
 20
4.7614958697
 30
0.0
 10
6.9326917938
 20
4.7565299648
 30
0.0
 10
6.9352291535
 20
4.7488195645
 30
0.0
 10
6.9375453454
 20
4.7383710368
 30
0.0
 10
6.9384054793
 20
4.7331566576
 30
0.0
 10
6.9387740623
 20
4.7305524076
 30
0.0
  0
SPLINE
  5
37A
100
AcDbEntity
  8
ALL_ASSEMBLY_MEMBERS
100
AcDbSpline
 62
7
  6
CONTINUOUS
 70
0
 71
3
 72
39
 73
35
 74
0
 42
0.0000001
 43
0.0000001
 44
0.0000000001
 40
0.0
 40
0.0
 40
0.0
 40
0.0
 40
0.0482442328
 40
0.0729946203
 40
0.0982715955
 40
0.1508354321
 40
0.1784280234
 40
0.207132144
 40
0.2371769937
 40
0.2688360552
 40
0.3024318356
 40
0.3382860753
 40
0.3767063233
 40
0.3968975341
 40
0.4177379713
 40
0.4391472793
 40
0.4609857723
 40
0.5053427318
 40
0.5274790099
 40
0.5493026006
 40
0.5706840539
 40
0.5915154297
 40
0.631194871
 40
0.6682749273
 40
0.702920531
 40
0.7354790412
 40
0.7662687583
 40
0.7955915149
 40
0.8236974422
 40
0.8507948062
 40
0.9026082621
 40
0.9276022149
 40
0.9521178486
 40
1.0
 40
1.0
 40
1.0
 40
1.0
 10
6.825171687
 20
3.8326855508
 30
0.0
 10
6.8260885353
 20
3.8306963424
 30
0.0
 10
6.8275956809
 20
3.827739055
 30
0.0
 10
6.8298872222
 20
3.8239092532
 30
0.0
 10
6.8324694617
 20
3.8200311399
 30
0.0
 10
6.8354419566
 20
3.8162636533
 30
0.0
 10
6.8388387625
 20
3.8126698637
 30
0.0
 10
6.8417154176
 20
3.8100024042
 30
0.0
 10
6.8449137863
 20
3.8074240952
 30
0.0
 10
6.8484830337
 20
3.8049707846
 30
0.0
 10
6.8524663766
 20
3.8026784622
 30
0.0
 10
6.8569148772
 20
3.8006147137
 30
0.0
 10
6.8609627582
 20
3.7991756438
 30
0.0
 10
6.8644426058
 20
3.7982206665
 30
0.0
 10
6.8672130152
 20
3.7976132518
 30
0.0
 10
6.870085378
 20
3.7971400486
 30
0.0
 10
6.8740401811
 20
3.7967030496
 30
0.0
 10
6.8780590101
 20
3.7965994319
 30
0.0
 10
6.882063996
 20
3.7968215254
 30
0.0
 10
6.8850138218
 20
3.7971510838
 30
0.0
 10
6.8878828284
 20
3.7976299826
 30
0.0
 10
6.8915145929
 20
3.7984324584
 30
0.0
 10
6.8957633735
 20
3.7997175297
 30
0.0
 10
6.9004471297
 20
3.8016452775
 30
0.0
 10
6.9046519602
 20
3.8038345645
 30
0.0
 10
6.9084147817
 20
3.8062173355
 30
0.0
 10
6.9117883446
 20
3.8087381253
 30
0.0
 10
6.9148146403
 20
3.8113666368
 30
0.0
 10
6.9175397787
 20
3.8140725682
 30
0.0
 10
6.9207647294
 20
3.8177098978
 30
0.0
 10
6.9235862396
 20
3.821504316
 30
0.0
 10
6.9260377442
 20
3.8253983529
 30
0.0
 10
6.9282178406
 20
3.8292466999
 30
0.0
 10
6.9296497915
 20
3.8322105864
 30
0.0
 10
6.9305207065
 20
3.834202401
 30
0.0
  0
SPLINE
  5
37B
100
AcDbEntity
  8
ALL_ASSEMBLY_MEMBERS
100
AcDbSpline
 62
7
  6
CONTINUOUS
 70
0
 71
3
 72
20
 73
16
 74
0
 42
0.0000001
 43
0.0000001
 44
0.0000000001
 40
0.0
 40
0.0
 40
0.0
 40
0.0
 40
0.1003259399
 40
0.203772509
 40
0.2570359078
 40
0.311565759
 40
0.4253288435
 40
0.4852000152
 40
0.5475366912
 40
0.6127800474
 40
0.6814556708
 40
0.7540856166
 40
0.8312445285
 40
0.9132302949
 40
1.0
 40
1.0
 40
1.0
 40
1.0
 10
6.8251230058
 20
4.6381949837
 30
0.0
 10
6.8259335759
 20
4.6364298534
 30
0.0
 10
6.8277057876
 20
4.6329006988
 30
0.0
 10
6.8302881424
 20
4.6286395115
 30
0.0
 10
6.8326368099
 20
4.6252897233
 30
0.0
 10
6.8352674338
 20
4.6219001366
 30
0.0
 10
6.8382447982
 20
4.6186227017
 30
0.0
 10
6.8416002094
 20
4.6155190796
 30
0.0
 10
6.8444121689
 20
4.6132207738
 30
0.0
 10
6.8475109961
 20
4.6110170228
 30
0.0
 10
6.8509269728
 20
4.6089313745
 30
0.0
 10
6.8546963541
 20
4.6070033813
 30
0.0
 10
6.8588475611
 20
4.6052861101
 30
0.0
 10
6.8633905866
 20
4.6038427204
 30
0.0
 10
6.8665871173
 20
4.603140243
 30
0.0
 10
6.8682426553
 20
4.6028552285
 30
0.0
  0
SPLINE
  5
37C
100
AcDbEntity
  8
ALL_ASSEMBLY_MEMBERS
100
AcDbSpline
 62
7
  6
CONTINUOUS
 70
0
 71
3
 72
9
 73
5
 74
0
 42
0.0000001
 43
0.0000001
 44
0.0000000001
 40
0.0
 40
0.0
 40
0.0
 40
0.0
 40
0.2944462387
 40
1.0
 40
1.0
 40
1.0
 40
1.0
 10
6.6697556797
 20
3.8833429777
 30
0.0
 10
6.67469742
 20
3.8827226301
 30
0.0
 10
6.6914712795
 20
3.8805399861
 30
0.0
 10
6.7082121537
 20
3.878108683
 30
0.0
 10
6.7200056797
 20
3.8762800145
 30
0.0
  0
SPLINE
  5
37D
100
AcDbEntity
  8
ALL_ASSEMBLY_MEMBERS
100
AcDbSpline
 62
7
  6
CONTINUOUS
 70
0
 71
3
 72
18
 73
14
 74
0
 42
0.0000001
 43
0.0000001
 44
0.0000000001
 40
0.0
 40
0.0
 40
0.0
 40
0.0
 40
0.1177328907
 40
0.2412320641
 40
0.3049500896
 40
0.3696765408
 40
0.435117535
 40
0.5008907848
 40
0.566627984
 40
0.6319575685
 40
0.7599026902
 40
0.8828427756
 40
1.0
 40
1.0
 40
1.0
 40
1.0
 10
6.4649857785
 20
4.0281583778
 30
0.0
 10
6.4638017097
 20
4.0273596939
 30
0.0
 10
6.4612527114
 20
4.0258980885
 30
0.0
 10
6.4577933639
 20
4.0245469026
 30
0.0
 10
6.4548381085
 20
4.0237575273
 30
0.0
 10
6.4525234935
 20
4.0233259186
 30
0.0
 10
6.450157973
 20
4.0230701815
 30
0.0
 10
6.4477674912
 20
4.0229953182
 30
0.0
 10
6.4453796839
 20
4.0231069664
 30
0.0
 10
6.4422587088
 20
4.023491993
 30
0.0
 10
6.4385142597
 20
4.0243980077
 30
0.0
 10
6.4343660097
 20
4.0260905329
 30
0.0
 10
6.431849857
 20
4.0275816252
 30
0.0
 10
6.43068297
 20
4.0283930374
 30
0.0
  0
SPLINE
  5
37E
100
AcDbEntity
  8
ALL_ASSEMBLY_MEMBERS
100
AcDbSpline
 62
7
  6
CONTINUOUS
 70
0
 71
3
 72
21
 73
17
 74
0
 42
0.0000001
 43
0.0000001
 44
0.0000000001
 40
0.0
 40
0.0
 40
0.0
 40
0.0
 40
0.1172853819
 40
0.1781716609
 40
0.2405144973
 40
0.3041184362
 40
0.3687723567
 40
0.4341956965
 40
0.4999988301
 40
0.5658019428
 40
0.6312255621
 40
0.6958802035
 40
0.7594847747
 40
0.8218289205
 40
0.882716083
 40
1.0
 40
1.0
 40
1.0
 40
1.0
 10
6.4306887153
 20
4.5673096234
 30
0.0
 10
6.4318700419
 20
4.5681311181
 30
0.0
 10
6.4337608403
 20
4.5692482398
 30
0.0
 10
6.4364528655
 20
4.570460967
 30
0.0
 10
6.43861024
 20
4.571242264
 30
0.0
 10
6.4408648795
 20
4.5718705998
 30
0.0
 10
6.4431986307
 20
4.5723300749
 30
0.0
 10
6.4455877811
 20
4.5726099582
 30
0.0
 10
6.4480055695
 20
4.5727054901
 30
0.0
 10
6.4504233629
 20
4.5726099806
 30
0.0
 10
6.4528125252
 20
4.5723300983
 30
0.0
 10
6.4551463021
 20
4.5718706498
 30
0.0
 10
6.4574009725
 20
4.5712423006
 30
0.0
 10
6.459558382
 20
4.5704610013
 30
0.0
 10
6.4622504325
 20
4.5692483067
 30
0.0
 10
6.4641412179
 20
4.5681311759
 30
0.0
 10
6.4653225342
 20
4.5673096979
 30
0.0
  0
SPLINE
  5
37F
100
AcDbEntity
  8
ALL_ASSEMBLY_MEMBERS
100
AcDbSpline
 62
7
  6
CONTINUOUS
 70
0
 71
3
 72
19
 73
15
 74
0
 42
0.0000001
 43
0.0000001
 44
0.0000000001
 40
0.0
 40
0.0
 40
0.0
 40
0.0
 40
0.1103302804
 40
0.2309722719
 40
0.2953404014
 40
0.3620519313
 40
0.4305452857
 40
0.5000007146
 40
0.5694562381
 40
0.6379502379
 40
0.7046622941
 40
0.7690316108
 40
0.8896719158
 40
1.0
 40
1.0
 40
1.0
 40
1.0
 10
6.4703663594
 20
4.0339180806
 30
0.0
 10
6.4690913336
 20
4.0326262189
 30
0.0
 10
6.4661431886
 20
4.0301852874
 30
0.0
 10
6.4618377446
 20
4.0278629769
 30
0.0
 10
6.4579407864
 20
4.0264454753
 30
0.0
 10
6.454754022
 20
4.0256317565
 30
0.0
 10
6.4514191531
 20
4.0251292646
 30
0.0
 10
6.4480056424
 20
4.0249571536
 30
0.0
 10
6.4445921227
 20
4.0251292783
 30
0.0
 10
6.4412572314
 20
4.025631768
 30
0.0
 10
6.438070439
 20
4.026445533
 30
0.0
 10
6.4341734766
 20
4.0278630238
 30
0.0
 10
6.4298680918
 20
4.0301853535
 30
0.0
 10
6.4269200003
 20
4.0326262446
 30
0.0
 10
6.4256449999
 20
4.0339180806
 30
0.0
  0
SPLINE
  5
380
100
AcDbEntity
  8
ALL_ASSEMBLY_MEMBERS
100
AcDbSpline
 62
7
  6
CONTINUOUS
 70
0
 71
3
 72
21
 73
17
 74
0
 42
0.0000001
 43
0.0000001
 44
0.0000000001
 40
0.0
 40
0.0
 40
0.0
 40
0.0
 40
0.1074261674
 40
0.1658375478
 40
0.2274437097
 40
0.2921855356
 40
0.3596886581
 40
0.429282002
 40
0.5000007294
 40
0.570719551
 40
0.6403135476
 40
0.7078171789
 40
0.7725601936
 40
0.8341655721
 40
0.8925759944
 40
1.0
 40
1.0
 40
1.0
 40
1.0
 10
6.4703663594
 20
4.0371121606
 30
0.0
 10
6.4690767269
 20
4.0359510862
 30
0.0
 10
6.4668987507
 20
4.0343558123
 30
0.0
 10
6.4636638921
 20
4.0326073929
 30
0.0
 10
6.4609151455
 20
4.0314329377
 30
0.0
 10
6.4579313087
 20
4.0304696141
 30
0.0
 10
6.4547472822
 20
4.0297479457
 30
0.0
 10
6.4514155925
 20
4.0293023379
 30
0.0
 10
6.4480056425
 20
4.0291497229
 30
0.0
 10
6.4445956832
 20
4.0293023502
 30
0.0
 10
6.4412639718
 20
4.0297479556
 30
0.0
 10
6.4380799162
 20
4.0304696659
 30
0.0
 10
6.4350960626
 20
4.0314329849
 30
0.0
 10
6.4323473322
 20
4.0326074569
 30
0.0
 10
6.4291125384
 20
4.0343558626
 30
0.0
 10
6.4269346064
 20
4.0359511096
 30
0.0
 10
6.4256449999
 20
4.0371121606
 30
0.0
  0
SPLINE
  5
381
100
AcDbEntity
  8
ALL_ASSEMBLY_MEMBERS
100
AcDbSpline
 62
7
  6
CONTINUOUS
 70
0
 71
3
 72
21
 73
17
 74
0
 42
0.0000001
 43
0.0000001
 44
0.0000000001
 40
0.0
 40
0.0
 40
0.0
 40
0.0
 40
0.1044880538
 40
0.1622708069
 40
0.2237917127
 40
0.2889441855
 40
0.3572724433
 40
0.4279940619
 40
0.5000007429
 40
0.5720075176
 40
0.6427297965
 40
0.7110585463
 40
0.7762122102
 40
0.8377323017
 40
0.8955140745
 40
1.0
 40
1.0
 40
1.0
 40
1.0
 10
6.4703663594
 20
4.0424056579
 30
0.0
 10
6.4690597381
 20
4.041386265
 30
0.0
 10
6.4668685376
 20
4.0400020728
 30
0.0
 10
6.4636515327
 20
4.0384968673
 30
0.0
 10
6.460904065
 20
4.0374807502
 30
0.0
 10
6.457922314
 20
4.0366474217
 30
0.0
 10
6.4547408441
 20
4.0360231893
 30
0.0
 10
6.4514122699
 20
4.0356377934
 30
0.0
 10
6.4480056426
 20
4.0355057978
 30
0.0
 10
6.4445990058
 20
4.0356378041
 30
0.0
 10
6.4412704107
 20
4.0360231977
 30
0.0
 10
6.4380889104
 20
4.0366474667
 30
0.0
 10
6.4351071439
 20
4.0374807908
 30
0.0
 10
6.4323596914
 20
4.0384969227
 30
0.0
 10
6.4291427503
 20
4.0400021169
 30
0.0
 10
6.4269515946
 20
4.0413862858
 30
0.0
 10
6.4256449999
 20
4.0424056579
 30
0.0
  0
SPLINE
  5
382
100
AcDbEntity
  8
ALL_ASSEMBLY_MEMBERS
100
AcDbSpline
 62
7
  6
CONTINUOUS
 70
0
 71
3
 72
21
 73
17
 74
0
 42
0.0000001
 43
0.0000001
 44
0.0000000001
 40
0.0
 40
0.0
 40
0.0
 40
0.0
 40
0.1016043231
 40
0.1587904523
 40
0.2202459286
 40
0.2858096322
 40
0.3549426184
 40
0.4267543531
 40
0.500000756
 40
0.5732472525
 40
0.6450596548
 40
0.7141931175
 40
0.7797580148
 40
0.8412126469
 40
0.8983977733
 40
1.0
 40
1.0
 40
1.0
 40
1.0
 10
6.4703663594
 20
4.0497559501
 30
0.0
 10
6.4690406543
 20
4.0488892658
 30
0.0
 10
6.4668375229
 20
4.0477290317
 30
0.0
 10
6.4636393438
 20
4.0464762878
 30
0.0
 10
6.4608935237
 20
4.0456262872
 30
0.0
 10
6.4579139741
 20
4.0449291762
 30
0.0
 10
6.4547349865
 20
4.044406992
 30
0.0
 10
6.4514092806
 20
4.0440846171
 30
0.0
 10
6.4480056426
 20
4.0439742016
 30
0.0
 10
6.4446019949
 20
4.044084626
 30
0.0
 10
6.441276269
 20
4.0444069989
 30
0.0
 10
6.4380972497
 20
4.044929214
 30
0.0
 10
6.435117686
 20
4.045626321
 30
0.0
 10
6.4323718802
 20
4.0464763343
 30
0.0
 10
6.4291737637
 20
4.047729069
 30
0.0
 10
6.4269706777
 20
4.0488892837
 30
0.0
 10
6.4256449999
 20
4.0497559501
 30
0.0
  0
SPLINE
  5
383
100
AcDbEntity
  8
ALL_ASSEMBLY_MEMBERS
100
AcDbSpline
 62
7
  6
CONTINUOUS
 70
0
 71
3
 72
23
 73
19
 74
0
 42
0.0000001
 43
0.0000001
 44
0.0000000001
 40
0.0
 40
0.0
 40
0.0
 40
0.0
 40
0.0471516705
 40
0.0989772762
 40
0.1556205859
 40
0.2170234461
 40
0.2829674092
 40
0.3528339796
 40
0.4256336507
 40
0.5000007687
 40
0.5743679801
 40
0.6471683257
 40
0.7170353587
 40
0.782980518
 40
0.8443825064
 40
0.9010247924
 40
0.9528490982
 40
1.0
 40
1.0
 40
1.0
 40
1.0
 10
6.4703663594
 20
4.0591038537
 30
0.0
 10
6.4697247244
 20
4.0587688765
 30
0.0
 10
6.468348474
 20
4.058121101
 30
0.0
 10
6.466118394
 20
4.0572598082
 30
0.0
 10
6.4636277113
 20
4.0564816123
 30
0.0
 10
6.4608841287
 20
4.0558040359
 30
0.0
 10
6.4579066192
 20
4.0552481995
 30
0.0
 10
6.4547299324
 20
4.0548318396
 30
0.0
 10
6.4514067211
 20
4.0545747927
 30
0.0
 10
6.4480056427
 20
4.0544867489
 30
0.0
 10
6.4446045544
 20
4.0545747998
 30
0.0
 10
6.4412813237
 20
4.0548318451
 30
0.0
 10
6.4381046041
 20
4.0552482297
 30
0.0
 10
6.4351270818
 20
4.0558040628
 30
0.0
 10
6.4323835124
 20
4.056481649
 30
0.0
 10
6.4298928799
 20
4.0572598402
 30
0.0
 10
6.4276628444
 20
4.0581211163
 30
0.0
 10
6.4262866244
 20
4.0587688819
 30
0.0
 10
6.4256449999
 20
4.0591038537
 30
0.0
  0
SPLINE
  5
384
100
AcDbEntity
  8
ALL_ASSEMBLY_MEMBERS
100
AcDbSpline
 62
7
  6
CONTINUOUS
 70
0
 71
3
 72
23
 73
19
 74
0
 42
0.0000001
 43
0.0000001
 44
0.0000000001
 40
0.0
 40
0.0
 40
0.0
 40
0.0
 40
0.0457416068
 40
0.0966597652
 40
0.1528606473
 40
0.2142401162
 40
0.280525607
 40
0.3510287535
 40
0.4246761211
 40
0.5000007791
 40
0.5753255304
 40
0.6489735783
 40
0.7194771764
 40
0.7857638657
 40
0.8471424394
 40
0.9033422793
 40
0.9542591505
 40
1.0
 40
1.0
 40
1.0
 40
1.0
 10
6.4703663594
 20
4.0703741006
 30
0.0
 10
6.4697197633
 20
4.0701243985
 30
0.0
 10
6.4683352723
 20
4.0696430343
 30
0.0
 10
6.466106868
 20
4.0690071093
 30
0.0
 10
6.463618017
 20
4.0684324328
 30
0.0
 10
6.4608762244
 20
4.0679319512
 30
0.0
 10
6.4579006389
 20
4.0675213533
 30
0.0
 10
6.4547258585
 20
4.067213752
 30
0.0
 10
6.4514046798
 20
4.0670238468
 30
0.0
 10
6.4480056428
 20
4.0669587963
 30
0.0
 10
6.4446065957
 20
4.0670238521
 30
0.0
 10
6.4412853981
 20
4.067213756
 30
0.0
 10
6.4381105841
 20
4.0675213757
 30
0.0
 10
6.4351349867
 20
4.067931971
 30
0.0
 10
6.4323932067
 20
4.0684324599
 30
0.0
 10
6.4299044052
 20
4.0690071332
 30
0.0
 10
6.4276760459
 20
4.0696430456
 30
0.0
 10
6.4262915853
 20
4.0701244026
 30
0.0
 10
6.4256449999
 20
4.0703741006
 30
0.0
  0
SPLINE
  5
385
100
AcDbEntity
  8
ALL_ASSEMBLY_MEMBERS
100
AcDbSpline
 62
7
  6
CONTINUOUS
 70
0
 71
3
 72
23
 73
19
 74
0
 42
0.0000001
 43
0.0000001
 44
0.0000000001
 40
0.0
 40
0.0
 40
0.0
 40
0.0
 40
0.0446651512
 40
0.0948998265
 40
0.1507729509
 40
0.2121403495
 40
0.2786894602
 40
0.3496732678
 40
0.4239581261
 40
0.5000003888
 40
0.576042497
 40
0.65032717
 40
0.7213106954
 40
0.7878596048
 40
0.8492270048
 40
0.905100174
 40
0.9553348546
 40
1.0
 40
1.0
 40
1.0
 40
1.0
 10
6.4703663594
 20
4.0834759444
 30
0.0
 10
6.4697155648
 20
4.0833150803
 30
0.0
 10
6.4683246686
 20
4.0830059052
 30
0.0
 10
6.4660980444
 20
4.0825995465
 30
0.0
 10
6.4636109392
 20
4.0822322261
 30
0.0
 10
6.4608706638
 20
4.0819122421
 30
0.0
 10
6.457896559
 20
4.0816497041
 30
0.0
 10
6.454723119
 20
4.0814529739
 30
0.0
 10
6.4514033326
 20
4.0813315353
 30
0.0
 10
6.4480056645
 20
4.0812899215
 30
0.0
 10
6.4446079991
 20
4.0813315358
 30
0.0
 10
6.4412882221
 20
4.0814529748
 30
0.0
 10
6.4381147921
 20
4.0816497043
 30
0.0
 10
6.4351406945
 20
4.0819122425
 30
0.0
 10
6.4324004215
 20
4.0822322261
 30
0.0
 10
6.4299133154
 20
4.0825995463
 30
0.0
 10
6.4276866906
 20
4.0830059051
 30
0.0
 10
6.4262957945
 20
4.0833150803
 30
0.0
 10
6.4256449999
 20
4.0834759444
 30
0.0
  0
SPLINE
  5
386
100
AcDbEntity
  8
ALL_ASSEMBLY_MEMBERS
100
AcDbSpline
 62
7
  6
CONTINUOUS
 70
0
 71
3
 72
17
 73
13
 74
0
 42
0.0000001
 43
0.0000001
 44
0.0000000001
 40
0.0
 40
0.0
 40
0.0
 40
0.0
 40
0.0440296858
 40
0.0938677844
 40
0.2109209542
 40
0.3488881924
 40
0.5000007915
 40
0.6511141713
 40
0.7890830503
 40
0.9061342321
 40
0.9559710585
 40
1.0
 40
1.0
 40
1.0
 40
1.0
 10
6.4703663594
 20
4.0983038909
 30
0.0
 10
6.4697128538
 20
4.0982344935
 30
0.0
 10
6.4683180394
 20
4.0981013684
 30
0.0
 10
6.4651793629
 20
4.0978555798
 30
0.0
 10
6.4606353675
 20
4.0976051685
 30
0.0
 10
6.454576028
 20
4.0974147618
 30
0.0
 10
6.4480056326
 20
4.0973477429
 30
0.0
 10
6.4414352126
 20
4.0974147638
 30
0.0
 10
6.4353758667
 20
4.0976051728
 30
0.0
 10
6.4308318957
 20
4.0978555873
 30
0.0
 10
6.4276932788
 20
4.0981013716
 30
0.0
 10
6.4262984945
 20
4.0982344947
 30
0.0
 10
6.4256449999
 20
4.0983038909
 30
0.0
  0
SPLINE
  5
387
100
AcDbEntity
  8
ALL_ASSEMBLY_MEMBERS
100
AcDbSpline
 62
7
  6
CONTINUOUS
 70
0
 71
3
 72
17
 73
13
 74
0
 42
0.0000001
 43
0.0000001
 44
0.0000000001
 40
0.0
 40
0.0
 40
0.0
 40
0.0
 40
0.0440308416
 40
0.0938696745
 40
0.2109231956
 40
0.3488895227
 40
0.5000008969
 40
0.6511127864
 40
0.7890808157
 40
0.9061323375
 40
0.9559698994
 40
1.0
 40
1.0
 40
1.0
 40
1.0
 10
6.4256449999
 20
4.4974400241
 30
0.0
 10
6.4262985007
 20
4.4975096909
 30
0.0
 10
6.4276933084
 20
4.4976433333
 30
0.0
 10
6.4308319752
 20
4.4978900773
 30
0.0
 10
6.4353759688
 20
4.498141463
 30
0.0
 10
6.441435321
 20
4.4983326111
 30
0.0
 10
6.4480057275
 20
4.4983998908
 30
0.0
 10
6.4545761595
 20
4.4983326089
 30
0.0
 10
6.4606355149
 20
4.4981414588
 30
0.0
 10
6.4651794848
 20
4.4978900698
 30
0.0
 10
6.4683180919
 20
4.4976433301
 30
0.0
 10
6.4697128697
 20
4.4975096897
 30
0.0
 10
6.4703663594
 20
4.4974400241
 30
0.0
  0
SPLINE
  5
388
100
AcDbEntity
  8
ALL_ASSEMBLY_MEMBERS
100
AcDbSpline
 62
7
  6
CONTINUOUS
 70
0
 71
3
 72
23
 73
19
 74
0
 42
0.0000001
 43
0.0000001
 44
0.0000000001
 40
0.0
 40
0.0
 40
0.0
 40
0.0
 40
0.0446684153
 40
0.0949061113
 40
0.1507817332
 40
0.2121508133
 40
0.2786980753
 40
0.3496804482
 40
0.4239626521
 40
0.5000024072
 40
0.5760412186
 40
0.6503226782
 40
0.7213042855
 40
0.7878516637
 40
0.8492200546
 40
0.9050950431
 40
0.955332009
 40
1.0
 40
1.0
 40
1.0
 40
1.0
 10
6.4256449999
 20
4.5122631033
 30
0.0
 10
6.4262957946
 20
4.5124242336
 30
0.0
 10
6.4276867071
 20
4.5127339231
 30
0.0
 10
6.4299133931
 20
4.5131409658
 30
0.0
 10
6.4324005754
 20
4.5135088976
 30
0.0
 10
6.4351408875
 20
4.5138294088
 30
0.0
 10
6.4381149977
 20
4.5140923847
 30
0.0
 10
6.4412884014
 20
4.5142894238
 30
0.0
 10
6.4446081566
 20
4.5144110651
 30
0.0
 10
6.4480057739
 20
4.5144527396
 30
0.0
 10
6.4514033801
 20
4.5144110626
 30
0.0
 10
6.4547230983
 20
4.5142894176
 30
0.0
 10
6.4578964807
 20
4.514092374
 30
0.0
 10
6.4608705709
 20
4.5138293994
 30
0.0
 10
6.4636108646
 20
4.5135088871
 30
0.0
 10
6.466098016
 20
4.5131409571
 30
0.0
 10
6.4683246756
 20
4.512733919
 30
0.0
 10
6.4697155709
 20
4.512424232
 30
0.0
 10
6.4703663594
 20
4.5122631033
 30
0.0
  0
SPLINE
  5
389
100
AcDbEntity
  8
ALL_ASSEMBLY_MEMBERS
100
AcDbSpline
 62
7
  6
CONTINUOUS
 70
0
 71
3
 72
23
 73
19
 74
0
 42
0.0000001
 43
0.0000001
 44
0.0000000001
 40
0.0
 40
0.0
 40
0.0
 40
0.0
 40
0.0457452965
 40
0.0966658195
 40
0.1528678516
 40
0.2142473691
 40
0.2805318945
 40
0.3510333379
 40
0.4246786014
 40
0.5000008828
 40
0.5753231389
 40
0.6489689404
 40
0.7194708522
 40
0.7857566191
 40
0.8471352407
 40
0.9033362207
 40
0.9542554578
 40
1.0
 40
1.0
 40
1.0
 40
1.0
 10
6.4256449999
 20
4.5253597516
 30
0.0
 10
6.4262915824
 20
4.5256097079
 30
0.0
 10
6.4276760518
 20
4.5260915668
 30
0.0
 10
6.4299044619
 20
4.5267281564
 30
0.0
 10
6.4323933189
 20
4.5273034326
 30
0.0
 10
6.4351351156
 20
4.527804436
 30
0.0
 10
6.4381107043
 20
4.5282154625
 30
0.0
 10
6.441285489
 20
4.5285233845
 30
0.0
 10
6.444606675
 20
4.5287134868
 30
0.0
 10
6.4480057195
 20
4.5287786059
 30
0.0
 10
6.451404772
 20
4.5287134823
 30
0.0
 10
6.4547259729
 20
4.52852338
 30
0.0
 10
6.4579007901
 20
4.5282154399
 30
0.0
 10
6.4608763916
 20
4.5278044165
 30
0.0
 10
6.4636181763
 20
4.5273034056
 30
0.0
 10
6.4661069835
 20
4.5267281324
 30
0.0
 10
6.4683353484
 20
4.5260915555
 30
0.0
 10
6.4697197876
 20
4.5256097038
 30
0.0
 10
6.4703663594
 20
4.5253597516
 30
0.0
  0
SPLINE
  5
38A
100
AcDbEntity
  8
ALL_ASSEMBLY_MEMBERS
100
AcDbSpline
 62
7
  6
CONTINUOUS
 70
0
 71
3
 72
23
 73
19
 74
0
 42
0.0000001
 43
0.0000001
 44
0.0000000001
 40
0.0
 40
0.0
 40
0.0
 40
0.0
 40
0.0471561677
 40
0.0989847027
 40
0.1556294661
 40
0.2170324223
 40
0.2829752319
 40
0.352839711
 40
0.4256367419
 40
0.5000008708
 40
0.5743649761
 40
0.6471625418
 40
0.7170275002
 40
0.7829715477
 40
0.8443736315
 40
0.9010173619
 40
0.9528445981
 40
1.0
 40
1.0
 40
1.0
 40
1.0
 10
6.4256449999
 20
4.5366245164
 30
0.0
 10
6.4262866201
 20
4.5369597366
 30
0.0
 10
6.4276628451
 20
4.5376079876
 30
0.0
 10
6.4298929301
 20
4.53846993
 30
0.0
 10
6.4323836187
 20
4.539248712
 30
0.0
 10
6.435127206
 20
4.5399267981
 30
0.0
 10
6.4381047196
 20
4.5404830534
 30
0.0
 10
6.441281412
 20
4.5408997266
 30
0.0
 10
6.444604632
 20
4.5411569657
 30
0.0
 10
6.4480057195
 20
4.5412450768
 30
0.0
 10
6.4514068149
 20
4.5411569597
 30
0.0
 10
6.4547300504
 20
4.5408997204
 30
0.0
 10
6.4579067744
 20
4.5404830229
 30
0.0
 10
6.4608843019
 20
4.5399267715
 30
0.0
 10
6.4636278764
 20
4.5392486754
 30
0.0
 10
6.4661185145
 20
4.5384698978
 30
0.0
 10
6.468348555
 20
4.5376079722
 30
0.0
 10
6.4697247496
 20
4.5369597312
 30
0.0
 10
6.4703663594
 20
4.5366245164
 30
0.0
  0
SPLINE
  5
38B
100
AcDbEntity
  8
ALL_ASSEMBLY_MEMBERS
100
AcDbSpline
 62
7
  6
CONTINUOUS
 70
0
 71
3
 72
21
 73
17
 74
0
 42
0.0000001
 43
0.0000001
 44
0.0000000001
 40
0.0
 40
0.0
 40
0.0
 40
0.0
 40
0.1016125399
 40
0.1588003513
 40
0.2202559903
 40
0.2858184465
 40
0.3549491033
 40
0.4267578487
 40
0.5000008562
 40
0.5732438421
 40
0.6450531188
 40
0.7141842684
 40
0.7797479586
 40
0.8412027528
 40
0.8983895527
 40
1.0
 40
1.0
 40
1.0
 40
1.0
 10
6.4256449999
 20
4.5459666955
 30
0.0
 10
6.4269706474
 20
4.5468338417
 30
0.0
 10
6.4291737473
 20
4.5479947461
 30
0.0
 10
6.4323719825
 20
4.5492482367
 30
0.0
 10
6.4351178072
 20
4.5500987311
 30
0.0
 10
6.4380973612
 20
4.5507962479
 30
0.0
 10
6.4412763553
 20
4.5513187357
 30
0.0
 10
6.4446020711
 20
4.5516412965
 30
0.0
 10
6.4480057196
 20
4.5517517775
 30
0.0
 10
6.4514093757
 20
4.5516412889
 30
0.0
 10
6.4547351077
 20
4.5513187279
 30
0.0
 10
6.4579141323
 20
4.5507962098
 30
0.0
 10
6.4608937015
 20
4.5500986977
 30
0.0
 10
6.4636395123
 20
4.5492481904
 30
0.0
 10
6.4668376846
 20
4.5479947085
 30
0.0
 10
6.4690407393
 20
4.5468338238
 30
0.0
 10
6.4703663594
 20
4.5459666955
 30
0.0
  0
SPLINE
  5
38C
100
AcDbEntity
  8
ALL_ASSEMBLY_MEMBERS
100
AcDbSpline
 62
7
  6
CONTINUOUS
 70
0
 71
3
 72
21
 73
17
 74
0
 42
0.0000001
 43
0.0000001
 44
0.0000000001
 40
0.0
 40
0.0
 40
0.0
 40
0.0
 40
0.104496636
 40
0.1622812052
 40
0.2238023336
 40
0.2889535313
 40
0.3572793431
 40
0.4279977829
 40
0.5000008407
 40
0.5720038794
 40
0.6427228471
 40
0.711049167
 40
0.7762015944
 40
0.8377219081
 40
0.8955054888
 40
1.0
 40
1.0
 40
1.0
 40
1.0
 10
6.4256449999
 20
4.553311067
 30
0.0
 10
6.4269515687
 20
4.5543308893
 30
0.0
 10
6.4291427325
 20
4.5557157173
 30
0.0
 10
6.4323597922
 20
4.5572216468
 30
0.0
 10
6.4351072636
 20
4.558238237
 30
0.0
 10
6.4380890189
 20
4.559071955
 30
0.0
 10
6.4412704957
 20
4.5596964787
 30
0.0
 10
6.4445990808
 20
4.5600820527
 30
0.0
 10
6.4480057196
 20
4.5602141115
 30
0.0
 10
6.451412366
 20
4.5600820437
 30
0.0
 10
6.454740968
 20
4.5596964692
 30
0.0
 10
6.4579224741
 20
4.5590719097
 30
0.0
 10
6.4609042459
 20
4.558238197
 30
0.0
 10
6.4636517025
 20
4.5572215915
 30
0.0
 10
6.4668686982
 20
4.555715673
 30
0.0
 10
6.4690598172
 20
4.5543308685
 30
0.0
 10
6.4703663594
 20
4.553311067
 30
0.0
  0
SPLINE
  5
38D
100
AcDbEntity
  8
ALL_ASSEMBLY_MEMBERS
100
AcDbSpline
 62
7
  6
CONTINUOUS
 70
0
 71
3
 72
21
 73
17
 74
0
 42
0.0000001
 43
0.0000001
 44
0.0000000001
 40
0.0
 40
0.0
 40
0.0
 40
0.0
 40
0.1074347166
 40
0.1658479652
 40
0.2274544032
 40
0.2921949858
 40
0.3596956577
 40
0.429285782
 40
0.5000008259
 40
0.5707158521
 40
0.6403064991
 40
0.7078076956
 40
0.7725495043
 40
0.8341551585
 40
0.8925674417
 40
1.0
 40
1.0
 40
1.0
 40
1.0
 10
6.4256449999
 20
4.558598495
 30
0.0
 10
6.4269345866
 20
4.559759967
 30
0.0
 10
6.4291125238
 20
4.5613558364
 30
0.0
 10
6.4323474332
 20
4.5631049486
 30
0.0
 10
6.4350961824
 20
4.5642798519
 30
0.0
 10
6.4380800228
 20
4.5652435452
 30
0.0
 10
6.4412640561
 20
4.5659654904
 30
0.0
 10
6.4445957574
 20
4.566411267
 30
0.0
 10
6.4480057197
 20
4.5665639424
 30
0.0
 10
6.4514156895
 20
4.5664112567
 30
0.0
 10
6.4547474082
 20
4.5659654792
 30
0.0
 10
6.4579314696
 20
4.5652434931
 30
0.0
 10
6.460915328
 20
4.5642798054
 30
0.0
 10
6.4636640614
 20
4.5631048848
 30
0.0
 10
6.4668989056
 20
4.5613557859
 30
0.0
 10
6.4690767986
 20
4.5597599436
 30
0.0
 10
6.4703663594
 20
4.558598495
 30
0.0
  0
SPLINE
  5
38E
100
AcDbEntity
  8
ALL_ASSEMBLY_MEMBERS
100
AcDbSpline
 62
7
  6
CONTINUOUS
 70
0
 71
3
 72
19
 73
15
 74
0
 42
0.0000001
 43
0.0000001
 44
0.0000000001
 40
0.0
 40
0.0
 40
0.0
 40
0.0
 40
0.1103385043
 40
0.2309826224
 40
0.2953495892
 40
0.3620587584
 40
0.4305489798
 40
0.5000008093
 40
0.5694526233
 40
0.6379433635
 40
0.7046530745
 40
0.7690212643
 40
0.8896636884
 40
1.0
 40
1.0
 40
1.0
 40
1.0
 10
6.4256449999
 20
4.561786406
 30
0.0
 10
6.4269199869
 20
4.5630786335
 30
0.0
 10
6.4298680341
 20
4.5655202796
 30
0.0
 10
6.4341735399
 20
4.5678433779
 30
0.0
 10
6.4380705446
 20
4.569261347
 30
0.0
 10
6.4412573157
 20
4.5700753256
 30
0.0
 10
6.4445921963
 20
4.5705779757
 30
0.0
 10
6.4480057198
 20
4.5707501437
 30
0.0
 10
6.4514192505
 20
4.5705779641
 30
0.0
 10
6.4547541494
 20
4.5700753128
 30
0.0
 10
6.4579409472
 20
4.5692612889
 30
0.0
 10
6.4618379575
 20
4.5678433322
 30
0.0
 10
6.4661434039
 20
4.565520213
 30
0.0
 10
6.4690913977
 20
4.5630786079
 30
0.0
 10
6.4703663594
 20
4.561786406
 30
0.0
  0
SPLINE
  5
38F
100
AcDbEntity
  8
ALL_ASSEMBLY_MEMBERS
100
AcDbSpline
 62
7
  6
CONTINUOUS
 70
0
 71
3
 72
23
 73
19
 74
0
 42
0.0000001
 43
0.0000001
 44
0.0000000001
 40
0.0
 40
0.0
 40
0.0
 40
0.0
 40
0.1247664233
 40
0.1872875438
 40
0.249788355
 40
0.3123075016
 40
0.374848671
 40
0.4061417979
 40
0.4374451443
 40
0.5000007351
 40
0.5625563235
 40
0.5938598497
 40
0.625153291
 40
0.6876951024
 40
0.7502154585
 40
0.8127156711
 40
0.8752359507
 40
1.0
 40
1.0
 40
1.0
 40
1.0
 10
6.4256449999
 20
4.0983038909
 30
0.0
 10
6.4268673337
 20
4.0963755753
 30
0.0
 10
6.4289628589
 20
4.0936283452
 30
0.0
 10
6.4322771154
 20
4.0904699015
 30
0.0
 10
6.4350249439
 20
4.0883991402
 30
0.0
 10
6.4380153322
 20
4.0866950286
 30
0.0
 10
6.4406817302
 20
4.085628487
 30
0.0
 10
6.4428908755
 20
4.0850183949
 30
0.0
 10
6.4451401261
 20
4.0845777357
 30
0.0
 10
6.4480057196
 20
4.0843505102
 30
0.0
 10
6.4508713172
 20
4.0845777437
 30
0.0
 10
6.4531205721
 20
4.0850184247
 30
0.0
 10
6.4553297409
 20
4.0856285121
 30
0.0
 10
6.4579961551
 20
4.0866951203
 30
0.0
 10
6.4609865724
 20
4.0883992247
 30
0.0
 10
6.4637343772
 20
4.0904700135
 30
0.0
 10
6.4670485634
 20
4.0936284274
 30
0.0
 10
6.4691440489
 20
4.096375612
 30
0.0
 10
6.4703663594
 20
4.0983038909
 30
0.0
  0
SPLINE
  5
390
100
AcDbEntity
  8
ALL_ASSEMBLY_MEMBERS
100
AcDbSpline
 62
7
  6
CONTINUOUS
 70
0
 71
3
 72
23
 73
19
 74
0
 42
0.0000001
 43
0.0000001
 44
0.0000000001
 40
0.0
 40
0.0
 40
0.0
 40
0.0
 40
0.1248442109
 40
0.1873852449
 40
0.2498916502
 40
0.3124017722
 40
0.3749204731
 40
0.4061982079
 40
0.4374840334
 40
0.5000007347
 40
0.5625174336
 40
0.5938034389
 40
0.6250814881
 40
0.6876008315
 40
0.750112163
 40
0.8126179705
 40
0.875158164
 40
1.0
 40
1.0
 40
1.0
 40
1.0
 10
6.4256449999
 20
4.1147385476
 30
0.0
 10
6.4268671203
 20
4.1128066968
 30
0.0
 10
6.4289622925
 20
4.110054206
 30
0.0
 10
6.4322768151
 20
4.1068890819
 30
0.0
 10
6.4350246059
 20
4.1048141297
 30
0.0
 10
6.4380149948
 20
4.1031065336
 30
0.0
 10
6.4406815596
 20
4.1020377399
 30
0.0
 10
6.4428908187
 20
4.1014263847
 30
0.0
 10
6.4451400429
 20
4.1009848397
 30
0.0
 10
6.4480057196
 20
4.100757139
 30
0.0
 10
6.4508714004
 20
4.1009848478
 30
0.0
 10
6.4531206289
 20
4.1014264145
 30
0.0
 10
6.4553299115
 20
4.1020377652
 30
0.0
 10
6.4579964924
 20
4.1031066254
 30
0.0
 10
6.4609869104
 20
4.1048142144
 30
0.0
 10
6.4637346774
 20
4.1068891941
 30
0.0
 10
6.4670491298
 20
4.1100542884
 30
0.0
 10
6.4691442623
 20
4.1128067336
 30
0.0
 10
6.4703663594
 20
4.1147385476
 30
0.0
  0
SPLINE
  5
391
100
AcDbEntity
  8
ALL_ASSEMBLY_MEMBERS
100
AcDbSpline
 62
7
  6
CONTINUOUS
 70
0
 71
3
 72
15
 73
11
 74
0
 42
0.0000001
 43
0.0000001
 44
0.0000000001
 40
0.0
 40
0.0
 40
0.0
 40
0.0
 40
0.0936542658
 40
0.2106700399
 40
0.3487271419
 40
0.5000007926
 40
0.6512752245
 40
0.7893339663
 40
0.9063477486
 40
1.0
 40
1.0
 40
1.0
 40
1.0
 10
6.4703663594
 20
4.1147385476
 30
0.0
 10
6.4689709338
 20
4.1147882961
 30
0.0
 10
6.4658311714
 20
4.114876863
 30
0.0
 10
6.4606327606
 20
4.1149732093
 30
0.0
 10
6.4545747262
 20
4.115037037
 30
0.0
 10
6.4480056326
 20
4.1150595541
 30
0.0
 10
6.4414365145
 20
4.1150370364
 30
0.0
 10
6.4353784737
 20
4.1149732078
 30
0.0
 10
6.4301800982
 20
4.1148768607
 30
0.0
 10
6.4270403955
 20
4.114788295
 30
0.0
 10
6.4256449999
 20
4.1147385476
 30
0.0
  0
SPLINE
  5
392
100
AcDbEntity
  8
ALL_ASSEMBLY_MEMBERS
100
AcDbSpline
 62
7
  6
CONTINUOUS
 70
0
 71
3
 72
23
 73
19
 74
0
 42
0.0000001
 43
0.0000001
 44
0.0000000001
 40
0.0
 40
0.0
 40
0.0
 40
0.0
 40
0.1246092948
 40
0.1870902292
 40
0.2495797844
 40
0.312117189
 40
0.3747037407
 40
0.4060279429
 40
0.4373666562
 40
0.500000736
 40
0.5626348132
 40
0.5939737062
 40
0.6252982231
 40
0.6878854155
 40
0.7504240297
 40
0.8129129847
 40
0.8753930771
 40
1.0
 40
1.0
 40
1.0
 40
1.0
 10
6.4256449999
 20
4.132647585
 30
0.0
 10
6.4268677665
 20
4.130726402
 30
0.0
 10
6.4289640057
 20
4.1279897881
 30
0.0
 10
6.4322777224
 20
4.1248448211
 30
0.0
 10
6.4350256262
 20
4.1227825151
 30
0.0
 10
6.4380160122
 20
4.1210854337
 30
0.0
 10
6.4406820737
 20
4.1200234338
 30
0.0
 10
6.4428909899
 20
4.1194158897
 30
0.0
 10
6.4451402934
 20
4.1189770175
 30
0.0
 10
6.4480057196
 20
4.1187507505
 30
0.0
 10
6.4508711499
 20
4.1189770256
 30
0.0
 10
6.4531204578
 20
4.1194159193
 30
0.0
 10
6.4553293974
 20
4.1200234589
 30
0.0
 10
6.4579954751
 20
4.121085525
 30
0.0
 10
6.46098589
 20
4.1227825993
 30
0.0
 10
6.4637337702
 20
4.1248449326
 30
0.0
 10
6.4670474167
 20
4.1279898701
 30
0.0
 10
6.4691436161
 20
4.1307264386
 30
0.0
 10
6.4703663594
 20
4.132647585
 30
0.0
  0
SPLINE
  5
393
100
AcDbEntity
  8
ALL_ASSEMBLY_MEMBERS
100
AcDbSpline
 62
7
  6
CONTINUOUS
 70
0
 71
3
 72
21
 73
17
 74
0
 42
0.0000001
 43
0.0000001
 44
0.0000000001
 40
0.0
 40
0.0
 40
0.0
 40
0.0
 40
0.0442895774
 40
0.0942900868
 40
0.150054418
 40
0.2114227178
 40
0.2780627424
 40
0.3492136024
 40
0.5000007897
 40
0.6507887567
 40
0.7219400573
 40
0.7885812832
 40
0.849948664
 40
0.9057119339
 40
0.9557111688
 40
1.0
 40
1.0
 40
1.0
 40
1.0
 10
6.4703663594
 20
4.132647585
 30
0.0
 10
6.4697139727
 20
4.1327631929
 30
0.0
 10
6.4683207418
 20
4.1329851204
 30
0.0
 10
6.466094728
 20
4.1332762748
 30
0.0
 10
6.4636081571
 20
4.1335394832
 30
0.0
 10
6.4608683852
 20
4.1337687803
 30
0.0
 10
6.4578948125
 20
4.1339569663
 30
0.0
 10
6.4535818546
 20
4.1341484141
 30
0.0
 10
6.4480056326
 20
4.1342430328
 30
0.0
 10
6.4424294038
 20
4.1341484139
 30
0.0
 10
6.4381164101
 20
4.1339569561
 30
0.0
 10
6.4351428265
 20
4.1337687712
 30
0.0
 10
6.4324030666
 20
4.1335394707
 30
0.0
 10
6.4299165445
 20
4.1332762637
 30
0.0
 10
6.4276905764
 20
4.1329851152
 30
0.0
 10
6.4262973757
 20
4.1327631909
 30
0.0
 10
6.4256449999
 20
4.132647585
 30
0.0
  0
SPLINE
  5
394
100
AcDbEntity
  8
ALL_ASSEMBLY_MEMBERS
100
AcDbSpline
 62
7
  6
CONTINUOUS
 70
0
 71
3
 72
23
 73
19
 74
0
 42
0.0000001
 43
0.0000001
 44
0.0000000001
 40
0.0
 40
0.0
 40
0.0
 40
0.0
 40
0.1240613178
 40
0.1864025076
 40
0.2488532661
 40
0.3114546438
 40
0.3741994259
 40
0.4056318332
 40
0.4370936286
 40
0.500000739
 40
0.5629078462
 40
0.5943698211
 40
0.6258025441
 40
0.6885479627
 40
0.7511505503
 40
0.8136007027
 40
0.8759410468
 40
1.0
 40
1.0
 40
1.0
 40
1.0
 10
6.4256449999
 20
4.1518868019
 30
0.0
 10
6.4268692949
 20
4.1499904101
 30
0.0
 10
6.4289680332
 20
4.1472907154
 30
0.0
 10
6.4322798447
 20
4.1441925673
 30
0.0
 10
6.4350280017
 20
4.1421596473
 30
0.0
 10
6.4380183697
 20
4.1404869924
 30
0.0
 10
6.4406832602
 20
4.1394407603
 30
0.0
 10
6.4428913844
 20
4.1388420636
 30
0.0
 10
6.4451408699
 20
4.1384094013
 30
0.0
 10
6.4480057196
 20
4.1381864611
 30
0.0
 10
6.4508705733
 20
4.1384094092
 30
0.0
 10
6.4531200633
 20
4.1388420928
 30
0.0
 10
6.4553282107
 20
4.1394407849
 30
0.0
 10
6.4579931178
 20
4.1404870826
 30
0.0
 10
6.4609835143
 20
4.1421597302
 30
0.0
 10
6.4637316479
 20
4.1441926773
 30
0.0
 10
6.4670433894
 20
4.1472907964
 30
0.0
 10
6.4691420878
 20
4.1499904462
 30
0.0
 10
6.4703663594
 20
4.1518868019
 30
0.0
  0
SPLINE
  5
395
100
AcDbEntity
  8
ALL_ASSEMBLY_MEMBERS
100
AcDbSpline
 62
7
  6
CONTINUOUS
 70
0
 71
3
 72
23
 73
19
 74
0
 42
0.0000001
 43
0.0000001
 44
0.0000000001
 40
0.0
 40
0.0
 40
0.0
 40
0.0
 40
0.0451576716
 40
0.0957046301
 40
0.1517274792
 40
0.2131006996
 40
0.2795281932
 40
0.3502924897
 40
0.4242859416
 40
0.5000007834
 40
0.5757157184
 40
0.6497098531
 40
0.7204745966
 40
0.7869032899
 40
0.8482756055
 40
0.9042974047
 40
0.9548430812
 40
1.0
 40
1.0
 40
1.0
 40
1.0
 10
6.4703663594
 20
4.1518868019
 30
0.0
 10
6.4697175251
 20
4.1520927013
 30
0.0
 10
6.4683295468
 20
4.1524890067
 30
0.0
 10
6.4661020189
 20
4.1530111191
 30
0.0
 10
6.4636140365
 20
4.1534830023
 30
0.0
 10
6.4608730357
 20
4.1538940135
 30
0.0
 10
6.4578982575
 20
4.154231228
 30
0.0
 10
6.4547242503
 20
4.1544838686
 30
0.0
 10
6.4514038781
 20
4.1546398442
 30
0.0
 10
6.4480056428
 20
4.1546932739
 30
0.0
 10
6.4446073974
 20
4.1546398398
 30
0.0
 10
6.4412870065
 20
4.1544838653
 30
0.0
 10
6.4381129653
 20
4.1542312096
 30
0.0
 10
6.4351381757
 20
4.1538939972
 30
0.0
 10
6.4323971872
 20
4.1534829801
 30
0.0
 10
6.429909254
 20
4.1530110994
 30
0.0
 10
6.4276817715
 20
4.1524889973
 30
0.0
 10
6.4262938234
 20
4.1520926978
 30
0.0
 10
6.4256449999
 20
4.1518868019
 30
0.0
  0
SPLINE
  5
396
100
AcDbEntity
  8
ALL_ASSEMBLY_MEMBERS
100
AcDbSpline
 62
7
  6
CONTINUOUS
 70
0
 71
3
 72
23
 73
19
 74
0
 42
0.0000001
 43
0.0000001
 44
0.0000000001
 40
0.0
 40
0.0
 40
0.0
 40
0.0
 40
0.1231997205
 40
0.1853224559
 40
0.2477136502
 40
0.3104165443
 40
0.3734099883
 40
0.4050119997
 40
0.4366665118
 40
0.5000007437
 40
0.5633349716
 40
0.5949896627
 40
0.6265919915
 40
0.6895860653
 40
0.75229017
 40
0.8146807489
 40
0.8768026329
 40
1.0
 40
1.0
 40
1.0
 40
1.0
 10
6.4256449999
 20
4.1723012869
 30
0.0
 10
6.4268717588
 20
4.170443626
 30
0.0
 10
6.4289744552
 20
4.1678016733
 30
0.0
 10
6.4322831986
 20
4.1647765958
 30
0.0
 10
6.4350317238
 20
4.1627895743
 30
0.0
 10
6.438022032
 20
4.1611550537
 30
0.0
 10
6.4406850908
 20
4.1601333963
 30
0.0
 10
6.4428919915
 20
4.1595484956
 30
0.0
 10
6.4451417548
 20
4.1591255303
 30
0.0
 10
6.4480057196
 20
4.1589077743
 30
0.0
 10
6.4508696884
 20
4.159125538
 30
0.0
 10
6.4531194563
 20
4.1595485242
 30
0.0
 10
6.4553263798
 20
4.1601334203
 30
0.0
 10
6.4579894558
 20
4.161155142
 30
0.0
 10
6.4609797919
 20
4.1627896551
 30
0.0
 10
6.4637282942
 20
4.1647767033
 30
0.0
 10
6.4670369677
 20
4.1678017528
 30
0.0
 10
6.469139624
 20
4.1704436614
 30
0.0
 10
6.4703663594
 20
4.1723012869
 30
0.0
  0
SPLINE
  5
397
100
AcDbEntity
  8
ALL_ASSEMBLY_MEMBERS
100
AcDbSpline
 62
7
  6
CONTINUOUS
 70
0
 71
3
 72
23
 73
19
 74
0
 42
0.0000001
 43
0.0000001
 44
0.0000000001
 40
0.0
 40
0.0
 40
0.0
 40
0.0
 40
0.0464154562
 40
0.0977653403
 40
0.1541754495
 40
0.2155646194
 40
0.2816866388
 40
0.3518866156
 40
0.4251309962
 40
0.5000007742
 40
0.5748706454
 40
0.6481157035
 40
0.7183161372
 40
0.7844393539
 40
0.8458276397
 40
0.9022367156
 40
0.9535853065
 40
1.0
 40
1.0
 40
1.0
 40
1.0
 10
6.4703663594
 20
4.1723012869
 30
0.0
 10
6.4697222087
 20
4.1725943188
 30
0.0
 10
6.4683416899
 20
4.173160116
 30
0.0
 10
6.4661124092
 20
4.1739099176
 30
0.0
 10
6.4636226361
 20
4.1745874307
 30
0.0
 10
6.4608799658
 20
4.1751774016
 30
0.0
 10
6.4579034557
 20
4.1756613921
 30
0.0
 10
6.4547277711
 20
4.1760239543
 30
0.0
 10
6.4514056363
 20
4.1762477891
 30
0.0
 10
6.4480056427
 20
4.1763244595
 30
0.0
 10
6.4446056392
 20
4.1762477829
 30
0.0
 10
6.4412834853
 20
4.1760239496
 30
0.0
 10
6.4381077674
 20
4.1756613658
 30
0.0
 10
6.4351312451
 20
4.1751773782
 30
0.0
 10
6.4323885876
 20
4.1745873987
 30
0.0
 10
6.4298988643
 20
4.1739098895
 30
0.0
 10
6.4276696284
 20
4.1731601027
 30
0.0
 10
6.4262891401
 20
4.172594314
 30
0.0
 10
6.4256449999
 20
4.1723012869
 30
0.0
  0
SPLINE
  5
398
100
AcDbEntity
  8
ALL_ASSEMBLY_MEMBERS
100
AcDbSpline
 62
7
  6
CONTINUOUS
 70
0
 71
3
 72
21
 73
17
 74
0
 42
0.0000001
 43
0.0000001
 44
0.0000000001
 40
0.0
 40
0.0
 40
0.0
 40
0.0
 40
0.1220342205
 40
0.1838664473
 40
0.2461842164
 40
0.309032433
 40
0.3723698791
 40
0.436082985
 40
0.5000007474
 40
0.5639185045
 40
0.6276321142
 40
0.6909701812
 40
0.7538196093
 40
0.8161367503
 40
0.8779681178
 40
1.0
 40
1.0
 40
1.0
 40
1.0
 10
6.4256449999
 20
4.1937266656
 30
0.0
 10
6.4268752446
 20
4.1919213944
 30
0.0
 10
6.4289833849
 20
4.1893576684
 30
0.0
 10
6.4322878203
 20
4.1864312675
 30
0.0
 10
6.4350367188
 20
4.1845062881
 30
0.0
 10
6.4380271498
 20
4.1829233319
 30
0.0
 10
6.4412234627
 20
4.1817352095
 30
0.0
 10
6.444573842
 20
4.1810000449
 30
0.0
 10
6.4480057202
 20
4.1807480955
 30
0.0
 10
6.4514376048
 20
4.1810000615
 30
0.0
 10
6.4547880058
 20
4.1817352295
 30
0.0
 10
6.457984339
 20
4.1829234154
 30
0.0
 10
6.4609747963
 20
4.1845063667
 30
0.0
 10
6.4637236727
 20
4.1864313716
 30
0.0
 10
6.4670280384
 20
4.1893577459
 30
0.0
 10
6.4691361383
 20
4.1919214289
 30
0.0
 10
6.4703663594
 20
4.1937266656
 30
0.0
  0
SPLINE
  5
399
100
AcDbEntity
  8
ALL_ASSEMBLY_MEMBERS
100
AcDbSpline
 62
7
  6
CONTINUOUS
 70
0
 71
3
 72
23
 73
19
 74
0
 42
0.0000001
 43
0.0000001
 44
0.0000000001
 40
0.0
 40
0.0
 40
0.0
 40
0.0
 40
0.0479498761
 40
0.1002959157
 40
0.1571974715
 40
0.2186188756
 40
0.2843705092
 40
0.3538730772
 40
0.4261853694
 40
0.5000007628
 40
0.5738162497
 40
0.646129213
 40
0.7156322503
 40
0.7813850786
 40
0.8428056245
 40
0.899706167
 40
0.9520508992
 40
1.0
 40
1.0
 40
1.0
 40
1.0
 10
6.4703663594
 20
4.1937266656
 30
0.0
 10
6.469727283
 20
4.1941029689
 30
0.0
 10
6.4683555679
 20
4.1948316985
 30
0.0
 10
6.4661247977
 20
4.1958040157
 30
0.0
 10
6.4636332439
 20
4.1966824892
 30
0.0
 10
6.4608887306
 20
4.1974473197
 30
0.0
 10
6.4579101527
 20
4.1980747184
 30
0.0
 10
6.4547323635
 20
4.1985446615
 30
0.0
 10
6.4514079465
 20
4.1988347902
 30
0.0
 10
6.4480056427
 20
4.198934162
 30
0.0
 10
6.444603329
 20
4.1988347821
 30
0.0
 10
6.4412788923
 20
4.1985446552
 30
0.0
 10
6.4381010708
 20
4.1980746844
 30
0.0
 10
6.4351224796
 20
4.1974472893
 30
0.0
 10
6.4323779799
 20
4.1966824478
 30
0.0
 10
6.4298864766
 20
4.1958039797
 30
0.0
 10
6.4276557504
 20
4.1948316813
 30
0.0
 10
6.426284066
 20
4.1941029628
 30
0.0
 10
6.4256449999
 20
4.1937266656
 30
0.0
  0
SPLINE
  5
39A
100
AcDbEntity
  8
ALL_ASSEMBLY_MEMBERS
100
AcDbSpline
 62
7
  6
CONTINUOUS
 70
0
 71
3
 72
15
 73
11
 74
0
 42
0.0000001
 43
0.0000001
 44
0.0000000001
 40
0.0
 40
0.0
 40
0.0
 40
0.0
 40
0.1207286774
 40
0.2444033936
 40
0.3711329671
 40
0.500002059
 40
0.6288698237
 40
0.7555990816
 40
0.8792726731
 40
1.0
 40
1.0
 40
1.0
 40
1.0
 10
6.4256449999
 20
4.2159904236
 30
0.0
 10
6.4268798636
 20
4.2142508498
 30
0.0
 10
6.4297120151
 20
4.2109484476
 30
0.0
 10
6.4349725066
 20
4.2069418448
 30
0.0
 10
6.4411912356
 20
4.2042492882
 30
0.0
 10
6.4480057682
 20
4.2032901682
 30
0.0
 10
6.4548202871
 20
4.2042493335
 30
0.0
 10
6.4610389546
 20
4.2069419071
 30
0.0
 10
6.4662993905
 20
4.2109484982
 30
0.0
 10
6.4691315096
 20
4.2142508693
 30
0.0
 10
6.4703663594
 20
4.2159904236
 30
0.0
  0
SPLINE
  5
39B
100
AcDbEntity
  8
ALL_ASSEMBLY_MEMBERS
100
AcDbSpline
 62
7
  6
CONTINUOUS
 70
0
 71
3
 72
21
 73
17
 74
0
 42
0.0000001
 43
0.0000001
 44
0.0000000001
 40
0.0
 40
0.0
 40
0.0
 40
0.0
 40
0.1030344229
 40
0.1605124094
 40
0.2219962073
 40
0.2873564198
 40
0.356091029
 40
0.4273653478
 40
0.5000003649
 40
0.5726352398
 40
0.6439093882
 40
0.7126437255
 40
0.7780037447
 40
0.839487545
 40
0.8969655742
 40
1.0
 40
1.0
 40
1.0
 40
1.0
 10
6.4703663594
 20
4.2159904236
 30
0.0
 10
6.4690505078
 20
4.2169351974
 30
0.0
 10
6.46685322
 20
4.218209394
 30
0.0
 10
6.4636456434
 20
4.2195899446
 30
0.0
 10
6.460898997
 20
4.2205243026
 30
0.0
 10
6.4579183209
 20
4.2212905504
 30
0.0
 10
6.4547380347
 20
4.2218646002
 30
0.0
 10
6.4514108443
 20
4.2222189434
 30
0.0
 10
6.4480056646
 20
4.2223403451
 30
0.0
 10
6.4446004877
 20
4.2222189419
 30
0.0
 10
6.4412733067
 20
4.2218645976
 30
0.0
 10
6.4380930302
 20
4.2212905499
 30
0.0
 10
6.4351123619
 20
4.2205243014
 30
0.0
 10
6.4323657176
 20
4.2195899445
 30
0.0
 10
6.4291581397
 20
4.2182093949
 30
0.0
 10
6.4269608516
 20
4.2169351974
 30
0.0
 10
6.4256449999
 20
4.2159904236
 30
0.0
  0
SPLINE
  5
39C
100
AcDbEntity
  8
ALL_ASSEMBLY_MEMBERS
100
AcDbSpline
 62
7
  6
CONTINUOUS
 70
0
 71
3
 72
15
 73
11
 74
0
 42
0.0000001
 43
0.0000001
 44
0.0000000001
 40
0.0
 40
0.0
 40
0.0
 40
0.0
 40
0.1189200718
 40
0.2420417167
 40
0.3695123874
 40
0.5000007498
 40
0.6304896142
 40
0.7579621248
 40
0.8810822277
 40
1.0
 40
1.0
 40
1.0
 40
1.0
 10
6.4256449999
 20
4.2389132965
 30
0.0
 10
6.4268858094
 20
4.2372522451
 30
0.0
 10
6.4297373713
 20
4.2340987757
 30
0.0
 10
6.4350031291
 20
4.2302977031
 30
0.0
 10
6.4412141493
 20
4.2277508115
 30
0.0
 10
6.4480057292
 20
4.2268459802
 30
0.0
 10
6.4547973377
 20
4.2277508397
 30
0.0
 10
6.4610083619
 20
4.2302977665
 30
0.0
 10
6.4662740625
 20
4.2340988556
 30
0.0
 10
6.4691255739
 20
4.2372522772
 30
0.0
 10
6.4703663594
 20
4.2389132965
 30
0.0
  0
SPLINE
  5
39D
100
AcDbEntity
  8
ALL_ASSEMBLY_MEMBERS
100
AcDbSpline
 62
7
  6
CONTINUOUS
 70
0
 71
3
 72
21
 73
17
 74
0
 42
0.0000001
 43
0.0000001
 44
0.0000000001
 40
0.0
 40
0.0
 40
0.0
 40
0.0
 40
0.1059657612
 40
0.1640620891
 40
0.2256235112
 40
0.2905683601
 40
0.3584822567
 40
0.4286386485
 40
0.5000007361
 40
0.5713629176
 40
0.6415199659
 40
0.7094343629
 40
0.7743804017
 40
0.835941025
 40
0.8940363839
 40
1.0
 40
1.0
 40
1.0
 40
1.0
 10
6.4703663594
 20
4.2389132965
 30
0.0
 10
6.4690685642
 20
4.2400052399
 30
0.0
 10
6.4668839105
 20
4.2414972163
 30
0.0
 10
6.4636577577
 20
4.2431259559
 30
0.0
 10
6.4609095961
 20
4.244222691
 30
0.0
 10
6.4579267736
 20
4.2451221835
 30
0.0
 10
6.4547440204
 20
4.2457959997
 30
0.0
 10
6.4514139042
 20
4.2462120304
 30
0.0
 10
6.4480056425
 20
4.2463545165
 30
0.0
 10
6.4445973715
 20
4.2462120189
 30
0.0
 10
6.4412672341
 20
4.2457959905
 30
0.0
 10
6.4380844509
 20
4.245122135
 30
0.0
 10
6.4351016124
 20
4.2442226471
 30
0.0
 10
6.4323534665
 20
4.2431258961
 30
0.0
 10
6.429127378
 20
4.241497169
 30
0.0
 10
6.4269427688
 20
4.2400052178
 30
0.0
 10
6.4256449999
 20
4.2389132965
 30
0.0
  0
SPLINE
  5
39E
100
AcDbEntity
  8
ALL_ASSEMBLY_MEMBERS
100
AcDbSpline
 62
7
  6
CONTINUOUS
 70
0
 71
3
 72
15
 73
11
 74
0
 42
0.0000001
 43
0.0000001
 44
0.0000000001
 40
0.0
 40
0.0
 40
0.0
 40
0.0
 40
0.1168118294
 40
0.2393076853
 40
0.3676476123
 40
0.5000007625
 40
0.6323544153
 40
0.7606961671
 40
0.8831904434
 40
1.0
 40
1.0
 40
1.0
 40
1.0
 10
6.4256449999
 20
4.2623107125
 30
0.0
 10
6.4268932497
 20
4.2607405752
 30
0.0
 10
6.4297680164
 20
4.2577606752
 30
0.0
 10
6.4350382761
 20
4.2541972028
 30
0.0
 10
6.4412393551
 20
4.2518169089
 30
0.0
 10
6.448005729
 20
4.2509734457
 30
0.0
 10
6.4547721312
 20
4.2518169351
 30
0.0
 10
6.4609732144
 20
4.2541972619
 30
0.0
 10
6.4662434187
 20
4.2577607511
 30
0.0
 10
6.4691181339
 20
4.2607406057
 30
0.0
 10
6.4703663594
 20
4.2623107125
 30
0.0
  0
SPLINE
  5
39F
100
AcDbEntity
  8
ALL_ASSEMBLY_MEMBERS
100
AcDbSpline
 62
7
  6
CONTINUOUS
 70
0
 71
3
 72
21
 73
17
 74
0
 42
0.0000001
 43
0.0000001
 44
0.0000000001
 40
0.0
 40
0.0
 40
0.0
 40
0.0
 40
0.1088836216
 40
0.1676144643
 40
0.229269965
 40
0.2938114092
 40
0.3609033854
 40
0.4299303961
 40
0.5000007228
 40
0.5700711437
 40
0.6390988033
 40
0.706191297
 40
0.770733929
 40
0.8323886617
 40
0.8911185572
 40
1.0
 40
1.0
 40
1.0
 40
1.0
 10
6.4703663594
 20
4.2623107125
 30
0.0
 10
6.4690843658
 20
4.26353886
 30
0.0
 10
6.4669132089
 20
4.2652347624
 30
0.0
 10
6.4636699936
 20
4.267100986
 30
0.0
 10
6.4609207637
 20
4.2683516028
 30
0.0
 10
6.4579359636
 20
4.2693775277
 30
0.0
 10
6.4547506643
 20
4.2701461472
 30
0.0
 10
6.451417354
 20
4.2706207889
 30
0.0
 10
6.4480056424
 20
4.270783348
 30
0.0
 10
6.4445939218
 20
4.2706207759
 30
0.0
 10
6.4412605894
 20
4.2701461365
 30
0.0
 10
6.4380752616
 20
4.2693774726
 30
0.0
 10
6.4350904439
 20
4.2683515525
 30
0.0
 10
6.4323412308
 20
4.2671009179
 30
0.0
 10
6.4290980809
 20
4.2652347092
 30
0.0
 10
6.4269269679
 20
4.2635388354
 30
0.0
 10
6.4256449999
 20
4.2623107125
 30
0.0
  0
SPLINE
  5
3A0
100
AcDbEntity
  8
ALL_ASSEMBLY_MEMBERS
100
AcDbSpline
 62
7
  6
CONTINUOUS
 70
0
 71
3
 72
19
 73
15
 74
0
 42
0.0000001
 43
0.0000001
 44
0.0000000001
 40
0.0
 40
0.0
 40
0.0
 40
0.0
 40
0.0563680326
 40
0.114482446
 40
0.2362073101
 40
0.3654429357
 40
0.4323611411
 40
0.5000007776
 40
0.5676404031
 40
0.6345591236
 40
0.7637965559
 40
0.8855197986
 40
0.9436328171
 40
1.0
 40
1.0
 40
1.0
 40
1.0
 10
6.4256449999
 20
4.2859942788
 30
0.0
 10
6.4262648814
 20
4.2852709203
 30
0.0
 10
6.4275958628
 20
4.283861565
 30
0.0
 10
6.4306134769
 20
4.281240075
 30
0.0
 10
6.4350773028
 20
4.2784482581
 30
0.0
 10
6.4401862546
 20
4.2766374365
 30
0.0
 10
6.444586478
 20
4.275872537
 30
0.0
 10
6.4480057197
 20
4.2756736155
 30
0.0
 10
6.4514249694
 20
4.2758725486
 30
0.0
 10
6.4558252295
 20
4.2766374641
 30
0.0
 10
6.460934188
 20
4.2784483116
 30
0.0
 10
6.4653979733
 20
4.2812401509
 30
0.0
 10
6.4684155367
 20
4.283861599
 30
0.0
 10
6.4697464873
 20
4.2852709312
 30
0.0
 10
6.4703663594
 20
4.2859942788
 30
0.0
  0
SPLINE
  5
3A1
100
AcDbEntity
  8
ALL_ASSEMBLY_MEMBERS
100
AcDbSpline
 62
7
  6
CONTINUOUS
 70
0
 71
3
 72
19
 73
15
 74
0
 42
0.0000001
 43
0.0000001
 44
0.0000000001
 40
0.0
 40
0.0
 40
0.0
 40
0.0
 40
0.1117208905
 40
0.2327256963
 40
0.2969083679
 40
0.3632272189
 40
0.431173879
 40
0.5000007081
 40
0.5688276319
 40
0.6367749338
 40
0.7030943198
 40
0.7672781779
 40
0.8882813223
 40
1.0
 40
1.0
 40
1.0
 40
1.0
 10
6.4703663594
 20
4.2859942788
 30
0.0
 10
6.4690977814
 20
4.2873477236
 30
0.0
 10
6.4661662156
 20
4.2899087073
 30
0.0
 10
6.4618507071
 20
4.2923648798
 30
0.0
 10
6.4579454663
 20
4.2938613925
 30
0.0
 10
6.4547574934
 20
4.2947190378
 30
0.0
 10
6.4514209843
 20
4.2952487068
 30
0.0
 10
6.4480056423
 20
4.2954301333
 30
0.0
 10
6.4445902915
 20
4.2952486924
 30
0.0
 10
6.4412537596
 20
4.2947190256
 30
0.0
 10
6.4380657593
 20
4.2938613318
 30
0.0
 10
6.4341605135
 20
4.2923648302
 30
0.0
 10
6.4298450658
 20
4.289908638
 30
0.0
 10
6.4269135528
 20
4.2873476968
 30
0.0
 10
6.4256449999
 20
4.2859942788
 30
0.0
  0
SPLINE
  5
3A2
100
AcDbEntity
  8
ALL_ASSEMBLY_MEMBERS
100
AcDbSpline
 62
7
  6
CONTINUOUS
 70
0
 71
3
 72
19
 73
15
 74
0
 42
0.0000001
 43
0.0000001
 44
0.0000000001
 40
0.0
 40
0.0
 40
0.0
 40
0.0
 40
0.1117129783
 40
0.2327157007
 40
0.2968993626
 40
0.3632204098
 40
0.4311702791
 40
0.5000008019
 40
0.5688313102
 40
0.6367816966
 40
0.7031032939
 40
0.7672881773
 40
0.888289231
 40
1.0
 40
1.0
 40
1.0
 40
1.0
 10
6.4256449999
 20
4.3097732987
 30
0.0
 10
6.426913614
 20
4.3084202031
 30
0.0
 10
6.4298452743
 20
4.3058598985
 30
0.0
 10
6.4341607279
 20
4.3034044918
 30
0.0
 10
6.438065919
 20
4.3019084287
 30
0.0
 10
6.4412538845
 20
4.3010510335
 30
0.0
 10
6.4445903864
 20
4.3005215219
 30
0.0
 10
6.4480057198
 20
4.3003401463
 30
0.0
 10
6.4514210604
 20
4.300521534
 30
0.0
 10
6.4547575809
 20
4.3010510472
 30
0.0
 10
6.4579455726
 20
4.3019084898
 30
0.0
 10
6.4618507701
 20
4.3034045402
 30
0.0
 10
6.4661661626
 20
4.3058599682
 30
0.0
 10
6.4690977704
 20
4.3084202298
 30
0.0
 10
6.4703663594
 20
4.3097732987
 30
0.0
  0
SPLINE
  5
3A3
100
AcDbEntity
  8
ALL_ASSEMBLY_MEMBERS
100
AcDbSpline
 62
7
  6
CONTINUOUS
 70
0
 71
3
 72
19
 73
15
 74
0
 42
0.0000001
 43
0.0000001
 44
0.0000000001
 40
0.0
 40
0.0
 40
0.0
 40
0.0
 40
0.0563723008
 40
0.1144897373
 40
0.2362166203
 40
0.3654492837
 40
0.4323645029
 40
0.500000687
 40
0.5676369663
 40
0.6345528208
 40
0.7637872419
 40
0.8855125104
 40
0.9436285508
 40
1.0
 40
1.0
 40
1.0
 40
1.0
 10
6.4703663594
 20
4.3097732987
 30
0.0
 10
6.4697464852
 20
4.3104968219
 30
0.0
 10
6.4684155216
 20
4.3119064987
 30
0.0
 10
6.4653979499
 20
4.3145285856
 30
0.0
 10
6.4609341768
 20
4.317321071
 30
0.0
 10
6.4558251539
 20
4.3191323685
 30
0.0
 10
6.4514248928
 20
4.3198974638
 30
0.0
 10
6.4480056424
 20
4.320096432
 30
0.0
 10
6.4445863825
 20
4.3198974497
 30
0.0
 10
6.4401860806
 20
4.3191323439
 30
0.0
 10
6.4350770508
 20
4.3173210156
 30
0.0
 10
6.4306133184
 20
4.31452851
 30
0.0
 10
6.4275957974
 20
4.3119064646
 30
0.0
 10
6.4262648648
 20
4.310496811
 30
0.0
 10
6.4256449999
 20
4.3097732987
 30
0.0
  0
SPLINE
  5
3A4
100
AcDbEntity
  8
ALL_ASSEMBLY_MEMBERS
100
AcDbSpline
 62
7
  6
CONTINUOUS
 70
0
 71
3
 72
21
 73
17
 74
0
 42
0.0000001
 43
0.0000001
 44
0.0000000001
 40
0.0
 40
0.0
 40
0.0
 40
0.0
 40
0.1088752619
 40
0.1676042663
 40
0.2292594707
 40
0.2938019972
 40
0.3608962931
 40
0.4299266535
 40
0.5000008183
 40
0.5700749665
 40
0.6391058476
 40
0.7062006765
 40
0.7707444274
 40
0.8323988632
 40
0.8911269133
 40
1.0
 40
1.0
 40
1.0
 40
1.0
 10
6.4256449999
 20
4.333456307
 30
0.0
 10
6.4269270364
 20
4.3322285406
 30
0.0
 10
6.4290982334
 20
4.3305332107
 30
0.0
 10
6.4323414025
 20
4.3286676618
 30
0.0
 10
6.4350906293
 20
4.3274174808
 30
0.0
 10
6.4380754218
 20
4.326391913
 30
0.0
 10
6.4412607133
 20
4.3256235618
 30
0.0
 10
6.4445940164
 20
4.3251490883
 30
0.0
 10
6.4480057198
 20
4.3249865841
 30
0.0
 10
6.4514174304
 20
4.3251490993
 30
0.0
 10
6.4547507514
 20
4.3256235737
 30
0.0
 10
6.4579360702
 20
4.3263919683
 30
0.0
 10
6.4609208815
 20
4.3274175305
 30
0.0
 10
6.4636700919
 20
4.3286677297
 30
0.0
 10
6.4669131954
 20
4.3305332642
 30
0.0
 10
6.4690843485
 20
4.3322285651
 30
0.0
 10
6.4703663594
 20
4.333456307
 30
0.0
  0
SPLINE
  5
3A5
100
AcDbEntity
  8
ALL_ASSEMBLY_MEMBERS
100
AcDbSpline
 62
7
  6
CONTINUOUS
 70
0
 71
3
 72
15
 73
11
 74
0
 42
0.0000001
 43
0.0000001
 44
0.0000000001
 40
0.0
 40
0.0
 40
0.0
 40
0.0
 40
0.1168183678
 40
0.2393161283
 40
0.3676534496
 40
0.5000006707
 40
0.6323486231
 40
0.7606877212
 40
0.8831839084
 40
1.0
 40
1.0
 40
1.0
 40
1.0
 10
6.4703663594
 20
4.333456307
 30
0.0
 10
6.469118134
 20
4.3350267266
 30
0.0
 10
6.4662434409
 20
4.3380071674
 30
0.0
 10
6.4609731924
 20
4.3415713797
 30
0.0
 10
6.4547720811
 20
4.3439521856
 30
0.0
 10
6.4480056312
 20
4.3447958387
 30
0.0
 10
6.4412391532
 20
4.3439521614
 30
0.0
 10
6.4350380355
 20
4.3415713194
 30
0.0
 10
6.4297678423
 20
4.3380070919
 30
0.0
 10
6.426893201
 20
4.335026696
 30
0.0
 10
6.4256449999
 20
4.333456307
 30
0.0
  0
SPLINE
  5
3A6
100
AcDbEntity
  8
ALL_ASSEMBLY_MEMBERS
100
AcDbSpline
 62
7
  6
CONTINUOUS
 70
0
 71
3
 72
21
 73
17
 74
0
 42
0.0000001
 43
0.0000001
 44
0.0000000001
 40
0.0
 40
0.0
 40
0.0
 40
0.0
 40
0.1059572032
 40
0.1640517095
 40
0.2256128839
 40
0.2905588667
 40
0.358475124
 40
0.4286348921
 40
0.5000008327
 40
0.5713667558
 40
0.6415270503
 40
0.7094438235
 40
0.7743910341
 40
0.835951409
 40
0.8940449383
 40
1.0
 40
1.0
 40
1.0
 40
1.0
 10
6.4256449999
 20
4.3568526113
 30
0.0
 10
6.426942845
 20
4.3557610808
 30
0.0
 10
6.4291275379
 20
4.3542697198
 30
0.0
 10
6.4323536395
 20
4.3526416901
 30
0.0
 10
6.4351017968
 20
4.3515454177
 30
0.0
 10
6.4380846109
 20
4.3506463038
 30
0.0
 10
6.4412673562
 20
4.3499727718
 30
0.0
 10
6.4445974654
 20
4.3495569187
 30
0.0
 10
6.4480057197
 20
4.3494144911
 30
0.0
 10
6.4514139813
 20
4.3495569284
 30
0.0
 10
6.4547441078
 20
4.3499727821
 30
0.0
 10
6.4579268818
 20
4.3506463525
 30
0.0
 10
6.4609097132
 20
4.351545461
 30
0.0
 10
6.4636578552
 20
4.3526417497
 30
0.0
 10
6.4668838922
 20
4.3542697673
 30
0.0
 10
6.4690685406
 20
4.3557611029
 30
0.0
 10
6.4703663594
 20
4.3568526113
 30
0.0
  0
SPLINE
  5
3A7
100
AcDbEntity
  8
ALL_ASSEMBLY_MEMBERS
100
AcDbSpline
 62
7
  6
CONTINUOUS
 70
0
 71
3
 72
15
 73
11
 74
0
 42
0.0000001
 43
0.0000001
 44
0.0000000001
 40
0.0
 40
0.0
 40
0.0
 40
0.0
 40
0.118925763
 40
0.242049123
 40
0.3695175482
 40
0.5000006593
 40
0.6304844975
 40
0.7579547161
 40
0.8810765397
 40
1.0
 40
1.0
 40
1.0
 40
1.0
 10
6.4703663594
 20
4.3568526113
 30
0.0
 10
6.4691255696
 20
4.3585139097
 30
0.0
 10
6.4662740701
 20
4.3616678487
 30
0.0
 10
6.4610083269
 20
4.3654695705
 30
0.0
 10
6.4547972811
 20
4.3680169156
 30
0.0
 10
6.448005631
 20
4.3689219177
 30
0.0
 10
6.4412139523
 20
4.3680168896
 30
0.0
 10
6.4350029006
 20
4.3654695057
 30
0.0
 10
6.4297372145
 20
4.3616677692
 30
0.0
 10
6.4268857657
 20
4.3585138775
 30
0.0
 10
6.4256449999
 20
4.3568526113
 30
0.0
  0
SPLINE
  5
3A8
100
AcDbEntity
  8
ALL_ASSEMBLY_MEMBERS
100
AcDbSpline
 62
7
  6
CONTINUOUS
 70
0
 71
3
 72
21
 73
17
 74
0
 42
0.0000001
 43
0.0000001
 44
0.0000000001
 40
0.0
 40
0.0
 40
0.0
 40
0.0
 40
0.1030282397
 40
0.1605061416
 40
0.221991321
 40
0.2873515047
 40
0.3560880905
 40
0.4273644696
 40
0.5000023158
 40
0.572639264
 40
0.6439149606
 40
0.7126508431
 40
0.7780111666
 40
0.8394956893
 40
0.8969729754
 40
1.0
 40
1.0
 40
1.0
 40
1.0
 10
6.4256449999
 20
4.379773828
 30
0.0
 10
6.426960936
 20
4.378829479
 30
0.0
 10
6.4291583132
 20
4.3775559048
 30
0.0
 10
6.4323659246
 20
4.3761760804
 30
0.0
 10
6.4351126017
 20
4.375242216
 30
0.0
 10
6.4380932691
 20
4.3744763575
 30
0.0
 10
6.4412735132
 20
4.3739026538
 30
0.0
 10
6.4446006581
 20
4.3735484906
 30
0.0
 10
6.4480057752
 20
4.3734271755
 30
0.0
 10
6.4514108813
 20
4.3735484981
 30
0.0
 10
6.4547379891
 20
4.3739026723
 30
0.0
 10
6.4579182106
 20
4.3744763891
 30
0.0
 10
6.460898859
 20
4.3752422438
 30
0.0
 10
6.4636455163
 20
4.3761761117
 30
0.0
 10
6.4668530884
 20
4.3775559282
 30
0.0
 10
6.4690504389
 20
4.3788294901
 30
0.0
 10
6.4703663594
 20
4.379773828
 30
0.0
  0
SPLINE
  5
3A9
100
AcDbEntity
  8
ALL_ASSEMBLY_MEMBERS
100
AcDbSpline
 62
7
  6
CONTINUOUS
 70
0
 71
3
 72
15
 73
11
 74
0
 42
0.0000001
 43
0.0000001
 44
0.0000000001
 40
0.0
 40
0.0
 40
0.0
 40
0.0
 40
0.1207310017
 40
0.2444043531
 40
0.3711338042
 40
0.5000003169
 40
0.6288665697
 40
0.7555956005
 40
0.87926899
 40
1.0
 40
1.0
 40
1.0
 40
1.0
 10
6.4703663594
 20
4.379773828
 30
0.0
 10
6.4691315366
 20
4.3815135763
 30
0.0
 10
6.4662995012
 20
4.3848163042
 30
0.0
 10
6.4610391165
 20
4.3888234687
 30
0.0
 10
6.4548203743
 20
4.3915164765
 30
0.0
 10
6.4480056672
 20
4.392475792
 30
0.0
 10
6.441190968
 20
4.3915164722
 30
0.0
 10
6.4349722395
 20
4.3888234634
 30
0.0
 10
6.4297118581
 20
4.3848163057
 30
0.0
 10
6.4268798228
 20
4.3815135764
 30
0.0
 10
6.4256449999
 20
4.379773828
 30
0.0
  0
SPLINE
  5
3AA
100
AcDbEntity
  8
ALL_ASSEMBLY_MEMBERS
100
AcDbSpline
 62
7
  6
CONTINUOUS
 70
0
 71
3
 72
23
 73
19
 74
0
 42
0.0000001
 43
0.0000001
 44
0.0000000001
 40
0.0
 40
0.0
 40
0.0
 40
0.0
 40
0.0479451201
 40
0.1002880551
 40
0.1571880696
 40
0.2186093538
 40
0.284362064
 40
0.3538667611
 40
0.4261820629
 40
0.5000008636
 40
0.5738196423
 40
0.6461354778
 40
0.7156406606
 40
0.7813946065
 40
0.8428150317
 40
0.8997140236
 40
0.9520556523
 40
1.0
 40
1.0
 40
1.0
 40
1.0
 10
6.4256449999
 20
4.4020353986
 30
0.0
 10
6.4262840913
 20
4.4016593321
 30
0.0
 10
6.4276558334
 20
4.4009310666
 30
0.0
 10
6.4298866006
 20
4.3999593886
 30
0.0
 10
6.4323781503
 20
4.3990814929
 30
0.0
 10
6.4351226575
 20
4.3983171656
 30
0.0
 10
6.438101227
 20
4.3976901786
 30
0.0
 10
6.4412790091
 20
4.3972205443
 30
0.0
 10
6.4446034208
 20
4.3969306075
 30
0.0
 10
6.4480057195
 20
4.3968312998
 30
0.0
 10
6.451408026
 20
4.3969306143
 30
0.0
 10
6.4547324536
 20
4.3972205513
 30
0.0
 10
6.4579102668
 20
4.3976902129
 30
0.0
 10
6.4608888507
 20
4.3983171956
 30
0.0
 10
6.4636333448
 20
4.3990815342
 30
0.0
 10
6.4661248437
 20
4.3999594247
 30
0.0
 10
6.4683555667
 20
4.4009310838
 30
0.0
 10
6.4697272784
 20
4.4016593381
 30
0.0
 10
6.4703663594
 20
4.4020353986
 30
0.0
  0
SPLINE
  5
3AB
100
AcDbEntity
  8
ALL_ASSEMBLY_MEMBERS
100
AcDbSpline
 62
7
  6
CONTINUOUS
 70
0
 71
3
 72
21
 73
17
 74
0
 42
0.0000001
 43
0.0000001
 44
0.0000000001
 40
0.0
 40
0.0
 40
0.0
 40
0.0
 40
0.1220380765
 40
0.1838712651
 40
0.24618929
 40
0.3090370966
 40
0.3723734706
 40
0.4360848836
 40
0.5000006615
 40
0.5639165364
 40
0.6276285642
 40
0.6909655451
 40
0.7538145343
 40
0.816131931
 40
0.8779642649
 40
1.0
 40
1.0
 40
1.0
 40
1.0
 10
6.4703663594
 20
4.4020353986
 30
0.0
 10
6.4691361267
 20
4.4038408417
 30
0.0
 10
6.4670280049
 20
4.4064048244
 30
0.0
 10
6.4637235561
 20
4.4093315498
 30
0.0
 10
6.4609746586
 20
4.4112567344
 30
0.0
 10
6.4579842243
 20
4.412839859
 30
0.0
 10
6.454787908
 20
4.4140281093
 30
0.0
 10
6.4514375255
 20
4.4147633574
 30
0.0
 10
6.4480056419
 20
4.4150153314
 30
0.0
 10
6.4445737506
 20
4.4147633377
 30
0.0
 10
6.4412233417
 20
4.4140280912
 30
0.0
 10
6.438027004
 20
4.4128397758
 30
0.0
 10
6.435036545
 20
4.4112566549
 30
0.0
 10
6.4322876698
 20
4.4093314454
 30
0.0
 10
6.4289832902
 20
4.4064047472
 30
0.0
 10
6.426875209
 20
4.4038408071
 30
0.0
 10
6.4256449999
 20
4.4020353986
 30
0.0
  0
SPLINE
  5
3AC
100
AcDbEntity
  8
ALL_ASSEMBLY_MEMBERS
100
AcDbSpline
 62
7
  6
CONTINUOUS
 70
0
 71
3
 72
23
 73
19
 74
0
 42
0.0000001
 43
0.0000001
 44
0.0000000001
 40
0.0
 40
0.0
 40
0.0
 40
0.0
 40
0.0464113368
 40
0.0977585814
 40
0.1541674142
 40
0.2155565192
 40
0.281679468
 40
0.351881256
 40
0.4251282032
 40
0.5000008772
 40
0.5748735266
 40
0.6481210102
 40
0.7183232716
 40
0.7844474603
 40
0.8458356804
 40
0.9022434702
 40
0.9535894229
 40
1.0
 40
1.0
 40
1.0
 40
1.0
 10
6.4256449999
 20
4.4234580761
 30
0.0
 10
6.4262891653
 20
4.4231652929
 30
0.0
 10
6.4276697086
 20
4.4225999811
 30
0.0
 10
6.4298989849
 20
4.4218508368
 30
0.0
 10
6.4323887533
 20
4.4211739177
 30
0.0
 10
6.4351314176
 20
4.4205844638
 30
0.0
 10
6.4381079201
 20
4.4201008966
 30
0.0
 10
6.4412835987
 20
4.4197386517
 30
0.0
 10
6.4446057296
 20
4.4195150138
 30
0.0
 10
6.4480057195
 20
4.4194384096
 30
0.0
 10
6.4514057173
 20
4.4195150191
 30
0.0
 10
6.4547278635
 20
4.419738657
 30
0.0
 10
6.4579035741
 20
4.4201009231
 30
0.0
 10
6.4608800899
 20
4.4205844868
 30
0.0
 10
6.4636227418
 20
4.4211739495
 30
0.0
 10
6.4661124601
 20
4.4218508649
 30
0.0
 10
6.4683416916
 20
4.4225999944
 30
0.0
 10
6.4697222045
 20
4.4231652977
 30
0.0
 10
6.4703663594
 20
4.4234580761
 30
0.0
  0
SPLINE
  5
3AD
100
AcDbEntity
  8
ALL_ASSEMBLY_MEMBERS
100
AcDbSpline
 62
7
  6
CONTINUOUS
 70
0
 71
3
 72
23
 73
19
 74
0
 42
0.0000001
 43
0.0000001
 44
0.0000000001
 40
0.0
 40
0.0
 40
0.0
 40
0.0
 40
0.1232026604
 40
0.1853261357
 40
0.2477175337
 40
0.3104201312
 40
0.3734127646
 40
0.4050141717
 40
0.4366679757
 40
0.5000006587
 40
0.563333439
 40
0.5949874918
 40
0.6265892561
 40
0.6895825054
 40
0.7522862853
 40
0.8146770677
 40
0.876799696
 40
1.0
 40
1.0
 40
1.0
 40
1.0
 10
6.4703663594
 20
4.4234580761
 30
0.0
 10
6.4691396095
 20
4.4253158696
 30
0.0
 10
6.467036927
 20
4.4279580199
 30
0.0
 10
6.463728174
 20
4.4309833484
 30
0.0
 10
6.4609796498
 20
4.4329705286
 30
0.0
 10
6.4579893386
 20
4.4346051791
 30
0.0
 10
6.4553262722
 20
4.4356269208
 30
0.0
 10
6.4531193682
 20
4.4362118707
 30
0.0
 10
6.4508696086
 20
4.43663487
 30
0.0
 10
6.4480056425
 20
4.4368526415
 30
0.0
 10
6.4451416716
 20
4.4366348595
 30
0.0
 10
6.4428919032
 20
4.4362118415
 30
0.0
 10
6.4406849742
 20
4.435626898
 30
0.0
 10
6.4380218906
 20
4.4346050913
 30
0.0
 10
6.4350315533
 20
4.4329704469
 30
0.0
 10
6.4322830521
 20
4.4309832406
 30
0.0
 10
6.4289743684
 20
4.4279579407
 30
0.0
 10
6.4268717264
 20
4.4253158341
 30
0.0
 10
6.4256449999
 20
4.4234580761
 30
0.0
  0
SPLINE
  5
3AE
100
AcDbEntity
  8
ALL_ASSEMBLY_MEMBERS
100
AcDbSpline
 62
7
  6
CONTINUOUS
 70
0
 71
3
 72
23
 73
19
 74
0
 42
0.0000001
 43
0.0000001
 44
0.0000000001
 40
0.0
 40
0.0
 40
0.0
 40
0.0
 40
0.0451545291
 40
0.0956995081
 40
0.151721423
 40
0.2130946182
 40
0.2795228071
 40
0.3502884564
 40
0.4242838552
 40
0.5000008877
 40
0.5757178943
 40
0.6497138326
 40
0.7204799458
 40
0.7869093779
 40
0.8482816674
 40
0.9043025223
 40
0.9548462205
 40
1.0
 40
1.0
 40
1.0
 40
1.0
 10
6.4256449999
 20
4.4438693681
 30
0.0
 10
6.4262938468
 20
4.4436637279
 30
0.0
 10
6.4276818443
 20
4.4432679248
 30
0.0
 10
6.4299093677
 20
4.4427464818
 30
0.0
 10
6.4323973459
 20
4.4422752037
 30
0.0
 10
6.4351383417
 20
4.4418647194
 30
0.0
 10
6.4381131135
 20
4.4415279365
 30
0.0
 10
6.4412871161
 20
4.4412756195
 30
0.0
 10
6.4446074861
 20
4.4411198444
 30
0.0
 10
6.4480057195
 20
4.4410664824
 30
0.0
 10
6.4514039609
 20
4.441119848
 30
0.0
 10
6.4547243457
 20
4.4412756232
 30
0.0
 10
6.457898381
 20
4.4415279551
 30
0.0
 10
6.4608731653
 20
4.4418647354
 30
0.0
 10
6.4636141492
 20
4.4422752259
 30
0.0
 10
6.4661020779
 20
4.4427465016
 30
0.0
 10
6.468329556
 20
4.4432679341
 30
0.0
 10
6.4697175233
 20
4.4436637313
 30
0.0
 10
6.4703663594
 20
4.4438693681
 30
0.0
  0
SPLINE
  5
3AF
100
AcDbEntity
  8
ALL_ASSEMBLY_MEMBERS
100
AcDbSpline
 62
7
  6
CONTINUOUS
 70
0
 71
3
 72
23
 73
19
 74
0
 42
0.0000001
 43
0.0000001
 44
0.0000000001
 40
0.0
 40
0.0
 40
0.0
 40
0.0
 40
0.1240633424
 40
0.1864050447
 40
0.2488559488
 40
0.3114571405
 40
0.3742013755
 40
0.4056333571
 40
0.4370946467
 40
0.5000006546
 40
0.5629067602
 40
0.5943682983
 40
0.625800635
 40
0.6885454926
 40
0.7511478667
 40
0.8135981644
 40
0.8759390253
 40
1.0
 40
1.0
 40
1.0
 40
1.0
 10
6.4703663594
 20
4.4438693681
 30
0.0
 10
6.4691420705
 20
4.4457658521
 30
0.0
 10
6.4670433418
 20
4.4484656841
 30
0.0
 10
6.4637315243
 20
4.4515640074
 30
0.0
 10
6.460983368
 20
4.4535970385
 30
0.0
 10
6.4579929972
 20
4.4552697838
 30
0.0
 10
6.455328101
 20
4.4563160748
 30
0.0
 10
6.4531199747
 20
4.4569148065
 30
0.0
 10
6.4508704927
 20
4.4573474927
 30
0.0
 10
6.4480056425
 20
4.457570443
 30
0.0
 10
6.4451407875
 20
4.457347482
 30
0.0
 10
6.4428912968
 20
4.4569147766
 30
0.0
 10
6.4406831451
 20
4.4563160513
 30
0.0
 10
6.4380182323
 20
4.455269694
 30
0.0
 10
6.4350278348
 20
4.4535969547
 30
0.0
 10
6.4322797019
 20
4.4515638971
 30
0.0
 10
6.4289679539
 20
4.4484656034
 30
0.0
 10
6.4268692654
 20
4.4457658159
 30
0.0
 10
6.4256449999
 20
4.4438693681
 30
0.0
  0
SPLINE
  5
3B0
100
AcDbEntity
  8
ALL_ASSEMBLY_MEMBERS
100
AcDbSpline
 62
7
  6
CONTINUOUS
 70
0
 71
3
 72
21
 73
17
 74
0
 42
0.0000001
 43
0.0000001
 44
0.0000000001
 40
0.0
 40
0.0
 40
0.0
 40
0.0
 40
0.0442877146
 40
0.0942870671
 40
0.1500508637
 40
0.211419156
 40
0.2780595606
 40
0.3492111903
 40
0.5000008945
 40
0.6507911149
 40
0.7219432021
 40
0.788584852
 40
0.8499522243
 40
0.9057149491
 40
0.9557130283
 40
1.0
 40
1.0
 40
1.0
 40
1.0
 10
6.4256449999
 20
4.4631049258
 30
0.0
 10
6.4262973947
 20
4.4629895848
 30
0.0
 10
6.4276906373
 20
4.462768171
 30
0.0
 10
6.4299166482
 20
4.4624776933
 30
0.0
 10
6.4324032165
 20
4.4622150966
 30
0.0
 10
6.4351429849
 20
4.4619863323
 30
0.0
 10
6.4381165532
 20
4.4617985833
 30
0.0
 10
6.4424295147
 20
4.46160758
 30
0.0
 10
6.4480057275
 20
4.4615131815
 30
0.0
 10
6.4535819473
 20
4.4616075803
 30
0.0
 10
6.4578949416
 20
4.4617985935
 30
0.0
 10
6.4608685217
 20
4.4619863412
 30
0.0
 10
6.4636082787
 20
4.4622151089
 30
0.0
 10
6.466094798
 20
4.4624777044
 30
0.0
 10
6.468320763
 20
4.4627681762
 30
0.0
 10
6.4697139756
 20
4.4629895867
 30
0.0
 10
6.4703663594
 20
4.4631049258
 30
0.0
  0
SPLINE
  5
3B1
100
AcDbEntity
  8
ALL_ASSEMBLY_MEMBERS
100
AcDbSpline
 62
7
  6
CONTINUOUS
 70
0
 71
3
 72
23
 73
19
 74
0
 42
0.0000001
 43
0.0000001
 44
0.0000000001
 40
0.0
 40
0.0
 40
0.0
 40
0.0
 40
0.1246104053
 40
0.1870916212
 40
0.2495812594
 40
0.3121185857
 40
0.3747048539
 40
0.4060288103
 40
0.4373672222
 40
0.5000006521
 40
0.5626341798
 40
0.5939728399
 40
0.6252971501
 40
0.6878840452
 40
0.7504225539
 40
0.8129115916
 40
0.8753919695
 40
1.0
 40
1.0
 40
1.0
 40
1.0
 10
6.4703663594
 20
4.4631049258
 30
0.0
 10
6.4691435962
 20
4.4650261599
 30
0.0
 10
6.4670473625
 20
4.4677628501
 30
0.0
 10
6.4637336431
 20
4.470907915
 30
0.0
 10
6.4609857396
 20
4.4729702835
 30
0.0
 10
6.4579953508
 20
4.474667415
 30
0.0
 10
6.4553292855
 20
4.4757294478
 30
0.0
 10
6.4531203686
 20
4.4763370123
 30
0.0
 10
6.4508710683
 20
4.4767758983
 30
0.0
 10
6.4480056425
 20
4.4770021698
 30
0.0
 10
6.4451402119
 20
4.4767758874
 30
0.0
 10
6.442890903
 20
4.476336982
 30
0.0
 10
6.4406819603
 20
4.4757294239
 30
0.0
 10
6.4380158789
 20
4.474667324
 30
0.0
 10
6.435025463
 20
4.4729701984
 30
0.0
 10
6.4322775832
 20
4.4709078032
 30
0.0
 10
6.4289639334
 20
4.4677627683
 30
0.0
 10
6.4268677398
 20
4.4650261233
 30
0.0
 10
6.4256449999
 20
4.4631049258
 30
0.0
  0
SPLINE
  5
3B2
100
AcDbEntity
  8
ALL_ASSEMBLY_MEMBERS
100
AcDbSpline
 62
7
  6
CONTINUOUS
 70
0
 71
3
 72
15
 73
11
 74
0
 42
0.0000001
 43
0.0000001
 44
0.0000000001
 40
0.0
 40
0.0
 40
0.0
 40
0.0
 40
0.0936536695
 40
0.2106693536
 40
0.3487265917
 40
0.5000008981
 40
0.65127572
 40
0.7893346595
 40
0.9063483403
 40
1.0
 40
1.0
 40
1.0
 40
1.0
 10
6.4256449999
 20
4.4810098671
 30
0.0
 10
6.4270404325
 20
4.4809606959
 30
0.0
 10
6.4301802013
 20
4.480873157
 30
0.0
 10
6.4353786064
 20
4.4807779293
 30
0.0
 10
6.441436638
 20
4.4807148425
 30
0.0
 10
6.4480057275
 20
4.4806925869
 30
0.0
 10
6.4545748424
 20
4.4807148432
 30
0.0
 10
6.4606328772
 20
4.4807779307
 30
0.0
 10
6.4658312478
 20
4.4808731593
 30
0.0
 10
6.4689709568
 20
4.4809606969
 30
0.0
 10
6.4703663594
 20
4.4810098671
 30
0.0
  0
SPLINE
  5
3B3
100
AcDbEntity
  8
ALL_ASSEMBLY_MEMBERS
100
AcDbSpline
 62
7
  6
CONTINUOUS
 70
0
 71
3
 72
23
 73
19
 74
0
 42
0.0000001
 43
0.0000001
 44
0.0000000001
 40
0.0
 40
0.0
 40
0.0
 40
0.0
 40
0.124844409
 40
0.1873854915
 40
0.2498919148
 40
0.3124020646
 40
0.3749207453
 40
0.4061984148
 40
0.4374841442
 40
0.500000651
 40
0.5625172556
 40
0.5938032332
 40
0.6250812559
 40
0.6876005655
 40
0.7501118976
 40
0.8126177228
 40
0.8751579689
 40
1.0
 40
1.0
 40
1.0
 40
1.0
 10
6.4703663594
 20
4.4810098671
 30
0.0
 10
6.4691442399
 20
4.4829417278
 30
0.0
 10
6.467049069
 20
4.4856942333
 30
0.0
 10
6.4637345468
 20
4.4888593771
 30
0.0
 10
6.4609867559
 20
4.4909343428
 30
0.0
 10
6.4579963642
 20
4.4926419483
 30
0.0
 10
6.4553297976
 20
4.4937107485
 30
0.0
 10
6.4531205391
 20
4.4943221094
 30
0.0
 10
6.4508713178
 20
4.4947636578
 30
0.0
 10
6.4480056425
 20
4.4949913574
 30
0.0
 10
6.4451399624
 20
4.4947636468
 30
0.0
 10
6.4428907325
 20
4.4943220789
 30
0.0
 10
6.4406814482
 20
4.4937107245
 30
0.0
 10
6.4380148655
 20
4.4926418568
 30
0.0
 10
6.4350244466
 20
4.4909342572
 30
0.0
 10
6.4322766795
 20
4.4888592647
 30
0.0
 10
6.428962227
 20
4.4856941511
 30
0.0
 10
6.4268670961
 20
4.482941691
 30
0.0
 10
6.4256449999
 20
4.4810098671
 30
0.0
  0
SPLINE
  5
3B4
100
AcDbEntity
  8
ALL_ASSEMBLY_MEMBERS
100
AcDbSpline
 62
7
  6
CONTINUOUS
 70
0
 71
3
 72
23
 73
19
 74
0
 42
0.0000001
 43
0.0000001
 44
0.0000000001
 40
0.0
 40
0.0
 40
0.0
 40
0.0
 40
0.1247657094
 40
0.187286645
 40
0.2497874087
 40
0.3123066889
 40
0.3748481016
 40
0.4061413436
 40
0.4374447992
 40
0.5000006513
 40
0.5625566014
 40
0.5938603052
 40
0.6251539006
 40
0.6876959415
 40
0.750216404
 40
0.8127165688
 40
0.8752366674
 40
1.0
 40
1.0
 40
1.0
 40
1.0
 10
6.4703663594
 20
4.4974400241
 30
0.0
 10
6.469144024
 20
4.4993683082
 30
0.0
 10
6.467048496
 20
4.5021154913
 30
0.0
 10
6.463734243
 20
4.5052738764
 30
0.0
 10
6.460986414
 20
4.5073446021
 30
0.0
 10
6.4579960229
 20
4.5090486821
 30
0.0
 10
6.455329625
 20
4.510115204
 30
0.0
 10
6.4531204816
 20
4.5107252869
 30
0.0
 10
6.4508712336
 20
4.5111659391
 30
0.0
 10
6.4480056425
 20
4.511393158
 30
0.0
 10
6.4451400465
 20
4.5111659282
 30
0.0
 10
6.44289079
 20
4.5107252564
 30
0.0
 10
6.4406816208
 20
4.51011518
 30
0.0
 10
6.4380152068
 20
4.5090485908
 30
0.0
 10
6.4350247886
 20
4.5073445167
 30
0.0
 10
6.4322769833
 20
4.5052737641
 30
0.0
 10
6.4289628
 20
4.5021154092
 30
0.0
 10
6.426867312
 20
4.4993682714
 30
0.0
 10
6.4256449999
 20
4.4974400241
 30
0.0
  0
SPLINE
  5
3B5
100
AcDbEntity
  8
ALL_ASSEMBLY_MEMBERS
100
AcDbSpline
 62
7
  6
CONTINUOUS
 70
0
 71
3
 72
23
 73
19
 74
0
 42
0.0000001
 43
0.0000001
 44
0.0000000001
 40
0.0
 40
0.0
 40
0.0
 40
0.0
 40
0.1243705674
 40
0.1867896055
 40
0.2492608538
 40
0.3118276037
 40
0.3744833076
 40
0.405854925
 40
0.4372474493
 40
0.5000003047
 40
0.5627530487
 40
0.5941455034
 40
0.6255170546
 40
0.6881725149
 40
0.7507390979
 40
0.8132103489
 40
0.8756294221
 40
1.0
 40
1.0
 40
1.0
 40
1.0
 10
6.4703663594
 20
4.5122631033
 30
0.0
 10
6.4691429767
 20
4.5141735789
 30
0.0
 10
6.4670457299
 20
4.516894252
 30
0.0
 10
6.4637329613
 20
4.5200190498
 30
0.0
 10
6.4609850005
 20
4.5220687615
 30
0.0
 10
6.4579945817
 20
4.5237553321
 30
0.0
 10
6.4553289919
 20
4.5248106842
 30
0.0
 10
6.4531203512
 20
4.5254144115
 30
0.0
 10
6.4508709127
 20
4.525850644
 30
0.0
 10
6.448005665
 20
4.5260755226
 30
0.0
 10
6.445140418
 20
4.5258506428
 30
0.0
 10
6.4428909855
 20
4.5254144035
 30
0.0
 10
6.4406823508
 20
4.5248106815
 30
0.0
 10
6.4380167695
 20
4.5237553304
 30
0.0
 10
6.4350263596
 20
4.5220687597
 30
0.0
 10
6.4322784002
 20
4.5200190503
 30
0.0
 10
6.4289656292
 20
4.5168942536
 30
0.0
 10
6.4268683828
 20
4.5141735791
 30
0.0
 10
6.4256449999
 20
4.5122631033
 30
0.0
  0
SPLINE
  5
3B6
100
AcDbEntity
  8
ALL_ASSEMBLY_MEMBERS
100
AcDbSpline
 62
7
  6
CONTINUOUS
 70
0
 71
3
 72
23
 73
19
 74
0
 42
0.0000001
 43
0.0000001
 44
0.0000000001
 40
0.0
 40
0.0
 40
0.0
 40
0.0
 40
0.1236693007
 40
0.1859109005
 40
0.248334344
 40
0.3109818219
 40
0.3738398001
 40
0.4053494291
 40
0.4368989787
 40
0.5000006565
 40
0.5631024318
 40
0.59465223
 40
0.6261622151
 40
0.6890208128
 40
0.7516694731
 40
0.8140923059
 40
0.8763330618
 40
1.0
 40
1.0
 40
1.0
 40
1.0
 10
6.4703663594
 20
4.5253597516
 30
0.0
 10
6.4691409532
 20
4.5272384858
 30
0.0
 10
6.4670404185
 20
4.5299118651
 30
0.0
 10
6.463729993
 20
4.532976689
 30
0.0
 10
6.4609816637
 20
4.5349886835
 30
0.0
 10
6.4579913155
 20
4.5366439479
 30
0.0
 10
6.4553272585
 20
4.5376789675
 30
0.0
 10
6.4531196951
 20
4.5382713726
 30
0.0
 10
6.4508700847
 20
4.538699614
 30
0.0
 10
6.4480056425
 20
4.5389201865
 30
0.0
 10
6.4451411955
 20
4.5386996034
 30
0.0
 10
6.4428915764
 20
4.538271343
 30
0.0
 10
6.4406839877
 20
4.5376789443
 30
0.0
 10
6.4380199139
 20
4.536643859
 30
0.0
 10
6.4350295392
 20
4.5349886006
 30
0.0
 10
6.4322812332
 20
4.5329765799
 30
0.0
 10
6.4289708771
 20
4.529911785
 30
0.0
 10
6.4268703828
 20
4.5272384499
 30
0.0
 10
6.4256449999
 20
4.5253597516
 30
0.0
  0
SPLINE
  5
3B7
100
AcDbEntity
  8
ALL_ASSEMBLY_MEMBERS
100
AcDbSpline
 62
7
  6
CONTINUOUS
 70
0
 71
3
 72
23
 73
19
 74
0
 42
0.0000001
 43
0.0000001
 44
0.0000000001
 40
0.0
 40
0.0
 40
0.0
 40
0.0
 40
0.1226506421
 40
0.1846349716
 40
0.2469891242
 40
0.3097573495
 40
0.37290921
 40
0.4046189419
 40
0.4363957031
 40
0.5000006613
 40
0.5636057167
 40
0.5953827267
 40
0.6270928173
 40
0.6902452894
 40
0.7530146971
 40
0.8153682282
 40
0.8773517072
 40
1.0
 40
1.0
 40
1.0
 40
1.0
 10
6.4703663594
 20
4.5366245164
 30
0.0
 10
6.4691379907
 20
4.5384576429
 30
0.0
 10
6.4670327549
 20
4.541062978
 30
0.0
 10
6.4637260147
 20
4.5440418216
 30
0.0
 10
6.4609772737
 20
4.5459997793
 30
0.0
 10
6.4579870206
 20
4.5476101621
 30
0.0
 10
6.4553251212
 20
4.5486162911
 30
0.0
 10
6.4531189875
 20
4.5491924716
 30
0.0
 10
6.4508690551
 20
4.5496092984
 30
0.0
 10
6.4480056425
 20
4.5498237768
 30
0.0
 10
6.4451422252
 20
4.5496092882
 30
0.0
 10
6.4428922839
 20
4.5491924427
 30
0.0
 10
6.4406861253
 20
4.5486162686
 30
0.0
 10
6.4380242085
 20
4.5476100755
 30
0.0
 10
6.4350339295
 20
4.5459996988
 30
0.0
 10
6.4322852113
 20
4.5440417154
 30
0.0
 10
6.4289785403
 20
4.5410628998
 30
0.0
 10
6.4268733451
 20
4.5384576077
 30
0.0
 10
6.4256449999
 20
4.5366245164
 30
0.0
  0
SPLINE
  5
3B8
100
AcDbEntity
  8
ALL_ASSEMBLY_MEMBERS
100
AcDbSpline
 62
7
  6
CONTINUOUS
 70
0
 71
3
 72
15
 73
11
 74
0
 42
0.0000001
 43
0.0000001
 44
0.0000000001
 40
0.0
 40
0.0
 40
0.0
 40
0.0
 40
0.1215181836
 40
0.2454396636
 40
0.3718457003
 40
0.5000006452
 40
0.6281563122
 40
0.7545641636
 40
0.8784841523
 40
1.0
 40
1.0
 40
1.0
 40
1.0
 10
6.4703663594
 20
4.5459666955
 30
0.0
 10
6.4691339499
 20
4.5477407291
 30
0.0
 10
6.4663100607
 20
4.5511082014
 30
0.0
 10
6.4610522206
 20
4.5552049246
 30
0.0
 10
6.4548304627
 20
4.5579617703
 30
0.0
 10
6.4480056308
 20
4.5589450846
 30
0.0
 10
6.4411807696
 20
4.557961742
 30
0.0
 10
6.4349590066
 20
4.5552048541
 30
0.0
 10
6.4297012255
 20
4.551108117
 30
0.0
 10
6.4268773858
 20
4.547740695
 30
0.0
 10
6.4256449999
 20
4.5459666955
 30
0.0
  0
SPLINE
  5
3B9
100
AcDbEntity
  8
ALL_ASSEMBLY_MEMBERS
100
AcDbSpline
 62
7
  6
CONTINUOUS
 70
0
 71
3
 72
15
 73
11
 74
0
 42
0.0000001
 43
0.0000001
 44
0.0000000001
 40
0.0
 40
0.0
 40
0.0
 40
0.0
 40
0.1198621883
 40
0.2432702181
 40
0.3703540176
 40
0.5000006542
 40
0.6296480162
 40
0.7567336165
 40
0.8801401263
 40
1.0
 40
1.0
 40
1.0
 40
1.0
 10
6.4703663594
 20
4.553311067
 30
0.0
 10
6.4691286894
 20
4.5550129265
 30
0.0
 10
6.4662872845
 20
4.5582439052
 30
0.0
 10
6.4610241018
 20
4.5621517588
 30
0.0
 10
6.4548089803
 20
4.5647741338
 30
0.0
 10
6.448005631
 20
4.5657070271
 30
0.0
 10
6.4412022527
 20
4.564774107
 30
0.0
 10
6.4349871257
 20
4.562151692
 30
0.0
 10
6.4297240007
 20
4.558243824
 30
0.0
 10
6.426882646
 20
4.5550128936
 30
0.0
 10
6.4256449999
 20
4.553311067
 30
0.0
  0
SPLINE
  5
3BA
100
AcDbEntity
  8
ALL_ASSEMBLY_MEMBERS
100
AcDbSpline
 62
7
  6
CONTINUOUS
 70
0
 71
3
 72
15
 73
11
 74
0
 42
0.0000001
 43
0.0000001
 44
0.0000000001
 40
0.0
 40
0.0
 40
0.0
 40
0.0
 40
0.1179012125
 40
0.2407178204
 40
0.3686081255
 40
0.5000006649
 40
0.6313939333
 40
0.7592860237
 40
0.8821010772
 40
1.0
 40
1.0
 40
1.0
 40
1.0
 10
6.4703663594
 20
4.558598495
 30
0.0
 10
6.4691220287
 20
4.560215561
 30
0.0
 10
6.4662593334
 20
4.5632852095
 30
0.0
 10
6.4609911799
 20
4.5669712626
 30
0.0
 10
6.4547848384
 20
4.5694372681
 30
0.0
 10
6.4480056311
 20
4.5703122146
 30
0.0
 10
6.4412263954
 20
4.569437243
 30
0.0
 10
6.4350200478
 20
4.5669712
 30
0.0
 10
6.4297519505
 20
4.5632851319
 30
0.0
 10
6.4268893065
 20
4.5602155296
 30
0.0
 10
6.4256449999
 20
4.558598495
 30
0.0
  0
SPLINE
  5
3BB
100
AcDbEntity
  8
ALL_ASSEMBLY_MEMBERS
100
AcDbSpline
 62
7
  6
CONTINUOUS
 70
0
 71
3
 72
15
 73
11
 74
0
 42
0.0000001
 43
0.0000001
 44
0.0000000001
 40
0.0
 40
0.0
 40
0.0
 40
0.0
 40
0.1156504225
 40
0.2378104635
 40
0.3666311532
 40
0.500000677
 40
0.6333709344
 40
0.7621933921
 40
0.8843518391
 40
1.0
 40
1.0
 40
1.0
 40
1.0
 10
6.4703663594
 20
4.561786406
 30
0.0
 10
6.469113748
 20
4.5633065484
 30
0.0
 10
6.4662259331
 20
4.5661904737
 30
0.0
 10
6.4609539561
 20
4.5696236057
 30
0.0
 10
6.454758759
 20
4.5719132896
 30
0.0
 10
6.4480056313
 20
4.5727236712
 30
0.0
 10
6.4412524756
 20
4.5719132664
 30
0.0
 10
6.435057272
 20
4.5696235479
 30
0.0
 10
6.4297853494
 20
4.5661904004
 30
0.0
 10
6.4268975869
 20
4.5633065187
 30
0.0
 10
6.4256449999
 20
4.561786406
 30
0.0
  0
SPLINE
  5
3BC
100
AcDbEntity
  8
ALL_ASSEMBLY_MEMBERS
100
AcDbSpline
 62
7
  6
CONTINUOUS
 70
0
 71
3
 72
55
 73
51
 74
0
 42
0.0000001
 43
0.0000001
 44
0.0000000001
 40
0.0
 40
0.0
 40
0.0
 40
0.0
 40
0.027149784
 40
0.0543631223
 40
0.0816830764
 40
0.1091787604
 40
0.1369604395
 40
0.1652039562
 40
0.1941919722
 40
0.2243868941
 40
0.2401716578
 40
0.2565884914
 40
0.2738263675
 40
0.2828314441
 40
0.2921426328
 40
0.3018024503
 40
0.3118595596
 40
0.3223710497
 40
0.3333867598
 40
0.3570905914
 40
0.3697984824
 40
0.3829866003
 40
0.4100428894
 40
0.423436975
 40
0.436436809
 40
0.4607835106
 40
0.4721025294
 40
0.4828892859
 40
0.4931967144
 40
0.5030741927
 40
0.5217424781
 40
0.5392546435
 40
0.5558823428
 40
0.5872317248
 40
0.6169248368
 40
0.6313669197
 40
0.6456118364
 40
0.6736639218
 40
0.7013269859
 40
0.7287497027
 40
0.7560253177
 40
0.7832121873
 40
0.810346568
 40
0.8374507294
 40
0.8645384971
 40
0.8916186949
 40
0.9186977711
 40
0.9457819389
 40
0.9728788019
 40
1.0
 40
1.0
 40
1.0
 40
1.0
 10
6.9121909465
 20
4.0177166759
 30
0.0
 10
6.9123068112
 20
4.0193692081
 30
0.0
 10
6.9125808576
 20
4.0226754241
 30
0.0
 10
6.9131469035
 20
4.0276281638
 30
0.0
 10
6.913906201
 20
4.0325769022
 30
0.0
 10
6.914907456
 20
4.037518642
 30
0.0
 10
6.9162132047
 20
4.0424484
 30
0.0
 10
6.9179053113
 20
4.0473579236
 30
0.0
 10
6.9200933633
 20
4.0522321521
 30
0.0
 10
6.9224251811
 20
4.0561825044
 30
0.0
 10
6.9246832276
 20
4.0592515261
 30
0.0
 10
6.9266527138
 20
4.0615406723
 30
0.0
 10
6.9285125228
 20
4.0633672096
 30
0.0
 10
6.930163623
 20
4.0647755115
 30
0.0
 10
6.9315159456
 20
4.0658184067
 30
0.0
 10
6.9329735332
 20
4.0668262
 30
0.0
 10
6.9345480878
 20
4.0677887023
 30
0.0
 10
6.9362494261
 20
4.0686965423
 30
0.0
 10
6.9387609707
 20
4.0698439865
 30
0.0
 10
6.9415131562
 20
4.0707738146
 30
0.0
 10
6.9444693883
 20
4.0714330097
 30
0.0
 10
6.9476706404
 20
4.0718891775
 30
0.0
 10
6.9509594208
 20
4.0719657332
 30
0.0
 10
6.9542077759
 20
4.0716454331
 30
0.0
 10
6.9572590296
 20
4.0711058363
 30
0.0
 10
6.9601185466
 20
4.070261198
 30
0.0
 10
6.9627405839
 20
4.069180981
 30
0.0
 10
6.9645176839
 20
4.0683097883
 30
0.0
 10
6.9661619828
 20
4.067376163
 30
0.0
 10
6.9681547781
 20
4.0660900997
 30
0.0
 10
6.9703900782
 20
4.0643778807
 30
0.0
 10
6.9727504354
 20
4.0621779432
 30
0.0
 10
6.9754276188
 20
4.0592059085
 30
0.0
 10
6.9781835967
 20
4.0553291486
 30
0.0
 10
6.9803578881
 20
4.0512575139
 30
0.0
 10
6.9817869154
 20
4.047993367
 30
0.0
 10
6.9830270225
 20
4.0447598993
 30
0.0
 10
6.9843060466
 20
4.0406825787
 30
0.0
 10
6.9854943154
 20
4.0357479075
 30
0.0
 10
6.9864024389
 20
4.0308031488
 30
0.0
 10
6.9870874512
 20
4.0258526756
 30
0.0
 10
6.9875940237
 20
4.0208988981
 30
0.0
 10
6.9879565894
 20
4.0159432775
 30
0.0
 10
6.9882009809
 20
4.0109866561
 30
0.0
 10
6.988346549
 20
4.006029552
 30
0.0
 10
6.988403434
 20
4.0010722138
 30
0.0
 10
6.9883775638
 20
3.9961148486
 30
0.0
 10
6.9882658543
 20
3.9911576125
 30
0.0
 10
6.9880598486
 20
3.9862007909
 30
0.0
 10
6.9878492626
 20
3.9828988984
 30
0.0
 10
6.9877219245
 20
3.9812489601
 30
0.0
  0
SPLINE
  5
3BD
100
AcDbEntity
  8
ALL_ASSEMBLY_MEMBERS
100
AcDbSpline
 62
7
  6
CONTINUOUS
 70
0
 71
3
 72
42
 73
38
 74
0
 42
0.0000001
 43
0.0000001
 44
0.0000000001
 40
0.0
 40
0.0
 40
0.0
 40
0.0
 40
0.0294616305
 40
0.0447212112
 40
0.0604315918
 40
0.0766914741
 40
0.0936242088
 40
0.1113818279
 40
0.1301506187
 40
0.1501522124
 40
0.1716276124
 40
0.1947570308
 40
0.2069664463
 40
0.219545986
 40
0.2455032029
 40
0.2586328462
 40
0.2716640537
 40
0.2969399827
 40
0.3206563055
 40
0.3426782046
 40
0.3631539118
 40
0.3823157953
 40
0.4003950789
 40
0.4340466229
 40
0.4653265577
 40
0.4950087255
 40
0.5236007086
 40
0.5514417084
 40
0.5787623073
 40
0.6324135381
 40
0.6853549816
 40
0.7379629076
 40
0.7904202053
 40
0.8428144224
 40
0.8951889665
 40
0.9475723544
 40
1.0
 40
1.0
 40
1.0
 40
1.0
 10
6.9791133342
 20
3.9467909373
 30
0.0
 10
6.9784205741
 20
3.9455515701
 30
0.0
 10
6.9772812578
 20
3.9437167754
 30
0.0
 10
6.9755559952
 20
3.9413690178
 30
0.0
 10
6.9741039428
 20
3.9396143779
 30
0.0
 10
6.9724915716
 20
3.9378932458
 30
0.0
 10
6.9706936597
 20
3.9362179709
 30
0.0
 10
6.9686846576
 20
3.9346010854
 30
0.0
 10
6.9664297242
 20
3.933066875
 30
0.0
 10
6.9638941701
 20
3.9316442329
 30
0.0
 10
6.9610418632
 20
3.9303835056
 30
0.0
 10
6.9584314951
 20
3.9295381656
 30
0.0
 10
6.9561820575
 20
3.9290107896
 30
0.0
 10
6.9537718757
 20
3.9285894436
 30
0.0
 10
6.9512829106
 20
3.9283861115
 30
0.0
 10
6.9487700142
 20
3.9284079788
 30
0.0
 10
6.9462960848
 20
3.9285851277
 30
0.0
 10
6.9433376764
 20
3.9290624422
 30
0.0
 10
6.9400377502
 20
3.9299953798
 30
0.0
 10
6.9370709039
 20
3.9311852492
 30
0.0
 10
6.9344300583
 20
3.9325569271
 30
0.0
 10
6.932083012
 20
3.9340561718
 30
0.0
 10
6.9293614264
 20
3.9361264997
 30
0.0
 10
6.9264535246
 20
3.9388946018
 30
0.0
 10
6.9235740559
 20
3.9424430531
 30
0.0
 10
6.921230664
 20
3.9460759859
 30
0.0
 10
6.9193113192
 20
3.9497612501
 30
0.0
 10
6.9177337386
 20
3.9534804243
 30
0.0
 10
6.9160144464
 20
3.9584378902
 30
0.0
 10
6.9144243604
 20
3.9647047175
 30
0.0
 10
6.9131570246
 20
3.9722772696
 30
0.0
 10
6.912348273
 20
3.9798523101
 30
0.0
 10
6.91186787
 20
3.9874271605
 30
0.0
 10
6.9116323148
 20
3.9950017029
 30
0.0
 10
6.911597875
 20
4.0025760718
 30
0.0
 10
6.9117579323
 20
4.0101504108
 30
0.0
 10
6.9120142289
 20
4.0151962243
 30
0.0
 10
6.9121909465
 20
4.0177166759
 30
0.0
  0
SPLINE
  5
3BE
100
AcDbEntity
  8
ALL_ASSEMBLY_MEMBERS
100
AcDbSpline
 62
7
  6
CONTINUOUS
 70
0
 71
3
 72
60
 73
56
 74
0
 42
0.0000001
 43
0.0000001
 44
0.0000000001
 40
0.0
 40
0.0
 40
0.0
 40
0.0
 40
0.0312417693
 40
0.0625026274
 40
0.1249786827
 40
0.1874561724
 40
0.2499332843
 40
0.3124106031
 40
0.3436495097
 40
0.3748884461
 40
0.4061273594
 40
0.4373663739
 40
0.4686053453
 40
0.4998443485
 40
0.5310833717
 40
0.5623223002
 40
0.5935610602
 40
0.6247994594
 40
0.6560370443
 40
0.6716572969
 40
0.6872774702
 40
0.7028978414
 40
0.7185192272
 40
0.7263307982
 40
0.7341435665
 40
0.7497671894
 40
0.7653954584
 40
0.7732117148
 40
0.7810330189
 40
0.7888540563
 40
0.7966772109
 40
0.8123128096
 40
0.8201483277
 40
0.824070476
 40
0.8279900702
 40
0.8319079318
 40
0.8358272908
 40
0.8397487511
 40
0.8436707143
 40
0.847590397
 40
0.8515066605
 40
0.8554234915
 40
0.8593423543
 40
0.8671722042
 40
0.8749946339
 40
0.8828191057
 40
0.8906368191
 40
0.8984545048
 40
0.9062706809
 40
0.9218950907
 40
0.9375175334
 40
0.9531391836
 40
0.9687599597
 40
0.9843800695
 40
1.0
 40
1.0
 40
1.0
 40
1.0
 10
6.9214671816
 20
4.1891468457
 30
0.0
 10
6.9205229676
 20
4.1923355442
 30
0.0
 10
6.9188717208
 20
4.1987867381
 30
0.0
 10
6.9163289411
 20
4.2118497598
 30
0.0
 10
6.9142078778
 20
4.2283579692
 30
0.0
 10
6.9127336468
 20
4.2482593401
 30
0.0
 10
6.9119422314
 20
4.2681976866
 30
0.0
 10
6.9116595853
 20
4.2848224236
 30
0.0
 10
6.911606115
 20
4.298123401
 30
0.0
 10
6.9116506072
 20
4.3080991965
 30
0.0
 10
6.9117831693
 20
4.3180742298
 30
0.0
 10
6.9120137686
 20
4.3280475325
 30
0.0
 10
6.9123610739
 20
4.3380175458
 30
0.0
 10
6.9128496184
 20
4.3479817736
 30
0.0
 10
6.913513479
 20
4.3579360861
 30
0.0
 10
6.9143961185
 20
4.3678737065
 30
0.0
 10
6.9155528738
 20
4.3777837465
 30
0.0
 10
6.9170547653
 20
4.3876479513
 30
0.0
 10
6.9186711783
 20
4.3958064772
 30
0.0
 10
6.9202460334
 20
4.4022688604
 30
0.0
 10
6.921589238
 20
4.4070739084
 30
0.0
 10
6.9231187064
 20
4.4118233521
 30
0.0
 10
6.9245729101
 20
4.4157198521
 30
0.0
 10
6.9258636135
 20
4.4187856512
 30
0.0
 10
6.9272454257
 20
4.4218117493
 30
0.0
 10
6.9291625698
 20
4.425505799
 30
0.0
 10
6.9313777522
 20
4.4290334983
 30
0.0
 10
6.9333696339
 20
4.4317018565
 30
0.0
 10
6.9349822555
 20
4.4336105139
 30
0.0
 10
6.9367271061
 20
4.4354019648
 30
0.0
 10
6.9392407154
 20
4.4375882085
 30
0.0
 10
6.9420662342
 20
4.4394152068
 30
0.0
 10
6.944785294
 20
4.4404941347
 30
0.0
 10
6.9463951296
 20
4.4409389556
 30
0.0
 10
6.9476245828
 20
4.441180882
 30
0.0
 10
6.9488692065
 20
4.4413243486
 30
0.0
 10
6.9501216634
 20
4.4413639294
 30
0.0
 10
6.9513735799
 20
4.4413025679
 30
0.0
 10
6.9526167403
 20
4.4411425348
 30
0.0
 10
6.9538430755
 20
4.4408860815
 30
0.0
 10
6.9550452131
 20
4.4405354944
 30
0.0
 10
6.9562185871
 20
4.4400988165
 30
0.0
 10
6.9577393965
 20
4.4394123098
 30
0.0
 10
6.9595531028
 20
4.4383762896
 30
0.0
 10
6.9615756572
 20
4.4369013781
 30
0.0
 10
6.9634479648
 20
4.4352434137
 30
0.0
 10
6.9651807777
 20
4.4334420513
 30
0.0
 10
6.9667818249
 20
4.4315244478
 30
0.0
 10
6.9687585101
 20
4.428845962
 30
0.0
 10
6.9709598471
 20
4.4253103698
 30
0.0
 10
6.9732443871
 20
4.4208706465
 30
0.0
 10
6.9752306598
 20
4.4162912709
 30
0.0
 10
6.9769655802
 20
4.4116122272
 30
0.0
 10
6.9784859501
 20
4.4068599591
 30
0.0
 10
6.9793763048
 20
4.403655143
 30
0.0
 10
6.9797946019
 20
4.4020459431
 30
0.0
  0
SPLINE
  5
3BF
100
AcDbEntity
  8
ALL_ASSEMBLY_MEMBERS
100
AcDbSpline
 62
7
  6
CONTINUOUS
 70
0
 71
3
 72
39
 73
35
 74
0
 42
0.0000001
 43
0.0000001
 44
0.0000000001
 40
0.0
 40
0.0
 40
0.0
 40
0.0
 40
0.0624352199
 40
0.1248730946
 40
0.1560976488
 40
0.1873246878
 40
0.218553791
 40
0.2497919975
 40
0.2810279574
 40
0.3122772551
 40
0.3747270098
 40
0.4060031872
 40
0.4372903198
 40
0.4529590538
 40
0.4686166784
 40
0.4842741211
 40
0.499946276
 40
0.5312481403
 40
0.5469053871
 40
0.5625726305
 40
0.5938775373
 40
0.625153157
 40
0.6408070609
 40
0.6564475454
 40
0.6720775494
 40
0.6877080661
 40
0.7189623367
 40
0.7502000744
 40
0.7814406695
 40
0.8126718536
 40
0.8439005167
 40
0.8751266527
 40
0.9375648322
 40
1.0
 40
1.0
 40
1.0
 40
1.0
 10
6.9791133342
 20
4.1911252045
 30
0.0
 10
6.9785656011
 20
4.1891653848
 30
0.0
 10
6.9773837377
 20
4.1852690701
 30
0.0
 10
6.9756490069
 20
4.180482832
 30
0.0
 10
6.9740739296
 20
4.1767286374
 30
0.0
 10
6.9727887267
 20
4.1739581171
 30
0.0
 10
6.9713867489
 20
4.1712440624
 30
0.0
 10
6.9698571131
 20
4.1685992814
 30
0.0
 10
6.9681800606
 20
4.1660433973
 30
0.0
 10
6.9657311099
 20
4.1627888686
 30
0.0
 10
6.9629055375
 20
4.1598159218
 30
0.0
 10
6.9596468867
 20
4.1573552093
 30
0.0
 10
6.9574136465
 20
4.156103059
 30
0.0
 10
6.9555255502
 20
4.1553233154
 30
0.0
 10
6.9540634786
 20
4.1548611769
 30
0.0
 10
6.9525640885
 20
4.154537275
 30
0.0
 10
6.9505338922
 20
4.1543028577
 30
0.0
 10
6.9484776493
 20
4.1543653541
 30
0.0
 10
6.9464672961
 20
4.1547332275
 30
0.0
 10
6.9444997947
 20
4.1552866333
 30
0.0
 10
6.9421444925
 20
4.1562972791
 30
0.0
 10
6.9399756071
 20
4.1576540854
 30
0.0
 10
6.9383556539
 20
4.1588942865
 30
0.0
 10
6.9371954586
 20
4.1598920147
 30
0.0
 10
6.9360895814
 20
4.1609482639
 30
0.0
 10
6.9346849109
 20
4.1624250843
 30
0.0
 10
6.9330519605
 20
4.1643825717
 30
0.0
 10
6.9312672611
 20
4.1668646831
 30
0.0
 10
6.929641624
 20
4.1694523418
 30
0.0
 10
6.9281540409
 20
4.1721208498
 30
0.0
 10
6.9267921378
 20
4.1748548585
 30
0.0
 10
6.9251252331
 20
4.1785694608
 30
0.0
 10
6.923292095
 20
4.1833195083
 30
0.0
 10
6.9220449491
 20
4.187195671
 30
0.0
 10
6.9214671816
 20
4.1891468457
 30
0.0
  0
SPLINE
  5
3C0
100
AcDbEntity
  8
ALL_ASSEMBLY_MEMBERS
100
AcDbSpline
 62
7
  6
CONTINUOUS
 70
0
 71
3
 72
57
 73
53
 74
0
 42
0.0000001
 43
0.0000001
 44
0.0000000001
 40
0.0
 40
0.0
 40
0.0
 40
0.0
 40
0.0271033649
 40
0.0541864268
 40
0.0812591848
 40
0.1083287548
 40
0.1354010866
 40
0.162483062
 40
0.1895845504
 40
0.2167211659
 40
0.2439182867
 40
0.2712169721
 40
0.2986829748
 40
0.3264210648
 40
0.3545982419
 40
0.3834825759
 40
0.4135112431
 40
0.4291758249
 40
0.4454373019
 40
0.4624718477
 40
0.4713529655
 40
0.4805213446
 40
0.4900174625
 40
0.4998889873
 40
0.5209546618
 40
0.5322640892
 40
0.5441509419
 40
0.5565995381
 40
0.569587838
 40
0.5829722847
 40
0.5897466201
 40
0.5965390787
 40
0.6100494498
 40
0.6232470143
 40
0.6359673343
 40
0.6481382696
 40
0.6597186268
 40
0.6707515067
 40
0.6913425867
 40
0.7010164622
 40
0.7103403717
 40
0.7281005092
 40
0.7449192094
 40
0.7765290927
 40
0.8063797408
 40
0.8351544335
 40
0.8632634078
 40
0.8909589928
 40
0.9183986777
 40
0.9456813205
 40
0.9728688944
 40
1.0
 40
1.0
 40
1.0
 40
1.0
 10
6.9121855211
 20
4.5780591969
 30
0.0
 10
6.9120707315
 20
4.5797058096
 30
0.0
 10
6.9118827341
 20
4.5830007869
 30
0.0
 10
6.9117051255
 20
4.5879466105
 30
0.0
 10
6.9116183093
 20
4.5928927742
 30
0.0
 10
6.9116153634
 20
4.5978390158
 30
0.0
 10
6.9116959284
 20
4.602785183
 30
0.0
 10
6.9118665098
 20
4.607731068
 30
0.0
 10
6.9121404175
 20
4.6126763443
 30
0.0
 10
6.9125380064
 20
4.6176204474
 30
0.0
 10
6.913087169
 20
4.622562421
 30
0.0
 10
6.9138247925
 20
4.6275005909
 30
0.0
 10
6.9147982578
 20
4.6324321245
 30
0.0
 10
6.916068097
 20
4.6373522771
 30
0.0
 10
6.9177133648
 20
4.6422532623
 30
0.0
 10
6.919839543
 20
4.64712092
 30
0.0
 10
6.9221043163
 20
4.6510719029
 30
0.0
 10
6.9242955023
 20
4.6541469582
 30
0.0
 10
6.9262031645
 20
4.6564424401
 30
0.0
 10
6.9280037561
 20
4.6582792645
 30
0.0
 10
6.9296005679
 20
4.6596999228
 30
0.0
 10
6.9309059252
 20
4.660754666
 30
0.0
 10
6.9323128723
 20
4.6617763013
 30
0.0
 10
6.9343817789
 20
4.6631132092
 30
0.0
 10
6.9366621072
 20
4.6643208833
 30
0.0
 10
6.9391549058
 20
4.6653507126
 30
0.0
 10
6.9412139901
 20
4.66604376
 30
0.0
 10
6.9434166079
 20
4.6666135725
 30
0.0
 10
6.9457462433
 20
4.6670297592
 30
0.0
 10
6.9477570473
 20
4.6672315951
 30
0.0
 10
6.9493974634
 20
4.6672978243
 30
0.0
 10
6.9510468721
 20
4.667295845
 30
0.0
 10
6.9530856182
 20
4.6671722978
 30
0.0
 10
6.9554660664
 20
4.6668392339
 30
0.0
 10
6.9577335071
 20
4.6663395144
 30
0.0
 10
6.9598640017
 20
4.6657050345
 30
0.0
 10
6.9618488078
 20
4.6649597369
 30
0.0
 10
6.9642462352
 20
4.6638722
 30
0.0
 10
6.9664395209
 20
4.6626272657
 30
0.0
 10
6.968426837
 20
4.6612606411
 30
0.0
 10
6.9702039404
 20
4.6598979147
 30
0.0
 10
6.9722035516
 20
4.6581163516
 30
0.0
 10
6.9749655986
 20
4.6551748471
 30
0.0
 10
6.9778074997
 20
4.6513241173
 30
0.0
 10
6.9804729998
 20
4.6465049872
 30
0.0
 10
6.9825313246
 20
4.6416316622
 30
0.0
 10
6.9841235833
 20
4.6367277569
 30
0.0
 10
6.9853518054
 20
4.6318058054
 30
0.0
 10
6.9862922168
 20
4.6268732566
 30
0.0
 10
6.9870035366
 20
4.6219344945
 30
0.0
 10
6.9875317453
 20
4.6169922154
 30
0.0
 10
6.9877854794
 20
4.6136934704
 30
0.0
 10
6.9878922532
 20
4.6120446256
 30
0.0
  0
SPLINE
  5
3C1
100
AcDbEntity
  8
ALL_ASSEMBLY_MEMBERS
100
AcDbSpline
 62
7
  6
CONTINUOUS
 70
0
 71
3
 72
37
 73
33
 74
0
 42
0.0000001
 43
0.0000001
 44
0.0000000001
 40
0.0
 40
0.0
 40
0.0
 40
0.0
 40
0.055809892
 40
0.0853458064
 40
0.1164315743
 40
0.149586775
 40
0.1855045389
 40
0.2047727551
 40
0.2250651687
 40
0.2464636214
 40
0.2689989527
 40
0.292574047
 40
0.3046692474
 40
0.3169129161
 40
0.3415503625
 40
0.3659186965
 40
0.3895760364
 40
0.4121818176
 40
0.4539881475
 40
0.4917183251
 40
0.5262443185
 40
0.5583588121
 40
0.5886688193
 40
0.6455068351
 40
0.6991687577
 40
0.7252513044
 40
0.7509784358
 40
0.8016627657
 40
0.8516864409
 40
0.9013195456
 40
0.9507250004
 40
1.0
 40
1.0
 40
1.0
 40
1.0
 10
6.9791133342
 20
4.5421834024
 30
0.0
 10
6.9781194397
 20
4.5404052973
 30
0.0
 10
6.976416248
 20
4.5377801575
 30
0.0
 10
6.9736945705
 20
4.5345110872
 30
0.0
 10
6.971273279
 20
4.5320841224
 30
0.0
 10
6.9684373952
 20
4.529766481
 30
0.0
 10
6.9657163469
 20
4.5280203218
 30
0.0
 10
6.9632662735
 20
4.5267569137
 30
0.0
 10
6.9612214696
 20
4.5258749984
 30
0.0
 10
6.959005226
 20
4.5251042675
 30
0.0
 10
6.9566193526
 20
4.5244784193
 30
0.0
 10
6.9545248902
 20
4.5241070244
 30
0.0
 10
6.9527865326
 20
4.5239114384
 30
0.0
 10
6.9510025865
 20
4.5237900332
 30
0.0
 10
6.9487639279
 20
4.5237810021
 30
0.0
 10
6.9461179802
 20
4.5240049341
 30
0.0
 10
6.9435734765
 20
4.5244382343
 30
0.0
 10
6.9404569673
 20
4.5252375843
 30
0.0
 10
6.9369603115
 20
4.5265727211
 30
0.0
 10
6.9333032028
 20
4.5285856641
 30
0.0
 10
6.9302076587
 20
4.5308202575
 30
0.0
 10
6.9275742005
 20
4.5331931596
 30
0.0
 10
6.9246307384
 20
4.5364073569
 30
0.0
 10
6.9216499838
 20
4.5406213648
 30
0.0
 10
6.919347788
 20
4.5450567939
 30
0.0
 10
6.9178596774
 20
4.5486085872
 30
0.0
 10
6.9165825006
 20
4.5521261544
 30
0.0
 10
6.915288679
 20
4.5565612166
 30
0.0
 10
6.9141164393
 20
4.5619251588
 30
0.0
 10
6.9132455166
 20
4.5672978725
 30
0.0
 10
6.9126104103
 20
4.5726751175
 30
0.0
 10
6.9123105962
 20
4.5762650428
 30
0.0
 10
6.9121855211
 20
4.5780591969
 30
0.0
  0
SPLINE
  5
3C2
100
AcDbEntity
  8
ALL_ASSEMBLY_MEMBERS
100
AcDbSpline
 62
7
  6
CONTINUOUS
 70
0
 71
3
 72
15
 73
11
 74
0
 42
0.0000001
 43
0.0000001
 44
0.0000000001
 40
0.0
 40
0.0
 40
0.0
 40
0.0
 40
0.115657414
 40
0.2378194621
 40
0.3666371568
 40
0.5000007688
 40
0.6333648857
 40
0.7621843969
 40
0.8843448446
 40
1.0
 40
1.0
 40
1.0
 40
1.0
 10
6.4256449999
 20
4.0339180806
 30
0.0
 10
6.4268975849
 20
4.032397638
 30
0.0
 10
6.4297853214
 20
4.0295131352
 30
0.0
 10
6.4350572896
 20
4.0260792245
 30
0.0
 10
6.4412525229
 20
4.0237889969
 30
0.0
 10
6.4480057289
 20
4.0229784199
 30
0.0
 10
6.454758963
 20
4.0237890222
 30
0.0
 10
6.4609542007
 20
4.0260792811
 30
0.0
 10
6.4662261145
 20
4.0295132089
 30
0.0
 10
6.4691137989
 20
4.0323976677
 30
0.0
 10
6.4703663594
 20
4.0339180806
 30
0.0
  0
SPLINE
  5
3C3
100
AcDbEntity
  8
ALL_ASSEMBLY_MEMBERS
100
AcDbSpline
 62
7
  6
CONTINUOUS
 70
0
 71
3
 72
15
 73
11
 74
0
 42
0.0000001
 43
0.0000001
 44
0.0000000001
 40
0.0
 40
0.0
 40
0.0
 40
0.0
 40
0.117907391
 40
0.2407258371
 40
0.368613499
 40
0.5000007559
 40
0.6313885151
 40
0.7592780095
 40
0.8820948956
 40
1.0
 40
1.0
 40
1.0
 40
1.0
 10
6.4256449999
 20
4.0371121606
 30
0.0
 10
6.4268893093
 20
4.0354948291
 30
0.0
 10
6.4297519372
 20
4.0324246736
 30
0.0
 10
6.4350200774
 20
4.0287379295
 30
0.0
 10
6.441226448
 20
4.0262714353
 30
0.0
 10
6.4480057291
 20
4.0253963114
 30
0.0
 10
6.4547850387
 20
4.0262714626
 30
0.0
 10
6.4609914133
 20
4.0287379908
 30
0.0
 10
6.4662594973
 20
4.0324247515
 30
0.0
 10
6.4691220742
 20
4.0354948604
 30
0.0
 10
6.4703663594
 20
4.0371121606
 30
0.0
  0
SPLINE
  5
3C4
100
AcDbEntity
  8
ALL_ASSEMBLY_MEMBERS
100
AcDbSpline
 62
7
  6
CONTINUOUS
 70
0
 71
3
 72
15
 73
11
 74
0
 42
0.0000001
 43
0.0000001
 44
0.0000000001
 40
0.0
 40
0.0
 40
0.0
 40
0.0
 40
0.1198674953
 40
0.243277152
 40
0.3703586802
 40
0.500000744
 40
0.6296433098
 40
0.7567266849
 40
0.8801348163
 40
1.0
 40
1.0
 40
1.0
 40
1.0
 10
6.4256449999
 20
4.0424056579
 30
0.0
 10
6.4268826529
 20
4.0407035689
 30
0.0
 10
6.4297240016
 20
4.037472155
 30
0.0
 10
6.434987169
 20
4.0335637041
 30
0.0
 10
6.4412023127
 20
4.0309409016
 30
0.0
 10
6.4480057293
 20
4.0300078515
 30
0.0
 10
6.4548091746
 20
4.0309409306
 30
0.0
 10
6.4610243221
 20
4.0335637696
 30
0.0
 10
6.4662874316
 20
4.0374722366
 30
0.0
 10
6.4691287303
 20
4.0407036018
 30
0.0
 10
6.4703663594
 20
4.0424056579
 30
0.0
  0
SPLINE
  5
3C5
100
AcDbEntity
  8
ALL_ASSEMBLY_MEMBERS
100
AcDbSpline
 62
7
  6
CONTINUOUS
 70
0
 71
3
 72
15
 73
11
 74
0
 42
0.0000001
 43
0.0000001
 44
0.0000000001
 40
0.0
 40
0.0
 40
0.0
 40
0.0
 40
0.1215225874
 40
0.2454454506
 40
0.3718495964
 40
0.5000007332
 40
0.6281523737
 40
0.7545583787
 40
0.8784797457
 40
1.0
 40
1.0
 40
1.0
 40
1.0
 10
6.4256449999
 20
4.0497559501
 30
0.0
 10
6.4268773963
 20
4.0479817246
 30
0.0
 10
6.42970124
 20
4.0446138901
 30
0.0
 10
6.4349590648
 20
4.040516668
 30
0.0
 10
6.441180839
 20
4.0377594611
 30
0.0
 10
6.4480057295
 20
4.0367760133
 30
0.0
 10
6.454830649
 20
4.0377594917
 30
0.0
 10
6.4610524266
 20
4.0405167371
 30
0.0
 10
6.4663101922
 20
4.0446139748
 30
0.0
 10
6.4691339867
 20
4.0479817586
 30
0.0
 10
6.4703663594
 20
4.0497559501
 30
0.0
  0
SPLINE
  5
3C6
100
AcDbEntity
  8
ALL_ASSEMBLY_MEMBERS
100
AcDbSpline
 62
7
  6
CONTINUOUS
 70
0
 71
3
 72
23
 73
19
 74
0
 42
0.0000001
 43
0.0000001
 44
0.0000000001
 40
0.0
 40
0.0
 40
0.0
 40
0.0
 40
0.1226540984
 40
0.1846393003
 40
0.2469936806
 40
0.3097614414
 40
0.3729122675
 40
0.4046213488
 40
0.4363973937
 40
0.5000007467
 40
0.5636040951
 40
0.5953803188
 40
0.6270897185
 40
0.6902411702
 40
0.753010142
 40
0.815363901
 40
0.8773482479
 40
1.0
 40
1.0
 40
1.0
 40
1.0
 10
6.4256449999
 20
4.0591038537
 30
0.0
 10
6.4268733587
 20
4.057270574
 30
0.0
 10
6.4289785789
 20
4.0546650099
 30
0.0
 10
6.432285333
 20
4.0516858787
 30
0.0
 10
6.4350340723
 20
4.0497277412
 30
0.0
 10
6.4380243232
 20
4.0481172072
 30
0.0
 10
6.4406862284
 20
4.0471109817
 30
0.0
 10
6.4428923677
 20
4.0465347487
 30
0.0
 10
6.4451423019
 20
4.0461178844
 30
0.0
 10
6.4480057196
 20
4.0459033833
 30
0.0
 10
6.4508691412
 20
4.0461178919
 30
0.0
 10
6.4531190801
 20
4.0465347769
 30
0.0
 10
6.455325242
 20
4.0471110053
 30
0.0
 10
6.4579871648
 20
4.0481172942
 30
0.0
 10
6.4609774432
 20
4.0497278208
 30
0.0
 10
6.4637261599
 20
4.0516859846
 30
0.0
 10
6.4670328441
 20
4.0546650884
 30
0.0
 10
6.4691380241
 20
4.057270609
 30
0.0
 10
6.4703663594
 20
4.0591038537
 30
0.0
  0
SPLINE
  5
3C7
100
AcDbEntity
  8
ALL_ASSEMBLY_MEMBERS
100
AcDbSpline
 62
7
  6
CONTINUOUS
 70
0
 71
3
 72
23
 73
19
 74
0
 42
0.0000001
 43
0.0000001
 44
0.0000000001
 40
0.0
 40
0.0
 40
0.0
 40
0.0
 40
0.1236718421
 40
0.1859140892
 40
0.2483377051
 40
0.3109848323
 40
0.3738420395
 40
0.4053511947
 40
0.4369002277
 40
0.5000007411
 40
0.563101251
 40
0.5946504633
 40
0.6261599349
 40
0.6890177755
 40
0.751666113
 40
0.8140891185
 40
0.8763305175
 40
1.0
 40
1.0
 40
1.0
 40
1.0
 10
6.4256449999
 20
4.0703741006
 30
0.0
 10
6.4268703993
 20
4.068495253
 30
0.0
 10
6.4289709226
 20
4.0658217045
 30
0.0
 10
6.4322813583
 20
4.0627566677
 30
0.0
 10
6.4350296862
 20
4.0607445406
 30
0.0
 10
6.4380200319
 20
4.059089164
 30
0.0
 10
6.4406840929
 20
4.0580540727
 30
0.0
 10
6.4428916608
 20
4.0574616293
 30
0.0
 10
6.4451412731
 20
4.0570333604
 30
0.0
 10
6.4480057196
 20
4.0568127704
 30
0.0
 10
6.4508701701
 20
4.0570333682
 30
0.0
 10
6.4531197869
 20
4.0574616582
 30
0.0
 10
6.4553273778
 20
4.0580540971
 30
0.0
 10
6.4579914557
 20
4.0590892533
 30
0.0
 10
6.4609818296
 20
4.0607446225
 30
0.0
 10
6.4637301344
 20
4.0627567765
 30
0.0
 10
6.4670405001
 20
4.0658217849
 30
0.0
 10
6.4691409834
 20
4.0684952888
 30
0.0
 10
6.4703663594
 20
4.0703741006
 30
0.0
  0
SPLINE
  5
3C8
100
AcDbEntity
  8
ALL_ASSEMBLY_MEMBERS
100
AcDbSpline
 62
7
  6
CONTINUOUS
 70
0
 71
3
 72
23
 73
19
 74
0
 42
0.0000001
 43
0.0000001
 44
0.0000000001
 40
0.0
 40
0.0
 40
0.0
 40
0.0
 40
0.1243747111
 40
0.1867956205
 40
0.2492682943
 40
0.3118336014
 40
0.3744882231
 40
0.4058589756
 40
0.4372506736
 40
0.5000020278
 40
0.5627526237
 40
0.5941439637
 40
0.6255145601
 40
0.688168687
 40
0.7507342087
 40
0.8132063331
 40
0.8756266789
 40
1.0
 40
1.0
 40
1.0
 40
1.0
 10
6.4256449999
 20
4.0834759444
 30
0.0
 10
6.4268684033
 20
4.0815653574
 30
0.0
 10
6.4289656871
 20
4.0788445152
 30
0.0
 10
6.4322785637
 20
4.0757195446
 30
0.0
 10
6.4350265684
 20
4.0736697649
 30
0.0
 10
6.4380169699
 20
4.071983107
 30
0.0
 10
6.4406825531
 20
4.0709278059
 30
0.0
 10
6.4428911601
 20
4.0703240379
 30
0.0
 10
6.4451405747
 20
4.069887824
 30
0.0
 10
6.4480057768
 20
4.069662963
 30
0.0
 10
6.4508709762
 20
4.0698878262
 30
0.0
 10
6.4531203568
 20
4.0703240893
 30
0.0
 10
6.4553289497
 20
4.0709278386
 30
0.0
 10
6.4579945091
 20
4.0719831811
 30
0.0
 10
6.4609848975
 20
4.0736698276
 30
0.0
 10
6.4637328778
 20
4.0757196143
 30
0.0
 10
6.4670457107
 20
4.0788445634
 30
0.0
 10
6.4691429697
 20
4.0815653787
 30
0.0
 10
6.4703663594
 20
4.0834759444
 30
0.0
  0
SPLINE
  5
3C9
100
AcDbEntity
  8
ALL_ASSEMBLY_MEMBERS
100
AcDbSpline
 62
7
  6
CONTINUOUS
 70
0
 71
3
 72
15
 73
11
 74
0
 42
0.0000001
 43
0.0000001
 44
0.0000000001
 40
0.0
 40
0.0
 40
0.0
 40
0.0
 40
0.1219025695
 40
0.244079286
 40
0.3666805111
 40
0.4899365339
 40
0.6142052024
 40
0.7400484521
 40
0.8682587891
 40
1.0
 40
1.0
 40
1.0
 40
1.0
 10
6.9877219245
 20
3.9812489601
 30
0.0
 10
6.9876100312
 20
3.9797991419
 30
0.0
 10
6.9873512646
 20
3.9768987644
 30
0.0
 10
6.986840931
 20
3.9725539759
 30
0.0
 10
6.9861803891
 20
3.9682127789
 30
0.0
 10
6.9853376786
 20
3.9638773701
 30
0.0
 10
6.9842730176
 20
3.9595504752
 30
0.0
 10
6.9829328907
 20
3.9552378427
 30
0.0
 10
6.9812593411
 20
3.9509462089
 30
0.0
 10
6.9798800866
 20
3.9481626789
 30
0.0
 10
6.9791133342
 20
3.9467909373
 30
0.0
  0
SPLINE
  5
3CA
100
AcDbEntity
  8
ALL_ASSEMBLY_MEMBERS
100
AcDbSpline
 62
7
  6
CONTINUOUS
 70
0
 71
3
 72
28
 73
24
 74
0
 42
0.0000001
 43
0.0000001
 44
0.0000000001
 40
0.0
 40
0.0
 40
0.0
 40
0.0
 40
0.0312485544
 40
0.062497332
 40
0.0937462207
 40
0.1249951327
 40
0.1874898706
 40
0.2499858087
 40
0.3124822898
 40
0.374978981
 40
0.4374757534
 40
0.4999725203
 40
0.5624693172
 40
0.6249662688
 40
0.6874633389
 40
0.7187125375
 40
0.7499630771
 40
0.8124618511
 40
0.8749598973
 40
0.9062163211
 40
0.9374850304
 40
0.9687497616
 40
1.0
 40
1.0
 40
1.0
 40
1.0
 10
6.9797946019
 20
4.4020459431
 30
0.0
 10
6.9803507005
 20
4.3999066169
 30
0.0
 10
6.981368569
 20
4.3956030385
 30
0.0
 10
6.9826572537
 20
4.3890970115
 30
0.0
 10
6.9837447279
 20
4.3825545211
 30
0.0
 10
6.9849658615
 20
4.3737968941
 30
0.0
 10
6.9861274311
 20
4.3628031281
 30
0.0
 10
6.9870914977
 20
4.3495744466
 30
0.0
 10
6.9877357609
 20
4.3363267451
 30
0.0
 10
6.9881394221
 20
4.3230699227
 30
0.0
 10
6.9883557779
 20
4.3098088784
 30
0.0
 10
6.9884151387
 20
4.2965462772
 30
0.0
 10
6.9883261819
 20
4.2832838095
 30
0.0
 10
6.9880760796
 20
4.2700233261
 30
0.0
 10
6.9877051056
 20
4.2589768207
 30
0.0
 10
6.9872799646
 20
4.2501450224
 30
0.0
 10
6.9867577217
 20
4.2413183085
 30
0.0
 10
6.9858908037
 20
4.2302984452
 30
0.0
 10
6.9846470596
 20
4.2193122818
 30
0.0
 10
6.9833378955
 20
4.2105650898
 30
0.0
 10
6.9821771457
 20
4.2040319868
 30
0.0
 10
6.9807993686
 20
4.1975412936
 30
0.0
 10
6.9797083381
 20
4.1932541618
 30
0.0
 10
6.9791133342
 20
4.1911252045
 30
0.0
  0
SPLINE
  5
3CB
100
AcDbEntity
  8
ALL_ASSEMBLY_MEMBERS
100
AcDbSpline
 62
7
  6
CONTINUOUS
 70
0
 71
3
 72
23
 73
19
 74
0
 42
0.0000001
 43
0.0000001
 44
0.0000000001
 40
0.0
 40
0.0
 40
0.0
 40
0.0
 40
0.0616799841
 40
0.1233211315
 40
0.1849412082
 40
0.2465530872
 40
0.3081675238
 40
0.369796019
 40
0.4314531789
 40
0.4931606798
 40
0.5549521978
 40
0.6168801225
 40
0.6790198364
 40
0.7414878648
 40
0.8044668643
 40
0.8682439411
 40
0.9332225864
 40
1.0
 40
1.0
 40
1.0
 40
1.0
 10
6.9878922532
 20
4.6120446256
 30
0.0
 10
6.9879868709
 20
4.6105835004
 30
0.0
 10
6.9881441686
 20
4.6076600457
 30
0.0
 10
6.9882998274
 20
4.6032723934
 30
0.0
 10
6.9883829412
 20
4.5988844024
 30
0.0
 10
6.9884004086
 20
4.5944963141
 30
0.0
 10
6.9883515011
 20
4.5901082585
 30
0.0
 10
6.988235104
 20
4.5857203712
 30
0.0
 10
6.9880419212
 20
4.5813329316
 30
0.0
 10
6.987762672
 20
4.5769461573
 30
0.0
 10
6.9873789153
 20
4.5725606961
 30
0.0
 10
6.986872156
 20
4.5681771968
 30
0.0
 10
6.986213626
 20
4.5637973395
 30
0.0
 10
6.9853718556
 20
4.5594231051
 30
0.0
 10
6.9843051933
 20
4.5550574217
 30
0.0
 10
6.9829602543
 20
4.5507058009
 30
0.0
 10
6.9812769668
 20
4.5463752947
 30
0.0
 10
6.9798867708
 20
4.5435671021
 30
0.0
 10
6.9791133342
 20
4.5421834024
 30
0.0
  0
SPLINE
  5
3CC
100
AcDbEntity
  8
0
100
AcDbSpline
 62
7
  6
CONTINUOUS
 70
0
 71
3
 72
24
 73
20
 74
0
 42
0.0000001
 43
0.0000001
 44
0.0000000001
 40
0.0
 40
0.0
 40
0.0
 40
0.0
 40
0.0718878585
 40
0.1435400715
 40
0.2145696358
 40
0.2847071582
 40
0.3537075872
 40
0.4213244519
 40
0.4873404327
 40
0.5515819833
 40
0.6139212449
 40
0.6742838737
 40
0.7326611392
 40
0.7891149114
 40
0.8437947806
 40
0.8969345853
 40
0.9230400299
 40
0.948888914
 40
1.0
 40
1.0
 40
1.0
 40
1.0
 10
5.9325056797
 20
4.1634535245
 30
0.0
 10
5.9358565878
 20
4.1634535245
 30
0.0
 10
5.9425500211
 20
4.1632044926
 30
0.0
 10
5.9524987874
 20
4.1620939105
 30
0.0
 10
5.9622564636
 20
4.1602533641
 30
0.0
 10
5.9717264688
 20
4.1577076317
 30
0.0
 10
5.9808193174
 20
4.1544835166
 30
0.0
 10
5.9894494839
 20
4.1506190649
 30
0.0
 10
5.9975334115
 20
4.1461548023
 30
0.0
 10
6.0049949635
 20
4.1411413123
 30
0.0
 10
6.0117626636
 20
4.1356316205
 30
0.0
 10
6.0177720943
 20
4.129684525
 30
0.0
 10
6.0229653676
 20
4.123362403
 30
0.0
 10
6.0272909735
 20
4.1167298697
 30
0.0
 10
6.0307062709
 20
4.1098562728
 30
0.0
 10
6.0327754555
 20
4.1039469065
 30
0.0
 10
6.0339325069
 20
4.0991833232
 30
0.0
 10
6.0347540826
 20
4.0944473886
 30
0.0
 10
6.0350053947
 20
4.0908539471
 30
0.0
 10
6.0350053952
 20
4.0884715065
 30
0.0
  0
SPLINE
  5
3CD
100
AcDbEntity
  8
0
100
AcDbSpline
 62
7
  6
CONTINUOUS
 70
0
 71
3
 72
22
 73
18
 74
0
 42
0.0000001
 43
0.0000001
 44
0.0000000001
 40
0.0
 40
0.0
 40
0.0
 40
0.0
 40
0.071901703
 40
0.143553769
 40
0.2145867456
 40
0.2847356576
 40
0.3537474926
 40
0.4213727526
 40
0.5515247286
 40
0.6138733624
 40
0.67424534
 40
0.7326323589
 40
0.7890976025
 40
0.843783792
 40
0.8969378144
 40
0.9488937762
 40
1.0
 40
1.0
 40
1.0
 40
1.0
 10
5.9325056797
 20
4.4322447461
 30
0.0
 10
5.929154637
 20
4.4322447461
 30
0.0
 10
5.9224615589
 20
4.4324934056
 30
0.0
 10
5.9125135893
 20
4.4336043642
 30
0.0
 10
5.9027565852
 20
4.4354444106
 30
0.0
 10
5.8932871914
 20
4.4379902266
 30
0.0
 10
5.8841930876
 20
4.4412138978
 30
0.0
 10
5.8728370007
 20
4.4462994868
 30
0.0
 10
5.8624019843
 20
4.4526153736
 30
0.0
 10
5.8532506945
 20
4.4600645815
 30
0.0
 10
5.8472407843
 20
4.4660120404
 30
0.0
 10
5.8420473873
 20
4.472334127
 30
0.0
 10
5.8377213552
 20
4.4789664128
 30
0.0
 10
5.8343059179
 20
4.4858407111
 30
0.0
 10
5.8318364903
 20
4.4928886439
 30
0.0
 10
5.8303434842
 20
4.5000355238
 30
0.0
 10
5.8300056797
 20
4.5048449749
 30
0.0
 10
5.8300056797
 20
4.5072268258
 30
0.0
  0
SPLINE
  5
3CE
100
AcDbEntity
  8
0
100
AcDbSpline
 62
7
  6
CONTINUOUS
 70
0
 71
3
 72
22
 73
18
 74
0
 42
0.0000001
 43
0.0000001
 44
0.0000000001
 40
0.0
 40
0.0
 40
0.0
 40
0.0
 40
0.0511049173
 40
0.1030571896
 40
0.1562076291
 40
0.2108923107
 40
0.2673567093
 40
0.3257440318
 40
0.386116797
 40
0.4484666465
 40
0.5786206615
 40
0.6462467562
 40
0.7152590622
 40
0.7854082015
 40
0.856442441
 40
0.9280971039
 40
1.0
 40
1.0
 40
1.0
 40
1.0
 10
6.0350056797
 20
4.5072268258
 30
0.0
 10
6.0350056797
 20
4.5048450357
 30
0.0
 10
6.0346679865
 20
4.5000358085
 30
0.0
 10
6.0331750069
 20
4.4928893344
 30
0.0
 10
6.0307059006
 20
4.4858417265
 30
0.0
 10
6.0272906258
 20
4.4789676596
 30
0.0
 10
6.0229649265
 20
4.4723352705
 30
0.0
 10
6.0177715217
 20
4.4660131695
 30
0.0
 10
6.0117617086
 20
4.4600654646
 30
0.0
 10
6.0026103295
 20
4.4526160598
 30
0.0
 10
5.992175248
 20
4.4462999066
 30
0.0
 10
5.9808190247
 20
4.4412142378
 30
0.0
 10
5.9717248955
 20
4.4379904251
 30
0.0
 10
5.9622554178
 20
4.4354445641
 30
0.0
 10
5.9524982398
 20
4.433604404
 30
0.0
 10
5.9425500301
 20
4.432493468
 30
0.0
 10
5.935856778
 20
4.4322447461
 30
0.0
 10
5.9325056797
 20
4.4322447461
 30
0.0
  0
SPLINE
  5
3CF
100
AcDbEntity
  8
0
100
AcDbSpline
 62
7
  6
CONTINUOUS
 70
0
 71
3
 72
24
 73
20
 74
0
 42
0.0000001
 43
0.0000001
 44
0.0000000001
 40
0.0
 40
0.0
 40
0.0
 40
0.0
 40
0.051111103
 40
0.0769599993
 40
0.1030654503
 40
0.1562052637
 40
0.2108851351
 40
0.2673389366
 40
0.3257162554
 40
0.3860789352
 40
0.4484182467
 40
0.512659885
 40
0.5786760101
 40
0.6462930727
 40
0.7152936849
 40
0.7854311861
 40
0.8564604604
 40
0.9281123014
 40
1.0
 40
1.0
 40
1.0
 40
1.0
 10
5.8300059644
 20
4.0884715066
 30
0.0
 10
5.8300059637
 20
4.090853948
 30
0.0
 10
5.8302572769
 20
4.0944473909
 30
0.0
 10
5.831078855
 20
4.0991833267
 30
0.0
 10
5.8322359042
 20
4.1039469119
 30
0.0
 10
5.8343050923
 20
4.1098562778
 30
0.0
 10
5.8377203881
 20
4.1167298776
 30
0.0
 10
5.8420460003
 20
4.1233624116
 30
0.0
 10
5.8472392769
 20
4.1296845387
 30
0.0
 10
5.8532487148
 20
4.1356316373
 30
0.0
 10
5.860016423
 20
4.1411413331
 30
0.0
 10
5.8674779884
 20
4.1461548268
 30
0.0
 10
5.8755619356
 20
4.1506190953
 30
0.0
 10
5.8841921275
 20
4.1544835507
 30
0.0
 10
5.8932849955
 20
4.1577076606
 30
0.0
 10
5.9027549957
 20
4.1602533888
 30
0.0
 10
5.9125126425
 20
4.1620939188
 30
0.0
 10
5.9224613702
 20
4.1632044997
 30
0.0
 10
5.929154779
 20
4.1634535245
 30
0.0
 10
5.9325056797
 20
4.1634535245
 30
0.0
  0
SPLINE
  5
3D0
100
AcDbEntity
  8
0
100
AcDbSpline
 62
7
  6
CONTINUOUS
 70
0
 71
3
 72
20
 73
16
 74
0
 42
0.0000001
 43
0.0000001
 44
0.0000000001
 40
0.0
 40
0.0
 40
0.0
 40
0.0
 40
0.056914183
 40
0.113794337
 40
0.170846592
 40
0.2282742472
 40
0.2862720281
 40
0.3450248324
 40
0.4047005542
 40
0.4654481072
 40
0.5273954821
 40
0.5906435068
 40
0.7212684704
 40
0.8577310396
 40
1.0
 40
1.0
 40
1.0
 40
1.0
 10
6.0350053952
 20
4.0884715065
 30
0.0
 10
6.0350053955
 20
4.0870440047
 30
0.0
 10
6.0348861582
 20
4.0841883761
 30
0.0
 10
6.0343467848
 20
4.079932459
 30
0.0
 10
6.0334490067
 20
4.0757240896
 30
0.0
 10
6.032197429
 20
4.0715779734
 30
0.0
 10
6.0305957604
 20
4.0675083516
 30
0.0
 10
6.0286495765
 20
4.0635291682
 30
0.0
 10
6.0263672671
 20
4.0596527921
 30
0.0
 10
6.0237564798
 20
4.0558919367
 30
0.0
 10
6.0208260408
 20
4.0522587594
 30
0.0
 10
6.0164623706
 20
4.047548922
 30
0.0
 10
6.0102370659
 20
4.042044783
 30
0.0
 10
6.0017751984
 20
4.0361938864
 30
0.0
 10
5.9956155891
 20
4.0328560405
 30
0.0
 10
5.9923996
 20
4.0313099261
 30
0.0
  0
SPLINE
  5
3D1
100
AcDbEntity
  8
0
100
AcDbSpline
 62
7
  6
CONTINUOUS
 70
0
 71
3
 72
19
 73
15
 74
0
 42
0.0000001
 43
0.0000001
 44
0.0000000001
 40
0.0
 40
0.0
 40
0.0
 40
0.0
 40
0.1420349171
 40
0.2783065965
 40
0.4088116842
 40
0.5339031287
 40
0.5946703101
 40
0.6543887483
 40
0.7132054142
 40
0.7712857074
 40
0.8288110555
 40
0.8859721583
 40
0.9429679939
 40
1.0
 40
1.0
 40
1.0
 40
1.0
 10
5.8716439675
 20
4.031781067
 30
0.0
 10
5.8684945201
 20
4.0333335347
 30
0.0
 10
5.86246497
 20
4.0366765975
 30
0.0
 10
5.8541884205
 20
4.0425127898
 30
0.0
 10
5.8469681194
 20
4.04900773
 30
0.0
 10
5.8418652546
 20
4.0549700765
 30
0.0
 10
5.8384347063
 20
4.0599845706
 30
0.0
 10
5.836206994
 20
4.063821674
 30
0.0
 10
5.8343078273
 20
4.0677580188
 30
0.0
 10
5.8327451619
 20
4.071781812
 30
0.0
 10
5.8315241382
 20
4.0758794848
 30
0.0
 10
5.8306483647
 20
4.0800373596
 30
0.0
 10
5.8301222778
 20
4.0842412556
 30
0.0
 10
5.8300059648
 20
4.0870615994
 30
0.0
 10
5.8300059644
 20
4.0884715066
 30
0.0
  0
SPLINE
  5
3D2
100
AcDbEntity
  8
0
100
AcDbSpline
 62
7
  6
CONTINUOUS
 70
0
 71
3
 72
9
 73
5
 74
0
 42
0.0000001
 43
0.0000001
 44
0.0000000001
 40
0.0
 40
0.0
 40
0.0
 40
0.0
 40
0.5060789877
 40
1.0
 40
1.0
 40
1.0
 40
1.0
 10
6.0278787919
 20
4.0733060064
 30
0.0
 10
6.0291164034
 20
4.0755281846
 30
0.0
 10
6.0312932498
 20
4.0800755265
 30
0.0
 10
6.0328496358
 20
4.0848729109
 30
0.0
 10
6.0334500948
 20
4.0872816624
 30
0.0
  0
SPLINE
  5
3D3
100
AcDbEntity
  8
0
100
AcDbSpline
 62
7
  6
CONTINUOUS
 70
0
 71
3
 72
9
 73
5
 74
0
 42
0.0000001
 43
0.0000001
 44
0.0000000001
 40
0.0
 40
0.0
 40
0.0
 40
0.0
 40
0.5060709654
 40
1.0
 40
1.0
 40
1.0
 40
1.0
 10
5.8371247721
 20
4.0733200076
 30
0.0
 10
5.8358890669
 20
4.0755401133
 30
0.0
 10
5.8337154731
 20
4.0800830518
 30
0.0
 10
5.8321610964
 20
4.0848754265
 30
0.0
 10
5.8315612645
 20
4.0872816624
 30
0.0
  0
SPLINE
  5
3D4
100
AcDbEntity
  8
0
100
AcDbSpline
 62
7
  6
CONTINUOUS
 70
0
 71
3
 72
19
 73
15
 74
0
 42
0.0000001
 43
0.0000001
 44
0.0000000001
 40
0.0
 40
0.0
 40
0.0
 40
0.0
 40
0.1420552376
 40
0.2783466232
 40
0.4088633651
 40
0.4720882073
 40
0.5340326317
 40
0.6544318859
 40
0.713238551
 40
0.771310576
 40
0.8288373475
 40
0.8860146713
 40
0.9430141338
 40
1.0
 40
1.0
 40
1.0
 40
1.0
 10
5.993278935
 20
4.5639607939
 30
0.0
 10
5.9964344544
 20
4.5624090407
 30
0.0
 10
6.0024756694
 20
4.5590657674
 30
0.0
 10
6.0107689819
 20
4.5532296908
 30
0.0
 10
6.0168639294
 20
4.5477545085
 30
0.0
 10
6.0211356646
 20
4.5430781062
 30
0.0
 10
6.0249215529
 20
4.5383178052
 30
0.0
 10
6.0281370671
 20
4.5332575114
 30
0.0
 10
6.0306931651
 20
4.5279639081
 30
0.0
 10
6.0322598748
 20
4.5239358416
 30
0.0
 10
6.0334844152
 20
4.5198330944
 30
0.0
 10
6.0343611226
 20
4.5156691116
 30
0.0
 10
6.0348884038
 20
4.5114604436
 30
0.0
 10
6.0350056797
 20
4.5086374495
 30
0.0
 10
6.0350056797
 20
4.5072268258
 30
0.0
  0
SPLINE
  5
3D5
100
AcDbEntity
  8
0
100
AcDbSpline
 62
7
  6
CONTINUOUS
 70
0
 71
3
 72
19
 73
15
 74
0
 42
0.0000001
 43
0.0000001
 44
0.0000000001
 40
0.0
 40
0.0
 40
0.0
 40
0.0
 40
0.0566166265
 40
0.1132552753
 40
0.1700926979
 40
0.2273156373
 40
0.2851349196
 40
0.3437515336
 40
0.4639812787
 40
0.5892151098
 40
0.7201586785
 40
0.7879088926
 40
0.8571601064
 40
1.0
 40
1.0
 40
1.0
 40
1.0
 10
5.8300056797
 20
4.5072268258
 30
0.0
 10
5.8300056797
 20
4.5086952157
 30
0.0
 10
5.8301328013
 20
4.5116341564
 30
0.0
 10
5.8307042529
 20
4.5160137158
 30
0.0
 10
5.8316543581
 20
4.5203434546
 30
0.0
 10
5.8329810267
 20
4.5246048337
 30
0.0
 10
5.8346774368
 20
4.5287828482
 30
0.0
 10
5.8374459187
 20
4.5342675871
 30
0.0
 10
5.8418353791
 20
4.5408606267
 30
0.0
 10
5.8483940126
 20
4.5481324198
 30
0.0
 10
5.8548170729
 20
4.5535852493
 30
0.0
 10
5.8604982694
 20
4.5575928906
 30
0.0
 10
5.8666616594
 20
4.5614314861
 30
0.0
 10
5.8715678861
 20
4.5639482241
 30
0.0
 10
5.8749428886
 20
4.5654758935
 30
0.0
  0
SPLINE
  5
3D6
100
AcDbEntity
  8
0
100
AcDbSpline
 62
7
  6
CONTINUOUS
 70
0
 71
3
 72
9
 73
5
 74
0
 42
0.0000001
 43
0.0000001
 44
0.0000000001
 40
0.0
 40
0.0
 40
0.0
 40
0.0
 40
0.4939251555
 40
1.0
 40
1.0
 40
1.0
 40
1.0
 10
5.8315612645
 20
4.5084166082
 30
0.0
 10
5.8321613996
 20
4.5108240605
 30
0.0
 10
5.8337167479
 20
4.5156188578
 30
0.0
 10
5.8358919144
 20
4.5201639259
 30
0.0
 10
5.8371285413
 20
4.5223850339
 30
0.0
  0
SPLINE
  5
3D7
100
AcDbEntity
  8
0
100
AcDbSpline
 62
7
  6
CONTINUOUS
 70
0
 71
3
 72
9
 73
5
 74
0
 42
0.0000001
 43
0.0000001
 44
0.0000000001
 40
0.0
 40
0.0
 40
0.0
 40
0.0
 40
0.4939196953
 40
1.0
 40
1.0
 40
1.0
 40
1.0
 10
6.0334500948
 20
4.5084166082
 30
0.0
 10
6.0328495329
 20
4.5108257725
 30
0.0
 10
6.031292817
 20
4.5156239792
 30
0.0
 10
6.0291154366
 20
4.5201720438
 30
0.0
 10
6.027877512
 20
4.522394562
 30
0.0
  0
ENDSEC
  0
SECTION
  2
OBJECTS
  0
DICTIONARY
  5
C
100
AcDbDictionary
280
0
281
1
  3
ACAD_GROUP
350
D
  3
ACAD_MLINESTYLE
350
17
  3
ACAD_LAYOUT
350
1A
  3
ACAD_PLOTSETTINGS
350
19
  3
ACAD_PLOTSTYLENAME
350
E
  0
DICTIONARY
  5
D
102
{ACAD_REACTORS
330
C
102
}
100
AcDbDictionary
280
0
281
1
  0
ACDBDICTIONARYWDFLT
  5
E
102
{ACAD_REACTORS
330
C
102
}
100
AcDbDictionary
281
1
  3
Normal
350
F
100
AcDbDictionaryWithDefault
340
F
  0
DICTIONARY
  5
17
102
{ACAD_REACTORS
330
C
102
}
100
AcDbDictionary
280
0
281
1
  3
Standard
350
18
  0
DICTIONARY
  5
19
102
{ACAD_REACTORS
330
C
102
}
100
AcDbDictionary
281
1
  0
DICTIONARY
  5
1A
102
{ACAD_REACTORS
330
C
102
}
100
AcDbDictionary
281
1
  3
Model
350
3D8
  3
Layout1
350
3D9
  0
ACDBPLACEHOLDER
  5
F
102
{ACAD_REACTORS
330
E
102
}
  0
MLINESTYLE
  5
18
102
{ACAD_REACTORS
330
17
102
}
100
AcDbMlineStyle
  2
STANDARD
 70
0
  3

 62
256
 51
90.0
 52
90.0
 71
2
 49
0.5
 62
256
  6
BYLAYER
 49
-0.5
 62
256
  6
BYLAYER
  0
LAYOUT
  5
3D8
102
{ACAD_REACTORS
330
1A
102
}
100
AcDbPlotSettings
  1

  2
none_device
  4
ANSI_A_(11.00_x_8.50_Inches)
  6

 40
0.0
 41
0.0
 42
0.0
 43
0.0
 44
279.4
 45
215.9
 46
0.0
 47
0.0
 48
0.0
 49
0.0
140
0.0
141
0.0
142
1.0
143
1.0
 70
1024
 72
0
 73
0
 74
0
  7

 75
0
147
1.0
148
0.0
149
0.0
100
AcDbLayout
  1
Model
 70
0
 71
0
 10
0.0
 20
0.0
 11
11.0
 21
8.5
 12
0.0
 22
0.0
 32
0.0
 14
0.0
 24
0.0
 34
0.0
 15
0.0
 25
0.0
 35
0.0
146
0.0
 13
0.0
 23
0.0
 33
0.0
 16
1.0
 26
0.0
 36
0.0
 17
0.0
 27
1.0
 37
0.0
 76
0
330
218
345
0
346
0
  0
LAYOUT
  5
3D9
102
{ACAD_REACTORS
330
1A
102
}
100
AcDbPlotSettings
  1

  2
none_device
  4
ANSI_A_(11.00_x_8.50_Inches)
  6

 40
0.0
 41
0.0
 42
0.0
 43
0.0
 44
279.4
 45
215.9
 46
0.0
 47
0.0
 48
0.0
 49
0.0
140
0.0
141
0.0
142
1.0
143
1.0
 70
0
 72
0
 73
0
 74
0
  7

 75
0
147
1.0
148
0.0
149
0.0
100
AcDbLayout
  1
Layout1
 70
0
 71
1
 10
0.0
 20
0.0
 11
11.0
 21
8.5
 12
0.0
 22
0.0
 32
0.0
 14
0.0
 24
0.0
 34
0.0
 15
0.0
 25
0.0
 35
0.0
146
0.0
 13
0.0
 23
0.0
 33
0.0
 16
1.0
 26
0.0
 36
0.0
 17
0.0
 27
1.0
 37
0.0
 76
0
330
219
345
0
346
0
  0
ENDSEC
  0
EOF
