999
DXF file: 3-1764tr_FRONT.dxf
999
Pro/ENGINEER 2018400 by Parametric Technology Corporation
  0
SECTION
  2
HEADER
  9
$ACADVER
  1
AC1027
  9
$DWGCODEPAGE
  3
ANSI_1252
  9
$EXTMAX
 10
11.0
 20
8.5
 30
0.0
  9
$EXTMIN
 10
0.0
 20
0.0
 30
0.0
  9
$LIMMIN
 10
0.0
 20
0.0
  9
$LIMMAX
 10
11.0
 20
8.5
  9
$VIEWCTR
 10
5.5
 20
4.25
  9
$VIEWSIZE
 40
8.5
  9
$CLAYER
  8
0
  9
$LTSCALE
 40
0.605
  9
$CELTYPE
  6
BYLAYER
  9
$DIMSCALE
 40
1.0
  9
$DIMASZ
 40
0.1
  9
$DIMEXO
 40
0.0625
  9
$DIMDLI
 40
0.418
  9
$DIMEXE
 40
0.125
  9
$DIMCEN
 40
0.099
  9
$DIMLFAC
 40
1.0
  9
$DIMBLK
  1
_FILLED
  9
$DIMALT
 70
1
  9
$DIMALTD
 70
2
  9
$DIMALTTD
 70
2
  9
$DIMALTF
 40
25.4
  9
$DIMTXT
 40
0.08
  9
$DIMTOL
 70
1
  9
$DIMLIM
 70
0
  9
$DIMTFAC
 40
1.0
  9
$DIMTP
 40
0.001
  9
$DIMTM
 40
0.001
  9
$DIMGAP
 40
0.09
  9
$DIMDSEP
 70
46
  9
$AUNITS
 70
0
  9
$PDMODE
 70
3
  9
$PDSIZE
 40
0.3125
  9
$HANDSEED
  5
4B7
  9
$TILEMODE
 70
1
  9
$MEASUREMENT
 70
0
  9
$INSUNITS
 70
1
  0
ENDSEC
  0
SECTION
  2
CLASSES
  0
CLASS
  1
ACDBDICTIONARYWDFLT
  2
AcDbDictionaryWithDefault
  3
AutoCAD 2000
 90
0
 91
1
280
0
281
0
  0
CLASS
  1
ACDBPLACEHOLDER
  2
AcDbPlaceHolder
  3
AutoCAD 2000
 90
0
 91
1
280
0
281
0
  0
CLASS
  1
LAYOUT
  2
AcDbLayout
  3
AutoCAD 2000
 90
0
 91
0
280
0
281
0
  0
ENDSEC
  0
SECTION
  2
TABLES
  0
TABLE
  2
VPORT
  5
8
100
AcDbSymbolTable
 70
2
  0
VPORT
  5
1F4
100
AcDbSymbolTableRecord
100
AcDbViewportTableRecord
  2
*ACTIVE
 70
0
 10
0.0
 20
0.0
 11
1.0
 21
1.0
 12
5.5
 22
4.25
 13
0.0
 23
0.0
 14
1.0
 24
1.0
 15
0.0
 25
0.0
 16
0.0
 26
0.0
 36
1.0
 17
0.0
 27
0.0
 37
0.0
 40
8.5
 41
1.2941176471
 42
50.0
 43
0.0
 44
0.0
 50
0.0
 51
0.0
 71
0
 72
100
 73
1
 74
1
 75
0
 76
0
 77
0
 78
0
  0
ENDTAB
  0
TABLE
  2
LTYPE
  5
5
100
AcDbSymbolTable
 70
6
  0
LTYPE
  5
14
100
AcDbSymbolTableRecord
100
AcDbLinetypeTableRecord
  2
BYBLOCK
 70
0
  3

 72
65
 73
0
 40
0.0
  0
LTYPE
  5
15
100
AcDbSymbolTableRecord
100
AcDbLinetypeTableRecord
  2
BYLAYER
 70
0
  3

 72
65
 73
0
 40
0.0
  0
LTYPE
  5
16
100
AcDbSymbolTableRecord
100
AcDbLinetypeTableRecord
  2
CONTINUOUS
 70
64
  3
Solid line
 72
65
 73
0
 40
0.0
  0
LTYPE
  5
1F5
100
AcDbSymbolTableRecord
100
AcDbLinetypeTableRecord
  2
CENTER
 70
64
  3
____ _ ____ _ ____ _ ____ _ ____ _ ____ _ ____
 72
65
 73
4
 40
0.6
 49
0.375
 74
0
 49
-0.075
 74
0
 49
0.075
 74
0
 49
-0.075
 74
0
  0
LTYPE
  5
1F6
100
AcDbSymbolTableRecord
100
AcDbLinetypeTableRecord
  2
HIDDEN
 70
64
  3
- - - - - - - - - - - - - - - - - - - -
 72
65
 73
2
 40
0.2
 49
0.1
 74
0
 49
-0.1
 74
0
  0
LTYPE
  5
1F7
100
AcDbSymbolTableRecord
100
AcDbLinetypeTableRecord
  2
PHANTOM
 70
64
  3
_____ _ _ _____ _ _ _____ _ _ _____
 72
65
 73
6
 40
0.8
 49
0.45
 74
0
 49
-0.05
 74
0
 49
0.1
 74
0
 49
-0.05
 74
0
 49
0.1
 74
0
 49
-0.05
 74
0
  0
LTYPE
  5
1F8
100
AcDbSymbolTableRecord
100
AcDbLinetypeTableRecord
  2
DOT
 70
64
  3
. . . . . . . . . . . . . . . . . . . .
 72
65
 73
2
 40
0.2
 49
0.1
 74
0
 49
-0.1
 74
0
  0
LTYPE
  5
1F9
100
AcDbSymbolTableRecord
100
AcDbLinetypeTableRecord
  2
DASHED
 70
64
  3
- - - - - - - - - - - - - - - - - - - -
 72
65
 73
2
 40
0.2
 49
0.1
 74
0
 49
-0.1
 74
0
  0
ENDTAB
  0
TABLE
  2
LAYER
  5
2
100
AcDbSymbolTable
 70
36
  0
LAYER
  5
10
100
AcDbSymbolTableRecord
100
AcDbLayerTableRecord
  2
0
 70
0
 62
7
  6
CONTINUOUS
370
-3
390
F
  0
LAYER
  5
1FA
100
AcDbSymbolTableRecord
100
AcDbLayerTableRecord
  2
DEFAULT_1
 70
0
 62
7
  6
CENTER
370
-3
390
F
  0
LAYER
  5
1FB
100
AcDbSymbolTableRecord
100
AcDbLayerTableRecord
  2
DEFAULT_2
 70
0
 62
8
  6
HIDDEN
370
-3
390
F
  0
LAYER
  5
1FC
100
AcDbSymbolTableRecord
100
AcDbLayerTableRecord
  2
DEFAULT_3
 70
0
 62
7
  6
PHANTOM
370
-3
390
F
  0
LAYER
  5
1FD
100
AcDbSymbolTableRecord
100
AcDbLayerTableRecord
  2
2-265_ASSY_PLANES
 70
0
 62
7
  6
CONTINUOUS
370
-3
390
F
  0
LAYER
  5
1FE
100
AcDbSymbolTableRecord
100
AcDbLayerTableRecord
  2
ALL_ASSEMBLY_MEMBERS
 70
0
 62
7
  6
CONTINUOUS
370
-3
390
F
  0
LAYER
  5
1FF
100
AcDbSymbolTableRecord
100
AcDbLayerTableRecord
  2
ALL_FEATURES
 70
0
 62
7
  6
CONTINUOUS
370
-3
390
F
  0
LAYER
  5
200
100
AcDbSymbolTableRecord
100
AcDbLayerTableRecord
  2
AXES_FEATURES
 70
0
 62
7
  6
CONTINUOUS
370
-3
390
F
  0
LAYER
  5
201
100
AcDbSymbolTableRecord
100
AcDbLayerTableRecord
  2
CHAMFER_FEATURES
 70
0
 62
7
  6
CONTINUOUS
370
-3
390
F
  0
LAYER
  5
202
100
AcDbSymbolTableRecord
100
AcDbLayerTableRecord
  2
COORDINATE_SYSTEMS
 70
0
 62
7
  6
CONTINUOUS
370
-3
390
F
  0
LAYER
  5
203
100
AcDbSymbolTableRecord
100
AcDbLayerTableRecord
  2
CURVE2
 70
0
 62
7
  6
CONTINUOUS
370
-3
390
F
  0
LAYER
  5
204
100
AcDbSymbolTableRecord
100
AcDbLayerTableRecord
  2
CUT_FEATURES
 70
0
 62
7
  6
CONTINUOUS
370
-3
390
F
  0
LAYER
  5
205
100
AcDbSymbolTableRecord
100
AcDbLayerTableRecord
  2
DATUM_CURVES
 70
0
 62
7
  6
CONTINUOUS
370
-3
390
F
  0
LAYER
  5
206
100
AcDbSymbolTableRecord
100
AcDbLayerTableRecord
  2
DATUM_PLANES
 70
0
 62
7
  6
CONTINUOUS
370
-3
390
F
  0
LAYER
  5
207
100
AcDbSymbolTableRecord
100
AcDbLayerTableRecord
  2
DATUM_POINTS
 70
0
 62
7
  6
CONTINUOUS
370
-3
390
F
  0
LAYER
  5
208
100
AcDbSymbolTableRecord
100
AcDbLayerTableRecord
  2
DEFAULT_COORDINATE_SYSTEM
 70
0
 62
7
  6
CONTINUOUS
370
-3
390
F
  0
LAYER
  5
209
100
AcDbSymbolTableRecord
100
AcDbLayerTableRecord
  2
DEFAULT_DATUM_AXES
 70
0
 62
7
  6
CONTINUOUS
370
-3
390
F
  0
LAYER
  5
20A
100
AcDbSymbolTableRecord
100
AcDbLayerTableRecord
  2
DEFAULT_DATUM_CURVES
 70
0
 62
7
  6
CONTINUOUS
370
-3
390
F
  0
LAYER
  5
20B
100
AcDbSymbolTableRecord
100
AcDbLayerTableRecord
  2
DEFAULT_DATUM_PLANES
 70
0
 62
7
  6
CONTINUOUS
370
-3
390
F
  0
LAYER
  5
20C
100
AcDbSymbolTableRecord
100
AcDbLayerTableRecord
  2
DEFAULT_SURFACES
 70
0
 62
7
  6
CONTINUOUS
370
-3
390
F
  0
LAYER
  5
20D
100
AcDbSymbolTableRecord
100
AcDbLayerTableRecord
  2
DIMENSIONS
 70
0
 62
7
  6
CONTINUOUS
370
-3
390
F
  0
LAYER
  5
20E
100
AcDbSymbolTableRecord
100
AcDbLayerTableRecord
  2
HOLE_FEATURES
 70
0
 62
7
  6
CONTINUOUS
370
-3
390
F
  0
LAYER
  5
20F
100
AcDbSymbolTableRecord
100
AcDbLayerTableRecord
  2
NOTES
 70
0
 62
7
  6
CONTINUOUS
370
-3
390
F
  0
LAYER
  5
210
100
AcDbSymbolTableRecord
100
AcDbLayerTableRecord
  2
PART_REFERENCE_DIMENSIONS
 70
0
 62
7
  6
CONTINUOUS
370
-3
390
F
  0
LAYER
  5
211
100
AcDbSymbolTableRecord
100
AcDbLayerTableRecord
  2
PLATED_SURFACE_AREA
 70
0
 62
7
  6
CONTINUOUS
370
-3
390
F
  0
LAYER
  5
212
100
AcDbSymbolTableRecord
100
AcDbLayerTableRecord
  2
POINTS
 70
0
 62
7
  6
CONTINUOUS
370
-3
390
F
  0
LAYER
  5
213
100
AcDbSymbolTableRecord
100
AcDbLayerTableRecord
  2
PROTRUSION
 70
0
 62
7
  6
CONTINUOUS
370
-3
390
F
  0
LAYER
  5
214
100
AcDbSymbolTableRecord
100
AcDbLayerTableRecord
  2
PROTRUSION_FEATURES
 70
0
 62
7
  6
CONTINUOUS
370
-3
390
F
  0
LAYER
  5
215
100
AcDbSymbolTableRecord
100
AcDbLayerTableRecord
  2
QUILT
 70
0
 62
7
  6
CONTINUOUS
370
-3
390
F
  0
LAYER
  5
216
100
AcDbSymbolTableRecord
100
AcDbLayerTableRecord
  2
QUILTS
 70
0
 62
7
  6
CONTINUOUS
370
-3
390
F
  0
LAYER
  5
217
100
AcDbSymbolTableRecord
100
AcDbLayerTableRecord
  2
REFERENCE_DIMENSIONS
 70
0
 62
7
  6
CONTINUOUS
370
-3
390
F
  0
LAYER
  5
218
100
AcDbSymbolTableRecord
100
AcDbLayerTableRecord
  2
ROUND_FEATURES
 70
0
 62
7
  6
CONTINUOUS
370
-3
390
F
  0
LAYER
  5
219
100
AcDbSymbolTableRecord
100
AcDbLayerTableRecord
  2
SHELL_FEATURES
 70
0
 62
7
  6
CONTINUOUS
370
-3
390
F
  0
LAYER
  5
21A
100
AcDbSymbolTableRecord
100
AcDbLayerTableRecord
  2
SURFACE_FEATURES
 70
0
 62
7
  6
CONTINUOUS
370
-3
390
F
  0
LAYER
  5
21B
100
AcDbSymbolTableRecord
100
AcDbLayerTableRecord
  2
WETTED_SURFACES
 70
0
 62
7
  6
CONTINUOUS
370
-3
390
F
  0
LAYER
  5
21C
100
AcDbSymbolTableRecord
100
AcDbLayerTableRecord
  2
XSEC_DATUMS
 70
0
 62
7
  6
CONTINUOUS
370
-3
390
F
  0
ENDTAB
  0
TABLE
  2
STYLE
  5
3
100
AcDbSymbolTable
 70
1
  0
STYLE
  5
11
100
AcDbSymbolTableRecord
100
AcDbTextStyleTableRecord
  2
STANDARD
 70
0
 40
0.0
 41
0.8
 50
0.0
 71
0
 42
0.2
  3
txt
  4

  0
STYLE
  5
21D
100
AcDbSymbolTableRecord
100
AcDbTextStyleTableRecord
  2
TEXTSTYLE_1
 70
0
 40
0.0
 41
0.8
 50
0.0
 71
0
 42
0.2
  3
gdt
  4

  0
ENDTAB
  0
TABLE
  2
VIEW
  5
6
100
AcDbSymbolTable
 70
0
  0
ENDTAB
  0
TABLE
  2
UCS
  5
7
100
AcDbSymbolTable
 70
0
  0
ENDTAB
  0
TABLE
  2
APPID
  5
9
100
AcDbSymbolTable
 70
1
  0
APPID
  5
21E
100
AcDbSymbolTableRecord
100
AcDbRegAppTableRecord
  2
ACAD
 70
0
  0
ENDTAB
  0
TABLE
  2
BLOCK_RECORD
  5
1
100
AcDbSymbolTable
 70
0
  0
BLOCK_RECORD
  5
21F
100
AcDbSymbolTableRecord
100
AcDbBlockTableRecord
  2
*Model_Space
  0
BLOCK_RECORD
  5
220
100
AcDbSymbolTableRecord
100
AcDbBlockTableRecord
  2
*Paper_Space
  0
BLOCK_RECORD
  5
221
100
AcDbSymbolTableRecord
100
AcDbBlockTableRecord
  2
_FILLED
  0
ENDTAB
  0
TABLE
  2
DIMSTYLE
  5
A
100
AcDbSymbolTable
 70
1
100
AcDbDimStyleTable
 71
0
  0
DIMSTYLE
105
222
100
AcDbSymbolTableRecord
100
AcDbDimStyleTableRecord
  2
STANDARD
 70
0
  3

  4

 40
1.0
 41
0.1
 42
0.0625
 43
0.38
 44
0.125
 45
0.0
 46
0.0
 47
0.001
 48
0.001
140
0.08
141
0.09
142
0.0
143
25.4
144
1.0
145
0.0
146
1.0
147
0.09
 71
1.0
 72
0.0
 73
1
 74
1
 75
0
 76
0
 77
0
 78
4
 79
1
170
1
171
2
172
0
173
0
174
0
175
0
176
0
177
0
178
0
270
2
179
3
271
3
272
3
273
2
274
2
275
0
280
0
281
0
282
0
283
1
284
4
285
0
286
0
287
3
288
0
340
11
278
46
341
221
342
221
343
221
344
221
  0
ENDTAB
  0
ENDSEC
  0
SECTION
  2
BLOCKS
  0
BLOCK
  5
20
100
AcDbEntity
  8
0
100
AcDbBlockBegin
  2
*Model_Space
 70
0
 10
0.0
 20
0.0
 30
0.0
  3
*Model_Space
  1

  0
ENDBLK
  5
21
100
AcDbEntity
  8
0
100
AcDbBlockEnd
  0
BLOCK
  5
1C
100
AcDbEntity
  8
0
100
AcDbBlockBegin
  2
*Paper_Space
 70
0
 10
0.0
 20
0.0
 30
0.0
  3
*Paper_Space
  1

  0
ENDBLK
  5
1D
100
AcDbEntity
  8
0
100
AcDbBlockEnd
  0
BLOCK
  5
223
100
AcDbEntity
  8
0
100
AcDbBlockBegin
  2
_FILLED
 70
64
 10
0.0
 20
0.0
  3
_FILLED
  1

  0
SOLID
  5
224
100
AcDbEntity
  8
0
  6
BYBLOCK
 62
0
100
AcDbTrace
 10
0.0
 20
0.0
 11
-1.0
 21
0.2
 12
-1.0
 22
-0.2
 13
-1.0
 23
-0.2
  0
ENDBLK
  5
225
100
AcDbEntity
  8
0
  6
BYBLOCK
 62
0
100
AcDbBlockEnd
  0
ENDSEC
  0
SECTION
  2
ENTITIES
  0
MTEXT
  5
226
100
AcDbEntity
  8
0
100
AcDbMText
 62
2
  6
CONTINUOUS
  7
STANDARD
 71
3
 72
1
 10
5.1195263975
 20
3.1929464286
 30
0.0
 11
1.0
 21
0.0
 31
0.0
 73
2
 44
0.9
  1
SCALE  .500
 40
0.08
 41
0.704
  0
LINE
  5
227
100
AcDbEntity
  8
0
100
AcDbLine
 62
7
  6
CONTINUOUS
 10
0.0
 20
0.0
 11
0.0
 21
8.5
  0
LINE
  5
228
100
AcDbEntity
  8
0
100
AcDbLine
 62
7
  6
CONTINUOUS
 10
0.0
 20
0.0
 11
11.0
 21
0.0
  0
LINE
  5
229
100
AcDbEntity
  8
0
100
AcDbLine
 62
7
  6
CONTINUOUS
 10
0.0
 20
8.5
 11
11.0
 21
8.5
  0
LINE
  5
22A
100
AcDbEntity
  8
0
100
AcDbLine
 62
7
  6
CONTINUOUS
 10
11.0
 20
0.0
 11
11.0
 21
8.5
  0
LINE
  5
22B
100
AcDbEntity
  8
ALL_ASSEMBLY_MEMBERS
100
AcDbLine
 62
7
  6
CONTINUOUS
 10
4.4296087338
 20
4.860366058
 11
4.4309596478
 21
4.8449250401
  0
LINE
  5
22C
100
AcDbEntity
  8
ALL_ASSEMBLY_MEMBERS
100
AcDbLine
 62
7
  6
CONTINUOUS
 10
4.5056742501
 20
4.8514617209
 11
4.5043233361
 21
4.8669027387
  0
LINE
  5
22D
100
AcDbEntity
  8
ALL_ASSEMBLY_MEMBERS
100
AcDbLine
 62
7
  6
CONTINUOUS
 10
4.4278440033
 20
5.0114516294
 11
4.428089447
 21
5.0140351059
  0
LINE
  5
22E
100
AcDbEntity
  8
ALL_ASSEMBLY_MEMBERS
100
AcDbLine
 62
7
  6
CONTINUOUS
 10
4.428089447
 20
5.0140351059
 11
4.4283148708
 21
5.0160965898
  0
LINE
  5
22F
100
AcDbEntity
  8
ALL_ASSEMBLY_MEMBERS
100
AcDbLine
 62
7
  6
CONTINUOUS
 10
4.5322251318
 20
5.0498029075
 11
4.5304374333
 21
5.0399912978
  0
LINE
  5
230
100
AcDbEntity
  8
ALL_ASSEMBLY_MEMBERS
100
AcDbLine
 62
7
  6
CONTINUOUS
 10
4.5281068055
 20
5.0271998736
 11
4.5245711371
 21
5.0077947006
  0
LINE
  5
231
100
AcDbEntity
  8
ALL_ASSEMBLY_MEMBERS
100
AcDbLine
 62
7
  6
CONTINUOUS
 10
4.5230880103
 20
4.9996547034
 11
4.5216975789
 21
4.9920234557
  0
LINE
  5
232
100
AcDbEntity
  8
ALL_ASSEMBLY_MEMBERS
100
AcDbLine
 62
7
  6
CONTINUOUS
 10
4.5245320424
 20
4.9915070097
 11
4.5350595953
 21
5.0492864616
  0
LINE
  5
233
100
AcDbEntity
  8
ALL_ASSEMBLY_MEMBERS
100
AcDbLine
 62
7
  6
CONTINUOUS
 10
4.4475972352
 20
5.1043596189
 11
4.4481908268
 21
5.1068859257
  0
LINE
  5
234
100
AcDbEntity
  8
ALL_ASSEMBLY_MEMBERS
100
AcDbLine
 62
7
  6
CONTINUOUS
 10
4.4481908268
 20
5.1068859257
 11
4.4486937821
 21
5.1088977807
  0
LINE
  5
235
100
AcDbEntity
  8
ALL_ASSEMBLY_MEMBERS
100
AcDbLine
 62
7
  6
CONTINUOUS
 10
4.5562156059
 20
5.1281984307
 11
4.5531136047
 21
5.1187199809
  0
LINE
  5
236
100
AcDbEntity
  8
ALL_ASSEMBLY_MEMBERS
100
AcDbLine
 62
7
  6
CONTINUOUS
 10
4.5490695161
 20
5.1063628965
 11
4.5429344464
 21
5.0876166273
  0
LINE
  5
237
100
AcDbEntity
  8
ALL_ASSEMBLY_MEMBERS
100
AcDbLine
 62
7
  6
CONTINUOUS
 10
4.5403609322
 20
5.0797530179
 11
4.5379482643
 21
5.0723808896
  0
LINE
  5
238
100
AcDbEntity
  8
ALL_ASSEMBLY_MEMBERS
100
AcDbLine
 62
7
  6
CONTINUOUS
 10
4.5406864835
 20
5.0714847559
 11
4.558953825
 21
5.1273022969
  0
LINE
  5
239
100
AcDbEntity
  8
ALL_ASSEMBLY_MEMBERS
100
AcDbLine
 62
7
  6
CONTINUOUS
 10
4.4893729991
 20
5.2027634837
 11
4.4891137417
 21
5.2023964538
  0
LINE
  5
23A
100
AcDbEntity
  8
ALL_ASSEMBLY_MEMBERS
100
AcDbLine
 62
7
  6
CONTINUOUS
 10
4.5400605728
 20
4.5731124359
 11
4.5410498858
 21
4.5721501791
  0
LINE
  5
23B
100
AcDbEntity
  8
ALL_ASSEMBLY_MEMBERS
100
AcDbLine
 62
7
  6
CONTINUOUS
 10
4.5410498858
 20
4.5721501791
 11
4.5417095114
 21
4.5711665666
  0
LINE
  5
23C
100
AcDbEntity
  8
ALL_ASSEMBLY_MEMBERS
100
AcDbLine
 62
7
  6
CONTINUOUS
 10
4.5449376279
 20
4.5698857994
 11
4.544416284
 21
4.5707790374
  0
LINE
  5
23D
100
AcDbEntity
  8
ALL_ASSEMBLY_MEMBERS
100
AcDbLine
 62
7
  6
CONTINUOUS
 10
4.578065696
 20
4.6176196439
 11
4.5967596165
 21
4.585590647
  0
LINE
  5
23E
100
AcDbEntity
  8
ALL_ASSEMBLY_MEMBERS
100
AcDbLine
 62
7
  6
CONTINUOUS
 10
4.6037099234
 20
4.5855533447
 11
4.5802546137
 21
4.6257402088
  0
LINE
  5
23F
100
AcDbEntity
  8
ALL_ASSEMBLY_MEMBERS
100
AcDbLine
 62
7
  6
CONTINUOUS
 10
4.588640081
 20
4.6276406293
 11
4.6108778229
 21
4.58953987
  0
LINE
  5
240
100
AcDbEntity
  8
ALL_ASSEMBLY_MEMBERS
100
AcDbLine
 62
7
  6
CONTINUOUS
 10
4.6134331479
 20
4.5908773637
 11
4.5885216698
 21
4.6335591358
  0
LINE
  5
241
100
AcDbEntity
  8
ALL_ASSEMBLY_MEMBERS
100
AcDbLine
 62
7
  6
CONTINUOUS
 10
4.5610095258
 20
4.6279370797
 11
4.5616751071
 21
4.6243052861
  0
LINE
  5
242
100
AcDbEntity
  8
ALL_FEATURES
100
AcDbLine
 62
7
  6
CONTINUOUS
 10
4.6501725009
 20
5.2230126347
 11
4.8094601914
 21
5.3823003251
  0
LINE
  5
243
100
AcDbEntity
  8
ALL_FEATURES
100
AcDbLine
 62
7
  6
CONTINUOUS
 10
4.6995175141
 20
5.2143117775
 11
4.8181610486
 21
5.332955312
  0
LINE
  5
244
100
AcDbEntity
  8
ALL_FEATURES
100
AcDbLine
 62
7
  6
CONTINUOUS
 10
4.7008870487
 20
5.197878327
 11
4.8345944991
 21
5.3315857774
  0
LINE
  5
245
100
AcDbEntity
  8
ALL_FEATURES
100
AcDbLine
 62
7
  6
CONTINUOUS
 10
4.7090317715
 20
5.1884421418
 11
4.8440306842
 21
5.3234410545
  0
LINE
  5
246
100
AcDbEntity
  8
ALL_ASSEMBLY_MEMBERS
100
AcDbLine
 62
7
  6
CONTINUOUS
 10
4.5256816155
 20
5.171942356
 11
4.5276087497
 21
5.1735549607
  0
LINE
  5
247
100
AcDbEntity
  8
ALL_ASSEMBLY_MEMBERS
100
AcDbLine
 62
7
  6
CONTINUOUS
 10
4.4924013708
 20
5.2394479121
 11
4.4901324811
 21
5.2386566261
  0
LINE
  5
248
100
AcDbEntity
  8
ALL_ASSEMBLY_MEMBERS
100
AcDbLine
 62
7
  6
CONTINUOUS
 10
4.5682604127
 20
4.5936772362
 11
4.5663565088
 21
4.5944478381
  0
LINE
  5
249
100
AcDbEntity
  8
ALL_FEATURES
100
AcDbLine
 62
7
  6
CONTINUOUS
 10
4.8094601914
 20
4.443592532
 11
4.6501725009
 21
4.6028802225
  0
LINE
  5
24A
100
AcDbEntity
  8
ALL_FEATURES
100
AcDbLine
 62
7
  6
CONTINUOUS
 10
4.8181610486
 20
4.4929375451
 11
4.6995175141
 21
4.6115810796
  0
LINE
  5
24B
100
AcDbEntity
  8
ALL_FEATURES
100
AcDbLine
 62
7
  6
CONTINUOUS
 10
4.8345944991
 20
4.4943070797
 11
4.7008870487
 21
4.6280145301
  0
LINE
  5
24C
100
AcDbEntity
  8
ALL_FEATURES
100
AcDbLine
 62
7
  6
CONTINUOUS
 10
4.8440306842
 20
4.5024518026
 11
4.7090317715
 21
4.6374507153
  0
LINE
  5
24D
100
AcDbEntity
  8
ALL_ASSEMBLY_MEMBERS
100
AcDbLine
 62
7
  6
CONTINUOUS
 10
4.5408204952
 20
4.5751811863
 11
4.5400605728
 21
4.5731124359
  0
LINE
  5
24E
100
AcDbEntity
  8
0
100
AcDbLine
 62
7
  6
CONTINUOUS
 10
4.8403036187
 20
5.0474931684
 11
4.8401738966
 21
5.0473420394
  0
LINE
  5
24F
100
AcDbEntity
  8
0
100
AcDbLine
 62
7
  6
CONTINUOUS
 10
4.8431596289
 20
5.0507564473
 11
4.8401738966
 21
5.0473420394
  0
LINE
  5
250
100
AcDbEntity
  8
ALL_FEATURES
100
AcDbLine
 62
7
  6
CONTINUOUS
 10
4.9703310824
 20
5.1941429773
 11
4.8383298488
 21
5.0621417436
  0
LINE
  5
251
100
AcDbEntity
  8
ALL_FEATURES
100
AcDbLine
 62
7
  6
CONTINUOUS
 10
4.9814616854
 20
5.1896040698
 11
4.9771287437
 21
5.1852711294
  0
LINE
  5
252
100
AcDbEntity
  8
ALL_FEATURES
100
AcDbLine
 62
7
  6
CONTINUOUS
 10
4.8472016782
 20
5.0553440623
 11
4.8428687563
 21
5.0510111406
  0
LINE
  5
253
100
AcDbEntity
  8
0
100
AcDbLine
 62
7
  6
CONTINUOUS
 10
4.9851307867
 20
5.1922989295
 11
4.9817356622
 21
5.189330093
  0
LINE
  5
254
100
AcDbEntity
  8
0
100
AcDbLine
 62
7
  6
CONTINUOUS
 10
4.9851307867
 20
5.1922989295
 11
4.9849797905
 21
5.1921693026
  0
LINE
  5
255
100
AcDbEntity
  8
0
100
AcDbLine
 62
7
  6
CONTINUOUS
 10
4.9849994677
 20
4.6337070859
 11
4.9851307867
 21
4.6335939276
  0
LINE
  5
256
100
AcDbEntity
  8
0
100
AcDbLine
 62
7
  6
CONTINUOUS
 10
4.9818634747
 20
4.6364502795
 11
4.9851307867
 21
4.6335939276
  0
LINE
  5
257
100
AcDbEntity
  8
ALL_FEATURES
100
AcDbLine
 62
7
  6
CONTINUOUS
 10
4.8383298488
 20
4.7637511143
 11
4.9703310832
 21
4.6317498799
  0
LINE
  5
258
100
AcDbEntity
  8
ALL_FEATURES
100
AcDbLine
 62
7
  6
CONTINUOUS
 10
4.8428687565
 20
4.7748817167
 11
4.8471905405
 21
4.7705599309
  0
LINE
  5
259
100
AcDbEntity
  8
ALL_FEATURES
100
AcDbLine
 62
7
  6
CONTINUOUS
 10
4.9771400261
 20
4.6406104452
 11
4.9814616856
 21
4.6362887875
  0
LINE
  5
25A
100
AcDbEntity
  8
0
100
AcDbLine
 62
7
  6
CONTINUOUS
 10
4.8401738966
 20
4.7785508178
 11
4.8431590698
 21
4.7751369328
  0
LINE
  5
25B
100
AcDbEntity
  8
0
100
AcDbLine
 62
7
  6
CONTINUOUS
 10
4.8401738966
 20
4.7785508178
 11
4.8402870535
 21
4.7784195664
  0
LINE
  5
25C
100
AcDbEntity
  8
ALL_FEATURES
100
AcDbLine
 62
7
  6
CONTINUOUS
 10
4.8094601914
 20
4.443592532
 11
4.8181610486
 21
4.4929375451
  0
LINE
  5
25D
100
AcDbEntity
  8
ALL_ASSEMBLY_MEMBERS
100
AcDbLine
 62
7
  6
CONTINUOUS
 10
4.5802546137
 20
4.6257402088
 11
4.588640081
 21
4.6276406293
  0
LINE
  5
25E
100
AcDbEntity
  8
ALL_FEATURES
100
AcDbLine
 62
7
  6
CONTINUOUS
 10
4.6501725009
 20
4.6028802225
 11
4.6995175141
 21
4.6115810796
  0
LINE
  5
25F
100
AcDbEntity
  8
ALL_FEATURES
100
AcDbLine
 62
7
  6
CONTINUOUS
 10
5.539535281
 20
4.6115810796
 11
5.5888802941
 21
4.6028802225
  0
LINE
  5
260
100
AcDbEntity
  8
ALL_FEATURES
100
AcDbLine
 62
7
  6
CONTINUOUS
 10
4.8181610486
 20
5.332955312
 11
4.8094601914
 21
5.3823003251
  0
LINE
  5
261
100
AcDbEntity
  8
ALL_ASSEMBLY_MEMBERS
100
AcDbLine
 62
7
  6
CONTINUOUS
 10
4.9993670575
 20
5.6041832527
 11
4.9994687961
 21
5.6012152579
  0
LINE
  5
262
100
AcDbEntity
  8
ALL_ASSEMBLY_MEMBERS
100
AcDbLine
 62
7
  6
CONTINUOUS
 10
5.0545263975
 20
5.3935689662
 11
5.0545263975
 21
5.5087296966
  0
LINE
  5
263
100
AcDbEntity
  8
ALL_FEATURES
100
AcDbLine
 62
7
  6
CONTINUOUS
 10
5.2575911094
 20
5.1896040696
 11
5.2573172659
 21
5.1893302261
  0
LINE
  5
264
100
AcDbEntity
  8
ALL_FEATURES
100
AcDbLine
 62
7
  6
CONTINUOUS
 10
4.8428687565
 20
4.7748817167
 11
4.843142599
 21
4.7751555592
  0
LINE
  5
265
100
AcDbEntity
  8
ALL_ASSEMBLY_MEMBERS
100
AcDbLine
 62
7
  6
CONTINUOUS
 10
4.4309596478
 20
4.8449250401
 11
4.5056742501
 21
4.8514617209
  0
LINE
  5
266
100
AcDbEntity
  8
ALL_ASSEMBLY_MEMBERS
100
AcDbLine
 62
7
  6
CONTINUOUS
 10
4.5043233361
 20
4.8669027387
 11
4.4296087338
 21
4.860366058
  0
LINE
  5
267
100
AcDbEntity
  8
ALL_ASSEMBLY_MEMBERS
100
AcDbLine
 62
7
  6
CONTINUOUS
 10
5.7256839068
 20
4.7981949489
 11
5.7995444883
 21
4.7851713356
  0
LINE
  5
268
100
AcDbEntity
  8
ALL_ASSEMBLY_MEMBERS
100
AcDbLine
 62
7
  6
CONTINUOUS
 10
5.802236035
 20
4.8004358557
 11
5.7283754535
 21
4.8134594691
  0
LINE
  5
269
100
AcDbEntity
  8
ALL_ASSEMBLY_MEMBERS
100
AcDbLine
 62
7
  6
CONTINUOUS
 10
4.5216975789
 20
4.9920234557
 11
4.5245320424
 21
4.9915070097
  0
LINE
  5
26A
100
AcDbEntity
  8
ALL_ASSEMBLY_MEMBERS
100
AcDbLine
 62
7
  6
CONTINUOUS
 10
4.441976579
 20
5.0263729156
 11
4.5115299529
 21
5.0137001262
  0
LINE
  5
26B
100
AcDbEntity
  8
ALL_ASSEMBLY_MEMBERS
100
AcDbLine
 62
7
  6
CONTINUOUS
 10
4.5152639644
 20
5.0156479775
 11
4.4431668393
 21
5.0287842443
  0
LINE
  5
26C
100
AcDbEntity
  8
ALL_ASSEMBLY_MEMBERS
100
AcDbLine
 62
7
  6
CONTINUOUS
 10
4.4283764367
 20
5.0395138617
 11
4.5174076666
 21
5.023292161
  0
LINE
  5
26D
100
AcDbEntity
  8
ALL_ASSEMBLY_MEMBERS
100
AcDbLine
 62
7
  6
CONTINUOUS
 10
4.5146286291
 20
5.0307069101
 11
4.4236350781
 21
5.0472861504
  0
LINE
  5
26E
100
AcDbEntity
  8
ALL_ASSEMBLY_MEMBERS
100
AcDbLine
 62
7
  6
CONTINUOUS
 10
4.4249898335
 20
5.0122720311
 11
4.4278440033
 21
5.0114516294
  0
LINE
  5
26F
100
AcDbEntity
  8
ALL_ASSEMBLY_MEMBERS
100
AcDbLine
 62
7
  6
CONTINUOUS
 10
4.5379482643
 20
5.0723808896
 11
4.5406864835
 21
5.0714847559
  0
LINE
  5
270
100
AcDbEntity
  8
ALL_ASSEMBLY_MEMBERS
100
AcDbLine
 62
7
  6
CONTINUOUS
 10
4.4636230937
 20
5.1172260912
 11
4.5308147788
 21
5.0952363468
  0
LINE
  5
271
100
AcDbEntity
  8
ALL_ASSEMBLY_MEMBERS
100
AcDbLine
 62
7
  6
CONTINUOUS
 10
4.5347784878
 20
5.096659733
 11
4.4651294248
 21
5.1194537006
  0
LINE
  5
272
100
AcDbEntity
  8
ALL_ASSEMBLY_MEMBERS
100
AcDbLine
 62
7
  6
CONTINUOUS
 10
4.4519310502
 20
5.1320902987
 11
4.5379392197
 21
5.1039425054
  0
LINE
  5
273
100
AcDbEntity
  8
ALL_ASSEMBLY_MEMBERS
100
AcDbLine
 62
7
  6
CONTINUOUS
 10
4.5361915844
 20
5.1116656705
 11
4.4482877246
 21
5.1404338642
  0
LINE
  5
274
100
AcDbEntity
  8
ALL_ASSEMBLY_MEMBERS
100
AcDbLine
 62
7
  6
CONTINUOUS
 10
4.4448807182
 20
5.1055595677
 11
4.4475972352
 21
5.1043596189
  0
LINE
  5
275
100
AcDbEntity
  8
ALL_ASSEMBLY_MEMBERS
100
AcDbLine
 62
7
  6
CONTINUOUS
 10
4.4891137417
 20
5.2023964538
 11
4.4839110056
 21
5.2058929894
  0
LINE
  5
276
100
AcDbEntity
  8
ALL_ASSEMBLY_MEMBERS
100
AcDbLine
 62
7
  6
CONTINUOUS
 10
4.4748885646
 20
5.2084446135
 11
4.5172812129
 21
5.1796900316
  0
LINE
  5
277
100
AcDbEntity
  8
ALL_ASSEMBLY_MEMBERS
100
AcDbLine
 62
7
  6
CONTINUOUS
 10
4.5207981346
 20
5.1810272448
 11
4.4915797737
 21
5.2008776044
  0
LINE
  5
278
100
AcDbEntity
  8
ALL_FEATURES
100
AcDbLine
 62
7
  6
CONTINUOUS
 10
5.2573171072
 20
4.6365627898
 11
5.2575911094
 21
4.6362887875
  0
LINE
  5
279
100
AcDbEntity
  8
ALL_FEATURES
100
AcDbLine
 62
7
  6
CONTINUOUS
 10
4.8431427378
 20
5.0507371592
 11
4.8428687565
 21
5.0510111405
  0
LINE
  5
27A
100
AcDbEntity
  8
ALL_ASSEMBLY_MEMBERS
100
AcDbLine
 62
7
  6
CONTINUOUS
 10
5.0099938548
 20
5.5059515674
 11
5.0103785829
 21
5.5030962418
  0
LINE
  5
27B
100
AcDbEntity
  8
ALL_ASSEMBLY_MEMBERS
100
AcDbLine
 62
7
  6
CONTINUOUS
 10
5.0180269886
 20
5.5923853107
 11
5.0274676243
 21
5.522320014
  0
LINE
  5
27C
100
AcDbEntity
  8
ALL_ASSEMBLY_MEMBERS
100
AcDbLine
 62
7
  6
CONTINUOUS
 10
5.0304740139
 20
5.5193706771
 11
5.0206881092
 21
5.5919984474
  0
LINE
  5
27D
100
AcDbEntity
  8
ALL_ASSEMBLY_MEMBERS
100
AcDbLine
 62
7
  6
CONTINUOUS
 10
5.026322096
 20
5.6093805904
 11
5.0384065049
 21
5.5196940778
  0
LINE
  5
27E
100
AcDbEntity
  8
ALL_ASSEMBLY_MEMBERS
100
AcDbLine
 62
7
  6
CONTINUOUS
 10
5.0445995805
 20
5.5246283829
 11
5.0322488214
 21
5.6162916596
  0
LINE
  5
27F
100
AcDbEntity
  8
ALL_ASSEMBLY_MEMBERS
100
AcDbLine
 62
7
  6
CONTINUOUS
 10
5.1845263975
 20
5.3935687592
 11
5.1845263975
 21
5.5087296966
  0
LINE
  5
280
100
AcDbEntity
  8
ALL_FEATURES
100
AcDbLine
 62
7
  6
CONTINUOUS
 10
5.3961840385
 20
5.0510111405
 11
5.3959101448
 21
5.0507372467
  0
LINE
  5
281
100
AcDbEntity
  8
ALL_FEATURES
100
AcDbLine
 62
7
  6
CONTINUOUS
 10
4.9814616856
 20
4.6362887875
 11
4.9817355291
 21
4.636562631
  0
LINE
  5
282
100
AcDbEntity
  8
ALL_ASSEMBLY_MEMBERS
100
AcDbLine
 62
7
  6
CONTINUOUS
 10
5.7053025532
 20
5.0868213154
 11
5.7071676523
 21
5.0873035261
  0
LINE
  5
283
100
AcDbEntity
  8
ALL_ASSEMBLY_MEMBERS
100
AcDbLine
 62
7
  6
CONTINUOUS
 10
5.7032498199
 20
5.0864310483
 11
5.7053025532
 21
5.0868213154
  0
LINE
  5
284
100
AcDbEntity
  8
ALL_ASSEMBLY_MEMBERS
100
AcDbLine
 62
7
  6
CONTINUOUS
 10
5.7908807887
 20
5.0575020302
 11
5.7971412787
 21
5.0578189927
  0
LINE
  5
285
100
AcDbEntity
  8
ALL_ASSEMBLY_MEMBERS
100
AcDbLine
 62
7
  6
CONTINUOUS
 10
5.8058942213
 20
5.0611807187
 11
5.7547244918
 21
5.0588097918
  0
LINE
  5
286
100
AcDbEntity
  8
ALL_ASSEMBLY_MEMBERS
100
AcDbLine
 62
7
  6
CONTINUOUS
 10
5.7527094914
 20
5.0556322746
 11
5.78799634
 21
5.0572409292
  0
LINE
  5
287
100
AcDbEntity
  8
ALL_ASSEMBLY_MEMBERS
100
AcDbLine
 62
7
  6
CONTINUOUS
 10
4.5350595953
 20
5.0492864616
 11
4.5322251318
 21
5.0498029075
  0
LINE
  5
288
100
AcDbEntity
  8
ALL_ASSEMBLY_MEMBERS
100
AcDbLine
 62
7
  6
CONTINUOUS
 10
4.558953825
 20
5.1273022969
 11
4.5562156059
 21
5.1281984307
  0
LINE
  5
289
100
AcDbEntity
  8
ALL_FEATURES
100
AcDbLine
 62
7
  6
CONTINUOUS
 10
5.3959100572
 20
4.775155698
 11
5.3961840385
 21
4.7748817167
  0
LINE
  5
28A
100
AcDbEntity
  8
ALL_FEATURES
100
AcDbLine
 62
7
  6
CONTINUOUS
 10
4.9817356878
 20
5.1893300674
 11
4.9814616856
 21
5.1896040696
  0
LINE
  5
28B
100
AcDbEntity
  8
ALL_FEATURES
100
AcDbLine
 62
7
  6
CONTINUOUS
 10
5.4295926036
 20
5.3823003251
 11
5.4208917464
 21
5.332955312
  0
LINE
  5
28C
100
AcDbEntity
  8
ALL_FEATURES
100
AcDbLine
 62
7
  6
CONTINUOUS
 10
5.3987491764
 20
4.7783996887
 11
5.3988788985
 21
4.7785508178
  0
LINE
  5
28D
100
AcDbEntity
  8
ALL_FEATURES
100
AcDbLine
 62
7
  6
CONTINUOUS
 10
5.3958931662
 20
4.7751364099
 11
5.3988788985
 21
4.7785508178
  0
LINE
  5
28E
100
AcDbEntity
  8
ALL_FEATURES
100
AcDbLine
 62
7
  6
CONTINUOUS
 10
5.3918511168
 20
4.7705487948
 11
5.3961840387
 21
4.7748817165
  0
LINE
  5
28F
100
AcDbEntity
  8
ALL_FEATURES
100
AcDbLine
 62
7
  6
CONTINUOUS
 10
5.2575911096
 20
4.6362887874
 11
5.2619240513
 21
4.6406217278
  0
LINE
  5
290
100
AcDbEntity
  8
ALL_FEATURES
100
AcDbLine
 62
7
  6
CONTINUOUS
 10
5.2687217126
 20
4.6317498799
 11
5.4007229462
 21
4.7637511135
  0
LINE
  5
291
100
AcDbEntity
  8
ALL_FEATURES
100
AcDbLine
 62
7
  6
CONTINUOUS
 10
5.2539220083
 20
4.6335939276
 11
5.2573171328
 21
4.6365627641
  0
LINE
  5
292
100
AcDbEntity
  8
ALL_FEATURES
100
AcDbLine
 62
7
  6
CONTINUOUS
 10
5.2539220083
 20
4.6335939276
 11
5.2540730045
 21
4.6337235546
  0
LINE
  5
293
100
AcDbEntity
  8
ALL_FEATURES
100
AcDbLine
 62
7
  6
CONTINUOUS
 10
5.5888802941
 20
5.2230126347
 11
5.539535281
 21
5.2143117775
  0
LINE
  5
294
100
AcDbEntity
  8
ALL_FEATURES
100
AcDbLine
 62
7
  6
CONTINUOUS
 10
4.6995175141
 20
5.2143117775
 11
4.6501725009
 21
5.2230126347
  0
LINE
  5
295
100
AcDbEntity
  8
ALL_FEATURES
100
AcDbLine
 62
7
  6
CONTINUOUS
 10
5.2540533273
 20
5.1921857712
 11
5.2539220083
 21
5.1922989295
  0
LINE
  5
296
100
AcDbEntity
  8
ALL_FEATURES
100
AcDbLine
 62
7
  6
CONTINUOUS
 10
5.2571893203
 20
5.1894425776
 11
5.2539220083
 21
5.1922989295
  0
LINE
  5
297
100
AcDbEntity
  8
ALL_FEATURES
100
AcDbLine
 62
7
  6
CONTINUOUS
 10
5.3961840385
 20
5.0510111405
 11
5.3918622546
 21
5.0553329262
  0
LINE
  5
298
100
AcDbEntity
  8
ALL_FEATURES
100
AcDbLine
 62
7
  6
CONTINUOUS
 10
5.261912769
 20
5.185282412
 11
5.2575911094
 21
5.1896040696
  0
LINE
  5
299
100
AcDbEntity
  8
ALL_FEATURES
100
AcDbLine
 62
7
  6
CONTINUOUS
 10
5.4007229462
 20
5.0621417429
 11
5.2687217118
 21
5.1941429773
  0
LINE
  5
29A
100
AcDbEntity
  8
ALL_ASSEMBLY_MEMBERS
100
AcDbLine
 62
7
  6
CONTINUOUS
 10
5.7293672527
 20
4.569487186
 11
5.7094917207
 21
4.5902970445
  0
LINE
  5
29B
100
AcDbEntity
  8
ALL_ASSEMBLY_MEMBERS
100
AcDbLine
 62
7
  6
CONTINUOUS
 10
5.7173019094
 20
4.5776467144
 11
5.7230704478
 21
4.5713848635
  0
LINE
  5
29C
100
AcDbEntity
  8
ALL_FEATURES
100
AcDbLine
 62
7
  6
CONTINUOUS
 10
5.3988788985
 20
5.0473420394
 11
5.3958937252
 21
5.0507559243
  0
LINE
  5
29D
100
AcDbEntity
  8
ALL_FEATURES
100
AcDbLine
 62
7
  6
CONTINUOUS
 10
5.3988788985
 20
5.0473420394
 11
5.3987657415
 21
5.0474732908
  0
LINE
  5
29E
100
AcDbEntity
  8
ALL_FEATURES
100
AcDbLine
 62
7
  6
CONTINUOUS
 10
5.4208917464
 20
4.4929375451
 11
5.4295926036
 21
4.443592532
  0
LINE
  5
29F
100
AcDbEntity
  8
ALL_ASSEMBLY_MEMBERS
100
AcDbLine
 62
7
  6
CONTINUOUS
 10
5.6938807964
 20
4.5242041973
 11
5.6907114974
 21
4.5305953613
  0
LINE
  5
2A0
100
AcDbEntity
  8
ALL_ASSEMBLY_MEMBERS
100
AcDbLine
 62
7
  6
CONTINUOUS
 10
5.7172847917
 20
4.5745299706
 11
5.7173019094
 21
4.5776467144
  0
LINE
  5
2A1
100
AcDbEntity
  8
ALL_ASSEMBLY_MEMBERS
100
AcDbLine
 62
7
  6
CONTINUOUS
 10
5.7283754535
 20
4.8134594691
 11
5.7256839068
 21
4.7981949489
  0
LINE
  5
2A2
100
AcDbEntity
  8
ALL_ASSEMBLY_MEMBERS
100
AcDbLine
 62
7
  6
CONTINUOUS
 10
5.7277069714
 20
5.1333749111
 11
5.7273926716
 21
5.131783764
  0
LINE
  5
2A3
100
AcDbEntity
  8
ALL_ASSEMBLY_MEMBERS
100
AcDbLine
 62
7
  6
CONTINUOUS
 10
5.7433569516
 20
5.0599812503
 11
5.7427798922
 21
5.0575355658
  0
LINE
  5
2A4
100
AcDbEntity
  8
ALL_ASSEMBLY_MEMBERS
100
AcDbLine
 62
7
  6
CONTINUOUS
 10
5.7262325187
 20
5.1162386531
 11
5.7267527508
 21
5.1183687802
  0
LINE
  5
2A5
100
AcDbEntity
  8
ALL_ASSEMBLY_MEMBERS
100
AcDbLine
 62
7
  6
CONTINUOUS
 10
5.6401953608
 20
4.6283913212
 11
5.6291957975
 21
4.6106121871
  0
LINE
  5
2A6
100
AcDbEntity
  8
ALL_ASSEMBLY_MEMBERS
100
AcDbLine
 62
7
  6
CONTINUOUS
 10
5.6351440197
 20
4.6147504878
 11
5.6405077649
 21
4.6234201725
  0
LINE
  5
2A7
100
AcDbEntity
  8
ALL_ASSEMBLY_MEMBERS
100
AcDbLine
 62
7
  6
CONTINUOUS
 10
5.810443859
 20
5.0258649276
 11
5.8117865709
 21
5.0278577166
  0
LINE
  5
2A8
100
AcDbEntity
  8
ALL_FEATURES
100
AcDbLine
 62
7
  6
CONTINUOUS
 10
5.3950221108
 20
4.5024518026
 11
5.5300210235
 21
4.6374507153
  0
LINE
  5
2A9
100
AcDbEntity
  8
ALL_FEATURES
100
AcDbLine
 62
7
  6
CONTINUOUS
 10
5.404458296
 20
4.4943070797
 11
5.5381657463
 21
4.6280145301
  0
LINE
  5
2AA
100
AcDbEntity
  8
ALL_FEATURES
100
AcDbLine
 62
7
  6
CONTINUOUS
 10
5.4208917464
 20
4.4929375451
 11
5.539535281
 21
4.6115810796
  0
LINE
  5
2AB
100
AcDbEntity
  8
ALL_FEATURES
100
AcDbLine
 62
7
  6
CONTINUOUS
 10
5.4295926036
 20
4.443592532
 11
5.5888802941
 21
4.6028802225
  0
LINE
  5
2AC
100
AcDbEntity
  8
ALL_ASSEMBLY_MEMBERS
100
AcDbLine
 62
7
  6
CONTINUOUS
 10
5.0103785829
 20
5.5030962418
 11
5.0544847051
 21
5.5090391244
  0
LINE
  5
2AD
100
AcDbEntity
  8
ALL_ASSEMBLY_MEMBERS
100
AcDbLine
 62
7
  6
CONTINUOUS
 10
5.0454291762
 20
5.5107261416
 11
5.0258811783
 21
5.5080922339
  0
LINE
  5
2AE
100
AcDbEntity
  8
ALL_ASSEMBLY_MEMBERS
100
AcDbLine
 62
7
  6
CONTINUOUS
 10
5.0176812696
 20
5.5069873738
 11
5.0099938548
 21
5.5059515674
  0
LINE
  5
2AF
100
AcDbEntity
  8
ALL_ASSEMBLY_MEMBERS
100
AcDbLine
 62
7
  6
CONTINUOUS
 10
5.0545263975
 20
5.5087296966
 11
5.1845263975
 21
5.5087296966
  0
LINE
  5
2B0
100
AcDbEntity
  8
ALL_ASSEMBLY_MEMBERS
100
AcDbLine
 62
7
  6
CONTINUOUS
 10
5.074980943
 20
5.5371705879
 11
5.1640718521
 21
5.5371705879
  0
LINE
  5
2B1
100
AcDbEntity
  8
ALL_FEATURES
100
AcDbLine
 62
7
  6
CONTINUOUS
 10
5.3950221108
 20
5.3234410545
 11
5.5300210235
 21
5.1884421418
  0
LINE
  5
2B2
100
AcDbEntity
  8
ALL_FEATURES
100
AcDbLine
 62
7
  6
CONTINUOUS
 10
5.404458296
 20
5.3315857774
 11
5.5381657463
 21
5.197878327
  0
LINE
  5
2B3
100
AcDbEntity
  8
ALL_FEATURES
100
AcDbLine
 62
7
  6
CONTINUOUS
 10
5.4208917464
 20
5.332955312
 11
5.539535281
 21
5.2143117775
  0
LINE
  5
2B4
100
AcDbEntity
  8
ALL_FEATURES
100
AcDbLine
 62
7
  6
CONTINUOUS
 10
5.4295926036
 20
5.3823003251
 11
5.5888802941
 21
5.2230126347
  0
LINE
  5
2B5
100
AcDbEntity
  8
ALL_ASSEMBLY_MEMBERS
100
AcDbLine
 62
7
  6
CONTINUOUS
 10
5.7908930651
 20
5.0570528369
 11
5.7908807887
 21
5.0575020302
  0
LINE
  5
2B6
100
AcDbEntity
  8
ALL_ASSEMBLY_MEMBERS
100
AcDbLine
 62
7
  6
CONTINUOUS
 10
5.7995444883
 20
4.7851713356
 11
5.802236035
 21
4.8004358557
  0
LINE
  5
2B7
100
AcDbEntity
  8
ALL_ASSEMBLY_MEMBERS
100
AcDbLine
 62
7
  6
CONTINUOUS
 10
5.7115521758
 20
4.5694764469
 11
5.6891643733
 21
4.5332899431
  0
LINE
  5
2B8
100
AcDbEntity
  8
ALL_ASSEMBLY_MEMBERS
100
AcDbLine
 62
7
  6
CONTINUOUS
 10
5.6907114974
 20
4.5305953613
 11
5.7158589078
 21
4.5712423551
  0
LINE
  5
2B9
100
AcDbEntity
  8
ALL_ASSEMBLY_MEMBERS
100
AcDbLine
 62
7
  6
CONTINUOUS
 10
5.7230704478
 20
4.5713848635
 11
5.6938807964
 21
4.5242041973
  0
LINE
  5
2BA
100
AcDbEntity
  8
ALL_ASSEMBLY_MEMBERS
100
AcDbLine
 62
7
  6
CONTINUOUS
 10
5.6952802669
 20
4.5143907178
 11
5.7293672527
 21
4.569487186
  0
LINE
  5
2BB
100
AcDbEntity
  8
ALL_ASSEMBLY_MEMBERS
100
AcDbLine
 62
7
  6
CONTINUOUS
 10
5.7094917207
 20
4.5902970445
 11
5.707784228
 21
4.5886604494
  0
LINE
  5
2BC
100
AcDbEntity
  8
ALL_ASSEMBLY_MEMBERS
100
AcDbLine
 62
7
  6
CONTINUOUS
 10
4.9994687961
 20
5.6012152579
 11
5.0020016746
 21
5.6017801652
  0
LINE
  5
2BD
100
AcDbEntity
  8
ALL_ASSEMBLY_MEMBERS
100
AcDbLine
 62
7
  6
CONTINUOUS
 10
5.0020016746
 20
5.6017801652
 11
5.004031922
 21
5.602202808
  0
ARC
  5
2BE
100
AcDbEntity
  8
ALL_ASSEMBLY_MEMBERS
100
AcDbCircle
 62
7
  6
CONTINUOUS
 10
4.9303698539
 20
4.1334010216
 40
0.8545414492
100
AcDbArc
 50
26.477164397
 51
27.3675572018
  0
ARC
  5
2BF
100
AcDbEntity
  8
ALL_FEATURES
100
AcDbCircle
 62
7
  6
CONTINUOUS
 10
4.6740491254
 20
4.4674691564
 40
0.1375
100
AcDbArc
 50
100.0
 51
350.0
  0
ARC
  5
2C0
100
AcDbEntity
  8
ALL_FEATURES
100
AcDbCircle
 62
7
  6
CONTINUOUS
 10
4.7133374069
 20
4.7623765393
 40
0.125
100
AcDbArc
 50
268.0260516848
 51
0.6300714454
  0
ARC
  5
2C1
100
AcDbEntity
  8
ALL_FEATURES
100
AcDbCircle
 62
7
  6
CONTINUOUS
 10
4.9689565082
 20
4.5067574379
 40
0.125
100
AcDbArc
 50
89.3699285546
 51
181.9739483152
  0
ARC
  5
2C2
100
AcDbEntity
  8
ALL_ASSEMBLY_MEMBERS
100
AcDbCircle
 62
7
  6
CONTINUOUS
 10
4.5342758087
 20
4.6196701943
 40
0.085148678
100
AcDbArc
 50
98.3348632683
 51
112.3421166593
  0
ARC
  5
2C3
100
AcDbEntity
  8
ALL_ASSEMBLY_MEMBERS
100
AcDbCircle
 62
7
  6
CONTINUOUS
 10
4.5338473716
 20
4.6203265899
 40
0.0843788208
100
AcDbArc
 50
112.2424655977
 51
126.2770780449
  0
ARC
  5
2C4
100
AcDbEntity
  8
ALL_FEATURES
100
AcDbCircle
 62
7
  6
CONTINUOUS
 10
4.9705015305
 20
4.6472489427
 40
0.0155
100
AcDbArc
 50
269.3699285546
 51
315.0
  0
ARC
  5
2C5
100
AcDbEntity
  8
ALL_FEATURES
100
AcDbCircle
 62
7
  6
CONTINUOUS
 10
4.8538289116
 20
4.7639215615
 40
0.0155
100
AcDbArc
 50
135.0
 51
180.6300714454
  0
ARC
  5
2C6
100
AcDbEntity
  8
ALL_FEATURES
100
AcDbCircle
 62
7
  6
CONTINUOUS
 10
4.8360354315
 20
4.5021762419
 40
0.008
100
AcDbArc
 50
259.6234510997
 51
1.9739483152
  0
ARC
  5
2C7
100
AcDbEntity
  8
ALL_FEATURES
100
AcDbCircle
 62
7
  6
CONTINUOUS
 10
4.7087562109
 20
4.6294554626
 40
0.008
100
AcDbArc
 50
88.0260516848
 51
190.3765489003
  0
ARC
  5
2C8
100
AcDbEntity
  8
ALL_FEATURES
100
AcDbCircle
 62
7
  6
CONTINUOUS
 10
4.8260395106
 20
4.4915483597
 40
0.008
100
AcDbArc
 50
45.0
 51
170.0
  0
ARC
  5
2C9
100
AcDbEntity
  8
ALL_FEATURES
100
AcDbCircle
 62
7
  6
CONTINUOUS
 10
4.6981283286
 20
4.6194595417
 40
0.008
100
AcDbArc
 50
280.0
 51
45.0
  0
ARC
  5
2CA
100
AcDbEntity
  8
ALL_ASSEMBLY_MEMBERS
100
AcDbCircle
 62
7
  6
CONTINUOUS
 10
4.6544176724
 20
5.0431159138
 40
0.4648889258
100
AcDbArc
 50
262.1847050347
 51
262.9828190483
  0
ARC
  5
2CB
100
AcDbEntity
  8
ALL_FEATURES
100
AcDbCircle
 62
7
  6
CONTINUOUS
 10
4.7133374069
 20
5.0635163178
 40
0.125
100
AcDbArc
 50
359.3699285546
 51
91.9739483152
  0
ARC
  5
2CC
100
AcDbEntity
  8
ALL_ASSEMBLY_MEMBERS
100
AcDbCircle
 62
7
  6
CONTINUOUS
 10
4.4715212216
 20
5.213496798
 40
0.0236978809
100
AcDbArc
 50
327.825268462
 51
334.2686209729
  0
ARC
  5
2CD
100
AcDbEntity
  8
ALL_FEATURES
100
AcDbCircle
 62
7
  6
CONTINUOUS
 10
4.7087562109
 20
5.1964373946
 40
0.008
100
AcDbArc
 50
169.6234510997
 51
271.9739483152
  0
ARC
  5
2CE
100
AcDbEntity
  8
ALL_FEATURES
100
AcDbCircle
 62
7
  6
CONTINUOUS
 10
4.6981283286
 20
5.2064333155
 40
0.008
100
AcDbArc
 50
315.0
 51
80.0
  0
ARC
  5
2CF
100
AcDbEntity
  8
ALL_FEATURES
100
AcDbCircle
 62
7
  6
CONTINUOUS
 10
4.6740491254
 20
5.3584237007
 40
0.1375
100
AcDbArc
 50
10.0
 51
260.0
  0
ARC
  5
2D0
100
AcDbEntity
  8
ALL_FEATURES
100
AcDbCircle
 62
7
  6
CONTINUOUS
 10
4.9705015305
 20
5.1786439145
 40
0.0155
100
AcDbArc
 50
45.0
 51
90.6300714454
  0
ARC
  5
2D1
100
AcDbEntity
  8
ALL_FEATURES
100
AcDbCircle
 62
7
  6
CONTINUOUS
 10
4.8538289116
 20
5.0619712956
 40
0.0155
100
AcDbArc
 50
179.3699285546
 51
225.0
  0
CIRCLE
  5
2D2
100
AcDbEntity
  8
ALL_ASSEMBLY_MEMBERS
100
AcDbCircle
 62
7
  6
CONTINUOUS
 10
5.1195263975
 20
4.9129464286
 40
1.625
  0
CIRCLE
  5
2D3
100
AcDbEntity
  8
ALL_ASSEMBLY_MEMBERS
100
AcDbCircle
 62
7
  6
CONTINUOUS
 10
5.1195263975
 20
4.9129464286
 40
1.6057758339
  0
CIRCLE
  5
2D4
100
AcDbEntity
  8
ALL_ASSEMBLY_MEMBERS
100
AcDbCircle
 62
7
  6
CONTINUOUS
 10
5.1195263975
 20
4.9129464286
 40
1.5711090757
  0
CIRCLE
  5
2D5
100
AcDbEntity
  8
ALL_ASSEMBLY_MEMBERS
100
AcDbCircle
 62
7
  6
CONTINUOUS
 10
5.1195263975
 20
4.9129464286
 40
1.5414217454
  0
CIRCLE
  5
2D6
100
AcDbEntity
  8
ALL_ASSEMBLY_MEMBERS
100
AcDbCircle
 62
7
  6
CONTINUOUS
 10
5.1195263975
 20
4.9129464286
 40
0.9975
  0
CIRCLE
  5
2D7
100
AcDbEntity
  8
ALL_ASSEMBLY_MEMBERS
100
AcDbCircle
 62
7
  6
CONTINUOUS
 10
5.1195263975
 20
4.9129464286
 40
0.9718817783
  0
CIRCLE
  5
2D8
100
AcDbEntity
  8
ALL_ASSEMBLY_MEMBERS
100
AcDbCircle
 62
7
  6
CONTINUOUS
 10
5.1195263975
 20
4.9129464286
 40
0.8313893572
  0
CIRCLE
  5
2D9
100
AcDbEntity
  8
ALL_ASSEMBLY_MEMBERS
100
AcDbCircle
 62
7
  6
CONTINUOUS
 10
5.1195263975
 20
4.9129464286
 40
0.8078055334
  0
ARC
  5
2DA
100
AcDbEntity
  8
ALL_ASSEMBLY_MEMBERS
100
AcDbCircle
 62
7
  6
CONTINUOUS
 10
5.1195263975
 20
4.9129464286
 40
0.4975
100
AcDbArc
 50
56.2877300554
 51
82.4923808532
  0
ARC
  5
2DB
100
AcDbEntity
  8
ALL_ASSEMBLY_MEMBERS
100
AcDbCircle
 62
7
  6
CONTINUOUS
 10
5.1195263975
 20
4.9129464286
 40
0.4975
100
AcDbArc
 50
326.2878058282
 51
33.7131596808
  0
ARC
  5
2DC
100
AcDbEntity
  8
ALL_ASSEMBLY_MEMBERS
100
AcDbCircle
 62
7
  6
CONTINUOUS
 10
5.1195263975
 20
4.9129464286
 40
0.4975
100
AcDbArc
 50
97.5076191468
 51
123.7116137798
  0
ARC
  5
2DD
100
AcDbEntity
  8
ALL_ASSEMBLY_MEMBERS
100
AcDbCircle
 62
7
  6
CONTINUOUS
 10
5.1195263975
 20
4.9129464286
 40
0.4975
100
AcDbArc
 50
146.2878058282
 51
213.7131596808
  0
ARC
  5
2DE
100
AcDbEntity
  8
ALL_ASSEMBLY_MEMBERS
100
AcDbCircle
 62
7
  6
CONTINUOUS
 10
5.1195263975
 20
4.9129464286
 40
0.4975
100
AcDbArc
 50
236.2877300554
 51
303.7116137798
  0
ARC
  5
2DF
100
AcDbEntity
  8
ALL_ASSEMBLY_MEMBERS
100
AcDbCircle
 62
7
  6
CONTINUOUS
 10
5.1195263975
 20
4.9129464286
 40
0.4925
100
AcDbArc
 50
97.5865465151
 51
124.0251734039
  0
ARC
  5
2E0
100
AcDbEntity
  8
ALL_ASSEMBLY_MEMBERS
100
AcDbCircle
 62
7
  6
CONTINUOUS
 10
5.1195263975
 20
4.9129464286
 40
0.4925
100
AcDbArc
 50
55.9748265961
 51
82.4134534849
  0
ARC
  5
2E1
100
AcDbEntity
  8
ALL_ASSEMBLY_MEMBERS
100
AcDbCircle
 62
7
  6
CONTINUOUS
 10
5.1195263975
 20
4.9129464286
 40
0.4925
100
AcDbArc
 50
325.9748265961
 51
34.0251734039
  0
ARC
  5
2E2
100
AcDbEntity
  8
ALL_ASSEMBLY_MEMBERS
100
AcDbCircle
 62
7
  6
CONTINUOUS
 10
5.1195263975
 20
4.9129464286
 40
0.4925
100
AcDbArc
 50
235.9748265961
 51
304.0251734039
  0
ARC
  5
2E3
100
AcDbEntity
  8
ALL_ASSEMBLY_MEMBERS
100
AcDbCircle
 62
7
  6
CONTINUOUS
 10
5.1195263975
 20
4.9129464286
 40
0.4925
100
AcDbArc
 50
145.9748265961
 51
214.0251734039
  0
ARC
  5
2E4
100
AcDbEntity
  8
ALL_ASSEMBLY_MEMBERS
100
AcDbCircle
 62
7
  6
CONTINUOUS
 10
5.1195263975
 20
4.9129464286
 40
0.485
100
AcDbArc
 50
325.4029070546
 51
34.5970929455
  0
ARC
  5
2E5
100
AcDbEntity
  8
ALL_ASSEMBLY_MEMBERS
100
AcDbCircle
 62
7
  6
CONTINUOUS
 10
5.1195263975
 20
4.9129464286
 40
0.485
100
AcDbArc
 50
55.4022817567
 51
124.5977182433
  0
ARC
  5
2E6
100
AcDbEntity
  8
ALL_ASSEMBLY_MEMBERS
100
AcDbCircle
 62
7
  6
CONTINUOUS
 10
5.1195263975
 20
4.9129464286
 40
0.485
100
AcDbArc
 50
145.4029070546
 51
214.5970929455
  0
ARC
  5
2E7
100
AcDbEntity
  8
ALL_ASSEMBLY_MEMBERS
100
AcDbCircle
 62
7
  6
CONTINUOUS
 10
5.1195263975
 20
4.9129464286
 40
0.485
100
AcDbArc
 50
235.4022817567
 51
304.5977182433
  0
ARC
  5
2E8
100
AcDbEntity
  8
ALL_ASSEMBLY_MEMBERS
100
AcDbCircle
 62
7
  6
CONTINUOUS
 10
5.1195263975
 20
4.9129464286
 40
0.3233291378
100
AcDbArc
 50
330.5562313916
 51
29.4437686087
  0
ARC
  5
2E9
100
AcDbEntity
  8
ALL_ASSEMBLY_MEMBERS
100
AcDbCircle
 62
7
  6
CONTINUOUS
 10
5.1195263975
 20
4.9129464286
 40
0.3233291378
100
AcDbArc
 50
60.5619044683
 51
119.4380955314
  0
ARC
  5
2EA
100
AcDbEntity
  8
ALL_ASSEMBLY_MEMBERS
100
AcDbCircle
 62
7
  6
CONTINUOUS
 10
5.1195263975
 20
4.9129464286
 40
0.3233291378
100
AcDbArc
 50
150.5562313916
 51
209.4437686087
  0
ARC
  5
2EB
100
AcDbEntity
  8
ALL_ASSEMBLY_MEMBERS
100
AcDbCircle
 62
7
  6
CONTINUOUS
 10
5.1195263975
 20
4.9129464286
 40
0.3233291378
100
AcDbArc
 50
240.5619044683
 51
299.4380955314
  0
ARC
  5
2EC
100
AcDbEntity
  8
ALL_FEATURES
100
AcDbCircle
 62
7
  6
CONTINUOUS
 10
5.1195263975
 20
4.9129464286
 40
0.31
100
AcDbArc
 50
154.3079388237
 51
205.6920611763
  0
ARC
  5
2ED
100
AcDbEntity
  8
ALL_FEATURES
100
AcDbCircle
 62
7
  6
CONTINUOUS
 10
5.1195263975
 20
4.9129464286
 40
0.31
100
AcDbArc
 50
64.3079388237
 51
115.6920611763
  0
ARC
  5
2EE
100
AcDbEntity
  8
ALL_FEATURES
100
AcDbCircle
 62
7
  6
CONTINUOUS
 10
5.1195263975
 20
4.9129464286
 40
0.31
100
AcDbArc
 50
334.3079388237
 51
25.6920611763
  0
ARC
  5
2EF
100
AcDbEntity
  8
ALL_FEATURES
100
AcDbCircle
 62
7
  6
CONTINUOUS
 10
5.1195263975
 20
4.9129464286
 40
0.31
100
AcDbArc
 50
244.3079388237
 51
295.6920611763
  0
ARC
  5
2F0
100
AcDbEntity
  8
DEFAULT_1
100
AcDbCircle
 62
7
  6
CENTER
 10
5.1195263975
 20
4.9129464286
 40
0.31
100
AcDbArc
 50
25.8
 51
26.5742932043
  0
ARC
  5
2F1
100
AcDbEntity
  8
DEFAULT_1
100
AcDbCircle
 62
7
  6
CENTER
 10
5.1195263975
 20
4.9129464286
 40
0.31
100
AcDbArc
 50
334.3079466515
 51
25.6920748936
  0
ARC
  5
2F2
100
AcDbEntity
  8
DEFAULT_1
100
AcDbCircle
 62
7
  6
CENTER
 10
5.1195263975
 20
4.9129464286
 40
0.31
100
AcDbArc
 50
333.4244220111
 51
334.2612682035
  0
ARC
  5
2F3
100
AcDbEntity
  8
DEFAULT_1
100
AcDbCircle
 62
7
  6
CENTER
 10
5.1195263975
 20
4.9129464286
 40
0.31
100
AcDbArc
 50
295.7387544222
 51
296.5755779889
  0
ARC
  5
2F4
100
AcDbEntity
  8
DEFAULT_1
100
AcDbCircle
 62
7
  6
CENTER
 10
5.1195263975
 20
4.9129464286
 40
0.31
100
AcDbArc
 50
244.3079251064
 51
295.6920533485
  0
ARC
  5
2F5
100
AcDbEntity
  8
DEFAULT_1
100
AcDbCircle
 62
7
  6
CENTER
 10
5.1195263975
 20
4.9129464286
 40
0.31
100
AcDbArc
 50
243.4257067957
 51
244.2
  0
ARC
  5
2F6
100
AcDbEntity
  8
DEFAULT_1
100
AcDbCircle
 62
7
  6
CENTER
 10
5.1195263975
 20
4.9129464286
 40
0.31
100
AcDbArc
 50
205.8
 51
206.5742932043
  0
ARC
  5
2F7
100
AcDbEntity
  8
DEFAULT_1
100
AcDbCircle
 62
7
  6
CENTER
 10
5.1195263975
 20
4.9129464286
 40
0.31
100
AcDbArc
 50
154.3079466515
 51
205.6920748936
  0
ARC
  5
2F8
100
AcDbEntity
  8
DEFAULT_1
100
AcDbCircle
 62
7
  6
CENTER
 10
5.1195263975
 20
4.9129464286
 40
0.31
100
AcDbArc
 50
153.4244220111
 51
154.2612682035
  0
ARC
  5
2F9
100
AcDbEntity
  8
DEFAULT_1
100
AcDbCircle
 62
7
  6
CENTER
 10
5.1195263975
 20
4.9129464286
 40
0.31
100
AcDbArc
 50
115.7387544222
 51
116.5755779889
  0
ARC
  5
2FA
100
AcDbEntity
  8
DEFAULT_1
100
AcDbCircle
 62
7
  6
CENTER
 10
5.1195263975
 20
4.9129464286
 40
0.31
100
AcDbArc
 50
64.3079251064
 51
115.6920533485
  0
ARC
  5
2FB
100
AcDbEntity
  8
DEFAULT_1
100
AcDbCircle
 62
7
  6
CENTER
 10
5.1195263975
 20
4.9129464286
 40
0.31
100
AcDbArc
 50
63.4257067957
 51
64.2
  0
CIRCLE
  5
2FC
100
AcDbEntity
  8
ALL_FEATURES
100
AcDbCircle
 62
7
  6
CONTINUOUS
 10
5.1195263975
 20
4.9129464286
 40
0.2888793653
  0
CIRCLE
  5
2FD
100
AcDbEntity
  8
ALL_FEATURES
100
AcDbCircle
 62
7
  6
CONTINUOUS
 10
5.1195263975
 20
4.9129464286
 40
0.27175
  0
CIRCLE
  5
2FE
100
AcDbEntity
  8
ALL_FEATURES
100
AcDbCircle
 62
7
  6
CONTINUOUS
 10
5.1195263975
 20
4.9129464286
 40
0.2612448614
  0
CIRCLE
  5
2FF
100
AcDbEntity
  8
0
100
AcDbCircle
 62
7
  6
CONTINUOUS
 10
5.1195263975
 20
4.9129464286
 40
0.2353126471
  0
CIRCLE
  5
300
100
AcDbEntity
  8
0
100
AcDbCircle
 62
7
  6
CONTINUOUS
 10
5.1195263975
 20
4.9129464286
 40
0.2273655409
  0
CIRCLE
  5
301
100
AcDbEntity
  8
ALL_FEATURES
100
AcDbCircle
 62
7
  6
CONTINUOUS
 10
5.1195263975
 20
4.9129464286
 40
0.21375
  0
CIRCLE
  5
302
100
AcDbEntity
  8
ALL_FEATURES
100
AcDbCircle
 62
7
  6
CONTINUOUS
 10
5.1195263975
 20
4.9129464286
 40
0.21
  0
CIRCLE
  5
303
100
AcDbEntity
  8
ALL_FEATURES
100
AcDbCircle
 62
7
  6
CONTINUOUS
 10
5.1195263975
 20
4.9129464286
 40
0.1932589286
  0
ARC
  5
304
100
AcDbEntity
  8
ALL_ASSEMBLY_MEMBERS
100
AcDbCircle
 62
7
  6
CONTINUOUS
 10
5.1195263975
 20
5.4044464286
 40
0.14
100
AcDbArc
 50
71.446995465
 51
108.553004535
  0
ARC
  5
305
100
AcDbEntity
  8
ALL_FEATURES
100
AcDbCircle
 62
7
  6
CONTINUOUS
 10
4.9689565082
 20
5.3191354192
 40
0.125
100
AcDbArc
 50
178.0260516848
 51
270.6300714454
  0
ARC
  5
306
100
AcDbEntity
  8
ALL_ASSEMBLY_MEMBERS
100
AcDbCircle
 62
7
  6
CONTINUOUS
 10
5.0691737873
 20
5.5656288706
 40
0.085148678
100
AcDbArc
 50
346.1298365874
 51
0.1370899783
  0
ARC
  5
307
100
AcDbEntity
  8
ALL_ASSEMBLY_MEMBERS
100
AcDbCircle
 62
7
  6
CONTINUOUS
 10
5.0699434187
 20
5.5657774674
 40
0.0843788208
100
AcDbArc
 50
0.0374389167
 51
14.072051364
  0
ARC
  5
308
100
AcDbEntity
  8
ALL_ASSEMBLY_MEMBERS
100
AcDbCircle
 62
7
  6
CONTINUOUS
 10
5.0805998088
 20
5.5627925163
 40
0.0733758862
100
AcDbArc
 50
342.6639058705
 51
346.1412180969
  0
ARC
  5
309
100
AcDbEntity
  8
ALL_ASSEMBLY_MEMBERS
100
AcDbCircle
 62
7
  6
CONTINUOUS
 10
5.0845263975
 20
5.5087296966
 40
0.03
100
AcDbArc
 50
108.553004535
 51
180.0
  0
ARC
  5
30A
100
AcDbEntity
  8
ALL_FEATURES
100
AcDbCircle
 62
7
  6
CONTINUOUS
 10
4.8360354315
 20
5.3237166152
 40
0.008
100
AcDbArc
 50
358.0260516848
 51
100.3765489003
  0
ARC
  5
30B
100
AcDbEntity
  8
ALL_FEATURES
100
AcDbCircle
 62
7
  6
CONTINUOUS
 10
4.8260395106
 20
5.3343444974
 40
0.008
100
AcDbArc
 50
190.0
 51
315.0
  0
ARC
  5
30C
100
AcDbEntity
  8
ALL_FEATURES
100
AcDbCircle
 62
7
  6
CONTINUOUS
 10
5.5650036697
 20
4.4674691564
 40
0.1375
100
AcDbArc
 50
190.0
 51
80.0
  0
ARC
  5
30D
100
AcDbEntity
  8
ALL_FEATURES
100
AcDbCircle
 62
7
  6
CONTINUOUS
 10
5.5257153882
 20
4.7623765393
 40
0.125
100
AcDbArc
 50
179.3699285546
 51
271.9739483152
  0
ARC
  5
30E
100
AcDbEntity
  8
ALL_FEATURES
100
AcDbCircle
 62
7
  6
CONTINUOUS
 10
5.2700962868
 20
4.5067574379
 40
0.125
100
AcDbArc
 50
358.0260516848
 51
90.6300714454
  0
ARC
  5
30F
100
AcDbEntity
  8
ALL_FEATURES
100
AcDbCircle
 62
7
  6
CONTINUOUS
 10
5.3852238834
 20
4.7639215615
 40
0.0155
100
AcDbArc
 50
359.3699285546
 51
45.0
  0
ARC
  5
310
100
AcDbEntity
  8
ALL_FEATURES
100
AcDbCircle
 62
7
  6
CONTINUOUS
 10
5.2685512645
 20
4.6472489427
 40
0.0155
100
AcDbArc
 50
225.0
 51
270.6300714454
  0
ARC
  5
311
100
AcDbEntity
  8
ALL_FEATURES
100
AcDbCircle
 62
7
  6
CONTINUOUS
 10
5.5302965841
 20
4.6294554626
 40
0.008
100
AcDbArc
 50
349.6234510997
 51
91.9739483152
  0
ARC
  5
312
100
AcDbEntity
  8
ALL_FEATURES
100
AcDbCircle
 62
7
  6
CONTINUOUS
 10
5.4030173635
 20
4.5021762419
 40
0.008
100
AcDbArc
 50
178.0260516848
 51
280.3765489003
  0
ARC
  5
313
100
AcDbEntity
  8
ALL_FEATURES
100
AcDbCircle
 62
7
  6
CONTINUOUS
 10
5.4130132844
 20
4.4915483597
 40
0.008
100
AcDbArc
 50
10.0
 51
135.0
  0
ARC
  5
314
100
AcDbEntity
  8
ALL_FEATURES
100
AcDbCircle
 62
7
  6
CONTINUOUS
 10
5.5409244664
 20
4.6194595417
 40
0.008
100
AcDbArc
 50
135.0
 51
260.0
  0
ARC
  5
315
100
AcDbEntity
  8
ALL_FEATURES
100
AcDbCircle
 62
7
  6
CONTINUOUS
 10
5.5650036697
 20
5.3584237007
 40
0.1375
100
AcDbArc
 50
280.0
 51
170.0
  0
ARC
  5
316
100
AcDbEntity
  8
ALL_FEATURES
100
AcDbCircle
 62
7
  6
CONTINUOUS
 10
5.5257153882
 20
5.0635163178
 40
0.125
100
AcDbArc
 50
88.0260516848
 51
180.6300714454
  0
ARC
  5
317
100
AcDbEntity
  8
ALL_FEATURES
100
AcDbCircle
 62
7
  6
CONTINUOUS
 10
5.2700962868
 20
5.3191354192
 40
0.125
100
AcDbArc
 50
269.3699285546
 51
1.9739483152
  0
ARC
  5
318
100
AcDbEntity
  8
ALL_ASSEMBLY_MEMBERS
100
AcDbCircle
 62
7
  6
CONTINUOUS
 10
5.1581670227
 20
5.5664264232
 40
0.085148678
100
AcDbArc
 50
338.3348632684
 51
352.3421166593
  0
ARC
  5
319
100
AcDbEntity
  8
ALL_ASSEMBLY_MEMBERS
100
AcDbCircle
 62
7
  6
CONTINUOUS
 10
5.1589496966
 20
5.5664692628
 40
0.0843788208
100
AcDbArc
 50
352.2424655977
 51
6.2770780449
  0
ARC
  5
31A
100
AcDbEntity
  8
ALL_ASSEMBLY_MEMBERS
100
AcDbCircle
 62
7
  6
CONTINUOUS
 10
5.1522746872
 20
5.5618566585
 40
0.0684644688
100
AcDbArc
 50
194.0573402213
 51
198.0570357916
  0
ARC
  5
31B
100
AcDbEntity
  8
ALL_ASSEMBLY_MEMBERS
100
AcDbCircle
 62
7
  6
CONTINUOUS
 10
5.2091434553
 20
5.5366022969
 40
0.0335481761
100
AcDbArc
 50
221.3628448018
 51
228.187488435
  0
ARC
  5
31C
100
AcDbEntity
  8
ALL_ASSEMBLY_MEMBERS
100
AcDbCircle
 62
7
  6
CONTINUOUS
 10
5.1545263975
 20
5.5087296966
 40
0.03
100
AcDbArc
 50
0.0
 51
71.446995465
  0
ARC
  5
31D
100
AcDbEntity
  8
ALL_ASSEMBLY_MEMBERS
100
AcDbCircle
 62
7
  6
CONTINUOUS
 10
5.8116170913
 20
5.0591525598
 40
0.0236979793
100
AcDbArc
 50
184.6268714297
 51
191.0701971531
  0
ARC
  5
31E
100
AcDbEntity
  8
ALL_FEATURES
100
AcDbCircle
 62
7
  6
CONTINUOUS
 10
5.2685512645
 20
5.1786439145
 40
0.0155
100
AcDbArc
 50
89.3699285546
 51
135.0
  0
ARC
  5
31F
100
AcDbEntity
  8
ALL_FEATURES
100
AcDbCircle
 62
7
  6
CONTINUOUS
 10
5.3852238834
 20
5.0619712956
 40
0.0155
100
AcDbArc
 50
315.0
 51
0.6300714454
  0
ARC
  5
320
100
AcDbEntity
  8
ALL_FEATURES
100
AcDbCircle
 62
7
  6
CONTINUOUS
 10
5.4030173635
 20
5.3237166152
 40
0.008
100
AcDbArc
 50
79.6234510997
 51
181.9739483152
  0
ARC
  5
321
100
AcDbEntity
  8
ALL_FEATURES
100
AcDbCircle
 62
7
  6
CONTINUOUS
 10
5.5302965841
 20
5.1964373946
 40
0.008
100
AcDbArc
 50
268.0260516848
 51
10.3765489003
  0
ARC
  5
322
100
AcDbEntity
  8
ALL_FEATURES
100
AcDbCircle
 62
7
  6
CONTINUOUS
 10
5.4130132844
 20
5.3343444974
 40
0.008
100
AcDbArc
 50
225.0
 51
350.0
  0
ARC
  5
323
100
AcDbEntity
  8
ALL_FEATURES
100
AcDbCircle
 62
7
  6
CONTINUOUS
 10
5.5409244664
 20
5.2064333155
 40
0.008
100
AcDbArc
 50
100.0
 51
225.0
  0
LINE
  5
324
100
AcDbEntity
  8
ALL_FEATURES
100
AcDbLine
 62
7
  6
CONTINUOUS
 10
5.2572899624
 20
4.6365398441
 11
5.2576452105
 21
4.6368515769
  0
SPLINE
  5
325
100
AcDbEntity
  8
ALL_FEATURES
100
AcDbSpline
 62
7
  6
CONTINUOUS
 70
0
 71
3
 72
13
 73
9
 74
0
 42
0.0000001
 43
0.0000001
 44
0.0000000001
 40
0.0
 40
0.0
 40
0.0
 40
0.0
 40
0.1919030882
 40
0.3393570512
 40
0.5026530514
 40
0.6655720708
 40
0.8119346402
 40
1.0
 40
1.0
 40
1.0
 40
1.0
 10
5.2576452105
 20
4.6368515769
 30
0.0
 10
5.267053803
 20
4.6451102608
 30
0.0
 10
5.2835187984
 20
4.6599135328
 30
0.0
 10
5.3074152512
 20
4.6823712174
 30
0.0
 10
5.3294933569
 20
4.7039942268
 30
0.0
 10
5.3510447535
 20
4.7260427591
 30
0.0
 10
5.3732446489
 20
4.7497063791
 30
0.0
 10
5.387824341
 20
4.7659397629
 30
0.0
 10
5.395915173
 20
4.7751625627
 30
0.0
  0
SPLINE
  5
326
100
AcDbEntity
  8
0
100
AcDbSpline
 62
7
  6
CONTINUOUS
 70
0
 71
3
 72
10
 73
6
 74
0
 42
0.0000001
 43
0.0000001
 44
0.0000000001
 40
0.0
 40
0.0
 40
0.0
 40
0.0
 40
0.3273206879
 40
0.6217347341
 40
1.0
 40
1.0
 40
1.0
 40
1.0
 10
4.910148707
 20
4.7035687381
 30
0.0
 10
4.9177158161
 20
4.6960016289
 30
0.0
 10
4.9322476053
 20
4.6817853603
 30
0.0
 10
4.9560867333
 20
4.6594086094
 30
0.0
 10
4.9724497858
 20
4.6447099794
 30
0.0
 10
4.9817464879
 20
4.6365542093
 30
0.0
  0
LINE
  5
327
100
AcDbEntity
  8
0
100
AcDbLine
 62
7
  6
CONTINUOUS
 10
4.9817464879
 20
4.6365542093
 11
4.9818641583
 21
4.6364509905
  0
SPLINE
  5
328
100
AcDbEntity
  8
ALL_FEATURES
100
AcDbSpline
 62
7
  6
CONTINUOUS
 70
0
 71
3
 72
10
 73
6
 74
0
 42
0.0000001
 43
0.0000001
 44
0.0000000001
 40
0.0
 40
0.0
 40
0.0
 40
0.0
 40
0.3784456684
 40
0.6727952305
 40
1.0
 40
1.0
 40
1.0
 40
1.0
 10
5.3959031056
 20
5.0507440196
 30
0.0
 10
5.3877452608
 20
5.0600428008
 30
0.0
 10
5.3730473301
 20
5.0764044875
 30
0.0
 10
5.3506755317
 20
5.1002375086
 30
0.0
 10
5.3364667034
 20
5.1147615037
 30
0.0
 10
5.328904088
 20
5.1223241191
 30
0.0
  0
LINE
  5
329
100
AcDbEntity
  8
0
100
AcDbLine
 62
7
  6
CONTINUOUS
 10
4.9817628326
 20
5.1893530131
 11
4.9814075845
 21
5.1890412802
  0
SPLINE
  5
32A
100
AcDbEntity
  8
0
100
AcDbSpline
 62
7
  6
CONTINUOUS
 70
0
 71
3
 72
13
 73
9
 74
0
 42
0.0000001
 43
0.0000001
 44
0.0000000001
 40
0.0
 40
0.0
 40
0.0
 40
0.0
 40
0.1919030882
 40
0.3393570512
 40
0.5026530514
 40
0.6655720708
 40
0.8119346402
 40
1.0
 40
1.0
 40
1.0
 40
1.0
 10
4.9814075845
 20
5.1890412802
 30
0.0
 10
4.971998992
 20
5.1807825964
 30
0.0
 10
4.9555339966
 20
5.1659793244
 30
0.0
 10
4.9316375438
 20
5.1435216397
 30
0.0
 10
4.9095594381
 20
5.1218986303
 30
0.0
 10
4.8880080416
 20
5.0998500981
 30
0.0
 10
4.8658081461
 20
5.076186478
 30
0.0
 10
4.851228454
 20
5.0599530942
 30
0.0
 10
4.843137622
 20
5.0507302944
 30
0.0
  0
SPLINE
  5
32B
100
AcDbEntity
  8
ALL_FEATURES
100
AcDbSpline
 62
7
  6
CONTINUOUS
 70
0
 71
3
 72
10
 73
6
 74
0
 42
0.0000001
 43
0.0000001
 44
0.0000000001
 40
0.0
 40
0.0
 40
0.0
 40
0.0
 40
0.3273206879
 40
0.6217347341
 40
1.0
 40
1.0
 40
1.0
 40
1.0
 10
5.328904088
 20
5.1223241191
 30
0.0
 10
5.3213369789
 20
5.1298912282
 30
0.0
 10
5.3068051897
 20
5.1441074969
 30
0.0
 10
5.2829660617
 20
5.1664842477
 30
0.0
 10
5.2666030092
 20
5.1811828777
 30
0.0
 10
5.2573063071
 20
5.1893386478
 30
0.0
  0
LINE
  5
32C
100
AcDbEntity
  8
ALL_FEATURES
100
AcDbLine
 62
7
  6
CONTINUOUS
 10
5.2573063071
 20
5.1893386478
 11
5.2571886367
 21
5.1894418667
  0
SPLINE
  5
32D
100
AcDbEntity
  8
0
100
AcDbSpline
 62
7
  6
CONTINUOUS
 70
0
 71
3
 72
10
 73
6
 74
0
 42
0.0000001
 43
0.0000001
 44
0.0000000001
 40
0.0
 40
0.0
 40
0.0
 40
0.0
 40
0.3784456684
 40
0.6727952305
 40
1.0
 40
1.0
 40
1.0
 40
1.0
 10
4.8431496894
 20
4.7751488376
 30
0.0
 10
4.8513075342
 20
4.7658500564
 30
0.0
 10
4.866005465
 20
4.7494883696
 30
0.0
 10
4.8883772633
 20
4.7256553485
 30
0.0
 10
4.9025860916
 20
4.7111313534
 30
0.0
 10
4.910148707
 20
4.7035687381
 30
0.0
  0
SPLINE
  5
32E
100
AcDbEntity
  8
ALL_ASSEMBLY_MEMBERS
100
AcDbSpline
 62
7
  6
CONTINUOUS
 70
0
 71
3
 72
8
 73
4
 74
0
 42
0.0000001
 43
0.0000001
 44
0.0000000001
 40
0.0
 40
0.0
 40
0.0
 40
0.0
 40
1.0
 40
1.0
 40
1.0
 40
1.0
 10
5.0258811783
 20
5.5080922339
 30
0.0
 10
5.0276803764
 20
5.5096764269
 30
0.0
 10
5.0289276181
 20
5.5114844195
 30
0.0
 10
5.0297158519
 20
5.5133796513
 30
0.0
  0
SPLINE
  5
32F
100
AcDbEntity
  8
ALL_ASSEMBLY_MEMBERS
100
AcDbSpline
 62
7
  6
CONTINUOUS
 70
0
 71
3
 72
8
 73
4
 74
0
 42
0.0000001
 43
0.0000001
 44
0.0000000001
 40
0.0
 40
0.0
 40
0.0
 40
0.0
 40
1.0
 40
1.0
 40
1.0
 40
1.0
 10
5.0297158519
 20
5.5133796513
 30
0.0
 10
5.0305040853
 20
5.5152748821
 30
0.0
 10
5.0307502291
 20
5.5173206992
 30
0.0
 10
5.0304740139
 20
5.5193706771
 30
0.0
  0
SPLINE
  5
330
100
AcDbEntity
  8
ALL_ASSEMBLY_MEMBERS
100
AcDbSpline
 62
7
  6
CONTINUOUS
 70
0
 71
3
 72
8
 73
4
 74
0
 42
0.0000001
 43
0.0000001
 44
0.0000000001
 40
0.0
 40
0.0
 40
0.0
 40
0.0
 40
1.0
 40
1.0
 40
1.0
 40
1.0
 10
5.0206881092
 20
5.5919984474
 30
0.0
 10
5.0201652738
 20
5.5958787601
 30
0.0
 10
5.0192680519
 20
5.5986650314
 30
0.0
 10
5.0180195218
 20
5.6004108191
 30
0.0
  0
SPLINE
  5
331
100
AcDbEntity
  8
ALL_ASSEMBLY_MEMBERS
100
AcDbSpline
 62
7
  6
CONTINUOUS
 70
0
 71
3
 72
8
 73
4
 74
0
 42
0.0000001
 43
0.0000001
 44
0.0000000001
 40
0.0
 40
0.0
 40
0.0
 40
0.0
 40
1.0
 40
1.0
 40
1.0
 40
1.0
 10
5.0180195218
 20
5.6004108191
 30
0.0
 10
5.0167881804
 20
5.6021325725
 30
0.0
 10
5.0148971099
 20
5.6034431633
 30
0.0
 10
5.0122500139
 20
5.6042791747
 30
0.0
  0
SPLINE
  5
332
100
AcDbEntity
  8
ALL_ASSEMBLY_MEMBERS
100
AcDbSpline
 62
7
  6
CONTINUOUS
 70
0
 71
3
 72
8
 73
4
 74
0
 42
0.0000001
 43
0.0000001
 44
0.0000000001
 40
0.0
 40
0.0
 40
0.0
 40
0.0
 40
1.0
 40
1.0
 40
1.0
 40
1.0
 10
5.0122500139
 20
5.6042791747
 30
0.0
 10
5.014719543
 20
5.6047610066
 30
0.0
 10
5.0170961293
 20
5.6053793948
 30
0.0
 10
5.0195160249
 20
5.6062742148
 30
0.0
  0
SPLINE
  5
333
100
AcDbEntity
  8
ALL_ASSEMBLY_MEMBERS
100
AcDbSpline
 62
7
  6
CONTINUOUS
 70
0
 71
3
 72
8
 73
4
 74
0
 42
0.0000001
 43
0.0000001
 44
0.0000000001
 40
0.0
 40
0.0
 40
0.0
 40
0.0
 40
1.0
 40
1.0
 40
1.0
 40
1.0
 10
5.0195160249
 20
5.6062742148
 30
0.0
 10
5.0218534603
 20
5.6071385429
 30
0.0
 10
5.0240976435
 20
5.6081863495
 30
0.0
 10
5.026322096
 20
5.6093805904
 30
0.0
  0
SPLINE
  5
334
100
AcDbEntity
  8
ALL_ASSEMBLY_MEMBERS
100
AcDbSpline
 62
7
  6
CONTINUOUS
 70
0
 71
3
 72
8
 73
4
 74
0
 42
0.0000001
 43
0.0000001
 44
0.0000000001
 40
0.0
 40
0.0
 40
0.0
 40
0.0
 40
1.0
 40
1.0
 40
1.0
 40
1.0
 10
5.0384065049
 20
5.5196940778
 30
0.0
 10
5.0386629902
 20
5.5177905275
 30
0.0
 10
5.0392559472
 20
5.5161559421
 30
0.0
 10
5.0402341949
 20
5.5148625293
 30
0.0
  0
SPLINE
  5
335
100
AcDbEntity
  8
ALL_ASSEMBLY_MEMBERS
100
AcDbSpline
 62
7
  6
CONTINUOUS
 70
0
 71
3
 72
8
 73
4
 74
0
 42
0.0000001
 43
0.0000001
 44
0.0000000001
 40
0.0
 40
0.0
 40
0.0
 40
0.0
 40
1.0
 40
1.0
 40
1.0
 40
1.0
 10
5.0402341949
 20
5.5148625293
 30
0.0
 10
5.0412513742
 20
5.5135176423
 30
0.0
 10
5.0429960171
 20
5.5121873205
 30
0.0
 10
5.0454291762
 20
5.5107261416
 30
0.0
  0
SPLINE
  5
336
100
AcDbEntity
  8
ALL_ASSEMBLY_MEMBERS
100
AcDbSpline
 62
7
  6
CONTINUOUS
 70
0
 71
3
 72
8
 73
4
 74
0
 42
0.0000001
 43
0.0000001
 44
0.0000000001
 40
0.0
 40
0.0
 40
0.0
 40
0.0
 40
1.0
 40
1.0
 40
1.0
 40
1.0
 10
5.0898191135
 20
5.5412521718
 30
0.0
 10
5.0873453185
 20
5.5486770634
 30
0.0
 10
5.0861444436
 20
5.5568436257
 30
0.0
 10
5.086135558
 20
5.5657646877
 30
0.0
  0
SPLINE
  5
337
100
AcDbEntity
  8
ALL_ASSEMBLY_MEMBERS
100
AcDbSpline
 62
7
  6
CONTINUOUS
 70
0
 71
3
 72
8
 73
4
 74
0
 42
0.0000001
 43
0.0000001
 44
0.0000000001
 40
0.0
 40
0.0
 40
0.0
 40
0.0
 40
1.0
 40
1.0
 40
1.0
 40
1.0
 10
5.086135558
 20
5.5657646877
 30
0.0
 10
5.0861254038
 20
5.5759594473
 30
0.0
 10
5.087519977
 20
5.5850474766
 30
0.0
 10
5.090434562
 20
5.5929669459
 30
0.0
  0
SPLINE
  5
338
100
AcDbEntity
  8
ALL_ASSEMBLY_MEMBERS
100
AcDbSpline
 62
7
  6
CONTINUOUS
 70
0
 71
3
 72
8
 73
4
 74
0
 42
0.0000001
 43
0.0000001
 44
0.0000000001
 40
0.0
 40
0.0
 40
0.0
 40
0.0
 40
1.0
 40
1.0
 40
1.0
 40
1.0
 10
5.090434562
 20
5.5929669459
 30
0.0
 10
5.0933403617
 20
5.6008625441
 30
0.0
 10
5.0975449114
 20
5.6072199941
 30
0.0
 10
5.1030068056
 20
5.6121011927
 30
0.0
  0
SPLINE
  5
339
100
AcDbEntity
  8
ALL_ASSEMBLY_MEMBERS
100
AcDbSpline
 62
7
  6
CONTINUOUS
 70
0
 71
3
 72
8
 73
4
 74
0
 42
0.0000001
 43
0.0000001
 44
0.0000000001
 40
0.0
 40
0.0
 40
0.0
 40
0.0
 40
1.0
 40
1.0
 40
1.0
 40
1.0
 10
5.1030068056
 20
5.6121011927
 30
0.0
 10
5.0999088391
 20
5.6072962275
 30
0.0
 10
5.0976983281
 20
5.6015317611
 30
0.0
 10
5.0963013962
 20
5.5948077327
 30
0.0
  0
SPLINE
  5
33A
100
AcDbEntity
  8
ALL_ASSEMBLY_MEMBERS
100
AcDbSpline
 62
7
  6
CONTINUOUS
 70
0
 71
3
 72
8
 73
4
 74
0
 42
0.0000001
 43
0.0000001
 44
0.0000000001
 40
0.0
 40
0.0
 40
0.0
 40
0.0
 40
1.0
 40
1.0
 40
1.0
 40
1.0
 10
5.0963013962
 20
5.5948077327
 30
0.0
 10
5.0949044659
 20
5.5880837118
 30
0.0
 10
5.0942479784
 20
5.5796612941
 30
0.0
 10
5.094258059
 20
5.5695404066
 30
0.0
  0
SPLINE
  5
33B
100
AcDbEntity
  8
ALL_ASSEMBLY_MEMBERS
100
AcDbSpline
 62
7
  6
CONTINUOUS
 70
0
 71
3
 72
8
 73
4
 74
0
 42
0.0000001
 43
0.0000001
 44
0.0000000001
 40
0.0
 40
0.0
 40
0.0
 40
0.0
 40
1.0
 40
1.0
 40
1.0
 40
1.0
 10
5.094258059
 20
5.5695404066
 30
0.0
 10
5.0942683596
 20
5.5591987509
 30
0.0
 10
5.0948196676
 20
5.5501833216
 30
0.0
 10
5.0959944658
 20
5.5424352415
 30
0.0
  0
SPLINE
  5
33C
100
AcDbEntity
  8
ALL_ASSEMBLY_MEMBERS
100
AcDbSpline
 62
7
  6
CONTINUOUS
 70
0
 71
3
 72
8
 73
4
 74
0
 42
0.0000001
 43
0.0000001
 44
0.0000000001
 40
0.0
 40
0.0
 40
0.0
 40
0.0
 40
1.0
 40
1.0
 40
1.0
 40
1.0
 10
5.1020586522
 20
5.5433297156
 30
0.0
 10
5.101693117
 20
5.5495906149
 30
0.0
 10
5.1015102406
 20
5.5570712276
 30
0.0
 10
5.1015015664
 20
5.5657799926
 30
0.0
  0
SPLINE
  5
33D
100
AcDbEntity
  8
ALL_ASSEMBLY_MEMBERS
100
AcDbSpline
 62
7
  6
CONTINUOUS
 70
0
 71
3
 72
8
 73
4
 74
0
 42
0.0000001
 43
0.0000001
 44
0.0000000001
 40
0.0
 40
0.0
 40
0.0
 40
0.0
 40
1.0
 40
1.0
 40
1.0
 40
1.0
 10
5.1015015664
 20
5.5657799926
 30
0.0
 10
5.1014790505
 20
5.5883857558
 30
0.0
 10
5.1026467028
 20
5.6027925705
 30
0.0
 10
5.1051522781
 20
5.6090005757
 30
0.0
  0
SPLINE
  5
33E
100
AcDbEntity
  8
ALL_ASSEMBLY_MEMBERS
100
AcDbSpline
 62
7
  6
CONTINUOUS
 70
0
 71
3
 72
8
 73
4
 74
0
 42
0.0000001
 43
0.0000001
 44
0.0000000001
 40
0.0
 40
0.0
 40
0.0
 40
0.0
 40
1.0
 40
1.0
 40
1.0
 40
1.0
 10
5.1051522781
 20
5.6090005757
 30
0.0
 10
5.1076578521
 20
5.6152085775
 30
0.0
 10
5.1121611281
 20
5.6183158218
 30
0.0
 10
5.1187360071
 20
5.6183223705
 30
0.0
  0
SPLINE
  5
33F
100
AcDbEntity
  8
ALL_ASSEMBLY_MEMBERS
100
AcDbSpline
 62
7
  6
CONTINUOUS
 70
0
 71
3
 72
8
 73
4
 74
0
 42
0.0000001
 43
0.0000001
 44
0.0000000001
 40
0.0
 40
0.0
 40
0.0
 40
0.0
 40
1.0
 40
1.0
 40
1.0
 40
1.0
 10
5.1187360071
 20
5.6183223705
 30
0.0
 10
5.1226513961
 20
5.6183262703
 30
0.0
 10
5.1259770193
 20
5.6170737021
 30
0.0
 10
5.1286204751
 20
5.6146187305
 30
0.0
  0
SPLINE
  5
340
100
AcDbEntity
  8
ALL_ASSEMBLY_MEMBERS
100
AcDbSpline
 62
7
  6
CONTINUOUS
 70
0
 71
3
 72
8
 73
4
 74
0
 42
0.0000001
 43
0.0000001
 44
0.0000000001
 40
0.0
 40
0.0
 40
0.0
 40
0.0
 40
1.0
 40
1.0
 40
1.0
 40
1.0
 10
5.1286204751
 20
5.6146187305
 30
0.0
 10
5.1313009555
 20
5.6121293743
 30
0.0
 10
5.1331512166
 20
5.6087329628
 30
0.0
 10
5.1339969215
 20
5.6043667621
 30
0.0
  0
SPLINE
  5
341
100
AcDbEntity
  8
ALL_ASSEMBLY_MEMBERS
100
AcDbSpline
 62
7
  6
CONTINUOUS
 70
0
 71
3
 72
8
 73
4
 74
0
 42
0.0000001
 43
0.0000001
 44
0.0000000001
 40
0.0
 40
0.0
 40
0.0
 40
0.0
 40
1.0
 40
1.0
 40
1.0
 40
1.0
 10
5.1339969215
 20
5.6043667621
 30
0.0
 10
5.1347106116
 20
5.6006821266
 30
0.0
 10
5.1352333287
 20
5.5950681402
 30
0.0
 10
5.1355715419
 20
5.5876793392
 30
0.0
  0
SPLINE
  5
342
100
AcDbEntity
  8
ALL_ASSEMBLY_MEMBERS
100
AcDbSpline
 62
7
  6
CONTINUOUS
 70
0
 71
3
 72
8
 73
4
 74
0
 42
0.0000001
 43
0.0000001
 44
0.0000000001
 40
0.0
 40
0.0
 40
0.0
 40
0.0
 40
1.0
 40
1.0
 40
1.0
 40
1.0
 10
5.1355715419
 20
5.5876793392
 30
0.0
 10
5.1359129877
 20
5.5802199189
 30
0.0
 10
5.13614425
 20
5.5705425048
 30
0.0
 10
5.1361561701
 20
5.5585747475
 30
0.0
  0
SPLINE
  5
343
100
AcDbEntity
  8
ALL_ASSEMBLY_MEMBERS
100
AcDbSpline
 62
7
  6
CONTINUOUS
 70
0
 71
3
 72
8
 73
4
 74
0
 42
0.0000001
 43
0.0000001
 44
0.0000000001
 40
0.0
 40
0.0
 40
0.0
 40
0.0
 40
1.0
 40
1.0
 40
1.0
 40
1.0
 10
5.1361561701
 20
5.5585747475
 30
0.0
 10
5.1361617541
 20
5.5529685077
 30
0.0
 10
5.1360338119
 20
5.5479382616
 30
0.0
 10
5.1357770149
 20
5.543484014
 30
0.0
  0
SPLINE
  5
344
100
AcDbEntity
  8
ALL_ASSEMBLY_MEMBERS
100
AcDbSpline
 62
7
  6
CONTINUOUS
 70
0
 71
3
 72
8
 73
4
 74
0
 42
0.0000001
 43
0.0000001
 44
0.0000000001
 40
0.0
 40
0.0
 40
0.0
 40
0.0
 40
1.0
 40
1.0
 40
1.0
 40
1.0
 10
5.1854305484
 20
5.5165438969
 30
0.0
 10
5.1807631402
 20
5.5222477677
 30
0.0
 10
5.1775391165
 20
5.5292465932
 30
0.0
 10
5.1757121931
 20
5.5375300306
 30
0.0
  0
SPLINE
  5
345
100
AcDbEntity
  8
ALL_ASSEMBLY_MEMBERS
100
AcDbSpline
 62
7
  6
CONTINUOUS
 70
0
 71
3
 72
8
 73
4
 74
0
 42
0.0000001
 43
0.0000001
 44
0.0000000001
 40
0.0
 40
0.0
 40
0.0
 40
0.0
 40
1.0
 40
1.0
 40
1.0
 40
1.0
 10
5.1757121931
 20
5.5375300306
 30
0.0
 10
5.1738946587
 20
5.5457708969
 30
0.0
 10
5.1736874755
 20
5.5546709672
 30
0.0
 10
5.1749904895
 20
5.5642604823
 30
0.0
  0
SPLINE
  5
346
100
AcDbEntity
  8
ALL_ASSEMBLY_MEMBERS
100
AcDbSpline
 62
7
  6
CONTINUOUS
 70
0
 71
3
 72
8
 73
4
 74
0
 42
0.0000001
 43
0.0000001
 44
0.0000000001
 40
0.0
 40
0.0
 40
0.0
 40
0.0
 40
1.0
 40
1.0
 40
1.0
 40
1.0
 10
5.1749904895
 20
5.5642604823
 30
0.0
 10
5.1763631306
 20
5.574362417
 30
0.0
 10
5.1789774083
 20
5.5831773273
 30
0.0
 10
5.1829391687
 20
5.5906283175
 30
0.0
  0
SPLINE
  5
347
100
AcDbEntity
  8
ALL_ASSEMBLY_MEMBERS
100
AcDbSpline
 62
7
  6
CONTINUOUS
 70
0
 71
3
 72
8
 73
4
 74
0
 42
0.0000001
 43
0.0000001
 44
0.0000000001
 40
0.0
 40
0.0
 40
0.0
 40
0.0
 40
1.0
 40
1.0
 40
1.0
 40
1.0
 10
5.1829391687
 20
5.5906283175
 30
0.0
 10
5.1868889874
 20
5.5980568486
 30
0.0
 10
5.1919169384
 20
5.6037852968
 30
0.0
 10
5.1979903936
 20
5.6078806024
 30
0.0
  0
SPLINE
  5
348
100
AcDbEntity
  8
ALL_ASSEMBLY_MEMBERS
100
AcDbSpline
 62
7
  6
CONTINUOUS
 70
0
 71
3
 72
8
 73
4
 74
0
 42
0.0000001
 43
0.0000001
 44
0.0000000001
 40
0.0
 40
0.0
 40
0.0
 40
0.0
 40
1.0
 40
1.0
 40
1.0
 40
1.0
 10
5.1979903936
 20
5.6078806024
 30
0.0
 10
5.1942693622
 20
5.6035402094
 30
0.0
 10
5.1912974435
 20
5.5981288177
 30
0.0
 10
5.1890014527
 20
5.5916563864
 30
0.0
  0
SPLINE
  5
349
100
AcDbEntity
  8
ALL_ASSEMBLY_MEMBERS
100
AcDbSpline
 62
7
  6
CONTINUOUS
 70
0
 71
3
 72
8
 73
4
 74
0
 42
0.0000001
 43
0.0000001
 44
0.0000000001
 40
0.0
 40
0.0
 40
0.0
 40
0.0
 40
1.0
 40
1.0
 40
1.0
 40
1.0
 10
5.1890014527
 20
5.5916563864
 30
0.0
 10
5.1867054631
 20
5.5851839586
 30
0.0
 10
5.184912727
 20
5.5769284039
 30
0.0
 10
5.1835500322
 20
5.5668996688
 30
0.0
  0
SPLINE
  5
34A
100
AcDbEntity
  8
ALL_ASSEMBLY_MEMBERS
100
AcDbSpline
 62
7
  6
CONTINUOUS
 70
0
 71
3
 72
8
 73
4
 74
0
 42
0.0000001
 43
0.0000001
 44
0.0000000001
 40
0.0
 40
0.0
 40
0.0
 40
0.0
 40
1.0
 40
1.0
 40
1.0
 40
1.0
 10
5.1835500322
 20
5.5668996688
 30
0.0
 10
5.1820082985
 20
5.5555532995
 30
0.0
 10
5.1813442065
 20
5.5457278596
 30
0.0
 10
5.1816578595
 20
5.5373289773
 30
0.0
  0
SPLINE
  5
34B
100
AcDbEntity
  8
ALL_ASSEMBLY_MEMBERS
100
AcDbSpline
 62
7
  6
CONTINUOUS
 70
0
 71
3
 72
8
 73
4
 74
0
 42
0.0000001
 43
0.0000001
 44
0.0000000001
 40
0.0
 40
0.0
 40
0.0
 40
0.0
 40
1.0
 40
1.0
 40
1.0
 40
1.0
 10
5.1816578595
 20
5.5373289773
 30
0.0
 10
5.1819710453
 20
5.5289426028
 30
0.0
 10
5.1831987162
 20
5.5220659318
 30
0.0
 10
5.1854305484
 20
5.5165438969
 30
0.0
  0
SPLINE
  5
34C
100
AcDbEntity
  8
ALL_ASSEMBLY_MEMBERS
100
AcDbSpline
 62
7
  6
CONTINUOUS
 70
0
 71
3
 72
8
 73
4
 74
0
 42
0.0000001
 43
0.0000001
 44
0.0000000001
 40
0.0
 40
0.0
 40
0.0
 40
0.0
 40
1.0
 40
1.0
 40
1.0
 40
1.0
 10
5.2002937494
 20
5.5079635521
 30
0.0
 10
5.1937787358
 20
5.5088488058
 30
0.0
 10
5.1897212142
 20
5.5124568498
 30
0.0
 10
5.1880678516
 20
5.5189440411
 30
0.0
  0
SPLINE
  5
34D
100
AcDbEntity
  8
ALL_ASSEMBLY_MEMBERS
100
AcDbSpline
 62
7
  6
CONTINUOUS
 70
0
 71
3
 72
8
 73
4
 74
0
 42
0.0000001
 43
0.0000001
 44
0.0000000001
 40
0.0
 40
0.0
 40
0.0
 40
0.0
 40
1.0
 40
1.0
 40
1.0
 40
1.0
 10
5.1880678516
 20
5.5189440411
 30
0.0
 10
5.1864144904
 20
5.5254312269
 30
0.0
 10
5.1871729
 20
5.5397916417
 30
0.0
 10
5.1902165814
 20
5.5621915757
 30
0.0
  0
SPLINE
  5
34E
100
AcDbEntity
  8
ALL_ASSEMBLY_MEMBERS
100
AcDbSpline
 62
7
  6
CONTINUOUS
 70
0
 71
3
 72
8
 73
4
 74
0
 42
0.0000001
 43
0.0000001
 44
0.0000000001
 40
0.0
 40
0.0
 40
0.0
 40
0.0
 40
1.0
 40
1.0
 40
1.0
 40
1.0
 10
5.1902165814
 20
5.5621915757
 30
0.0
 10
5.1932602627
 20
5.5845915096
 30
0.0
 10
5.1963711089
 20
5.5987068336
 30
0.0
 10
5.1996955116
 20
5.6045176469
 30
0.0
  0
SPLINE
  5
34F
100
AcDbEntity
  8
ALL_ASSEMBLY_MEMBERS
100
AcDbSpline
 62
7
  6
CONTINUOUS
 70
0
 71
3
 72
8
 73
4
 74
0
 42
0.0000001
 43
0.0000001
 44
0.0000000001
 40
0.0
 40
0.0
 40
0.0
 40
0.0
 40
1.0
 40
1.0
 40
1.0
 40
1.0
 10
5.1996955116
 20
5.6045176469
 30
0.0
 10
5.2030199137
 20
5.6103284591
 30
0.0
 10
5.2079030096
 20
5.6127962183
 30
0.0
 10
5.2144180232
 20
5.6119109646
 30
0.0
  0
SPLINE
  5
350
100
AcDbEntity
  8
ALL_ASSEMBLY_MEMBERS
100
AcDbSpline
 62
7
  6
CONTINUOUS
 70
0
 71
3
 72
8
 73
4
 74
0
 42
0.0000001
 43
0.0000001
 44
0.0000000001
 40
0.0
 40
0.0
 40
0.0
 40
0.0
 40
1.0
 40
1.0
 40
1.0
 40
1.0
 10
5.2144180232
 20
5.6119109646
 30
0.0
 10
5.218297762
 20
5.6113837894
 30
0.0
 10
5.2214227714
 20
5.6096917455
 30
0.0
 10
5.2237088365
 20
5.6069009301
 30
0.0
  0
SPLINE
  5
351
100
AcDbEntity
  8
ALL_ASSEMBLY_MEMBERS
100
AcDbSpline
 62
7
  6
CONTINUOUS
 70
0
 71
3
 72
8
 73
4
 74
0
 42
0.0000001
 43
0.0000001
 44
0.0000000001
 40
0.0
 40
0.0
 40
0.0
 40
0.0
 40
1.0
 40
1.0
 40
1.0
 40
1.0
 10
5.2237088365
 20
5.6069009301
 30
0.0
 10
5.2260269205
 20
5.6040710263
 30
0.0
 10
5.2273994341
 20
5.60045505
 30
0.0
 10
5.2276451425
 20
5.5960144923
 30
0.0
  0
SPLINE
  5
352
100
AcDbEntity
  8
ALL_ASSEMBLY_MEMBERS
100
AcDbSpline
 62
7
  6
CONTINUOUS
 70
0
 71
3
 72
8
 73
4
 74
0
 42
0.0000001
 43
0.0000001
 44
0.0000000001
 40
0.0
 40
0.0
 40
0.0
 40
0.0
 40
1.0
 40
1.0
 40
1.0
 40
1.0
 10
5.2276451425
 20
5.5960144923
 30
0.0
 10
5.2278524958
 20
5.5922671069
 30
0.0
 10
5.2276089524
 20
5.5866341016
 30
0.0
 10
5.2269419138
 20
5.5792677019
 30
0.0
  0
SPLINE
  5
353
100
AcDbEntity
  8
ALL_ASSEMBLY_MEMBERS
100
AcDbSpline
 62
7
  6
CONTINUOUS
 70
0
 71
3
 72
8
 73
4
 74
0
 42
0.0000001
 43
0.0000001
 44
0.0000000001
 40
0.0
 40
0.0
 40
0.0
 40
0.0
 40
1.0
 40
1.0
 40
1.0
 40
1.0
 10
5.2269419138
 20
5.5792677019
 30
0.0
 10
5.2262685
 20
5.5718308987
 30
0.0
 10
5.2251851037
 20
5.5622115389
 30
0.0
 10
5.2235737429
 20
5.5503527499
 30
0.0
  0
SPLINE
  5
354
100
AcDbEntity
  8
ALL_ASSEMBLY_MEMBERS
100
AcDbSpline
 62
7
  6
CONTINUOUS
 70
0
 71
3
 72
8
 73
4
 74
0
 42
0.0000001
 43
0.0000001
 44
0.0000000001
 40
0.0
 40
0.0
 40
0.0
 40
0.0
 40
1.0
 40
1.0
 40
1.0
 40
1.0
 10
5.2235737429
 20
5.5503527499
 30
0.0
 10
5.221186542
 20
5.5327841749
 30
0.0
 10
5.2182575371
 20
5.5211044245
 30
0.0
 10
5.2149331334
 20
5.515293608
 30
0.0
  0
SPLINE
  5
355
100
AcDbEntity
  8
ALL_ASSEMBLY_MEMBERS
100
AcDbSpline
 62
7
  6
CONTINUOUS
 70
0
 71
3
 72
8
 73
4
 74
0
 42
0.0000001
 43
0.0000001
 44
0.0000000001
 40
0.0
 40
0.0
 40
0.0
 40
0.0
 40
1.0
 40
1.0
 40
1.0
 40
1.0
 10
5.2149331334
 20
5.515293608
 30
0.0
 10
5.2116087317
 20
5.5094827951
 30
0.0
 10
5.20673557
 20
5.5070882437
 30
0.0
 10
5.2002937494
 20
5.5079635521
 30
0.0
  0
SPLINE
  5
356
100
AcDbEntity
  8
ALL_ASSEMBLY_MEMBERS
100
AcDbSpline
 62
7
  6
CONTINUOUS
 70
0
 71
3
 72
8
 73
4
 74
0
 42
0.0000001
 43
0.0000001
 44
0.0000000001
 40
0.0
 40
0.0
 40
0.0
 40
0.0
 40
1.0
 40
1.0
 40
1.0
 40
1.0
 10
5.0274676243
 20
5.522320014
 30
0.0
 10
5.0280496489
 20
5.5180004188
 30
0.0
 10
5.027405229
 20
5.5144846269
 30
0.0
 10
5.025700879
 20
5.5117798123
 30
0.0
  0
SPLINE
  5
357
100
AcDbEntity
  8
ALL_ASSEMBLY_MEMBERS
100
AcDbSpline
 62
7
  6
CONTINUOUS
 70
0
 71
3
 72
8
 73
4
 74
0
 42
0.0000001
 43
0.0000001
 44
0.0000000001
 40
0.0
 40
0.0
 40
0.0
 40
0.0
 40
1.0
 40
1.0
 40
1.0
 40
1.0
 10
5.025700879
 20
5.5117798123
 30
0.0
 10
5.0239662178
 20
5.5090268939
 30
0.0
 10
5.0212687301
 20
5.5074707501
 30
0.0
 10
5.0176812696
 20
5.5069873738
 30
0.0
  0
SPLINE
  5
358
100
AcDbEntity
  8
ALL_ASSEMBLY_MEMBERS
100
AcDbSpline
 62
7
  6
CONTINUOUS
 70
0
 71
3
 72
8
 73
4
 74
0
 42
0.0000001
 43
0.0000001
 44
0.0000000001
 40
0.0
 40
0.0
 40
0.0
 40
0.0
 40
1.0
 40
1.0
 40
1.0
 40
1.0
 10
5.0547542973
 20
5.5123950544
 30
0.0
 10
5.0525723836
 20
5.5126432273
 30
0.0
 10
5.0506773158
 20
5.5134702176
 30
0.0
 10
5.0490746161
 20
5.5149100982
 30
0.0
  0
SPLINE
  5
359
100
AcDbEntity
  8
ALL_ASSEMBLY_MEMBERS
100
AcDbSpline
 62
7
  6
CONTINUOUS
 70
0
 71
3
 72
8
 73
4
 74
0
 42
0.0000001
 43
0.0000001
 44
0.0000000001
 40
0.0
 40
0.0
 40
0.0
 40
0.0
 40
1.0
 40
1.0
 40
1.0
 40
1.0
 10
5.0490746161
 20
5.5149100982
 30
0.0
 10
5.0466603747
 20
5.5170790755
 30
0.0
 10
5.0451816051
 20
5.5203087878
 30
0.0
 10
5.0445995805
 20
5.5246283829
 30
0.0
  0
SPLINE
  5
35A
100
AcDbEntity
  8
ALL_ASSEMBLY_MEMBERS
100
AcDbSpline
 62
7
  6
CONTINUOUS
 70
0
 71
3
 72
8
 73
4
 74
0
 42
0.0000001
 43
0.0000001
 44
0.0000000001
 40
0.0
 40
0.0
 40
0.0
 40
0.0
 40
1.0
 40
1.0
 40
1.0
 40
1.0
 10
5.0322488214
 20
5.6162916596
 30
0.0
 10
5.0278788336
 20
5.6133174799
 30
0.0
 10
5.022927295
 20
5.61078674
 30
0.0
 10
5.0173969654
 20
5.6087388923
 30
0.0
  0
SPLINE
  5
35B
100
AcDbEntity
  8
ALL_ASSEMBLY_MEMBERS
100
AcDbSpline
 62
7
  6
CONTINUOUS
 70
0
 71
3
 72
8
 73
4
 74
0
 42
0.0000001
 43
0.0000001
 44
0.0000000001
 40
0.0
 40
0.0
 40
0.0
 40
0.0
 40
1.0
 40
1.0
 40
1.0
 40
1.0
 10
5.0173969654
 20
5.6087388923
 30
0.0
 10
5.0118512613
 20
5.6066853516
 30
0.0
 10
5.0058633271
 20
5.6052076497
 30
0.0
 10
4.9993670575
 20
5.6041832527
 30
0.0
  0
SPLINE
  5
35C
100
AcDbEntity
  8
ALL_ASSEMBLY_MEMBERS
100
AcDbSpline
 62
7
  6
CONTINUOUS
 70
0
 71
3
 72
8
 73
4
 74
0
 42
0.0000001
 43
0.0000001
 44
0.0000000001
 40
0.0
 40
0.0
 40
0.0
 40
0.0
 40
1.0
 40
1.0
 40
1.0
 40
1.0
 10
5.004031922
 20
5.602202808
 30
0.0
 10
5.0080586625
 20
5.6027453731
 30
0.0
 10
5.0112717365
 20
5.602134708
 30
0.0
 10
5.0136357658
 20
5.6004949057
 30
0.0
  0
SPLINE
  5
35D
100
AcDbEntity
  8
ALL_ASSEMBLY_MEMBERS
100
AcDbSpline
 62
7
  6
CONTINUOUS
 70
0
 71
3
 72
8
 73
4
 74
0
 42
0.0000001
 43
0.0000001
 44
0.0000000001
 40
0.0
 40
0.0
 40
0.0
 40
0.0
 40
1.0
 40
1.0
 40
1.0
 40
1.0
 10
5.0136357658
 20
5.6004949057
 30
0.0
 10
5.0160409524
 20
5.5988265549
 30
0.0
 10
5.0175238821
 20
5.5961192022
 30
0.0
 10
5.0180269886
 20
5.5923853107
 30
0.0
  0
LINE
  5
35E
100
AcDbEntity
  8
ALL_ASSEMBLY_MEMBERS
100
AcDbLine
 62
7
  6
CONTINUOUS
 10
5.1386794624
 20
5.5431164495
 11
5.1388935254
 21
5.5545882186
  0
SPLINE
  5
35F
100
AcDbEntity
  8
ALL_ASSEMBLY_MEMBERS
100
AcDbSpline
 62
7
  6
CONTINUOUS
 70
0
 71
3
 72
8
 73
4
 74
0
 42
0.0000001
 43
0.0000001
 44
0.0000000001
 40
0.0
 40
0.0
 40
0.0
 40
0.0
 40
1.0
 40
1.0
 40
1.0
 40
1.0
 10
5.1388935254
 20
5.5545882186
 30
0.0
 10
5.1388765281
 20
5.5716533558
 30
0.0
 10
5.1384204052
 20
5.5845810427
 30
0.0
 10
5.1376728943
 20
5.5933714423
 30
0.0
  0
SPLINE
  5
360
100
AcDbEntity
  8
ALL_ASSEMBLY_MEMBERS
100
AcDbSpline
 62
7
  6
CONTINUOUS
 70
0
 71
3
 72
8
 73
4
 74
0
 42
0.0000001
 43
0.0000001
 44
0.0000000001
 40
0.0
 40
0.0
 40
0.0
 40
0.0
 40
1.0
 40
1.0
 40
1.0
 40
1.0
 10
5.1376728943
 20
5.5933714423
 30
0.0
 10
5.1369253838
 20
5.6021618364
 30
0.0
 10
5.1356632566
 20
5.6084399628
 30
0.0
 10
5.1338865798
 20
5.6121319497
 30
0.0
  0
SPLINE
  5
361
100
AcDbEntity
  8
ALL_ASSEMBLY_MEMBERS
100
AcDbSpline
 62
7
  6
CONTINUOUS
 70
0
 71
3
 72
8
 73
4
 74
0
 42
0.0000001
 43
0.0000001
 44
0.0000000001
 40
0.0
 40
0.0
 40
0.0
 40
0.0
 40
1.0
 40
1.0
 40
1.0
 40
1.0
 10
5.1338865798
 20
5.6121319497
 30
0.0
 10
5.1384719757
 20
5.6069652564
 30
0.0
 10
5.1418764206
 20
5.6007631427
 30
0.0
 10
5.1439919364
 20
5.5935156666
 30
0.0
  0
SPLINE
  5
362
100
AcDbEntity
  8
ALL_ASSEMBLY_MEMBERS
100
AcDbSpline
 62
7
  6
CONTINUOUS
 70
0
 71
3
 72
8
 73
4
 74
0
 42
0.0000001
 43
0.0000001
 44
0.0000000001
 40
0.0
 40
0.0
 40
0.0
 40
0.0
 40
1.0
 40
1.0
 40
1.0
 40
1.0
 10
5.1439919364
 20
5.5935156666
 30
0.0
 10
5.1461017203
 20
5.5862878273
 30
0.0
 10
5.1472190333
 20
5.5770545489
 30
0.0
 10
5.1472302177
 20
5.5658255394
 30
0.0
  0
SPLINE
  5
363
100
AcDbEntity
  8
ALL_ASSEMBLY_MEMBERS
100
AcDbSpline
 62
7
  6
CONTINUOUS
 70
0
 71
3
 72
8
 73
4
 74
0
 42
0.0000001
 43
0.0000001
 44
0.0000000001
 40
0.0
 40
0.0
 40
0.0
 40
0.0
 40
1.0
 40
1.0
 40
1.0
 40
1.0
 10
5.1472302177
 20
5.5658255394
 30
0.0
 10
5.1472395975
 20
5.5564082778
 30
0.0
 10
5.1465909758
 20
5.5484909505
 30
0.0
 10
5.1453044678
 20
5.5420411591
 30
0.0
  0
SPLINE
  5
364
100
AcDbEntity
  8
ALL_ASSEMBLY_MEMBERS
100
AcDbSpline
 62
7
  6
CONTINUOUS
 70
0
 71
3
 72
8
 73
4
 74
0
 42
0.0000001
 43
0.0000001
 44
0.0000000001
 40
0.0
 40
0.0
 40
0.0
 40
0.0
 40
1.0
 40
1.0
 40
1.0
 40
1.0
 10
5.1517900931
 20
5.5862934928
 30
0.0
 10
5.1501583654
 20
5.5927928745
 30
0.0
 10
5.1478625771
 20
5.5984789736
 30
0.0
 10
5.1448732388
 20
5.6031851087
 30
0.0
  0
SPLINE
  5
365
100
AcDbEntity
  8
ALL_ASSEMBLY_MEMBERS
100
AcDbSpline
 62
7
  6
CONTINUOUS
 70
0
 71
3
 72
8
 73
4
 74
0
 42
0.0000001
 43
0.0000001
 44
0.0000000001
 40
0.0
 40
0.0
 40
0.0
 40
0.0
 40
1.0
 40
1.0
 40
1.0
 40
1.0
 10
5.1448732388
 20
5.6031851087
 30
0.0
 10
5.1412033708
 20
5.6089626062
 30
0.0
 10
5.1371358225
 20
5.61339106
 30
0.0
 10
5.1326887292
 20
5.6163983337
 30
0.0
  0
SPLINE
  5
366
100
AcDbEntity
  8
ALL_ASSEMBLY_MEMBERS
100
AcDbSpline
 62
7
  6
CONTINUOUS
 70
0
 71
3
 72
8
 73
4
 74
0
 42
0.0000001
 43
0.0000001
 44
0.0000000001
 40
0.0
 40
0.0
 40
0.0
 40
0.0
 40
1.0
 40
1.0
 40
1.0
 40
1.0
 10
5.1326887292
 20
5.6163983337
 30
0.0
 10
5.1281909086
 20
5.6194399108
 30
0.0
 10
5.1235352395
 20
5.6209866564
 30
0.0
 10
5.1187333582
 20
5.6209818736
 30
0.0
  0
SPLINE
  5
367
100
AcDbEntity
  8
ALL_ASSEMBLY_MEMBERS
100
AcDbSpline
 62
7
  6
CONTINUOUS
 70
0
 71
3
 72
8
 73
4
 74
0
 42
0.0000001
 43
0.0000001
 44
0.0000000001
 40
0.0
 40
0.0
 40
0.0
 40
0.0
 40
1.0
 40
1.0
 40
1.0
 40
1.0
 10
5.1187333582
 20
5.6209818736
 30
0.0
 10
5.1140053556
 20
5.6209771644
 30
0.0
 10
5.1093527769
 20
5.6194211476
 30
0.0
 10
5.1048377555
 20
5.6163311222
 30
0.0
  0
SPLINE
  5
368
100
AcDbEntity
  8
ALL_ASSEMBLY_MEMBERS
100
AcDbSpline
 62
7
  6
CONTINUOUS
 70
0
 71
3
 72
8
 73
4
 74
0
 42
0.0000001
 43
0.0000001
 44
0.0000000001
 40
0.0
 40
0.0
 40
0.0
 40
0.0
 40
1.0
 40
1.0
 40
1.0
 40
1.0
 10
5.1048377555
 20
5.6163311222
 30
0.0
 10
5.1002723266
 20
5.6132065986
 30
0.0
 10
5.0962874868
 20
5.6087701179
 30
0.0
 10
5.0927591996
 20
5.6031445032
 30
0.0
  0
SPLINE
  5
369
100
AcDbEntity
  8
ALL_ASSEMBLY_MEMBERS
100
AcDbSpline
 62
7
  6
CONTINUOUS
 70
0
 71
3
 72
8
 73
4
 74
0
 42
0.0000001
 43
0.0000001
 44
0.0000000001
 40
0.0
 40
0.0
 40
0.0
 40
0.0
 40
1.0
 40
1.0
 40
1.0
 40
1.0
 10
5.0927591996
 20
5.6031445032
 30
0.0
 10
5.0897967879
 20
5.5984211387
 30
0.0
 10
5.0874384524
 20
5.5927304039
 30
0.0
 10
5.0858196781
 20
5.5862277839
 30
0.0
  0
SPLINE
  5
36A
100
AcDbEntity
  8
ALL_ASSEMBLY_MEMBERS
100
AcDbSpline
 62
7
  6
CONTINUOUS
 70
0
 71
3
 72
8
 73
4
 74
0
 42
0.0000001
 43
0.0000001
 44
0.0000000001
 40
0.0
 40
0.0
 40
0.0
 40
0.0
 40
1.0
 40
1.0
 40
1.0
 40
1.0
 10
5.0858196781
 20
5.5862277839
 30
0.0
 10
5.0842009026
 20
5.5797251592
 30
0.0
 10
5.083395119
 20
5.572853969
 30
0.0
 10
5.0834021828
 20
5.5657619652
 30
0.0
  0
SPLINE
  5
36B
100
AcDbEntity
  8
ALL_ASSEMBLY_MEMBERS
100
AcDbSpline
 62
7
  6
CONTINUOUS
 70
0
 71
3
 72
8
 73
4
 74
0
 42
0.0000001
 43
0.0000001
 44
0.0000000001
 40
0.0
 40
0.0
 40
0.0
 40
0.0
 40
1.0
 40
1.0
 40
1.0
 40
1.0
 10
5.0834021828
 20
5.5657619652
 30
0.0
 10
5.0834093202
 20
5.5585960858
 30
0.0
 10
5.0842287899
 20
5.5517265144
 30
0.0
 10
5.0858605149
 20
5.5452271304
 30
0.0
  0
SPLINE
  5
36C
100
AcDbEntity
  8
ALL_ASSEMBLY_MEMBERS
100
AcDbSpline
 62
7
  6
CONTINUOUS
 70
0
 71
3
 72
8
 73
4
 74
0
 42
0.0000001
 43
0.0000001
 44
0.0000000001
 40
0.0
 40
0.0
 40
0.0
 40
0.0
 40
1.0
 40
1.0
 40
1.0
 40
1.0
 10
5.2167611786
 20
5.5122867211
 30
0.0
 10
5.2186230885
 20
5.5150158842
 30
0.0
 10
5.2202781409
 20
5.5189660179
 30
0.0
 10
5.2217108035
 20
5.5242929293
 30
0.0
  0
SPLINE
  5
36D
100
AcDbEntity
  8
ALL_ASSEMBLY_MEMBERS
100
AcDbSpline
 62
7
  6
CONTINUOUS
 70
0
 71
3
 72
8
 73
4
 74
0
 42
0.0000001
 43
0.0000001
 44
0.0000000001
 40
0.0
 40
0.0
 40
0.0
 40
0.0
 40
1.0
 40
1.0
 40
1.0
 40
1.0
 10
5.2217108035
 20
5.5242929293
 30
0.0
 10
5.2231410853
 20
5.5296109886
 30
0.0
 10
5.2244918359
 20
5.5368082895
 30
0.0
 10
5.2257451168
 20
5.5460317938
 30
0.0
  0
SPLINE
  5
36E
100
AcDbEntity
  8
ALL_ASSEMBLY_MEMBERS
100
AcDbSpline
 62
7
  6
CONTINUOUS
 70
0
 71
3
 72
8
 73
4
 74
0
 42
0.0000001
 43
0.0000001
 44
0.0000000001
 40
0.0
 40
0.0
 40
0.0
 40
0.0
 40
1.0
 40
1.0
 40
1.0
 40
1.0
 10
5.2257451168
 20
5.5460317938
 30
0.0
 10
5.2280427981
 20
5.5629415501
 30
0.0
 10
5.2293442286
 20
5.5758116487
 30
0.0
 10
5.2297958614
 20
5.5846222052
 30
0.0
  0
SPLINE
  5
36F
100
AcDbEntity
  8
ALL_ASSEMBLY_MEMBERS
100
AcDbSpline
 62
7
  6
CONTINUOUS
 70
0
 71
3
 72
8
 73
4
 74
0
 42
0.0000001
 43
0.0000001
 44
0.0000000001
 40
0.0
 40
0.0
 40
0.0
 40
0.0
 40
1.0
 40
1.0
 40
1.0
 40
1.0
 10
5.2297958614
 20
5.5846222052
 30
0.0
 10
5.230247494
 20
5.5934327574
 30
0.0
 10
5.2298485359
 20
5.599824051
 30
0.0
 10
5.2285890023
 20
5.6037228931
 30
0.0
  0
SPLINE
  5
370
100
AcDbEntity
  8
ALL_ASSEMBLY_MEMBERS
100
AcDbSpline
 62
7
  6
CONTINUOUS
 70
0
 71
3
 72
8
 73
4
 74
0
 42
0.0000001
 43
0.0000001
 44
0.0000000001
 40
0.0
 40
0.0
 40
0.0
 40
0.0
 40
1.0
 40
1.0
 40
1.0
 40
1.0
 10
5.2285890023
 20
5.6037228931
 30
0.0
 10
5.2324312763
 20
5.5979820303
 30
0.0
 10
5.234963079
 20
5.5913754854
 30
0.0
 10
5.236076082
 20
5.5839080498
 30
0.0
  0
SPLINE
  5
371
100
AcDbEntity
  8
ALL_ASSEMBLY_MEMBERS
100
AcDbSpline
 62
7
  6
CONTINUOUS
 70
0
 71
3
 72
8
 73
4
 74
0
 42
0.0000001
 43
0.0000001
 44
0.0000000001
 40
0.0
 40
0.0
 40
0.0
 40
0.0
 40
1.0
 40
1.0
 40
1.0
 40
1.0
 10
5.236076082
 20
5.5839080498
 30
0.0
 10
5.2371860683
 20
5.576460854
 30
0.0
 10
5.237040773
 20
5.567161352
 30
0.0
 10
5.2355288786
 20
5.5560345846
 30
0.0
  0
SPLINE
  5
372
100
AcDbEntity
  8
ALL_ASSEMBLY_MEMBERS
100
AcDbSpline
 62
7
  6
CONTINUOUS
 70
0
 71
3
 72
8
 73
4
 74
0
 42
0.0000001
 43
0.0000001
 44
0.0000000001
 40
0.0
 40
0.0
 40
0.0
 40
0.0
 40
1.0
 40
1.0
 40
1.0
 40
1.0
 10
5.2355288786
 20
5.5560345846
 30
0.0
 10
5.2339374113
 20
5.5443222013
 30
0.0
 10
5.2316394047
 20
5.5350915479
 30
0.0
 10
5.2286655624
 20
5.5282737577
 30
0.0
  0
SPLINE
  5
373
100
AcDbEntity
  8
ALL_ASSEMBLY_MEMBERS
100
AcDbSpline
 62
7
  6
CONTINUOUS
 70
0
 71
3
 72
8
 73
4
 74
0
 42
0.0000001
 43
0.0000001
 44
0.0000000001
 40
0.0
 40
0.0
 40
0.0
 40
0.0
 40
1.0
 40
1.0
 40
1.0
 40
1.0
 10
5.2286655624
 20
5.5282737577
 30
0.0
 10
5.2256835994
 20
5.5214373501
 30
0.0
 10
5.221750108
 20
5.5160820666
 30
0.0
 10
5.2167611786
 20
5.5122867211
 30
0.0
  0
SPLINE
  5
374
100
AcDbEntity
  8
ALL_ASSEMBLY_MEMBERS
100
AcDbSpline
 62
7
  6
CONTINUOUS
 70
0
 71
3
 72
8
 73
4
 74
0
 42
0.0000001
 43
0.0000001
 44
0.0000000001
 40
0.0
 40
0.0
 40
0.0
 40
0.0
 40
1.0
 40
1.0
 40
1.0
 40
1.0
 10
5.2428226475
 20
5.5756949608
 30
0.0
 10
5.2420874998
 20
5.5823555956
 30
0.0
 10
5.2405841101
 20
5.5883005302
 30
0.0
 10
5.2382606882
 20
5.593368615
 30
0.0
  0
SPLINE
  5
375
100
AcDbEntity
  8
ALL_ASSEMBLY_MEMBERS
100
AcDbSpline
 62
7
  6
CONTINUOUS
 70
0
 71
3
 72
8
 73
4
 74
0
 42
0.0000001
 43
0.0000001
 44
0.0000000001
 40
0.0
 40
0.0
 40
0.0
 40
0.0
 40
1.0
 40
1.0
 40
1.0
 40
1.0
 10
5.2382606882
 20
5.593368615
 30
0.0
 10
5.2354083305
 20
5.5995904687
 30
0.0
 10
5.2319790057
 20
5.6045296768
 30
0.0
 10
5.227980869
 20
5.608112323
 30
0.0
  0
SPLINE
  5
376
100
AcDbEntity
  8
ALL_ASSEMBLY_MEMBERS
100
AcDbSpline
 62
7
  6
CONTINUOUS
 70
0
 71
3
 72
8
 73
4
 74
0
 42
0.0000001
 43
0.0000001
 44
0.0000000001
 40
0.0
 40
0.0
 40
0.0
 40
0.0
 40
1.0
 40
1.0
 40
1.0
 40
1.0
 10
5.227980869
 20
5.608112323
 30
0.0
 10
5.2239371425
 20
5.6117358213
 30
0.0
 10
5.219534263
 20
5.6138997184
 30
0.0
 10
5.2147761036
 20
5.6145462525
 30
0.0
  0
SPLINE
  5
377
100
AcDbEntity
  8
ALL_ASSEMBLY_MEMBERS
100
AcDbSpline
 62
7
  6
CONTINUOUS
 70
0
 71
3
 72
8
 73
4
 74
0
 42
0.0000001
 43
0.0000001
 44
0.0000000001
 40
0.0
 40
0.0
 40
0.0
 40
0.0
 40
1.0
 40
1.0
 40
1.0
 40
1.0
 10
5.2147761036
 20
5.6145462525
 30
0.0
 10
5.2100911503
 20
5.6151828394
 30
0.0
 10
5.2052705222
 20
5.6142722235
 30
0.0
 10
5.2003781255
 20
5.6118231154
 30
0.0
  0
SPLINE
  5
378
100
AcDbEntity
  8
ALL_ASSEMBLY_MEMBERS
100
AcDbSpline
 62
7
  6
CONTINUOUS
 70
0
 71
3
 72
8
 73
4
 74
0
 42
0.0000001
 43
0.0000001
 44
0.0000000001
 40
0.0
 40
0.0
 40
0.0
 40
0.0
 40
1.0
 40
1.0
 40
1.0
 40
1.0
 10
5.2003781255
 20
5.6118231154
 30
0.0
 10
5.1954311131
 20
5.6093466669
 30
0.0
 10
5.1908813804
 20
5.6054916389
 30
0.0
 10
5.1866226987
 20
5.6003965404
 30
0.0
  0
SPLINE
  5
379
100
AcDbEntity
  8
ALL_ASSEMBLY_MEMBERS
100
AcDbSpline
 62
7
  6
CONTINUOUS
 70
0
 71
3
 72
8
 73
4
 74
0
 42
0.0000001
 43
0.0000001
 44
0.0000000001
 40
0.0
 40
0.0
 40
0.0
 40
0.0
 40
1.0
 40
1.0
 40
1.0
 40
1.0
 10
5.1866226987
 20
5.6003965404
 30
0.0
 10
5.1830470391
 20
5.5961186117
 30
0.0
 10
5.1799386685
 20
5.5908003186
 30
0.0
 10
5.1774529076
 20
5.5845773378
 30
0.0
  0
SPLINE
  5
37A
100
AcDbEntity
  8
ALL_ASSEMBLY_MEMBERS
100
AcDbSpline
 62
7
  6
CONTINUOUS
 70
0
 71
3
 72
8
 73
4
 74
0
 42
0.0000001
 43
0.0000001
 44
0.0000000001
 40
0.0
 40
0.0
 40
0.0
 40
0.0
 40
1.0
 40
1.0
 40
1.0
 40
1.0
 10
5.1774529076
 20
5.5845773378
 30
0.0
 10
5.1749671442
 20
5.5783543511
 30
0.0
 10
5.173236876
 20
5.5716559398
 30
0.0
 10
5.1722819956
 20
5.5646285098
 30
0.0
  0
SPLINE
  5
37B
100
AcDbEntity
  8
ALL_ASSEMBLY_MEMBERS
100
AcDbSpline
 62
7
  6
CONTINUOUS
 70
0
 71
3
 72
8
 73
4
 74
0
 42
0.0000001
 43
0.0000001
 44
0.0000000001
 40
0.0
 40
0.0
 40
0.0
 40
0.0
 40
1.0
 40
1.0
 40
1.0
 40
1.0
 10
5.1722819956
 20
5.5646285098
 30
0.0
 10
5.1713171685
 20
5.557527877
 30
0.0
 10
5.1711973554
 20
5.5506106386
 30
0.0
 10
5.1719325035
 20
5.5439500007
 30
0.0
  0
SPLINE
  5
37C
100
AcDbEntity
  8
ALL_ASSEMBLY_MEMBERS
100
AcDbSpline
 62
7
  6
CONTINUOUS
 70
0
 71
3
 72
8
 73
4
 74
0
 42
0.0000001
 43
0.0000001
 44
0.0000000001
 40
0.0
 40
0.0
 40
0.0
 40
0.0
 40
1.0
 40
1.0
 40
1.0
 40
1.0
 10
5.1719325035
 20
5.5439500007
 30
0.0
 10
5.1724579123
 20
5.5391896576
 30
0.0
 10
5.1734182007
 20
5.534827203
 30
0.0
 10
5.1747587376
 20
5.530869368
 30
0.0
  0
SPLINE
  5
37D
100
AcDbEntity
  8
ALL_ASSEMBLY_MEMBERS
100
AcDbSpline
 62
7
  6
CONTINUOUS
 70
0
 71
3
 72
8
 73
4
 74
0
 42
0.0000001
 43
0.0000001
 44
0.0000000001
 40
0.0
 40
0.0
 40
0.0
 40
0.0
 40
1.0
 40
1.0
 40
1.0
 40
1.0
 10
5.1867770459
 20
5.5115978203
 30
0.0
 10
5.1908279554
 20
5.5079823379
 30
0.0
 10
5.1952208759
 20
5.5057452452
 30
0.0
 10
5.1999058292
 20
5.5051086583
 30
0.0
  0
SPLINE
  5
37E
100
AcDbEntity
  8
ALL_ASSEMBLY_MEMBERS
100
AcDbSpline
 62
7
  6
CONTINUOUS
 70
0
 71
3
 72
8
 73
4
 74
0
 42
0.0000001
 43
0.0000001
 44
0.0000000001
 40
0.0
 40
0.0
 40
0.0
 40
0.0
 40
1.0
 40
1.0
 40
1.0
 40
1.0
 10
5.1999058292
 20
5.5051086583
 30
0.0
 10
5.2046639886
 20
5.5044621242
 30
0.0
 10
5.209484629
 20
5.5053727332
 30
0.0
 10
5.2143485352
 20
5.5077858258
 30
0.0
  0
SPLINE
  5
37F
100
AcDbEntity
  8
ALL_ASSEMBLY_MEMBERS
100
AcDbSpline
 62
7
  6
CONTINUOUS
 70
0
 71
3
 72
8
 73
4
 74
0
 42
0.0000001
 43
0.0000001
 44
0.0000000001
 40
0.0
 40
0.0
 40
0.0
 40
0.0
 40
1.0
 40
1.0
 40
1.0
 40
1.0
 10
5.2143485352
 20
5.5077858258
 30
0.0
 10
5.2191577464
 20
5.5101717829
 30
0.0
 10
5.2237806715
 20
5.5140168611
 30
0.0
 10
5.2282467473
 20
5.5192853371
 30
0.0
  0
SPLINE
  5
380
100
AcDbEntity
  8
ALL_ASSEMBLY_MEMBERS
100
AcDbSpline
 62
7
  6
CONTINUOUS
 70
0
 71
3
 72
8
 73
4
 74
0
 42
0.0000001
 43
0.0000001
 44
0.0000000001
 40
0.0
 40
0.0
 40
0.0
 40
0.0
 40
1.0
 40
1.0
 40
1.0
 40
1.0
 10
5.2282467473
 20
5.5192853371
 30
0.0
 10
5.2317713588
 20
5.5234432002
 30
0.0
 10
5.2347965896
 20
5.5286982358
 30
0.0
 10
5.2373005753
 20
5.5349911209
 30
0.0
  0
SPLINE
  5
381
100
AcDbEntity
  8
ALL_ASSEMBLY_MEMBERS
100
AcDbSpline
 62
7
  6
CONTINUOUS
 70
0
 71
3
 72
8
 73
4
 74
0
 42
0.0000001
 43
0.0000001
 44
0.0000000001
 40
0.0
 40
0.0
 40
0.0
 40
0.0
 40
1.0
 40
1.0
 40
1.0
 40
1.0
 10
5.7071676523
 20
5.0873035261
 30
0.0
 10
5.711920465
 20
5.0889302948
 30
0.0
 10
5.7157055561
 20
5.0917874897
 30
0.0
 10
5.7185229247
 20
5.0958751052
 30
0.0
  0
SPLINE
  5
382
100
AcDbEntity
  8
ALL_ASSEMBLY_MEMBERS
100
AcDbSpline
 62
7
  6
CONTINUOUS
 70
0
 71
3
 72
8
 73
4
 74
0
 42
0.0000001
 43
0.0000001
 44
0.0000000001
 40
0.0
 40
0.0
 40
0.0
 40
0.0
 40
1.0
 40
1.0
 40
1.0
 40
1.0
 10
5.7185229247
 20
5.0958751052
 30
0.0
 10
5.721340297
 20
5.099962726
 30
0.0
 10
5.7238988509
 20
5.1066832835
 30
0.0
 10
5.7262325187
 20
5.1162386531
 30
0.0
  0
SPLINE
  5
383
100
AcDbEntity
  8
ALL_ASSEMBLY_MEMBERS
100
AcDbSpline
 62
7
  6
CONTINUOUS
 70
0
 71
3
 72
8
 73
4
 74
0
 42
0.0000001
 43
0.0000001
 44
0.0000000001
 40
0.0
 40
0.0
 40
0.0
 40
0.0
 40
1.0
 40
1.0
 40
1.0
 40
1.0
 10
5.7267527508
 20
5.1183687802
 30
0.0
 10
5.7320451437
 20
5.1400912906
 30
0.0
 10
5.7392813749
 20
5.1524845574
 30
0.0
 10
5.7484375331
 20
5.1556184808
 30
0.0
  0
SPLINE
  5
384
100
AcDbEntity
  8
ALL_ASSEMBLY_MEMBERS
100
AcDbSpline
 62
7
  6
CONTINUOUS
 70
0
 71
3
 72
8
 73
4
 74
0
 42
0.0000001
 43
0.0000001
 44
0.0000000001
 40
0.0
 40
0.0
 40
0.0
 40
0.0
 40
1.0
 40
1.0
 40
1.0
 40
1.0
 10
5.7484375331
 20
5.1556184808
 30
0.0
 10
5.7520021407
 20
5.1568385567
 30
0.0
 10
5.7555264061
 20
5.1572639996
 30
0.0
 10
5.7591075325
 20
5.1568821432
 30
0.0
  0
SPLINE
  5
385
100
AcDbEntity
  8
ALL_ASSEMBLY_MEMBERS
100
AcDbSpline
 62
7
  6
CONTINUOUS
 70
0
 71
3
 72
8
 73
4
 74
0
 42
0.0000001
 43
0.0000001
 44
0.0000000001
 40
0.0
 40
0.0
 40
0.0
 40
0.0
 40
1.0
 40
1.0
 40
1.0
 40
1.0
 10
5.7591075325
 20
5.1568821432
 30
0.0
 10
5.7626579478
 20
5.1565035617
 30
0.0
 10
5.7660555486
 20
5.155245916
 30
0.0
 10
5.7692730123
 20
5.1531457874
 30
0.0
  0
SPLINE
  5
386
100
AcDbEntity
  8
ALL_ASSEMBLY_MEMBERS
100
AcDbSpline
 62
7
  6
CONTINUOUS
 70
0
 71
3
 72
8
 73
4
 74
0
 42
0.0000001
 43
0.0000001
 44
0.0000000001
 40
0.0
 40
0.0
 40
0.0
 40
0.0
 40
1.0
 40
1.0
 40
1.0
 40
1.0
 10
5.7692730123
 20
5.1531457874
 30
0.0
 10
5.7665579332
 20
5.1537781353
 30
0.0
 10
5.764102259
 20
5.1541088576
 30
0.0
 10
5.7619300909
 20
5.1541030394
 30
0.0
  0
SPLINE
  5
387
100
AcDbEntity
  8
ALL_ASSEMBLY_MEMBERS
100
AcDbSpline
 62
7
  6
CONTINUOUS
 70
0
 71
3
 72
8
 73
4
 74
0
 42
0.0000001
 43
0.0000001
 44
0.0000000001
 40
0.0
 40
0.0
 40
0.0
 40
0.0
 40
1.0
 40
1.0
 40
1.0
 40
1.0
 10
5.7619300909
 20
5.1541030394
 30
0.0
 10
5.7597336366
 20
5.1540971561
 30
0.0
 10
5.7576809054
 20
5.1537068879
 30
0.0
 10
5.7557238602
 20
5.1530370404
 30
0.0
  0
SPLINE
  5
388
100
AcDbEntity
  8
ALL_ASSEMBLY_MEMBERS
100
AcDbSpline
 62
7
  6
CONTINUOUS
 70
0
 71
3
 72
8
 73
4
 74
0
 42
0.0000001
 43
0.0000001
 44
0.0000000001
 40
0.0
 40
0.0
 40
0.0
 40
0.0
 40
1.0
 40
1.0
 40
1.0
 40
1.0
 10
5.7557238602
 20
5.1530370404
 30
0.0
 10
5.7536270319
 20
5.1523193486
 30
0.0
 10
5.7515799269
 20
5.1512282643
 30
0.0
 10
5.7495855098
 20
5.1497220452
 30
0.0
  0
SPLINE
  5
389
100
AcDbEntity
  8
ALL_ASSEMBLY_MEMBERS
100
AcDbSpline
 62
7
  6
CONTINUOUS
 70
0
 71
3
 72
8
 73
4
 74
0
 42
0.0000001
 43
0.0000001
 44
0.0000000001
 40
0.0
 40
0.0
 40
0.0
 40
0.0
 40
1.0
 40
1.0
 40
1.0
 40
1.0
 10
5.7495855098
 20
5.1497220452
 30
0.0
 10
5.747609076
 20
5.1482294072
 30
0.0
 10
5.7458251189
 20
5.1463694822
 30
0.0
 10
5.7441649609
 20
5.1441047323
 30
0.0
  0
SPLINE
  5
38A
100
AcDbEntity
  8
ALL_ASSEMBLY_MEMBERS
100
AcDbSpline
 62
7
  6
CONTINUOUS
 70
0
 71
3
 72
8
 73
4
 74
0
 42
0.0000001
 43
0.0000001
 44
0.0000000001
 40
0.0
 40
0.0
 40
0.0
 40
0.0
 40
1.0
 40
1.0
 40
1.0
 40
1.0
 10
5.7441649609
 20
5.1441047323
 30
0.0
 10
5.7410877565
 20
5.1399068798
 30
0.0
 10
5.7379546613
 20
5.131494739
 30
0.0
 10
5.73488647
 20
5.1188475927
 30
0.0
  0
LINE
  5
38B
100
AcDbEntity
  8
ALL_ASSEMBLY_MEMBERS
100
AcDbLine
 62
7
  6
CONTINUOUS
 10
5.73488647
 20
5.1188475927
 11
5.7331823114
 21
5.1117117204
  0
SPLINE
  5
38C
100
AcDbEntity
  8
ALL_ASSEMBLY_MEMBERS
100
AcDbSpline
 62
7
  6
CONTINUOUS
 70
0
 71
3
 72
8
 73
4
 74
0
 42
0.0000001
 43
0.0000001
 44
0.0000000001
 40
0.0
 40
0.0
 40
0.0
 40
0.0
 40
1.0
 40
1.0
 40
1.0
 40
1.0
 10
5.7331823114
 20
5.1117117204
 30
0.0
 10
5.7312577899
 20
5.1042942244
 30
0.0
 10
5.7288030167
 20
5.0986909781
 30
0.0
 10
5.7260130147
 20
5.0949432966
 30
0.0
  0
SPLINE
  5
38D
100
AcDbEntity
  8
ALL_ASSEMBLY_MEMBERS
100
AcDbSpline
 62
7
  6
CONTINUOUS
 70
0
 71
3
 72
8
 73
4
 74
0
 42
0.0000001
 43
0.0000001
 44
0.0000000001
 40
0.0
 40
0.0
 40
0.0
 40
0.0
 40
1.0
 40
1.0
 40
1.0
 40
1.0
 10
5.7260130147
 20
5.0949432966
 30
0.0
 10
5.7231865743
 20
5.0911466689
 30
0.0
 10
5.7194235299
 20
5.088453186
 30
0.0
 10
5.7147406104
 20
5.08685034
 30
0.0
  0
SPLINE
  5
38E
100
AcDbEntity
  8
ALL_ASSEMBLY_MEMBERS
100
AcDbSpline
 62
7
  6
CONTINUOUS
 70
0
 71
3
 72
8
 73
4
 74
0
 42
0.0000001
 43
0.0000001
 44
0.0000000001
 40
0.0
 40
0.0
 40
0.0
 40
0.0
 40
1.0
 40
1.0
 40
1.0
 40
1.0
 10
5.7147406104
 20
5.08685034
 30
0.0
 10
5.7127835699
 20
5.0861804941
 30
0.0
 10
5.7108706259
 20
5.0858380733
 30
0.0
 10
5.7090250529
 20
5.0857776774
 30
0.0
  0
SPLINE
  5
38F
100
AcDbEntity
  8
ALL_ASSEMBLY_MEMBERS
100
AcDbSpline
 62
7
  6
CONTINUOUS
 70
0
 71
3
 72
8
 73
4
 74
0
 42
0.0000001
 43
0.0000001
 44
0.0000000001
 40
0.0
 40
0.0
 40
0.0
 40
0.0
 40
1.0
 40
1.0
 40
1.0
 40
1.0
 10
5.7090250529
 20
5.0857776774
 30
0.0
 10
5.7070869598
 20
5.0857142539
 30
0.0
 10
5.7051463408
 20
5.0859089382
 30
0.0
 10
5.7032498199
 20
5.0864310483
 30
0.0
  0
SPLINE
  5
390
100
AcDbEntity
  8
ALL_ASSEMBLY_MEMBERS
100
AcDbSpline
 62
7
  6
CONTINUOUS
 70
0
 71
3
 72
8
 73
4
 74
0
 42
0.0000001
 43
0.0000001
 44
0.0000000001
 40
0.0
 40
0.0
 40
0.0
 40
0.0
 40
1.0
 40
1.0
 40
1.0
 40
1.0
 10
5.7399716274
 20
5.1130548638
 30
0.0
 10
5.7426736576
 20
5.1256920893
 30
0.0
 10
5.7454277325
 20
5.1347553275
 30
0.0
 10
5.7482800297
 20
5.1402806809
 30
0.0
  0
SPLINE
  5
391
100
AcDbEntity
  8
ALL_ASSEMBLY_MEMBERS
100
AcDbSpline
 62
7
  6
CONTINUOUS
 70
0
 71
3
 72
8
 73
4
 74
0
 42
0.0000001
 43
0.0000001
 44
0.0000000001
 40
0.0
 40
0.0
 40
0.0
 40
0.0
 40
1.0
 40
1.0
 40
1.0
 40
1.0
 10
5.7482800297
 20
5.1402806809
 30
0.0
 10
5.7511558361
 20
5.1458515751
 30
0.0
 10
5.7547256215
 20
5.1493378182
 30
0.0
 10
5.758989176
 20
5.150797126
 30
0.0
  0
SPLINE
  5
392
100
AcDbEntity
  8
ALL_ASSEMBLY_MEMBERS
100
AcDbSpline
 62
7
  6
CONTINUOUS
 70
0
 71
3
 72
8
 73
4
 74
0
 42
0.0000001
 43
0.0000001
 44
0.0000000001
 40
0.0
 40
0.0
 40
0.0
 40
0.0
 40
1.0
 40
1.0
 40
1.0
 40
1.0
 10
5.758989176
 20
5.150797126
 30
0.0
 10
5.7633226221
 20
5.152280356
 30
0.0
 10
5.7675772495
 20
5.1519407097
 30
0.0
 10
5.7717876001
 20
5.1496144797
 30
0.0
  0
SPLINE
  5
393
100
AcDbEntity
  8
ALL_ASSEMBLY_MEMBERS
100
AcDbSpline
 62
7
  6
CONTINUOUS
 70
0
 71
3
 72
8
 73
4
 74
0
 42
0.0000001
 43
0.0000001
 44
0.0000000001
 40
0.0
 40
0.0
 40
0.0
 40
0.0
 40
1.0
 40
1.0
 40
1.0
 40
1.0
 10
5.7717876001
 20
5.1496144797
 30
0.0
 10
5.7759546682
 20
5.1473121633
 30
0.0
 10
5.7788798835
 20
5.1437846012
 30
0.0
 10
5.7805305759
 20
5.1389618922
 30
0.0
  0
SPLINE
  5
394
100
AcDbEntity
  8
ALL_ASSEMBLY_MEMBERS
100
AcDbSpline
 62
7
  6
CONTINUOUS
 70
0
 71
3
 72
8
 73
4
 74
0
 42
0.0000001
 43
0.0000001
 44
0.0000000001
 40
0.0
 40
0.0
 40
0.0
 40
0.0
 40
1.0
 40
1.0
 40
1.0
 40
1.0
 10
5.7805305759
 20
5.1389618922
 30
0.0
 10
5.7824683446
 20
5.1333004532
 30
0.0
 10
5.7817867265
 20
5.1279917848
 30
0.0
 10
5.7785795363
 20
5.1229899145
 30
0.0
  0
SPLINE
  5
395
100
AcDbEntity
  8
ALL_ASSEMBLY_MEMBERS
100
AcDbSpline
 62
7
  6
CONTINUOUS
 70
0
 71
3
 72
8
 73
4
 74
0
 42
0.0000001
 43
0.0000001
 44
0.0000000001
 40
0.0
 40
0.0
 40
0.0
 40
0.0
 40
1.0
 40
1.0
 40
1.0
 40
1.0
 10
5.7785795363
 20
5.1229899145
 30
0.0
 10
5.7753723461
 20
5.1179880443
 30
0.0
 10
5.7701691976
 20
5.1142550722
 30
0.0
 10
5.7629700846
 20
5.1117909963
 30
0.0
  0
SPLINE
  5
396
100
AcDbEntity
  8
ALL_ASSEMBLY_MEMBERS
100
AcDbSpline
 62
7
  6
CONTINUOUS
 70
0
 71
3
 72
8
 73
4
 74
0
 42
0.0000001
 43
0.0000001
 44
0.0000000001
 40
0.0
 40
0.0
 40
0.0
 40
0.0
 40
1.0
 40
1.0
 40
1.0
 40
1.0
 10
5.7629700846
 20
5.1117909963
 30
0.0
 10
5.7584968491
 20
5.1102599199
 30
0.0
 10
5.7542497192
 20
5.1096651434
 30
0.0
 10
5.7502777267
 20
5.1098871737
 30
0.0
  0
SPLINE
  5
397
100
AcDbEntity
  8
ALL_ASSEMBLY_MEMBERS
100
AcDbSpline
 62
7
  6
CONTINUOUS
 70
0
 71
3
 72
8
 73
4
 74
0
 42
0.0000001
 43
0.0000001
 44
0.0000000001
 40
0.0
 40
0.0
 40
0.0
 40
0.0
 40
1.0
 40
1.0
 40
1.0
 40
1.0
 10
5.7502777267
 20
5.1098871737
 30
0.0
 10
5.7462095497
 20
5.1101145807
 30
0.0
 10
5.7427898964
 20
5.1112085158
 30
0.0
 10
5.7399716274
 20
5.1130548638
 30
0.0
  0
SPLINE
  5
398
100
AcDbEntity
  8
ALL_ASSEMBLY_MEMBERS
100
AcDbSpline
 62
7
  6
CONTINUOUS
 70
0
 71
3
 72
8
 73
4
 74
0
 42
0.0000001
 43
0.0000001
 44
0.0000000001
 40
0.0
 40
0.0
 40
0.0
 40
0.0
 40
1.0
 40
1.0
 40
1.0
 40
1.0
 10
5.6797201003
 20
5.1218694093
 30
0.0
 10
5.68075494
 20
5.1268304803
 30
0.0
 10
5.6827997227
 20
5.1311221573
 30
0.0
 10
5.6859098039
 20
5.1347312548
 30
0.0
  0
SPLINE
  5
399
100
AcDbEntity
  8
ALL_ASSEMBLY_MEMBERS
100
AcDbSpline
 62
7
  6
CONTINUOUS
 70
0
 71
3
 72
8
 73
4
 74
0
 42
0.0000001
 43
0.0000001
 44
0.0000000001
 40
0.0
 40
0.0
 40
0.0
 40
0.0
 40
1.0
 40
1.0
 40
1.0
 40
1.0
 10
5.6859098039
 20
5.1347312548
 30
0.0
 10
5.689002992
 20
5.1383207485
 30
0.0
 10
5.6927439865
 20
5.1408505183
 30
0.0
 10
5.6971473289
 20
5.142357672
 30
0.0
  0
SPLINE
  5
39A
100
AcDbEntity
  8
ALL_ASSEMBLY_MEMBERS
100
AcDbSpline
 62
7
  6
CONTINUOUS
 70
0
 71
3
 72
8
 73
4
 74
0
 42
0.0000001
 43
0.0000001
 44
0.0000000001
 40
0.0
 40
0.0
 40
0.0
 40
0.0
 40
1.0
 40
1.0
 40
1.0
 40
1.0
 10
5.6971473289
 20
5.142357672
 30
0.0
 10
5.7010614099
 20
5.1436973639
 30
0.0
 10
5.7048652513
 20
5.1442184978
 30
0.0
 10
5.7084889556
 20
5.1438971496
 30
0.0
  0
SPLINE
  5
39B
100
AcDbEntity
  8
ALL_ASSEMBLY_MEMBERS
100
AcDbSpline
 62
7
  6
CONTINUOUS
 70
0
 71
3
 72
8
 73
4
 74
0
 42
0.0000001
 43
0.0000001
 44
0.0000000001
 40
0.0
 40
0.0
 40
0.0
 40
0.0
 40
1.0
 40
1.0
 40
1.0
 40
1.0
 10
5.7084889556
 20
5.1438971496
 30
0.0
 10
5.7121126625
 20
5.1435758013
 30
0.0
 10
5.7157438675
 20
5.1423200295
 30
0.0
 10
5.7192887528
 20
5.1401758047
 30
0.0
  0
SPLINE
  5
39C
100
AcDbEntity
  8
ALL_ASSEMBLY_MEMBERS
100
AcDbSpline
 62
7
  6
CONTINUOUS
 70
0
 71
3
 72
8
 73
4
 74
0
 42
0.0000001
 43
0.0000001
 44
0.0000000001
 40
0.0
 40
0.0
 40
0.0
 40
0.0
 40
1.0
 40
1.0
 40
1.0
 40
1.0
 10
5.7192887528
 20
5.1401758047
 30
0.0
 10
5.7162683004
 20
5.1410159613
 30
0.0
 10
5.7132056222
 20
5.1412950874
 30
0.0
 10
5.710077484
 20
5.1410736391
 30
0.0
  0
SPLINE
  5
39D
100
AcDbEntity
  8
ALL_ASSEMBLY_MEMBERS
100
AcDbSpline
 62
7
  6
CONTINUOUS
 70
0
 71
3
 72
8
 73
4
 74
0
 42
0.0000001
 43
0.0000001
 44
0.0000000001
 40
0.0
 40
0.0
 40
0.0
 40
0.0
 40
1.0
 40
1.0
 40
1.0
 40
1.0
 10
5.710077484
 20
5.1410736391
 30
0.0
 10
5.7068780865
 20
5.1408471462
 30
0.0
 10
5.7036132285
 20
5.1401200805
 30
0.0
 10
5.7002583019
 20
5.1389717732
 30
0.0
  0
SPLINE
  5
39E
100
AcDbEntity
  8
ALL_ASSEMBLY_MEMBERS
100
AcDbSpline
 62
7
  6
CONTINUOUS
 70
0
 71
3
 72
8
 73
4
 74
0
 42
0.0000001
 43
0.0000001
 44
0.0000000001
 40
0.0
 40
0.0
 40
0.0
 40
0.0
 40
1.0
 40
1.0
 40
1.0
 40
1.0
 10
5.7002583019
 20
5.1389717732
 30
0.0
 10
5.6952259104
 20
5.1372493117
 30
0.0
 10
5.6909919059
 20
5.1350192915
 30
0.0
 10
5.6876899312
 20
5.1322965384
 30
0.0
  0
SPLINE
  5
39F
100
AcDbEntity
  8
ALL_ASSEMBLY_MEMBERS
100
AcDbSpline
 62
7
  6
CONTINUOUS
 70
0
 71
3
 72
8
 73
4
 74
0
 42
0.0000001
 43
0.0000001
 44
0.0000000001
 40
0.0
 40
0.0
 40
0.0
 40
0.0
 40
1.0
 40
1.0
 40
1.0
 40
1.0
 10
5.6876899312
 20
5.1322965384
 30
0.0
 10
5.6843542723
 20
5.12954601
 30
0.0
 10
5.6817189119
 20
5.1260672686
 30
0.0
 10
5.6797201003
 20
5.1218694093
 30
0.0
  0
LINE
  5
3A0
100
AcDbEntity
  8
ALL_ASSEMBLY_MEMBERS
100
AcDbLine
 62
7
  6
CONTINUOUS
 10
5.7971412787
 20
5.0578189927
 11
5.7971512509
 21
5.0525568161
  0
LINE
  5
3A1
100
AcDbEntity
  8
ALL_ASSEMBLY_MEMBERS
100
AcDbLine
 62
7
  6
CONTINUOUS
 10
5.7971512509
 20
5.0525568161
 11
5.7979011978
 21
5.0473547186
  0
SPLINE
  5
3A2
100
AcDbEntity
  8
ALL_ASSEMBLY_MEMBERS
100
AcDbSpline
 62
7
  6
CONTINUOUS
 70
0
 71
3
 72
8
 73
4
 74
0
 42
0.0000001
 43
0.0000001
 44
0.0000000001
 40
0.0
 40
0.0
 40
0.0
 40
0.0
 40
1.0
 40
1.0
 40
1.0
 40
1.0
 10
5.7979011978
 20
5.0473547186
 30
0.0
 10
5.7984099482
 20
5.0447443285
 30
0.0
 10
5.7992087434
 20
5.0421904664
 30
0.0
 10
5.8003117088
 20
5.0396206304
 30
0.0
  0
SPLINE
  5
3A3
100
AcDbEntity
  8
ALL_ASSEMBLY_MEMBERS
100
AcDbSpline
 62
7
  6
CONTINUOUS
 70
0
 71
3
 72
8
 73
4
 74
0
 42
0.0000001
 43
0.0000001
 44
0.0000000001
 40
0.0
 40
0.0
 40
0.0
 40
0.0
 40
1.0
 40
1.0
 40
1.0
 40
1.0
 10
5.8003117088
 20
5.0396206304
 30
0.0
 10
5.8014146797
 20
5.0370507813
 30
0.0
 10
5.8028943353
 20
5.0344790909
 30
0.0
 10
5.8046640317
 20
5.0319639145
 30
0.0
  0
SPLINE
  5
3A4
100
AcDbEntity
  8
ALL_ASSEMBLY_MEMBERS
100
AcDbSpline
 62
7
  6
CONTINUOUS
 70
0
 71
3
 72
8
 73
4
 74
0
 42
0.0000001
 43
0.0000001
 44
0.0000000001
 40
0.0
 40
0.0
 40
0.0
 40
0.0
 40
1.0
 40
1.0
 40
1.0
 40
1.0
 10
5.8046640317
 20
5.0319639145
 30
0.0
 10
5.8013679
 20
5.0334289495
 30
0.0
 10
5.7986414312
 20
5.0358329117
 30
0.0
 10
5.7963395977
 20
5.0391475484
 30
0.0
  0
SPLINE
  5
3A5
100
AcDbEntity
  8
ALL_ASSEMBLY_MEMBERS
100
AcDbSpline
 62
7
  6
CONTINUOUS
 70
0
 71
3
 72
8
 73
4
 74
0
 42
0.0000001
 43
0.0000001
 44
0.0000000001
 40
0.0
 40
0.0
 40
0.0
 40
0.0
 40
1.0
 40
1.0
 40
1.0
 40
1.0
 10
5.7963395977
 20
5.0391475484
 30
0.0
 10
5.7940377628
 20
5.0424621872
 30
0.0
 10
5.7924487545
 20
5.0463673368
 30
0.0
 10
5.7915725751
 20
5.0508629987
 30
0.0
  0
SPLINE
  5
3A6
100
AcDbEntity
  8
ALL_ASSEMBLY_MEMBERS
100
AcDbSpline
 62
7
  6
CONTINUOUS
 70
0
 71
3
 72
8
 73
4
 74
0
 42
0.0000001
 43
0.0000001
 44
0.0000000001
 40
0.0
 40
0.0
 40
0.0
 40
0.0
 40
1.0
 40
1.0
 40
1.0
 40
1.0
 10
5.7915725751
 20
5.0508629987
 30
0.0
 10
5.7913323301
 20
5.0520956922
 30
0.0
 10
5.7909724214
 20
5.0541492122
 30
0.0
 10
5.7908930651
 20
5.0570528369
 30
0.0
  0
SPLINE
  5
3A7
100
AcDbEntity
  8
ALL_ASSEMBLY_MEMBERS
100
AcDbSpline
 62
7
  6
CONTINUOUS
 70
0
 71
3
 72
8
 73
4
 74
0
 42
0.0000001
 43
0.0000001
 44
0.0000000001
 40
0.0
 40
0.0
 40
0.0
 40
0.0
 40
1.0
 40
1.0
 40
1.0
 40
1.0
 10
5.7273926716
 20
5.131783764
 30
0.0
 10
5.7218009817
 20
5.1066012581
 30
0.0
 10
5.7147655085
 20
5.0924808037
 30
0.0
 10
5.706378192
 20
5.0896100354
 30
0.0
  0
SPLINE
  5
3A8
100
AcDbEntity
  8
ALL_ASSEMBLY_MEMBERS
100
AcDbSpline
 62
7
  6
CONTINUOUS
 70
0
 71
3
 72
8
 73
4
 74
0
 42
0.0000001
 43
0.0000001
 44
0.0000000001
 40
0.0
 40
0.0
 40
0.0
 40
0.0
 40
1.0
 40
1.0
 40
1.0
 40
1.0
 10
5.706378192
 20
5.0896100354
 30
0.0
 10
5.7012759073
 20
5.0878636513
 30
0.0
 10
5.6964124008
 20
5.088385312
 30
0.0
 10
5.6917539237
 20
5.0911020369
 30
0.0
  0
SPLINE
  5
3A9
100
AcDbEntity
  8
ALL_ASSEMBLY_MEMBERS
100
AcDbSpline
 62
7
  6
CONTINUOUS
 70
0
 71
3
 72
8
 73
4
 74
0
 42
0.0000001
 43
0.0000001
 44
0.0000000001
 40
0.0
 40
0.0
 40
0.0
 40
0.0
 40
1.0
 40
1.0
 40
1.0
 40
1.0
 10
5.6917539237
 20
5.0911020369
 30
0.0
 10
5.6870470861
 20
5.0938469645
 30
0.0
 10
5.6837649024
 20
5.0981893344
 30
0.0
 10
5.6817075177
 20
5.1042002469
 30
0.0
  0
SPLINE
  5
3AA
100
AcDbEntity
  8
ALL_ASSEMBLY_MEMBERS
100
AcDbSpline
 62
7
  6
CONTINUOUS
 70
0
 71
3
 72
8
 73
4
 74
0
 42
0.0000001
 43
0.0000001
 44
0.0000000001
 40
0.0
 40
0.0
 40
0.0
 40
0.0
 40
1.0
 40
1.0
 40
1.0
 40
1.0
 10
5.6817075177
 20
5.1042002469
 30
0.0
 10
5.6794587495
 20
5.1107703108
 30
0.0
 10
5.6801825895
 20
5.1166400082
 30
0.0
 10
5.6839704142
 20
5.1219444828
 30
0.0
  0
SPLINE
  5
3AB
100
AcDbEntity
  8
ALL_ASSEMBLY_MEMBERS
100
AcDbSpline
 62
7
  6
CONTINUOUS
 70
0
 71
3
 72
8
 73
4
 74
0
 42
0.0000001
 43
0.0000001
 44
0.0000000001
 40
0.0
 40
0.0
 40
0.0
 40
0.0
 40
1.0
 40
1.0
 40
1.0
 40
1.0
 10
5.6839704142
 20
5.1219444828
 30
0.0
 10
5.6877832944
 20
5.1272840452
 30
0.0
 10
5.6942445427
 20
5.1314476332
 30
0.0
 10
5.7033308015
 20
5.1345576319
 30
0.0
  0
SPLINE
  5
3AC
100
AcDbEntity
  8
ALL_ASSEMBLY_MEMBERS
100
AcDbSpline
 62
7
  6
CONTINUOUS
 70
0
 71
3
 72
8
 73
4
 74
0
 42
0.0000001
 43
0.0000001
 44
0.0000000001
 40
0.0
 40
0.0
 40
0.0
 40
0.0
 40
1.0
 40
1.0
 40
1.0
 40
1.0
 10
5.7033308015
 20
5.1345576319
 30
0.0
 10
5.7087126649
 20
5.1363997089
 30
0.0
 10
5.7135888434
 20
5.1372097947
 30
0.0
 10
5.7180285632
 20
5.1369982167
 30
0.0
  0
SPLINE
  5
3AD
100
AcDbEntity
  8
ALL_ASSEMBLY_MEMBERS
100
AcDbSpline
 62
7
  6
CONTINUOUS
 70
0
 71
3
 72
8
 73
4
 74
0
 42
0.0000001
 43
0.0000001
 44
0.0000000001
 40
0.0
 40
0.0
 40
0.0
 40
0.0
 40
1.0
 40
1.0
 40
1.0
 40
1.0
 10
5.7180285632
 20
5.1369982167
 30
0.0
 10
5.7223997258
 20
5.1367899058
 30
0.0
 10
5.7256336147
 20
5.1355543069
 30
0.0
 10
5.7277069714
 20
5.1333749111
 30
0.0
  0
SPLINE
  5
3AE
100
AcDbEntity
  8
ALL_ASSEMBLY_MEMBERS
100
AcDbSpline
 62
7
  6
CONTINUOUS
 70
0
 71
3
 72
8
 73
4
 74
0
 42
0.0000001
 43
0.0000001
 44
0.0000000001
 40
0.0
 40
0.0
 40
0.0
 40
0.0
 40
1.0
 40
1.0
 40
1.0
 40
1.0
 10
5.7479554781
 20
5.1079792804
 30
0.0
 10
5.7502253946
 20
5.1075068948
 30
0.0
 10
5.7527730129
 20
5.1073638051
 30
0.0
 10
5.7555007667
 20
5.1076317425
 30
0.0
  0
SPLINE
  5
3AF
100
AcDbEntity
  8
ALL_ASSEMBLY_MEMBERS
100
AcDbSpline
 62
7
  6
CONTINUOUS
 70
0
 71
3
 72
8
 73
4
 74
0
 42
0.0000001
 43
0.0000001
 44
0.0000000001
 40
0.0
 40
0.0
 40
0.0
 40
0.0
 40
1.0
 40
1.0
 40
1.0
 40
1.0
 10
5.7555007667
 20
5.1076317425
 30
0.0
 10
5.7582120972
 20
5.1078980666
 30
0.0
 10
5.760987694
 20
5.1084576654
 30
0.0
 10
5.7639232586
 20
5.1094624356
 30
0.0
  0
SPLINE
  5
3B0
100
AcDbEntity
  8
ALL_ASSEMBLY_MEMBERS
100
AcDbSpline
 62
7
  6
CONTINUOUS
 70
0
 71
3
 72
8
 73
4
 74
0
 42
0.0000001
 43
0.0000001
 44
0.0000000001
 40
0.0
 40
0.0
 40
0.0
 40
0.0
 40
1.0
 40
1.0
 40
1.0
 40
1.0
 10
5.7639232586
 20
5.1094624356
 30
0.0
 10
5.7667190277
 20
5.1104193573
 30
0.0
 10
5.7694411554
 20
5.1118195714
 30
0.0
 10
5.7720896432
 20
5.1136630724
 30
0.0
  0
SPLINE
  5
3B1
100
AcDbEntity
  8
ALL_ASSEMBLY_MEMBERS
100
AcDbSpline
 62
7
  6
CONTINUOUS
 70
0
 71
3
 72
8
 73
4
 74
0
 42
0.0000001
 43
0.0000001
 44
0.0000000001
 40
0.0
 40
0.0
 40
0.0
 40
0.0
 40
1.0
 40
1.0
 40
1.0
 40
1.0
 10
5.7720896432
 20
5.1136630724
 30
0.0
 10
5.7747381259
 20
5.1155065699
 30
0.0
 10
5.7772669972
 20
5.1176995468
 30
0.0
 10
5.7796762473
 20
5.1202419919
 30
0.0
  0
SPLINE
  5
3B2
100
AcDbEntity
  8
ALL_ASSEMBLY_MEMBERS
100
AcDbSpline
 62
7
  6
CONTINUOUS
 70
0
 71
3
 72
8
 73
4
 74
0
 42
0.0000001
 43
0.0000001
 44
0.0000000001
 40
0.0
 40
0.0
 40
0.0
 40
0.0
 40
1.0
 40
1.0
 40
1.0
 40
1.0
 10
5.7796762473
 20
5.1202419919
 30
0.0
 10
5.77844065
 20
5.1170081036
 30
0.0
 10
5.7766641905
 20
5.1142137557
 30
0.0
 10
5.7742070939
 20
5.1118111
 30
0.0
  0
SPLINE
  5
3B3
100
AcDbEntity
  8
ALL_ASSEMBLY_MEMBERS
100
AcDbSpline
 62
7
  6
CONTINUOUS
 70
0
 71
3
 72
8
 73
4
 74
0
 42
0.0000001
 43
0.0000001
 44
0.0000000001
 40
0.0
 40
0.0
 40
0.0
 40
0.0
 40
1.0
 40
1.0
 40
1.0
 40
1.0
 10
5.7742070939
 20
5.1118111
 30
0.0
 10
5.7717499974
 20
5.1094084443
 30
0.0
 10
5.7689138732
 20
5.1076568869
 30
0.0
 10
5.7658385254
 20
5.1066042724
 30
0.0
  0
SPLINE
  5
3B4
100
AcDbEntity
  8
ALL_ASSEMBLY_MEMBERS
100
AcDbSpline
 62
7
  6
CONTINUOUS
 70
0
 71
3
 72
8
 73
4
 74
0
 42
0.0000001
 43
0.0000001
 44
0.0000000001
 40
0.0
 40
0.0
 40
0.0
 40
0.0
 40
1.0
 40
1.0
 40
1.0
 40
1.0
 10
5.7658385254
 20
5.1066042724
 30
0.0
 10
5.7623438094
 20
5.1054081187
 30
0.0
 10
5.7591469696
 20
5.1049385777
 30
0.0
 10
5.7561082207
 20
5.10514781
 30
0.0
  0
SPLINE
  5
3B5
100
AcDbEntity
  8
ALL_ASSEMBLY_MEMBERS
100
AcDbSpline
 62
7
  6
CONTINUOUS
 70
0
 71
3
 72
8
 73
4
 74
0
 42
0.0000001
 43
0.0000001
 44
0.0000000001
 40
0.0
 40
0.0
 40
0.0
 40
0.0
 40
1.0
 40
1.0
 40
1.0
 40
1.0
 10
5.7561082207
 20
5.10514781
 30
0.0
 10
5.7530694658
 20
5.1053570428
 30
0.0
 10
5.7503984828
 20
5.1063168174
 30
0.0
 10
5.7479554781
 20
5.1079792804
 30
0.0
  0
SPLINE
  5
3B6
100
AcDbEntity
  8
ALL_ASSEMBLY_MEMBERS
100
AcDbSpline
 62
7
  6
CONTINUOUS
 70
0
 71
3
 72
8
 73
4
 74
0
 42
0.0000001
 43
0.0000001
 44
0.0000000001
 40
0.0
 40
0.0
 40
0.0
 40
0.0
 40
1.0
 40
1.0
 40
1.0
 40
1.0
 10
5.7286850393
 20
5.1366768161
 30
0.0
 10
5.7235082102
 20
5.1413076889
 30
0.0
 10
5.7181108991
 20
5.1443014432
 30
0.0
 10
5.7125656572
 20
5.145692556
 30
0.0
  0
SPLINE
  5
3B7
100
AcDbEntity
  8
ALL_ASSEMBLY_MEMBERS
100
AcDbSpline
 62
7
  6
CONTINUOUS
 70
0
 71
3
 72
8
 73
4
 74
0
 42
0.0000001
 43
0.0000001
 44
0.0000000001
 40
0.0
 40
0.0
 40
0.0
 40
0.0
 40
1.0
 40
1.0
 40
1.0
 40
1.0
 10
5.7125656572
 20
5.145692556
 30
0.0
 10
5.7069212828
 20
5.1471085378
 30
0.0
 10
5.7013865084
 20
5.1468538577
 30
0.0
 10
5.6959347503
 20
5.1449878575
 30
0.0
  0
SPLINE
  5
3B8
100
AcDbEntity
  8
ALL_ASSEMBLY_MEMBERS
100
AcDbSpline
 62
7
  6
CONTINUOUS
 70
0
 71
3
 72
8
 73
4
 74
0
 42
0.0000001
 43
0.0000001
 44
0.0000000001
 40
0.0
 40
0.0
 40
0.0
 40
0.0
 40
1.0
 40
1.0
 40
1.0
 40
1.0
 10
5.6959347503
 20
5.1449878575
 30
0.0
 10
5.6914615163
 20
5.1434567816
 30
0.0
 10
5.6874428177
 20
5.1405977125
 30
0.0
 10
5.6839022808
 20
5.1362908936
 30
0.0
  0
SPLINE
  5
3B9
100
AcDbEntity
  8
ALL_ASSEMBLY_MEMBERS
100
AcDbSpline
 62
7
  6
CONTINUOUS
 70
0
 71
3
 72
8
 73
4
 74
0
 42
0.0000001
 43
0.0000001
 44
0.0000000001
 40
0.0
 40
0.0
 40
0.0
 40
0.0
 40
1.0
 40
1.0
 40
1.0
 40
1.0
 10
5.6839022808
 20
5.1362908936
 30
0.0
 10
5.6803862696
 20
5.1320139085
 30
0.0
 10
5.67811163
 20
5.1272531457
 30
0.0
 10
5.6771728608
 20
5.1221149812
 30
0.0
  0
SPLINE
  5
3BA
100
AcDbEntity
  8
ALL_ASSEMBLY_MEMBERS
100
AcDbSpline
 62
7
  6
CONTINUOUS
 70
0
 71
3
 72
8
 73
4
 74
0
 42
0.0000001
 43
0.0000001
 44
0.0000000001
 40
0.0
 40
0.0
 40
0.0
 40
0.0
 40
1.0
 40
1.0
 40
1.0
 40
1.0
 10
5.6771728608
 20
5.1221149812
 30
0.0
 10
5.6765898561
 20
5.1189240217
 30
0.0
 10
5.6764045461
 20
5.1158153767
 30
0.0
 10
5.67661468
 20
5.11292016
 30
0.0
  0
SPLINE
  5
3BB
100
AcDbEntity
  8
ALL_ASSEMBLY_MEMBERS
100
AcDbSpline
 62
7
  6
CONTINUOUS
 70
0
 71
3
 72
8
 73
4
 74
0
 42
0.0000001
 43
0.0000001
 44
0.0000000001
 40
0.0
 40
0.0
 40
0.0
 40
0.0
 40
1.0
 40
1.0
 40
1.0
 40
1.0
 10
5.67661468
 20
5.11292016
 30
0.0
 10
5.6768248137
 20
5.1100249466
 30
0.0
 10
5.6773623705
 20
5.1070856359
 30
0.0
 10
5.6783192933
 20
5.1042898638
 30
0.0
  0
SPLINE
  5
3BC
100
AcDbEntity
  8
ALL_ASSEMBLY_MEMBERS
100
AcDbSpline
 62
7
  6
CONTINUOUS
 70
0
 71
3
 72
8
 73
4
 74
0
 42
0.0000001
 43
0.0000001
 44
0.0000000001
 40
0.0
 40
0.0
 40
0.0
 40
0.0
 40
1.0
 40
1.0
 40
1.0
 40
1.0
 10
5.6783192933
 20
5.1042898638
 30
0.0
 10
5.6812857543
 20
5.0956229685
 30
0.0
 10
5.6865934502
 20
5.0892409859
 30
0.0
 10
5.6943696889
 20
5.0851680382
 30
0.0
  0
SPLINE
  5
3BD
100
AcDbEntity
  8
ALL_ASSEMBLY_MEMBERS
100
AcDbSpline
 62
7
  6
CONTINUOUS
 70
0
 71
3
 72
8
 73
4
 74
0
 42
0.0000001
 43
0.0000001
 44
0.0000000001
 40
0.0
 40
0.0
 40
0.0
 40
0.0
 40
1.0
 40
1.0
 40
1.0
 40
1.0
 10
5.6943696889
 20
5.0851680382
 30
0.0
 10
5.7021009898
 20
5.0811186275
 30
0.0
 10
5.7100032469
 20
5.0803877406
 30
0.0
 10
5.7180410931
 20
5.0831388939
 30
0.0
  0
SPLINE
  5
3BE
100
AcDbEntity
  8
ALL_ASSEMBLY_MEMBERS
100
AcDbSpline
 62
7
  6
CONTINUOUS
 70
0
 71
3
 72
8
 73
4
 74
0
 42
0.0000001
 43
0.0000001
 44
0.0000000001
 40
0.0
 40
0.0
 40
0.0
 40
0.0
 40
1.0
 40
1.0
 40
1.0
 40
1.0
 10
5.7180410931
 20
5.0831388939
 30
0.0
 10
5.723492848
 20
5.085004893
 30
0.0
 10
5.7279989349
 20
5.0882650259
 30
0.0
 10
5.7315593429
 20
5.0929192995
 30
0.0
  0
SPLINE
  5
3BF
100
AcDbEntity
  8
ALL_ASSEMBLY_MEMBERS
100
AcDbSpline
 62
7
  6
CONTINUOUS
 70
0
 71
3
 72
8
 73
4
 74
0
 42
0.0000001
 43
0.0000001
 44
0.0000000001
 40
0.0
 40
0.0
 40
0.0
 40
0.0
 40
1.0
 40
1.0
 40
1.0
 40
1.0
 10
5.7315593429
 20
5.0929192995
 30
0.0
 10
5.7351197504
 20
5.0975735723
 30
0.0
 10
5.7376425444
 20
5.1034343461
 30
0.0
 10
5.7391736947
 20
5.1105954377
 30
0.0
  0
SPLINE
  5
3C0
100
AcDbEntity
  8
ALL_ASSEMBLY_MEMBERS
100
AcDbSpline
 62
7
  6
CONTINUOUS
 70
0
 71
3
 72
8
 73
4
 74
0
 42
0.0000001
 43
0.0000001
 44
0.0000000001
 40
0.0
 40
0.0
 40
0.0
 40
0.0
 40
1.0
 40
1.0
 40
1.0
 40
1.0
 10
5.7391736947
 20
5.1105954377
 30
0.0
 10
5.743204543
 20
5.1061189019
 30
0.0
 10
5.7476435059
 20
5.1031875406
 30
0.0
 10
5.7524905891
 20
5.1018013543
 30
0.0
  0
SPLINE
  5
3C1
100
AcDbEntity
  8
ALL_ASSEMBLY_MEMBERS
100
AcDbSpline
 62
7
  6
CONTINUOUS
 70
0
 71
3
 72
8
 73
4
 74
0
 42
0.0000001
 43
0.0000001
 44
0.0000000001
 40
0.0
 40
0.0
 40
0.0
 40
0.0
 40
1.0
 40
1.0
 40
1.0
 40
1.0
 10
5.7524905891
 20
5.1018013543
 30
0.0
 10
5.7573376671
 20
5.1004151694
 30
0.0
 10
5.7623592622
 20
5.1005722824
 30
0.0
 10
5.7676013362
 20
5.1023665129
 30
0.0
  0
SPLINE
  5
3C2
100
AcDbEntity
  8
ALL_ASSEMBLY_MEMBERS
100
AcDbSpline
 62
7
  6
CONTINUOUS
 70
0
 71
3
 72
8
 73
4
 74
0
 42
0.0000001
 43
0.0000001
 44
0.0000000001
 40
0.0
 40
0.0
 40
0.0
 40
0.0
 40
1.0
 40
1.0
 40
1.0
 40
1.0
 10
5.7676013362
 20
5.1023665129
 30
0.0
 10
5.7747305576
 20
5.1048066667
 30
0.0
 10
5.7798323865
 20
5.1095200352
 30
0.0
 10
5.7829068354
 20
5.1165066173
 30
0.0
  0
SPLINE
  5
3C3
100
AcDbEntity
  8
ALL_ASSEMBLY_MEMBERS
100
AcDbSpline
 62
7
  6
CONTINUOUS
 70
0
 71
3
 72
8
 73
4
 74
0
 42
0.0000001
 43
0.0000001
 44
0.0000000001
 40
0.0
 40
0.0
 40
0.0
 40
0.0
 40
1.0
 40
1.0
 40
1.0
 40
1.0
 10
5.7829068354
 20
5.1165066173
 30
0.0
 10
5.7859812863
 20
5.1234932038
 30
0.0
 10
5.7861788168
 20
5.1309005744
 30
0.0
 10
5.7835233563
 20
5.1386588418
 30
0.0
  0
SPLINE
  5
3C4
100
AcDbEntity
  8
ALL_ASSEMBLY_MEMBERS
100
AcDbSpline
 62
7
  6
CONTINUOUS
 70
0
 71
3
 72
8
 73
4
 74
0
 42
0.0000001
 43
0.0000001
 44
0.0000000001
 40
0.0
 40
0.0
 40
0.0
 40
0.0
 40
1.0
 40
1.0
 40
1.0
 40
1.0
 10
5.7835233563
 20
5.1386588418
 30
0.0
 10
5.7807482798
 20
5.1467665827
 30
0.0
 10
5.7759354687
 20
5.1526152049
 30
0.0
 10
5.7691181353
 20
5.1562746577
 30
0.0
  0
SPLINE
  5
3C5
100
AcDbEntity
  8
ALL_ASSEMBLY_MEMBERS
100
AcDbSpline
 62
7
  6
CONTINUOUS
 70
0
 71
3
 72
8
 73
4
 74
0
 42
0.0000001
 43
0.0000001
 44
0.0000000001
 40
0.0
 40
0.0
 40
0.0
 40
0.0
 40
1.0
 40
1.0
 40
1.0
 40
1.0
 10
5.7691181353
 20
5.1562746577
 30
0.0
 10
5.762256427
 20
5.1599579303
 30
0.0
 10
5.7551966547
 20
5.1605086849
 30
0.0
 10
5.7477878546
 20
5.1579728383
 30
0.0
  0
SPLINE
  5
3C6
100
AcDbEntity
  8
ALL_ASSEMBLY_MEMBERS
100
AcDbSpline
 62
7
  6
CONTINUOUS
 70
0
 71
3
 72
8
 73
4
 74
0
 42
0.0000001
 43
0.0000001
 44
0.0000000001
 40
0.0
 40
0.0
 40
0.0
 40
0.0
 40
1.0
 40
1.0
 40
1.0
 40
1.0
 10
5.7477878546
 20
5.1579728383
 30
0.0
 10
5.7434544085
 20
5.1564896083
 30
0.0
 10
5.7397593873
 20
5.1540536562
 30
0.0
 10
5.736643436
 20
5.1505832239
 30
0.0
  0
SPLINE
  5
3C7
100
AcDbEntity
  8
ALL_ASSEMBLY_MEMBERS
100
AcDbSpline
 62
7
  6
CONTINUOUS
 70
0
 71
3
 72
8
 73
4
 74
0
 42
0.0000001
 43
0.0000001
 44
0.0000000001
 40
0.0
 40
0.0
 40
0.0
 40
0.0
 40
1.0
 40
1.0
 40
1.0
 40
1.0
 10
5.736643436
 20
5.1505832239
 30
0.0
 10
5.7334843474
 20
5.147064747
 30
0.0
 10
5.7308583599
 20
5.1424179738
 30
0.0
 10
5.7286850393
 20
5.1366768161
 30
0.0
  0
SPLINE
  5
3C8
100
AcDbEntity
  8
ALL_ASSEMBLY_MEMBERS
100
AcDbSpline
 62
7
  6
CONTINUOUS
 70
0
 71
3
 72
8
 73
4
 74
0
 42
0.0000001
 43
0.0000001
 44
0.0000000001
 40
0.0
 40
0.0
 40
0.0
 40
0.0
 40
1.0
 40
1.0
 40
1.0
 40
1.0
 10
5.7020870228
 20
5.0407987462
 30
0.0
 10
5.7034304127
 20
5.0458775273
 30
0.0
 10
5.7056967585
 20
5.0500824777
 30
0.0
 10
5.7088704694
 20
5.0534283143
 30
0.0
  0
SPLINE
  5
3C9
100
AcDbEntity
  8
ALL_ASSEMBLY_MEMBERS
100
AcDbSpline
 62
7
  6
CONTINUOUS
 70
0
 71
3
 72
8
 73
4
 74
0
 42
0.0000001
 43
0.0000001
 44
0.0000000001
 40
0.0
 40
0.0
 40
0.0
 40
0.0
 40
1.0
 40
1.0
 40
1.0
 40
1.0
 10
5.7088704694
 20
5.0534283143
 30
0.0
 10
5.7120028494
 20
5.0567305784
 30
0.0
 10
5.71582321
 20
5.0587546545
 30
0.0
 10
5.7201738576
 20
5.0596025714
 30
0.0
  0
SPLINE
  5
3CA
100
AcDbEntity
  8
ALL_ASSEMBLY_MEMBERS
100
AcDbSpline
 62
7
  6
CONTINUOUS
 70
0
 71
3
 72
8
 73
4
 74
0
 42
0.0000001
 43
0.0000001
 44
0.0000000001
 40
0.0
 40
0.0
 40
0.0
 40
0.0
 40
1.0
 40
1.0
 40
1.0
 40
1.0
 10
5.7201738576
 20
5.0596025714
 30
0.0
 10
5.7226392253
 20
5.0600830577
 30
0.0
 10
5.7246818101
 20
5.0600295534
 30
0.0
 10
5.7263809433
 20
5.0593653029
 30
0.0
  0
SPLINE
  5
3CB
100
AcDbEntity
  8
ALL_ASSEMBLY_MEMBERS
100
AcDbSpline
 62
7
  6
CONTINUOUS
 70
0
 71
3
 72
8
 73
4
 74
0
 42
0.0000001
 43
0.0000001
 44
0.0000000001
 40
0.0
 40
0.0
 40
0.0
 40
0.0
 40
1.0
 40
1.0
 40
1.0
 40
1.0
 10
5.7263809433
 20
5.0593653029
 30
0.0
 10
5.7280221832
 20
5.0587236851
 30
0.0
 10
5.7290741751
 20
5.057573941
 30
0.0
 10
5.7293850784
 20
5.0559787012
 30
0.0
  0
SPLINE
  5
3CC
100
AcDbEntity
  8
ALL_ASSEMBLY_MEMBERS
100
AcDbSpline
 62
7
  6
CONTINUOUS
 70
0
 71
3
 72
8
 73
4
 74
0
 42
0.0000001
 43
0.0000001
 44
0.0000000001
 40
0.0
 40
0.0
 40
0.0
 40
0.0
 40
1.0
 40
1.0
 40
1.0
 40
1.0
 10
5.7293850784
 20
5.0559787012
 30
0.0
 10
5.729653585
 20
5.0546009981
 30
0.0
 10
5.7292270986
 20
5.0533136378
 30
0.0
 10
5.7282207119
 20
5.0522323108
 30
0.0
  0
SPLINE
  5
3CD
100
AcDbEntity
  8
ALL_ASSEMBLY_MEMBERS
100
AcDbSpline
 62
7
  6
CONTINUOUS
 70
0
 71
3
 72
8
 73
4
 74
0
 42
0.0000001
 43
0.0000001
 44
0.0000000001
 40
0.0
 40
0.0
 40
0.0
 40
0.0
 40
1.0
 40
1.0
 40
1.0
 40
1.0
 10
5.7282207119
 20
5.0522323108
 30
0.0
 10
5.7271734094
 20
5.0511070213
 30
0.0
 10
5.7256629637
 20
5.0503610578
 30
0.0
 10
5.7237051727
 20
5.0499794953
 30
0.0
  0
SPLINE
  5
3CE
100
AcDbEntity
  8
ALL_ASSEMBLY_MEMBERS
100
AcDbSpline
 62
7
  6
CONTINUOUS
 70
0
 71
3
 72
8
 73
4
 74
0
 42
0.0000001
 43
0.0000001
 44
0.0000000001
 40
0.0
 40
0.0
 40
0.0
 40
0.0
 40
1.0
 40
1.0
 40
1.0
 40
1.0
 10
5.7237051727
 20
5.0499794953
 30
0.0
 10
5.722545
 20
5.0497533842
 30
0.0
 10
5.7208348567
 20
5.0496458798
 30
0.0
 10
5.7185022288
 20
5.0496428533
 30
0.0
  0
SPLINE
  5
3CF
100
AcDbEntity
  8
ALL_ASSEMBLY_MEMBERS
100
AcDbSpline
 62
7
  6
CONTINUOUS
 70
0
 71
3
 72
8
 73
4
 74
0
 42
0.0000001
 43
0.0000001
 44
0.0000000001
 40
0.0
 40
0.0
 40
0.0
 40
0.0
 40
1.0
 40
1.0
 40
1.0
 40
1.0
 10
5.7185022288
 20
5.0496428533
 30
0.0
 10
5.7161696037
 20
5.0496398268
 30
0.0
 10
5.7144594575
 20
5.0495323286
 30
0.0
 10
5.7133717961
 20
5.0493203495
 30
0.0
  0
SPLINE
  5
3D0
100
AcDbEntity
  8
ALL_ASSEMBLY_MEMBERS
100
AcDbSpline
 62
7
  6
CONTINUOUS
 70
0
 71
3
 72
8
 73
4
 74
0
 42
0.0000001
 43
0.0000001
 44
0.0000000001
 40
0.0
 40
0.0
 40
0.0
 40
0.0
 40
1.0
 40
1.0
 40
1.0
 40
1.0
 10
5.7133717961
 20
5.0493203495
 30
0.0
 10
5.7109789395
 20
5.0488539951
 30
0.0
 10
5.7088158975
 20
5.0479808377
 30
0.0
 10
5.7069834423
 20
5.046569993
 30
0.0
  0
SPLINE
  5
3D1
100
AcDbEntity
  8
ALL_ASSEMBLY_MEMBERS
100
AcDbSpline
 62
7
  6
CONTINUOUS
 70
0
 71
3
 72
8
 73
4
 74
0
 42
0.0000001
 43
0.0000001
 44
0.0000000001
 40
0.0
 40
0.0
 40
0.0
 40
0.0
 40
1.0
 40
1.0
 40
1.0
 40
1.0
 10
5.7069834423
 20
5.046569993
 30
0.0
 10
5.7051509865
 20
5.0451591479
 30
0.0
 10
5.7034899657
 20
5.0432548599
 30
0.0
 10
5.7020870228
 20
5.0407987462
 30
0.0
  0
SPLINE
  5
3D2
100
AcDbEntity
  8
ALL_ASSEMBLY_MEMBERS
100
AcDbSpline
 62
7
  6
CONTINUOUS
 70
0
 71
3
 72
8
 73
4
 74
0
 42
0.0000001
 43
0.0000001
 44
0.0000000001
 40
0.0
 40
0.0
 40
0.0
 40
0.0
 40
1.0
 40
1.0
 40
1.0
 40
1.0
 10
5.7050957743
 20
5.0191819515
 30
0.0
 10
5.7079955311
 20
5.0166612245
 30
0.0
 10
5.7119000061
 20
5.0151642414
 30
0.0
 10
5.7167544931
 20
5.0146394337
 30
0.0
  0
SPLINE
  5
3D3
100
AcDbEntity
  8
ALL_ASSEMBLY_MEMBERS
100
AcDbSpline
 62
7
  6
CONTINUOUS
 70
0
 71
3
 72
8
 73
4
 74
0
 42
0.0000001
 43
0.0000001
 44
0.0000000001
 40
0.0
 40
0.0
 40
0.0
 40
0.0
 40
1.0
 40
1.0
 40
1.0
 40
1.0
 10
5.7167544931
 20
5.0146394337
 30
0.0
 10
5.7215875135
 20
5.0141169466
 30
0.0
 10
5.7277472304
 20
5.0145647798
 30
0.0
 10
5.7351433337
 20
5.0160062389
 30
0.0
  0
SPLINE
  5
3D4
100
AcDbEntity
  8
ALL_ASSEMBLY_MEMBERS
100
AcDbSpline
 62
7
  6
CONTINUOUS
 70
0
 71
3
 72
8
 73
4
 74
0
 42
0.0000001
 43
0.0000001
 44
0.0000000001
 40
0.0
 40
0.0
 40
0.0
 40
0.0
 40
1.0
 40
1.0
 40
1.0
 40
1.0
 10
5.7351433337
 20
5.0160062389
 30
0.0
 10
5.7416693058
 20
5.0172781143
 30
0.0
 10
5.7468354053
 20
5.0189623505
 30
0.0
 10
5.7507282783
 20
5.0210005523
 30
0.0
  0
SPLINE
  5
3D5
100
AcDbEntity
  8
ALL_ASSEMBLY_MEMBERS
100
AcDbSpline
 62
7
  6
CONTINUOUS
 70
0
 71
3
 72
8
 73
4
 74
0
 42
0.0000001
 43
0.0000001
 44
0.0000000001
 40
0.0
 40
0.0
 40
0.0
 40
0.0
 40
1.0
 40
1.0
 40
1.0
 40
1.0
 10
5.7507282783
 20
5.0210005523
 30
0.0
 10
5.7546211513
 20
5.023038754
 30
0.0
 10
5.757371682
 20
5.025531712
 30
0.0
 10
5.7589073648
 20
5.0284652819
 30
0.0
  0
SPLINE
  5
3D6
100
AcDbEntity
  8
ALL_ASSEMBLY_MEMBERS
100
AcDbSpline
 62
7
  6
CONTINUOUS
 70
0
 71
3
 72
8
 73
4
 74
0
 42
0.0000001
 43
0.0000001
 44
0.0000000001
 40
0.0
 40
0.0
 40
0.0
 40
0.0
 40
1.0
 40
1.0
 40
1.0
 40
1.0
 10
5.7589073648
 20
5.0284652819
 30
0.0
 10
5.7579246815
 20
5.0230804833
 30
0.0
 10
5.7553664409
 20
5.0184423136
 30
0.0
 10
5.7511601403
 20
5.0145366644
 30
0.0
  0
SPLINE
  5
3D7
100
AcDbEntity
  8
ALL_ASSEMBLY_MEMBERS
100
AcDbSpline
 62
7
  6
CONTINUOUS
 70
0
 71
3
 72
8
 73
4
 74
0
 42
0.0000001
 43
0.0000001
 44
0.0000000001
 40
0.0
 40
0.0
 40
0.0
 40
0.0
 40
1.0
 40
1.0
 40
1.0
 40
1.0
 10
5.7511601403
 20
5.0145366644
 30
0.0
 10
5.7469538345
 20
5.0106310104
 30
0.0
 10
5.7418122945
 20
5.0080483887
 30
0.0
 10
5.7357213895
 20
5.0068613054
 30
0.0
  0
SPLINE
  5
3D8
100
AcDbEntity
  8
ALL_ASSEMBLY_MEMBERS
100
AcDbSpline
 62
7
  6
CONTINUOUS
 70
0
 71
3
 72
8
 73
4
 74
0
 42
0.0000001
 43
0.0000001
 44
0.0000000001
 40
0.0
 40
0.0
 40
0.0
 40
0.0
 40
1.0
 40
1.0
 40
1.0
 40
1.0
 10
5.7357213895
 20
5.0068613054
 30
0.0
 10
5.7291954157
 20
5.0055894297
 30
0.0
 10
5.7231420276
 20
5.0061407602
 30
0.0
 10
5.7175821449
 20
5.0083516976
 30
0.0
  0
SPLINE
  5
3D9
100
AcDbEntity
  8
ALL_ASSEMBLY_MEMBERS
100
AcDbSpline
 62
7
  6
CONTINUOUS
 70
0
 71
3
 72
8
 73
4
 74
0
 42
0.0000001
 43
0.0000001
 44
0.0000000001
 40
0.0
 40
0.0
 40
0.0
 40
0.0
 40
1.0
 40
1.0
 40
1.0
 40
1.0
 10
5.7175821449
 20
5.0083516976
 30
0.0
 10
5.711964437
 20
5.0105856297
 30
0.0
 10
5.7077951562
 20
5.0142136916
 30
0.0
 10
5.7050957743
 20
5.0191819515
 30
0.0
  0
SPLINE
  5
3DA
100
AcDbEntity
  8
ALL_ASSEMBLY_MEMBERS
100
AcDbSpline
 62
7
  6
CONTINUOUS
 70
0
 71
3
 72
8
 73
4
 74
0
 42
0.0000001
 43
0.0000001
 44
0.0000000001
 40
0.0
 40
0.0
 40
0.0
 40
0.0
 40
1.0
 40
1.0
 40
1.0
 40
1.0
 10
5.7427798922
 20
5.0575355658
 30
0.0
 10
5.7464846697
 20
5.0566770418
 30
0.0
 10
5.7497347
 20
5.0546761805
 30
0.0
 10
5.7524715981
 20
5.0514463343
 30
0.0
  0
SPLINE
  5
3DB
100
AcDbEntity
  8
ALL_ASSEMBLY_MEMBERS
100
AcDbSpline
 62
7
  6
CONTINUOUS
 70
0
 71
3
 72
8
 73
4
 74
0
 42
0.0000001
 43
0.0000001
 44
0.0000000001
 40
0.0
 40
0.0
 40
0.0
 40
0.0
 40
1.0
 40
1.0
 40
1.0
 40
1.0
 10
5.7524715981
 20
5.0514463343
 30
0.0
 10
5.7552084963
 20
5.0482164881
 30
0.0
 10
5.7570875494
 20
5.0443678667
 30
0.0
 10
5.7579637312
 20
5.0398721919
 30
0.0
  0
SPLINE
  5
3DC
100
AcDbEntity
  8
ALL_ASSEMBLY_MEMBERS
100
AcDbSpline
 62
7
  6
CONTINUOUS
 70
0
 71
3
 72
8
 73
4
 74
0
 42
0.0000001
 43
0.0000001
 44
0.0000000001
 40
0.0
 40
0.0
 40
0.0
 40
0.0
 40
1.0
 40
1.0
 40
1.0
 40
1.0
 10
5.7579637312
 20
5.0398721919
 30
0.0
 10
5.7590518903
 20
5.0342888652
 30
0.0
 10
5.757798848
 20
5.0299050714
 30
0.0
 10
5.7543637517
 20
5.0266765804
 30
0.0
  0
SPLINE
  5
3DD
100
AcDbEntity
  8
ALL_ASSEMBLY_MEMBERS
100
AcDbSpline
 62
7
  6
CONTINUOUS
 70
0
 71
3
 72
8
 73
4
 74
0
 42
0.0000001
 43
0.0000001
 44
0.0000000001
 40
0.0
 40
0.0
 40
0.0
 40
0.0
 40
1.0
 40
1.0
 40
1.0
 40
1.0
 10
5.7543637517
 20
5.0266765804
 30
0.0
 10
5.7509286503
 20
5.0234480846
 30
0.0
 10
5.7446429239
 20
5.0209435292
 30
0.0
 10
5.7355790728
 20
5.0191770353
 30
0.0
  0
SPLINE
  5
3DE
100
AcDbEntity
  8
ALL_ASSEMBLY_MEMBERS
100
AcDbSpline
 62
7
  6
CONTINUOUS
 70
0
 71
3
 72
8
 73
4
 74
0
 42
0.0000001
 43
0.0000001
 44
0.0000000001
 40
0.0
 40
0.0
 40
0.0
 40
0.0
 40
1.0
 40
1.0
 40
1.0
 40
1.0
 10
5.7355790728
 20
5.0191770353
 30
0.0
 10
5.725137517
 20
5.0171420346
 30
0.0
 10
5.717196997
 20
5.0169492431
 30
0.0
 10
5.711612491
 20
5.0185703968
 30
0.0
  0
SPLINE
  5
3DF
100
AcDbEntity
  8
ALL_ASSEMBLY_MEMBERS
100
AcDbSpline
 62
7
  6
CONTINUOUS
 70
0
 71
3
 72
8
 73
4
 74
0
 42
0.0000001
 43
0.0000001
 44
0.0000000001
 40
0.0
 40
0.0
 40
0.0
 40
0.0
 40
1.0
 40
1.0
 40
1.0
 40
1.0
 10
5.711612491
 20
5.0185703968
 30
0.0
 10
5.7060279847
 20
5.0201915507
 30
0.0
 10
5.7027853617
 20
5.0236991512
 30
0.0
 10
5.7017395981
 20
5.0290649474
 30
0.0
  0
SPLINE
  5
3E0
100
AcDbEntity
  8
ALL_ASSEMBLY_MEMBERS
100
AcDbSpline
 62
7
  6
CONTINUOUS
 70
0
 71
3
 72
8
 73
4
 74
0
 42
0.0000001
 43
0.0000001
 44
0.0000000001
 40
0.0
 40
0.0
 40
0.0
 40
0.0
 40
1.0
 40
1.0
 40
1.0
 40
1.0
 10
5.7017395981
 20
5.0290649474
 30
0.0
 10
5.7010330005
 20
5.0326904879
 30
0.0
 10
5.701555384
 20
5.035802902
 30
0.0
 10
5.7033350119
 20
5.0382571624
 30
0.0
  0
SPLINE
  5
3E1
100
AcDbEntity
  8
ALL_ASSEMBLY_MEMBERS
100
AcDbSpline
 62
7
  6
CONTINUOUS
 70
0
 71
3
 72
8
 73
4
 74
0
 42
0.0000001
 43
0.0000001
 44
0.0000000001
 40
0.0
 40
0.0
 40
0.0
 40
0.0
 40
1.0
 40
1.0
 40
1.0
 40
1.0
 10
5.7033350119
 20
5.0382571624
 30
0.0
 10
5.7051146425
 20
5.0407114266
 30
0.0
 10
5.7080347595
 20
5.0423342506
 30
0.0
 10
5.7119503431
 20
5.043097376
 30
0.0
  0
LINE
  5
3E2
100
AcDbEntity
  8
ALL_ASSEMBLY_MEMBERS
100
AcDbLine
 62
7
  6
CONTINUOUS
 10
5.7119503431
 20
5.043097376
 11
5.7180676621
 21
5.0437627525
  0
LINE
  5
3E3
100
AcDbEntity
  8
ALL_ASSEMBLY_MEMBERS
100
AcDbLine
 62
7
  6
CONTINUOUS
 10
5.7180676621
 20
5.0437627525
 11
5.7239090709
 21
5.0442990933
  0
SPLINE
  5
3E4
100
AcDbEntity
  8
ALL_ASSEMBLY_MEMBERS
100
AcDbSpline
 62
7
  6
CONTINUOUS
 70
0
 71
3
 72
8
 73
4
 74
0
 42
0.0000001
 43
0.0000001
 44
0.0000000001
 40
0.0
 40
0.0
 40
0.0
 40
0.0
 40
1.0
 40
1.0
 40
1.0
 40
1.0
 10
5.7239090709
 20
5.0442990933
 30
0.0
 10
5.726954525
 20
5.0448926353
 30
0.0
 10
5.7292503097
 20
5.0462432495
 30
0.0
 10
5.7307301521
 20
5.0482081818
 30
0.0
  0
SPLINE
  5
3E5
100
AcDbEntity
  8
ALL_ASSEMBLY_MEMBERS
100
AcDbSpline
 62
7
  6
CONTINUOUS
 70
0
 71
3
 72
8
 73
4
 74
0
 42
0.0000001
 43
0.0000001
 44
0.0000000001
 40
0.0
 40
0.0
 40
0.0
 40
0.0
 40
1.0
 40
1.0
 40
1.0
 40
1.0
 10
5.7307301521
 20
5.0482081818
 30
0.0
 10
5.7322399089
 20
5.0502128341
 30
0.0
 10
5.7327585929
 20
5.0525718728
 30
0.0
 10
5.7322215797
 20
5.0553272789
 30
0.0
  0
SPLINE
  5
3E6
100
AcDbEntity
  8
ALL_ASSEMBLY_MEMBERS
100
AcDbSpline
 62
7
  6
CONTINUOUS
 70
0
 71
3
 72
8
 73
4
 74
0
 42
0.0000001
 43
0.0000001
 44
0.0000000001
 40
0.0
 40
0.0
 40
0.0
 40
0.0
 40
1.0
 40
1.0
 40
1.0
 40
1.0
 10
5.7322215797
 20
5.0553272789
 30
0.0
 10
5.7316845652
 20
5.0580826915
 30
0.0
 10
5.7302454567
 20
5.0600601673
 30
0.0
 10
5.7280210066
 20
5.0614329967
 30
0.0
  0
SPLINE
  5
3E7
100
AcDbEntity
  8
ALL_ASSEMBLY_MEMBERS
100
AcDbSpline
 62
7
  6
CONTINUOUS
 70
0
 71
3
 72
8
 73
4
 74
0
 42
0.0000001
 43
0.0000001
 44
0.0000000001
 40
0.0
 40
0.0
 40
0.0
 40
0.0
 40
1.0
 40
1.0
 40
1.0
 40
1.0
 10
5.7280210066
 20
5.0614329967
 30
0.0
 10
5.7257965604
 20
5.0628058238
 30
0.0
 10
5.7231032297
 20
5.0631088253
 30
0.0
 10
5.7200577772
 20
5.0625152837
 30
0.0
  0
SPLINE
  5
3E8
100
AcDbEntity
  8
ALL_ASSEMBLY_MEMBERS
100
AcDbSpline
 62
7
  6
CONTINUOUS
 70
0
 71
3
 72
8
 73
4
 74
0
 42
0.0000001
 43
0.0000001
 44
0.0000000001
 40
0.0
 40
0.0
 40
0.0
 40
0.0
 40
1.0
 40
1.0
 40
1.0
 40
1.0
 10
5.7200577772
 20
5.0625152837
 30
0.0
 10
5.7164322368
 20
5.0618086862
 30
0.0
 10
5.7131213018
 20
5.0602602248
 30
0.0
 10
5.7099940824
 20
5.0577691213
 30
0.0
  0
SPLINE
  5
3E9
100
AcDbEntity
  8
ALL_ASSEMBLY_MEMBERS
100
AcDbSpline
 62
7
  6
CONTINUOUS
 70
0
 71
3
 72
8
 73
4
 74
0
 42
0.0000001
 43
0.0000001
 44
0.0000000001
 40
0.0
 40
0.0
 40
0.0
 40
0.0
 40
1.0
 40
1.0
 40
1.0
 40
1.0
 10
5.7099940824
 20
5.0577691213
 30
0.0
 10
5.7068668624
 20
5.0552780172
 30
0.0
 10
5.7043160281
 20
5.0521465933
 30
0.0
 10
5.7024579766
 20
5.04848302
 30
0.0
  0
SPLINE
  5
3EA
100
AcDbEntity
  8
ALL_ASSEMBLY_MEMBERS
100
AcDbSpline
 62
7
  6
CONTINUOUS
 70
0
 71
3
 72
8
 73
4
 74
0
 42
0.0000001
 43
0.0000001
 44
0.0000000001
 40
0.0
 40
0.0
 40
0.0
 40
0.0
 40
1.0
 40
1.0
 40
1.0
 40
1.0
 10
5.7024579766
 20
5.04848302
 30
0.0
 10
5.7006731511
 20
5.0449638285
 30
0.0
 10
5.6994821878
 20
5.0414200501
 30
0.0
 10
5.698901184
 20
5.037773821
 30
0.0
  0
SPLINE
  5
3EB
100
AcDbEntity
  8
ALL_ASSEMBLY_MEMBERS
100
AcDbSpline
 62
7
  6
CONTINUOUS
 70
0
 71
3
 72
8
 73
4
 74
0
 42
0.0000001
 43
0.0000001
 44
0.0000000001
 40
0.0
 40
0.0
 40
0.0
 40
0.0
 40
1.0
 40
1.0
 40
1.0
 40
1.0
 10
5.698901184
 20
5.037773821
 30
0.0
 10
5.6983310909
 20
5.0341960646
 30
0.0
 10
5.6983426957
 20
5.0306608669
 30
0.0
 10
5.6990068978
 20
5.0272528569
 30
0.0
  0
SPLINE
  5
3EC
100
AcDbEntity
  8
ALL_ASSEMBLY_MEMBERS
100
AcDbSpline
 62
7
  6
CONTINUOUS
 70
0
 71
3
 72
8
 73
4
 74
0
 42
0.0000001
 43
0.0000001
 44
0.0000000001
 40
0.0
 40
0.0
 40
0.0
 40
0.0
 40
1.0
 40
1.0
 40
1.0
 40
1.0
 10
5.6990068978
 20
5.0272528569
 30
0.0
 10
5.700010266
 20
5.022104591
 30
0.0
 10
5.7022180525
 20
5.017341597
 30
0.0
 10
5.705616132
 20
5.0130363656
 30
0.0
  0
SPLINE
  5
3ED
100
AcDbEntity
  8
ALL_ASSEMBLY_MEMBERS
100
AcDbSpline
 62
7
  6
CONTINUOUS
 70
0
 71
3
 72
8
 73
4
 74
0
 42
0.0000001
 43
0.0000001
 44
0.0000000001
 40
0.0
 40
0.0
 40
0.0
 40
0.0
 40
1.0
 40
1.0
 40
1.0
 40
1.0
 10
5.705616132
 20
5.0130363656
 30
0.0
 10
5.7090142043
 20
5.0087311433
 30
0.0
 10
5.712953675
 20
5.0055098654
 30
0.0
 10
5.7175590556
 20
5.0034591099
 30
0.0
  0
SPLINE
  5
3EE
100
AcDbEntity
  8
ALL_ASSEMBLY_MEMBERS
100
AcDbSpline
 62
7
  6
CONTINUOUS
 70
0
 71
3
 72
8
 73
4
 74
0
 42
0.0000001
 43
0.0000001
 44
0.0000000001
 40
0.0
 40
0.0
 40
0.0
 40
0.0
 40
1.0
 40
1.0
 40
1.0
 40
1.0
 10
5.7175590556
 20
5.0034591099
 30
0.0
 10
5.7209481934
 20
5.0019499419
 30
0.0
 10
5.7242320396
 20
5.0009341119
 30
0.0
 10
5.7274737533
 20
5.0005008033
 30
0.0
  0
SPLINE
  5
3EF
100
AcDbEntity
  8
ALL_ASSEMBLY_MEMBERS
100
AcDbSpline
 62
7
  6
CONTINUOUS
 70
0
 71
3
 72
8
 73
4
 74
0
 42
0.0000001
 43
0.0000001
 44
0.0000000001
 40
0.0
 40
0.0
 40
0.0
 40
0.0
 40
1.0
 40
1.0
 40
1.0
 40
1.0
 10
5.7274737533
 20
5.0005008033
 30
0.0
 10
5.7306461292
 20
5.0000767629
 30
0.0
 10
5.7338630181
 20
5.0001768617
 30
0.0
 10
5.7370534913
 20
5.0007986671
 30
0.0
  0
SPLINE
  5
3F0
100
AcDbEntity
  8
ALL_ASSEMBLY_MEMBERS
100
AcDbSpline
 62
7
  6
CONTINUOUS
 70
0
 71
3
 72
8
 73
4
 74
0
 42
0.0000001
 43
0.0000001
 44
0.0000000001
 40
0.0
 40
0.0
 40
0.0
 40
0.0
 40
1.0
 40
1.0
 40
1.0
 40
1.0
 10
5.7370534913
 20
5.0007986671
 30
0.0
 10
5.7455372561
 20
5.0024521053
 30
0.0
 10
5.7521806655
 20
5.0069832528
 30
0.0
 10
5.75693947
 20
5.0142329848
 30
0.0
  0
SPLINE
  5
3F1
100
AcDbEntity
  8
ALL_ASSEMBLY_MEMBERS
100
AcDbSpline
 62
7
  6
CONTINUOUS
 70
0
 71
3
 72
8
 73
4
 74
0
 42
0.0000001
 43
0.0000001
 44
0.0000000001
 40
0.0
 40
0.0
 40
0.0
 40
0.0
 40
1.0
 40
1.0
 40
1.0
 40
1.0
 10
5.75693947
 20
5.0142329848
 30
0.0
 10
5.7616982694
 20
5.0214827089
 30
0.0
 10
5.7632156218
 20
5.0295307301
 30
0.0
 10
5.7614915234
 20
5.0383770508
 30
0.0
  0
SPLINE
  5
3F2
100
AcDbEntity
  8
ALL_ASSEMBLY_MEMBERS
100
AcDbSpline
 62
7
  6
CONTINUOUS
 70
0
 71
3
 72
8
 73
4
 74
0
 42
0.0000001
 43
0.0000001
 44
0.0000000001
 40
0.0
 40
0.0
 40
0.0
 40
0.0
 40
1.0
 40
1.0
 40
1.0
 40
1.0
 10
5.7614915234
 20
5.0383770508
 30
0.0
 10
5.7609121122
 20
5.0413500002
 30
0.0
 10
5.7598976364
 20
5.0442381445
 30
0.0
 10
5.7584715419
 20
5.046973831
 30
0.0
  0
SPLINE
  5
3F3
100
AcDbEntity
  8
ALL_ASSEMBLY_MEMBERS
100
AcDbSpline
 62
7
  6
CONTINUOUS
 70
0
 71
3
 72
8
 73
4
 74
0
 42
0.0000001
 43
0.0000001
 44
0.0000000001
 40
0.0
 40
0.0
 40
0.0
 40
0.0
 40
1.0
 40
1.0
 40
1.0
 40
1.0
 10
5.7584715419
 20
5.046973831
 30
0.0
 10
5.7570126934
 20
5.0497723498
 30
0.0
 10
5.7550998231
 20
5.0526359463
 30
0.0
 10
5.7527094914
 20
5.0556322746
 30
0.0
  0
LINE
  5
3F4
100
AcDbEntity
  8
ALL_ASSEMBLY_MEMBERS
100
AcDbLine
 62
7
  6
CONTINUOUS
 10
5.7883600681
 20
5.054602275
 11
5.7888368498
 21
5.0513835441
  0
SPLINE
  5
3F5
100
AcDbEntity
  8
ALL_ASSEMBLY_MEMBERS
100
AcDbSpline
 62
7
  6
CONTINUOUS
 70
0
 71
3
 72
8
 73
4
 74
0
 42
0.0000001
 43
0.0000001
 44
0.0000000001
 40
0.0
 40
0.0
 40
0.0
 40
0.0
 40
1.0
 40
1.0
 40
1.0
 40
1.0
 10
5.7888368498
 20
5.0513835441
 30
0.0
 10
5.7900521977
 20
5.0451476135
 30
0.0
 10
5.7924314218
 20
5.0398911636
 30
0.0
 10
5.7960221939
 20
5.0356076442
 30
0.0
  0
SPLINE
  5
3F6
100
AcDbEntity
  8
ALL_ASSEMBLY_MEMBERS
100
AcDbSpline
 62
7
  6
CONTINUOUS
 70
0
 71
3
 72
8
 73
4
 74
0
 42
0.0000001
 43
0.0000001
 44
0.0000000001
 40
0.0
 40
0.0
 40
0.0
 40
0.0
 40
1.0
 40
1.0
 40
1.0
 40
1.0
 10
5.7960221939
 20
5.0356076442
 30
0.0
 10
5.7995901274
 20
5.0313513696
 30
0.0
 10
5.8044279844
 20
5.0281546712
 30
0.0
 10
5.810443859
 20
5.0258649276
 30
0.0
  0
SPLINE
  5
3F7
100
AcDbEntity
  8
ALL_ASSEMBLY_MEMBERS
100
AcDbSpline
 62
7
  6
CONTINUOUS
 70
0
 71
3
 72
8
 73
4
 74
0
 42
0.0000001
 43
0.0000001
 44
0.0000000001
 40
0.0
 40
0.0
 40
0.0
 40
0.0
 40
1.0
 40
1.0
 40
1.0
 40
1.0
 10
5.8117865709
 20
5.0278577166
 30
0.0
 10
5.8101299242
 20
5.0297928022
 30
0.0
 10
5.8086926706
 20
5.0321469635
 30
0.0
 10
5.8075825041
 20
5.034792214
 30
0.0
  0
SPLINE
  5
3F8
100
AcDbEntity
  8
ALL_ASSEMBLY_MEMBERS
100
AcDbSpline
 62
7
  6
CONTINUOUS
 70
0
 71
3
 72
8
 73
4
 74
0
 42
0.0000001
 43
0.0000001
 44
0.0000000001
 40
0.0
 40
0.0
 40
0.0
 40
0.0
 40
1.0
 40
1.0
 40
1.0
 40
1.0
 10
5.8075825041
 20
5.034792214
 30
0.0
 10
5.8064443388
 20
5.0375041789
 30
0.0
 10
5.8055324874
 20
5.0406381305
 30
0.0
 10
5.8048400225
 20
5.0441911566
 30
0.0
  0
SPLINE
  5
3F9
100
AcDbEntity
  8
ALL_ASSEMBLY_MEMBERS
100
AcDbSpline
 62
7
  6
CONTINUOUS
 70
0
 71
3
 72
8
 73
4
 74
0
 42
0.0000001
 43
0.0000001
 44
0.0000000001
 40
0.0
 40
0.0
 40
0.0
 40
0.0
 40
1.0
 40
1.0
 40
1.0
 40
1.0
 10
5.8048400225
 20
5.0441911566
 30
0.0
 10
5.8042040858
 20
5.0474541378
 30
0.0
 10
5.8039147194
 20
5.0504836153
 30
0.0
 10
5.8041169426
 20
5.0533078261
 30
0.0
  0
SPLINE
  5
3FA
100
AcDbEntity
  8
ALL_ASSEMBLY_MEMBERS
100
AcDbSpline
 62
7
  6
CONTINUOUS
 70
0
 71
3
 72
8
 73
4
 74
0
 42
0.0000001
 43
0.0000001
 44
0.0000000001
 40
0.0
 40
0.0
 40
0.0
 40
0.0
 40
1.0
 40
1.0
 40
1.0
 40
1.0
 10
5.8041169426
 20
5.0533078261
 30
0.0
 10
5.8043191668
 20
5.0561320495
 30
0.0
 10
5.8048679685
 20
5.0587227577
 30
0.0
 10
5.8058942213
 20
5.0611807187
 30
0.0
  0
SPLINE
  5
3FB
100
AcDbEntity
  8
ALL_ASSEMBLY_MEMBERS
100
AcDbSpline
 62
7
  6
CONTINUOUS
 70
0
 71
3
 72
8
 73
4
 74
0
 42
0.0000001
 43
0.0000001
 44
0.0000000001
 40
0.0
 40
0.0
 40
0.0
 40
0.0
 40
1.0
 40
1.0
 40
1.0
 40
1.0
 10
5.7547244918
 20
5.0588097918
 30
0.0
 10
5.7502749158
 20
5.0584694491
 30
0.0
 10
5.7467274404
 20
5.0589070444
 30
0.0
 10
5.7433569516
 20
5.0599812503
 30
0.0
  0
SPLINE
  5
3FC
100
AcDbEntity
  8
ALL_ASSEMBLY_MEMBERS
100
AcDbSpline
 62
7
  6
CONTINUOUS
 70
0
 71
3
 72
8
 73
4
 74
0
 42
0.0000001
 43
0.0000001
 44
0.0000000001
 40
0.0
 40
0.0
 40
0.0
 40
0.0
 40
1.0
 40
1.0
 40
1.0
 40
1.0
 10
5.6405077649
 20
4.6234201725
 30
0.0
 10
5.6454415087
 20
4.6181960122
 30
0.0
 10
5.6505583447
 20
4.6105999476
 30
0.0
 10
5.6559329996
 20
4.6005995182
 30
0.0
  0
SPLINE
  5
3FD
100
AcDbEntity
  8
ALL_ASSEMBLY_MEMBERS
100
AcDbSpline
 62
7
  6
CONTINUOUS
 70
0
 71
3
 72
8
 73
4
 74
0
 42
0.0000001
 43
0.0000001
 44
0.0000000001
 40
0.0
 40
0.0
 40
0.0
 40
0.0
 40
1.0
 40
1.0
 40
1.0
 40
1.0
 10
5.6559329996
 20
4.6005995182
 30
0.0
 10
5.6612598887
 20
4.5906879647
 30
0.0
 10
5.6667817753
 20
4.5784109107
 30
0.0
 10
5.672423926
 20
4.5638008246
 30
0.0
  0
SPLINE
  5
3FE
100
AcDbEntity
  8
ALL_ASSEMBLY_MEMBERS
100
AcDbSpline
 62
7
  6
CONTINUOUS
 70
0
 71
3
 72
8
 73
4
 74
0
 42
0.0000001
 43
0.0000001
 44
0.0000000001
 40
0.0
 40
0.0
 40
0.0
 40
0.0
 40
1.0
 40
1.0
 40
1.0
 40
1.0
 10
5.672423926
 20
4.5638008246
 30
0.0
 10
5.6661215109
 20
4.5755183279
 30
0.0
 10
5.6598733607
 20
4.5856385908
 30
0.0
 10
5.6536794766
 20
4.594161614
 30
0.0
  0
SPLINE
  5
3FF
100
AcDbEntity
  8
ALL_ASSEMBLY_MEMBERS
100
AcDbSpline
 62
7
  6
CONTINUOUS
 70
0
 71
3
 72
8
 73
4
 74
0
 42
0.0000001
 43
0.0000001
 44
0.0000000001
 40
0.0
 40
0.0
 40
0.0
 40
0.0
 40
1.0
 40
1.0
 40
1.0
 40
1.0
 10
5.6536794766
 20
4.594161614
 30
0.0
 10
5.6474855918
 20
4.6026846382
 30
0.0
 10
5.6413071061
 20
4.6095475941
 30
0.0
 10
5.6351440197
 20
4.6147504878
 30
0.0
  0
SPLINE
  5
400
100
AcDbEntity
  8
ALL_ASSEMBLY_MEMBERS
100
AcDbSpline
 62
7
  6
CONTINUOUS
 70
0
 71
3
 72
8
 73
4
 74
0
 42
0.0000001
 43
0.0000001
 44
0.0000000001
 40
0.0
 40
0.0
 40
0.0
 40
0.0
 40
1.0
 40
1.0
 40
1.0
 40
1.0
 10
5.7158589078
 20
4.5712423551
 30
0.0
 10
5.7165585261
 20
4.5723731826
 30
0.0
 10
5.7169919399
 20
4.5734949652
 30
0.0
 10
5.7172847917
 20
4.5745299706
 30
0.0
  0
SPLINE
  5
401
100
AcDbEntity
  8
ALL_ASSEMBLY_MEMBERS
100
AcDbSpline
 62
7
  6
CONTINUOUS
 70
0
 71
3
 72
8
 73
4
 74
0
 42
0.0000001
 43
0.0000001
 44
0.0000000001
 40
0.0
 40
0.0
 40
0.0
 40
0.0
 40
1.0
 40
1.0
 40
1.0
 40
1.0
 10
5.6291957975
 20
4.6106121871
 30
0.0
 10
5.6394754313
 20
4.6025149955
 30
0.0
 10
5.6499205532
 20
4.5907537296
 30
0.0
 10
5.6605817696
 20
4.5752811108
 30
0.0
  0
SPLINE
  5
402
100
AcDbEntity
  8
ALL_ASSEMBLY_MEMBERS
100
AcDbSpline
 62
7
  6
CONTINUOUS
 70
0
 71
3
 72
8
 73
4
 74
0
 42
0.0000001
 43
0.0000001
 44
0.0000000001
 40
0.0
 40
0.0
 40
0.0
 40
0.0
 40
1.0
 40
1.0
 40
1.0
 40
1.0
 10
5.6605817696
 20
4.5752811108
 30
0.0
 10
5.667781915
 20
4.5648315427
 30
0.0
 10
5.6754112777
 20
4.5521136243
 30
0.0
 10
5.683478312
 20
4.5371812024
 30
0.0
  0
SPLINE
  5
403
100
AcDbEntity
  8
ALL_ASSEMBLY_MEMBERS
100
AcDbSpline
 62
7
  6
CONTINUOUS
 70
0
 71
3
 72
8
 73
4
 74
0
 42
0.0000001
 43
0.0000001
 44
0.0000000001
 40
0.0
 40
0.0
 40
0.0
 40
0.0
 40
1.0
 40
1.0
 40
1.0
 40
1.0
 10
5.707784228
 20
4.5886604494
 30
0.0
 10
5.7115301892
 20
4.5846054969
 30
0.0
 10
5.713612906
 20
4.5812320759
 30
0.0
 10
5.7141101159
 20
4.5786658352
 30
0.0
  0
SPLINE
  5
404
100
AcDbEntity
  8
ALL_ASSEMBLY_MEMBERS
100
AcDbSpline
 62
7
  6
CONTINUOUS
 70
0
 71
3
 72
8
 73
4
 74
0
 42
0.0000001
 43
0.0000001
 44
0.0000000001
 40
0.0
 40
0.0
 40
0.0
 40
0.0
 40
1.0
 40
1.0
 40
1.0
 40
1.0
 10
5.7141101159
 20
4.5786658352
 30
0.0
 10
5.7146073268
 20
4.576099589
 30
0.0
 10
5.7137676346
 20
4.5730574017
 30
0.0
 10
5.7115521758
 20
4.5694764469
 30
0.0
  0
LINE
  5
405
100
AcDbEntity
  8
ALL_ASSEMBLY_MEMBERS
100
AcDbLine
 62
7
  6
CONTINUOUS
 10
5.6891643733
 20
4.5332899431
 11
5.6780532538
 21
4.5589613718
  0
SPLINE
  5
406
100
AcDbEntity
  8
ALL_ASSEMBLY_MEMBERS
100
AcDbSpline
 62
7
  6
CONTINUOUS
 70
0
 71
3
 72
8
 73
4
 74
0
 42
0.0000001
 43
0.0000001
 44
0.0000000001
 40
0.0
 40
0.0
 40
0.0
 40
0.0
 40
1.0
 40
1.0
 40
1.0
 40
1.0
 10
5.6780532538
 20
4.5589613718
 30
0.0
 10
5.6621289158
 20
4.5958837596
 30
0.0
 10
5.6495331241
 20
4.6190525637
 30
0.0
 10
5.6401953608
 20
4.6283913212
 30
0.0
  0
SPLINE
  5
407
100
AcDbEntity
  8
ALL_ASSEMBLY_MEMBERS
100
AcDbSpline
 62
7
  6
CONTINUOUS
 70
0
 71
3
 72
8
 73
4
 74
0
 42
0.0000001
 43
0.0000001
 44
0.0000000001
 40
0.0
 40
0.0
 40
0.0
 40
0.0
 40
1.0
 40
1.0
 40
1.0
 40
1.0
 10
4.544416284
 20
4.5707790374
 30
0.0
 10
4.5457405004
 20
4.5702688591
 30
0.0
 10
4.5468839848
 20
4.5694821272
 30
0.0
 10
4.5479294774
 20
4.568548639
 30
0.0
  0
SPLINE
  5
408
100
AcDbEntity
  8
ALL_ASSEMBLY_MEMBERS
100
AcDbSpline
 62
7
  6
CONTINUOUS
 70
0
 71
3
 72
8
 73
4
 74
0
 42
0.0000001
 43
0.0000001
 44
0.0000000001
 40
0.0
 40
0.0
 40
0.0
 40
0.0
 40
1.0
 40
1.0
 40
1.0
 40
1.0
 10
4.5479294774
 20
4.568548639
 30
0.0
 10
4.5490274577
 20
4.5675682859
 30
0.0
 10
4.5499636393
 20
4.5664039504
 30
0.0
 10
4.5507456551
 20
4.5650640934
 30
0.0
  0
SPLINE
  5
409
100
AcDbEntity
  8
ALL_ASSEMBLY_MEMBERS
100
AcDbSpline
 62
7
  6
CONTINUOUS
 70
0
 71
3
 72
8
 73
4
 74
0
 42
0.0000001
 43
0.0000001
 44
0.0000000001
 40
0.0
 40
0.0
 40
0.0
 40
0.0
 40
1.0
 40
1.0
 40
1.0
 40
1.0
 10
4.5507456551
 20
4.5650640934
 30
0.0
 10
4.5529799902
 20
4.5612359231
 30
0.0
 10
4.5535393148
 20
4.557199968
 30
0.0
 10
4.5523863926
 20
4.5530200232
 30
0.0
  0
SPLINE
  5
40A
100
AcDbEntity
  8
ALL_ASSEMBLY_MEMBERS
100
AcDbSpline
 62
7
  6
CONTINUOUS
 70
0
 71
3
 72
8
 73
4
 74
0
 42
0.0000001
 43
0.0000001
 44
0.0000000001
 40
0.0
 40
0.0
 40
0.0
 40
0.0
 40
1.0
 40
1.0
 40
1.0
 40
1.0
 10
4.5523863926
 20
4.5530200232
 30
0.0
 10
4.5512334692
 20
4.5488400739
 30
0.0
 10
4.5486605079
 20
4.5456275981
 30
0.0
 10
4.5447047314
 20
4.5433187848
 30
0.0
  0
SPLINE
  5
40B
100
AcDbEntity
  8
ALL_ASSEMBLY_MEMBERS
100
AcDbSpline
 62
7
  6
CONTINUOUS
 70
0
 71
3
 72
8
 73
4
 74
0
 42
0.0000001
 43
0.0000001
 44
0.0000000001
 40
0.0
 40
0.0
 40
0.0
 40
0.0
 40
1.0
 40
1.0
 40
1.0
 40
1.0
 10
4.5447047314
 20
4.5433187848
 30
0.0
 10
4.5404937481
 20
4.5408610186
 30
0.0
 10
4.5359739332
 20
4.540104828
 30
0.0
 10
4.5310814837
 20
4.5410129646
 30
0.0
  0
SPLINE
  5
40C
100
AcDbEntity
  8
ALL_ASSEMBLY_MEMBERS
100
AcDbSpline
 62
7
  6
CONTINUOUS
 70
0
 71
3
 72
8
 73
4
 74
0
 42
0.0000001
 43
0.0000001
 44
0.0000000001
 40
0.0
 40
0.0
 40
0.0
 40
0.0
 40
1.0
 40
1.0
 40
1.0
 40
1.0
 10
4.5310814837
 20
4.5410129646
 30
0.0
 10
4.5261890293
 20
4.541921102
 30
0.0
 10
4.5216577932
 20
4.5444086719
 30
0.0
 10
4.5174877824
 20
4.548475665
 30
0.0
  0
SPLINE
  5
40D
100
AcDbEntity
  8
ALL_ASSEMBLY_MEMBERS
100
AcDbSpline
 62
7
  6
CONTINUOUS
 70
0
 71
3
 72
8
 73
4
 74
0
 42
0.0000001
 43
0.0000001
 44
0.0000000001
 40
0.0
 40
0.0
 40
0.0
 40
0.0
 40
1.0
 40
1.0
 40
1.0
 40
1.0
 10
4.5174877824
 20
4.548475665
 30
0.0
 10
4.521316937
 20
4.5466047763
 30
0.0
 10
4.5250182387
 20
4.545685713
 30
0.0
 10
4.5286289467
 20
4.5456734058
 30
0.0
  0
SPLINE
  5
40E
100
AcDbEntity
  8
ALL_ASSEMBLY_MEMBERS
100
AcDbSpline
 62
7
  6
CONTINUOUS
 70
0
 71
3
 72
8
 73
4
 74
0
 42
0.0000001
 43
0.0000001
 44
0.0000000001
 40
0.0
 40
0.0
 40
0.0
 40
0.0
 40
1.0
 40
1.0
 40
1.0
 40
1.0
 10
4.5286289467
 20
4.5456734058
 30
0.0
 10
4.5323034228
 20
4.5456608811
 30
0.0
 10
4.535685215
 20
4.5466082373
 30
0.0
 10
4.5388753541
 20
4.5484701815
 30
0.0
  0
SPLINE
  5
40F
100
AcDbEntity
  8
ALL_ASSEMBLY_MEMBERS
100
AcDbSpline
 62
7
  6
CONTINUOUS
 70
0
 71
3
 72
8
 73
4
 74
0
 42
0.0000001
 43
0.0000001
 44
0.0000000001
 40
0.0
 40
0.0
 40
0.0
 40
0.0
 40
1.0
 40
1.0
 40
1.0
 40
1.0
 10
4.5388753541
 20
4.5484701815
 30
0.0
 10
4.5431501377
 20
4.5509651852
 30
0.0
 10
4.5458613831
 20
4.5540872955
 30
0.0
 10
4.5469346179
 20
4.5579641221
 30
0.0
  0
SPLINE
  5
410
100
AcDbEntity
  8
ALL_ASSEMBLY_MEMBERS
100
AcDbSpline
 62
7
  6
CONTINUOUS
 70
0
 71
3
 72
8
 73
4
 74
0
 42
0.0000001
 43
0.0000001
 44
0.0000000001
 40
0.0
 40
0.0
 40
0.0
 40
0.0
 40
1.0
 40
1.0
 40
1.0
 40
1.0
 10
4.5469346179
 20
4.5579641221
 30
0.0
 10
4.5480078501
 20
4.5618409397
 30
0.0
 10
4.547320916
 20
4.5658024223
 30
0.0
 10
4.5449376279
 20
4.5698857994
 30
0.0
  0
SPLINE
  5
411
100
AcDbEntity
  8
ALL_ASSEMBLY_MEMBERS
100
AcDbSpline
 62
7
  6
CONTINUOUS
 70
0
 71
3
 72
8
 73
4
 74
0
 42
0.0000001
 43
0.0000001
 44
0.0000000001
 40
0.0
 40
0.0
 40
0.0
 40
0.0
 40
1.0
 40
1.0
 40
1.0
 40
1.0
 10
4.5638435809
 20
4.6682223633
 30
0.0
 10
4.561237588
 20
4.6613283338
 30
0.0
 10
4.5567884391
 20
4.6550368346
 30
0.0
 10
4.5505282336
 20
4.6493129538
 30
0.0
  0
SPLINE
  5
412
100
AcDbEntity
  8
ALL_ASSEMBLY_MEMBERS
100
AcDbSpline
 62
7
  6
CONTINUOUS
 70
0
 71
3
 72
8
 73
4
 74
0
 42
0.0000001
 43
0.0000001
 44
0.0000000001
 40
0.0
 40
0.0
 40
0.0
 40
0.0
 40
1.0
 40
1.0
 40
1.0
 40
1.0
 10
4.5505282336
 20
4.6493129538
 30
0.0
 10
4.5443002012
 20
4.6436184898
 30
0.0
 10
4.5366961058
 20
4.6389890287
 30
0.0
 10
4.5277398351
 20
4.6353227144
 30
0.0
  0
SPLINE
  5
413
100
AcDbEntity
  8
ALL_ASSEMBLY_MEMBERS
100
AcDbSpline
 62
7
  6
CONTINUOUS
 70
0
 71
3
 72
8
 73
4
 74
0
 42
0.0000001
 43
0.0000001
 44
0.0000000001
 40
0.0
 40
0.0
 40
0.0
 40
0.0
 40
1.0
 40
1.0
 40
1.0
 40
1.0
 10
4.5277398351
 20
4.6353227144
 30
0.0
 10
4.5183049825
 20
4.6314604891
 30
0.0
 10
4.5093639074
 20
4.6293170648
 30
0.0
 10
4.5009302805
 20
4.6290225549
 30
0.0
  0
SPLINE
  5
414
100
AcDbEntity
  8
ALL_ASSEMBLY_MEMBERS
100
AcDbSpline
 62
7
  6
CONTINUOUS
 70
0
 71
3
 72
8
 73
4
 74
0
 42
0.0000001
 43
0.0000001
 44
0.0000000001
 40
0.0
 40
0.0
 40
0.0
 40
0.0
 40
1.0
 40
1.0
 40
1.0
 40
1.0
 10
4.5009302805
 20
4.6290225549
 30
0.0
 10
4.4925220745
 20
4.6287289327
 30
0.0
 10
4.4850471173
 20
4.6302190418
 30
0.0
 10
4.478463751
 20
4.6334311555
 30
0.0
  0
SPLINE
  5
415
100
AcDbEntity
  8
ALL_ASSEMBLY_MEMBERS
100
AcDbSpline
 62
7
  6
CONTINUOUS
 70
0
 71
3
 72
8
 73
4
 74
0
 42
0.0000001
 43
0.0000001
 44
0.0000000001
 40
0.0
 40
0.0
 40
0.0
 40
0.0
 40
1.0
 40
1.0
 40
1.0
 40
1.0
 10
4.478463751
 20
4.6334311555
 30
0.0
 10
4.4840831573
 20
4.6323788443
 30
0.0
 10
4.4902555193
 20
4.6325107831
 30
0.0
 10
4.4970088047
 20
4.6337586124
 30
0.0
  0
SPLINE
  5
416
100
AcDbEntity
  8
ALL_ASSEMBLY_MEMBERS
100
AcDbSpline
 62
7
  6
CONTINUOUS
 70
0
 71
3
 72
8
 73
4
 74
0
 42
0.0000001
 43
0.0000001
 44
0.0000000001
 40
0.0
 40
0.0
 40
0.0
 40
0.0
 40
1.0
 40
1.0
 40
1.0
 40
1.0
 10
4.4970088047
 20
4.6337586124
 30
0.0
 10
4.5037620863
 20
4.6350064409
 30
0.0
 10
4.5118079745
 20
4.6375816633
 30
0.0
 10
4.5211744613
 20
4.6414159025
 30
0.0
  0
SPLINE
  5
417
100
AcDbEntity
  8
ALL_ASSEMBLY_MEMBERS
100
AcDbSpline
 62
7
  6
CONTINUOUS
 70
0
 71
3
 72
8
 73
4
 74
0
 42
0.0000001
 43
0.0000001
 44
0.0000000001
 40
0.0
 40
0.0
 40
0.0
 40
0.0
 40
1.0
 40
1.0
 40
1.0
 40
1.0
 10
4.5211744613
 20
4.6414159025
 30
0.0
 10
4.5317715722
 20
4.6457539067
 30
0.0
 10
4.5406126987
 20
4.6500915061
 30
0.0
 10
4.5477295177
 20
4.6545625786
 30
0.0
  0
SPLINE
  5
418
100
AcDbEntity
  8
ALL_ASSEMBLY_MEMBERS
100
AcDbSpline
 62
7
  6
CONTINUOUS
 70
0
 71
3
 72
8
 73
4
 74
0
 42
0.0000001
 43
0.0000001
 44
0.0000000001
 40
0.0
 40
0.0
 40
0.0
 40
0.0
 40
1.0
 40
1.0
 40
1.0
 40
1.0
 10
4.5477295177
 20
4.6545625786
 30
0.0
 10
4.5548357381
 20
4.6590269928
 30
0.0
 10
4.5601772744
 20
4.6635285225
 30
0.0
 10
4.5638435809
 20
4.6682223633
 30
0.0
  0
SPLINE
  5
419
100
AcDbEntity
  8
ALL_ASSEMBLY_MEMBERS
100
AcDbSpline
 62
7
  6
CONTINUOUS
 70
0
 71
3
 72
8
 73
4
 74
0
 42
0.0000001
 43
0.0000001
 44
0.0000000001
 40
0.0
 40
0.0
 40
0.0
 40
0.0
 40
1.0
 40
1.0
 40
1.0
 40
1.0
 10
4.5638427769
 20
4.6853844454
 30
0.0
 10
4.5663336315
 20
4.6792996512
 30
0.0
 10
4.5652377346
 20
4.6739817124
 30
0.0
 10
4.5604463434
 20
4.6693062628
 30
0.0
  0
SPLINE
  5
41A
100
AcDbEntity
  8
ALL_ASSEMBLY_MEMBERS
100
AcDbSpline
 62
7
  6
CONTINUOUS
 70
0
 71
3
 72
8
 73
4
 74
0
 42
0.0000001
 43
0.0000001
 44
0.0000000001
 40
0.0
 40
0.0
 40
0.0
 40
0.0
 40
1.0
 40
1.0
 40
1.0
 40
1.0
 10
4.5604463434
 20
4.6693062628
 30
0.0
 10
4.5556549563
 20
4.6646308171
 30
0.0
 10
4.5428392674
 20
4.6581074116
 30
0.0
 10
4.5219185149
 20
4.64954335
 30
0.0
  0
SPLINE
  5
41B
100
AcDbEntity
  8
ALL_ASSEMBLY_MEMBERS
100
AcDbSpline
 62
7
  6
CONTINUOUS
 70
0
 71
3
 72
8
 73
4
 74
0
 42
0.0000001
 43
0.0000001
 44
0.0000000001
 40
0.0
 40
0.0
 40
0.0
 40
0.0
 40
1.0
 40
1.0
 40
1.0
 40
1.0
 10
4.5219185149
 20
4.64954335
 30
0.0
 10
4.5009977624
 20
4.6409792884
 30
0.0
 10
4.4872181101
 20
4.6366156983
 30
0.0
 10
4.4805235969
 20
4.6365893088
 30
0.0
  0
SPLINE
  5
41C
100
AcDbEntity
  8
ALL_ASSEMBLY_MEMBERS
100
AcDbSpline
 62
7
  6
CONTINUOUS
 70
0
 71
3
 72
8
 73
4
 74
0
 42
0.0000001
 43
0.0000001
 44
0.0000000001
 40
0.0
 40
0.0
 40
0.0
 40
0.0
 40
1.0
 40
1.0
 40
1.0
 40
1.0
 10
4.4805235969
 20
4.6365893088
 30
0.0
 10
4.4738290849
 20
4.6365629194
 30
0.0
 10
4.4692503947
 20
4.6395579249
 30
0.0
 10
4.4667595401
 20
4.645642719
 30
0.0
  0
SPLINE
  5
41D
100
AcDbEntity
  8
ALL_ASSEMBLY_MEMBERS
100
AcDbSpline
 62
7
  6
CONTINUOUS
 70
0
 71
3
 72
8
 73
4
 74
0
 42
0.0000001
 43
0.0000001
 44
0.0000000001
 40
0.0
 40
0.0
 40
0.0
 40
0.0
 40
1.0
 40
1.0
 40
1.0
 40
1.0
 10
4.4667595401
 20
4.645642719
 30
0.0
 10
4.4652762178
 20
4.6492662589
 30
0.0
 10
4.4651790661
 20
4.6528186185
 30
0.0
 10
4.4664529506
 20
4.6561938166
 30
0.0
  0
SPLINE
  5
41E
100
AcDbEntity
  8
ALL_ASSEMBLY_MEMBERS
100
AcDbSpline
 62
7
  6
CONTINUOUS
 70
0
 71
3
 72
8
 73
4
 74
0
 42
0.0000001
 43
0.0000001
 44
0.0000000001
 40
0.0
 40
0.0
 40
0.0
 40
0.0
 40
1.0
 40
1.0
 40
1.0
 40
1.0
 10
4.4664529506
 20
4.6561938166
 30
0.0
 10
4.4677446772
 20
4.6596162882
 30
0.0
 10
4.4701899477
 20
4.6626129079
 30
0.0
 10
4.4739127293
 20
4.6650459765
 30
0.0
  0
SPLINE
  5
41F
100
AcDbEntity
  8
ALL_ASSEMBLY_MEMBERS
100
AcDbSpline
 62
7
  6
CONTINUOUS
 70
0
 71
3
 72
8
 73
4
 74
0
 42
0.0000001
 43
0.0000001
 44
0.0000000001
 40
0.0
 40
0.0
 40
0.0
 40
0.0
 40
1.0
 40
1.0
 40
1.0
 40
1.0
 10
4.4739127293
 20
4.6650459765
 30
0.0
 10
4.4770543836
 20
4.6670992424
 30
0.0
 10
4.482054481
 20
4.6697048303
 30
0.0
 10
4.4887674896
 20
4.6728103578
 30
0.0
  0
SPLINE
  5
420
100
AcDbEntity
  8
ALL_ASSEMBLY_MEMBERS
100
AcDbSpline
 62
7
  6
CONTINUOUS
 70
0
 71
3
 72
8
 73
4
 74
0
 42
0.0000001
 43
0.0000001
 44
0.0000000001
 40
0.0
 40
0.0
 40
0.0
 40
0.0
 40
1.0
 40
1.0
 40
1.0
 40
1.0
 10
4.4887674896
 20
4.6728103578
 30
0.0
 10
4.495544657
 20
4.6759455659
 30
0.0
 10
4.5044169651
 20
4.6798169971
 30
0.0
 10
4.515492658
 20
4.6843509122
 30
0.0
  0
SPLINE
  5
421
100
AcDbEntity
  8
ALL_ASSEMBLY_MEMBERS
100
AcDbSpline
 62
7
  6
CONTINUOUS
 70
0
 71
3
 72
8
 73
4
 74
0
 42
0.0000001
 43
0.0000001
 44
0.0000000001
 40
0.0
 40
0.0
 40
0.0
 40
0.0
 40
1.0
 40
1.0
 40
1.0
 40
1.0
 10
4.515492658
 20
4.6843509122
 30
0.0
 10
4.5319010907
 20
4.6910678231
 30
0.0
 10
4.5434805537
 20
4.6943711056
 30
0.0
 10
4.5501750703
 20
4.6943974958
 30
0.0
  0
SPLINE
  5
422
100
AcDbEntity
  8
ALL_ASSEMBLY_MEMBERS
100
AcDbSpline
 62
7
  6
CONTINUOUS
 70
0
 71
3
 72
8
 73
4
 74
0
 42
0.0000001
 43
0.0000001
 44
0.0000000001
 40
0.0
 40
0.0
 40
0.0
 40
0.0
 40
1.0
 40
1.0
 40
1.0
 40
1.0
 10
4.5501750703
 20
4.6943974958
 30
0.0
 10
4.5568695827
 20
4.694423886
 30
0.0
 10
4.5613799059
 20
4.6914008798
 30
0.0
 10
4.5638427769
 20
4.6853844454
 30
0.0
  0
SPLINE
  5
423
100
AcDbEntity
  8
ALL_ASSEMBLY_MEMBERS
100
AcDbSpline
 62
7
  6
CONTINUOUS
 70
0
 71
3
 72
8
 73
4
 74
0
 42
0.0000001
 43
0.0000001
 44
0.0000000001
 40
0.0
 40
0.0
 40
0.0
 40
0.0
 40
1.0
 40
1.0
 40
1.0
 40
1.0
 10
4.5705908194
 20
4.588365471
 30
0.0
 10
4.559556174
 20
4.5905643227
 30
0.0
 10
4.5500746451
 20
4.5912745981
 30
0.0
 10
4.5422365826
 20
4.590634597
 30
0.0
  0
SPLINE
  5
424
100
AcDbEntity
  8
ALL_ASSEMBLY_MEMBERS
100
AcDbSpline
 62
7
  6
CONTINUOUS
 70
0
 71
3
 72
8
 73
4
 74
0
 42
0.0000001
 43
0.0000001
 44
0.0000000001
 40
0.0
 40
0.0
 40
0.0
 40
0.0
 40
1.0
 40
1.0
 40
1.0
 40
1.0
 10
4.5422365826
 20
4.590634597
 30
0.0
 10
4.5343985286
 20
4.5899945967
 30
0.0
 10
4.5274169723
 20
4.5878871222
 30
0.0
 10
4.5212919067
 20
4.58431219
 30
0.0
  0
SPLINE
  5
425
100
AcDbEntity
  8
ALL_ASSEMBLY_MEMBERS
100
AcDbSpline
 62
7
  6
CONTINUOUS
 70
0
 71
3
 72
8
 73
4
 74
0
 42
0.0000001
 43
0.0000001
 44
0.0000000001
 40
0.0
 40
0.0
 40
0.0
 40
0.0
 40
1.0
 40
1.0
 40
1.0
 40
1.0
 10
4.5212919067
 20
4.58431219
 30
0.0
 10
4.5171447236
 20
4.5818916612
 30
0.0
 10
4.5138272273
 20
4.578928944
 30
0.0
 10
4.5113287385
 20
4.5755888586
 30
0.0
  0
SPLINE
  5
426
100
AcDbEntity
  8
ALL_ASSEMBLY_MEMBERS
100
AcDbSpline
 62
7
  6
CONTINUOUS
 70
0
 71
3
 72
8
 73
4
 74
0
 42
0.0000001
 43
0.0000001
 44
0.0000000001
 40
0.0
 40
0.0
 40
0.0
 40
0.0
 40
1.0
 40
1.0
 40
1.0
 40
1.0
 10
4.5113287385
 20
4.5755888586
 30
0.0
 10
4.5088302498
 20
4.5722487732
 30
0.0
 10
4.5073687393
 20
4.5687440965
 30
0.0
 10
4.5069442137
 20
4.5650748171
 30
0.0
  0
SPLINE
  5
427
100
AcDbEntity
  8
ALL_ASSEMBLY_MEMBERS
100
AcDbSpline
 62
7
  6
CONTINUOUS
 70
0
 71
3
 72
8
 73
4
 74
0
 42
0.0000001
 43
0.0000001
 44
0.0000000001
 40
0.0
 40
0.0
 40
0.0
 40
0.0
 40
1.0
 40
1.0
 40
1.0
 40
1.0
 10
4.5069442137
 20
4.5650748171
 30
0.0
 10
4.506049489
 20
4.5707113069
 30
0.0
 10
4.5067076336
 20
4.5758855313
 30
0.0
 10
4.5088739532
 20
4.5805513373
 30
0.0
  0
SPLINE
  5
428
100
AcDbEntity
  8
ALL_ASSEMBLY_MEMBERS
100
AcDbSpline
 62
7
  6
CONTINUOUS
 70
0
 71
3
 72
8
 73
4
 74
0
 42
0.0000001
 43
0.0000001
 44
0.0000000001
 40
0.0
 40
0.0
 40
0.0
 40
0.0
 40
1.0
 40
1.0
 40
1.0
 40
1.0
 10
4.5088739532
 20
4.5805513373
 30
0.0
 10
4.5110658432
 20
4.5852722168
 30
0.0
 10
4.5144310039
 20
4.589032614
 30
0.0
 10
4.5190248003
 20
4.5917138114
 30
0.0
  0
SPLINE
  5
429
100
AcDbEntity
  8
ALL_ASSEMBLY_MEMBERS
100
AcDbSpline
 62
7
  6
CONTINUOUS
 70
0
 71
3
 72
8
 73
4
 74
0
 42
0.0000001
 43
0.0000001
 44
0.0000000001
 40
0.0
 40
0.0
 40
0.0
 40
0.0
 40
1.0
 40
1.0
 40
1.0
 40
1.0
 10
4.5190248003
 20
4.5917138114
 30
0.0
 10
4.5253412781
 20
4.5954004625
 30
0.0
 10
4.5327590288
 20
4.5969071375
 30
0.0
 10
4.5412653942
 20
4.5963680965
 30
0.0
  0
SPLINE
  5
42A
100
AcDbEntity
  8
ALL_ASSEMBLY_MEMBERS
100
AcDbSpline
 62
7
  6
CONTINUOUS
 70
0
 71
3
 72
8
 73
4
 74
0
 42
0.0000001
 43
0.0000001
 44
0.0000000001
 40
0.0
 40
0.0
 40
0.0
 40
0.0
 40
1.0
 40
1.0
 40
1.0
 40
1.0
 10
4.5412653942
 20
4.5963680965
 30
0.0
 10
4.5498129799
 20
4.5958264433
 30
0.0
 10
4.5595874525
 20
4.5931487092
 30
0.0
 10
4.5705908194
 20
4.588365471
 30
0.0
  0
SPLINE
  5
42B
100
AcDbEntity
  8
ALL_ASSEMBLY_MEMBERS
100
AcDbSpline
 62
7
  6
CONTINUOUS
 70
0
 71
3
 72
8
 73
4
 74
0
 42
0.0000001
 43
0.0000001
 44
0.0000000001
 40
0.0
 40
0.0
 40
0.0
 40
0.0
 40
1.0
 40
1.0
 40
1.0
 40
1.0
 10
4.5885216698
 20
4.6335591358
 30
0.0
 10
4.5840338754
 20
4.632308414
 30
0.0
 10
4.5794343719
 20
4.6312490875
 30
0.0
 10
4.5748614248
 20
4.6302908109
 30
0.0
  0
SPLINE
  5
42C
100
AcDbEntity
  8
ALL_ASSEMBLY_MEMBERS
100
AcDbSpline
 62
7
  6
CONTINUOUS
 70
0
 71
3
 72
8
 73
4
 74
0
 42
0.0000001
 43
0.0000001
 44
0.0000000001
 40
0.0
 40
0.0
 40
0.0
 40
0.0
 40
1.0
 40
1.0
 40
1.0
 40
1.0
 10
4.5748614248
 20
4.6302908109
 30
0.0
 10
4.5702884817
 20
4.629332535
 30
0.0
 10
4.5656038184
 20
4.6285656714
 30
0.0
 10
4.5610095258
 20
4.6279370797
 30
0.0
  0
SPLINE
  5
42D
100
AcDbEntity
  8
ALL_ASSEMBLY_MEMBERS
100
AcDbSpline
 62
7
  6
CONTINUOUS
 70
0
 71
3
 72
8
 73
4
 74
0
 42
0.0000001
 43
0.0000001
 44
0.0000000001
 40
0.0
 40
0.0
 40
0.0
 40
0.0
 40
1.0
 40
1.0
 40
1.0
 40
1.0
 10
4.5616751071
 20
4.6243052861
 30
0.0
 10
4.5658173198
 20
4.6252687804
 30
0.0
 10
4.5690610822
 20
4.6252801951
 30
0.0
 10
4.5714545518
 20
4.62430292
 30
0.0
  0
SPLINE
  5
42E
100
AcDbEntity
  8
ALL_ASSEMBLY_MEMBERS
100
AcDbSpline
 62
7
  6
CONTINUOUS
 70
0
 71
3
 72
8
 73
4
 74
0
 42
0.0000001
 43
0.0000001
 44
0.0000000001
 40
0.0
 40
0.0
 40
0.0
 40
0.0
 40
1.0
 40
1.0
 40
1.0
 40
1.0
 10
4.5714545518
 20
4.62430292
 30
0.0
 10
4.5738899762
 20
4.6233085144
 30
0.0
 10
4.5760548021
 20
4.6210649841
 30
0.0
 10
4.578065696
 20
4.6176196439
 30
0.0
  0
SPLINE
  5
42F
100
AcDbEntity
  8
ALL_ASSEMBLY_MEMBERS
100
AcDbSpline
 62
7
  6
CONTINUOUS
 70
0
 71
3
 72
8
 73
4
 74
0
 42
0.0000001
 43
0.0000001
 44
0.0000000001
 40
0.0
 40
0.0
 40
0.0
 40
0.0
 40
1.0
 40
1.0
 40
1.0
 40
1.0
 10
4.5967596165
 20
4.585590647
 30
0.0
 10
4.5893572603
 20
4.5864024624
 30
0.0
 10
4.5797680776
 20
4.5890195283
 30
0.0
 10
4.5682604127
 20
4.5936772362
 30
0.0
  0
SPLINE
  5
430
100
AcDbEntity
  8
ALL_ASSEMBLY_MEMBERS
100
AcDbSpline
 62
7
  6
CONTINUOUS
 70
0
 71
3
 72
8
 73
4
 74
0
 42
0.0000001
 43
0.0000001
 44
0.0000000001
 40
0.0
 40
0.0
 40
0.0
 40
0.0
 40
1.0
 40
1.0
 40
1.0
 40
1.0
 10
4.5663565088
 20
4.5944478381
 30
0.0
 10
4.5534440285
 20
4.5995709442
 30
0.0
 10
4.5431909122
 20
4.602482535
 30
0.0
 10
4.5357354247
 20
4.6030922726
 30
0.0
  0
SPLINE
  5
431
100
AcDbEntity
  8
ALL_ASSEMBLY_MEMBERS
100
AcDbSpline
 62
7
  6
CONTINUOUS
 70
0
 71
3
 72
8
 73
4
 74
0
 42
0.0000001
 43
0.0000001
 44
0.0000000001
 40
0.0
 40
0.0
 40
0.0
 40
0.0
 40
1.0
 40
1.0
 40
1.0
 40
1.0
 10
4.5357354247
 20
4.6030922726
 30
0.0
 10
4.5282799398
 20
4.60370201
 30
0.0
 10
4.5217395431
 20
4.6024507828
 30
0.0
 10
4.5161248967
 20
4.59917376
 30
0.0
  0
SPLINE
  5
432
100
AcDbEntity
  8
ALL_ASSEMBLY_MEMBERS
100
AcDbSpline
 62
7
  6
CONTINUOUS
 70
0
 71
3
 72
8
 73
4
 74
0
 42
0.0000001
 43
0.0000001
 44
0.0000000001
 40
0.0
 40
0.0
 40
0.0
 40
0.0
 40
1.0
 40
1.0
 40
1.0
 40
1.0
 10
4.5161248967
 20
4.59917376
 30
0.0
 10
4.5090427871
 20
4.5950402433
 30
0.0
 10
4.5046731596
 20
4.5888973126
 30
0.0
 10
4.5030666176
 20
4.5808412581
 30
0.0
  0
SPLINE
  5
433
100
AcDbEntity
  8
ALL_ASSEMBLY_MEMBERS
100
AcDbSpline
 62
7
  6
CONTINUOUS
 70
0
 71
3
 72
8
 73
4
 74
0
 42
0.0000001
 43
0.0000001
 44
0.0000000001
 40
0.0
 40
0.0
 40
0.0
 40
0.0
 40
1.0
 40
1.0
 40
1.0
 40
1.0
 10
4.5030666176
 20
4.5808412581
 30
0.0
 10
4.5014492464
 20
4.5727308997
 30
0.0
 10
4.5029613842
 20
4.5647175679
 30
0.0
 10
4.507653479
 20
4.5566784256
 30
0.0
  0
SPLINE
  5
434
100
AcDbEntity
  8
ALL_ASSEMBLY_MEMBERS
100
AcDbSpline
 62
7
  6
CONTINUOUS
 70
0
 71
3
 72
8
 73
4
 74
0
 42
0.0000001
 43
0.0000001
 44
0.0000000001
 40
0.0
 40
0.0
 40
0.0
 40
0.0
 40
1.0
 40
1.0
 40
1.0
 40
1.0
 10
4.507653479
 20
4.5566784256
 30
0.0
 10
4.512382821
 20
4.5485754661
 30
0.0
 10
4.5184994355
 20
4.5430784971
 30
0.0
 10
4.5258672142
 20
4.5400921223
 30
0.0
  0
SPLINE
  5
435
100
AcDbEntity
  8
ALL_ASSEMBLY_MEMBERS
100
AcDbSpline
 62
7
  6
CONTINUOUS
 70
0
 71
3
 72
8
 73
4
 74
0
 42
0.0000001
 43
0.0000001
 44
0.0000000001
 40
0.0
 40
0.0
 40
0.0
 40
0.0
 40
1.0
 40
1.0
 40
1.0
 40
1.0
 10
4.5258672142
 20
4.5400921223
 30
0.0
 10
4.5332892506
 20
4.5370837554
 30
0.0
 10
4.5400851098
 20
4.5374576295
 30
0.0
 10
4.5462101755
 20
4.5410325617
 30
0.0
  0
SPLINE
  5
436
100
AcDbEntity
  8
ALL_ASSEMBLY_MEMBERS
100
AcDbSpline
 62
7
  6
CONTINUOUS
 70
0
 71
3
 72
8
 73
4
 74
0
 42
0.0000001
 43
0.0000001
 44
0.0000000001
 40
0.0
 40
0.0
 40
0.0
 40
0.0
 40
1.0
 40
1.0
 40
1.0
 40
1.0
 10
4.5462101755
 20
4.5410325617
 30
0.0
 10
4.5508039775
 20
4.5437137624
 30
0.0
 10
4.5537756482
 20
4.5474155575
 30
0.0
 10
4.555076053
 20
4.5522586811
 30
0.0
  0
SPLINE
  5
437
100
AcDbEntity
  8
ALL_ASSEMBLY_MEMBERS
100
AcDbSpline
 62
7
  6
CONTINUOUS
 70
0
 71
3
 72
8
 73
4
 74
0
 42
0.0000001
 43
0.0000001
 44
0.0000000001
 40
0.0
 40
0.0
 40
0.0
 40
0.0
 40
1.0
 40
1.0
 40
1.0
 40
1.0
 10
4.555076053
 20
4.5522586811
 30
0.0
 10
4.5563630191
 20
4.557051755
 30
0.0
 10
4.5556971973
 20
4.5617098483
 30
0.0
 10
4.553053234
 20
4.5662398501
 30
0.0
  0
SPLINE
  5
438
100
AcDbEntity
  8
ALL_ASSEMBLY_MEMBERS
100
AcDbSpline
 62
7
  6
CONTINUOUS
 70
0
 71
3
 72
8
 73
4
 74
0
 42
0.0000001
 43
0.0000001
 44
0.0000000001
 40
0.0
 40
0.0
 40
0.0
 40
0.0
 40
1.0
 40
1.0
 40
1.0
 40
1.0
 10
4.553053234
 20
4.5662398501
 30
0.0
 10
4.5516753962
 20
4.5686005514
 30
0.0
 10
4.5499626583
 20
4.5705091686
 30
0.0
 10
4.5478777723
 20
4.5720295124
 30
0.0
  0
SPLINE
  5
439
100
AcDbEntity
  8
ALL_ASSEMBLY_MEMBERS
100
AcDbSpline
 62
7
  6
CONTINUOUS
 70
0
 71
3
 72
8
 73
4
 74
0
 42
0.0000001
 43
0.0000001
 44
0.0000000001
 40
0.0
 40
0.0
 40
0.0
 40
0.0
 40
1.0
 40
1.0
 40
1.0
 40
1.0
 10
4.5478777723
 20
4.5720295124
 30
0.0
 10
4.5457928885
 20
4.5735498547
 30
0.0
 10
4.5434741431
 20
4.574591567
 30
0.0
 10
4.5408204952
 20
4.5751811863
 30
0.0
  0
SPLINE
  5
43A
100
AcDbEntity
  8
ALL_ASSEMBLY_MEMBERS
100
AcDbSpline
 62
7
  6
CONTINUOUS
 70
0
 71
3
 72
8
 73
4
 74
0
 42
0.0000001
 43
0.0000001
 44
0.0000000001
 40
0.0
 40
0.0
 40
0.0
 40
0.0
 40
1.0
 40
1.0
 40
1.0
 40
1.0
 10
4.5417095114
 20
4.5711665666
 30
0.0
 10
4.5433480178
 20
4.5683592519
 30
0.0
 10
4.5435508488
 20
4.5652272014
 30
0.0
 10
4.5422438473
 20
4.5617869007
 30
0.0
  0
SPLINE
  5
43B
100
AcDbEntity
  8
ALL_ASSEMBLY_MEMBERS
100
AcDbSpline
 62
7
  6
CONTINUOUS
 70
0
 71
3
 72
8
 73
4
 74
0
 42
0.0000001
 43
0.0000001
 44
0.0000000001
 40
0.0
 40
0.0
 40
0.0
 40
0.0
 40
1.0
 40
1.0
 40
1.0
 40
1.0
 10
4.5422438473
 20
4.5617869007
 30
0.0
 10
4.5409202811
 20
4.5583029983
 30
0.0
 10
4.5384163295
 20
4.5555584939
 30
0.0
 10
4.5347157655
 20
4.553398637
 30
0.0
  0
SPLINE
  5
43C
100
AcDbEntity
  8
ALL_ASSEMBLY_MEMBERS
100
AcDbSpline
 62
7
  6
CONTINUOUS
 70
0
 71
3
 72
8
 73
4
 74
0
 42
0.0000001
 43
0.0000001
 44
0.0000000001
 40
0.0
 40
0.0
 40
0.0
 40
0.0
 40
1.0
 40
1.0
 40
1.0
 40
1.0
 10
4.5347157655
 20
4.553398637
 30
0.0
 10
4.5303771759
 20
4.5508663926
 30
0.0
 10
4.5258680422
 20
4.5499453526
 30
0.0
 10
4.5212364273
 20
4.5508101176
 30
0.0
  0
SPLINE
  5
43D
100
AcDbEntity
  8
ALL_ASSEMBLY_MEMBERS
100
AcDbSpline
 62
7
  6
CONTINUOUS
 70
0
 71
3
 72
8
 73
4
 74
0
 42
0.0000001
 43
0.0000001
 44
0.0000000001
 40
0.0
 40
0.0
 40
0.0
 40
0.0
 40
1.0
 40
1.0
 40
1.0
 40
1.0
 10
4.5212364273
 20
4.5508101176
 30
0.0
 10
4.5166521452
 20
4.5516660451
 30
0.0
 10
4.5132589374
 20
4.5539624528
 30
0.0
 10
4.5110990805
 20
4.5576630168
 30
0.0
  0
SPLINE
  5
43E
100
AcDbEntity
  8
ALL_ASSEMBLY_MEMBERS
100
AcDbSpline
 62
7
  6
CONTINUOUS
 70
0
 71
3
 72
8
 73
4
 74
0
 42
0.0000001
 43
0.0000001
 44
0.0000000001
 40
0.0
 40
0.0
 40
0.0
 40
0.0
 40
1.0
 40
1.0
 40
1.0
 40
1.0
 10
4.5110990805
 20
4.5576630168
 30
0.0
 10
4.5088647487
 20
4.5614911814
 30
0.0
 10
4.5088637554
 20
4.5655964076
 30
0.0
 10
4.5109766758
 20
4.5700600792
 30
0.0
  0
SPLINE
  5
43F
100
AcDbEntity
  8
ALL_ASSEMBLY_MEMBERS
100
AcDbSpline
 62
7
  6
CONTINUOUS
 70
0
 71
3
 72
8
 73
4
 74
0
 42
0.0000001
 43
0.0000001
 44
0.0000000001
 40
0.0
 40
0.0
 40
0.0
 40
0.0
 40
1.0
 40
1.0
 40
1.0
 40
1.0
 10
4.5109766758
 20
4.5700600792
 30
0.0
 10
4.5131157146
 20
4.5745789276
 30
0.0
 10
4.51700197
 20
4.5784723815
 30
0.0
 10
4.5227442226
 20
4.5818238825
 30
0.0
  0
SPLINE
  5
440
100
AcDbEntity
  8
ALL_ASSEMBLY_MEMBERS
100
AcDbSpline
 62
7
  6
CONTINUOUS
 70
0
 71
3
 72
8
 73
4
 74
0
 42
0.0000001
 43
0.0000001
 44
0.0000000001
 40
0.0
 40
0.0
 40
0.0
 40
0.0
 40
1.0
 40
1.0
 40
1.0
 40
1.0
 10
4.5227442226
 20
4.5818238825
 30
0.0
 10
4.5270190063
 20
4.5843188861
 30
0.0
 10
4.5316396179
 20
4.5860748209
 30
0.0
 10
4.5364729687
 20
4.5871586121
 30
0.0
  0
SPLINE
  5
441
100
AcDbEntity
  8
ALL_ASSEMBLY_MEMBERS
100
AcDbSpline
 62
7
  6
CONTINUOUS
 70
0
 71
3
 72
8
 73
4
 74
0
 42
0.0000001
 43
0.0000001
 44
0.0000000001
 40
0.0
 40
0.0
 40
0.0
 40
0.0
 40
1.0
 40
1.0
 40
1.0
 40
1.0
 10
4.5364729687
 20
4.5871586121
 30
0.0
 10
4.5413969688
 20
4.5882627297
 30
0.0
 10
4.5465071496
 20
4.5885936457
 30
0.0
 10
4.5517579275
 20
4.5881988792
 30
0.0
  0
SPLINE
  5
442
100
AcDbEntity
  8
ALL_ASSEMBLY_MEMBERS
100
AcDbSpline
 62
7
  6
CONTINUOUS
 70
0
 71
3
 72
8
 73
4
 74
0
 42
0.0000001
 43
0.0000001
 44
0.0000000001
 40
0.0
 40
0.0
 40
0.0
 40
0.0
 40
1.0
 40
1.0
 40
1.0
 40
1.0
 10
4.5517579275
 20
4.5881988792
 30
0.0
 10
4.5571532668
 20
4.5877932442
 30
0.0
 10
4.5643642165
 20
4.5868697131
 30
0.0
 10
4.5733665657
 20
4.5853622981
 30
0.0
  0
LINE
  5
443
100
AcDbEntity
  8
ALL_ASSEMBLY_MEMBERS
100
AcDbLine
 62
7
  6
CONTINUOUS
 10
4.5733665657
 20
4.5853622981
 11
4.5912020552
 21
4.5825450733
  0
SPLINE
  5
444
100
AcDbEntity
  8
ALL_ASSEMBLY_MEMBERS
100
AcDbSpline
 62
7
  6
CONTINUOUS
 70
0
 71
3
 72
8
 73
4
 74
0
 42
0.0000001
 43
0.0000001
 44
0.0000000001
 40
0.0
 40
0.0
 40
0.0
 40
0.0
 40
1.0
 40
1.0
 40
1.0
 40
1.0
 10
4.5518650881
 20
4.6974840729
 30
0.0
 10
4.5485706086
 20
4.6977319526
 30
0.0
 10
4.5443221663
 20
4.6971902031
 30
0.0
 10
4.5389925944
 20
4.6957674696
 30
0.0
  0
SPLINE
  5
445
100
AcDbEntity
  8
ALL_ASSEMBLY_MEMBERS
100
AcDbSpline
 62
7
  6
CONTINUOUS
 70
0
 71
3
 72
8
 73
4
 74
0
 42
0.0000001
 43
0.0000001
 44
0.0000000001
 40
0.0
 40
0.0
 40
0.0
 40
0.0
 40
1.0
 40
1.0
 40
1.0
 40
1.0
 10
4.5389925944
 20
4.6957674696
 30
0.0
 10
4.533671879
 20
4.6943471004
 30
0.0
 10
4.5267634583
 20
4.6919182343
 30
0.0
 10
4.5181490288
 20
4.6883918552
 30
0.0
  0
SPLINE
  5
446
100
AcDbEntity
  8
ALL_ASSEMBLY_MEMBERS
100
AcDbSpline
 62
7
  6
CONTINUOUS
 70
0
 71
3
 72
8
 73
4
 74
0
 42
0.0000001
 43
0.0000001
 44
0.0000000001
 40
0.0
 40
0.0
 40
0.0
 40
0.0
 40
1.0
 40
1.0
 40
1.0
 40
1.0
 10
4.5181490288
 20
4.6883918552
 30
0.0
 10
4.5023559097
 20
4.6819268274
 30
0.0
 10
4.490559362
 20
4.67661885
 30
0.0
 10
4.4827033799
 20
4.6726046973
 30
0.0
  0
SPLINE
  5
447
100
AcDbEntity
  8
ALL_ASSEMBLY_MEMBERS
100
AcDbSpline
 62
7
  6
CONTINUOUS
 70
0
 71
3
 72
8
 73
4
 74
0
 42
0.0000001
 43
0.0000001
 44
0.0000000001
 40
0.0
 40
0.0
 40
0.0
 40
0.0
 40
1.0
 40
1.0
 40
1.0
 40
1.0
 10
4.4827033799
 20
4.6726046973
 30
0.0
 10
4.4748474016
 20
4.6685905465
 30
0.0
 10
4.469511858
 20
4.6650493918
 30
0.0
 10
4.4667651285
 20
4.6620091827
 30
0.0
  0
SPLINE
  5
448
100
AcDbEntity
  8
ALL_ASSEMBLY_MEMBERS
100
AcDbSpline
 62
7
  6
CONTINUOUS
 70
0
 71
3
 72
8
 73
4
 74
0
 42
0.0000001
 43
0.0000001
 44
0.0000000001
 40
0.0
 40
0.0
 40
0.0
 40
0.0
 40
1.0
 40
1.0
 40
1.0
 40
1.0
 10
4.4667651285
 20
4.6620091827
 30
0.0
 10
4.4698157245
 20
4.6682071209
 30
0.0
 10
4.4742712588
 20
4.6737029988
 30
0.0
 10
4.4801817463
 20
4.6784006055
 30
0.0
  0
SPLINE
  5
449
100
AcDbEntity
  8
ALL_ASSEMBLY_MEMBERS
100
AcDbSpline
 62
7
  6
CONTINUOUS
 70
0
 71
3
 72
8
 73
4
 74
0
 42
0.0000001
 43
0.0000001
 44
0.0000000001
 40
0.0
 40
0.0
 40
0.0
 40
0.0
 40
1.0
 40
1.0
 40
1.0
 40
1.0
 10
4.4801817463
 20
4.6784006055
 30
0.0
 10
4.486076214
 20
4.6830854798
 30
0.0
 10
4.4942024666
 20
4.6876094013
 30
0.0
 10
4.504594477
 20
4.6918634461
 30
0.0
  0
SPLINE
  5
44A
100
AcDbEntity
  8
ALL_ASSEMBLY_MEMBERS
100
AcDbSpline
 62
7
  6
CONTINUOUS
 70
0
 71
3
 72
8
 73
4
 74
0
 42
0.0000001
 43
0.0000001
 44
0.0000000001
 40
0.0
 40
0.0
 40
0.0
 40
0.0
 40
1.0
 40
1.0
 40
1.0
 40
1.0
 10
4.504594477
 20
4.6918634461
 30
0.0
 10
4.5155334322
 20
4.6963413866
 30
0.0
 10
4.5246764158
 20
4.6989665812
 30
0.0
 10
4.5320677164
 20
4.6998000534
 30
0.0
  0
SPLINE
  5
44B
100
AcDbEntity
  8
ALL_ASSEMBLY_MEMBERS
100
AcDbSpline
 62
7
  6
CONTINUOUS
 70
0
 71
3
 72
8
 73
4
 74
0
 42
0.0000001
 43
0.0000001
 44
0.0000000001
 40
0.0
 40
0.0
 40
0.0
 40
0.0
 40
1.0
 40
1.0
 40
1.0
 40
1.0
 10
4.5320677164
 20
4.6998000534
 30
0.0
 10
4.5394792005
 20
4.7006358014
 30
0.0
 10
4.5460837578
 20
4.6999069397
 30
0.0
 10
4.5518650881
 20
4.6974840729
 30
0.0
  0
SPLINE
  5
44C
100
AcDbEntity
  8
ALL_ASSEMBLY_MEMBERS
100
AcDbSpline
 62
7
  6
CONTINUOUS
 70
0
 71
3
 72
8
 73
4
 74
0
 42
0.0000001
 43
0.0000001
 44
0.0000000001
 40
0.0
 40
0.0
 40
0.0
 40
0.0
 40
1.0
 40
1.0
 40
1.0
 40
1.0
 10
4.4839212072
 20
4.6883498471
 30
0.0
 10
4.4785205022
 20
4.6843828731
 30
0.0
 10
4.4741237327
 20
4.6801084322
 30
0.0
 10
4.4708963534
 20
4.6755622474
 30
0.0
  0
SPLINE
  5
44D
100
AcDbEntity
  8
ALL_ASSEMBLY_MEMBERS
100
AcDbSpline
 62
7
  6
CONTINUOUS
 70
0
 71
3
 72
8
 73
4
 74
0
 42
0.0000001
 43
0.0000001
 44
0.0000000001
 40
0.0
 40
0.0
 40
0.0
 40
0.0
 40
1.0
 40
1.0
 40
1.0
 40
1.0
 10
4.4708963534
 20
4.6755622474
 30
0.0
 10
4.4669342489
 20
4.6699811063
 30
0.0
 10
4.4643714317
 20
4.6645416198
 30
0.0
 10
4.4632678374
 20
4.6592878088
 30
0.0
  0
SPLINE
  5
44E
100
AcDbEntity
  8
ALL_ASSEMBLY_MEMBERS
100
AcDbSpline
 62
7
  6
CONTINUOUS
 70
0
 71
3
 72
8
 73
4
 74
0
 42
0.0000001
 43
0.0000001
 44
0.0000000001
 40
0.0
 40
0.0
 40
0.0
 40
0.0
 40
1.0
 40
1.0
 40
1.0
 40
1.0
 10
4.4632678374
 20
4.6592878088
 30
0.0
 10
4.4621516591
 20
4.6539740898
 30
0.0
 10
4.462479109
 20
4.6490791357
 30
0.0
 10
4.4642982737
 20
4.6446351818
 30
0.0
  0
SPLINE
  5
44F
100
AcDbEntity
  8
ALL_ASSEMBLY_MEMBERS
100
AcDbSpline
 62
7
  6
CONTINUOUS
 70
0
 71
3
 72
8
 73
4
 74
0
 42
0.0000001
 43
0.0000001
 44
0.0000000001
 40
0.0
 40
0.0
 40
0.0
 40
0.0
 40
1.0
 40
1.0
 40
1.0
 40
1.0
 10
4.4642982737
 20
4.6446351818
 30
0.0
 10
4.4660894499
 20
4.6402595997
 30
0.0
 10
4.4692883804
 20
4.6365401213
 30
0.0
 10
4.4738555686
 20
4.6335277355
 30
0.0
  0
SPLINE
  5
450
100
AcDbEntity
  8
ALL_ASSEMBLY_MEMBERS
100
AcDbSpline
 62
7
  6
CONTINUOUS
 70
0
 71
3
 72
8
 73
4
 74
0
 42
0.0000001
 43
0.0000001
 44
0.0000000001
 40
0.0
 40
0.0
 40
0.0
 40
0.0
 40
1.0
 40
1.0
 40
1.0
 40
1.0
 10
4.4738555686
 20
4.6335277355
 30
0.0
 10
4.4784737421
 20
4.6304817213
 30
0.0
 10
4.4840871607
 20
4.6284690513
 30
0.0
 10
4.4906289862
 20
4.6273284739
 30
0.0
  0
SPLINE
  5
451
100
AcDbEntity
  8
ALL_ASSEMBLY_MEMBERS
100
AcDbSpline
 62
7
  6
CONTINUOUS
 70
0
 71
3
 72
8
 73
4
 74
0
 42
0.0000001
 43
0.0000001
 44
0.0000000001
 40
0.0
 40
0.0
 40
0.0
 40
0.0
 40
1.0
 40
1.0
 40
1.0
 40
1.0
 10
4.4906289862
 20
4.6273284739
 30
0.0
 10
4.496121611
 20
4.6263708263
 30
0.0
 10
4.5022815732
 20
4.626338045
 30
0.0
 10
4.5089137131
 20
4.6272968032
 30
0.0
  0
SPLINE
  5
452
100
AcDbEntity
  8
ALL_ASSEMBLY_MEMBERS
100
AcDbSpline
 62
7
  6
CONTINUOUS
 70
0
 71
3
 72
8
 73
4
 74
0
 42
0.0000001
 43
0.0000001
 44
0.0000000001
 40
0.0
 40
0.0
 40
0.0
 40
0.0
 40
1.0
 40
1.0
 40
1.0
 40
1.0
 10
4.5089137131
 20
4.6272968032
 30
0.0
 10
4.5155458594
 20
4.6282555623
 30
0.0
 10
4.5222119878
 20
4.6301063118
 30
0.0
 10
4.5287753609
 20
4.6327930761
 30
0.0
  0
SPLINE
  5
453
100
AcDbEntity
  8
ALL_ASSEMBLY_MEMBERS
100
AcDbSpline
 62
7
  6
CONTINUOUS
 70
0
 71
3
 72
8
 73
4
 74
0
 42
0.0000001
 43
0.0000001
 44
0.0000000001
 40
0.0
 40
0.0
 40
0.0
 40
0.0
 40
1.0
 40
1.0
 40
1.0
 40
1.0
 10
4.5287753609
 20
4.6327930761
 30
0.0
 10
4.5354071029
 20
4.6355078277
 30
0.0
 10
4.5414575136
 20
4.6388626857
 30
0.0
 10
4.5468582211
 20
4.6428296616
 30
0.0
  0
SPLINE
  5
454
100
AcDbEntity
  8
ALL_ASSEMBLY_MEMBERS
100
AcDbSpline
 62
7
  6
CONTINUOUS
 70
0
 71
3
 72
8
 73
4
 74
0
 42
0.0000001
 43
0.0000001
 44
0.0000000001
 40
0.0
 40
0.0
 40
0.0
 40
0.0
 40
1.0
 40
1.0
 40
1.0
 40
1.0
 10
4.5468582211
 20
4.6428296616
 30
0.0
 10
4.5522589287
 20
4.6467966375
 30
0.0
 10
4.5565593443
 20
4.6511114503
 30
0.0
 10
4.559818324
 20
4.655635281
 30
0.0
  0
SPLINE
  5
455
100
AcDbEntity
  8
ALL_ASSEMBLY_MEMBERS
100
AcDbSpline
 62
7
  6
CONTINUOUS
 70
0
 71
3
 72
8
 73
4
 74
0
 42
0.0000001
 43
0.0000001
 44
0.0000000001
 40
0.0
 40
0.0
 40
0.0
 40
0.0
 40
1.0
 40
1.0
 40
1.0
 40
1.0
 10
4.559818324
 20
4.655635281
 30
0.0
 10
4.5637364336
 20
4.6610740582
 30
0.0
 10
4.5663272363
 20
4.6664451857
 30
0.0
 10
4.56745376
 20
4.6718615027
 30
0.0
  0
SPLINE
  5
456
100
AcDbEntity
  8
ALL_ASSEMBLY_MEMBERS
100
AcDbSpline
 62
7
  6
CONTINUOUS
 70
0
 71
3
 72
8
 73
4
 74
0
 42
0.0000001
 43
0.0000001
 44
0.0000000001
 40
0.0
 40
0.0
 40
0.0
 40
0.0
 40
1.0
 40
1.0
 40
1.0
 40
1.0
 10
4.56745376
 20
4.6718615027
 30
0.0
 10
4.5685594049
 20
4.6771774344
 30
0.0
 10
4.5683003237
 20
4.6821003615
 30
0.0
 10
4.5665091475
 20
4.6864759435
 30
0.0
  0
SPLINE
  5
457
100
AcDbEntity
  8
ALL_ASSEMBLY_MEMBERS
100
AcDbSpline
 62
7
  6
CONTINUOUS
 70
0
 71
3
 72
8
 73
4
 74
0
 42
0.0000001
 43
0.0000001
 44
0.0000000001
 40
0.0
 40
0.0
 40
0.0
 40
0.0
 40
1.0
 40
1.0
 40
1.0
 40
1.0
 10
4.5665091475
 20
4.6864759435
 30
0.0
 10
4.5646899828
 20
4.6909198975
 30
0.0
 10
4.5614910521
 20
4.69463939
 30
0.0
 10
4.5569692995
 20
4.6976451101
 30
0.0
  0
SPLINE
  5
458
100
AcDbEntity
  8
ALL_ASSEMBLY_MEMBERS
100
AcDbSpline
 62
7
  6
CONTINUOUS
 70
0
 71
3
 72
8
 73
4
 74
0
 42
0.0000001
 43
0.0000001
 44
0.0000000001
 40
0.0
 40
0.0
 40
0.0
 40
0.0
 40
1.0
 40
1.0
 40
1.0
 40
1.0
 10
4.5569692995
 20
4.6976451101
 30
0.0
 10
4.5524983945
 20
4.7006170305
 30
0.0
 10
4.5468569965
 20
4.7026980621
 30
0.0
 10
4.5400613245
 20
4.7039315591
 30
0.0
  0
SPLINE
  5
459
100
AcDbEntity
  8
ALL_ASSEMBLY_MEMBERS
100
AcDbSpline
 62
7
  6
CONTINUOUS
 70
0
 71
3
 72
8
 73
4
 74
0
 42
0.0000001
 43
0.0000001
 44
0.0000000001
 40
0.0
 40
0.0
 40
0.0
 40
0.0
 40
1.0
 40
1.0
 40
1.0
 40
1.0
 10
4.5400613245
 20
4.7039315591
 30
0.0
 10
4.5346982037
 20
4.7049050307
 30
0.0
 10
4.528634594
 20
4.7048974396
 30
0.0
 10
4.5219328028
 20
4.7039195122
 30
0.0
  0
SPLINE
  5
45A
100
AcDbEntity
  8
ALL_ASSEMBLY_MEMBERS
100
AcDbSpline
 62
7
  6
CONTINUOUS
 70
0
 71
3
 72
8
 73
4
 74
0
 42
0.0000001
 43
0.0000001
 44
0.0000000001
 40
0.0
 40
0.0
 40
0.0
 40
0.0
 40
1.0
 40
1.0
 40
1.0
 40
1.0
 10
4.5245711371
 20
5.0077947006
 30
0.0
 10
4.5236204627
 20
5.0099953822
 30
0.0
 10
4.5222863785
 20
5.01174028
 30
0.0
 10
4.5207274836
 20
5.0130755937
 30
0.0
  0
SPLINE
  5
45B
100
AcDbEntity
  8
ALL_ASSEMBLY_MEMBERS
100
AcDbSpline
 62
7
  6
CONTINUOUS
 70
0
 71
3
 72
8
 73
4
 74
0
 42
0.0000001
 43
0.0000001
 44
0.0000000001
 40
0.0
 40
0.0
 40
0.0
 40
0.0
 40
1.0
 40
1.0
 40
1.0
 40
1.0
 10
4.5207274836
 20
5.0130755937
 30
0.0
 10
4.5191685895
 20
5.0144109068
 30
0.0
 10
4.5172989645
 20
5.0152771957
 30
0.0
 10
4.5152639644
 20
5.0156479775
 30
0.0
  0
SPLINE
  5
45C
100
AcDbEntity
  8
ALL_ASSEMBLY_MEMBERS
100
AcDbSpline
 62
7
  6
CONTINUOUS
 70
0
 71
3
 72
8
 73
4
 74
0
 42
0.0000001
 43
0.0000001
 44
0.0000000001
 40
0.0
 40
0.0
 40
0.0
 40
0.0
 40
1.0
 40
1.0
 40
1.0
 40
1.0
 10
4.4431668393
 20
5.0287842443
 30
0.0
 10
4.4393148776
 20
5.0294860808
 30
0.0
 10
4.4363877194
 20
5.0294937773
 30
0.0
 10
4.4343415595
 20
5.0288458327
 30
0.0
  0
SPLINE
  5
45D
100
AcDbEntity
  8
ALL_ASSEMBLY_MEMBERS
100
AcDbSpline
 62
7
  6
CONTINUOUS
 70
0
 71
3
 72
8
 73
4
 74
0
 42
0.0000001
 43
0.0000001
 44
0.0000000001
 40
0.0
 40
0.0
 40
0.0
 40
0.0
 40
1.0
 40
1.0
 40
1.0
 40
1.0
 10
4.4343415595
 20
5.0288458327
 30
0.0
 10
4.4323235694
 20
5.0282068085
 30
0.0
 10
4.4304927505
 20
5.0268132884
 30
0.0
 10
4.4288796587
 20
5.0245540922
 30
0.0
  0
SPLINE
  5
45E
100
AcDbEntity
  8
ALL_ASSEMBLY_MEMBERS
100
AcDbSpline
 62
7
  6
CONTINUOUS
 70
0
 71
3
 72
8
 73
4
 74
0
 42
0.0000001
 43
0.0000001
 44
0.0000000001
 40
0.0
 40
0.0
 40
0.0
 40
0.0
 40
1.0
 40
1.0
 40
1.0
 40
1.0
 10
4.4288796587
 20
5.0245540922
 30
0.0
 10
4.4291845359
 20
5.0270516482
 30
0.0
 10
4.4293308193
 20
5.0295030085
 30
0.0
 10
4.4292275838
 20
5.0320809806
 30
0.0
  0
SPLINE
  5
45F
100
AcDbEntity
  8
ALL_ASSEMBLY_MEMBERS
100
AcDbSpline
 62
7
  6
CONTINUOUS
 70
0
 71
3
 72
8
 73
4
 74
0
 42
0.0000001
 43
0.0000001
 44
0.0000000001
 40
0.0
 40
0.0
 40
0.0
 40
0.0
 40
1.0
 40
1.0
 40
1.0
 40
1.0
 10
4.4292275838
 20
5.0320809806
 30
0.0
 10
4.4291278661
 20
5.0345711059
 30
0.0
 10
4.4288248336
 20
5.037029241
 30
0.0
 10
4.4283764367
 20
5.0395138617
 30
0.0
  0
SPLINE
  5
460
100
AcDbEntity
  8
ALL_ASSEMBLY_MEMBERS
100
AcDbSpline
 62
7
  6
CONTINUOUS
 70
0
 71
3
 72
8
 73
4
 74
0
 42
0.0000001
 43
0.0000001
 44
0.0000000001
 40
0.0
 40
0.0
 40
0.0
 40
0.0
 40
1.0
 40
1.0
 40
1.0
 40
1.0
 10
4.5174076666
 20
5.023292161
 30
0.0
 10
4.5192973088
 20
5.0229478637
 30
0.0
 10
4.5210351257
 20
5.0230066846
 30
0.0
 10
4.5225675295
 20
5.0235373669
 30
0.0
  0
SPLINE
  5
461
100
AcDbEntity
  8
ALL_ASSEMBLY_MEMBERS
100
AcDbSpline
 62
7
  6
CONTINUOUS
 70
0
 71
3
 72
8
 73
4
 74
0
 42
0.0000001
 43
0.0000001
 44
0.0000000001
 40
0.0
 40
0.0
 40
0.0
 40
0.0
 40
1.0
 40
1.0
 40
1.0
 40
1.0
 10
4.5225675295
 20
5.0235373669
 30
0.0
 10
4.5241609187
 20
5.024089169
 30
0.0
 10
4.5259652543
 20
5.025337331
 30
0.0
 10
4.5281068055
 20
5.0271998736
 30
0.0
  0
SPLINE
  5
462
100
AcDbEntity
  8
ALL_ASSEMBLY_MEMBERS
100
AcDbSpline
 62
7
  6
CONTINUOUS
 70
0
 71
3
 72
8
 73
4
 74
0
 42
0.0000001
 43
0.0000001
 44
0.0000000001
 40
0.0
 40
0.0
 40
0.0
 40
0.0
 40
1.0
 40
1.0
 40
1.0
 40
1.0
 10
4.5429344464
 20
5.0876166273
 30
0.0
 10
4.5422910515
 20
5.0899259125
 30
0.0
 10
4.5412059694
 20
5.091835634
 30
0.0
 10
4.5398426
 20
5.0933700591
 30
0.0
  0
SPLINE
  5
463
100
AcDbEntity
  8
ALL_ASSEMBLY_MEMBERS
100
AcDbSpline
 62
7
  6
CONTINUOUS
 70
0
 71
3
 72
8
 73
4
 74
0
 42
0.0000001
 43
0.0000001
 44
0.0000000001
 40
0.0
 40
0.0
 40
0.0
 40
0.0
 40
1.0
 40
1.0
 40
1.0
 40
1.0
 10
4.5398426
 20
5.0933700591
 30
0.0
 10
4.5384792346
 20
5.0949044797
 30
0.0
 10
4.5367443894
 20
5.0960163547
 30
0.0
 10
4.5347784878
 20
5.096659733
 30
0.0
  0
SPLINE
  5
464
100
AcDbEntity
  8
ALL_ASSEMBLY_MEMBERS
100
AcDbSpline
 62
7
  6
CONTINUOUS
 70
0
 71
3
 72
8
 73
4
 74
0
 42
0.0000001
 43
0.0000001
 44
0.0000000001
 40
0.0
 40
0.0
 40
0.0
 40
0.0
 40
1.0
 40
1.0
 40
1.0
 40
1.0
 10
4.4651294248
 20
5.1194537006
 30
0.0
 10
4.4614082566
 20
5.120671523
 30
0.0
 10
4.4585091937
 20
5.1210761818
 30
0.0
 10
4.4563940535
 20
5.1207117583
 30
0.0
  0
SPLINE
  5
465
100
AcDbEntity
  8
ALL_ASSEMBLY_MEMBERS
100
AcDbSpline
 62
7
  6
CONTINUOUS
 70
0
 71
3
 72
8
 73
4
 74
0
 42
0.0000001
 43
0.0000001
 44
0.0000000001
 40
0.0
 40
0.0
 40
0.0
 40
0.0
 40
1.0
 40
1.0
 40
1.0
 40
1.0
 10
4.4563940535
 20
5.1207117583
 30
0.0
 10
4.4543080389
 20
5.1203523529
 30
0.0
 10
4.4523051275
 20
5.1192200456
 30
0.0
 10
4.4504005086
 20
5.117200518
 30
0.0
  0
SPLINE
  5
466
100
AcDbEntity
  8
ALL_ASSEMBLY_MEMBERS
100
AcDbSpline
 62
7
  6
CONTINUOUS
 70
0
 71
3
 72
8
 73
4
 74
0
 42
0.0000001
 43
0.0000001
 44
0.0000000001
 40
0.0
 40
0.0
 40
0.0
 40
0.0
 40
1.0
 40
1.0
 40
1.0
 40
1.0
 10
4.4504005086
 20
5.117200518
 30
0.0
 10
4.4510413334
 20
5.119633646
 30
0.0
 10
4.4515187591
 20
5.1220425012
 30
0.0
 10
4.45176615
 20
5.1246106578
 30
0.0
  0
SPLINE
  5
467
100
AcDbEntity
  8
ALL_ASSEMBLY_MEMBERS
100
AcDbSpline
 62
7
  6
CONTINUOUS
 70
0
 71
3
 72
8
 73
4
 74
0
 42
0.0000001
 43
0.0000001
 44
0.0000000001
 40
0.0
 40
0.0
 40
0.0
 40
0.0
 40
1.0
 40
1.0
 40
1.0
 40
1.0
 10
4.45176615
 20
5.1246106578
 30
0.0
 10
4.4520051105
 20
5.1270912991
 30
0.0
 10
4.4520382946
 20
5.12956782
 30
0.0
 10
4.4519310502
 20
5.1320902987
 30
0.0
  0
SPLINE
  5
468
100
AcDbEntity
  8
ALL_ASSEMBLY_MEMBERS
100
AcDbSpline
 62
7
  6
CONTINUOUS
 70
0
 71
3
 72
8
 73
4
 74
0
 42
0.0000001
 43
0.0000001
 44
0.0000000001
 40
0.0
 40
0.0
 40
0.0
 40
0.0
 40
1.0
 40
1.0
 40
1.0
 40
1.0
 10
4.5379392197
 20
5.1039425054
 30
0.0
 10
4.5397646989
 20
5.1033450829
 30
0.0
 10
4.5414944321
 20
5.1031676402
 30
0.0
 10
4.5430846548
 20
5.1034855663
 30
0.0
  0
SPLINE
  5
469
100
AcDbEntity
  8
ALL_ASSEMBLY_MEMBERS
100
AcDbSpline
 62
7
  6
CONTINUOUS
 70
0
 71
3
 72
8
 73
4
 74
0
 42
0.0000001
 43
0.0000001
 44
0.0000000001
 40
0.0
 40
0.0
 40
0.0
 40
0.0
 40
1.0
 40
1.0
 40
1.0
 40
1.0
 10
4.5430846548
 20
5.1034855663
 30
0.0
 10
4.5447381639
 20
5.1038161449
 30
0.0
 10
4.5466951227
 20
5.1048080358
 30
0.0
 10
4.5490695161
 20
5.1063628965
 30
0.0
  0
LINE
  5
46A
100
AcDbEntity
  8
ALL_ASSEMBLY_MEMBERS
100
AcDbLine
 62
7
  6
CONTINUOUS
 10
4.4839110056
 20
5.2058929894
 11
4.4870552999
 21
5.2101124538
  0
LINE
  5
46B
100
AcDbEntity
  8
ALL_ASSEMBLY_MEMBERS
100
AcDbLine
 62
7
  6
CONTINUOUS
 10
4.4870552999
 20
5.2101124538
 11
4.489571101
 21
5.2147271026
  0
SPLINE
  5
46C
100
AcDbEntity
  8
ALL_ASSEMBLY_MEMBERS
100
AcDbSpline
 62
7
  6
CONTINUOUS
 70
0
 71
3
 72
8
 73
4
 74
0
 42
0.0000001
 43
0.0000001
 44
0.0000000001
 40
0.0
 40
0.0
 40
0.0
 40
0.0
 40
1.0
 40
1.0
 40
1.0
 40
1.0
 10
4.489571101
 20
5.2147271026
 30
0.0
 10
4.4907274804
 20
5.2171220453
 30
0.0
 10
4.4916177536
 20
5.2196454752
 30
0.0
 10
4.4922740425
 20
5.2223639076
 30
0.0
  0
SPLINE
  5
46D
100
AcDbEntity
  8
ALL_ASSEMBLY_MEMBERS
100
AcDbSpline
 62
7
  6
CONTINUOUS
 70
0
 71
3
 72
8
 73
4
 74
0
 42
0.0000001
 43
0.0000001
 44
0.0000000001
 40
0.0
 40
0.0
 40
0.0
 40
0.0
 40
1.0
 40
1.0
 40
1.0
 40
1.0
 10
4.4922740425
 20
5.2223639076
 30
0.0
 10
4.4929303347
 20
5.2250823538
 30
0.0
 10
4.4932861131
 20
5.2280279257
 30
0.0
 10
4.493375797
 20
5.2311019938
 30
0.0
  0
SPLINE
  5
46E
100
AcDbEntity
  8
ALL_ASSEMBLY_MEMBERS
100
AcDbSpline
 62
7
  6
CONTINUOUS
 70
0
 71
3
 72
8
 73
4
 74
0
 42
0.0000001
 43
0.0000001
 44
0.0000000001
 40
0.0
 40
0.0
 40
0.0
 40
0.0
 40
1.0
 40
1.0
 40
1.0
 40
1.0
 10
4.493375797
 20
5.2311019938
 30
0.0
 10
4.4951374351
 20
5.2279543848
 30
0.0
 10
4.4958804755
 20
5.224396217
 30
0.0
 10
4.4957379682
 20
5.2203632349
 30
0.0
  0
SPLINE
  5
46F
100
AcDbEntity
  8
ALL_ASSEMBLY_MEMBERS
100
AcDbSpline
 62
7
  6
CONTINUOUS
 70
0
 71
3
 72
8
 73
4
 74
0
 42
0.0000001
 43
0.0000001
 44
0.0000000001
 40
0.0
 40
0.0
 40
0.0
 40
0.0
 40
1.0
 40
1.0
 40
1.0
 40
1.0
 10
4.4957379682
 20
5.2203632349
 30
0.0
 10
4.4955954609
 20
5.2163302501
 30
0.0
 10
4.4945284398
 20
5.2122514505
 30
0.0
 10
4.4925369021
 20
5.2081268361
 30
0.0
  0
SPLINE
  5
470
100
AcDbEntity
  8
ALL_ASSEMBLY_MEMBERS
100
AcDbSpline
 62
7
  6
CONTINUOUS
 70
0
 71
3
 72
8
 73
4
 74
0
 42
0.0000001
 43
0.0000001
 44
0.0000000001
 40
0.0
 40
0.0
 40
0.0
 40
0.0
 40
1.0
 40
1.0
 40
1.0
 40
1.0
 10
4.4925369021
 20
5.2081268361
 30
0.0
 10
4.4919908299
 20
5.2069958824
 30
0.0
 10
4.4910488616
 20
5.2051359968
 30
0.0
 10
4.4893729991
 20
5.2027634837
 30
0.0
  0
SPLINE
  5
471
100
AcDbEntity
  8
ALL_ASSEMBLY_MEMBERS
100
AcDbSpline
 62
7
  6
CONTINUOUS
 70
0
 71
3
 72
8
 73
4
 74
0
 42
0.0000001
 43
0.0000001
 44
0.0000000001
 40
0.0
 40
0.0
 40
0.0
 40
0.0
 40
1.0
 40
1.0
 40
1.0
 40
1.0
 10
4.5115299529
 20
5.0137001262
 30
0.0
 10
4.5158179875
 20
5.0129188362
 30
0.0
 10
4.5189625676
 20
5.011219517
 30
0.0
 10
4.521008326
 20
5.0087627501
 30
0.0
  0
SPLINE
  5
472
100
AcDbEntity
  8
ALL_ASSEMBLY_MEMBERS
100
AcDbSpline
 62
7
  6
CONTINUOUS
 70
0
 71
3
 72
8
 73
4
 74
0
 42
0.0000001
 43
0.0000001
 44
0.0000000001
 40
0.0
 40
0.0
 40
0.0
 40
0.0
 40
1.0
 40
1.0
 40
1.0
 40
1.0
 10
4.521008326
 20
5.0087627501
 30
0.0
 10
4.5230904673
 20
5.0062622908
 30
0.0
 10
4.5237368783
 20
5.0032159526
 30
0.0
 10
4.5230880103
 20
4.9996547034
 30
0.0
  0
SPLINE
  5
473
100
AcDbEntity
  8
ALL_ASSEMBLY_MEMBERS
100
AcDbSpline
 62
7
  6
CONTINUOUS
 70
0
 71
3
 72
8
 73
4
 74
0
 42
0.0000001
 43
0.0000001
 44
0.0000000001
 40
0.0
 40
0.0
 40
0.0
 40
0.0
 40
1.0
 40
1.0
 40
1.0
 40
1.0
 10
4.5304374333
 20
5.0399912978
 30
0.0
 10
4.5297620813
 20
5.0362846939
 30
0.0
 10
4.5280695356
 20
5.0335894241
 30
0.0
 10
4.5252541291
 20
5.0319598067
 30
0.0
  0
SPLINE
  5
474
100
AcDbEntity
  8
ALL_ASSEMBLY_MEMBERS
100
AcDbSpline
 62
7
  6
CONTINUOUS
 70
0
 71
3
 72
8
 73
4
 74
0
 42
0.0000001
 43
0.0000001
 44
0.0000000001
 40
0.0
 40
0.0
 40
0.0
 40
0.0
 40
1.0
 40
1.0
 40
1.0
 40
1.0
 10
4.5252541291
 20
5.0319598067
 30
0.0
 10
4.5224452676
 20
5.0303339775
 30
0.0
 10
4.5189166637
 20
5.02992562
 30
0.0
 10
4.5146286291
 20
5.0307069101
 30
0.0
  0
SPLINE
  5
475
100
AcDbEntity
  8
ALL_ASSEMBLY_MEMBERS
100
AcDbSpline
 62
7
  6
CONTINUOUS
 70
0
 71
3
 72
8
 73
4
 74
0
 42
0.0000001
 43
0.0000001
 44
0.0000000001
 40
0.0
 40
0.0
 40
0.0
 40
0.0
 40
1.0
 40
1.0
 40
1.0
 40
1.0
 10
4.4236350781
 20
5.0472861504
 30
0.0
 10
4.4251132905
 20
5.042210973
 30
0.0
 10
4.4259900577
 20
5.0367197382
 30
0.0
 10
4.4262287107
 20
5.0308272625
 30
0.0
  0
SPLINE
  5
476
100
AcDbEntity
  8
ALL_ASSEMBLY_MEMBERS
100
AcDbSpline
 62
7
  6
CONTINUOUS
 70
0
 71
3
 72
8
 73
4
 74
0
 42
0.0000001
 43
0.0000001
 44
0.0000000001
 40
0.0
 40
0.0
 40
0.0
 40
0.0
 40
1.0
 40
1.0
 40
1.0
 40
1.0
 10
4.4262287107
 20
5.0308272625
 30
0.0
 10
4.4264680272
 20
5.0249184055
 30
0.0
 10
4.4260230318
 20
5.0187669067
 30
0.0
 10
4.4249898335
 20
5.0122720311
 30
0.0
  0
SPLINE
  5
477
100
AcDbEntity
  8
ALL_ASSEMBLY_MEMBERS
100
AcDbSpline
 62
7
  6
CONTINUOUS
 70
0
 71
3
 72
8
 73
4
 74
0
 42
0.0000001
 43
0.0000001
 44
0.0000000001
 40
0.0
 40
0.0
 40
0.0
 40
0.0
 40
1.0
 40
1.0
 40
1.0
 40
1.0
 10
4.4283148708
 20
5.0160965898
 30
0.0
 10
4.4290431919
 20
5.0200939094
 30
0.0
 10
4.4306168634
 20
5.0229610185
 30
0.0
 10
4.4329069333
 20
5.0247026172
 30
0.0
  0
SPLINE
  5
478
100
AcDbEntity
  8
ALL_ASSEMBLY_MEMBERS
100
AcDbSpline
 62
7
  6
CONTINUOUS
 70
0
 71
3
 72
8
 73
4
 74
0
 42
0.0000001
 43
0.0000001
 44
0.0000000001
 40
0.0
 40
0.0
 40
0.0
 40
0.0
 40
1.0
 40
1.0
 40
1.0
 40
1.0
 10
4.4329069333
 20
5.0247026172
 30
0.0
 10
4.4352368728
 20
5.0264745368
 30
0.0
 10
4.4382699687
 20
5.0270482687
 30
0.0
 10
4.441976579
 20
5.0263729156
 30
0.0
  0
SPLINE
  5
479
100
AcDbEntity
  8
ALL_ASSEMBLY_MEMBERS
100
AcDbSpline
 62
7
  6
CONTINUOUS
 70
0
 71
3
 72
8
 73
4
 74
0
 42
0.0000001
 43
0.0000001
 44
0.0000000001
 40
0.0
 40
0.0
 40
0.0
 40
0.0
 40
1.0
 40
1.0
 40
1.0
 40
1.0
 10
4.5308147788
 20
5.0952363468
 30
0.0
 10
4.534957213
 20
5.0938806572
 30
0.0
 10
4.5378422435
 20
5.0917705276
 30
0.0
 10
4.5395358643
 20
5.089058982
 30
0.0
  0
SPLINE
  5
47A
100
AcDbEntity
  8
ALL_ASSEMBLY_MEMBERS
100
AcDbSpline
 62
7
  6
CONTINUOUS
 70
0
 71
3
 72
8
 73
4
 74
0
 42
0.0000001
 43
0.0000001
 44
0.0000000001
 40
0.0
 40
0.0
 40
0.0
 40
0.0
 40
1.0
 40
1.0
 40
1.0
 40
1.0
 10
4.5395358643
 20
5.089058982
 30
0.0
 10
4.5412596064
 20
5.086299211
 30
0.0
 10
4.5414868449
 20
5.0831933478
 30
0.0
 10
4.5403609322
 20
5.0797530179
 30
0.0
  0
SPLINE
  5
47B
100
AcDbEntity
  8
ALL_ASSEMBLY_MEMBERS
100
AcDbSpline
 62
7
  6
CONTINUOUS
 70
0
 71
3
 72
8
 73
4
 74
0
 42
0.0000001
 43
0.0000001
 44
0.0000000001
 40
0.0
 40
0.0
 40
0.0
 40
0.0
 40
1.0
 40
1.0
 40
1.0
 40
1.0
 10
4.5531136047
 20
5.1187199809
 30
0.0
 10
4.5519417402
 20
5.1151392412
 30
0.0
 10
4.5498992556
 20
5.1126984531
 30
0.0
 10
4.5468888304
 20
5.1114657703
 30
0.0
  0
SPLINE
  5
47C
100
AcDbEntity
  8
ALL_ASSEMBLY_MEMBERS
100
AcDbSpline
 62
7
  6
CONTINUOUS
 70
0
 71
3
 72
8
 73
4
 74
0
 42
0.0000001
 43
0.0000001
 44
0.0000000001
 40
0.0
 40
0.0
 40
0.0
 40
0.0
 40
1.0
 40
1.0
 40
1.0
 40
1.0
 10
4.5468888304
 20
5.1114657703
 30
0.0
 10
4.5438854015
 20
5.1102359523
 30
0.0
 10
4.5403340186
 20
5.110309981
 30
0.0
 10
4.5361915844
 20
5.1116656705
 30
0.0
  0
SPLINE
  5
47D
100
AcDbEntity
  8
ALL_ASSEMBLY_MEMBERS
100
AcDbSpline
 62
7
  6
CONTINUOUS
 70
0
 71
3
 72
8
 73
4
 74
0
 42
0.0000001
 43
0.0000001
 44
0.0000000001
 40
0.0
 40
0.0
 40
0.0
 40
0.0
 40
1.0
 40
1.0
 40
1.0
 40
1.0
 10
4.4482877246
 20
5.1404338642
 30
0.0
 10
4.4490638899
 20
5.1352050875
 30
0.0
 10
4.449187736
 20
5.1296456804
 30
0.0
 10
4.4486249397
 20
5.1237752898
 30
0.0
  0
SPLINE
  5
47E
100
AcDbEntity
  8
ALL_ASSEMBLY_MEMBERS
100
AcDbSpline
 62
7
  6
CONTINUOUS
 70
0
 71
3
 72
8
 73
4
 74
0
 42
0.0000001
 43
0.0000001
 44
0.0000000001
 40
0.0
 40
0.0
 40
0.0
 40
0.0
 40
1.0
 40
1.0
 40
1.0
 40
1.0
 10
4.4486249397
 20
5.1237752898
 30
0.0
 10
4.4480605779
 20
5.1178885698
 30
0.0
 10
4.4467853192
 20
5.11185428
 30
0.0
 10
4.4448807182
 20
5.1055595677
 30
0.0
  0
SPLINE
  5
47F
100
AcDbEntity
  8
ALL_ASSEMBLY_MEMBERS
100
AcDbSpline
 62
7
  6
CONTINUOUS
 70
0
 71
3
 72
8
 73
4
 74
0
 42
0.0000001
 43
0.0000001
 44
0.0000000001
 40
0.0
 40
0.0
 40
0.0
 40
0.0
 40
1.0
 40
1.0
 40
1.0
 40
1.0
 10
4.4486937821
 20
5.1088977807
 30
0.0
 10
4.4499575603
 20
5.1127593711
 30
0.0
 10
4.4519055783
 20
5.1153865374
 30
0.0
 10
4.4544107114
 20
5.116801423
 30
0.0
  0
SPLINE
  5
480
100
AcDbEntity
  8
ALL_ASSEMBLY_MEMBERS
100
AcDbSpline
 62
7
  6
CONTINUOUS
 70
0
 71
3
 72
8
 73
4
 74
0
 42
0.0000001
 43
0.0000001
 44
0.0000000001
 40
0.0
 40
0.0
 40
0.0
 40
0.0
 40
1.0
 40
1.0
 40
1.0
 40
1.0
 10
4.4544107114
 20
5.116801423
 30
0.0
 10
4.4569594594
 20
5.118240942
 30
0.0
 10
4.4600423415
 20
5.1183979598
 30
0.0
 10
4.4636230937
 20
5.1172260912
 30
0.0
  0
SPLINE
  5
481
100
AcDbEntity
  8
ALL_ASSEMBLY_MEMBERS
100
AcDbSpline
 62
7
  6
CONTINUOUS
 70
0
 71
3
 72
8
 73
4
 74
0
 42
0.0000001
 43
0.0000001
 44
0.0000000001
 40
0.0
 40
0.0
 40
0.0
 40
0.0
 40
1.0
 40
1.0
 40
1.0
 40
1.0
 10
4.5702182522
 20
5.162579486
 30
0.0
 10
4.5661001575
 20
5.1593175832
 30
0.0
 10
4.5617665031
 20
5.1573082623
 30
0.0
 10
4.557220957
 20
5.1565303972
 30
0.0
  0
SPLINE
  5
482
100
AcDbEntity
  8
ALL_ASSEMBLY_MEMBERS
100
AcDbSpline
 62
7
  6
CONTINUOUS
 70
0
 71
3
 72
8
 73
4
 74
0
 42
0.0000001
 43
0.0000001
 44
0.0000000001
 40
0.0
 40
0.0
 40
0.0
 40
0.0
 40
1.0
 40
1.0
 40
1.0
 40
1.0
 10
4.557220957
 20
5.1565303972
 30
0.0
 10
4.5527346034
 20
5.1557626615
 30
0.0
 10
4.5484630728
 20
5.1564305308
 30
0.0
 10
4.5444715041
 20
5.1583578285
 30
0.0
  0
SPLINE
  5
483
100
AcDbEntity
  8
ALL_ASSEMBLY_MEMBERS
100
AcDbSpline
 62
7
  6
CONTINUOUS
 70
0
 71
3
 72
8
 73
4
 74
0
 42
0.0000001
 43
0.0000001
 44
0.0000000001
 40
0.0
 40
0.0
 40
0.0
 40
0.0
 40
1.0
 40
1.0
 40
1.0
 40
1.0
 10
4.5444715041
 20
5.1583578285
 30
0.0
 10
4.5422096144
 20
5.1594499642
 30
0.0
 10
4.5406061354
 20
5.1607164019
 30
0.0
 10
4.5396435294
 20
5.1622661431
 30
0.0
  0
SPLINE
  5
484
100
AcDbEntity
  8
ALL_ASSEMBLY_MEMBERS
100
AcDbSpline
 62
7
  6
CONTINUOUS
 70
0
 71
3
 72
8
 73
4
 74
0
 42
0.0000001
 43
0.0000001
 44
0.0000000001
 40
0.0
 40
0.0
 40
0.0
 40
0.0
 40
1.0
 40
1.0
 40
1.0
 40
1.0
 10
4.5396435294
 20
5.1622661431
 30
0.0
 10
4.5387137271
 20
5.1637630723
 30
0.0
 10
4.538560131
 20
5.1653138806
 30
0.0
 10
4.5392668079
 20
5.166777458
 30
0.0
  0
SPLINE
  5
485
100
AcDbEntity
  8
ALL_ASSEMBLY_MEMBERS
100
AcDbSpline
 62
7
  6
CONTINUOUS
 70
0
 71
3
 72
8
 73
4
 74
0
 42
0.0000001
 43
0.0000001
 44
0.0000000001
 40
0.0
 40
0.0
 40
0.0
 40
0.0
 40
1.0
 40
1.0
 40
1.0
 40
1.0
 10
4.5392668079
 20
5.166777458
 30
0.0
 10
4.5398771208
 20
5.1680414589
 30
0.0
 10
4.5409897997
 20
5.1688167765
 30
0.0
 10
4.542443397
 20
5.1690797373
 30
0.0
  0
SPLINE
  5
486
100
AcDbEntity
  8
ALL_ASSEMBLY_MEMBERS
100
AcDbSpline
 62
7
  6
CONTINUOUS
 70
0
 71
3
 72
8
 73
4
 74
0
 42
0.0000001
 43
0.0000001
 44
0.0000000001
 40
0.0
 40
0.0
 40
0.0
 40
0.0
 40
1.0
 40
1.0
 40
1.0
 40
1.0
 10
4.542443397
 20
5.1690797373
 30
0.0
 10
4.5439560805
 20
5.1693533871
 30
0.0
 10
4.5456123887
 20
5.1690458766
 30
0.0
 10
4.5474085942
 20
5.1681785928
 30
0.0
  0
SPLINE
  5
487
100
AcDbEntity
  8
ALL_ASSEMBLY_MEMBERS
100
AcDbSpline
 62
7
  6
CONTINUOUS
 70
0
 71
3
 72
8
 73
4
 74
0
 42
0.0000001
 43
0.0000001
 44
0.0000000001
 40
0.0
 40
0.0
 40
0.0
 40
0.0
 40
1.0
 40
1.0
 40
1.0
 40
1.0
 10
4.5474085942
 20
5.1681785928
 30
0.0
 10
4.5484730125
 20
5.1676646468
 30
0.0
 10
4.5499067495
 20
5.1667262729
 30
0.0
 10
4.5517763312
 20
5.165331342
 30
0.0
  0
SPLINE
  5
488
100
AcDbEntity
  8
ALL_ASSEMBLY_MEMBERS
100
AcDbSpline
 62
7
  6
CONTINUOUS
 70
0
 71
3
 72
8
 73
4
 74
0
 42
0.0000001
 43
0.0000001
 44
0.0000000001
 40
0.0
 40
0.0
 40
0.0
 40
0.0
 40
1.0
 40
1.0
 40
1.0
 40
1.0
 10
4.5517763312
 20
5.165331342
 30
0.0
 10
4.5536459096
 20
5.1639364135
 30
0.0
 10
4.5550796481
 20
5.1629980389
 30
0.0
 10
4.5560775399
 20
5.1625162147
 30
0.0
  0
SPLINE
  5
489
100
AcDbEntity
  8
ALL_ASSEMBLY_MEMBERS
100
AcDbSpline
 62
7
  6
CONTINUOUS
 70
0
 71
3
 72
8
 73
4
 74
0
 42
0.0000001
 43
0.0000001
 44
0.0000000001
 40
0.0
 40
0.0
 40
0.0
 40
0.0
 40
1.0
 40
1.0
 40
1.0
 40
1.0
 10
4.5560775399
 20
5.1625162147
 30
0.0
 10
4.558272903
 20
5.1614562007
 30
0.0
 10
4.5605279412
 20
5.1608595836
 30
0.0
 10
4.5628403757
 20
5.1608915432
 30
0.0
  0
SPLINE
  5
48A
100
AcDbEntity
  8
ALL_ASSEMBLY_MEMBERS
100
AcDbSpline
 62
7
  6
CONTINUOUS
 70
0
 71
3
 72
8
 73
4
 74
0
 42
0.0000001
 43
0.0000001
 44
0.0000000001
 40
0.0
 40
0.0
 40
0.0
 40
0.0
 40
1.0
 40
1.0
 40
1.0
 40
1.0
 10
4.5628403757
 20
5.1608915432
 30
0.0
 10
4.5651528109
 20
5.1609235027
 30
0.0
 10
4.5676235705
 20
5.1614532667
 30
0.0
 10
4.5702182522
 20
5.162579486
 30
0.0
  0
SPLINE
  5
48B
100
AcDbEntity
  8
ALL_ASSEMBLY_MEMBERS
100
AcDbSpline
 62
7
  6
CONTINUOUS
 70
0
 71
3
 72
8
 73
4
 74
0
 42
0.0000001
 43
0.0000001
 44
0.0000000001
 40
0.0
 40
0.0
 40
0.0
 40
0.0
 40
1.0
 40
1.0
 40
1.0
 40
1.0
 10
4.5807585509
 20
5.1816907524
 30
0.0
 10
4.5799467038
 20
5.1854462229
 30
0.0
 10
4.5777170945
 20
5.1889838387
 30
0.0
 10
4.5741444233
 20
5.1923121248
 30
0.0
  0
SPLINE
  5
48C
100
AcDbEntity
  8
ALL_ASSEMBLY_MEMBERS
100
AcDbSpline
 62
7
  6
CONTINUOUS
 70
0
 71
3
 72
8
 73
4
 74
0
 42
0.0000001
 43
0.0000001
 44
0.0000000001
 40
0.0
 40
0.0
 40
0.0
 40
0.0
 40
1.0
 40
1.0
 40
1.0
 40
1.0
 10
4.5741444233
 20
5.1923121248
 30
0.0
 10
4.5705875477
 20
5.1956256957
 30
0.0
 10
4.5653870875
 20
5.1989570381
 30
0.0
 10
4.5586014185
 20
5.2022334452
 30
0.0
  0
SPLINE
  5
48D
100
AcDbEntity
  8
ALL_ASSEMBLY_MEMBERS
100
AcDbSpline
 62
7
  6
CONTINUOUS
 70
0
 71
3
 72
8
 73
4
 74
0
 42
0.0000001
 43
0.0000001
 44
0.0000000001
 40
0.0
 40
0.0
 40
0.0
 40
0.0
 40
1.0
 40
1.0
 40
1.0
 40
1.0
 10
4.5586014185
 20
5.2022334452
 30
0.0
 10
4.5526140646
 20
5.2051243921
 30
0.0
 10
4.5474685694
 20
5.2068705531
 30
0.0
 10
4.5431305076
 20
5.2075705386
 30
0.0
  0
SPLINE
  5
48E
100
AcDbEntity
  8
ALL_ASSEMBLY_MEMBERS
100
AcDbSpline
 62
7
  6
CONTINUOUS
 70
0
 71
3
 72
8
 73
4
 74
0
 42
0.0000001
 43
0.0000001
 44
0.0000000001
 40
0.0
 40
0.0
 40
0.0
 40
0.0
 40
1.0
 40
1.0
 40
1.0
 40
1.0
 10
4.5431305076
 20
5.2075705386
 30
0.0
 10
4.5387924495
 20
5.2082705235
 30
0.0
 10
4.535096663
 20
5.2079220692
 30
0.0
 10
4.5321096763
 20
5.2064930608
 30
0.0
  0
SPLINE
  5
48F
100
AcDbEntity
  8
ALL_ASSEMBLY_MEMBERS
100
AcDbSpline
 62
7
  6
CONTINUOUS
 70
0
 71
3
 72
8
 73
4
 74
0
 42
0.0000001
 43
0.0000001
 44
0.0000000001
 40
0.0
 40
0.0
 40
0.0
 40
0.0
 40
1.0
 40
1.0
 40
1.0
 40
1.0
 10
4.5321096763
 20
5.2064930608
 30
0.0
 10
4.5361222664
 20
5.2102160762
 30
0.0
 10
4.5409491692
 20
5.2123974356
 30
0.0
 10
4.5466568796
 20
5.2130049742
 30
0.0
  0
SPLINE
  5
490
100
AcDbEntity
  8
ALL_ASSEMBLY_MEMBERS
100
AcDbSpline
 62
7
  6
CONTINUOUS
 70
0
 71
3
 72
8
 73
4
 74
0
 42
0.0000001
 43
0.0000001
 44
0.0000000001
 40
0.0
 40
0.0
 40
0.0
 40
0.0
 40
1.0
 40
1.0
 40
1.0
 40
1.0
 10
4.5466568796
 20
5.2130049742
 30
0.0
 10
4.55236459
 20
5.2136125128
 30
0.0
 10
4.5580286057
 20
5.2126004381
 30
0.0
 10
4.5636168004
 20
5.209902222
 30
0.0
  0
SPLINE
  5
491
100
AcDbEntity
  8
ALL_ASSEMBLY_MEMBERS
100
AcDbSpline
 62
7
  6
CONTINUOUS
 70
0
 71
3
 72
8
 73
4
 74
0
 42
0.0000001
 43
0.0000001
 44
0.0000000001
 40
0.0
 40
0.0
 40
0.0
 40
0.0
 40
1.0
 40
1.0
 40
1.0
 40
1.0
 10
4.5636168004
 20
5.209902222
 30
0.0
 10
4.5696041557
 20
5.2070112745
 30
0.0
 10
4.5741209207
 20
5.2029435591
 30
0.0
 10
4.5772483563
 20
5.1978426014
 30
0.0
  0
SPLINE
  5
492
100
AcDbEntity
  8
ALL_ASSEMBLY_MEMBERS
100
AcDbSpline
 62
7
  6
CONTINUOUS
 70
0
 71
3
 72
8
 73
4
 74
0
 42
0.0000001
 43
0.0000001
 44
0.0000000001
 40
0.0
 40
0.0
 40
0.0
 40
0.0
 40
1.0
 40
1.0
 40
1.0
 40
1.0
 10
4.5772483563
 20
5.1978426014
 30
0.0
 10
4.5804083076
 20
5.1926886095
 30
0.0
 10
4.5815733312
 20
5.1872859649
 30
0.0
 10
4.5807585509
 20
5.1816907524
 30
0.0
  0
SPLINE
  5
493
100
AcDbEntity
  8
ALL_ASSEMBLY_MEMBERS
100
AcDbSpline
 62
7
  6
CONTINUOUS
 70
0
 71
3
 72
8
 73
4
 74
0
 42
0.0000001
 43
0.0000001
 44
0.0000000001
 40
0.0
 40
0.0
 40
0.0
 40
0.0
 40
1.0
 40
1.0
 40
1.0
 40
1.0
 10
4.5276087497
 20
5.1735549607
 30
0.0
 10
4.5251565749
 20
5.176461725
 30
0.0
 10
4.5237528352
 20
5.1800107612
 30
0.0
 10
4.5234961864
 20
5.1842364741
 30
0.0
  0
SPLINE
  5
494
100
AcDbEntity
  8
ALL_ASSEMBLY_MEMBERS
100
AcDbSpline
 62
7
  6
CONTINUOUS
 70
0
 71
3
 72
8
 73
4
 74
0
 42
0.0000001
 43
0.0000001
 44
0.0000000001
 40
0.0
 40
0.0
 40
0.0
 40
0.0
 40
1.0
 40
1.0
 40
1.0
 40
1.0
 10
4.5234961864
 20
5.1842364741
 30
0.0
 10
4.5232395376
 20
5.188462187
 30
0.0
 10
4.5240404526
 20
5.1926694738
 30
0.0
 10
4.526031996
 20
5.1967941
 30
0.0
  0
SPLINE
  5
495
100
AcDbEntity
  8
ALL_ASSEMBLY_MEMBERS
100
AcDbSpline
 62
7
  6
CONTINUOUS
 70
0
 71
3
 72
8
 73
4
 74
0
 42
0.0000001
 43
0.0000001
 44
0.0000000001
 40
0.0
 40
0.0
 40
0.0
 40
0.0
 40
1.0
 40
1.0
 40
1.0
 40
1.0
 10
4.526031996
 20
5.1967941
 30
0.0
 10
4.5285053594
 20
5.2019166091
 30
0.0
 10
4.5321347822
 20
5.2046761478
 30
0.0
 10
4.5368193285
 20
5.2052034681
 30
0.0
  0
SPLINE
  5
496
100
AcDbEntity
  8
ALL_ASSEMBLY_MEMBERS
100
AcDbSpline
 62
7
  6
CONTINUOUS
 70
0
 71
3
 72
8
 73
4
 74
0
 42
0.0000001
 43
0.0000001
 44
0.0000000001
 40
0.0
 40
0.0
 40
0.0
 40
0.0
 40
1.0
 40
1.0
 40
1.0
 40
1.0
 10
4.5368193285
 20
5.2052034681
 30
0.0
 10
4.5415038818
 20
5.2057307892
 30
0.0
 10
4.5480372991
 20
5.2039707856
 30
0.0
 10
4.5563530691
 20
5.1999555812
 30
0.0
  0
SPLINE
  5
497
100
AcDbEntity
  8
ALL_ASSEMBLY_MEMBERS
100
AcDbSpline
 62
7
  6
CONTINUOUS
 70
0
 71
3
 72
8
 73
4
 74
0
 42
0.0000001
 43
0.0000001
 44
0.0000000001
 40
0.0
 40
0.0
 40
0.0
 40
0.0
 40
1.0
 40
1.0
 40
1.0
 40
1.0
 10
4.5563530691
 20
5.1999555812
 30
0.0
 10
4.5659328355
 20
5.1953300661
 30
0.0
 10
4.572406418
 20
5.1907277018
 30
0.0
 10
4.5759068689
 20
5.1860842451
 30
0.0
  0
SPLINE
  5
498
100
AcDbEntity
  8
ALL_ASSEMBLY_MEMBERS
100
AcDbSpline
 62
7
  6
CONTINUOUS
 70
0
 71
3
 72
8
 73
4
 74
0
 42
0.0000001
 43
0.0000001
 44
0.0000000001
 40
0.0
 40
0.0
 40
0.0
 40
0.0
 40
1.0
 40
1.0
 40
1.0
 40
1.0
 10
4.5759068689
 20
5.1860842451
 30
0.0
 10
4.5794073201
 20
5.1814407882
 30
0.0
 10
4.5799025228
 20
5.176689721
 30
0.0
 10
4.5775255233
 20
5.1717667885
 30
0.0
  0
SPLINE
  5
499
100
AcDbEntity
  8
ALL_ASSEMBLY_MEMBERS
100
AcDbSpline
 62
7
  6
CONTINUOUS
 70
0
 71
3
 72
8
 73
4
 74
0
 42
0.0000001
 43
0.0000001
 44
0.0000000001
 40
0.0
 40
0.0
 40
0.0
 40
0.0
 40
1.0
 40
1.0
 40
1.0
 40
1.0
 10
4.5775255233
 20
5.1717667885
 30
0.0
 10
4.5759194416
 20
5.1684404805
 30
0.0
 10
4.5736366828
 20
5.1662612562
 30
0.0
 10
4.5707414933
 20
5.1653621746
 30
0.0
  0
SPLINE
  5
49A
100
AcDbEntity
  8
ALL_ASSEMBLY_MEMBERS
100
AcDbSpline
 62
7
  6
CONTINUOUS
 70
0
 71
3
 72
8
 73
4
 74
0
 42
0.0000001
 43
0.0000001
 44
0.0000000001
 40
0.0
 40
0.0
 40
0.0
 40
0.0
 40
1.0
 40
1.0
 40
1.0
 40
1.0
 10
4.5707414933
 20
5.1653621746
 30
0.0
 10
4.5678463037
 20
5.1644630929
 30
0.0
 10
4.5645359771
 20
5.1649129576
 30
0.0
 10
4.5609435645
 20
5.1666475259
 30
0.0
  0
LINE
  5
49B
100
AcDbEntity
  8
ALL_ASSEMBLY_MEMBERS
100
AcDbLine
 62
7
  6
CONTINUOUS
 10
4.5609435645
 20
5.1666475259
 11
4.5556467423
 21
5.169779298
  0
LINE
  5
49C
100
AcDbEntity
  8
ALL_ASSEMBLY_MEMBERS
100
AcDbLine
 62
7
  6
CONTINUOUS
 10
4.5556467423
 20
5.169779298
 11
4.5506481481
 21
5.172849113
  0
SPLINE
  5
49D
100
AcDbEntity
  8
ALL_ASSEMBLY_MEMBERS
100
AcDbSpline
 62
7
  6
CONTINUOUS
 70
0
 71
3
 72
8
 73
4
 74
0
 42
0.0000001
 43
0.0000001
 44
0.0000000001
 40
0.0
 40
0.0
 40
0.0
 40
0.0
 40
1.0
 40
1.0
 40
1.0
 40
1.0
 10
4.5506481481
 20
5.172849113
 30
0.0
 10
4.5478540493
 20
5.1741982217
 30
0.0
 10
4.5452067036
 20
5.1744920511
 30
0.0
 10
4.542844684
 20
5.1738051907
 30
0.0
  0
SPLINE
  5
49E
100
AcDbEntity
  8
ALL_ASSEMBLY_MEMBERS
100
AcDbSpline
 62
7
  6
CONTINUOUS
 70
0
 71
3
 72
8
 73
4
 74
0
 42
0.0000001
 43
0.0000001
 44
0.0000000001
 40
0.0
 40
0.0
 40
0.0
 40
0.0
 40
1.0
 40
1.0
 40
1.0
 40
1.0
 10
4.542844684
 20
5.1738051907
 30
0.0
 10
4.5404349216
 20
5.1731044471
 30
0.0
 10
4.5386064342
 20
5.1715262514
 30
0.0
 10
4.5373858084
 20
5.1689982498
 30
0.0
  0
SPLINE
  5
49F
100
AcDbEntity
  8
ALL_ASSEMBLY_MEMBERS
100
AcDbSpline
 62
7
  6
CONTINUOUS
 70
0
 71
3
 72
8
 73
4
 74
0
 42
0.0000001
 43
0.0000001
 44
0.0000000001
 40
0.0
 40
0.0
 40
0.0
 40
0.0
 40
1.0
 40
1.0
 40
1.0
 40
1.0
 10
4.5373858084
 20
5.1689982498
 30
0.0
 10
4.5361651883
 20
5.16647026
 30
0.0
 10
4.536132908
 20
5.1640247798
 30
0.0
 10
4.5370916696
 20
5.1615929825
 30
0.0
  0
SPLINE
  5
4A0
100
AcDbEntity
  8
ALL_ASSEMBLY_MEMBERS
100
AcDbSpline
 62
7
  6
CONTINUOUS
 70
0
 71
3
 72
8
 73
4
 74
0
 42
0.0000001
 43
0.0000001
 44
0.0000000001
 40
0.0
 40
0.0
 40
0.0
 40
0.0
 40
1.0
 40
1.0
 40
1.0
 40
1.0
 10
4.5370916696
 20
5.1615929825
 30
0.0
 10
4.538050428
 20
5.1591611935
 30
0.0
 10
4.5400255058
 20
5.1573051473
 30
0.0
 10
4.5428196032
 20
5.1559560393
 30
0.0
  0
SPLINE
  5
4A1
100
AcDbEntity
  8
ALL_ASSEMBLY_MEMBERS
100
AcDbSpline
 62
7
  6
CONTINUOUS
 70
0
 71
3
 72
8
 73
4
 74
0
 42
0.0000001
 43
0.0000001
 44
0.0000000001
 40
0.0
 40
0.0
 40
0.0
 40
0.0
 40
1.0
 40
1.0
 40
1.0
 40
1.0
 10
4.5428196032
 20
5.1559560393
 30
0.0
 10
4.5461459112
 20
5.1543499575
 30
0.0
 10
4.5497246278
 20
5.1536064376
 30
0.0
 10
4.5537209237
 20
5.1537277532
 30
0.0
  0
SPLINE
  5
4A2
100
AcDbEntity
  8
ALL_ASSEMBLY_MEMBERS
100
AcDbSpline
 62
7
  6
CONTINUOUS
 70
0
 71
3
 72
8
 73
4
 74
0
 42
0.0000001
 43
0.0000001
 44
0.0000000001
 40
0.0
 40
0.0
 40
0.0
 40
0.0
 40
1.0
 40
1.0
 40
1.0
 40
1.0
 10
4.5537209237
 20
5.1537277532
 30
0.0
 10
4.5577172203
 20
5.1538490689
 30
0.0
 10
4.5616355745
 20
5.1548283738
 30
0.0
 10
4.5653179865
 20
5.1566487926
 30
0.0
  0
SPLINE
  5
4A3
100
AcDbEntity
  8
ALL_ASSEMBLY_MEMBERS
100
AcDbSpline
 62
7
  6
CONTINUOUS
 70
0
 71
3
 72
8
 73
4
 74
0
 42
0.0000001
 43
0.0000001
 44
0.0000000001
 40
0.0
 40
0.0
 40
0.0
 40
0.0
 40
1.0
 40
1.0
 40
1.0
 40
1.0
 10
4.5653179865
 20
5.1566487926
 30
0.0
 10
4.5688552879
 20
5.1583974752
 30
0.0
 10
4.5719317897
 20
5.1605215774
 30
0.0
 10
4.5745812699
 20
5.1630931241
 30
0.0
  0
SPLINE
  5
4A4
100
AcDbEntity
  8
ALL_ASSEMBLY_MEMBERS
100
AcDbSpline
 62
7
  6
CONTINUOUS
 70
0
 71
3
 72
8
 73
4
 74
0
 42
0.0000001
 43
0.0000001
 44
0.0000000001
 40
0.0
 40
0.0
 40
0.0
 40
0.0
 40
1.0
 40
1.0
 40
1.0
 40
1.0
 10
4.5745812699
 20
5.1630931241
 30
0.0
 10
4.5771809911
 20
5.1656163753
 30
0.0
 10
4.5792894443
 20
5.1684540121
 30
0.0
 10
4.580799162
 20
5.1715807435
 30
0.0
  0
SPLINE
  5
4A5
100
AcDbEntity
  8
ALL_ASSEMBLY_MEMBERS
100
AcDbSpline
 62
7
  6
CONTINUOUS
 70
0
 71
3
 72
8
 73
4
 74
0
 42
0.0000001
 43
0.0000001
 44
0.0000000001
 40
0.0
 40
0.0
 40
0.0
 40
0.0
 40
1.0
 40
1.0
 40
1.0
 40
1.0
 10
4.580799162
 20
5.1715807435
 30
0.0
 10
4.5830797974
 20
5.1763040994
 30
0.0
 10
4.5841652475
 20
5.181440476
 30
0.0
 10
4.5840233833
 20
5.1869233319
 30
0.0
  0
SPLINE
  5
4A6
100
AcDbEntity
  8
ALL_ASSEMBLY_MEMBERS
100
AcDbSpline
 62
7
  6
CONTINUOUS
 70
0
 71
3
 72
8
 73
4
 74
0
 42
0.0000001
 43
0.0000001
 44
0.0000000001
 40
0.0
 40
0.0
 40
0.0
 40
0.0
 40
1.0
 40
1.0
 40
1.0
 40
1.0
 10
4.5840233833
 20
5.1869233319
 30
0.0
 10
4.5838815191
 20
5.1924061878
 30
0.0
 10
4.5826568198
 20
5.197345436
 30
0.0
 10
4.5801977238
 20
5.2017463335
 30
0.0
  0
SPLINE
  5
4A7
100
AcDbEntity
  8
ALL_ASSEMBLY_MEMBERS
100
AcDbSpline
 62
7
  6
CONTINUOUS
 70
0
 71
3
 72
8
 73
4
 74
0
 42
0.0000001
 43
0.0000001
 44
0.0000000001
 40
0.0
 40
0.0
 40
0.0
 40
0.0
 40
1.0
 40
1.0
 40
1.0
 40
1.0
 10
4.5801977238
 20
5.2017463335
 30
0.0
 10
4.5783880483
 20
5.204985002
 30
0.0
 10
4.5763671528
 20
5.2077655664
 30
0.0
 10
4.5740310365
 20
5.210054458
 30
0.0
  0
SPLINE
  5
4A8
100
AcDbEntity
  8
ALL_ASSEMBLY_MEMBERS
100
AcDbSpline
 62
7
  6
CONTINUOUS
 70
0
 71
3
 72
8
 73
4
 74
0
 42
0.0000001
 43
0.0000001
 44
0.0000000001
 40
0.0
 40
0.0
 40
0.0
 40
0.0
 40
1.0
 40
1.0
 40
1.0
 40
1.0
 10
4.5740310365
 20
5.210054458
 30
0.0
 10
4.571744888
 20
5.2122943919
 30
0.0
 10
4.5691091139
 20
5.2141413051
 30
0.0
 10
4.566181965
 20
5.215554656
 30
0.0
  0
SPLINE
  5
4A9
100
AcDbEntity
  8
ALL_ASSEMBLY_MEMBERS
100
AcDbSpline
 62
7
  6
CONTINUOUS
 70
0
 71
3
 72
8
 73
4
 74
0
 42
0.0000001
 43
0.0000001
 44
0.0000000001
 40
0.0
 40
0.0
 40
0.0
 40
0.0
 40
1.0
 40
1.0
 40
1.0
 40
1.0
 10
4.566181965
 20
5.215554656
 30
0.0
 10
4.5583984041
 20
5.2193128874
 30
0.0
 10
4.5503645575
 20
5.2196644256
 30
0.0
 10
4.5422111983
 20
5.2167102076
 30
0.0
  0
SPLINE
  5
4AA
100
AcDbEntity
  8
ALL_ASSEMBLY_MEMBERS
100
AcDbSpline
 62
7
  6
CONTINUOUS
 70
0
 71
3
 72
8
 73
4
 74
0
 42
0.0000001
 43
0.0000001
 44
0.0000000001
 40
0.0
 40
0.0
 40
0.0
 40
0.0
 40
1.0
 40
1.0
 40
1.0
 40
1.0
 10
4.5422111983
 20
5.2167102076
 30
0.0
 10
4.534057839
 20
5.2137559897
 30
0.0
 10
4.5280217391
 20
5.208220784
 30
0.0
 10
4.5241028987
 20
5.2001045906
 30
0.0
  0
SPLINE
  5
4AB
100
AcDbEntity
  8
ALL_ASSEMBLY_MEMBERS
100
AcDbSpline
 62
7
  6
CONTINUOUS
 70
0
 71
3
 72
8
 73
4
 74
0
 42
0.0000001
 43
0.0000001
 44
0.0000000001
 40
0.0
 40
0.0
 40
0.0
 40
0.0
 40
1.0
 40
1.0
 40
1.0
 40
1.0
 10
4.5241028987
 20
5.2001045906
 30
0.0
 10
4.522785909
 20
5.1973770124
 30
0.0
 10
4.521868084
 20
5.1944567151
 30
0.0
 10
4.5213711773
 20
5.1914119147
 30
0.0
  0
SPLINE
  5
4AC
100
AcDbEntity
  8
ALL_ASSEMBLY_MEMBERS
100
AcDbSpline
 62
7
  6
CONTINUOUS
 70
0
 71
3
 72
8
 73
4
 74
0
 42
0.0000001
 43
0.0000001
 44
0.0000000001
 40
0.0
 40
0.0
 40
0.0
 40
0.0
 40
1.0
 40
1.0
 40
1.0
 40
1.0
 10
4.5213711773
 20
5.1914119147
 30
0.0
 10
4.5208628579
 20
5.1882971823
 30
0.0
 10
4.5206790987
 20
5.1848583672
 30
0.0
 10
4.5207981346
 20
5.1810272448
 30
0.0
  0
LINE
  5
4AD
100
AcDbEntity
  8
ALL_ASSEMBLY_MEMBERS
100
AcDbLine
 62
7
  6
CONTINUOUS
 10
4.4928692061
 20
5.2032083035
 11
4.4944156129
 21
5.2060712147
  0
SPLINE
  5
4AE
100
AcDbEntity
  8
ALL_ASSEMBLY_MEMBERS
100
AcDbSpline
 62
7
  6
CONTINUOUS
 70
0
 71
3
 72
8
 73
4
 74
0
 42
0.0000001
 43
0.0000001
 44
0.0000000001
 40
0.0
 40
0.0
 40
0.0
 40
0.0
 40
1.0
 40
1.0
 40
1.0
 40
1.0
 10
4.4944156129
 20
5.2060712147
 30
0.0
 10
4.4971780683
 20
5.2117924536
 30
0.0
 10
4.4984218428
 20
5.2174266348
 30
0.0
 10
4.4981126823
 20
5.2230075604
 30
0.0
  0
SPLINE
  5
4AF
100
AcDbEntity
  8
ALL_ASSEMBLY_MEMBERS
100
AcDbSpline
 62
7
  6
CONTINUOUS
 70
0
 71
3
 72
8
 73
4
 74
0
 42
0.0000001
 43
0.0000001
 44
0.0000000001
 40
0.0
 40
0.0
 40
0.0
 40
0.0
 40
1.0
 40
1.0
 40
1.0
 40
1.0
 10
4.4981126823
 20
5.2230075604
 30
0.0
 10
4.4978054894
 20
5.2285529664
 30
0.0
 10
4.4958467204
 20
5.2340107197
 30
0.0
 10
4.4924013708
 20
5.2394479121
 30
0.0
  0
SPLINE
  5
4B0
100
AcDbEntity
  8
ALL_ASSEMBLY_MEMBERS
100
AcDbSpline
 62
7
  6
CONTINUOUS
 70
0
 71
3
 72
8
 73
4
 74
0
 42
0.0000001
 43
0.0000001
 44
0.0000000001
 40
0.0
 40
0.0
 40
0.0
 40
0.0
 40
1.0
 40
1.0
 40
1.0
 40
1.0
 10
4.4901324811
 20
5.2386566261
 30
0.0
 10
4.4902997776
 20
5.2361147673
 30
0.0
 10
4.4900403516
 20
5.2333687631
 30
0.0
 10
4.489344652
 20
5.2305856314
 30
0.0
  0
SPLINE
  5
4B1
100
AcDbEntity
  8
ALL_ASSEMBLY_MEMBERS
100
AcDbSpline
 62
7
  6
CONTINUOUS
 70
0
 71
3
 72
8
 73
4
 74
0
 42
0.0000001
 43
0.0000001
 44
0.0000000001
 40
0.0
 40
0.0
 40
0.0
 40
0.0
 40
1.0
 40
1.0
 40
1.0
 40
1.0
 10
4.489344652
 20
5.2305856314
 30
0.0
 10
4.4886314066
 20
5.2277323079
 30
0.0
 10
4.4874841588
 20
5.2246766658
 30
0.0
 10
4.4859102003
 20
5.2214168873
 30
0.0
  0
SPLINE
  5
4B2
100
AcDbEntity
  8
ALL_ASSEMBLY_MEMBERS
100
AcDbSpline
 62
7
  6
CONTINUOUS
 70
0
 71
3
 72
8
 73
4
 74
0
 42
0.0000001
 43
0.0000001
 44
0.0000000001
 40
0.0
 40
0.0
 40
0.0
 40
0.0
 40
1.0
 40
1.0
 40
1.0
 40
1.0
 10
4.4859102003
 20
5.2214168873
 30
0.0
 10
4.484464729
 20
5.2184232148
 30
0.0
 10
4.4828816332
 20
5.2158241238
 30
0.0
 10
4.4810278784
 20
5.2136838775
 30
0.0
  0
SPLINE
  5
4B3
100
AcDbEntity
  8
ALL_ASSEMBLY_MEMBERS
100
AcDbSpline
 62
7
  6
CONTINUOUS
 70
0
 71
3
 72
8
 73
4
 74
0
 42
0.0000001
 43
0.0000001
 44
0.0000000001
 40
0.0
 40
0.0
 40
0.0
 40
0.0
 40
1.0
 40
1.0
 40
1.0
 40
1.0
 10
4.4810278784
 20
5.2136838775
 30
0.0
 10
4.4791741153
 20
5.2115436217
 30
0.0
 10
4.4771827288
 20
5.2097979608
 30
0.0
 10
4.4748885646
 20
5.2084446135
 30
0.0
  0
SPLINE
  5
4B4
100
AcDbEntity
  8
ALL_ASSEMBLY_MEMBERS
100
AcDbSpline
 62
7
  6
CONTINUOUS
 70
0
 71
3
 72
8
 73
4
 74
0
 42
0.0000001
 43
0.0000001
 44
0.0000000001
 40
0.0
 40
0.0
 40
0.0
 40
0.0
 40
1.0
 40
1.0
 40
1.0
 40
1.0
 10
4.5172812129
 20
5.1796900316
 30
0.0
 10
4.5210479348
 20
5.1772970491
 30
0.0
 10
4.5236263111
 20
5.1748215598
 30
0.0
 10
4.5256816155
 20
5.171942356
 30
0.0
  0
ENDSEC
  0
SECTION
  2
OBJECTS
  0
DICTIONARY
  5
C
100
AcDbDictionary
280
0
281
1
  3
ACAD_GROUP
350
D
  3
ACAD_MLINESTYLE
350
17
  3
ACAD_LAYOUT
350
1A
  3
ACAD_PLOTSETTINGS
350
19
  3
ACAD_PLOTSTYLENAME
350
E
  0
DICTIONARY
  5
D
102
{ACAD_REACTORS
330
C
102
}
100
AcDbDictionary
280
0
281
1
  0
ACDBDICTIONARYWDFLT
  5
E
102
{ACAD_REACTORS
330
C
102
}
100
AcDbDictionary
281
1
  3
Normal
350
F
100
AcDbDictionaryWithDefault
340
F
  0
DICTIONARY
  5
17
102
{ACAD_REACTORS
330
C
102
}
100
AcDbDictionary
280
0
281
1
  3
Standard
350
18
  0
DICTIONARY
  5
19
102
{ACAD_REACTORS
330
C
102
}
100
AcDbDictionary
281
1
  0
DICTIONARY
  5
1A
102
{ACAD_REACTORS
330
C
102
}
100
AcDbDictionary
281
1
  3
Model
350
4B5
  3
Layout1
350
4B6
  0
ACDBPLACEHOLDER
  5
F
102
{ACAD_REACTORS
330
E
102
}
  0
MLINESTYLE
  5
18
102
{ACAD_REACTORS
330
17
102
}
100
AcDbMlineStyle
  2
STANDARD
 70
0
  3

 62
256
 51
90.0
 52
90.0
 71
2
 49
0.5
 62
256
  6
BYLAYER
 49
-0.5
 62
256
  6
BYLAYER
  0
LAYOUT
  5
4B5
102
{ACAD_REACTORS
330
1A
102
}
100
AcDbPlotSettings
  1

  2
none_device
  4
ANSI_A_(11.00_x_8.50_Inches)
  6

 40
0.0
 41
0.0
 42
0.0
 43
0.0
 44
279.4
 45
215.9
 46
0.0
 47
0.0
 48
0.0
 49
0.0
140
0.0
141
0.0
142
1.0
143
1.0
 70
1024
 72
0
 73
0
 74
0
  7

 75
0
147
1.0
148
0.0
149
0.0
100
AcDbLayout
  1
Model
 70
0
 71
0
 10
0.0
 20
0.0
 11
11.0
 21
8.5
 12
0.0
 22
0.0
 32
0.0
 14
0.0
 24
0.0
 34
0.0
 15
0.0
 25
0.0
 35
0.0
146
0.0
 13
0.0
 23
0.0
 33
0.0
 16
1.0
 26
0.0
 36
0.0
 17
0.0
 27
1.0
 37
0.0
 76
0
330
21F
345
0
346
0
  0
LAYOUT
  5
4B6
102
{ACAD_REACTORS
330
1A
102
}
100
AcDbPlotSettings
  1

  2
none_device
  4
ANSI_A_(11.00_x_8.50_Inches)
  6

 40
0.0
 41
0.0
 42
0.0
 43
0.0
 44
279.4
 45
215.9
 46
0.0
 47
0.0
 48
0.0
 49
0.0
140
0.0
141
0.0
142
1.0
143
1.0
 70
0
 72
0
 73
0
 74
0
  7

 75
0
147
1.0
148
0.0
149
0.0
100
AcDbLayout
  1
Layout1
 70
0
 71
1
 10
0.0
 20
0.0
 11
11.0
 21
8.5
 12
0.0
 22
0.0
 32
0.0
 14
0.0
 24
0.0
 34
0.0
 15
0.0
 25
0.0
 35
0.0
146
0.0
 13
0.0
 23
0.0
 33
0.0
 16
1.0
 26
0.0
 36
0.0
 17
0.0
 27
1.0
 37
0.0
 76
0
330
220
345
0
346
0
  0
ENDSEC
  0
EOF
