999
DXF file: 3-1775_RIGHT.dxf
999
Pro/ENGINEER 2018400 by Parametric Technology Corporation
  0
SECTION
  2
HEADER
  9
$ACADVER
  1
AC1027
  9
$DWGCODEPAGE
  3
ANSI_1252
  9
$EXTMAX
 10
11.0
 20
8.5
 30
0.0
  9
$EXTMIN
 10
0.0
 20
0.0
 30
0.0
  9
$LIMMIN
 10
0.0
 20
0.0
  9
$LIMMAX
 10
11.0
 20
8.5
  9
$VIEWCTR
 10
5.5
 20
4.25
  9
$VIEWSIZE
 40
8.5
  9
$CLAYER
  8
0
  9
$LTSCALE
 40
0.605
  9
$CELTYPE
  6
BYLAYER
  9
$DIMSCALE
 40
1.0
  9
$DIMASZ
 40
0.1
  9
$DIMEXO
 40
0.0625
  9
$DIMDLI
 40
0.418
  9
$DIMEXE
 40
0.125
  9
$DIMCEN
 40
0.099
  9
$DIMLFAC
 40
1.0
  9
$DIMBLK
  1
_FILLED
  9
$DIMALT
 70
1
  9
$DIMALTD
 70
2
  9
$DIMALTTD
 70
2
  9
$DIMALTF
 40
25.4
  9
$DIMTXT
 40
0.08
  9
$DIMTOL
 70
1
  9
$DIMLIM
 70
0
  9
$DIMTFAC
 40
1.0
  9
$DIMTP
 40
0.001
  9
$DIMTM
 40
0.001
  9
$DIMGAP
 40
0.09
  9
$DIMDSEP
 70
46
  9
$AUNITS
 70
0
  9
$PDMODE
 70
3
  9
$PDSIZE
 40
0.3125
  9
$HANDSEED
  5
397
  9
$TILEMODE
 70
1
  9
$MEASUREMENT
 70
0
  9
$INSUNITS
 70
1
  0
ENDSEC
  0
SECTION
  2
CLASSES
  0
CLASS
  1
ACDBDICTIONARYWDFLT
  2
AcDbDictionaryWithDefault
  3
AutoCAD 2000
 90
0
 91
1
280
0
281
0
  0
CLASS
  1
ACDBPLACEHOLDER
  2
AcDbPlaceHolder
  3
AutoCAD 2000
 90
0
 91
1
280
0
281
0
  0
CLASS
  1
LAYOUT
  2
AcDbLayout
  3
AutoCAD 2000
 90
0
 91
0
280
0
281
0
  0
ENDSEC
  0
SECTION
  2
TABLES
  0
TABLE
  2
VPORT
  5
8
100
AcDbSymbolTable
 70
2
  0
VPORT
  5
1F4
100
AcDbSymbolTableRecord
100
AcDbViewportTableRecord
  2
*ACTIVE
 70
0
 10
0.0
 20
0.0
 11
1.0
 21
1.0
 12
5.5
 22
4.25
 13
0.0
 23
0.0
 14
1.0
 24
1.0
 15
0.0
 25
0.0
 16
0.0
 26
0.0
 36
1.0
 17
0.0
 27
0.0
 37
0.0
 40
8.5
 41
1.2941176471
 42
50.0
 43
0.0
 44
0.0
 50
0.0
 51
0.0
 71
0
 72
100
 73
1
 74
1
 75
0
 76
0
 77
0
 78
0
  0
ENDTAB
  0
TABLE
  2
LTYPE
  5
5
100
AcDbSymbolTable
 70
6
  0
LTYPE
  5
14
100
AcDbSymbolTableRecord
100
AcDbLinetypeTableRecord
  2
BYBLOCK
 70
0
  3

 72
65
 73
0
 40
0.0
  0
LTYPE
  5
15
100
AcDbSymbolTableRecord
100
AcDbLinetypeTableRecord
  2
BYLAYER
 70
0
  3

 72
65
 73
0
 40
0.0
  0
LTYPE
  5
16
100
AcDbSymbolTableRecord
100
AcDbLinetypeTableRecord
  2
CONTINUOUS
 70
64
  3
Solid line
 72
65
 73
0
 40
0.0
  0
LTYPE
  5
1F5
100
AcDbSymbolTableRecord
100
AcDbLinetypeTableRecord
  2
CENTER
 70
64
  3
____ _ ____ _ ____ _ ____ _ ____ _ ____ _ ____
 72
65
 73
4
 40
0.6
 49
0.375
 74
0
 49
-0.075
 74
0
 49
0.075
 74
0
 49
-0.075
 74
0
  0
LTYPE
  5
1F6
100
AcDbSymbolTableRecord
100
AcDbLinetypeTableRecord
  2
HIDDEN
 70
64
  3
- - - - - - - - - - - - - - - - - - - -
 72
65
 73
2
 40
0.2
 49
0.1
 74
0
 49
-0.1
 74
0
  0
LTYPE
  5
1F7
100
AcDbSymbolTableRecord
100
AcDbLinetypeTableRecord
  2
PHANTOM
 70
64
  3
_____ _ _ _____ _ _ _____ _ _ _____
 72
65
 73
6
 40
0.8
 49
0.45
 74
0
 49
-0.05
 74
0
 49
0.1
 74
0
 49
-0.05
 74
0
 49
0.1
 74
0
 49
-0.05
 74
0
  0
LTYPE
  5
1F8
100
AcDbSymbolTableRecord
100
AcDbLinetypeTableRecord
  2
DOT
 70
64
  3
. . . . . . . . . . . . . . . . . . . .
 72
65
 73
2
 40
0.2
 49
0.1
 74
0
 49
-0.1
 74
0
  0
LTYPE
  5
1F9
100
AcDbSymbolTableRecord
100
AcDbLinetypeTableRecord
  2
DASHED
 70
64
  3
- - - - - - - - - - - - - - - - - - - -
 72
65
 73
2
 40
0.2
 49
0.1
 74
0
 49
-0.1
 74
0
  0
ENDTAB
  0
TABLE
  2
LAYER
  5
2
100
AcDbSymbolTable
 70
36
  0
LAYER
  5
10
100
AcDbSymbolTableRecord
100
AcDbLayerTableRecord
  2
0
 70
0
 62
7
  6
CONTINUOUS
370
-3
390
F
  0
LAYER
  5
1FA
100
AcDbSymbolTableRecord
100
AcDbLayerTableRecord
  2
DEFAULT_1
 70
0
 62
7
  6
CENTER
370
-3
390
F
  0
LAYER
  5
1FB
100
AcDbSymbolTableRecord
100
AcDbLayerTableRecord
  2
DEFAULT_2
 70
0
 62
8
  6
HIDDEN
370
-3
390
F
  0
LAYER
  5
1FC
100
AcDbSymbolTableRecord
100
AcDbLayerTableRecord
  2
DEFAULT_3
 70
0
 62
7
  6
PHANTOM
370
-3
390
F
  0
LAYER
  5
1FD
100
AcDbSymbolTableRecord
100
AcDbLayerTableRecord
  2
3-985_ASSY_PLANES
 70
0
 62
7
  6
CONTINUOUS
370
-3
390
F
  0
LAYER
  5
1FE
100
AcDbSymbolTableRecord
100
AcDbLayerTableRecord
  2
ALL_ASSEMBLY_MEMBERS
 70
0
 62
7
  6
CONTINUOUS
370
-3
390
F
  0
LAYER
  5
1FF
100
AcDbSymbolTableRecord
100
AcDbLayerTableRecord
  2
ALL_FEATURES
 70
0
 62
7
  6
CONTINUOUS
370
-3
390
F
  0
LAYER
  5
200
100
AcDbSymbolTableRecord
100
AcDbLayerTableRecord
  2
AXES_FEATURES
 70
0
 62
7
  6
CONTINUOUS
370
-3
390
F
  0
LAYER
  5
201
100
AcDbSymbolTableRecord
100
AcDbLayerTableRecord
  2
CHAMFER_FEATURES
 70
0
 62
7
  6
CONTINUOUS
370
-3
390
F
  0
LAYER
  5
202
100
AcDbSymbolTableRecord
100
AcDbLayerTableRecord
  2
CURVE2
 70
0
 62
7
  6
CONTINUOUS
370
-3
390
F
  0
LAYER
  5
203
100
AcDbSymbolTableRecord
100
AcDbLayerTableRecord
  2
CUT_FEATURES
 70
0
 62
7
  6
CONTINUOUS
370
-3
390
F
  0
LAYER
  5
204
100
AcDbSymbolTableRecord
100
AcDbLayerTableRecord
  2
DATUM_CURVES
 70
0
 62
7
  6
CONTINUOUS
370
-3
390
F
  0
LAYER
  5
205
100
AcDbSymbolTableRecord
100
AcDbLayerTableRecord
  2
DATUM_PLANES
 70
0
 62
7
  6
CONTINUOUS
370
-3
390
F
  0
LAYER
  5
206
100
AcDbSymbolTableRecord
100
AcDbLayerTableRecord
  2
DATUM_POINTS
 70
0
 62
7
  6
CONTINUOUS
370
-3
390
F
  0
LAYER
  5
207
100
AcDbSymbolTableRecord
100
AcDbLayerTableRecord
  2
DEFAULT_COORDINATE_SYSTEM
 70
0
 62
7
  6
CONTINUOUS
370
-3
390
F
  0
LAYER
  5
208
100
AcDbSymbolTableRecord
100
AcDbLayerTableRecord
  2
DEFAULT_DATUM_AXES
 70
0
 62
7
  6
CONTINUOUS
370
-3
390
F
  0
LAYER
  5
209
100
AcDbSymbolTableRecord
100
AcDbLayerTableRecord
  2
DEFAULT_DATUM_CURVES
 70
0
 62
7
  6
CONTINUOUS
370
-3
390
F
  0
LAYER
  5
20A
100
AcDbSymbolTableRecord
100
AcDbLayerTableRecord
  2
DEFAULT_DATUM_PLANES
 70
0
 62
7
  6
CONTINUOUS
370
-3
390
F
  0
LAYER
  5
20B
100
AcDbSymbolTableRecord
100
AcDbLayerTableRecord
  2
DEFAULT_SURFACES
 70
0
 62
7
  6
CONTINUOUS
370
-3
390
F
  0
LAYER
  5
20C
100
AcDbSymbolTableRecord
100
AcDbLayerTableRecord
  2
DIMENSIONS
 70
0
 62
7
  6
CONTINUOUS
370
-3
390
F
  0
LAYER
  5
20D
100
AcDbSymbolTableRecord
100
AcDbLayerTableRecord
  2
HOLE_FEATURES
 70
0
 62
7
  6
CONTINUOUS
370
-3
390
F
  0
LAYER
  5
20E
100
AcDbSymbolTableRecord
100
AcDbLayerTableRecord
  2
NOTES
 70
0
 62
7
  6
CONTINUOUS
370
-3
390
F
  0
LAYER
  5
20F
100
AcDbSymbolTableRecord
100
AcDbLayerTableRecord
  2
PART_REFERENCE_DIMENSIONS
 70
0
 62
7
  6
CONTINUOUS
370
-3
390
F
  0
LAYER
  5
210
100
AcDbSymbolTableRecord
100
AcDbLayerTableRecord
  2
POINTS
 70
0
 62
7
  6
CONTINUOUS
370
-3
390
F
  0
LAYER
  5
211
100
AcDbSymbolTableRecord
100
AcDbLayerTableRecord
  2
PROTRUSION_FEATURES
 70
0
 62
7
  6
CONTINUOUS
370
-3
390
F
  0
LAYER
  5
212
100
AcDbSymbolTableRecord
100
AcDbLayerTableRecord
  2
QUILTS
 70
0
 62
7
  6
CONTINUOUS
370
-3
390
F
  0
LAYER
  5
213
100
AcDbSymbolTableRecord
100
AcDbLayerTableRecord
  2
REFERENCE_DIMENSIONS
 70
0
 62
7
  6
CONTINUOUS
370
-3
390
F
  0
LAYER
  5
214
100
AcDbSymbolTableRecord
100
AcDbLayerTableRecord
  2
ROUND_FEATURES
 70
0
 62
7
  6
CONTINUOUS
370
-3
390
F
  0
LAYER
  5
215
100
AcDbSymbolTableRecord
100
AcDbLayerTableRecord
  2
SIZE_REF
 70
0
 62
7
  6
CONTINUOUS
370
-3
390
F
  0
LAYER
  5
216
100
AcDbSymbolTableRecord
100
AcDbLayerTableRecord
  2
WETTED_SURFACES
 70
0
 62
7
  6
CONTINUOUS
370
-3
390
F
  0
LAYER
  5
217
100
AcDbSymbolTableRecord
100
AcDbLayerTableRecord
  2
XSEC_DATUMS
 70
0
 62
7
  6
CONTINUOUS
370
-3
390
F
  0
ENDTAB
  0
TABLE
  2
STYLE
  5
3
100
AcDbSymbolTable
 70
1
  0
STYLE
  5
11
100
AcDbSymbolTableRecord
100
AcDbTextStyleTableRecord
  2
STANDARD
 70
0
 40
0.0
 41
0.8
 50
0.0
 71
0
 42
0.2
  3
txt
  4

  0
STYLE
  5
218
100
AcDbSymbolTableRecord
100
AcDbTextStyleTableRecord
  2
TEXTSTYLE_1
 70
0
 40
0.0
 41
0.8
 50
0.0
 71
0
 42
0.2
  3
gdt
  4

  0
ENDTAB
  0
TABLE
  2
VIEW
  5
6
100
AcDbSymbolTable
 70
0
  0
ENDTAB
  0
TABLE
  2
UCS
  5
7
100
AcDbSymbolTable
 70
0
  0
ENDTAB
  0
TABLE
  2
APPID
  5
9
100
AcDbSymbolTable
 70
1
  0
APPID
  5
219
100
AcDbSymbolTableRecord
100
AcDbRegAppTableRecord
  2
ACAD
 70
0
  0
ENDTAB
  0
TABLE
  2
BLOCK_RECORD
  5
1
100
AcDbSymbolTable
 70
0
  0
BLOCK_RECORD
  5
21A
100
AcDbSymbolTableRecord
100
AcDbBlockTableRecord
  2
*Model_Space
  0
BLOCK_RECORD
  5
21B
100
AcDbSymbolTableRecord
100
AcDbBlockTableRecord
  2
*Paper_Space
  0
BLOCK_RECORD
  5
21C
100
AcDbSymbolTableRecord
100
AcDbBlockTableRecord
  2
_FILLED
  0
ENDTAB
  0
TABLE
  2
DIMSTYLE
  5
A
100
AcDbSymbolTable
 70
1
100
AcDbDimStyleTable
 71
0
  0
DIMSTYLE
105
21D
100
AcDbSymbolTableRecord
100
AcDbDimStyleTableRecord
  2
STANDARD
 70
0
  3

  4

 40
1.0
 41
0.1
 42
0.0625
 43
0.38
 44
0.125
 45
0.0
 46
0.0
 47
0.001
 48
0.001
140
0.08
141
0.09
142
0.0
143
25.4
144
1.0
145
0.0
146
1.0
147
0.09
 71
1.0
 72
0.0
 73
1
 74
1
 75
0
 76
0
 77
0
 78
4
 79
1
170
1
171
2
172
0
173
0
174
0
175
0
176
0
177
0
178
0
270
2
179
3
271
3
272
3
273
2
274
2
275
0
280
0
281
0
282
0
283
1
284
4
285
0
286
0
287
3
288
0
340
11
278
46
341
21C
342
21C
343
21C
344
21C
  0
ENDTAB
  0
ENDSEC
  0
SECTION
  2
BLOCKS
  0
BLOCK
  5
20
100
AcDbEntity
  8
0
100
AcDbBlockBegin
  2
*Model_Space
 70
0
 10
0.0
 20
0.0
 30
0.0
  3
*Model_Space
  1

  0
ENDBLK
  5
21
100
AcDbEntity
  8
0
100
AcDbBlockEnd
  0
BLOCK
  5
1C
100
AcDbEntity
  8
0
100
AcDbBlockBegin
  2
*Paper_Space
 70
0
 10
0.0
 20
0.0
 30
0.0
  3
*Paper_Space
  1

  0
ENDBLK
  5
1D
100
AcDbEntity
  8
0
100
AcDbBlockEnd
  0
BLOCK
  5
21E
100
AcDbEntity
  8
0
100
AcDbBlockBegin
  2
_FILLED
 70
64
 10
0.0
 20
0.0
  3
_FILLED
  1

  0
SOLID
  5
21F
100
AcDbEntity
  8
0
  6
BYBLOCK
 62
0
100
AcDbTrace
 10
0.0
 20
0.0
 11
-1.0
 21
0.2
 12
-1.0
 22
-0.2
 13
-1.0
 23
-0.2
  0
ENDBLK
  5
220
100
AcDbEntity
  8
0
  6
BYBLOCK
 62
0
100
AcDbBlockEnd
  0
ENDSEC
  0
SECTION
  2
ENTITIES
  0
MTEXT
  5
221
100
AcDbEntity
  8
0
100
AcDbMText
 62
2
  6
CONTINUOUS
  7
STANDARD
 71
3
 72
1
 10
3.9363248954
 20
1.3175103905
 30
0.0
 11
1.0
 21
0.0
 31
0.0
 73
2
 44
0.9
  1
SCALE  .500
 40
0.08
 41
0.704
  0
LINE
  5
222
100
AcDbEntity
  8
0
100
AcDbLine
 62
7
  6
CONTINUOUS
 10
0.0
 20
0.0
 11
0.0
 21
8.5
  0
LINE
  5
223
100
AcDbEntity
  8
0
100
AcDbLine
 62
7
  6
CONTINUOUS
 10
0.0
 20
0.0
 11
11.0
 21
0.0
  0
LINE
  5
224
100
AcDbEntity
  8
0
100
AcDbLine
 62
7
  6
CONTINUOUS
 10
0.0
 20
8.5
 11
11.0
 21
8.5
  0
LINE
  5
225
100
AcDbEntity
  8
0
100
AcDbLine
 62
7
  6
CONTINUOUS
 10
11.0
 20
0.0
 11
11.0
 21
8.5
  0
LINE
  5
226
100
AcDbEntity
  8
ALL_ASSEMBLY_MEMBERS
100
AcDbLine
 62
7
  6
CONTINUOUS
 10
3.2276866877
 20
2.0748082293
 11
3.7791790294
 21
1.9775652498
  0
LINE
  5
227
100
AcDbEntity
  8
ALL_ASSEMBLY_MEMBERS
100
AcDbLine
 62
7
  6
CONTINUOUS
 10
3.2114634962
 20
2.0979773479
 11
3.802348148
 21
1.9937884413
  0
LINE
  5
228
100
AcDbEntity
  8
ALL_ASSEMBLY_MEMBERS
100
AcDbLine
 62
7
  6
CONTINUOUS
 10
3.8548767217
 20
2.2916927866
 11
3.2639920699
 21
2.3958816932
  0
LINE
  5
229
100
AcDbEntity
  8
ALL_ASSEMBLY_MEMBERS
100
AcDbLine
 62
7
  6
CONTINUOUS
 10
3.8687685759
 20
2.3704774068
 11
3.2778839241
 21
2.4746663134
  0
LINE
  5
22A
100
AcDbEntity
  8
ALL_ASSEMBLY_MEMBERS
100
AcDbLine
 62
7
  6
CONTINUOUS
 10
3.3101700393
 20
2.5483924512
 11
3.863645376
 21
2.4507998162
  0
LINE
  5
22B
100
AcDbEntity
  8
ALL_ASSEMBLY_MEMBERS
100
AcDbLine
 62
7
  6
CONTINUOUS
 10
3.3332029316
 20
2.5639161745
 11
3.8473109631
 21
2.4732650576
  0
LINE
  5
22C
100
AcDbEntity
  8
ALL_ASSEMBLY_MEMBERS
100
AcDbLine
 62
7
  6
CONTINUOUS
 10
3.8561253735
 20
2.5867127666
 11
3.363721497
 21
2.6735368555
  0
LINE
  5
22D
100
AcDbEntity
  8
ALL_ASSEMBLY_MEMBERS
100
AcDbLine
 62
7
  6
CONTINUOUS
 10
3.2114634962
 20
2.0979773479
 11
3.2639920699
 21
2.3958816932
  0
LINE
  5
22E
100
AcDbEntity
  8
ALL_ASSEMBLY_MEMBERS
100
AcDbLine
 62
7
  6
CONTINUOUS
 10
3.363721497
 20
2.6735368555
 11
3.3440550091
 21
2.5620026605
  0
LINE
  5
22F
100
AcDbEntity
  8
ALL_ASSEMBLY_MEMBERS
100
AcDbLine
 62
7
  6
CONTINUOUS
 10
3.3504838271
 20
2.4462808192
 11
3.3419220738
 21
2.3977247034
  0
LINE
  5
230
100
AcDbEntity
  8
ALL_ASSEMBLY_MEMBERS
100
AcDbLine
 62
7
  6
CONTINUOUS
 10
3.3684510278
 20
2.443112717
 11
3.3598892745
 21
2.3945566012
  0
LINE
  5
231
100
AcDbEntity
  8
ALL_ASSEMBLY_MEMBERS
100
AcDbLine
 62
7
  6
CONTINUOUS
 10
3.3874724939
 20
2.4397587193
 11
3.3789107406
 21
2.3912026035
  0
LINE
  5
232
100
AcDbEntity
  8
ALL_ASSEMBLY_MEMBERS
100
AcDbLine
 62
7
  6
CONTINUOUS
 10
3.4074490529
 20
2.4362363129
 11
3.3988872996
 21
2.3876801971
  0
LINE
  5
233
100
AcDbEntity
  8
ALL_ASSEMBLY_MEMBERS
100
AcDbLine
 62
7
  6
CONTINUOUS
 10
3.4282765528
 20
2.4325638628
 11
3.4197147995
 21
2.384007747
  0
LINE
  5
234
100
AcDbEntity
  8
ALL_ASSEMBLY_MEMBERS
100
AcDbLine
 62
7
  6
CONTINUOUS
 10
3.4498464051
 20
2.4287605158
 11
3.4412846518
 21
2.3802044
  0
LINE
  5
235
100
AcDbEntity
  8
ALL_ASSEMBLY_MEMBERS
100
AcDbLine
 62
7
  6
CONTINUOUS
 10
3.4720461507
 20
2.4248461017
 11
3.4634843974
 21
2.3762899859
  0
LINE
  5
236
100
AcDbEntity
  8
ALL_ASSEMBLY_MEMBERS
100
AcDbLine
 62
7
  6
CONTINUOUS
 10
3.4947600467
 20
2.420841029
 11
3.4861982934
 21
2.3722849132
  0
LINE
  5
237
100
AcDbEntity
  8
ALL_ASSEMBLY_MEMBERS
100
AcDbLine
 62
7
  6
CONTINUOUS
 10
3.5178696693
 20
2.416766179
 11
3.509307916
 21
2.3682100632
  0
LINE
  5
238
100
AcDbEntity
  8
ALL_ASSEMBLY_MEMBERS
100
AcDbLine
 62
7
  6
CONTINUOUS
 10
6.76852925
 20
2.9998886778
 11
4.34852925
 21
2.9998886778
  0
LINE
  5
239
100
AcDbEntity
  8
ALL_ASSEMBLY_MEMBERS
100
AcDbLine
 62
7
  6
CONTINUOUS
 10
3.5412545317
 20
2.4126427969
 11
3.5326927784
 21
2.3640866811
  0
LINE
  5
23A
100
AcDbEntity
  8
ALL_ASSEMBLY_MEMBERS
100
AcDbLine
 62
7
  6
CONTINUOUS
 10
3.564792712
 20
2.4084923806
 11
3.5562309587
 21
2.3599362648
  0
LINE
  5
23B
100
AcDbEntity
  8
ALL_ASSEMBLY_MEMBERS
100
AcDbLine
 62
7
  6
CONTINUOUS
 10
3.5883614888
 20
2.4043365693
 11
3.5797997355
 21
2.3557804535
  0
LINE
  5
23C
100
AcDbEntity
  8
ALL_ASSEMBLY_MEMBERS
100
AcDbLine
 62
7
  6
CONTINUOUS
 10
3.6118379815
 20
2.4001970303
 11
3.6032762282
 21
2.3516409145
  0
LINE
  5
23D
100
AcDbEntity
  8
ALL_ASSEMBLY_MEMBERS
100
AcDbLine
 62
7
  6
CONTINUOUS
 10
3.6350997903
 20
2.3960953458
 11
3.626538037
 21
2.34753923
  0
LINE
  5
23E
100
AcDbEntity
  8
ALL_ASSEMBLY_MEMBERS
100
AcDbLine
 62
7
  6
CONTINUOUS
 10
3.658025635
 20
2.3920529008
 11
3.6494638817
 21
2.343496785
  0
LINE
  5
23F
100
AcDbEntity
  8
ALL_ASSEMBLY_MEMBERS
100
AcDbLine
 62
7
  6
CONTINUOUS
 10
3.6804959867
 20
2.3880907715
 11
3.6719342335
 21
2.3395346557
  0
LINE
  5
240
100
AcDbEntity
  8
ALL_ASSEMBLY_MEMBERS
100
AcDbLine
 62
7
  6
CONTINUOUS
 10
3.7023936917
 20
2.3842296153
 11
3.6938319384
 21
2.3356734995
  0
LINE
  5
241
100
AcDbEntity
  8
ALL_ASSEMBLY_MEMBERS
100
AcDbLine
 62
7
  6
CONTINUOUS
 10
3.7236045816
 20
2.3804895631
 11
3.7150428283
 21
2.3319334473
  0
LINE
  5
242
100
AcDbEntity
  8
ALL_ASSEMBLY_MEMBERS
100
AcDbLine
 62
7
  6
CONTINUOUS
 10
3.7440180689
 20
2.3768901145
 11
3.7354563156
 21
2.3283339988
  0
LINE
  5
243
100
AcDbEntity
  8
ALL_ASSEMBLY_MEMBERS
100
AcDbLine
 62
7
  6
CONTINUOUS
 10
7.93852925
 20
2.5648886778
 11
7.8705986615
 21
2.5785180634
  0
LINE
  5
244
100
AcDbEntity
  8
ALL_ASSEMBLY_MEMBERS
100
AcDbLine
 62
7
  6
CONTINUOUS
 10
4.34852925
 20
2.9998886778
 11
4.34852925
 21
3.4998886778
  0
LINE
  5
245
100
AcDbEntity
  8
ALL_ASSEMBLY_MEMBERS
100
AcDbLine
 62
7
  6
CONTINUOUS
 10
3.7635277237
 20
2.373450036
 11
3.7549659704
 21
2.3248939202
  0
LINE
  5
246
100
AcDbEntity
  8
ALL_ASSEMBLY_MEMBERS
100
AcDbLine
 62
7
  6
CONTINUOUS
 10
3.7820318282
 20
2.3701872631
 11
3.7734700749
 21
2.3216311474
  0
LINE
  5
247
100
AcDbEntity
  8
ALL_ASSEMBLY_MEMBERS
100
AcDbLine
 62
7
  6
CONTINUOUS
 10
3.7994339074
 20
2.3671188071
 11
3.7908721541
 21
2.3185626913
  0
LINE
  5
248
100
AcDbEntity
  8
ALL_ASSEMBLY_MEMBERS
100
AcDbLine
 62
7
  6
CONTINUOUS
 10
3.8561253735
 20
2.5867127666
 11
3.8364588856
 21
2.4751785716
  0
LINE
  5
249
100
AcDbEntity
  8
ALL_ASSEMBLY_MEMBERS
100
AcDbLine
 62
7
  6
CONTINUOUS
 10
3.802348148
 20
1.9937884413
 11
3.8548767217
 21
2.2916927866
  0
LINE
  5
24A
100
AcDbEntity
  8
ALL_ASSEMBLY_MEMBERS
100
AcDbLine
 62
7
  6
CONTINUOUS
 10
6.36852925
 20
6.4848886778
 11
6.3614667535
 21
6.4808111435
  0
LINE
  5
24B
100
AcDbEntity
  8
ALL_ASSEMBLY_MEMBERS
100
AcDbLine
 62
7
  6
CONTINUOUS
 10
7.93852925
 20
3.9348886778
 11
7.8705986615
 21
3.9212592922
  0
LINE
  5
24C
100
AcDbEntity
  8
ALL_ASSEMBLY_MEMBERS
100
AcDbLine
 62
7
  6
CONTINUOUS
 10
6.76852925
 20
3.4998886778
 11
4.34852925
 21
3.4998886778
  0
LINE
  5
24D
100
AcDbEntity
  8
ALL_ASSEMBLY_MEMBERS
100
AcDbLine
 62
7
  6
CONTINUOUS
 10
6.266373487
 20
6.5566297492
 11
6.266373487
 21
6.9431476064
  0
LINE
  5
24E
100
AcDbEntity
  8
ALL_ASSEMBLY_MEMBERS
100
AcDbLine
 62
7
  6
CONTINUOUS
 10
6.28852925
 20
6.5225208893
 11
6.28852925
 21
6.9772564662
  0
LINE
  5
24F
100
AcDbEntity
  8
ALL_ASSEMBLY_MEMBERS
100
AcDbLine
 62
7
  6
CONTINUOUS
 10
6.295608592
 20
6.5145740416
 11
6.2956085918
 21
6.7087682138
  0
LINE
  5
250
100
AcDbEntity
  8
ALL_ASSEMBLY_MEMBERS
100
AcDbLine
 62
7
  6
CONTINUOUS
 10
6.2956085912
 20
6.7910091383
 11
6.295608592
 21
6.985203314
  0
LINE
  5
251
100
AcDbEntity
  8
ALL_ASSEMBLY_MEMBERS
100
AcDbLine
 62
7
  6
CONTINUOUS
 10
6.3338632468
 20
7.0111386778
 11
6.3338632468
 21
6.8813763274
  0
LINE
  5
252
100
AcDbEntity
  8
ALL_ASSEMBLY_MEMBERS
100
AcDbLine
 62
7
  6
CONTINUOUS
 10
6.3338632468
 20
6.6184010282
 11
6.3338632468
 21
6.4886386778
  0
LINE
  5
253
100
AcDbEntity
  8
ALL_ASSEMBLY_MEMBERS
100
AcDbLine
 62
7
  6
CONTINUOUS
 10
6.3614667535
 20
7.018966212
 11
6.3614667535
 21
6.9133271886
  0
LINE
  5
254
100
AcDbEntity
  8
ALL_ASSEMBLY_MEMBERS
100
AcDbLine
 62
7
  6
CONTINUOUS
 10
6.3614667535
 20
6.5864501669
 11
6.3614667535
 21
6.4808111435
  0
LINE
  5
255
100
AcDbEntity
  8
ALL_ASSEMBLY_MEMBERS
100
AcDbLine
 62
7
  6
CONTINUOUS
 10
6.36852925
 20
6.4848886778
 11
6.3685292491
 21
6.5799442202
  0
LINE
  5
256
100
AcDbEntity
  8
ALL_ASSEMBLY_MEMBERS
100
AcDbLine
 62
7
  6
CONTINUOUS
 10
6.3685292491
 20
6.9198331353
 11
6.36852925
 21
7.0148886778
  0
LINE
  5
257
100
AcDbEntity
  8
ALL_ASSEMBLY_MEMBERS
100
AcDbLine
 62
7
  6
CONTINUOUS
 10
6.3927643117
 20
6.4610093292
 11
6.392764354
 21
6.561264467
  0
LINE
  5
258
100
AcDbEntity
  8
ALL_ASSEMBLY_MEMBERS
100
AcDbLine
 62
7
  6
CONTINUOUS
 10
6.392764354
 20
6.9385128886
 11
6.3927643117
 21
7.0387680264
  0
LINE
  5
259
100
AcDbEntity
  8
ALL_ASSEMBLY_MEMBERS
100
AcDbLine
 62
7
  6
CONTINUOUS
 10
6.6416623903
 20
6.4601103482
 11
6.6416623913
 21
6.5595096932
  0
LINE
  5
25A
100
AcDbEntity
  8
ALL_ASSEMBLY_MEMBERS
100
AcDbLine
 62
7
  6
CONTINUOUS
 10
6.641662391
 20
6.9402676626
 11
6.6416623903
 21
7.0396670074
  0
LINE
  5
25B
100
AcDbEntity
  8
ALL_ASSEMBLY_MEMBERS
100
AcDbLine
 62
7
  6
CONTINUOUS
 10
6.66852925
 20
6.4975356573
 11
6.66852925
 21
6.5799442195
  0
LINE
  5
25C
100
AcDbEntity
  8
ALL_ASSEMBLY_MEMBERS
100
AcDbLine
 62
7
  6
CONTINUOUS
 10
6.66852925
 20
6.9198331361
 11
6.66852925
 21
7.0022416982
  0
LINE
  5
25D
100
AcDbEntity
  8
ALL_ASSEMBLY_MEMBERS
100
AcDbLine
 62
7
  6
CONTINUOUS
 10
6.72752925
 20
6.8748886778
 11
6.72752925
 21
6.8376975387
  0
LINE
  5
25E
100
AcDbEntity
  8
ALL_ASSEMBLY_MEMBERS
100
AcDbLine
 62
7
  6
CONTINUOUS
 10
6.72752925
 20
6.6620798169
 11
6.72752925
 21
6.6248886778
  0
LINE
  5
25F
100
AcDbEntity
  8
ALL_ASSEMBLY_MEMBERS
100
AcDbLine
 62
7
  6
CONTINUOUS
 10
6.76852925
 20
2.9880436595
 11
6.76852925
 21
3.511733696
  0
LINE
  5
260
100
AcDbEntity
  8
ALL_ASSEMBLY_MEMBERS
100
AcDbLine
 62
7
  6
CONTINUOUS
 10
6.7941969901
 20
2.9630525787
 11
6.7941969901
 21
3.5367247769
  0
LINE
  5
261
100
AcDbEntity
  8
ALL_ASSEMBLY_MEMBERS
100
AcDbLine
 62
7
  6
CONTINUOUS
 10
6.88352925
 20
2.9323886778
 11
6.88352925
 21
3.5673886778
  0
LINE
  5
262
100
AcDbEntity
  8
ALL_ASSEMBLY_MEMBERS
100
AcDbLine
 62
7
  6
CONTINUOUS
 10
6.96352925
 20
2.9323886778
 11
6.96352925
 21
3.5673886778
  0
LINE
  5
263
100
AcDbEntity
  8
ALL_ASSEMBLY_MEMBERS
100
AcDbLine
 62
7
  6
CONTINUOUS
 10
7.03102925
 20
6.6048686758
 11
7.03102925
 21
6.8949086798
  0
LINE
  5
264
100
AcDbEntity
  8
ALL_ASSEMBLY_MEMBERS
100
AcDbLine
 62
7
  6
CONTINUOUS
 10
7.12902925
 20
6.5048886778
 11
7.12902925
 21
6.9948886778
  0
LINE
  5
265
100
AcDbEntity
  8
ALL_ASSEMBLY_MEMBERS
100
AcDbLine
 62
7
  6
CONTINUOUS
 10
7.18902925
 20
6.5048886778
 11
7.18902925
 21
6.9948886778
  0
LINE
  5
266
100
AcDbEntity
  8
ALL_ASSEMBLY_MEMBERS
100
AcDbLine
 62
7
  6
CONTINUOUS
 10
7.3051224801
 20
2.8506937262
 11
7.3051224801
 21
3.6490836294
  0
LINE
  5
267
100
AcDbEntity
  8
ALL_ASSEMBLY_MEMBERS
100
AcDbLine
 62
7
  6
CONTINUOUS
 10
7.1366685702
 20
6.5667780901
 11
7.1813899297
 21
6.5667780901
  0
LINE
  5
268
100
AcDbEntity
  8
ALL_ASSEMBLY_MEMBERS
100
AcDbLine
 62
7
  6
CONTINUOUS
 10
7.1366685702
 20
6.5846871275
 11
7.1813899297
 21
6.5846871275
  0
LINE
  5
269
100
AcDbEntity
  8
ALL_ASSEMBLY_MEMBERS
100
AcDbLine
 62
7
  6
CONTINUOUS
 10
7.51852925
 20
3.7323886778
 11
7.51852925
 21
2.7673886778
  0
LINE
  5
26A
100
AcDbEntity
  8
ALL_ASSEMBLY_MEMBERS
100
AcDbLine
 62
7
  6
CONTINUOUS
 10
7.6210362818
 20
6.4166386778
 11
7.6210362818
 21
7.0831386778
  0
LINE
  5
26B
100
AcDbEntity
  8
ALL_ASSEMBLY_MEMBERS
100
AcDbLine
 62
7
  6
CONTINUOUS
 10
7.6458499132
 20
3.7725675474
 11
7.6458499132
 21
2.7272098081
  0
LINE
  5
26C
100
AcDbEntity
  8
ALL_ASSEMBLY_MEMBERS
100
AcDbLine
 62
7
  6
CONTINUOUS
 10
7.6632774887
 20
3.7744808269
 11
7.6632774887
 21
2.7252965286
  0
LINE
  5
26D
100
AcDbEntity
  8
ALL_ASSEMBLY_MEMBERS
100
AcDbLine
 62
7
  6
CONTINUOUS
 10
7.70102925
 20
6.4173886778
 11
7.70102925
 21
7.0823886778
  0
LINE
  5
26E
100
AcDbEntity
  8
ALL_ASSEMBLY_MEMBERS
100
AcDbLine
 62
7
  6
CONTINUOUS
 10
7.7377590574
 20
3.8389863847
 11
7.7377590574
 21
2.6607909709
  0
LINE
  5
26F
100
AcDbEntity
  8
ALL_ASSEMBLY_MEMBERS
100
AcDbLine
 62
7
  6
CONTINUOUS
 10
7.7471402187
 20
6.3354500836
 11
7.7471402187
 21
7.1643272719
  0
LINE
  5
270
100
AcDbEntity
  8
ALL_ASSEMBLY_MEMBERS
100
AcDbLine
 62
7
  6
CONTINUOUS
 10
7.93852925
 20
7.3411386778
 11
7.8714674504
 21
7.3255566714
  0
LINE
  5
271
100
AcDbEntity
  8
ALL_ASSEMBLY_MEMBERS
100
AcDbLine
 62
7
  6
CONTINUOUS
 10
7.1366685702
 20
6.6039263444
 11
7.1813899297
 21
6.6039263444
  0
LINE
  5
272
100
AcDbEntity
  8
ALL_ASSEMBLY_MEMBERS
100
AcDbLine
 62
7
  6
CONTINUOUS
 10
7.1366685702
 20
6.6243408295
 11
7.1813899297
 21
6.6243408295
  0
LINE
  5
273
100
AcDbEntity
  8
ALL_ASSEMBLY_MEMBERS
100
AcDbLine
 62
7
  6
CONTINUOUS
 10
6.72752925
 20
6.6248886778
 11
7.03102925
 21
6.6248886778
  0
LINE
  5
274
100
AcDbEntity
  8
ALL_ASSEMBLY_MEMBERS
100
AcDbLine
 62
7
  6
CONTINUOUS
 10
7.1366685702
 20
6.6457662081
 11
7.1813899297
 21
6.6457662081
  0
LINE
  5
275
100
AcDbEntity
  8
ALL_ASSEMBLY_MEMBERS
100
AcDbLine
 62
7
  6
CONTINUOUS
 10
7.1366685702
 20
6.6680299662
 11
7.1813899297
 21
6.6680299662
  0
LINE
  5
276
100
AcDbEntity
  8
ALL_ASSEMBLY_MEMBERS
100
AcDbLine
 62
7
  6
CONTINUOUS
 10
7.1366685702
 20
6.690952839
 11
7.1813899297
 21
6.690952839
  0
LINE
  5
277
100
AcDbEntity
  8
ALL_ASSEMBLY_MEMBERS
100
AcDbLine
 62
7
  6
CONTINUOUS
 10
7.1366685702
 20
6.714350255
 11
7.1813899297
 21
6.714350255
  0
LINE
  5
278
100
AcDbEntity
  8
ALL_ASSEMBLY_MEMBERS
100
AcDbLine
 62
7
  6
CONTINUOUS
 10
7.1366685702
 20
6.7380338213
 11
7.1813899297
 21
6.7380338213
  0
LINE
  5
279
100
AcDbEntity
  8
ALL_ASSEMBLY_MEMBERS
100
AcDbLine
 62
7
  6
CONTINUOUS
 10
7.1366685702
 20
6.7618128413
 11
7.1813899297
 21
6.7618128413
  0
LINE
  5
27A
100
AcDbEntity
  8
ALL_ASSEMBLY_MEMBERS
100
AcDbLine
 62
7
  6
CONTINUOUS
 10
7.1366685702
 20
6.7854958495
 11
7.1813899297
 21
6.7854958495
  0
LINE
  5
27B
100
AcDbEntity
  8
ALL_ASSEMBLY_MEMBERS
100
AcDbLine
 62
7
  6
CONTINUOUS
 10
7.1366685702
 20
6.8088921539
 11
7.1813899297
 21
6.8088921539
  0
LINE
  5
27C
100
AcDbEntity
  8
ALL_ASSEMBLY_MEMBERS
100
AcDbLine
 62
7
  6
CONTINUOUS
 10
7.1366685702
 20
6.8318133705
 11
7.1813899297
 21
6.8318133705
  0
LINE
  5
27D
100
AcDbEntity
  8
ALL_ASSEMBLY_MEMBERS
100
AcDbLine
 62
7
  6
CONTINUOUS
 10
7.93852925
 20
6.1586386778
 11
7.8714674504
 21
6.1742206841
  0
LINE
  5
27E
100
AcDbEntity
  8
ALL_ASSEMBLY_MEMBERS
100
AcDbLine
 62
7
  6
CONTINUOUS
 10
7.8496469542
 20
6.1953284189
 11
7.8496469542
 21
7.3044489367
  0
LINE
  5
27F
100
AcDbEntity
  8
ALL_ASSEMBLY_MEMBERS
100
AcDbLine
 62
7
  6
CONTINUOUS
 10
7.8536451118
 20
2.5884987378
 11
7.8536451118
 21
3.9112786178
  0
LINE
  5
280
100
AcDbEntity
  8
ALL_ASSEMBLY_MEMBERS
100
AcDbLine
 62
7
  6
CONTINUOUS
 10
7.8705986615
 20
2.5785180634
 11
7.8705986615
 21
3.9212592922
  0
LINE
  5
281
100
AcDbEntity
  8
ALL_ASSEMBLY_MEMBERS
100
AcDbLine
 62
7
  6
CONTINUOUS
 10
7.8714674504
 20
6.1742206841
 11
7.8714674504
 21
7.3255566714
  0
LINE
  5
282
100
AcDbEntity
  8
ALL_ASSEMBLY_MEMBERS
100
AcDbLine
 62
7
  6
CONTINUOUS
 10
7.93852925
 20
3.9348886778
 11
7.93852925
 21
2.5648886778
  0
LINE
  5
283
100
AcDbEntity
  8
ALL_ASSEMBLY_MEMBERS
100
AcDbLine
 62
7
  6
CONTINUOUS
 10
7.93852925
 20
6.1586386778
 11
7.93852925
 21
7.3411386778
  0
LINE
  5
284
100
AcDbEntity
  8
ALL_ASSEMBLY_MEMBERS
100
AcDbLine
 62
7
  6
CONTINUOUS
 10
7.1366685702
 20
6.8540749411
 11
7.1813899297
 21
6.8540749411
  0
LINE
  5
285
100
AcDbEntity
  8
ALL_ASSEMBLY_MEMBERS
100
AcDbLine
 62
7
  6
CONTINUOUS
 10
6.72752925
 20
6.8748886778
 11
7.03102925
 21
6.8748886778
  0
LINE
  5
286
100
AcDbEntity
  8
ALL_ASSEMBLY_MEMBERS
100
AcDbLine
 62
7
  6
CONTINUOUS
 10
7.1366685702
 20
6.8754976186
 11
7.1813899297
 21
6.8754976186
  0
LINE
  5
287
100
AcDbEntity
  8
ALL_ASSEMBLY_MEMBERS
100
AcDbLine
 62
7
  6
CONTINUOUS
 10
7.1366685702
 20
6.8959089106
 11
7.1813899297
 21
6.8959089106
  0
LINE
  5
288
100
AcDbEntity
  8
ALL_ASSEMBLY_MEMBERS
100
AcDbLine
 62
7
  6
CONTINUOUS
 10
7.1366685702
 20
6.9151444683
 11
7.1813899297
 21
6.9151444683
  0
LINE
  5
289
100
AcDbEntity
  8
ALL_ASSEMBLY_MEMBERS
100
AcDbLine
 62
7
  6
CONTINUOUS
 10
7.1366685702
 20
6.9330494096
 11
7.1813899297
 21
6.9330494096
  0
LINE
  5
28A
100
AcDbEntity
  8
ALL_ASSEMBLY_MEMBERS
100
AcDbLine
 62
7
  6
CONTINUOUS
 10
6.36852925
 20
7.0148886778
 11
6.3614667535
 21
7.018966212
  0
ARC
  5
28B
100
AcDbEntity
  8
ALL_ASSEMBLY_MEMBERS
100
AcDbCircle
 62
7
  6
CONTINUOUS
 10
4.34852925
 20
2.4998886778
 40
1.0
100
AcDbArc
 50
90.0
 51
170.0
  0
ARC
  5
28C
100
AcDbEntity
  8
ALL_ASSEMBLY_MEMBERS
100
AcDbCircle
 62
7
  6
CONTINUOUS
 10
4.34852925
 20
2.4998886778
 40
0.5
100
AcDbArc
 50
90.0
 51
170.0
  0
ARC
  5
28D
100
AcDbEntity
  8
ALL_ASSEMBLY_MEMBERS
100
AcDbCircle
 62
7
  6
CONTINUOUS
 10
3.1145707518
 20
2.5901167692
 40
0.2
100
AcDbArc
 50
324.7424862789
 51
347.9584138949
  0
ARC
  5
28E
100
AcDbEntity
  8
ALL_ASSEMBLY_MEMBERS
100
AcDbCircle
 62
7
  6
CONTINUOUS
 10
4.0617191403
 20
2.4231089535
 40
0.2
100
AcDbArc
 50
172.0415861051
 51
195.2575137211
  0
ARC
  5
28F
100
AcDbEntity
  8
ALL_ASSEMBLY_MEMBERS
100
AcDbCircle
 62
7
  6
CONTINUOUS
 10
3.8618226488
 20
2.3310850967
 40
0.04
100
AcDbArc
 50
28.0475074536
 51
80.0
  0
ARC
  5
290
100
AcDbEntity
  8
ALL_ASSEMBLY_MEMBERS
100
AcDbCircle
 62
7
  6
CONTINUOUS
 10
3.270937997
 20
2.4352740033
 40
0.04
100
AcDbArc
 50
204.2857142857
 51
260.0
  0
ARC
  5
291
100
AcDbEntity
  8
ALL_ASSEMBLY_MEMBERS
100
AcDbCircle
 62
7
  6
CONTINUOUS
 10
3.270937997
 20
2.4352740033
 40
0.04
100
AcDbArc
 50
80.0
 51
135.7142857143
  0
ARC
  5
292
100
AcDbEntity
  8
ALL_ASSEMBLY_MEMBERS
100
AcDbCircle
 62
7
  6
CONTINUOUS
 10
3.8618226488
 20
2.3310850967
 40
0.04
100
AcDbArc
 50
260.0
 51
311.9524925464
  0
ARC
  5
293
100
AcDbEntity
  8
ALL_ASSEMBLY_MEMBERS
100
AcDbCircle
 62
7
  6
CONTINUOUS
 10
3.862480387
 20
2.3303274993
 40
0.0389968719
100
AcDbArc
 50
311.9779180025
 51
323.7641638692
  0
ARC
  5
294
100
AcDbEntity
  8
ALL_ASSEMBLY_MEMBERS
100
AcDbCircle
 62
7
  6
CONTINUOUS
 10
3.8626998375
 20
2.3315720472
 40
0.0389968681
100
AcDbArc
 50
16.235898176
 51
28.0220824829
  0
ARC
  5
295
100
AcDbEntity
  8
ALL_ASSEMBLY_MEMBERS
100
AcDbCircle
 62
7
  6
CONTINUOUS
 10
3.8438379995
 20
2.4535689025
 40
0.02
100
AcDbArc
 50
352.0415861051
 51
80.0
  0
ARC
  5
296
100
AcDbEntity
  8
ALL_ASSEMBLY_MEMBERS
100
AcDbCircle
 62
7
  6
CONTINUOUS
 10
3.3297299681
 20
2.5442200195
 40
0.02
100
AcDbArc
 50
80.0
 51
167.9584138949
  0
ARC
  5
297
100
AcDbEntity
  8
ALL_ASSEMBLY_MEMBERS
100
AcDbCircle
 62
7
  6
CONTINUOUS
 10
3.7826519929
 20
1.9972614048
 40
0.02
100
AcDbArc
 50
260.0
 51
350.0
  0
ARC
  5
298
100
AcDbEntity
  8
ALL_ASSEMBLY_MEMBERS
100
AcDbCircle
 62
7
  6
CONTINUOUS
 10
3.2311596512
 20
2.0945043843
 40
0.02
100
AcDbArc
 50
170.0
 51
260.0
  0
ARC
  5
299
100
AcDbEntity
  8
ALL_ASSEMBLY_MEMBERS
100
AcDbCircle
 62
7
  6
CONTINUOUS
 10
6.6156067086
 20
1.8455186679
 40
2.8640709415
100
AcDbArc
 50
169.5068183859
 51
170.4931816142
  0
ARC
  5
29A
100
AcDbEntity
  8
ALL_ASSEMBLY_MEMBERS
100
AcDbCircle
 62
7
  6
CONTINUOUS
 10
7.0612290289
 20
2.5858994958
 40
0.36
100
AcDbArc
 50
47.3528252621
 51
105.7468939936
  0
ARC
  5
29B
100
AcDbEntity
  8
ALL_ASSEMBLY_MEMBERS
100
AcDbCircle
 62
7
  6
CONTINUOUS
 10
7.0612290289
 20
3.9138778597
 40
0.36
100
AcDbArc
 50
254.2531060064
 51
312.6471747379
  0
ARC
  5
29C
100
AcDbEntity
  8
ALL_ASSEMBLY_MEMBERS
100
AcDbCircle
 62
7
  6
CONTINUOUS
 10
7.51852925
 20
3.0823886778
 40
0.315
100
AcDbArc
 50
263.2086551773
 51
270.0
  0
ARC
  5
29D
100
AcDbEntity
  8
ALL_ASSEMBLY_MEMBERS
100
AcDbCircle
 62
7
  6
CONTINUOUS
 10
7.51852925
 20
3.0823886778
 40
0.315
100
AcDbArc
 50
227.3528252621
 51
244.0681618729
  0
ARC
  5
29E
100
AcDbEntity
  8
ALL_ASSEMBLY_MEMBERS
100
AcDbCircle
 62
7
  6
CONTINUOUS
 10
7.51852925
 20
3.4173886778
 40
0.315
100
AcDbArc
 50
90.0
 51
132.6471747379
  0
ARC
  5
29F
100
AcDbEntity
  8
ALL_ASSEMBLY_MEMBERS
100
AcDbCircle
 62
7
  6
CONTINUOUS
 10
7.6822322601
 20
4.0570271487
 40
0.225
100
AcDbArc
 50
284.2873915283
 51
319.6262264264
  0
ARC
  5
2A0
100
AcDbEntity
  8
ALL_ASSEMBLY_MEMBERS
100
AcDbCircle
 62
7
  6
CONTINUOUS
 10
7.6822322601
 20
2.4427502069
 40
0.225
100
AcDbArc
 50
40.3737735736
 51
75.7126084717
  0
ARC
  5
2A1
100
AcDbEntity
  8
ALL_ASSEMBLY_MEMBERS
100
AcDbCircle
 62
7
  6
CONTINUOUS
 10
6.7978027871
 20
3.6716766136
 40
0.135
100
AcDbArc
 50
268.4694702404
 51
309.4207881863
  0
ARC
  5
2A2
100
AcDbEntity
  8
ALL_ASSEMBLY_MEMBERS
100
AcDbCircle
 62
7
  6
CONTINUOUS
 10
6.7978027871
 20
2.828100742
 40
0.135
100
AcDbArc
 50
50.5792118137
 51
91.5305297596
  0
ARC
  5
2A3
100
AcDbEntity
  8
ALL_ASSEMBLY_MEMBERS
100
AcDbCircle
 62
7
  6
CONTINUOUS
 10
7.7649054917
 20
2.7673886778
 40
0.11
100
AcDbArc
 50
202.4982926351
 51
255.7126084717
  0
ARC
  5
2A4
100
AcDbEntity
  8
ALL_ASSEMBLY_MEMBERS
100
AcDbCircle
 62
7
  6
CONTINUOUS
 10
7.7649054917
 20
3.7323886778
 40
0.11
100
AcDbArc
 50
104.2873915283
 51
157.5017073649
  0
ARC
  5
2A5
100
AcDbEntity
  8
ALL_ASSEMBLY_MEMBERS
100
AcDbCircle
 62
7
  6
CONTINUOUS
 10
7.58852925
 20
2.7673886778
 40
0.07
100
AcDbArc
 50
180.0
 51
324.9714982481
  0
ARC
  5
2A6
100
AcDbEntity
  8
ALL_ASSEMBLY_MEMBERS
100
AcDbCircle
 62
7
  6
CONTINUOUS
 10
7.58852925
 20
3.7323886778
 40
0.07
100
AcDbArc
 50
35.0285017519
 51
180.0
  0
ARC
  5
2A7
100
AcDbEntity
  8
ALL_ASSEMBLY_MEMBERS
100
AcDbCircle
 62
7
  6
CONTINUOUS
 10
6.92352925
 20
2.9323886778
 40
0.04
100
AcDbArc
 50
180.0
 51
360.0
  0
ARC
  5
2A8
100
AcDbEntity
  8
ALL_ASSEMBLY_MEMBERS
100
AcDbCircle
 62
7
  6
CONTINUOUS
 10
6.92352925
 20
3.5673886778
 40
0.04
100
AcDbArc
 50
0.0
 51
180.0
  0
ARC
  5
2A9
100
AcDbEntity
  8
ALL_ASSEMBLY_MEMBERS
100
AcDbCircle
 62
7
  6
CONTINUOUS
 10
7.8765001587
 20
2.6079318753
 40
0.03
100
AcDbArc
 50
220.3737735735
 51
258.6549813212
  0
ARC
  5
2AA
100
AcDbEntity
  8
ALL_ASSEMBLY_MEMBERS
100
AcDbCircle
 62
7
  6
CONTINUOUS
 10
7.8765001587
 20
3.8918454803
 40
0.03
100
AcDbArc
 50
101.3450186788
 51
139.6262264265
  0
ARC
  5
2AB
100
AcDbEntity
  8
ALL_ASSEMBLY_MEMBERS
100
AcDbCircle
 62
7
  6
CONTINUOUS
 10
6.79352925
 20
2.9880436595
 40
0.025
100
AcDbArc
 50
180.0
 51
271.5305297596
  0
ARC
  5
2AC
100
AcDbEntity
  8
ALL_ASSEMBLY_MEMBERS
100
AcDbCircle
 62
7
  6
CONTINUOUS
 10
6.79352925
 20
3.511733696
 40
0.025
100
AcDbArc
 50
88.4694702404
 51
180.0
  0
ARC
  5
2AD
100
AcDbEntity
  8
ALL_ASSEMBLY_MEMBERS
100
AcDbCircle
 62
7
  6
CONTINUOUS
 10
7.6540385794
 20
3.778307386
 40
0.01
100
AcDbArc
 50
215.0285017519
 51
337.5017073649
  0
ARC
  5
2AE
100
AcDbEntity
  8
ALL_ASSEMBLY_MEMBERS
100
AcDbCircle
 62
7
  6
CONTINUOUS
 10
7.6540385794
 20
2.7214699696
 40
0.01
100
AcDbArc
 50
22.4982926351
 51
144.9714982481
  0
ARC
  5
2AF
100
AcDbEntity
  8
ALL_ASSEMBLY_MEMBERS
100
AcDbCircle
 62
7
  6
CONTINUOUS
 10
6.51852925
 20
6.6748886778
 40
0.385
100
AcDbArc
 50
71.3475770898
 51
109.0663079413
  0
ARC
  5
2B0
100
AcDbEntity
  8
ALL_ASSEMBLY_MEMBERS
100
AcDbCircle
 62
7
  6
CONTINUOUS
 10
6.72752925
 20
6.5658886778
 40
0.059
100
AcDbArc
 50
164.2373202019
 51
179.9999999997
  0
ARC
  5
2B1
100
AcDbEntity
  8
ALL_ASSEMBLY_MEMBERS
100
AcDbCircle
 62
7
  6
CONTINUOUS
 10
6.72752925
 20
6.5658886778
 40
0.059
100
AcDbArc
 50
90.0
 51
113.0012695903
  0
ARC
  5
2B2
100
AcDbEntity
  8
ALL_ASSEMBLY_MEMBERS
100
AcDbCircle
 62
7
  6
CONTINUOUS
 10
6.28985448
 20
6.4649062432
 40
0.05
100
AcDbArc
 50
28.3364788227
 51
83.3916314553
  0
ARC
  5
2B3
100
AcDbEntity
  8
ALL_ASSEMBLY_MEMBERS
100
AcDbCircle
 62
7
  6
CONTINUOUS
 10
6.62902925
 20
6.4975356573
 40
0.0395
100
AcDbArc
 50
288.6524229103
 51
360.0
  0
ARC
  5
2B4
100
AcDbEntity
  8
ALL_ASSEMBLY_MEMBERS
100
AcDbCircle
 62
7
  6
CONTINUOUS
 10
6.4056674665
 20
6.4983424057
 40
0.0395
100
AcDbArc
 50
199.9134770856
 51
250.933694018
  0
ARC
  5
2B5
100
AcDbEntity
  8
ALL_ASSEMBLY_MEMBERS
100
AcDbCircle
 62
7
  6
CONTINUOUS
 10
6.2899698872
 20
6.5648886778
 40
0.025
100
AcDbArc
 50
199.2904540361
 51
266.6957145819
  0
ARC
  5
2B6
100
AcDbEntity
  8
ALL_ASSEMBLY_MEMBERS
100
AcDbCircle
 62
7
  6
CONTINUOUS
 10
6.3514667535
 20
6.4981316516
 40
0.02
100
AcDbArc
 50
208.3364788227
 51
300.0
  0
ARC
  5
2B7
100
AcDbEntity
  8
ALL_ASSEMBLY_MEMBERS
100
AcDbCircle
 62
7
  6
CONTINUOUS
 10
6.29652925
 20
6.5225208893
 40
0.008
100
AcDbArc
 50
180.0
 51
263.3916314553
  0
ARC
  5
2B8
100
AcDbEntity
  8
ALL_ASSEMBLY_MEMBERS
100
AcDbCircle
 62
7
  6
CONTINUOUS
 10
6.8185292499
 20
6.7498886778
 40
0.585
100
AcDbArc
 50
160.7095459639
 51
199.2904540361
  0
ARC
  5
2B9
100
AcDbEntity
  8
ALL_ASSEMBLY_MEMBERS
100
AcDbCircle
 62
7
  6
CONTINUOUS
 10
6.51852925
 20
6.8248886778
 40
0.385
100
AcDbArc
 50
250.9336920587
 51
288.6524229102
  0
CIRCLE
  5
2BA
100
AcDbEntity
  8
ALL_ASSEMBLY_MEMBERS
100
AcDbCircle
 62
7
  6
CONTINUOUS
 10
6.51852925
 20
6.7498886778
 40
0.2267551403
  0
CIRCLE
  5
2BB
100
AcDbEntity
  8
ALL_ASSEMBLY_MEMBERS
100
AcDbCircle
 62
7
  6
CONTINUOUS
 10
6.51852925
 20
6.7498886778
 40
0.1975
  0
CIRCLE
  5
2BC
100
AcDbEntity
  8
ALL_ASSEMBLY_MEMBERS
100
AcDbCircle
 62
7
  6
CONTINUOUS
 10
6.51852925
 20
6.7498886778
 40
0.17225
  0
CIRCLE
  5
2BD
100
AcDbEntity
  8
ALL_ASSEMBLY_MEMBERS
100
AcDbCircle
 62
7
  6
CONTINUOUS
 10
6.51852925
 20
6.7498886778
 40
0.1411904742
  0
ARC
  5
2BE
100
AcDbEntity
  8
ALL_ASSEMBLY_MEMBERS
100
AcDbCircle
 62
7
  6
CONTINUOUS
 10
6.72752925
 20
6.9338886778
 40
0.059
100
AcDbArc
 50
180.0000000003
 51
195.7626797981
  0
ARC
  5
2BF
100
AcDbEntity
  8
ALL_ASSEMBLY_MEMBERS
100
AcDbCircle
 62
7
  6
CONTINUOUS
 10
6.72752925
 20
6.9338886778
 40
0.059
100
AcDbArc
 50
246.9987304097
 51
270.0
  0
ARC
  5
2C0
100
AcDbEntity
  8
ALL_ASSEMBLY_MEMBERS
100
AcDbCircle
 62
7
  6
CONTINUOUS
 10
6.28985448
 20
7.0348711124
 40
0.05
100
AcDbArc
 50
276.6083685447
 51
331.6635211773
  0
ARC
  5
2C1
100
AcDbEntity
  8
ALL_ASSEMBLY_MEMBERS
100
AcDbCircle
 62
7
  6
CONTINUOUS
 10
6.62902925
 20
7.0022416982
 40
0.0395
100
AcDbArc
 50
0.0
 51
71.3475770897
  0
ARC
  5
2C2
100
AcDbEntity
  8
ALL_ASSEMBLY_MEMBERS
100
AcDbCircle
 62
7
  6
CONTINUOUS
 10
6.4056674665
 20
7.0014349499
 40
0.0395
100
AcDbArc
 50
109.0663059577
 51
160.0865228991
  0
ARC
  5
2C3
100
AcDbEntity
  8
ALL_ASSEMBLY_MEMBERS
100
AcDbCircle
 62
7
  6
CONTINUOUS
 10
6.2899698872
 20
6.9348886778
 40
0.025
100
AcDbArc
 50
93.3042854181
 51
160.7095459639
  0
ARC
  5
2C4
100
AcDbEntity
  8
ALL_ASSEMBLY_MEMBERS
100
AcDbCircle
 62
7
  6
CONTINUOUS
 10
6.3514667535
 20
7.001645704
 40
0.02
100
AcDbArc
 50
60.0
 51
151.6635211773
  0
ARC
  5
2C5
100
AcDbEntity
  8
ALL_ASSEMBLY_MEMBERS
100
AcDbCircle
 62
7
  6
CONTINUOUS
 10
6.29652925
 20
6.9772564662
 40
0.008
100
AcDbArc
 50
96.6083685447
 51
180.0
  0
ARC
  5
2C6
100
AcDbEntity
  8
ALL_ASSEMBLY_MEMBERS
100
AcDbCircle
 62
7
  6
CONTINUOUS
 10
7.3122122385
 20
6.0063827086
 40
0.5135
100
AcDbArc
 50
53.0290504961
 51
103.8799876593
  0
ARC
  5
2C7
100
AcDbEntity
  8
ALL_ASSEMBLY_MEMBERS
100
AcDbCircle
 62
7
  6
CONTINUOUS
 10
7.6178065436
 20
6.1332798571
 40
0.24
100
AcDbArc
 50
14.9831919527
 51
57.3918704587
  0
ARC
  5
2C8
100
AcDbEntity
  8
ALL_ASSEMBLY_MEMBERS
100
AcDbCircle
 62
7
  6
CONTINUOUS
 10
7.80102925
 20
6.419687678
 40
0.1
100
AcDbArc
 50
181.3167405562
 51
237.3918704587
  0
ARC
  5
2C9
100
AcDbEntity
  8
ALL_ASSEMBLY_MEMBERS
100
AcDbCircle
 62
7
  6
CONTINUOUS
 10
7.13102925
 20
6.6048686758
 40
0.1
100
AcDbArc
 50
180.0
 51
268.8540080016
  0
ARC
  5
2CA
100
AcDbEntity
  8
ALL_ASSEMBLY_MEMBERS
100
AcDbCircle
 62
7
  6
CONTINUOUS
 10
7.66102925
 20
6.4173886778
 40
0.04
100
AcDbArc
 50
181.0743588229
 51
360.0
  0
ARC
  5
2CB
100
AcDbEntity
  8
ALL_ASSEMBLY_MEMBERS
100
AcDbCircle
 62
7
  6
CONTINUOUS
 10
7.15902925
 20
6.5048886778
 40
0.03
100
AcDbArc
 50
180.0
 51
221.7510942136
  0
ARC
  5
2CC
100
AcDbEntity
  8
ALL_ASSEMBLY_MEMBERS
100
AcDbCircle
 62
7
  6
CONTINUOUS
 10
7.15902925
 20
6.5048886778
 40
0.03
100
AcDbArc
 50
318.2489057864
 51
360.0
  0
ARC
  5
2CD
100
AcDbEntity
  8
ALL_ASSEMBLY_MEMBERS
100
AcDbCircle
 62
7
  6
CONTINUOUS
 10
7.15947264
 20
6.5047285132
 40
0.0295841659
100
AcDbArc
 50
299.4133646425
 51
300.5657487066
  0
ARC
  5
2CE
100
AcDbEntity
  8
ALL_ASSEMBLY_MEMBERS
100
AcDbCircle
 62
7
  6
CONTINUOUS
 10
7.8781440047
 20
6.2029552213
 40
0.0295
100
AcDbArc
 50
194.9831919527
 51
256.9192612079
  0
ARC
  5
2CF
100
AcDbEntity
  8
ALL_ASSEMBLY_MEMBERS
100
AcDbCircle
 62
7
  6
CONTINUOUS
 10
7.1595517397
 20
6.5045979175
 40
0.0294314927
100
AcDbArc
 50
300.562444817
 51
303.9993595486
  0
ARC
  5
2D0
100
AcDbEntity
  8
ALL_ASSEMBLY_MEMBERS
100
AcDbCircle
 62
7
  6
CONTINUOUS
 10
7.1596053789
 20
6.5044988639
 40
0.0293202185
100
AcDbArc
 50
300.5714904283
 51
304.0212847667
  0
ARC
  5
2D1
100
AcDbEntity
  8
ALL_ASSEMBLY_MEMBERS
100
AcDbCircle
 62
7
  6
CONTINUOUS
 10
7.1596348315
 20
6.5044736987
 40
0.0292820463
100
AcDbArc
 50
304.0004835019
 51
304.7811337209
  0
ARC
  5
2D2
100
AcDbEntity
  8
ALL_ASSEMBLY_MEMBERS
100
AcDbCircle
 62
7
  6
CONTINUOUS
 10
7.1583362935
 20
6.5043489388
 40
0.0291297256
100
AcDbArc
 50
231.7198069817
 51
235.1879660988
  0
ARC
  5
2D3
100
AcDbEntity
  8
ALL_ASSEMBLY_MEMBERS
100
AcDbCircle
 62
7
  6
CONTINUOUS
 10
7.1597469055
 20
6.5042848266
 40
0.0290636338
100
AcDbArc
 50
304.0261198453
 51
304.8125140777
  0
ARC
  5
2D4
100
AcDbEntity
  8
ALL_ASSEMBLY_MEMBERS
100
AcDbCircle
 62
7
  6
CONTINUOUS
 10
7.1582267983
 20
6.5042071277
 40
0.0289505722
100
AcDbArc
 50
230.881357937
 51
231.7160458949
  0
ARC
  5
2D5
100
AcDbEntity
  8
ALL_ASSEMBLY_MEMBERS
100
AcDbCircle
 62
7
  6
CONTINUOUS
 10
7.15988187
 20
6.5041390361
 40
0.0288662566
100
AcDbArc
 50
304.7573232904
 51
313.5938781024
  0
ARC
  5
2D6
100
AcDbEntity
  8
ALL_ASSEMBLY_MEMBERS
100
AcDbCircle
 62
7
  6
CONTINUOUS
 10
7.1581258409
 20
6.5040844836
 40
0.028791723
100
AcDbArc
 50
226.3796909672
 51
230.8832430733
  0
ARC
  5
2D7
100
AcDbEntity
  8
ALL_ASSEMBLY_MEMBERS
100
AcDbCircle
 62
7
  6
CONTINUOUS
 10
7.1578973171
 20
6.5038420564
 40
0.0284585702
100
AcDbArc
 50
221.7590071171
 51
226.3760466428
  0
ARC
  5
2D8
100
AcDbEntity
  8
ALL_ASSEMBLY_MEMBERS
100
AcDbCircle
 62
7
  6
CONTINUOUS
 10
7.1602058627
 20
6.5037987493
 40
0.0283963988
100
AcDbArc
 50
313.593861735
 51
318.2461346698
  0
ARC
  5
2D9
100
AcDbEntity
  8
ALL_ASSEMBLY_MEMBERS
100
AcDbCircle
 62
7
  6
CONTINUOUS
 10
7.3122122385
 20
7.493394647
 40
0.5135
100
AcDbArc
 50
256.1200123407
 51
306.9709495039
  0
ARC
  5
2DA
100
AcDbEntity
  8
ALL_ASSEMBLY_MEMBERS
100
AcDbCircle
 62
7
  6
CONTINUOUS
 10
7.6178065436
 20
7.3664974985
 40
0.24
100
AcDbArc
 50
302.6081295413
 51
345.0168080473
  0
ARC
  5
2DB
100
AcDbEntity
  8
ALL_ASSEMBLY_MEMBERS
100
AcDbCircle
 62
7
  6
CONTINUOUS
 10
7.80102925
 20
7.0800896776
 40
0.1
100
AcDbArc
 50
122.6081295413
 51
178.6832594438
  0
ARC
  5
2DC
100
AcDbEntity
  8
ALL_ASSEMBLY_MEMBERS
100
AcDbCircle
 62
7
  6
CONTINUOUS
 10
7.13102925
 20
6.8949086798
 40
0.1
100
AcDbArc
 50
91.1459919984
 51
180.0
  0
ARC
  5
2DD
100
AcDbEntity
  8
ALL_ASSEMBLY_MEMBERS
100
AcDbCircle
 62
7
  6
CONTINUOUS
 10
7.66102925
 20
7.0823886778
 40
0.04
100
AcDbArc
 50
0.0
 51
178.9256411771
  0
ARC
  5
2DE
100
AcDbEntity
  8
ALL_ASSEMBLY_MEMBERS
100
AcDbCircle
 62
7
  6
CONTINUOUS
 10
7.15902925
 20
6.9948886778
 40
0.03
100
AcDbArc
 50
138.1896851042
 51
180.0
  0
ARC
  5
2DF
100
AcDbEntity
  8
ALL_ASSEMBLY_MEMBERS
100
AcDbCircle
 62
7
  6
CONTINUOUS
 10
7.15902925
 20
6.9948886778
 40
0.03
100
AcDbArc
 50
0.0
 51
41.8103148958
  0
ARC
  5
2E0
100
AcDbEntity
  8
ALL_ASSEMBLY_MEMBERS
100
AcDbCircle
 62
7
  6
CONTINUOUS
 10
7.8781440047
 20
7.2968221343
 40
0.0295
100
AcDbArc
 50
103.0807387921
 51
165.0168080473
  0
ARC
  5
2E1
100
AcDbEntity
  8
ALL_ASSEMBLY_MEMBERS
100
AcDbCircle
 62
7
  6
CONTINUOUS
 10
7.1598006044
 20
6.9955525231
 40
0.0289833974
100
AcDbArc
 50
46.3818913239
 51
55.1896909478
  0
ARC
  5
2E2
100
AcDbEntity
  8
ALL_ASSEMBLY_MEMBERS
100
AcDbCircle
 62
7
  6
CONTINUOUS
 10
7.1582315377
 20
6.9955848577
 40
0.0289418043
100
AcDbArc
 50
124.8042716297
 51
133.5985287588
  0
ARC
  5
2E3
100
AcDbEntity
  8
ALL_ASSEMBLY_MEMBERS
100
AcDbCircle
 62
7
  6
CONTINUOUS
 10
7.1599181367
 20
6.9956820261
 40
0.0288085641
100
AcDbArc
 50
41.8128292965
 51
46.3734397615
  0
ARC
  5
2E4
100
AcDbEntity
  8
ALL_ASSEMBLY_MEMBERS
100
AcDbCircle
 62
7
  6
CONTINUOUS
 10
7.1581255983
 20
6.9956962998
 40
0.0287880432
100
AcDbArc
 50
133.5987881316
 51
138.188752531
  0
SPLINE
  5
2E5
100
AcDbEntity
  8
ALL_ASSEMBLY_MEMBERS
100
AcDbSpline
 62
7
  6
CONTINUOUS
 70
0
 71
3
 72
19
 73
15
 74
0
 42
0.0000001
 43
0.0000001
 44
0.0000000001
 40
0.0
 40
0.0
 40
0.0
 40
0.0
 40
0.120123171
 40
0.181686768
 40
0.2441614462
 40
0.307419302
 40
0.3712753134
 40
0.5000000579
 40
0.6287247932
 40
0.6925807926
 40
0.755838633
 40
0.8183132938
 40
0.8798768716
 40
1.0
 40
1.0
 40
1.0
 40
1.0
 10
3.8939349033
 20
2.3072760478
 30
0.0
 10
3.8948108628
 20
2.3084707211
 30
0.0
 10
3.8960348925
 20
2.3103548093
 30
0.0
 10
3.8974586772
 20
2.3130092458
 30
0.0
 10
3.8984324722
 20
2.3151052586
 30
0.0
 10
3.8992947091
 20
2.3172799317
 30
0.0
 10
3.9002883155
 20
2.3202760651
 30
0.0
 10
3.9012029078
 20
2.3241413183
 30
0.0
 10
3.9016654621
 20
2.3280862776
 30
0.0
 10
3.9017565119
 20
2.3312415551
 30
0.0
 10
3.9016900536
 20
2.3335799811
 30
0.0
 10
3.9014918616
 20
2.3358826455
 30
0.0
 10
3.9010618093
 20
2.3388639616
 30
0.0
 10
3.9005559915
 20
2.3410530668
 30
0.0
 10
3.9001414597
 20
2.3424752874
 30
0.0
  0
SPLINE
  5
2E6
100
AcDbEntity
  8
ALL_ASSEMBLY_MEMBERS
100
AcDbSpline
 62
7
  6
CONTINUOUS
 70
0
 71
3
 72
19
 73
15
 74
0
 42
0.0000001
 43
0.0000001
 44
0.0000000001
 40
0.0
 40
0.0
 40
0.0
 40
0.0
 40
0.1154687013
 40
0.2381150643
 40
0.3019368974
 40
0.3671377211
 40
0.4333070372
 40
0.4999999959
 40
0.5666929546
 40
0.6328622721
 40
0.6980630972
 40
0.761884931
 40
0.8845312964
 40
1.0
 40
1.0
 40
1.0
 40
1.0
 10
3.2444108774
 20
2.4649843422
 30
0.0
 10
3.2429253445
 20
2.4635995209
 30
0.0
 10
3.2400844977
 20
2.4604956689
 30
0.0
 10
3.2371506311
 20
2.4560405527
 30
0.0
 10
3.2351733391
 20
2.4520756861
 30
0.0
 10
3.2338969713
 20
2.4488843764
 30
0.0
 10
3.2328700735
 20
2.44555147
 30
0.0
 10
3.2321187401
 20
2.4421188859
 30
0.0
 10
3.2316507496
 20
2.4386363407
 30
0.0
 10
3.2314757968
 20
2.4351532134
 30
0.0
 10
3.2315836978
 20
2.4317178197
 30
0.0
 10
3.2320856804
 20
2.42731579
 30
0.0
 10
3.2333188737
 20
2.4221259087
 30
0.0
 10
3.2349268165
 20
2.4182376149
 30
0.0
 10
3.2358491241
 20
2.4164282264
 30
0.0
  0
SPLINE
  5
2E7
100
AcDbEntity
  8
ALL_ASSEMBLY_MEMBERS
100
AcDbSpline
 62
7
  6
CONTINUOUS
 70
0
 71
3
 72
19
 73
15
 74
0
 42
0.0000001
 43
0.0000001
 44
0.0000000001
 40
0.0
 40
0.0
 40
0.0
 40
0.0
 40
0.1139652238
 40
0.2362827892
 40
0.3003203991
 40
0.3659394513
 40
0.4326702947
 40
0.4999999958
 40
0.567329697
 40
0.6340605418
 40
0.6996795956
 40
0.763717206
 40
0.8860347738
 40
1.0
 40
1.0
 40
1.0
 40
1.0
 10
3.2461130864
 20
2.4646841968
 30
0.0
 10
3.2447157878
 20
2.4632739775
 30
0.0
 10
3.2420426966
 20
2.4601206036
 30
0.0
 10
3.239288009
 20
2.4556488074
 30
0.0
 10
3.2374149062
 20
2.4516753545
 30
0.0
 10
3.2361949222
 20
2.4484756133
 30
0.0
 10
3.2352028603
 20
2.445138263
 30
0.0
 10
3.234463349
 20
2.4417054681
 30
0.0
 10
3.2339841773
 20
2.4382267682
 30
0.0
 10
3.2337749694
 20
2.4347513796
 30
0.0
 10
3.2338270035
 20
2.4313273473
 30
0.0
 10
3.2342281433
 20
2.4269528839
 30
0.0
 10
3.2352872586
 20
2.4218086113
 30
0.0
 10
3.2367206253
 20
2.417931158
 30
0.0
 10
3.2375513331
 20
2.416128081
 30
0.0
  0
SPLINE
  5
2E8
100
AcDbEntity
  8
ALL_ASSEMBLY_MEMBERS
100
AcDbSpline
 62
7
  6
CONTINUOUS
 70
0
 71
3
 72
19
 73
15
 74
0
 42
0.0000001
 43
0.0000001
 44
0.0000000001
 40
0.0
 40
0.0
 40
0.0
 40
0.0
 40
0.1124397159
 40
0.234434097
 40
0.298692685
 40
0.3647346544
 40
0.4320306686
 40
0.4999999958
 40
0.567969323
 40
0.6352653386
 40
0.7013073096
 40
0.7655658982
 40
0.8875602818
 40
1.0
 40
1.0
 40
1.0
 40
1.0
 10
3.2495073954
 20
2.4640856885
 30
0.0
 10
3.2482047014
 20
2.4626481468
 30
0.0
 10
3.2457114424
 20
2.4594428639
 30
0.0
 10
3.2431447196
 20
2.4549539023
 30
0.0
 10
3.2413811849
 20
2.4509709789
 30
0.0
 10
3.2402207898
 20
2.4477622596
 30
0.0
 10
3.2392655199
 20
2.4444200893
 30
0.0
 10
3.2385384703
 20
2.4409869142
 30
0.0
 10
3.2380474584
 20
2.4375121194
 30
0.0
 10
3.2378020289
 20
2.434044785
 30
0.0
 10
3.2377949969
 20
2.4306326966
 30
0.0
 10
3.2380899374
 20
2.4262868083
 30
0.0
 10
3.2389665526
 20
2.4211906933
 30
0.0
 10
3.2402131783
 20
2.4173259678
 30
0.0
 10
3.2409456421
 20
2.4155295727
 30
0.0
  0
SPLINE
  5
2E9
100
AcDbEntity
  8
ALL_ASSEMBLY_MEMBERS
100
AcDbSpline
 62
7
  6
CONTINUOUS
 70
0
 71
3
 72
19
 73
15
 74
0
 42
0.0000001
 43
0.0000001
 44
0.0000000001
 40
0.0
 40
0.0
 40
0.0
 40
0.0
 40
0.1109272858
 40
0.2326116322
 40
0.29709125
 40
0.3635510331
 40
0.4314028451
 40
0.4999999958
 40
0.5685971465
 40
0.6364489599
 40
0.7029087446
 40
0.767388363
 40
0.8890727119
 40
1.0
 40
1.0
 40
1.0
 40
1.0
 10
3.2545761074
 20
2.4631919378
 30
0.0
 10
3.2533742336
 20
2.4617253552
 30
0.0
 10
3.2510722361
 20
2.4584664389
 30
0.0
 10
3.248700819
 20
2.4539597037
 30
0.0
 10
3.2470515382
 20
2.4499663116
 30
0.0
 10
3.2459536037
 20
2.4467480884
 30
0.0
 10
3.2450368775
 20
2.4434007206
 30
0.0
 10
3.244322857
 20
2.4399669708
 30
0.0
 10
3.2438194051
 20
2.4364960921
 30
0.0
 10
3.2435359788
 20
2.4330370563
 30
0.0
 10
3.2434670025
 20
2.4296374
 30
0.0
 10
3.243650999
 20
2.4253207515
 30
0.0
 10
3.2443380079
 20
2.4202747332
 30
0.0
 10
3.245386563
 20
2.4164250241
 30
0.0
 10
3.2460143542
 20
2.414635822
 30
0.0
  0
SPLINE
  5
2EA
100
AcDbEntity
  8
ALL_ASSEMBLY_MEMBERS
100
AcDbSpline
 62
7
  6
CONTINUOUS
 70
0
 71
3
 72
15
 73
11
 74
0
 42
0.0000001
 43
0.0000001
 44
0.0000000001
 40
0.0
 40
0.0
 40
0.0
 40
0.0
 40
0.1094898106
 40
0.2309093225
 40
0.3624417919
 40
0.4999999957
 40
0.637558201
 40
0.7690906727
 40
0.890510187
 40
1.0
 40
1.0
 40
1.0
 40
1.0
 10
3.2612927957
 20
2.4620076045
 30
0.0
 10
3.2601977918
 20
2.4605105696
 30
0.0
 10
3.2580976358
 20
2.4571968474
 30
0.0
 10
3.2554370852
 20
2.4516494904
 30
0.0
 10
3.2532537489
 20
2.4453905847
 30
0.0
 10
3.2516945603
 20
2.4386671406
 30
0.0
 10
3.2508601649
 20
2.4318158959
 30
0.0
 10
3.2507711581
 20
2.4251877033
 30
0.0
 10
3.25137395
 20
2.4190649308
 30
0.0
 10
3.2522140914
 20
2.4152327547
 30
0.0
 10
3.2527310424
 20
2.4134514887
 30
0.0
  0
SPLINE
  5
2EB
100
AcDbEntity
  8
ALL_ASSEMBLY_MEMBERS
100
AcDbSpline
 62
7
  6
CONTINUOUS
 70
0
 71
3
 72
19
 73
15
 74
0
 42
0.0000001
 43
0.0000001
 44
0.0000000001
 40
0.0
 40
0.0
 40
0.0
 40
0.0
 40
0.0523866251
 40
0.108143168
 40
0.1671827263
 40
0.2293137053
 40
0.3614082506
 40
0.4999999957
 40
0.6385917423
 40
0.7706862899
 40
0.8328172703
 40
0.8918568297
 40
0.9476133741
 40
1.0
 40
1.0
 40
1.0
 40
1.0
 10
3.2696224413
 20
2.4605388632
 30
0.0
 10
3.269146425
 20
2.4597981717
 30
0.0
 10
3.2682086955
 20
2.4582398872
 30
0.0
 10
3.2668913615
 20
2.4557565957
 30
0.0
 10
3.2656357365
 20
2.4530595859
 30
0.0
 10
3.2640336889
 20
2.4491143375
 30
0.0
 10
3.2623147064
 20
2.4437816783
 30
0.0
 10
3.2608120314
 20
2.4370594844
 30
0.0
 10
3.2599249583
 20
2.4302287434
 30
0.0
 10
3.2597163966
 20
2.4246297561
 30
0.0
 10
3.2598724744
 20
2.4203745027
 30
0.0
 10
3.2601299443
 20
2.4174106933
 30
0.0
 10
3.2605184976
 20
2.4146266079
 30
0.0
 10
3.2608667104
 20
2.412841577
 30
0.0
 10
3.261060688
 20
2.4119827474
 30
0.0
  0
SPLINE
  5
2EC
100
AcDbEntity
  8
ALL_ASSEMBLY_MEMBERS
100
AcDbSpline
 62
7
  6
CONTINUOUS
 70
0
 71
3
 72
19
 73
15
 74
0
 42
0.0000001
 43
0.0000001
 44
0.0000000001
 40
0.0
 40
0.0
 40
0.0
 40
0.0
 40
0.0516345872
 40
0.1069096532
 40
0.1657179943
 40
0.2278410932
 40
0.3604638739
 40
0.4999999956
 40
0.639536119
 40
0.7721589019
 40
0.8342820023
 40
0.8930903445
 40
0.948365412
 40
1.0
 40
1.0
 40
1.0
 40
1.0
 10
3.2795216159
 20
2.4587933717
 30
0.0
 10
3.2791041964
 20
2.4580395758
 30
0.0
 10
3.2782796337
 20
2.4564565957
 30
0.0
 10
3.2771157393
 20
2.4539470771
 30
0.0
 10
3.2759962496
 20
2.4512270522
 30
0.0
 10
3.2745503189
 20
2.4472494935
 30
0.0
 10
3.2729678426
 20
2.4418937827
 30
0.0
 10
3.2715225501
 20
2.435170931
 30
0.0
 10
3.27058133
 20
2.4283591977
 30
0.0
 10
3.2702366104
 20
2.422785237
 30
0.0
 10
3.2702349355
 20
2.4185530169
 30
0.0
 10
3.2703566085
 20
2.4156141415
 30
0.0
 10
3.2705920055
 20
2.4128578899
 30
0.0
 10
3.27082543
 20
2.4110883581
 30
0.0
 10
3.2709598626
 20
2.4102372559
 30
0.0
  0
SPLINE
  5
2ED
100
AcDbEntity
  8
ALL_ASSEMBLY_MEMBERS
100
AcDbSpline
 62
7
  6
CONTINUOUS
 70
0
 71
3
 72
19
 73
15
 74
0
 42
0.0000001
 43
0.0000001
 44
0.0000000001
 40
0.0
 40
0.0
 40
0.0
 40
0.0
 40
0.0509948815
 40
0.105863468
 40
0.164478708
 40
0.2265975498
 40
0.3596684614
 40
0.4999999956
 40
0.6403315314
 40
0.7734024454
 40
0.8355212886
 40
0.8941365297
 40
0.9490051177
 40
1.0
 40
1.0
 40
1.0
 40
1.0
 10
3.290938708
 20
2.4567802303
 30
0.0
 10
3.2905818551
 20
2.4560132686
 30
0.0
 10
3.2898739729
 20
2.4544056113
 30
0.0
 10
3.2888668952
 20
2.451869279
 30
0.0
 10
3.2878865158
 20
2.4491256523
 30
0.0
 10
3.2866009062
 20
2.4451158919
 30
0.0
 10
3.2851575505
 20
2.4397366378
 30
0.0
 10
3.2837702893
 20
2.4330113241
 30
0.0
 10
3.2827736956
 20
2.4262171253
 30
0.0
 10
3.282290193
 20
2.420668623
 30
0.0
 10
3.282126852
 20
2.4164609763
 30
0.0
 10
3.2821097317
 20
2.413547501
 30
0.0
 10
3.2821885985
 20
2.4108196873
 30
0.0
 10
3.282303939
 20
2.4090668736
 30
0.0
 10
3.2823769547
 20
2.4082241145
 30
0.0
  0
SPLINE
  5
2EE
100
AcDbEntity
  8
ALL_ASSEMBLY_MEMBERS
100
AcDbSpline
 62
7
  6
CONTINUOUS
 70
0
 71
3
 72
15
 73
11
 74
0
 42
0.0000001
 43
0.0000001
 44
0.0000000001
 40
0.0
 40
0.0
 40
0.0
 40
0.0
 40
0.1050408456
 40
0.2256201858
 40
0.3590458382
 40
0.4999999956
 40
0.6409541545
 40
0.7743798093
 40
0.8949591521
 40
1.0
 40
1.0
 40
1.0
 40
1.0
 10
3.3038141923
 20
2.454509935
 30
0.0
 10
3.3032013037
 20
2.4528874597
 30
0.0
 10
3.3019929672
 20
2.4493612937
 30
0.0
 10
3.3003488925
 20
2.4436634353
 30
0.0
 10
3.2988202028
 20
2.4373216789
 30
0.0
 10
3.297491434
 20
2.4305919161
 30
0.0
 10
3.2964383538
 20
2.423813542
 30
0.0
 10
3.2957058438
 20
2.4173313975
 30
0.0
 10
3.2953019862
 20
2.4114148552
 30
0.0
 10
3.2952314313
 20
2.4076880675
 30
0.0
 10
3.295252439
 20
2.4059538192
 30
0.0
  0
SPLINE
  5
2EF
100
AcDbEntity
  8
ALL_ASSEMBLY_MEMBERS
100
AcDbSpline
 62
7
  6
CONTINUOUS
 70
0
 71
3
 72
15
 73
11
 74
0
 42
0.0000001
 43
0.0000001
 44
0.0000000001
 40
0.0
 40
0.0
 40
0.0
 40
0.0
 40
0.1044919615
 40
0.2249738506
 40
0.3586331235
 40
0.4999999956
 40
0.6413668692
 40
0.7750261445
 40
0.8955080362
 40
1.0
 40
1.0
 40
1.0
 40
1.0
 10
3.3180809397
 20
2.4519943225
 30
0.0
 10
3.3175993973
 20
2.4503430737
 30
0.0
 10
3.3166282622
 20
2.4467686356
 30
0.0
 10
3.3152453964
 20
2.4410287897
 30
0.0
 10
3.3138846108
 20
2.4346614645
 30
0.0
 10
3.3126144064
 20
2.4279253281
 30
0.0
 10
3.3115041137
 20
2.4211609948
 30
0.0
 10
3.3106050804
 20
2.4147122501
 30
0.0
 10
3.3099414063
 20
2.4088455912
 30
0.0
 10
3.309631445
 20
2.4051545703
 30
0.0
 10
3.3095191864
 20
2.4034382067
 30
0.0
  0
SPLINE
  5
2F0
100
AcDbEntity
  8
ALL_ASSEMBLY_MEMBERS
100
AcDbSpline
 62
7
  6
CONTINUOUS
 70
0
 71
3
 72
15
 73
11
 74
0
 42
0.0000001
 43
0.0000001
 44
0.0000000001
 40
0.0
 40
0.0
 40
0.0
 40
0.0
 40
0.1042304678
 40
0.2246664099
 40
0.3584369795
 40
0.4999999956
 40
0.6415630132
 40
0.7753335853
 40
0.8957695299
 40
1.0
 40
1.0
 40
1.0
 40
1.0
 10
3.3336645674
 20
2.4492465085
 30
0.0
 10
3.3333167764
 20
2.4475689469
 30
0.0
 10
3.3325855407
 20
2.443949174
 30
0.0
 10
3.3314646242
 20
2.4381651157
 30
0.0
 10
3.3302721297
 20
2.4317700403
 30
0.0
 10
3.32906041
 20
2.4250254539
 30
0.0
 10
3.3278922697
 20
2.4182731832
 30
0.0
 10
3.3268256033
 20
2.4118559208
 30
0.0
 10
3.3259006558
 20
2.4060373078
 30
0.0
 10
3.3253497573
 20
2.4023857365
 30
0.0
 10
3.3251028141
 20
2.4006903927
 30
0.0
  0
SPLINE
  5
2F1
100
AcDbEntity
  8
ALL_ASSEMBLY_MEMBERS
100
AcDbSpline
 62
7
  6
CONTINUOUS
 70
0
 71
3
 72
15
 73
11
 74
0
 42
0.0000001
 43
0.0000001
 44
0.0000000001
 40
0.0
 40
0.0
 40
0.0
 40
0.0
 40
0.1043247973
 40
0.2247772797
 40
0.3585077012
 40
0.4999999949
 40
0.6414922904
 40
0.7752227148
 40
0.8956752
 40
1.0
 40
1.0
 40
1.0
 40
1.0
 10
3.8156432319
 20
2.3642606658
 30
0.0
 10
3.8154640141
 20
2.3625543687
 30
0.0
 10
3.8150342021
 20
2.3588825383
 30
0.0
 10
3.8142405928
 20
2.3530400513
 30
0.0
 10
3.8132582131
 20
2.3466072328
 30
0.0
 10
3.8121191898
 20
2.3398491578
 30
0.0
 10
3.8108781238
 20
2.3331090756
 30
0.0
 10
3.8096011053
 20
2.3267282098
 30
0.0
 10
3.8083486058
 20
2.3209666373
 30
0.0
 10
3.807496657
 20
2.3173692409
 30
0.0
 10
3.8070814786
 20
2.31570455
 30
0.0
  0
SPLINE
  5
2F2
100
AcDbEntity
  8
ALL_ASSEMBLY_MEMBERS
100
AcDbSpline
 62
7
  6
CONTINUOUS
 70
0
 71
3
 72
15
 73
11
 74
0
 42
0.0000001
 43
0.0000001
 44
0.0000000001
 40
0.0
 40
0.0
 40
0.0
 40
0.0
 40
0.1047329361
 40
0.2252574423
 40
0.3588141503
 40
0.4999999949
 40
0.6411858414
 40
0.7747425522
 40
0.8952670612
 40
1.0
 40
1.0
 40
1.0
 40
1.0
 10
3.830575291
 20
2.3616277409
 30
0.0
 10
3.8305302181
 20
2.3599020141
 30
0.0
 10
3.8303407703
 20
2.3561925613
 30
0.0
 10
3.8298078014
 20
2.3503010553
 30
0.0
 10
3.8289925643
 20
2.3438357624
 30
0.0
 10
3.8279110936
 20
2.3370646191
 30
0.0
 10
3.8266114762
 20
2.3303319408
 30
0.0
 10
3.8251662881
 20
2.3239777252
 30
0.0
 10
3.8236521013
 20
2.3182592343
 30
0.0
 10
3.8225614164
 20
2.3147086937
 30
0.0
 10
3.8220135377
 20
2.3130716251
 30
0.0
  0
SPLINE
  5
2F3
100
AcDbEntity
  8
ALL_ASSEMBLY_MEMBERS
100
AcDbSpline
 62
7
  6
CONTINUOUS
 70
0
 71
3
 72
17
 73
13
 74
0
 42
0.0000001
 43
0.0000001
 44
0.0000000001
 40
0.0
 40
0.0
 40
0.0
 40
0.0
 40
0.0507279354
 40
0.1054283024
 40
0.2260720557
 40
0.3593337341
 40
0.4999999949
 40
0.6406662576
 40
0.7739279388
 40
0.8945716949
 40
0.9492720636
 40
1.0
 40
1.0
 40
1.0
 40
1.0
 10
3.8441522332
 20
2.3592337597
 30
0.0
 10
3.8441940891
 20
2.3583954153
 30
0.0
 10
3.8442496616
 20
2.356651399
 30
0.0
 10
3.8442494064
 20
2.3529101135
 30
0.0
 10
3.8440135023
 20
2.3478060181
 30
0.0
 10
3.8433641781
 20
2.3413066857
 30
0.0
 10
3.8423394804
 20
2.3345205052
 30
0.0
 10
3.8409813708
 20
2.3277931141
 30
0.0
 10
3.8393686334
 20
2.3214636574
 30
0.0
 10
3.8378446073
 20
2.3165866925
 30
0.0
 10
3.836565252
 20
2.3130709468
 30
0.0
 10
3.8359165423
 20
2.3114511143
 30
0.0
 10
3.8355904799
 20
2.3106776439
 30
0.0
  0
SPLINE
  5
2F4
100
AcDbEntity
  8
ALL_ASSEMBLY_MEMBERS
100
AcDbSpline
 62
7
  6
CONTINUOUS
 70
0
 71
3
 72
19
 73
15
 74
0
 42
0.0000001
 43
0.0000001
 44
0.0000000001
 40
0.0
 40
0.0
 40
0.0
 40
0.0
 40
0.0513003003
 40
0.1063625772
 40
0.1650697016
 40
0.2271904709
 40
0.360047643
 40
0.5000000012
 40
0.6399523589
 40
0.7728095303
 40
0.8349302992
 40
0.8936374233
 40
0.9486996999
 40
1.0
 40
1.0
 40
1.0
 40
1.0
 10
3.8563032722
 20
2.3570912037
 30
0.0
 10
3.8564073421
 20
2.3562441722
 30
0.0
 10
3.8565823501
 20
2.3544828066
 30
0.0
 10
3.8567401941
 20
2.3517406521
 30
0.0
 10
3.8567931023
 20
2.3488143727
 30
0.0
 10
3.8567113786
 20
2.3445941911
 30
0.0
 10
3.8562978576
 20
2.3390328642
 30
0.0
 10
3.8553292144
 20
2.3322300643
 30
0.0
 10
3.8539127466
 20
2.3255062281
 30
0.0
 10
3.8523992435
 20
2.3201388576
 30
0.0
 10
3.8510326515
 20
2.316145233
 30
0.0
 10
3.8499820876
 20
2.3134135256
 30
0.0
 10
3.8488958907
 20
2.3108907291
 30
0.0
 10
3.8481290145
 20
2.3092954431
 30
0.0
 10
3.8477415189
 20
2.3085350879
 30
0.0
  0
SPLINE
  5
2F5
100
AcDbEntity
  8
ALL_ASSEMBLY_MEMBERS
100
AcDbSpline
 62
7
  6
CONTINUOUS
 70
0
 71
3
 72
19
 73
15
 74
0
 42
0.0000001
 43
0.0000001
 44
0.0000000001
 40
0.0
 40
0.0
 40
0.0
 40
0.0
 40
0.0519999666
 40
0.1075084752
 40
0.1664285875
 40
0.2285551251
 40
0.3609214461
 40
0.499999995
 40
0.6390785457
 40
0.7714448694
 40
0.8335714087
 40
0.8924915221
 40
0.9480000324
 40
1.0
 40
1.0
 40
1.0
 40
1.0
 10
3.8669650562
 20
2.3552112435
 30
0.0
 10
3.8671296456
 20
2.3543561903
 30
0.0
 10
3.8674211684
 20
2.3525787292
 30
0.0
 10
3.8677339492
 20
2.3498084099
 30
0.0
 10
3.8679242345
 20
2.3468569421
 30
0.0
 10
3.8680023243
 20
2.3426129595
 30
0.0
 10
3.8677263479
 20
2.3370263629
 30
0.0
 10
3.8668124847
 20
2.3302052542
 30
0.0
 10
3.8653382786
 20
2.3234829491
 30
0.0
 10
3.8636868831
 20
2.3181388759
 30
0.0
 10
3.8621619751
 20
2.3141775449
 30
0.0
 10
3.860973704
 20
2.3114691538
 30
0.0
 10
3.8597322811
 20
2.3089728824
 30
0.0
 10
3.8588504118
 20
2.307402322
 30
0.0
 10
3.8584033029
 20
2.3066551277
 30
0.0
  0
SPLINE
  5
2F6
100
AcDbEntity
  8
ALL_ASSEMBLY_MEMBERS
100
AcDbSpline
 62
7
  6
CONTINUOUS
 70
0
 71
3
 72
15
 73
11
 74
0
 42
0.0000001
 43
0.0000001
 44
0.0000000001
 40
0.0
 40
0.0
 40
0.0
 40
0.0
 40
0.1087930984
 40
0.2300751311
 40
0.3619039606
 40
0.499999995
 40
0.6380960313
 40
0.7699248634
 40
0.8912068989
 40
1.0
 40
1.0
 40
1.0
 40
1.0
 10
3.8760819976
 20
2.3536036807
 30
0.0
 10
3.8765415722
 20
2.3518267419
 30
0.0
 10
3.8772744874
 20
2.3480045675
 30
0.0
 10
3.8777562395
 20
2.3419071054
 30
0.0
 10
3.8775899435
 20
2.3352976181
 30
0.0
 10
3.8767294712
 20
2.328456622
 30
0.0
 10
3.8751982922
 20
2.3217338894
 30
0.0
 10
3.8730939815
 20
2.3154661262
 30
0.0
 10
3.8705558277
 20
2.3099011549
 30
0.0
 10
3.868559852
 20
2.3065601576
 30
0.0
 10
3.8675202443
 20
2.305047565
 30
0.0
  0
SPLINE
  5
2F7
100
AcDbEntity
  8
ALL_ASSEMBLY_MEMBERS
100
AcDbSpline
 62
7
  6
CONTINUOUS
 70
0
 71
3
 72
17
 73
13
 74
0
 42
0.0000001
 43
0.0000001
 44
0.0000000001
 40
0.0
 40
0.0
 40
0.0
 40
0.0
 40
0.110204058
 40
0.2317552494
 40
0.3629632788
 40
0.4310917148
 40
0.4999999951
 40
0.5689082754
 40
0.6370367132
 40
0.7682447451
 40
0.8897959393
 40
1.0
 40
1.0
 40
1.0
 40
1.0
 10
3.8836065632
 20
2.3522768968
 30
0.0
 10
3.8841799274
 20
2.3504915343
 30
0.0
 10
3.8851259089
 20
2.3466499893
 30
0.0
 10
3.88584923
 20
2.3405023928
 30
0.0
 10
3.8858388193
 20
2.3350285166
 30
0.0
 10
3.8854397575
 20
2.3304796854
 30
0.0
 10
3.884929954
 20
2.3270106556
 30
0.0
 10
3.8842225345
 20
2.3235764708
 30
0.0
 10
3.883041738
 20
2.3191654804
 30
0.0
 10
3.8811793451
 20
2.3140181586
 30
0.0
 10
3.8783970437
 20
2.3084886977
 30
0.0
 10
3.8761942259
 20
2.3052023709
 30
0.0
 10
3.87504481
 20
2.303720781
 30
0.0
  0
SPLINE
  5
2F8
100
AcDbEntity
  8
ALL_ASSEMBLY_MEMBERS
100
AcDbSpline
 62
7
  6
CONTINUOUS
 70
0
 71
3
 72
19
 73
15
 74
0
 42
0.0000001
 43
0.0000001
 44
0.0000000001
 40
0.0
 40
0.0
 40
0.0
 40
0.0
 40
0.1116827756
 40
0.2335207
 40
0.297889672
 40
0.3641409351
 40
0.4317156756
 40
0.4999999951
 40
0.5682843147
 40
0.6358590569
 40
0.7021103219
 40
0.7664792946
 40
0.8883172217
 40
1.0
 40
1.0
 40
1.0
 40
1.0
 10
3.8894995224
 20
2.3512378091
 30
0.0
 10
3.8901806662
 20
2.3494449189
 30
0.0
 10
3.8913300449
 20
2.3455873564
 30
0.0
 10
3.8921130765
 20
2.3405159817
 30
0.0
 10
3.8923533415
 20
2.336184589
 30
0.0
 10
3.8923158115
 20
2.3327786347
 30
0.0
 10
3.892051676
 20
2.3293154056
 30
0.0
 10
3.8915545424
 20
2.3258425619
 30
0.0
 10
3.8908339127
 20
2.3224091266
 30
0.0
 10
3.8898976247
 20
2.3190644161
 30
0.0
 10
3.8887679865
 20
2.3158510299
 30
0.0
 10
3.8870607877
 20
2.3118630275
 30
0.0
 10
3.8845904663
 20
2.3073653066
 30
0.0
 10
3.8821910395
 20
2.3041334941
 30
0.0
 10
3.8809377691
 20
2.3026816933
 30
0.0
  0
SPLINE
  5
2F9
100
AcDbEntity
  8
ALL_ASSEMBLY_MEMBERS
100
AcDbSpline
 62
7
  6
CONTINUOUS
 70
0
 71
3
 72
19
 73
15
 74
0
 42
0.0000001
 43
0.0000001
 44
0.0000000001
 40
0.0
 40
0.0
 40
0.0
 40
0.0
 40
0.1132064649
 40
0.2353619722
 40
0.2995092411
 40
0.3653388284
 40
0.4323513516
 40
0.4999999951
 40
0.5676486388
 40
0.6346611637
 40
0.7004907528
 40
0.7646380224
 40
0.8867935324
 40
1.0
 40
1.0
 40
1.0
 40
1.0
 10
3.8937301507
 20
2.3504918352
 30
0.0
 10
3.8945127679
 20
2.3486920316
 30
0.0
 10
3.8958546426
 20
2.3448206546
 30
0.0
 10
3.8968238749
 20
2.3397000725
 30
0.0
 10
3.8971727774
 20
2.3353397295
 30
0.0
 10
3.897195787
 20
2.3319215761
 30
0.0
 10
3.8969687812
 20
2.3284501621
 30
0.0
 10
3.8964837939
 20
2.3249734019
 30
0.0
 10
3.8957504109
 20
2.3215404405
 30
0.0
 10
3.8947764331
 20
2.3182007378
 30
0.0
 10
3.8935857339
 20
2.314996594
 30
0.0
 10
3.8917665476
 20
2.3110185434
 30
0.0
 10
3.8891044248
 20
2.306538267
 30
0.0
 10
3.8865193862
 20
2.3033593107
 30
0.0
 10
3.8851683974
 20
2.3019357194
 30
0.0
  0
SPLINE
  5
2FA
100
AcDbEntity
  8
ALL_ASSEMBLY_MEMBERS
100
AcDbSpline
 62
7
  6
CONTINUOUS
 70
0
 71
3
 72
19
 73
15
 74
0
 42
0.0000001
 43
0.0000001
 44
0.0000000001
 40
0.0
 40
0.0
 40
0.0
 40
0.0
 40
0.1147249879
 40
0.2372074335
 40
0.3011357489
 40
0.3665436273
 40
0.4329912714
 40
0.4999999952
 40
0.5670087191
 40
0.6334563649
 40
0.698864245
 40
0.7627925612
 40
0.8852750093
 40
1.0
 40
1.0
 40
1.0
 40
1.0
 10
3.896276391
 20
2.3500428643
 30
0.0
 10
3.8971539409
 20
2.3482365772
 30
0.0
 10
3.898676542
 20
2.3443534675
 30
0.0
 10
3.8998242102
 20
2.3391859399
 30
0.0
 10
3.9002766987
 20
2.3347974867
 30
0.0
 10
3.9003572074
 20
2.3313676706
 30
0.0
 10
3.9001654591
 20
2.327888352
 30
0.0
 10
3.8996919884
 20
2.3244077107
 30
0.0
 10
3.8989464559
 20
2.3209750411
 30
0.0
 10
3.8979366433
 20
2.3176399693
 30
0.0
 10
3.8966879237
 20
2.3144445318
 30
0.0
 10
3.8947617842
 20
2.3104754949
 30
0.0
 10
3.8919159303
 20
2.3060121328
 30
0.0
 10
3.8891570515
 20
2.3028839635
 30
0.0
 10
3.8877146377
 20
2.3014867485
 30
0.0
  0
SPLINE
  5
2FB
100
AcDbEntity
  8
ALL_ASSEMBLY_MEMBERS
100
AcDbSpline
 62
7
  6
CONTINUOUS
 70
0
 71
3
 72
17
 73
13
 74
0
 42
0.0000001
 43
0.0000001
 44
0.0000000001
 40
0.0
 40
0.0
 40
0.0
 40
0.0
 40
0.1098397414
 40
0.2313183067
 40
0.3626825712
 40
0.4309429368
 40
0.4999999957
 40
0.5690570547
 40
0.6373174218
 40
0.7686816885
 40
0.8901602563
 40
1.0
 40
1.0
 40
1.0
 40
1.0
 10
3.4720461507
 20
2.4248461017
 30
0.0
 10
3.4725915766
 20
2.4230627508
 30
0.0
 10
3.4734850779
 20
2.4192257539
 30
0.0
 10
3.4741485898
 20
2.4130906193
 30
0.0
 10
3.4741067671
 20
2.4076260325
 30
0.0
 10
3.4736947109
 20
2.4030810476
 30
0.0
 10
3.473181637
 20
2.3996129931
 30
0.0
 10
3.4724776243
 20
2.3961786063
 30
0.0
 10
3.4713103541
 20
2.391766786
 30
0.0
 10
3.4694806558
 20
2.3866174497
 30
0.0
 10
3.4667588189
 20
2.3810792433
 30
0.0
 10
3.4646068721
 20
2.377779241
 30
0.0
 10
3.4634843974
 20
2.3762899859
 30
0.0
  0
SPLINE
  5
2FC
100
AcDbEntity
  8
ALL_ASSEMBLY_MEMBERS
100
AcDbSpline
 62
7
  6
CONTINUOUS
 70
0
 71
3
 72
21
 73
17
 74
0
 42
0.0000001
 43
0.0000001
 44
0.0000000001
 40
0.0
 40
0.0
 40
0.0
 40
0.0
 40
0.1214879951
 40
0.1832702394
 40
0.2456646808
 40
0.3086223827
 40
0.3721087643
 40
0.4359538701
 40
0.5000000046
 40
0.564046139
 40
0.6278912432
 40
0.6913776233
 40
0.7543353246
 40
0.8167297646
 40
0.8785120077
 40
1.0
 40
1.0
 40
1.0
 40
1.0
 10
3.4634843974
 20
2.3762899859
 30
0.0
 10
3.4622235681
 20
2.3781249606
 30
0.0
 10
3.4605409146
 20
2.3810562656
 30
0.0
 10
3.4588381038
 20
2.3852289939
 30
0.0
 10
3.4578451291
 20
2.3885173963
 30
0.0
 10
3.4571740972
 20
2.3919182973
 30
0.0
 10
3.4568536712
 20
2.3953970918
 30
0.0
 10
3.4568981829
 20
2.398910673
 30
0.0
 10
3.4573237512
 20
2.4024091663
 30
0.0
 10
3.458120403
 20
2.4058422275
 30
0.0
 10
3.4592802913
 20
2.4091591376
 30
0.0
 10
3.460771211
 20
2.4123185429
 30
0.0
 10
3.4625649514
 20
2.415284838
 30
0.0
 10
3.4646227423
 20
2.4180353081
 30
0.0
 10
3.4676500181
 20
2.4213739944
 30
0.0
 10
3.4702337604
 20
2.4235530186
 30
0.0
 10
3.4720461507
 20
2.4248461017
 30
0.0
  0
SPLINE
  5
2FD
100
AcDbEntity
  8
ALL_ASSEMBLY_MEMBERS
100
AcDbSpline
 62
7
  6
CONTINUOUS
 70
0
 71
3
 72
15
 73
11
 74
0
 42
0.0000001
 43
0.0000001
 44
0.0000000001
 40
0.0
 40
0.0
 40
0.0
 40
0.0
 40
0.2328186612
 40
0.3636847349
 40
0.4314781736
 40
0.4999999958
 40
0.568521818
 40
0.6363152581
 40
0.767181334
 40
1.0
 40
1.0
 40
1.0
 40
1.0
 10
3.4947600467
 20
2.420841029
 30
0.0
 10
3.4961279686
 20
2.4170990212
 30
0.0
 10
3.4973867645
 20
2.410905387
 30
0.0
 10
3.4974958023
 20
2.4035108822
 30
0.0
 10
3.4971351071
 20
2.3989493522
 30
0.0
 10
3.4966348362
 20
2.3954775613
 30
0.0
 10
3.4959175147
 20
2.3920440422
 30
0.0
 10
3.4946963221
 20
2.3876342412
 30
0.0
 10
3.4920647905
 20
2.3807229725
 30
0.0
 10
3.4887635616
 20
2.3753333935
 30
0.0
 10
3.4861982934
 20
2.3722849132
 30
0.0
  0
SPLINE
  5
2FE
100
AcDbEntity
  8
ALL_ASSEMBLY_MEMBERS
100
AcDbSpline
 62
7
  6
CONTINUOUS
 70
0
 71
3
 72
21
 73
17
 74
0
 42
0.0000001
 43
0.0000001
 44
0.0000000001
 40
0.0
 40
0.0
 40
0.0
 40
0.0
 40
0.1204215686
 40
0.1819704735
 40
0.244329938
 40
0.3074351175
 40
0.3712231255
 40
0.4354813861
 40
0.5000000046
 40
0.5645186232
 40
0.6287768821
 40
0.6925648886
 40
0.7556700674
 40
0.8180295305
 40
0.8795784341
 40
1.0
 40
1.0
 40
1.0
 40
1.0
 10
3.4861982934
 20
2.3722849132
 30
0.0
 10
3.4849949368
 20
2.3741152024
 30
0.0
 10
3.4833966498
 20
2.3770372726
 30
0.0
 10
3.4817919014
 20
2.3811865043
 30
0.0
 10
3.4808606082
 20
2.3844638111
 30
0.0
 10
3.4802395167
 20
2.3878552977
 30
0.0
 10
3.4799558149
 20
2.3913265518
 30
0.0
 10
3.4800228684
 20
2.3948347807
 30
0.0
 10
3.4804557558
 20
2.3983303698
 30
0.0
 10
3.4812445366
 20
2.4017632052
 30
0.0
 10
3.4823814118
 20
2.4050827955
 30
0.0
 10
3.4838352432
 20
2.4082476756
 30
0.0
 10
3.485578835
 20
2.4112222046
 30
0.0
 10
3.4875748693
 20
2.4139833446
 30
0.0
 10
3.4905019603
 20
2.4173334906
 30
0.0
 10
3.4930032656
 20
2.419532692
 30
0.0
 10
3.4947600467
 20
2.420841029
 30
0.0
  0
SPLINE
  5
2FF
100
AcDbEntity
  8
ALL_ASSEMBLY_MEMBERS
100
AcDbSpline
 62
7
  6
CONTINUOUS
 70
0
 71
3
 72
19
 73
15
 74
0
 42
0.0000001
 43
0.0000001
 44
0.0000000001
 40
0.0
 40
0.0
 40
0.0
 40
0.0
 40
0.11282409
 40
0.2348989116
 40
0.2991016319
 40
0.3650371804
 40
0.432191225
 40
0.4999999958
 40
0.5678087667
 40
0.6349628126
 40
0.7008983627
 40
0.7651010836
 40
0.8871759076
 40
1.0
 40
1.0
 40
1.0
 40
1.0
 10
3.5178696693
 20
2.416766179
 30
0.0
 10
3.5186274868
 20
2.4149680603
 30
0.0
 10
3.5199222391
 20
2.4110999307
 30
0.0
 10
3.5208455309
 20
2.4059914802
 30
0.0
 10
3.5211676847
 20
2.40163832
 30
0.0
 10
3.5211758102
 20
2.3982231742
 30
0.0
 10
3.5209396766
 20
2.3947537859
 30
0.0
 10
3.5204517051
 20
2.3912780047
 30
0.0
 10
3.5197214612
 20
2.3878449427
 30
0.0
 10
3.5187567535
 20
2.3845040217
 30
0.0
 10
3.5175810694
 20
2.3812976134
 30
0.0
 10
3.5157894753
 20
2.3773171638
 30
0.0
 10
3.5131746719
 20
2.3728325749
 30
0.0
 10
3.5106350243
 20
2.3696405534
 30
0.0
 10
3.509307916
 20
2.3682100632
 30
0.0
  0
SPLINE
  5
300
100
AcDbEntity
  8
ALL_ASSEMBLY_MEMBERS
100
AcDbSpline
 62
7
  6
CONTINUOUS
 70
0
 71
3
 72
21
 73
17
 74
0
 42
0.0000001
 43
0.0000001
 44
0.0000000001
 40
0.0
 40
0.0
 40
0.0
 40
0.0
 40
0.1192314283
 40
0.1805228365
 40
0.2428461118
 40
0.3061173454
 40
0.3702413387
 40
0.434958014
 40
0.5000000047
 40
0.5650419952
 40
0.6297586689
 40
0.6938826606
 40
0.7571538936
 40
0.8194771674
 40
0.8807685745
 40
1.0
 40
1.0
 40
1.0
 40
1.0
 10
3.509307916
 20
2.3682100632
 30
0.0
 10
3.5081695586
 20
2.3700352417
 30
0.0
 10
3.5066664948
 20
2.3729467853
 30
0.0
 10
3.5051716785
 20
2.3770694912
 30
0.0
 10
3.5043097265
 20
2.3803342564
 30
0.0
 10
3.5037447419
 20
2.3837151257
 30
0.0
 10
3.5035022765
 20
2.3871779159
 30
0.0
 10
3.5035946354
 20
2.3906801805
 30
0.0
 10
3.5040357455
 20
2.3941725814
 30
0.0
 10
3.5048157092
 20
2.3976052332
 30
0.0
 10
3.5059267651
 20
2.4009278739
 30
0.0
 10
3.5073389521
 20
2.4040989042
 30
0.0
 10
3.5090261894
 20
2.4070826459
 30
0.0
 10
3.5109527748
 20
2.4098557167
 30
0.0
 10
3.513767491
 20
2.4132185356
 30
0.0
 10
3.5161757155
 20
2.4154404135
 30
0.0
 10
3.5178696693
 20
2.416766179
 30
0.0
  0
SPLINE
  5
301
100
AcDbEntity
  8
ALL_ASSEMBLY_MEMBERS
100
AcDbSpline
 62
7
  6
CONTINUOUS
 70
0
 71
3
 72
19
 73
15
 74
0
 42
0.0000001
 43
0.0000001
 44
0.0000000001
 40
0.0
 40
0.0
 40
0.0
 40
0.0
 40
0.114347166
 40
0.236747294
 40
0.3007298967
 40
0.3662428363
 40
0.4328314582
 40
0.5000000041
 40
0.56716855
 40
0.6337571706
 40
0.6992701087
 40
0.7632527108
 40
0.8856528364
 40
1.0
 40
1.0
 40
1.0
 40
1.0
 10
3.5326927784
 20
2.3640866811
 30
0.0
 10
3.5341129018
 20
2.3654903174
 30
0.0
 10
3.5368293961
 20
2.3686309724
 30
0.0
 10
3.5396300869
 20
2.3730985247
 30
0.0
 10
3.5415299596
 20
2.3770697363
 30
0.0
 10
3.5427644565
 20
2.380267302
 30
0.0
 10
3.5437654827
 20
2.3836034979
 30
0.0
 10
3.544508034
 20
2.3870362249
 30
0.0
 10
3.5449843257
 20
2.3905159006
 30
0.0
 10
3.5451847151
 20
2.3939932704
 30
0.0
 10
3.5451182992
 20
2.397420222
 30
0.0
 10
3.5446912372
 20
2.4018017349
 30
0.0
 10
3.5435874416
 20
2.4069577534
 30
0.0
 10
3.5421089392
 20
2.4108380994
 30
0.0
 10
3.5412545317
 20
2.4126427969
 30
0.0
  0
SPLINE
  5
302
100
AcDbEntity
  8
ALL_ASSEMBLY_MEMBERS
100
AcDbSpline
 62
7
  6
CONTINUOUS
 70
0
 71
3
 72
21
 73
17
 74
0
 42
0.0000001
 43
0.0000001
 44
0.0000000001
 40
0.0
 40
0.0
 40
0.0
 40
0.0
 40
0.1179311905
 40
0.1789448198
 40
0.2412319662
 40
0.3046863337
 40
0.3691765963
 40
0.4343908895
 40
0.4999999953
 40
0.5656091011
 40
0.630823396
 40
0.6953136602
 40
0.7587680284
 40
0.8210551762
 40
0.8820688068
 40
1.0
 40
1.0
 40
1.0
 40
1.0
 10
3.5412545317
 20
2.4126427969
 30
0.0
 10
3.5396304334
 20
2.4112974301
 30
0.0
 10
3.5373255704
 20
2.4090505417
 30
0.0
 10
3.5346346781
 20
2.4056739559
 30
0.0
 10
3.5327848536
 20
2.4028877778
 30
0.0
 10
3.5311598563
 20
2.3998939034
 30
0.0
 10
3.5297936246
 20
2.3967160762
 30
0.0
 10
3.5287110372
 20
2.393390015
 30
0.0
 10
3.5279407797
 20
2.3899574789
 30
0.0
 10
3.5274905884
 20
2.3864685064
 30
0.0
 10
3.5273703079
 20
2.3829727645
 30
0.0
 10
3.5275672647
 20
2.3795193049
 30
0.0
 10
3.5280702974
 20
2.3761502012
 30
0.0
 10
3.5288556347
 20
2.372899373
 30
0.0
 10
3.5302293861
 20
2.3688060808
 30
0.0
 10
3.5316267677
 20
2.3659063866
 30
0.0
 10
3.5326927784
 20
2.3640866811
 30
0.0
  0
SPLINE
  5
303
100
AcDbEntity
  8
ALL_ASSEMBLY_MEMBERS
100
AcDbSpline
 62
7
  6
CONTINUOUS
 70
0
 71
3
 72
19
 73
15
 74
0
 42
0.0000001
 43
0.0000001
 44
0.0000000001
 40
0.0
 40
0.0
 40
0.0
 40
0.0
 40
0.1158400422
 40
0.2385694722
 40
0.3023384
 40
0.3674356894
 40
0.4334655121
 40
0.499999999
 40
0.5665344859
 40
0.6325643091
 40
0.6976615989
 40
0.7614305269
 40
0.8841599573
 40
1.0
 40
1.0
 40
1.0
 40
1.0
 10
3.5562309587
 20
2.3599362648
 30
0.0
 10
3.5577376859
 20
2.3613150091
 30
0.0
 10
3.560618812
 20
2.364406836
 30
0.0
 10
3.563596244
 20
2.3688578327
 30
0.0
 10
3.5655988495
 20
2.3728206691
 30
0.0
 10
3.5668888692
 20
2.3760099463
 30
0.0
 10
3.5679242053
 20
2.3793417888
 30
0.0
 10
3.5686784073
 20
2.3827743357
 30
0.0
 10
3.5691436894
 20
2.3862578269
 30
0.0
 10
3.569310349
 20
2.3897428405
 30
0.0
 10
3.569188924
 20
2.3931809935
 30
0.0
 10
3.5686624603
 20
2.3975897731
 30
0.0
 10
3.56738692
 20
2.4027906836
 30
0.0
 10
3.5657370141
 20
2.4066814537
 30
0.0
 10
3.564792712
 20
2.4084923806
 30
0.0
  0
SPLINE
  5
304
100
AcDbEntity
  8
ALL_ASSEMBLY_MEMBERS
100
AcDbSpline
 62
7
  6
CONTINUOUS
 70
0
 71
3
 72
21
 73
17
 74
0
 42
0.0000001
 43
0.0000001
 44
0.0000000001
 40
0.0
 40
0.0
 40
0.0
 40
0.0
 40
0.1165381759
 40
0.1772583421
 40
0.2395107066
 40
0.3031632059
 40
0.3680449141
 40
0.4337886476
 40
0.4999999952
 40
0.566211343
 40
0.6319550782
 40
0.6968367881
 40
0.760489288
 40
0.8227416539
 40
0.8834618214
 40
1.0
 40
1.0
 40
1.0
 40
1.0
 10
3.564792712
 20
2.4084923806
 30
0.0
 10
3.563245309
 20
2.4071252574
 30
0.0
 10
3.5610536736
 20
2.4048512298
 30
0.0
 10
3.5584972241
 20
2.40145989
 30
0.0
 10
3.556731048
 20
2.3986595169
 30
0.0
 10
3.555173821
 20
2.3956546492
 30
0.0
 10
3.5538575869
 20
2.3924694063
 30
0.0
 10
3.5528059473
 20
2.389139554
 30
0.0
 10
3.5520462228
 20
2.3857070389
 30
0.0
 10
3.5515861409
 20
2.3822216886
 30
0.0
 10
3.5514354824
 20
2.378732969
 30
0.0
 10
3.5515829205
 20
2.375289641
 30
0.0
 10
3.55201851
 20
2.371933386
 30
0.0
 10
3.5527203885
 20
2.3686978282
 30
0.0
 10
3.5539627588
 20
2.3646366539
 30
0.0
 10
3.5552444592
 20
2.3617501834
 30
0.0
 10
3.5562309587
 20
2.3599362648
 30
0.0
  0
SPLINE
  5
305
100
AcDbEntity
  8
ALL_ASSEMBLY_MEMBERS
100
AcDbSpline
 62
7
  6
CONTINUOUS
 70
0
 71
3
 72
19
 73
15
 74
0
 42
0.0000001
 43
0.0000001
 44
0.0000000001
 40
0.0
 40
0.0
 40
0.0
 40
0.0
 40
0.1172742292
 40
0.240328924
 40
0.3038943854
 40
0.3685911668
 40
0.4340801758
 40
0.5000000041
 40
0.5659198323
 40
0.6314088399
 40
0.6961056199
 40
0.7596710808
 40
0.8827257732
 40
1.0
 40
1.0
 40
1.0
 40
1.0
 10
3.5797997355
 20
2.3557804535
 30
0.0
 10
3.5813864964
 20
2.3571363838
 30
0.0
 10
3.5844195284
 20
2.3601824552
 30
0.0
 10
3.5875631892
 20
2.3646173804
 30
0.0
 10
3.5896622852
 20
2.3685726088
 30
0.0
 10
3.591004229
 20
2.3717541711
 30
0.0
 10
3.592071677
 20
2.3750820415
 30
0.0
 10
3.5928368
 20
2.3785145595
 30
0.0
 10
3.5932918098
 20
2.3820017588
 30
0.0
 10
3.5934269355
 20
2.3854940228
 30
0.0
 10
3.5932540791
 20
2.3889426851
 30
0.0
 10
3.5926343419
 20
2.3933773171
 30
0.0
 10
3.5911971009
 20
2.3986199788
 30
0.0
 10
3.5893888008
 20
2.4025197075
 30
0.0
 10
3.5883614888
 20
2.4043365693
 30
0.0
  0
SPLINE
  5
306
100
AcDbEntity
  8
ALL_ASSEMBLY_MEMBERS
100
AcDbSpline
 62
7
  6
CONTINUOUS
 70
0
 71
3
 72
19
 73
15
 74
0
 42
0.0000001
 43
0.0000001
 44
0.0000000001
 40
0.0
 40
0.0
 40
0.0
 40
0.0
 40
0.1150960872
 40
0.2376600132
 40
0.3015351332
 40
0.3668397369
 40
0.433148638
 40
0.4999999952
 40
0.5668513525
 40
0.6331602552
 40
0.6984648608
 40
0.7623399814
 40
0.8849039101
 40
1.0
 40
1.0
 40
1.0
 40
1.0
 10
3.5883614888
 20
2.4043365693
 30
0.0
 10
3.5868974401
 20
2.4029455781
 30
0.0
 10
3.5840974292
 20
2.3998295842
 30
0.0
 10
3.5812075203
 20
2.3953703355
 30
0.0
 10
3.579255771
 20
2.3914033968
 30
0.0
 10
3.577993201
 20
2.3882100287
 30
0.0
 10
3.5769748303
 20
2.3848760449
 30
0.0
 10
3.5762263928
 20
2.3814434225
 30
0.0
 10
3.5757556679
 20
2.3779618318
 30
0.0
 10
3.5755723337
 20
2.3744806085
 30
0.0
 10
3.5756665651
 20
2.3710479996
 30
0.0
 10
3.5761438367
 20
2.3666527589
 30
0.0
 10
3.5773343099
 20
2.3614740287
 30
0.0
 10
3.5788997267
 20
2.357588292
 30
0.0
 10
3.5797997355
 20
2.3557804535
 30
0.0
  0
SPLINE
  5
307
100
AcDbEntity
  8
ALL_ASSEMBLY_MEMBERS
100
AcDbSpline
 62
7
  6
CONTINUOUS
 70
0
 71
3
 72
21
 73
17
 74
0
 42
0.0000001
 43
0.0000001
 44
0.0000000001
 40
0.0
 40
0.0
 40
0.0
 40
0.0
 40
0.1185969136
 40
0.1797523023
 40
0.2420575031
 40
0.3054178849
 40
0.3697207241
 40
0.4346806545
 40
0.500000004
 40
0.5653193535
 40
0.6302792826
 40
0.6945821205
 40
0.7579425017
 40
0.8202477012
 40
0.8814030888
 40
1.0
 40
1.0
 40
1.0
 40
1.0
 10
3.6032762282
 20
2.3516409145
 30
0.0
 10
3.6049362729
 20
2.352976167
 30
0.0
 10
3.6072943019
 20
2.355210216
 30
0.0
 10
3.6100487569
 20
2.3585797588
 30
0.0
 10
3.6119380173
 20
2.3613592131
 30
0.0
 10
3.6135949843
 20
2.3643478879
 30
0.0
 10
3.6149848161
 20
2.3675222229
 30
0.0
 10
3.6160820206
 20
2.3708465202
 30
0.0
 10
3.6168572595
 20
2.3742791044
 30
0.0
 10
3.6173027861
 20
2.3777698257
 30
0.0
 10
3.6174087278
 20
2.3812689094
 30
0.0
 10
3.6171883995
 20
2.3847271589
 30
0.0
 10
3.6166535468
 20
2.3881023106
 30
0.0
 10
3.6158288522
 20
2.3913603084
 30
0.0
 10
3.6143929626
 20
2.395468722
 30
0.0
 10
3.6129412299
 20
2.3983745346
 30
0.0
 10
3.6118379815
 20
2.4001970303
 30
0.0
  0
SPLINE
  5
308
100
AcDbEntity
  8
ALL_ASSEMBLY_MEMBERS
100
AcDbSpline
 62
7
  6
CONTINUOUS
 70
0
 71
3
 72
19
 73
15
 74
0
 42
0.0000001
 43
0.0000001
 44
0.0000000001
 40
0.0
 40
0.0
 40
0.0
 40
0.0
 40
0.1135840717
 40
0.2358199051
 40
0.2999125379
 40
0.3656373947
 40
0.4325098782
 40
0.4999999952
 40
0.5674901121
 40
0.6343625974
 40
0.700087456
 40
0.7641800895
 40
0.8864159256
 40
1.0
 40
1.0
 40
1.0
 40
1.0
 10
3.6118379815
 20
2.4001970303
 30
0.0
 10
3.6104637765
 20
2.3987801445
 30
0.0
 10
3.6078345983
 20
2.3956139743
 30
0.0
 10
3.6051262015
 20
2.3911379287
 30
0.0
 10
3.6032800528
 20
2.3871621917
 30
0.0
 10
3.6020746996
 20
2.3839602532
 30
0.0
 10
3.6010916735
 20
2.3806217316
 30
0.0
 10
3.6003552248
 20
2.3771888584
 30
0.0
 10
3.5998731483
 20
2.3737111325
 30
0.0
 10
3.5996550491
 20
2.3702377335
 30
0.0
 10
3.599692583
 20
2.3668166404
 30
0.0
 10
3.6000676133
 20
2.3624492496
 30
0.0
 10
3.601081776
 20
2.3573168162
 30
0.0
 10
3.6024695014
 20
2.3534423574
 30
0.0
 10
3.6032762282
 20
2.3516409145
 30
0.0
  0
SPLINE
  5
309
100
AcDbEntity
  8
ALL_ASSEMBLY_MEMBERS
100
AcDbSpline
 62
7
  6
CONTINUOUS
 70
0
 71
3
 72
21
 73
17
 74
0
 42
0.0000001
 43
0.0000001
 44
0.0000000001
 40
0.0
 40
0.0
 40
0.0
 40
0.0
 40
0.1198437812
 40
0.1812672915
 40
0.2436088121
 40
0.306794416
 40
0.3707456224
 40
0.4352267846
 40
0.500000004
 40
0.5647732234
 40
0.6292543842
 40
0.6932055894
 40
0.7563911927
 40
0.818732712
 40
0.8801562212
 40
1.0
 40
1.0
 40
1.0
 40
1.0
 10
3.626538037
 20
2.34753923
 30
0.0
 10
3.6282644316
 20
2.3488559714
 30
0.0
 10
3.6307207079
 20
2.3510661588
 30
0.0
 10
3.6335933356
 20
2.3544224697
 30
0.0
 10
3.6355557353
 20
2.3571893967
 30
0.0
 10
3.637272029
 20
2.3601683934
 30
0.0
 10
3.6387056835
 20
2.3633362526
 30
0.0
 10
3.6398300466
 20
2.3666573153
 30
0.0
 10
3.6406145527
 20
2.3700900526
 30
0.0
 10
3.6410514233
 20
2.3735840874
 30
0.0
 10
3.641130738
 20
2.3770894203
 30
0.0
 10
3.640867015
 20
2.3805565729
 30
0.0
 10
3.6402731034
 20
2.383942921
 30
0.0
 10
3.6393753956
 20
2.3872141621
 30
0.0
 10
3.6378239345
 20
2.3913505591
 30
0.0
 10
3.6362717184
 20
2.3942675519
 30
0.0
 10
3.6350997903
 20
2.3960953458
 30
0.0
  0
SPLINE
  5
30A
100
AcDbEntity
  8
ALL_ASSEMBLY_MEMBERS
100
AcDbSpline
 62
7
  6
CONTINUOUS
 70
0
 71
3
 72
19
 73
15
 74
0
 42
0.0000001
 43
0.0000001
 44
0.0000000001
 40
0.0
 40
0.0
 40
0.0
 40
0.0
 40
0.1120583521
 40
0.2339735838
 40
0.2982877259
 40
0.3644351886
 40
0.431871772
 40
0.4999999951
 40
0.5681282183
 40
0.6355648034
 40
0.701712268
 40
0.7660264108
 40
0.8879416452
 40
1.0
 40
1.0
 40
1.0
 40
1.0
 10
3.6350997903
 20
2.3960953458
 30
0.0
 10
3.6338217607
 20
2.3946506844
 30
0.0
 10
3.6313753423
 20
2.3914321076
 30
0.0
 10
3.628856885
 20
2.3869387609
 30
0.0
 10
3.6271215425
 20
2.3829533152
 30
0.0
 10
3.625976529
 20
2.3797422649
 30
0.0
 10
3.6250307527
 20
2.3763988289
 30
0.0
 10
3.6243069148
 20
2.3729655292
 30
0.0
 10
3.6238128423
 20
2.3694917156
 30
0.0
 10
3.6235580588
 20
2.3660264389
 30
0.0
 10
3.6235357756
 20
2.3626174209
 30
0.0
 10
3.6238033614
 20
2.3582788048
 30
0.0
 10
3.6246331221
 20
2.3531950769
 30
0.0
 10
3.6258311853
 20
2.3493338795
 30
0.0
 10
3.626538037
 20
2.34753923
 30
0.0
  0
SPLINE
  5
30B
100
AcDbEntity
  8
ALL_ASSEMBLY_MEMBERS
100
AcDbSpline
 62
7
  6
CONTINUOUS
 70
0
 71
3
 72
21
 73
17
 74
0
 42
0.0000001
 43
0.0000001
 44
0.0000000001
 40
0.0
 40
0.0
 40
0.0
 40
0.0
 40
0.1209732895
 40
0.1826426064
 40
0.2450198636
 40
0.3080485869
 40
0.3716806123
 40
0.4357254087
 40
0.500000004
 40
0.5642745993
 40
0.6283193942
 40
0.6919514184
 40
0.7549801412
 40
0.8173573971
 40
0.8790267129
 40
1.0
 40
1.0
 40
1.0
 40
1.0
 10
3.6494638817
 20
2.343496785
 30
0.0
 10
3.6512495023
 20
2.3447971904
 30
0.0
 10
3.6537935568
 20
2.3469859381
 30
0.0
 10
3.6567725246
 20
2.3503301701
 30
0.0
 10
3.6588005551
 20
2.3530857892
 30
0.0
 10
3.6605701247
 20
2.3560560575
 30
0.0
 10
3.6620431647
 20
2.3592181021
 30
0.0
 10
3.6631919565
 20
2.3625363003
 30
0.0
 10
3.6639848116
 20
2.3659692454
 30
0.0
 10
3.6644139079
 20
2.3694663311
 30
0.0
 10
3.6644692873
 20
2.3729773273
 30
0.0
 10
3.6641665653
 20
2.3764524866
 30
0.0
 10
3.6635196054
 20
2.3798488541
 30
0.0
 10
3.6625563574
 20
2.3831319163
 30
0.0
 10
3.6609008381
 20
2.3872933334
 30
0.0
 10
3.6592588046
 20
2.3902202013
 30
0.0
 10
3.658025635
 20
2.3920529008
 30
0.0
  0
SPLINE
  5
30C
100
AcDbEntity
  8
ALL_ASSEMBLY_MEMBERS
100
AcDbSpline
 62
7
  6
CONTINUOUS
 70
0
 71
3
 72
17
 73
13
 74
0
 42
0.0000001
 43
0.0000001
 44
0.0000000001
 40
0.0
 40
0.0
 40
0.0
 40
0.0
 40
0.1105687179
 40
0.2321932011
 40
0.3632448637
 40
0.4312409886
 40
0.4999999951
 40
0.5687590017
 40
0.6367551283
 40
0.7678067934
 40
0.8894312794
 40
1.0
 40
1.0
 40
1.0
 40
1.0
 10
3.658025635
 20
2.3920529008
 30
0.0
 10
3.6568499568
 20
2.3905788119
 30
0.0
 10
3.6545974844
 20
2.3873059655
 30
0.0
 10
3.6517558903
 20
2.3817851003
 30
0.0
 10
3.6498613825
 20
2.3766396797
 30
0.0
 10
3.6486673217
 20
2.3722294573
 30
0.0
 10
3.6479565629
 20
2.3687954582
 30
0.0
 10
3.6474499608
 20
2.3653254607
 30
0.0
 10
3.647063626
 20
2.3607728143
 30
0.0
 10
3.6470840435
 20
2.3552897406
 30
0.0
 10
3.6478660213
 20
2.3491299418
 30
0.0
 10
3.6488632736
 20
2.3452840811
 30
0.0
 10
3.6494638817
 20
2.343496785
 30
0.0
  0
SPLINE
  5
30D
100
AcDbEntity
  8
ALL_ASSEMBLY_MEMBERS
100
AcDbSpline
 62
7
  6
CONTINUOUS
 70
0
 71
3
 72
21
 73
17
 74
0
 42
0.0000001
 43
0.0000001
 44
0.0000000001
 40
0.0
 40
0.0
 40
0.0
 40
0.0
 40
0.1219734553
 40
0.1838627321
 40
0.2462738966
 40
0.3091648841
 40
0.3725137876
 40
0.4361700649
 40
0.5000000039
 40
0.563829943
 40
0.627486219
 40
0.6908351212
 40
0.7537261081
 40
0.8161372714
 40
0.8780265471
 40
1.0
 40
1.0
 40
1.0
 40
1.0
 10
3.6719342335
 20
2.3395346557
 30
0.0
 10
3.6737717687
 20
2.340820897
 30
0.0
 10
3.6763927928
 20
2.3429907738
 30
0.0
 10
3.6794655738
 20
2.3463242013
 30
0.0
 10
3.6815513686
 20
2.3490698137
 30
0.0
 10
3.6833678606
 20
2.352032361
 30
0.0
 10
3.6848756167
 20
2.3551892807
 30
0.0
 10
3.686045958
 20
2.3585049849
 30
0.0
 10
3.6868461887
 20
2.3619381678
 30
0.0
 10
3.6872684355
 20
2.3654379995
 30
0.0
 10
3.687302712
 20
2.3689540225
 30
0.0
 10
3.6869656148
 20
2.3724362396
 30
0.0
 10
3.6862719216
 20
2.3758414002
 30
0.0
 10
3.6852509702
 20
2.3791348157
 30
0.0
 10
3.6835036
 20
2.3833181658
 30
0.0
 10
3.6817827846
 20
2.386253626
 30
0.0
 10
3.6804959867
 20
2.3880907715
 30
0.0
  0
SPLINE
  5
30E
100
AcDbEntity
  8
ALL_ASSEMBLY_MEMBERS
100
AcDbSpline
 62
7
  6
CONTINUOUS
 70
0
 71
3
 72
15
 73
11
 74
0
 42
0.0000001
 43
0.0000001
 44
0.0000000001
 40
0.0
 40
0.0
 40
0.0
 40
0.0
 40
0.1091360819
 40
0.2304855206
 40
0.3621684472
 40
0.499999995
 40
0.6378315446
 40
0.7695144739
 40
0.8908639154
 40
1.0
 40
1.0
 40
1.0
 40
1.0
 10
3.6804959867
 20
2.3880907715
 30
0.0
 10
3.679428663
 20
2.3865859393
 30
0.0
 10
3.6773806096
 20
2.3832584997
 30
0.0
 10
3.6747814129
 20
2.377702313
 30
0.0
 10
3.6726377009
 20
2.3714389965
 30
0.0
 10
3.6710925643
 20
2.3647159569
 30
0.0
 10
3.6702451028
 20
2.3578698982
 30
0.0
 10
3.6701173526
 20
2.3512511131
 30
0.0
 10
3.6706594708
 20
2.3451410277
 30
0.0
 10
3.6714459602
 20
2.3413137817
 30
0.0
 10
3.6719342335
 20
2.3395346557
 30
0.0
  0
SPLINE
  5
30F
100
AcDbEntity
  8
ALL_ASSEMBLY_MEMBERS
100
AcDbSpline
 62
7
  6
CONTINUOUS
 70
0
 71
3
 72
21
 73
17
 74
0
 42
0.0000001
 43
0.0000001
 44
0.0000000001
 40
0.0
 40
0.0
 40
0.0
 40
0.0
 40
0.122835128
 40
0.1849156286
 40
0.2473577185
 40
0.3101309526
 40
0.3732355826
 40
0.4365555335
 40
0.5000000039
 40
0.5634444743
 40
0.6267644239
 40
0.6898690527
 40
0.7526422862
 40
0.8150843749
 40
0.8771648744
 40
1.0
 40
1.0
 40
1.0
 40
1.0
 10
3.6938319384
 20
2.3356734995
 30
0.0
 10
3.6957138989
 20
2.33694774
 30
0.0
 10
3.6984007891
 20
2.3391014297
 30
0.0
 10
3.7015542548
 20
2.3424254463
 30
0.0
 10
3.7036896357
 20
2.3451624271
 30
0.0
 10
3.7055464313
 20
2.348118315
 30
0.0
 10
3.7070840281
 20
2.3512708272
 30
0.0
 10
3.7082729064
 20
2.3545844093
 30
0.0
 10
3.7090794898
 20
2.358017837
 30
0.0
 10
3.7094958507
 20
2.3615200714
 30
0.0
 10
3.7095119824
 20
2.3650404403
 30
0.0
 10
3.7091453366
 20
2.3685287218
 30
0.0
 10
3.7084114927
 20
2.3719414093
 30
0.0
 10
3.7073409935
 20
2.3752436731
 30
0.0
 10
3.7055145858
 20
2.3794457758
 30
0.0
 10
3.7037263401
 20
2.3823885526
 30
0.0
 10
3.7023936917
 20
2.3842296153
 30
0.0
  0
SPLINE
  5
310
100
AcDbEntity
  8
ALL_ASSEMBLY_MEMBERS
100
AcDbSpline
 62
7
  6
CONTINUOUS
 70
0
 71
3
 72
19
 73
15
 74
0
 42
0.0000001
 43
0.0000001
 44
0.0000000001
 40
0.0
 40
0.0
 40
0.0
 40
0.0
 40
0.0521893504
 40
0.1078192178
 40
0.1667976848
 40
0.2289262946
 40
0.3611595489
 40
0.499999995
 40
0.6388404429
 40
0.7710737
 40
0.8332023113
 40
0.8921807795
 40
0.9478106486
 40
1.0
 40
1.0
 40
1.0
 40
1.0
 10
3.7023936917
 20
2.3842296153
 30
0.0
 10
3.701932146
 20
2.3834856602
 30
0.0
 10
3.7010223867
 20
2.381921209
 30
0.0
 10
3.6997431051
 20
2.3794314093
 30
0.0
 10
3.6985212441
 20
2.376728695
 30
0.0
 10
3.6969578409
 20
2.3727753612
 30
0.0
 10
3.6952727518
 20
2.367436977
 30
0.0
 10
3.6937843679
 20
2.3607147796
 30
0.0
 10
3.6928838643
 20
2.353888923
 30
0.0
 10
3.6926414951
 20
2.3482961484
 30
0.0
 10
3.6927584938
 20
2.3440465143
 30
0.0
 10
3.6929822848
 20
2.3410888924
 30
0.0
 10
3.6933328547
 20
2.3383117059
 30
0.0
 10
3.6936526749
 20
2.3365304466
 30
0.0
 10
3.6938319384
 20
2.3356734995
 30
0.0
  0
SPLINE
  5
311
100
AcDbEntity
  8
ALL_ASSEMBLY_MEMBERS
100
AcDbSpline
 62
7
  6
CONTINUOUS
 70
0
 71
3
 72
21
 73
17
 74
0
 42
0.0000001
 43
0.0000001
 44
0.0000000001
 40
0.0
 40
0.0
 40
0.0
 40
0.0
 40
0.1235514664
 40
0.185792144
 40
0.2482611557
 40
0.310937152
 40
0.3738384677
 40
0.4368776827
 40
0.5000000039
 40
0.5631223251
 40
0.6261615388
 40
0.6890628533
 40
0.7517388491
 40
0.8142078595
 40
0.876448536
 40
1.0
 40
1.0
 40
1.0
 40
1.0
 10
3.7150428283
 20
2.3319334473
 30
0.0
 10
3.7169615623
 20
2.3331978396
 30
0.0
 10
3.7197029642
 20
2.335338114
 30
0.0
 10
3.7229234772
 20
2.338654224
 30
0.0
 10
3.7251000003
 20
2.3413840133
 30
0.0
 10
3.7269902537
 20
2.3443343522
 30
0.0
 10
3.7285526387
 20
2.3474832
 30
0.0
 10
3.7297569255
 20
2.3507950334
 30
0.0
 10
3.7305687956
 20
2.3542286926
 30
0.0
 10
3.7309802678
 20
2.3577329526
 30
0.0
 10
3.7309813221
 20
2.3612569484
 30
0.0
 10
3.7305901298
 20
2.3647502645
 30
0.0
 10
3.7298229479
 20
2.3681691808
 30
0.0
 10
3.7287113281
 20
2.3714787584
 30
0.0
 10
3.7268192123
 20
2.3756963627
 30
0.0
 10
3.7249751541
 20
2.3786451774
 30
0.0
 10
3.7236045816
 20
2.3804895631
 30
0.0
  0
SPLINE
  5
312
100
AcDbEntity
  8
ALL_ASSEMBLY_MEMBERS
100
AcDbSpline
 62
7
  6
CONTINUOUS
 70
0
 71
3
 72
19
 73
15
 74
0
 42
0.0000001
 43
0.0000001
 44
0.0000000001
 40
0.0
 40
0.0
 40
0.0
 40
0.0
 40
0.0514627963
 40
0.1066284227
 40
0.165384584
 40
0.227506321
 40
0.3602495576
 40
0.4999999949
 40
0.6397504342
 40
0.7724936736
 40
0.8346154122
 40
0.8933715746
 40
0.9485372028
 40
1.0
 40
1.0
 40
1.0
 40
1.0
 10
3.7236045816
 20
2.3804895631
 30
0.0
 10
3.7232021522
 20
2.3797324684
 30
0.0
 10
3.7224064963
 20
2.3781432955
 30
0.0
 10
3.7212815789
 20
2.3756271168
 30
0.0
 10
3.7201966665
 20
2.3729012362
 30
0.0
 10
3.7187905136
 20
2.3689155953
 30
0.0
 10
3.7172426489
 20
2.3635540362
 30
0.0
 10
3.7158118346
 20
2.356830743
 30
0.0
 10
3.7148568585
 20
2.3500235465
 30
0.0
 10
3.7144776143
 20
2.344455928
 30
0.0
 10
3.7144357963
 20
2.340229718
 30
0.0
 10
3.7145229744
 20
2.3372971661
 30
0.0
 10
3.7147194672
 20
2.3345479871
 30
0.0
 10
3.71492361
 20
2.3327825226
 30
0.0
 10
3.7150428283
 20
2.3319334473
 30
0.0
  0
SPLINE
  5
313
100
AcDbEntity
  8
ALL_ASSEMBLY_MEMBERS
100
AcDbSpline
 62
7
  6
CONTINUOUS
 70
0
 71
3
 72
23
 73
19
 74
0
 42
0.0000001
 43
0.0000001
 44
0.0000000001
 40
0.0
 40
0.0
 40
0.0
 40
0.0
 40
0.0619977061
 40
0.1242032044
 40
0.1865569941
 40
0.2490338081
 40
0.3116191231
 40
0.3743453311
 40
0.4371476647
 40
0.5000000039
 40
0.5628523431
 40
0.6256546753
 40
0.6883808821
 40
0.7509661967
 40
0.8134430095
 40
0.875796798
 40
0.9380022947
 40
1.0
 40
1.0
 40
1.0
 40
1.0
 10
3.7354563156
 20
2.3283339988
 30
0.0
 10
3.7364294372
 20
2.3289618671
 30
0.0
 10
3.7383294872
 20
2.3302986075
 30
0.0
 10
3.7410014196
 20
2.3325425798
 30
0.0
 10
3.7434620986
 20
2.3350303601
 30
0.0
 10
3.7456708341
 20
2.3377542318
 30
0.0
 10
3.747587584
 20
2.3407002335
 30
0.0
 10
3.7491695376
 20
2.3438461669
 30
0.0
 10
3.7503860127
 20
2.3471566313
 30
0.0
 10
3.751202065
 20
2.3505904905
 30
0.0
 10
3.7516096756
 20
2.3540963689
 30
0.0
 10
3.7515988085
 20
2.3576232468
 30
0.0
 10
3.7511882308
 20
2.3611205172
 30
0.0
 10
3.750394667
 20
2.3645444203
 30
0.0
 10
3.7492507536
 20
2.3678594543
 30
0.0
 10
3.7477893426
 20
2.3710388048
 30
0.0
 10
3.7460460312
 20
2.3740613037
 30
0.0
 10
3.7447177605
 20
2.3759672841
 30
0.0
 10
3.7440180689
 20
2.3768901145
 30
0.0
  0
SPLINE
  5
314
100
AcDbEntity
  8
ALL_ASSEMBLY_MEMBERS
100
AcDbSpline
 62
7
  6
CONTINUOUS
 70
0
 71
3
 72
17
 73
13
 74
0
 42
0.0000001
 43
0.0000001
 44
0.0000000001
 40
0.0
 40
0.0
 40
0.0
 40
0.0
 40
0.0508569536
 40
0.1056389191
 40
0.2263199332
 40
0.3594921208
 40
0.4999999949
 40
0.6405078709
 40
0.7736800613
 40
0.8943610782
 40
0.9491430455
 40
1.0
 40
1.0
 40
1.0
 40
1.0
 10
3.7440180689
 20
2.3768901145
 30
0.0
 10
3.7436766522
 20
2.3761198728
 30
0.0
 10
3.7429984312
 20
2.3745060795
 30
0.0
 10
3.7416653597
 20
2.371001131
 30
0.0
 10
3.740086728
 20
2.3661341536
 30
0.0
 10
3.7384327351
 20
2.3598104737
 30
0.0
 10
3.7370601705
 20
2.353084088
 30
0.0
 10
3.7360493999
 20
2.3462939082
 30
0.0
 10
3.7354408189
 20
2.339785894
 30
0.0
 10
3.7352596431
 20
2.3346725073
 30
0.0
 10
3.7353135576
 20
2.3309229956
 30
0.0
 10
3.7353989271
 20
2.3291745606
 30
0.0
 10
3.7354563156
 20
2.3283339988
 30
0.0
  0
SPLINE
  5
315
100
AcDbEntity
  8
ALL_ASSEMBLY_MEMBERS
100
AcDbSpline
 62
7
  6
CONTINUOUS
 70
0
 71
3
 72
23
 73
19
 74
0
 42
0.0000001
 43
0.0000001
 44
0.0000000001
 40
0.0
 40
0.0
 40
0.0
 40
0.0
 40
0.0622404959
 40
0.1246157846
 40
0.1870626274
 40
0.2495558518
 40
0.3120856989
 40
0.3746946731
 40
0.4373344842
 40
0.5000000039
 40
0.5626655235
 40
0.6253053333
 40
0.6879143063
 40
0.750444153
 40
0.8129373762
 40
0.8753842178
 40
0.937759505
 40
1.0
 40
1.0
 40
1.0
 40
1.0
 10
3.7549659704
 20
2.3248939202
 30
0.0
 10
3.7559502055
 20
2.3255193761
 30
0.0
 10
3.7578716805
 20
2.3268512483
 30
0.0
 10
3.760574464
 20
2.3290895789
 30
0.0
 10
3.7630626619
 20
2.3315723894
 30
0.0
 10
3.7652950443
 20
2.3342921041
 30
0.0
 10
3.7672310378
 20
2.3372348955
 30
0.0
 10
3.7688272628
 20
2.3403787154
 30
0.0
 10
3.7700526179
 20
2.3436881838
 30
0.0
 10
3.770871722
 20
2.3471221993
 30
0.0
 10
3.7712765183
 20
2.3506292683
 30
0.0
 10
3.771256966
 20
2.3541582474
 30
0.0
 10
3.7708322548
 20
2.3576584128
 30
0.0
 10
3.7700195099
 20
2.3610858809
 30
0.0
 10
3.7688519539
 20
2.3644050964
 30
0.0
 10
3.7673629839
 20
2.3675891889
 30
0.0
 10
3.7655887524
 20
2.370616938
 30
0.0
 10
3.7642386836
 20
2.3725256716
 30
0.0
 10
3.7635277237
 20
2.373450036
 30
0.0
  0
SPLINE
  5
316
100
AcDbEntity
  8
ALL_ASSEMBLY_MEMBERS
100
AcDbSpline
 62
7
  6
CONTINUOUS
 70
0
 71
3
 72
15
 73
11
 74
0
 42
0.0000001
 43
0.0000001
 44
0.0000000001
 40
0.0
 40
0.0
 40
0.0
 40
0.0
 40
0.1048776009
 40
0.225427817
 40
0.3589229514
 40
0.4999999949
 40
0.6410770402
 40
0.7745721775
 40
0.8951223964
 40
1.0
 40
1.0
 40
1.0
 40
1.0
 10
3.7635277237
 20
2.373450036
 30
0.0
 10
3.762947427
 20
2.3718201603
 30
0.0
 10
3.7617981398
 20
2.3682816542
 30
0.0
 10
3.7602193433
 20
2.3625734849
 30
0.0
 10
3.7587326218
 20
2.3562255289
 30
0.0
 10
3.757418511
 20
2.3494943633
 30
0.0
 10
3.756351177
 20
2.3427196843
 30
0.0
 10
3.7555771094
 20
2.336246068
 30
0.0
 10
3.7551083839
 20
2.3303421632
 30
0.0
 10
3.7549781203
 20
2.3266239757
 30
0.0
 10
3.7549659704
 20
2.3248939202
 30
0.0
  0
SPLINE
  5
317
100
AcDbEntity
  8
ALL_ASSEMBLY_MEMBERS
100
AcDbSpline
 62
7
  6
CONTINUOUS
 70
0
 71
3
 72
23
 73
19
 74
0
 42
0.0000001
 43
0.0000001
 44
0.0000000001
 40
0.0
 40
0.0
 40
0.0
 40
0.0
 40
0.0623912075
 40
0.1248720475
 40
0.1873768746
 40
0.2498804803
 40
0.3123759788
 40
0.3749121007
 40
0.4374507884
 40
0.5000000039
 40
0.5625492193
 40
0.6250879057
 40
0.6876240265
 40
0.7501195244
 40
0.812623129
 40
0.8751279549
 40
0.9376087933
 40
1.0
 40
1.0
 40
1.0
 40
1.0
 10
3.7734700749
 20
2.3216311474
 30
0.0
 10
3.7744612109
 20
2.3222551086
 30
0.0
 10
3.7763959869
 20
2.3235839637
 30
0.0
 10
3.7791179307
 20
2.3258187875
 30
0.0
 10
3.7816232203
 20
2.328298507
 30
0.0
 10
3.7838702913
 20
2.331015635
 30
0.0
 10
3.7858182409
 20
2.3339564284
 30
0.0
 10
3.7874233353
 20
2.3370989338
 30
0.0
 10
3.7886542111
 20
2.3404077851
 30
0.0
 10
3.7894752133
 20
2.3438419018
 30
0.0
 10
3.7898782606
 20
2.3473497152
 30
0.0
 10
3.7898533095
 20
2.3508800026
 30
0.0
 10
3.7894198142
 20
2.3543819663
 30
0.0
 10
3.7885951509
 20
2.3578116461
 30
0.0
 10
3.7874129073
 20
2.3611334547
 30
0.0
 10
3.7859068192
 20
2.3643204883
 30
0.0
 10
3.7841133835
 20
2.3673514952
 30
0.0
 10
3.7827497841
 20
2.3692619429
 30
0.0
 10
3.7820318282
 20
2.3701872631
 30
0.0
  0
SPLINE
  5
318
100
AcDbEntity
  8
ALL_ASSEMBLY_MEMBERS
100
AcDbSpline
 62
7
  6
CONTINUOUS
 70
0
 71
3
 72
15
 73
11
 74
0
 42
0.0000001
 43
0.0000001
 44
0.0000000001
 40
0.0
 40
0.0
 40
0.0
 40
0.0
 40
0.1043988266
 40
0.224864317
 40
0.3585632301
 40
0.4999999949
 40
0.6414367615
 40
0.7751356776
 40
0.8956011707
 40
1.0
 40
1.0
 40
1.0
 40
1.0
 10
3.7820318282
 20
2.3701872631
 30
0.0
 10
3.7815835961
 20
2.368529173
 30
0.0
 10
3.7806723296
 20
2.364943095
 30
0.0
 10
3.7793550106
 20
2.3591923926
 30
0.0
 10
3.7780363451
 20
2.3528183258
 30
0.0
 10
3.776780799
 20
2.3460802695
 30
0.0
 10
3.7756560754
 20
2.3393191457
 30
0.0
 10
3.7747151564
 20
2.3328784718
 30
0.0
 10
3.7739861752
 20
2.3270240295
 30
0.0
 10
3.7736159747
 20
2.3233425469
 30
0.0
 10
3.7734700749
 20
2.3216311474
 30
0.0
  0
SPLINE
  5
319
100
AcDbEntity
  8
ALL_ASSEMBLY_MEMBERS
100
AcDbSpline
 62
7
  6
CONTINUOUS
 70
0
 71
3
 72
23
 73
19
 74
0
 42
0.0000001
 43
0.0000001
 44
0.0000000001
 40
0.0
 40
0.0
 40
0.0
 40
0.0
 40
0.0624491906
 40
0.1249706704
 40
0.1874978509
 40
0.2500054905
 40
0.312487791
 40
0.3749958686
 40
0.4374956027
 40
0.5000000039
 40
0.562504405
 40
0.6250041378
 40
0.6875122142
 40
0.7499945143
 40
0.8125021526
 40
0.875029332
 40
0.9375508102
 40
1.0
 40
1.0
 40
1.0
 40
1.0
 10
3.7908721541
 20
2.3185626913
 30
0.0
 10
3.7918659458
 20
2.319186078
 30
0.0
 10
3.7938058396
 20
2.3205137734
 30
0.0
 10
3.7965351573
 20
2.3227472469
 30
0.0
 10
3.7990470248
 20
2.3252257759
 30
0.0
 10
3.8012997494
 20
2.3279419074
 30
0.0
 10
3.8032523013
 20
2.330881931
 30
0.0
 10
3.8048608104
 20
2.3340239301
 30
0.0
 10
3.8060938119
 20
2.3373325442
 30
0.0
 10
3.8069155452
 20
2.3407667007
 30
0.0
 10
3.8073179191
 20
2.3442748016
 30
0.0
 10
3.8072908894
 20
2.3478055932
 30
0.0
 10
3.8068540121
 20
2.351308249
 30
0.0
 10
3.8060247608
 20
2.3547387795
 30
0.0
 10
3.8048368638
 20
2.3580615853
 30
0.0
 10
3.8033241873
 20
2.3612497499
 30
0.0
 10
3.8015233606
 20
2.3642820101
 30
0.0
 10
3.8001545553
 20
2.3661931183
 30
0.0
 10
3.7994339074
 20
2.3671188071
 30
0.0
  0
SPLINE
  5
31A
100
AcDbEntity
  8
ALL_ASSEMBLY_MEMBERS
100
AcDbSpline
 62
7
  6
CONTINUOUS
 70
0
 71
3
 72
23
 73
19
 74
0
 42
0.0000001
 43
0.0000001
 44
0.0000000001
 40
0.0
 40
0.0
 40
0.0
 40
0.0
 40
0.0624142062
 40
0.1249111636
 40
0.1874248541
 40
0.2499300572
 40
0.3124203196
 40
0.374945319
 40
0.4374685592
 40
0.5000000039
 40
0.5625314485
 40
0.6250546874
 40
0.6875796856
 40
0.7500699476
 40
0.8125751495
 40
0.8750888388
 40
0.9375857946
 40
1.0
 40
1.0
 40
1.0
 40
1.0
 10
3.8070814786
 20
2.31570455
 30
0.0
 10
3.8080736679
 20
2.3163282834
 30
0.0
 10
3.8100104738
 20
2.3176566784
 30
0.0
 10
3.8127353422
 20
2.3198909667
 30
0.0
 10
3.8152432408
 20
2.3223702141
 30
0.0
 10
3.8174925541
 20
2.3250869469
 30
0.0
 10
3.819442329
 20
2.328027435
 30
0.0
 10
3.8210487777
 20
2.3311697397
 30
0.0
 10
3.8222804965
 20
2.3344784968
 30
0.0
 10
3.8231017886
 20
2.3379126293
 30
0.0
 10
3.8235045689
 20
2.3414205567
 30
0.0
 10
3.8234787934
 20
2.344951044
 30
0.0
 10
3.8230439568
 20
2.3484532822
 30
0.0
 10
3.8222174739
 20
2.3518832994
 30
0.0
 10
3.8210329881
 20
2.3552055036
 30
0.0
 10
3.8195242869
 20
2.3583929858
 30
0.0
 10
3.8177279198
 20
2.3614244899
 30
0.0
 10
3.8163622555
 20
2.3633351995
 30
0.0
 10
3.8156432319
 20
2.3642606658
 30
0.0
  0
SPLINE
  5
31B
100
AcDbEntity
  8
ALL_ASSEMBLY_MEMBERS
100
AcDbSpline
 62
7
  6
CONTINUOUS
 70
0
 71
3
 72
19
 73
15
 74
0
 42
0.0000001
 43
0.0000001
 44
0.0000000001
 40
0.0
 40
0.0
 40
0.0
 40
0.0
 40
0.1169221082
 40
0.2398960166
 40
0.3035112352
 40
0.3683064673
 40
0.4339286662
 40
0.5000000047
 40
0.5660713432
 40
0.6316935404
 40
0.6964887708
 40
0.7601039888
 40
0.8830778946
 40
1.0
 40
1.0
 40
1.0
 40
1.0
 10
3.2358491241
 20
2.4164282264
 30
0.0
 10
3.2348419379
 20
2.4182436301
 30
0.0
 10
3.2330720437
 20
2.4221412373
 30
0.0
 10
3.2316742725
 20
2.4273737585
 30
0.0
 10
3.2310772814
 20
2.4318020641
 30
0.0
 10
3.2309169484
 20
2.4352481644
 30
0.0
 10
3.2310597529
 20
2.4387386557
 30
0.0
 10
3.2315172639
 20
2.4422249424
 30
0.0
 10
3.2322797245
 20
2.4456574583
 30
0.0
 10
3.2333393504
 20
2.4489862891
 30
0.0
 10
3.2346686501
 20
2.4521697269
 30
0.0
 10
3.2367442078
 20
2.45612679
 30
0.0
 10
3.2398473107
 20
2.4605656855
 30
0.0
 10
3.2428435274
 20
2.4636228987
 30
0.0
 10
3.2444108774
 20
2.4649843422
 30
0.0
  0
SPLINE
  5
31C
100
AcDbEntity
  8
ALL_ASSEMBLY_MEMBERS
100
AcDbSpline
 62
7
  6
CONTINUOUS
 70
0
 71
3
 72
23
 73
19
 74
0
 42
0.0000001
 43
0.0000001
 44
0.0000000001
 40
0.0
 40
0.0
 40
0.0
 40
0.0
 40
0.0622863977
 40
0.1246938215
 40
0.1871583063
 40
0.2496546767
 40
0.3121740556
 40
0.3747608478
 40
0.4373698793
 40
0.5000000039
 40
0.5626301284
 40
0.6252391586
 40
0.6878259496
 40
0.750345328
 40
0.8128416972
 40
0.875306181
 40
0.9377136031
 40
1.0
 40
1.0
 40
1.0
 40
1.0
 10
3.8220135377
 20
2.3130716251
 30
0.0
 10
3.8229998743
 20
2.3136966255
 30
0.0
 10
3.8249254002
 20
2.3150275785
 30
0.0
 10
3.8276340184
 20
2.3172648414
 30
0.0
 10
3.830127421
 20
2.319746711
 30
0.0
 10
3.8323642762
 20
2.3224656384
 30
0.0
 10
3.8343039102
 20
2.3254078218
 30
0.0
 10
3.8359028356
 20
2.3285512415
 30
0.0
 10
3.8371298715
 20
2.3318605218
 30
0.0
 10
3.8379495533
 20
2.3352945678
 30
0.0
 10
3.8383538171
 20
2.3388018631
 30
0.0
 10
3.8383326212
 20
2.3423312404
 30
0.0
 10
3.8379052355
 20
2.3458319533
 30
0.0
 10
3.8370888617
 20
2.3492600952
 30
0.0
 10
3.8359168334
 20
2.3525801006
 30
0.0
 10
3.8344226508
 20
2.355765089
 30
0.0
 10
3.8326425712
 20
2.3587938304
 30
0.0
 10
3.8312883815
 20
2.3607030857
 30
0.0
 10
3.830575291
 20
2.3616277409
 30
0.0
  0
SPLINE
  5
31D
100
AcDbEntity
  8
ALL_ASSEMBLY_MEMBERS
100
AcDbSpline
 62
7
  6
CONTINUOUS
 70
0
 71
3
 72
21
 73
17
 74
0
 42
0.0000001
 43
0.0000001
 44
0.0000000001
 40
0.0
 40
0.0
 40
0.0
 40
0.0
 40
0.1226328026
 40
0.1846682607
 40
0.2471029473
 40
0.3099037543
 40
0.3730657701
 40
0.4364648257
 40
0.5000000046
 40
0.5635351834
 40
0.6269342374
 40
0.6900962516
 40
0.752897058
 40
0.8153317433
 40
0.8773672001
 40
1.0
 40
1.0
 40
1.0
 40
1.0
 10
3.261060688
 20
2.4119827474
 30
0.0
 10
3.2597387805
 20
2.4138228827
 30
0.0
 10
3.2579663362
 20
2.4167639476
 30
0.0
 10
3.2561584842
 20
2.4209616581
 30
0.0
 10
3.255099609
 20
2.4242618497
 30
0.0
 10
3.2543751863
 20
2.4276727735
 30
0.0
 10
3.2540154755
 20
2.4311596321
 30
0.0
 10
3.2540358661
 20
2.4346789791
 30
0.0
 10
3.2544536083
 20
2.4381806461
 30
0.0
 10
3.2552586997
 20
2.4416140129
 30
0.0
 10
3.2564432264
 20
2.4449280912
 30
0.0
 10
3.2579738199
 20
2.448081638
 30
0.0
 10
3.2598211592
 20
2.4510390908
 30
0.0
 10
3.2619449084
 20
2.4537780998
 30
0.0
 10
3.265079435
 20
2.4571043355
 30
0.0
 10
3.2677508913
 20
2.4592618207
 30
0.0
 10
3.2696224413
 20
2.4605388632
 30
0.0
  0
SPLINE
  5
31E
100
AcDbEntity
  8
ALL_ASSEMBLY_MEMBERS
100
AcDbSpline
 62
7
  6
CONTINUOUS
 70
0
 71
3
 72
23
 73
19
 74
0
 42
0.0000001
 43
0.0000001
 44
0.0000000001
 40
0.0
 40
0.0
 40
0.0
 40
0.0
 40
0.0620663084
 40
0.1243197514
 40
0.1866997893
 40
0.249181201
 40
0.3117508266
 40
0.3744439252
 40
0.4372003845
 40
0.5000000039
 40
0.5627996232
 40
0.6255560812
 40
0.6882491787
 40
0.7508188037
 40
0.8133002143
 40
0.875680251
 40
0.9379336924
 40
1.0
 40
1.0
 40
1.0
 40
1.0
 10
3.8355904799
 20
2.3106776439
 30
0.0
 10
3.8365667413
 20
2.31130483
 30
0.0
 10
3.8384728451
 20
2.3126401938
 30
0.0
 10
3.8411534932
 20
2.3148825729
 30
0.0
 10
3.8436219463
 20
2.3173689501
 30
0.0
 10
3.8458373616
 20
2.3200916484
 30
0.0
 10
3.8477595471
 20
2.323036744
 30
0.0
 10
3.8493455312
 20
2.3261820807
 30
0.0
 10
3.8505645139
 20
2.3294922634
 30
0.0
 10
3.8513814277
 20
2.3329261659
 30
0.0
 10
3.8517882436
 20
2.3364323797
 30
0.0
 10
3.8517749238
 20
2.3399598506
 30
0.0
 10
3.8513603545
 20
2.3434579387
 30
0.0
 10
3.8505613731
 20
2.3468828494
 30
0.0
 10
3.8494107813
 20
2.3501990655
 30
0.0
 10
3.8479415853
 20
2.3533797564
 30
0.0
 10
3.8461895389
 20
2.3564037391
 30
0.0
 10
3.8448551086
 20
2.3583104965
 30
0.0
 10
3.8441522332
 20
2.3592337597
 30
0.0
  0
SPLINE
  5
31F
100
AcDbEntity
  8
ALL_ASSEMBLY_MEMBERS
100
AcDbSpline
 62
7
  6
CONTINUOUS
 70
0
 71
3
 72
21
 73
17
 74
0
 42
0.0000001
 43
0.0000001
 44
0.0000000001
 40
0.0
 40
0.0
 40
0.0
 40
0.0
 40
0.1195420859
 40
0.1809004099
 40
0.243232843
 40
0.3064605852
 40
0.3704969434
 40
0.4350942313
 40
0.5000000047
 40
0.5649057779
 40
0.6295030642
 40
0.6935394209
 40
0.7567671624
 40
0.8190995941
 40
0.8804579169
 40
1.0
 40
1.0
 40
1.0
 40
1.0
 10
3.2409456421
 20
2.4155295727
 30
0.0
 10
3.2397902178
 20
2.4173560746
 30
0.0
 10
3.2382621738
 20
2.420270392
 30
0.0
 10
3.236738596
 20
2.4244000556
 30
0.0
 10
3.235858482
 20
2.4276681126
 30
0.0
 10
3.2352788051
 20
2.4310517659
 30
0.0
 10
3.2350255436
 20
2.4345167715
 30
0.0
 10
3.2351112778
 20
2.4380205927
 30
0.0
 10
3.2355502346
 20
2.4415138209
 30
0.0
 10
3.2363325046
 20
2.4449465136
 30
0.0
 10
3.2374503182
 20
2.4482683513
 30
0.0
 10
3.2388734079
 20
2.4514377708
 30
0.0
 10
3.2405754036
 20
2.4544191037
 30
0.0
 10
3.2425201816
 20
2.4571890559
 30
0.0
 10
3.2453643044
 20
2.460548576
 30
0.0
 10
3.2477969513
 20
2.4627645167
 30
0.0
 10
3.2495073954
 20
2.4640856885
 30
0.0
  0
SPLINE
  5
320
100
AcDbEntity
  8
ALL_ASSEMBLY_MEMBERS
100
AcDbSpline
 62
7
  6
CONTINUOUS
 70
0
 71
3
 72
21
 73
17
 74
0
 42
0.0000001
 43
0.0000001
 44
0.0000000001
 40
0.0
 40
0.0
 40
0.0
 40
0.0
 40
0.1237056896
 40
0.185980995
 40
0.2484559472
 40
0.3111110876
 40
0.3739686031
 40
0.4369472422
 40
0.5000000039
 40
0.5630527656
 40
0.6260314034
 40
0.6888889176
 40
0.7515440575
 40
0.8140190085
 40
0.8762943128
 40
1.0
 40
1.0
 40
1.0
 40
1.0
 10
3.8477415189
 20
2.3085350879
 30
0.0
 10
3.8496681551
 20
2.3097973741
 30
0.0
 10
3.8524212691
 20
2.3119347646
 30
0.0
 10
3.8556562186
 20
2.3152491616
 30
0.0
 10
3.8578415933
 20
2.3179774002
 30
0.0
 10
3.8597390471
 20
2.3209265423
 30
0.0
 10
3.8613067686
 20
2.3240746008
 30
0.0
 10
3.862514374
 20
2.3273860594
 30
0.0
 10
3.8633273833
 20
2.3308197716
 30
0.0
 10
3.8637378031
 20
2.3343244713
 30
0.0
 10
3.8637356109
 20
2.3378492498
 30
0.0
 10
3.8633391338
 20
2.3413436493
 30
0.0
 10
3.8625647765
 20
2.3447639038
 30
0.0
 10
3.8614443085
 20
2.3480750516
 30
0.0
 10
3.8595380409
 20
2.3522959838
 30
0.0
 10
3.8576819907
 20
2.3552460943
 30
0.0
 10
3.8563032722
 20
2.3570912037
 30
0.0
  0
SPLINE
  5
321
100
AcDbEntity
  8
ALL_ASSEMBLY_MEMBERS
100
AcDbSpline
 62
7
  6
CONTINUOUS
 70
0
 71
3
 72
21
 73
17
 74
0
 42
0.0000001
 43
0.0000001
 44
0.0000000001
 40
0.0
 40
0.0
 40
0.0
 40
0.0
 40
0.1233860607
 40
0.1855896564
 40
0.2480523547
 40
0.3107507508
 40
0.3736990318
 40
0.4368031614
 40
0.5000000045
 40
0.5631968477
 40
0.6263009757
 40
0.6892492552
 40
0.7519476506
 40
0.8144103477
 40
0.8766139421
 40
1.0
 40
1.0
 40
1.0
 40
1.0
 10
3.2709598626
 20
2.4102372559
 30
0.0
 10
3.2695980336
 20
2.4120808687
 30
0.0
 10
3.2677668458
 20
2.4150282923
 30
0.0
 10
3.2658899051
 20
2.4192423238
 30
0.0
 10
3.2647877765
 20
2.4225502158
 30
0.0
 10
3.2640282907
 20
2.425967696
 30
0.0
 10
3.2636427662
 20
2.4294598501
 30
0.0
 10
3.263647302
 20
2.4329830072
 30
0.0
 10
3.264059903
 20
2.4364867971
 30
0.0
 10
3.2648705517
 20
2.4399204005
 30
0.0
 10
3.26607128
 20
2.4432326365
 30
0.0
 10
3.2676279418
 20
2.4463823306
 30
0.0
 10
3.2695104719
 20
2.4493339521
 30
0.0
 10
3.2716774998
 20
2.4520654035
 30
0.0
 10
3.2748825306
 20
2.4553833463
 30
0.0
 10
3.2776113625
 20
2.4575267152
 30
0.0
 10
3.2795216159
 20
2.4587933717
 30
0.0
  0
SPLINE
  5
322
100
AcDbEntity
  8
ALL_ASSEMBLY_MEMBERS
100
AcDbSpline
 62
7
  6
CONTINUOUS
 70
0
 71
3
 72
21
 73
17
 74
0
 42
0.0000001
 43
0.0000001
 44
0.0000000001
 40
0.0
 40
0.0
 40
0.0
 40
0.0
 40
0.1230261488
 40
0.1851492558
 40
0.2475984169
 40
0.3103456627
 40
0.3733960975
 40
0.4366412875
 40
0.5000000039
 40
0.5633587203
 40
0.626603909
 40
0.6896543426
 40
0.7524015879
 40
0.8148507478
 40
0.8769738536
 40
1.0
 40
1.0
 40
1.0
 40
1.0
 10
3.8584033029
 20
2.3066551277
 30
0.0
 10
3.8602950817
 20
2.3079267311
 30
0.0
 10
3.8629965276
 20
2.31007684
 30
0.0
 10
3.8661678725
 20
2.313398756
 30
0.0
 10
3.86831423
 20
2.3161338208
 30
0.0
 10
3.8701799506
 20
2.3190882304
 30
0.0
 10
3.8717241582
 20
2.3222397656
 30
0.0
 10
3.8729171449
 20
2.3255528801
 30
0.0
 10
3.8737251374
 20
2.3289863671
 30
0.0
 10
3.8741401944
 20
2.3324891391
 30
0.0
 10
3.8741523055
 20
2.3360104737
 30
0.0
 10
3.8737791135
 20
2.3395000982
 30
0.0
 10
3.8730363773
 20
2.3429144491
 30
0.0
 10
3.8719549081
 20
2.3462186667
 30
0.0
 10
3.870110981
 20
2.3504249104
 30
0.0
 10
3.8683078328
 20
2.3533693008
 30
0.0
 10
3.8669650562
 20
2.3552112435
 30
0.0
  0
SPLINE
  5
323
100
AcDbEntity
  8
ALL_ASSEMBLY_MEMBERS
100
AcDbSpline
 62
7
  6
CONTINUOUS
 70
0
 71
3
 72
21
 73
17
 74
0
 42
0.0000001
 43
0.0000001
 44
0.0000000001
 40
0.0
 40
0.0
 40
0.0
 40
0.0
 40
0.1221998827
 40
0.1841392548
 40
0.2465583918
 40
0.309418354
 40
0.3727030995
 40
0.4362711423
 40
0.5000000039
 40
0.5637288655
 40
0.627296907
 40
0.6905816512
 40
0.7534416129
 40
0.8158607488
 40
0.8778001197
 40
1.0
 40
1.0
 40
1.0
 40
1.0
 10
3.8675202443
 20
2.305047565
 30
0.0
 10
3.869369477
 20
2.3063306355
 30
0.0
 10
3.8720078448
 20
2.3084962529
 30
0.0
 10
3.875101836
 20
2.3118272173
 30
0.0
 10
3.8772006741
 20
2.3145705629
 30
0.0
 10
3.8790277655
 20
2.3175313614
 30
0.0
 10
3.8805433673
 20
2.3206871226
 30
0.0
 10
3.8817185811
 20
2.324002267
 30
0.0
 10
3.8825204809
 20
2.3274355107
 30
0.0
 10
3.88294118
 20
2.3309359703
 30
0.0
 10
3.8829706865
 20
2.3344531338
 30
0.0
 10
3.8826258204
 20
2.3379369456
 30
0.0
 10
3.8819215689
 20
2.3413440881
 30
0.0
 10
3.8808875856
 20
2.3446398346
 30
0.0
 10
3.8791194419
 20
2.3488281245
 30
0.0
 10
3.877380872
 20
2.351765514
 30
0.0
 10
3.8760819976
 20
2.3536036807
 30
0.0
  0
SPLINE
  5
324
100
AcDbEntity
  8
ALL_ASSEMBLY_MEMBERS
100
AcDbSpline
 62
7
  6
CONTINUOUS
 70
0
 71
3
 72
23
 73
19
 74
0
 42
0.0000001
 43
0.0000001
 44
0.0000000001
 40
0.0
 40
0.0
 40
0.0
 40
0.0
 40
0.0619225739
 40
0.1240755691
 40
0.186400765
 40
0.2488727841
 40
0.3114753854
 40
0.3742378051
 40
0.4370902185
 40
0.4999999992
 40
0.5629097799
 40
0.6257621936
 40
0.6885246135
 40
0.751127215
 40
0.8135992344
 40
0.8759244305
 40
0.938077426
 40
1.0
 40
1.0
 40
1.0
 40
1.0
 10
3.2823769547
 20
2.4082241145
 30
0.0
 10
3.2816807482
 20
2.4091464711
 30
0.0
 10
3.2803592189
 20
2.4110515996
 30
0.0
 10
3.2786254647
 20
2.4140724734
 30
0.0
 10
3.277172573
 20
2.4172503619
 30
0.0
 10
3.2760359662
 20
2.4205641092
 30
0.0
 10
3.275248324
 20
2.4239869139
 30
0.0
 10
3.2748421177
 20
2.4274832906
 30
0.0
 10
3.274833935
 20
2.4310095147
 30
0.0
 10
3.27524241
 20
2.4345150191
 30
0.0
 10
3.2760575222
 20
2.4379488224
 30
0.0
 10
3.2772712511
 20
2.4412595906
 30
0.0
 10
3.2788487914
 20
2.4444061792
 30
0.0
 10
3.2807596011
 20
2.447353174
 30
0.0
 10
3.2829610305
 20
2.4500783356
 30
0.0
 10
3.2854132039
 20
2.4525676557
 30
0.0
 10
3.2880755997
 20
2.4548133697
 30
0.0
 10
3.2899690233
 20
2.4561516152
 30
0.0
 10
3.290938708
 20
2.4567802303
 30
0.0
  0
SPLINE
  5
325
100
AcDbEntity
  8
ALL_ASSEMBLY_MEMBERS
100
AcDbSpline
 62
7
  6
CONTINUOUS
 70
0
 71
3
 72
21
 73
17
 74
0
 42
0.0000001
 43
0.0000001
 44
0.0000000001
 40
0.0
 40
0.0
 40
0.0
 40
0.0
 40
0.1212332346
 40
0.1829595123
 40
0.2453453771
 40
0.3083381948
 40
0.3718966799
 40
0.4358406915
 40
0.500000004
 40
0.5641593164
 40
0.6281033267
 40
0.6916618105
 40
0.7546546276
 40
0.8170404912
 40
0.8787667678
 40
1.0
 40
1.0
 40
1.0
 40
1.0
 10
3.87504481
 20
2.303720781
 30
0.0
 10
3.8768439654
 20
2.3050174793
 30
0.0
 10
3.8794080856
 20
2.3072013131
 30
0.0
 10
3.8824114599
 20
2.310542748
 30
0.0
 10
3.8844545302
 20
2.3132957666
 30
0.0
 10
3.8862363138
 20
2.3162640283
 30
0.0
 10
3.887718388
 20
2.3194247394
 30
0.0
 10
3.8888727861
 20
2.3227422859
 30
0.0
 10
3.8896675589
 20
2.326175288
 30
0.0
 10
3.8900948725
 20
2.3296730831
 30
0.0
 10
3.890144761
 20
2.3331853844
 30
0.0
 10
3.8898330935
 20
2.3366623804
 30
0.0
 10
3.8891739699
 20
2.3400610398
 30
0.0
 10
3.8881956996
 20
2.3433468023
 30
0.0
 10
3.886516289
 20
2.3475139385
 30
0.0
 10
3.8848537194
 20
2.3504430516
 30
0.0
 10
3.8836065632
 20
2.3522768968
 30
0.0
  0
SPLINE
  5
326
100
AcDbEntity
  8
ALL_ASSEMBLY_MEMBERS
100
AcDbSpline
 62
7
  6
CONTINUOUS
 70
0
 71
3
 72
21
 73
17
 74
0
 42
0.0000001
 43
0.0000001
 44
0.0000000001
 40
0.0
 40
0.0
 40
0.0
 40
0.0
 40
0.1207022241
 40
0.1823122995
 40
0.2446807347
 40
0.30774698
 40
0.3714556588
 40
0.4356054076
 40
0.5000000046
 40
0.5643946016
 40
0.6285443488
 40
0.692253026
 40
0.7553192707
 40
0.8176877045
 40
0.8792977786
 40
1.0
 40
1.0
 40
1.0
 40
1.0
 10
3.2460143542
 20
2.414635822
 30
0.0
 10
3.2447958093
 20
2.4164673338
 30
0.0
 10
3.2431752407
 20
2.4193918504
 30
0.0
 10
3.2415446537
 20
2.4235472889
 30
0.0
 10
3.2405970926
 20
2.4268275277
 30
0.0
 10
3.2399628327
 20
2.4302215001
 30
0.0
 10
3.2396694493
 20
2.4336947421
 30
0.0
 10
3.2397305607
 20
2.4372043783
 30
0.0
 10
3.2401615182
 20
2.4407007271
 30
0.0
 10
3.2409523724
 20
2.4441336164
 30
0.0
 10
3.2420953127
 20
2.447452497
 30
0.0
 10
3.2435589217
 20
2.4506159337
 30
0.0
 10
3.245315738
 20
2.4535882948
 30
0.0
 10
3.2473280619
 20
2.456346626
 30
0.0
 10
3.250281556
 20
2.4596937672
 30
0.0
 10
3.252804636
 20
2.4618876466
 30
0.0
 10
3.2545761074
 20
2.4631919378
 30
0.0
  0
SPLINE
  5
327
100
AcDbEntity
  8
ALL_ASSEMBLY_MEMBERS
100
AcDbSpline
 62
7
  6
CONTINUOUS
 70
0
 71
3
 72
21
 73
17
 74
0
 42
0.0000001
 43
0.0000001
 44
0.0000000001
 40
0.0
 40
0.0
 40
0.0
 40
0.0
 40
0.1201347371
 40
0.1816213012
 40
0.243971769
 40
0.3071168281
 40
0.3709858726
 40
0.4353548715
 40
0.500000004
 40
0.5646451365
 40
0.629014134
 40
0.6928831772
 40
0.7560282357
 40
0.8183787023
 40
0.8798652653
 40
1.0
 40
1.0
 40
1.0
 40
1.0
 10
3.8809377691
 20
2.3026816933
 30
0.0
 10
3.8826794906
 20
2.3039941896
 30
0.0
 10
3.8851584774
 20
2.3061988398
 30
0.0
 10
3.8880585505
 20
2.3095520496
 30
0.0
 10
3.8900379051
 20
2.3123160615
 30
0.0
 10
3.8917679584
 20
2.3152928074
 30
0.0
 10
3.8932117819
 20
2.3184591651
 30
0.0
 10
3.8943424504
 20
2.3217794845
 30
0.0
 10
3.8951291103
 20
2.3252122691
 30
0.0
 10
3.8955639732
 20
2.328707085
 30
0.0
 10
3.8956371085
 20
2.332213876
 30
0.0
 10
3.8953633162
 20
2.3356830956
 30
0.0
 10
3.8947557051
 20
2.3390720349
 30
0.0
 10
3.8938410678
 20
2.3423463355
 30
0.0
 10
3.8922627559
 20
2.3464892054
 30
0.0
 10
3.890687305
 20
2.3494087622
 30
0.0
 10
3.8894995224
 20
2.3512378091
 30
0.0
  0
SPLINE
  5
328
100
AcDbEntity
  8
ALL_ASSEMBLY_MEMBERS
100
AcDbSpline
 62
7
  6
CONTINUOUS
 70
0
 71
3
 72
23
 73
19
 74
0
 42
0.0000001
 43
0.0000001
 44
0.0000000001
 40
0.0
 40
0.0
 40
0.0
 40
0.0
 40
0.0621883154
 40
0.1245270869
 40
0.1869538939
 40
0.2494435598
 40
0.3119853148
 40
0.3746194984
 40
0.4372942783
 40
0.5000000045
 40
0.5627057307
 40
0.625380509
 40
0.6880146912
 40
0.7505564456
 40
0.8130461101
 40
0.8754729159
 40
0.9378116855
 40
1.0
 40
1.0
 40
1.0
 40
1.0
 10
3.295252439
 20
2.4059538192
 30
0.0
 10
3.294543901
 20
2.4068778534
 30
0.0
 10
3.2931985168
 20
2.4087859945
 30
0.0
 10
3.2914309322
 20
2.4118126155
 30
0.0
 10
3.2899478868
 20
2.4149956894
 30
0.0
 10
3.2887854138
 20
2.4183140067
 30
0.0
 10
3.2879767932
 20
2.421740709
 30
0.0
 10
3.2875551214
 20
2.425240252
 30
0.0
 10
3.2875374368
 20
2.428768779
 30
0.0
 10
3.2879428384
 20
2.4322755912
 30
0.0
 10
3.288761286
 20
2.4357095723
 30
0.0
 10
3.2899847313
 20
2.4390192545
 30
0.0
 10
3.2915778875
 20
2.4421635289
 30
0.0
 10
3.2935097435
 20
2.4451070111
 30
0.0
 10
3.2957370422
 20
2.4478276202
 30
0.0
 10
3.2982193243
 20
2.4503114998
 30
0.0
 10
3.3009154758
 20
2.4525510436
 30
0.0
 10
3.3028323461
 20
2.4538839612
 30
0.0
 10
3.3038141923
 20
2.454509935
 30
0.0
  0
SPLINE
  5
329
100
AcDbEntity
  8
ALL_ASSEMBLY_MEMBERS
100
AcDbSpline
 62
7
  6
CONTINUOUS
 70
0
 71
3
 72
21
 73
17
 74
0
 42
0.0000001
 43
0.0000001
 44
0.0000000001
 40
0.0
 40
0.0
 40
0.0
 40
0.0
 40
0.1189156205
 40
0.1801392193
 40
0.2424533923
 40
0.305768943
 40
0.3699819755
 40
0.4348198223
 40
0.500000004
 40
0.5651801858
 40
0.6300180311
 40
0.6942310624
 40
0.7575466125
 40
0.8198607842
 40
0.8810843818
 40
1.0
 40
1.0
 40
1.0
 40
1.0
 10
3.8851683974
 20
2.3019357194
 30
0.0
 10
3.8868455142
 20
2.3032661888
 30
0.0
 10
3.8892288103
 20
2.3054941168
 30
0.0
 10
3.8920135692
 20
2.3088602842
 30
0.0
 10
3.8939216068
 20
2.3116365297
 30
0.0
 10
3.8955938005
 20
2.3146227243
 30
0.0
 10
3.8969948764
 20
2.3177953967
 30
0.0
 10
3.8980990471
 20
2.3211188592
 30
0.0
 10
3.8988766616
 20
2.3245514747
 30
0.0
 10
3.8993199666
 20
2.328043038
 30
0.0
 10
3.8994190766
 20
2.3315437197
 30
0.0
 10
3.8991876137
 20
2.3350042527
 30
0.0
 10
3.8986376044
 20
2.3383822817
 30
0.0
 10
3.8977941674
 20
2.3416436862
 30
0.0
 10
3.8963286471
 20
2.3457592925
 30
0.0
 10
3.8948510776
 20
2.3486679952
 30
0.0
 10
3.8937301507
 20
2.3504918352
 30
0.0
  0
SPLINE
  5
32A
100
AcDbEntity
  8
ALL_ASSEMBLY_MEMBERS
100
AcDbSpline
 62
7
  6
CONTINUOUS
 70
0
 71
3
 72
21
 73
17
 74
0
 42
0.0000001
 43
0.0000001
 44
0.0000000001
 40
0.0
 40
0.0
 40
0.0
 40
0.0
 40
0.1182680982
 40
0.1793533476
 40
0.241649516
 40
0.3050562627
 40
0.3694517037
 40
0.4345373798
 40
0.5000000047
 40
0.5654626295
 40
0.630548304
 40
0.6949437434
 40
0.7583504894
 40
0.8206466564
 40
0.8817319046
 40
1.0
 40
1.0
 40
1.0
 40
1.0
 10
3.2375513331
 20
2.416128081
 30
0.0
 10
3.2364664225
 20
2.4179491958
 30
0.0
 10
3.2350414676
 20
2.4208520009
 30
0.0
 10
3.2336362254
 20
2.4249529626
 30
0.0
 10
3.2328309332
 20
2.4282074286
 30
0.0
 10
3.2323117685
 20
2.4315795998
 30
0.0
 10
3.2321029637
 20
2.4350354871
 30
0.0
 10
3.2322159753
 20
2.438532921
 30
0.0
 10
3.2326638016
 20
2.4420227769
 30
0.0
 10
3.2334365836
 20
2.4454553343
 30
0.0
 10
3.2345265802
 20
2.4487804993
 30
0.0
 10
3.2359047757
 20
2.4519565556
 30
0.0
 10
3.2375459814
 20
2.4549477951
 30
0.0
 10
3.2394158014
 20
2.4577305666
 30
0.0
 10
3.2421389087
 20
2.4611035888
 30
0.0
 10
3.244470746
 20
2.4633439699
 30
0.0
 10
3.2461130864
 20
2.4646841968
 30
0.0
  0
SPLINE
  5
32B
100
AcDbEntity
  8
ALL_ASSEMBLY_MEMBERS
100
AcDbSpline
 62
7
  6
CONTINUOUS
 70
0
 71
3
 72
21
 73
17
 74
0
 42
0.0000001
 43
0.0000001
 44
0.0000000001
 40
0.0
 40
0.0
 40
0.0
 40
0.0
 40
0.1175903747
 40
0.1785318086
 40
0.2408100717
 40
0.3043127329
 40
0.3688988624
 40
0.4342430435
 40
0.5000000041
 40
0.5657569646
 40
0.6311011443
 40
0.6956872725
 40
0.7591899331
 40
0.8214681949
 40
0.8824096276
 40
1.0
 40
1.0
 40
1.0
 40
1.0
 10
3.8877146377
 20
2.3014867485
 30
0.0
 10
3.889320169
 20
2.3028373612
 30
0.0
 10
3.8915975925
 20
2.3050908536
 30
0.0
 10
3.8942557876
 20
2.3084710444
 30
0.0
 10
3.8960852983
 20
2.3112606778
 30
0.0
 10
3.897693833
 20
2.3142572262
 30
0.0
 10
3.8990479154
 20
2.3174368531
 30
0.0
 10
3.9001229804
 20
2.3207638287
 30
0.0
 10
3.9008906759
 20
2.3241963497
 30
0.0
 10
3.9013432693
 20
2.3276844316
 30
0.0
 10
3.9014709314
 20
2.3311784598
 30
0.0
 10
3.9012860065
 20
2.3346294552
 30
0.0
 10
3.9007993583
 20
2.3379954408
 30
0.0
 10
3.9000342913
 20
2.3412425682
 30
0.0
 10
3.8986924984
 20
2.3453280647
 30
0.0
 10
3.8973231602
 20
2.3482245795
 30
0.0
 10
3.896276391
 20
2.3500428643
 30
0.0
  0
SPLINE
  5
32C
100
AcDbEntity
  8
ALL_ASSEMBLY_MEMBERS
100
AcDbSpline
 62
7
  6
CONTINUOUS
 70
0
 71
3
 72
23
 73
19
 74
0
 42
0.0000001
 43
0.0000001
 44
0.0000000001
 40
0.0
 40
0.0
 40
0.0
 40
0.0
 40
0.0623621585
 40
0.1248226447
 40
0.1873162828
 40
0.2498178769
 40
0.3123199915
 40
0.3748701602
 40
0.4374283529
 40
0.5000000045
 40
0.5625716561
 40
0.6251298471
 40
0.6876800145
 40
0.7501821284
 40
0.8126837213
 40
0.8751773581
 40
0.9376378425
 40
1.0
 40
1.0
 40
1.0
 40
1.0
 10
3.3095191864
 20
2.4034382067
 30
0.0
 10
3.308802579
 20
2.4043633425
 30
0.0
 10
3.3074415876
 20
2.4062734595
 30
0.0
 10
3.3056518541
 20
2.4093038387
 30
0.0
 10
3.3041490661
 20
2.4124903056
 30
0.0
 10
3.3029696542
 20
2.4158116146
 30
0.0
 10
3.3021472889
 20
2.4192408683
 30
0.0
 10
3.3017154875
 20
2.4227424854
 30
0.0
 10
3.3016915774
 20
2.4262725204
 30
0.0
 10
3.302094962
 20
2.42978019
 30
0.0
 10
3.3029155982
 20
2.4332142868
 30
0.0
 10
3.3041454094
 20
2.4365232569
 30
0.0
 10
3.3057487936
 20
2.4396660158
 30
0.0
 10
3.3076944381
 20
2.4426071946
 30
0.0
 10
3.3099386773
 20
2.4453248215
 30
0.0
 10
3.3124406718
 20
2.4478051371
 30
0.0
 10
3.3151589219
 20
2.450040637
 30
0.0
 10
3.3170911339
 20
2.4513700734
 30
0.0
 10
3.3180809397
 20
2.4519943225
 30
0.0
  0
SPLINE
  5
32D
100
AcDbEntity
  8
ALL_ASSEMBLY_MEMBERS
100
AcDbSpline
 62
7
  6
CONTINUOUS
 70
0
 71
3
 72
21
 73
17
 74
0
 42
0.0000001
 43
0.0000001
 44
0.0000000001
 40
0.0
 40
0.0
 40
0.0
 40
0.0
 40
0.1217357325
 40
0.183572534
 40
0.2459754471
 40
0.3088990707
 40
0.3723153084
 40
0.436064111
 40
0.5000000046
 40
0.5639358981
 40
0.6276846991
 40
0.6911009353
 40
0.7540245583
 40
0.81642747
 40
0.8782642703
 40
1.0
 40
1.0
 40
1.0
 40
1.0
 10
3.2527310424
 20
2.4134514887
 30
0.0
 10
3.2514569473
 20
2.415287568
 30
0.0
 10
3.2497548022
 20
2.4182209969
 30
0.0
 10
3.2480292477
 20
2.4223991511
 30
0.0
 10
3.2470219895
 20
2.4256901145
 30
0.0
 10
3.2463393886
 20
2.4290931912
 30
0.0
 10
3.2460104524
 20
2.432573733
 30
0.0
 10
3.2460497393
 20
2.4360885598
 30
0.0
 10
3.246473612
 20
2.4395877347
 30
0.0
 10
3.2472720903
 20
2.4430208565
 30
0.0
 10
3.2484373142
 20
2.4463371502
 30
0.0
 10
3.2499368287
 20
2.4494952867
 30
0.0
 10
3.2517421844
 20
2.4524596694
 30
0.0
 10
3.2538142733
 20
2.4552076608
 30
0.0
 10
3.256864777
 20
2.458543667
 30
0.0
 10
3.2594675619
 20
2.4607180205
 30
0.0
 10
3.2612927957
 20
2.4620076045
 30
0.0
  0
SPLINE
  5
32E
100
AcDbEntity
  8
ALL_ASSEMBLY_MEMBERS
100
AcDbSpline
 62
7
  6
CONTINUOUS
 70
0
 71
3
 72
23
 73
19
 74
0
 42
0.0000001
 43
0.0000001
 44
0.0000000001
 40
0.0
 40
0.0
 40
0.0
 40
0.0
 40
0.062443395
 40
0.1249608118
 40
0.1874857573
 40
0.2499929937
 40
0.3124766135
 40
0.3749874947
 40
0.4374911233
 40
0.5000000045
 40
0.5625088856
 40
0.6250125126
 40
0.6875233924
 40
0.7500070117
 40
0.8125142467
 40
0.875039191
 40
0.937556606
 40
1.0
 40
1.0
 40
1.0
 40
1.0
 10
3.3251028141
 20
2.4006903927
 30
0.0
 10
3.3243824353
 20
2.4016160446
 30
0.0
 10
3.3230141503
 20
2.4035270868
 30
0.0
 10
3.3212140624
 20
2.4065592218
 30
0.0
 10
3.3197020444
 20
2.4097472734
 30
0.0
 10
3.3185147126
 20
2.4130699797
 30
0.0
 10
3.3176859199
 20
2.4165004252
 30
0.0
 10
3.3172493809
 20
2.420003012
 30
0.0
 10
3.3172225589
 20
2.4235337531
 30
0.0
 10
3.3176250002
 20
2.4270418253
 30
0.0
 10
3.3184466605
 20
2.4304759777
 30
0.0
 10
3.3196794494
 20
2.4337846154
 30
0.0
 10
3.3212876172
 20
2.4369266651
 30
0.0
 10
3.323239709
 20
2.4398667656
 30
0.0
 10
3.3254918685
 20
2.4425829967
 30
0.0
 10
3.3280030785
 20
2.4450616446
 30
0.0
 10
3.330731659
 20
2.4472952531
 30
0.0
 10
3.3326710412
 20
2.4486230643
 30
0.0
 10
3.3336645674
 20
2.4492465085
 30
0.0
  0
SPLINE
  5
32F
100
AcDbEntity
  8
ALL_ASSEMBLY_MEMBERS
100
AcDbSpline
 62
7
  6
CONTINUOUS
 70
0
 71
3
 72
15
 73
11
 74
0
 42
0.0000001
 43
0.0000001
 44
0.0000000001
 40
0.0
 40
0.0
 40
0.0
 40
0.0
 40
0.1042683533
 40
0.224710933
 40
0.358465378
 40
0.4999999956
 40
0.6415346147
 40
0.7752890621
 40
0.8957316444
 40
1.0
 40
1.0
 40
1.0
 40
1.0
 10
3.3504838271
 20
2.4462808192
 30
0.0
 10
3.3502708558
 20
2.4445798828
 30
0.0
 10
3.3497806869
 20
2.4409180414
 30
0.0
 10
3.3489216257
 20
2.4350875231
 30
0.0
 10
3.3478972468
 20
2.4286625257
 30
0.0
 10
3.3467437224
 20
2.4219074088
 30
0.0
 10
3.3455172947
 20
2.4151651468
 30
0.0
 10
3.3442824174
 20
2.4087772657
 30
0.0
 10
3.3430955162
 20
2.4030045544
 30
0.0
 10
3.3423037007
 20
2.3993959013
 30
0.0
 10
3.3419220738
 20
2.3977247034
 30
0.0
  0
SPLINE
  5
330
100
AcDbEntity
  8
ALL_ASSEMBLY_MEMBERS
100
AcDbSpline
 62
7
  6
CONTINUOUS
 70
0
 71
3
 72
23
 73
19
 74
0
 42
0.0000001
 43
0.0000001
 44
0.0000000001
 40
0.0
 40
0.0
 40
0.0
 40
0.0
 40
0.0624316876
 40
0.1249408977
 40
0.1874613284
 40
0.2499677489
 40
0.3124540329
 40
0.3749705772
 40
0.4374820725
 40
0.5000000045
 40
0.5625179364
 40
0.6250294302
 40
0.687545973
 40
0.7500322564
 40
0.8125386757
 40
0.8750591051
 40
0.9375683134
 40
1.0
 40
1.0
 40
1.0
 40
1.0
 10
3.3419220738
 20
2.3977247034
 30
0.0
 10
3.3412022385
 20
2.3986502809
 30
0.0
 10
3.3398350047
 20
2.4005611897
 30
0.0
 10
3.3380364092
 20
2.4035930716
 30
0.0
 10
3.3365257215
 20
2.4067808949
 30
0.0
 10
3.3353395313
 20
2.4101033999
 30
0.0
 10
3.334511665
 20
2.4135336737
 30
0.0
 10
3.3340758089
 20
2.4170361206
 30
0.0
 10
3.3340494067
 20
2.42056676
 30
0.0
 10
3.334451984
 20
2.424074774
 30
0.0
 10
3.3352734967
 20
2.4275089184
 30
0.0
 10
3.3365058563
 20
2.430817604
 30
0.0
 10
3.3381133346
 20
2.4339597559
 30
0.0
 10
3.3400644971
 20
2.4369000119
 30
0.0
 10
3.342315515
 20
2.4396164442
 30
0.0
 10
3.3448253967
 20
2.4420953326
 30
0.0
 10
3.3475524883
 20
2.4443292137
 30
0.0
 10
3.3494908371
 20
2.4456572591
 30
0.0
 10
3.3504838271
 20
2.4462808192
 30
0.0
  0
SPLINE
  5
331
100
AcDbEntity
  8
ALL_ASSEMBLY_MEMBERS
100
AcDbSpline
 62
7
  6
CONTINUOUS
 70
0
 71
3
 72
15
 73
11
 74
0
 42
0.0000001
 43
0.0000001
 44
0.0000000001
 40
0.0
 40
0.0
 40
0.0
 40
0.0
 40
0.1046038675
 40
0.2251055142
 40
0.3587171572
 40
0.4999999956
 40
0.6412828356
 40
0.7748944809
 40
0.8953961302
 40
1.0
 40
1.0
 40
1.0
 40
1.0
 10
3.3684510278
 20
2.443112717
 30
0.0
 10
3.368372515
 20
2.4413915601
 30
0.0
 10
3.368123045
 20
2.437691179
 30
0.0
 10
3.3675249643
 20
2.4318121158
 30
0.0
 10
3.3666679892
 20
2.4253551319
 30
0.0
 10
3.3655721707
 20
2.4185874454
 30
0.0
 10
3.3642872182
 20
2.4118531083
 30
0.0
 10
3.3628840927
 20
2.4054924253
 30
0.0
 10
3.3614353467
 20
2.3997633572
 30
0.0
 10
3.3604041669
 20
2.3962008126
 30
0.0
 10
3.3598892745
 20
2.3945566012
 30
0.0
  0
SPLINE
  5
332
100
AcDbEntity
  8
ALL_ASSEMBLY_MEMBERS
100
AcDbSpline
 62
7
  6
CONTINUOUS
 70
0
 71
3
 72
23
 73
19
 74
0
 42
0.0000001
 43
0.0000001
 44
0.0000000001
 40
0.0
 40
0.0
 40
0.0
 40
0.0
 40
0.0623270841
 40
0.1247630007
 40
0.1872431369
 40
0.2497423084
 40
0.3122524139
 40
0.3748195399
 40
0.4374012745
 40
0.5000000045
 40
0.5625987344
 40
0.6251804675
 40
0.687747592
 40
0.7502576969
 40
0.8127568671
 40
0.8752370021
 40
0.9376729168
 40
1.0
 40
1.0
 40
1.0
 40
1.0
 10
3.3598892745
 20
2.3945566012
 30
0.0
 10
3.3591742954
 20
2.3954815144
 30
0.0
 10
3.3578164529
 20
2.3973912323
 30
0.0
 10
3.3560311891
 20
2.4004208533
 30
0.0
 10
3.3545323853
 20
2.4036066358
 30
0.0
 10
3.353356392
 20
2.4069273415
 30
0.0
 10
3.3525368008
 20
2.4103560805
 30
0.0
 10
3.3521070441
 20
2.413857279
 30
0.0
 10
3.3520843907
 20
2.4173870094
 30
0.0
 10
3.3524881825
 20
2.4208945056
 30
0.0
 10
3.3533083768
 20
2.4243285787
 30
0.0
 10
3.3545369028
 20
2.4276376924
 30
0.0
 10
3.3561382226
 20
2.4307807572
 30
0.0
 10
3.3580810841
 20
2.4337224012
 30
0.0
 10
3.3603219046
 20
2.4364406304
 30
0.0
 10
3.3628199211
 20
2.4389216655
 30
0.0
 10
3.3655337117
 20
2.4411579818
 30
0.0
 10
3.3674628282
 20
2.4424881201
 30
0.0
 10
3.3684510278
 20
2.443112717
 30
0.0
  0
SPLINE
  5
333
100
AcDbEntity
  8
ALL_ASSEMBLY_MEMBERS
100
AcDbSpline
 62
7
  6
CONTINUOUS
 70
0
 71
3
 72
17
 73
13
 74
0
 42
0.0000001
 43
0.0000001
 44
0.0000000001
 40
0.0
 40
0.0
 40
0.0
 40
0.0
 40
0.0506068463
 40
0.1052307365
 40
0.2258397279
 40
0.3591853499
 40
0.4999999956
 40
0.6408146428
 40
0.7741602672
 40
0.8947692612
 40
0.9493931529
 40
1.0
 40
1.0
 40
1.0
 40
1.0
 10
3.3874724939
 20
2.4397587193
 30
0.0
 10
3.3874985546
 20
2.438922666
 30
0.0
 10
3.3875238439
 20
2.4371832031
 30
0.0
 10
3.3874685526
 20
2.4334503807
 30
0.0
 10
3.3871771102
 20
2.4283557561
 30
0.0
 10
3.3864864419
 20
2.4218651175
 30
0.0
 10
3.3854475974
 20
2.4150828714
 30
0.0
 10
3.3841041271
 20
2.408354339
 30
0.0
 10
3.3825332139
 20
2.4020189112
 30
0.0
 10
3.3810646159
 20
2.3971318509
 30
0.0
 10
3.3798398723
 20
2.3936052344
 30
0.0
 10
3.3792211767
 20
2.3919793233
 30
0.0
 10
3.3789107406
 20
2.3912026035
 30
0.0
  0
SPLINE
  5
334
100
AcDbEntity
  8
ALL_ASSEMBLY_MEMBERS
100
AcDbSpline
 62
7
  6
CONTINUOUS
 70
0
 71
3
 72
23
 73
19
 74
0
 42
0.0000001
 43
0.0000001
 44
0.0000000001
 40
0.0
 40
0.0
 40
0.0
 40
0.0
 40
0.0621300236
 40
0.1244280176
 40
0.1868324659
 40
0.2493181765
 40
0.3118732424
 40
0.3745355791
 40
0.4372493981
 40
0.5000000045
 40
0.5627506109
 40
0.6254644283
 40
0.6881267636
 40
0.7506818289
 40
0.8131675381
 40
0.8755719852
 40
0.9378699773
 40
1.0
 40
1.0
 40
1.0
 40
1.0
 10
3.3789107406
 20
2.3912026035
 30
0.0
 10
3.3782049081
 20
2.3921262691
 30
0.0
 10
3.3768647573
 20
2.3940337488
 30
0.0
 10
3.375104597
 20
2.3970591094
 30
0.0
 10
3.373628169
 20
2.400241045
 30
0.0
 10
3.3724713732
 20
2.4035583586
 30
0.0
 10
3.3716673586
 20
2.4069842051
 30
0.0
 10
3.371249081
 20
2.4104830529
 30
0.0
 10
3.3712334822
 20
2.4140110751
 30
0.0
 10
3.3716395596
 20
2.4175176011
 30
0.0
 10
3.3724572742
 20
2.4209515443
 30
0.0
 10
3.3736785869
 20
2.4242614655
 30
0.0
 10
3.3752683159
 20
2.4274062475
 30
0.0
 10
3.3771955509
 20
2.4303505009
 30
0.0
 10
3.3794171715
 20
2.4330721085
 30
0.0
 10
3.3818928459
 20
2.4355571818
 30
0.0
 10
3.3845815898
 20
2.4377980805
 30
0.0
 10
3.386493316
 20
2.4391321665
 30
0.0
 10
3.3874724939
 20
2.4397587193
 30
0.0
  0
SPLINE
  5
335
100
AcDbEntity
  8
ALL_ASSEMBLY_MEMBERS
100
AcDbSpline
 62
7
  6
CONTINUOUS
 70
0
 71
3
 72
19
 73
15
 74
0
 42
0.0000001
 43
0.0000001
 44
0.0000000001
 40
0.0
 40
0.0
 40
0.0
 40
0.0
 40
0.0511443363
 40
0.1061081109
 40
0.1647682937
 40
0.2268880842
 40
0.3598540258
 40
0.4999999964
 40
0.6401459691
 40
0.7731119129
 40
0.8352317035
 40
0.8938918866
 40
0.9488556627
 40
1.0
 40
1.0
 40
1.0
 40
1.0
 10
3.4074490529
 20
2.4362363129
 30
0.0
 10
3.407537692
 20
2.4353913815
 30
0.0
 10
3.4076830383
 20
2.4336342172
 30
0.0
 10
3.4078015939
 20
2.430899174
 30
0.0
 10
3.4078196708
 20
2.4279792503
 30
0.0
 10
3.4076973503
 20
2.423765279
 30
0.0
 10
3.4072490078
 20
2.4182103631
 30
0.0
 10
3.4062664706
 20
2.4114119423
 30
0.0
 10
3.4048645567
 20
2.4046874689
 30
0.0
 10
3.4033859677
 20
2.3993142132
 30
0.0
 10
3.4020596483
 20
2.3953125393
 30
0.0
 10
3.4010439889
 20
2.3925748912
 30
0.0
 10
3.3999971431
 20
2.3900453396
 30
0.0
 10
3.3992595767
 20
2.3884438567
 30
0.0
 10
3.3988872996
 20
2.3876801971
 30
0.0
  0
SPLINE
  5
336
100
AcDbEntity
  8
ALL_ASSEMBLY_MEMBERS
100
AcDbSpline
 62
7
  6
CONTINUOUS
 70
0
 71
3
 72
23
 73
19
 74
0
 42
0.0000001
 43
0.0000001
 44
0.0000000001
 40
0.0
 40
0.0
 40
0.0
 40
0.0
 40
0.0618418654
 40
0.1239390357
 40
0.1862334532
 40
0.2486999322
 40
0.3113206819
 40
0.3741218857
 40
0.4370282844
 40
0.5000000038
 40
0.562971723
 40
0.6258781196
 40
0.6886793215
 40
0.751300071
 40
0.8137665502
 40
0.8760609673
 40
0.9381581358
 40
1.0
 40
1.0
 40
1.0
 40
1.0
 10
3.3988872996
 20
2.3876801971
 30
0.0
 10
3.3981948577
 20
2.3886020506
 30
0.0
 10
3.396880616
 20
2.390506288
 30
0.0
 10
3.395157196
 20
2.3935254339
 30
0.0
 10
3.3937134995
 20
2.3967017436
 30
0.0
 10
3.39258482
 20
2.4000140896
 30
0.0
 10
3.3918035965
 20
2.4034356817
 30
0.0
 10
3.3914021255
 20
2.4069310714
 30
0.0
 10
3.3913968488
 20
2.4104565757
 30
0.0
 10
3.3918062548
 20
2.4139616686
 30
0.0
 10
3.3926203514
 20
2.4173954035
 30
0.0
 10
3.3938311033
 20
2.4207064891
 30
0.0
 10
3.3954038564
 20
2.4238537697
 30
0.0
 10
3.3973082198
 20
2.4268018204
 30
0.0
 10
3.3995017206
 20
2.4295283762
 30
0.0
 10
3.4019447135
 20
2.4320193578
 30
0.0
 10
3.4045968072
 20
2.4342669825
 30
0.0
 10
3.4064830779
 20
2.4356068831
 30
0.0
 10
3.4074490529
 20
2.4362363129
 30
0.0
  0
SPLINE
  5
337
100
AcDbEntity
  8
ALL_ASSEMBLY_MEMBERS
100
AcDbSpline
 62
7
  6
CONTINUOUS
 70
0
 71
3
 72
19
 73
15
 74
0
 42
0.0000001
 43
0.0000001
 44
0.0000000001
 40
0.0
 40
0.0
 40
0.0
 40
0.0
 40
0.0518144835
 40
0.1072043712
 40
0.1660676091
 40
0.2281923087
 40
0.3606888646
 40
0.4999999957
 40
0.6393111282
 40
0.7718076864
 40
0.8339323875
 40
0.8927956265
 40
0.9481855157
 40
1.0
 40
1.0
 40
1.0
 40
1.0
 10
3.4282765528
 20
2.4325638628
 30
0.0
 10
3.4284261692
 20
2.4317107608
 30
0.0
 10
3.4286888361
 20
2.4299372152
 30
0.0
 10
3.4289631495
 20
2.4271738885
 30
0.0
 10
3.4291193276
 20
2.4242286824
 30
0.0
 10
3.4291577808
 20
2.4199905151
 30
0.0
 10
3.4288476198
 20
2.4144102028
 30
0.0
 10
3.4279201579
 20
2.4075938131
 30
0.0
 10
3.4264603444
 20
2.4008712912
 30
0.0
 10
3.4248432212
 20
2.3955214315
 30
0.0
 10
3.4233575484
 20
2.3915520086
 30
0.0
 10
3.4222034691
 20
2.3888378362
 30
0.0
 10
3.4210005855
 20
2.3863349792
 30
0.0
 10
3.420147171
 20
2.3847582288
 30
0.0
 10
3.4197147995
 20
2.384007747
 30
0.0
  0
SPLINE
  5
338
100
AcDbEntity
  8
ALL_ASSEMBLY_MEMBERS
100
AcDbSpline
 62
7
  6
CONTINUOUS
 70
0
 71
3
 72
21
 73
17
 74
0
 42
0.0000001
 43
0.0000001
 44
0.0000000001
 40
0.0
 40
0.0
 40
0.0
 40
0.0
 40
0.123210255
 40
0.1853745003
 40
0.2478305519
 40
0.3105527908
 40
0.3735509775
 40
0.4367240431
 40
0.5000000045
 40
0.5632759659
 40
0.6264490299
 40
0.6894472152
 40
0.7521694535
 40
0.8146255037
 40
0.8767897477
 40
1.0
 40
1.0
 40
1.0
 40
1.0
 10
3.4197147995
 20
2.384007747
 30
0.0
 10
3.4183622722
 20
2.3858505421
 30
0.0
 10
3.4165447747
 20
2.3887964851
 30
0.0
 10
3.414683961
 20
2.3930067149
 30
0.0
 10
3.4135919225
 20
2.3963128133
 30
0.0
 10
3.4128406177
 20
2.3997287657
 30
0.0
 10
3.4124611171
 20
2.4032196843
 30
0.0
 10
3.4124693532
 20
2.4067419507
 30
0.0
 10
3.4128831539
 20
2.4102452426
 30
0.0
 10
3.4136925049
 20
2.4136787883
 30
0.0
 10
3.4148894515
 20
2.4169914529
 30
0.0
 10
3.41644003
 20
2.4201420465
 30
0.0
 10
3.4183143501
 20
2.4230950303
 30
0.0
 10
3.4204712828
 20
2.4258282472
 30
0.0
 10
3.423659859
 20
2.4291481333
 30
0.0
 10
3.4263753199
 20
2.4312947934
 30
0.0
 10
3.4282765528
 20
2.4325638628
 30
0.0
  0
SPLINE
  5
339
100
AcDbEntity
  8
ALL_ASSEMBLY_MEMBERS
100
AcDbSpline
 62
7
  6
CONTINUOUS
 70
0
 71
3
 72
15
 73
11
 74
0
 42
0.0000001
 43
0.0000001
 44
0.0000000001
 40
0.0
 40
0.0
 40
0.0
 40
0.0
 40
0.1084535296
 40
0.2296693496
 40
0.3616426436
 40
0.4999999957
 40
0.6383573493
 40
0.7703306455
 40
0.8915464681
 40
1.0
 40
1.0
 40
1.0
 40
1.0
 10
3.4498464051
 20
2.4287605158
 30
0.0
 10
3.4502765945
 20
2.4269858689
 30
0.0
 10
3.4509547786
 20
2.423169032
 30
0.0
 10
3.4513750783
 20
2.4170844138
 30
0.0
 10
3.451169542
 20
2.4104843246
 30
0.0
 10
3.4502958124
 20
2.4036483815
 30
0.0
 10
3.4487788194
 20
2.396925863
 30
0.0
 10
3.446714597
 20
2.3906535102
 30
0.0
 10
3.4442385824
 20
2.3850795901
 30
0.0
 10
3.4422958626
 20
2.3817248893
 30
0.0
 10
3.4412846518
 20
2.3802044
 30
0.0
  0
SPLINE
  5
33A
100
AcDbEntity
  8
ALL_ASSEMBLY_MEMBERS
100
AcDbSpline
 62
7
  6
CONTINUOUS
 70
0
 71
3
 72
21
 73
17
 74
0
 42
0.0000001
 43
0.0000001
 44
0.0000000001
 40
0.0
 40
0.0
 40
0.0
 40
0.0
 40
0.1224202037
 40
0.1844084259
 40
0.2468354268
 40
0.3096652571
 40
0.3728875534
 40
0.4363696423
 40
0.5000000046
 40
0.5636303668
 40
0.6271124541
 40
0.6903347488
 40
0.7531645786
 40
0.8155915781
 40
0.877579799
 40
1.0
 40
1.0
 40
1.0
 40
1.0
 10
3.4412846518
 20
2.3802044
 30
0.0
 10
3.4399740465
 20
2.382043566
 30
0.0
 10
3.4382182259
 20
2.3849828281
 30
0.0
 10
3.4364298728
 20
2.3891759162
 30
0.0
 10
3.4353832179
 20
2.3924739269
 30
0.0
 10
3.4346686985
 20
2.3958829951
 30
0.0
 10
3.4343162764
 20
2.3993683579
 30
0.0
 10
3.434341143
 20
2.4028866321
 30
0.0
 10
3.434760337
 20
2.406387705
 30
0.0
 10
3.435563861
 20
2.4098210101
 30
0.0
 10
3.4367438147
 20
2.4131356112
 30
0.0
 10
3.4382670474
 20
2.4162902454
 30
0.0
 10
3.440104446
 20
2.4192493415
 30
0.0
 10
3.442215966
 20
2.4219904807
 30
0.0
 10
3.4453305887
 20
2.4253190418
 30
0.0
 10
3.4479858072
 20
2.4274805187
 30
0.0
 10
3.4498464051
 20
2.4287605158
 30
0.0
  0
SPLINE
  5
33B
100
AcDbEntity
  8
ALL_ASSEMBLY_MEMBERS
100
AcDbSpline
 62
7
  6
CONTINUOUS
 70
0
 71
3
 72
46
 73
42
 74
0
 42
0.0000001
 43
0.0000001
 44
0.0000000001
 40
0.0
 40
0.0
 40
0.0
 40
0.0
 40
0.0531228971
 40
0.1059754473
 40
0.1587871018
 40
0.2117722195
 40
0.2652250486
 40
0.2922852913
 40
0.3196922004
 40
0.3761711668
 40
0.4058377111
 40
0.4370631037
 40
0.4535093538
 40
0.4706896588
 40
0.4887927544
 40
0.5080580174
 40
0.528773743
 40
0.5512514487
 40
0.5632084134
 40
0.5756637016
 40
0.5885238722
 40
0.6016475951
 40
0.6148971664
 40
0.6280929085
 40
0.6410337132
 40
0.6535777394
 40
0.6656780165
 40
0.6772892121
 40
0.6990949926
 40
0.7192557238
 40
0.7380763393
 40
0.7558280502
 40
0.7727307294
 40
0.7889548443
 40
0.8046336109
 40
0.8198710451
 40
0.834748771
 40
0.8917229851
 40
0.9192716741
 40
0.9464310749
 40
1.0
 40
1.0
 40
1.0
 40
1.0
 10
7.535076382
 20
3.6779090899
 30
0.0
 10
7.5343891276
 20
3.68193366
 30
0.0
 10
7.5333751321
 20
3.6900263111
 30
0.0
 10
7.532780282
 20
3.702225194
 30
0.0
 10
7.5330448144
 20
3.7144259554
 30
0.0
 10
7.5342012344
 20
3.7266218459
 30
0.0
 10
7.5360182223
 20
3.7367361972
 30
0.0
 10
7.538110426
 20
3.7447669696
 30
0.0
 10
7.5407423653
 20
3.7528802991
 30
0.0
 10
7.5442886554
 20
3.7609026273
 30
0.0
 10
7.5490296225
 20
3.7685919788
 30
0.0
 10
7.5526926874
 20
3.7732935047
 30
0.0
 10
7.556124303
 20
3.7769128924
 30
0.0
 10
7.5590600827
 20
3.7795996806
 30
0.0
 10
7.5623737159
 20
3.7821756925
 30
0.0
 10
7.5661266925
 20
3.784604906
 30
0.0
 10
7.5704020219
 20
3.7868056552
 30
0.0
 10
7.5743661259
 20
3.7883348732
 30
0.0
 10
7.5778336342
 20
3.7893241254
 30
0.0
 10
7.5806353333
 20
3.7899311979
 30
0.0
 10
7.5835592073
 20
3.7903683374
 30
0.0
 10
7.586567105
 20
3.7906132447
 30
0.0
 10
7.5896106976
 20
3.7906401931
 30
0.0
 10
7.5926346609
 20
3.7904594567
 30
0.0
 10
7.5955857131
 20
3.7900811436
 30
0.0
 10
7.5984210974
 20
3.7895179201
 30
0.0
 10
7.601115568
 20
3.7888006099
 30
0.0
 10
7.6044369027
 20
3.787696435
 30
0.0
 10
7.608226139
 20
3.786061232
 30
0.0
 10
7.6123068779
 20
3.7837715442
 30
0.0
 10
7.6158956223
 20
3.7812848277
 30
0.0
 10
7.6190691048
 20
3.7786664112
 30
0.0
 10
7.6218875282
 20
3.7759508572
 30
0.0
 10
7.6244047078
 20
3.7731661866
 30
0.0
 10
7.6266599162
 20
3.7703278587
 30
0.0
 10
7.628688501
 20
3.7674493999
 30
0.0
 10
7.6322491122
 20
3.7617793376
 30
0.0
 10
7.6355388517
 20
3.7548350137
 30
0.0
 10
7.6383582489
 20
3.7467249622
 30
0.0
 10
7.6406041772
 20
3.7387072396
 30
0.0
 10
7.6417954212
 20
3.7326055032
 30
0.0
 10
7.6424098034
 20
3.7285344945
 30
0.0
  0
SPLINE
  5
33C
100
AcDbEntity
  8
ALL_ASSEMBLY_MEMBERS
100
AcDbSpline
 62
7
  6
CONTINUOUS
 70
0
 71
3
 72
31
 73
27
 74
0
 42
0.0000001
 43
0.0000001
 44
0.0000000001
 40
0.0
 40
0.0
 40
0.0
 40
0.0
 40
0.0342918645
 40
0.0708474129
 40
0.1100678445
 40
0.1522090958
 40
0.1743367456
 40
0.1970612019
 40
0.2201873618
 40
0.2434877999
 40
0.2667239757
 40
0.289637252
 40
0.333732687
 40
0.3749974171
 40
0.4133809988
 40
0.4492016015
 40
0.4828807918
 40
0.5147978882
 40
0.5452732211
 40
0.5745668595
 40
0.6028864428
 40
0.6572279322
 40
0.7093119377
 40
0.8090746075
 40
0.9054426006
 40
1.0
 40
1.0
 40
1.0
 40
1.0
 10
7.6138718755
 20
3.6264388794
 30
0.0
 10
7.6127934331
 20
3.6257046058
 30
0.0
 10
7.6105031979
 20
3.6242765613
 30
0.0
 10
7.6067678425
 20
3.6223713789
 30
0.0
 10
7.6025902623
 20
3.620716251
 30
0.0
 10
7.5987909242
 20
3.6196510471
 30
0.0
 10
7.5955394609
 20
3.6190242487
 30
0.0
 10
7.5929738896
 20
3.618685086
 30
0.0
 10
7.5903482941
 20
3.6184942036
 30
0.0
 10
7.5876963537
 20
3.6184649642
 30
0.0
 10
7.5850556843
 20
3.6185967893
 30
0.0
 10
7.5816408855
 20
3.6189708161
 30
0.0
 10
7.5775920722
 20
3.6197822374
 30
0.0
 10
7.5730955993
 20
3.6212059123
 30
0.0
 10
7.5690578576
 20
3.6229543033
 30
0.0
 10
7.5654499775
 20
3.6249223794
 30
0.0
 10
7.562227073
 20
3.6270514117
 30
0.0
 10
7.5593346381
 20
3.6292913988
 30
0.0
 10
7.5567317628
 20
3.6316176435
 30
0.0
 10
7.5543774256
 20
3.6340058737
 30
0.0
 10
7.5515705577
 20
3.6372123307
 30
0.0
 10
7.5485073916
 20
3.6413352243
 30
0.0
 10
7.5444313333
 20
3.648047828
 30
0.0
 10
7.5405071958
 20
3.656676272
 30
0.0
 10
7.5371873274
 20
3.6672457002
 30
0.0
 10
7.5356819537
 20
3.6743628541
 30
0.0
 10
7.535076382
 20
3.6779090899
 30
0.0
  0
SPLINE
  5
33D
100
AcDbEntity
  8
ALL_ASSEMBLY_MEMBERS
100
AcDbSpline
 62
7
  6
CONTINUOUS
 70
0
 71
3
 72
60
 73
56
 74
0
 42
0.0000001
 43
0.0000001
 44
0.0000000001
 40
0.0
 40
0.0
 40
0.0
 40
0.0
 40
0.0078270469
 40
0.0156752681
 40
0.0195993668
 40
0.0235201151
 40
0.0313577736
 40
0.0391957259
 40
0.0470220048
 40
0.0548514794
 40
0.0626805571
 40
0.0705002515
 40
0.0783202543
 40
0.0861397348
 40
0.0939545864
 40
0.1095807525
 40
0.1252034545
 40
0.140826797
 40
0.156447756
 40
0.1720691628
 40
0.1876890443
 40
0.2033092646
 40
0.2189285671
 40
0.2501649509
 40
0.2814011299
 40
0.3126370702
 40
0.343873182
 40
0.3751091242
 40
0.4375776531
 40
0.5000469515
 40
0.5625164241
 40
0.6249855547
 40
0.656221851
 40
0.6874579131
 40
0.7186943779
 40
0.7499306035
 40
0.7811667422
 40
0.8124030482
 40
0.8280228473
 40
0.8436430795
 40
0.8592634837
 40
0.8748850668
 40
0.8905067273
 40
0.9061301062
 40
0.9139426366
 40
0.9217574695
 40
0.9295726604
 40
0.9373873911
 40
0.9452061059
 40
0.953027224
 40
0.968662561
 40
0.9764948127
 40
0.9843216636
 40
0.9921584444
 40
1.0
 40
1.0
 40
1.0
 40
1.0
 10
7.5827413185
 20
3.4212550749
 30
0.0
 10
7.5837166836
 20
3.4215158706
 30
0.0
 10
7.5857071857
 20
3.4219083686
 30
0.0
 10
7.5882387874
 20
3.4220629655
 30
0.0
 10
7.5902627145
 20
3.4219752383
 30
0.0
 10
7.5922738234
 20
3.4217434994
 30
0.0
 10
7.5947501015
 20
3.4211980939
 30
0.0
 10
7.5976132854
 20
3.4201803409
 30
0.0
 10
7.6003375054
 20
3.4188387379
 30
0.0
 10
7.6029081395
 20
3.4172274121
 30
0.0
 10
7.6053246996
 20
3.4153963233
 30
0.0
 10
7.6075912336
 20
3.413385483
 30
0.0
 10
7.6097132529
 20
3.4112252717
 30
0.0
 10
7.6117024287
 20
3.4089436484
 30
0.0
 10
7.6141923831
 20
3.405769983
 30
0.0
 10
7.6170201437
 20
3.401591369
 30
0.0
 10
7.620033842
 20
3.3963450429
 30
0.0
 10
7.6227186763
 20
3.390924876
 30
0.0
 10
7.6251256476
 20
3.3853770282
 30
0.0
 10
7.6272866961
 20
3.3797298804
 30
0.0
 10
7.629236061
 20
3.3740067688
 30
0.0
 10
7.6309946628
 20
3.3682227188
 30
0.0
 10
7.6331163032
 20
3.3604471675
 30
0.0
 10
7.6353899185
 20
3.3506296378
 30
0.0
 10
7.6376240576
 20
3.3387474744
 30
0.0
 10
7.6394433553
 20
3.3267954039
 30
0.0
 10
7.6409075808
 20
3.3147952518
 30
0.0
 10
7.6424480649
 20
3.2987512567
 30
0.0
 10
7.6436927773
 20
3.2786381695
 30
0.0
 10
7.6442763344
 20
3.2544662149
 30
0.0
 10
7.6440152127
 20
3.2302886859
 30
0.0
 10
7.6430694796
 20
3.2101599595
 30
0.0
 10
7.6418093131
 20
3.1940916359
 30
0.0
 10
7.6405816803
 20
3.182065138
 30
0.0
 10
7.6390364619
 20
3.1700749848
 30
0.0
 10
7.6371225595
 20
3.158137427
 30
0.0
 10
7.6347763337
 20
3.1462766089
 30
0.0
 10
7.6323898272
 20
3.1364854143
 30
0.0
 10
7.6301628044
 20
3.1287392103
 30
0.0
 10
7.6283147446
 20
3.1229828435
 30
0.0
 10
7.626265279
 20
3.1172945404
 30
0.0
 10
7.6239897928
 20
3.1116920184
 30
0.0
 10
7.6214519515
 20
3.1062023912
 30
0.0
 10
7.6190877524
 20
3.1017494263
 30
0.0
 10
7.6170187661
 20
3.0982889037
 30
0.0
 10
7.6153724568
 20
3.095751519
 30
0.0
 10
7.6136222805
 20
3.0932839953
 30
0.0
 10
7.6117580117
 20
3.09090067
 30
0.0
 10
7.6097717069
 20
3.0886161886
 30
0.0
 10
7.6069494136
 20
3.0857316879
 30
0.0
 10
7.6038320295
 20
3.0831374869
 30
0.0
 10
7.600413087
 20
3.0809814903
 30
0.0
 10
7.5976932096
 20
3.0796301116
 30
0.0
 10
7.5948329807
 20
3.0786032861
 30
0.0
 10
7.5928526231
 20
3.0781610879
 30
0.0
 10
7.5918528939
 20
3.0780072195
 30
0.0
  0
SPLINE
  5
33E
100
AcDbEntity
  8
ALL_ASSEMBLY_MEMBERS
100
AcDbSpline
 62
7
  6
CONTINUOUS
 70
0
 71
3
 72
51
 73
47
 74
0
 42
0.0000001
 43
0.0000001
 44
0.0000000001
 40
0.0
 40
0.0
 40
0.0
 40
0.0
 40
0.0156346908
 40
0.0312891323
 40
0.0469288961
 40
0.0625606313
 40
0.0703799709
 40
0.0781970392
 40
0.0938248055
 40
0.1094525003
 40
0.1250780486
 40
0.1407037086
 40
0.1563277547
 40
0.1719520593
 40
0.1875752999
 40
0.2188195888
 40
0.2500637657
 40
0.2813076378
 40
0.3125516799
 40
0.3437956073
 40
0.3750393482
 40
0.4062831319
 40
0.4375266738
 40
0.4687702116
 40
0.5000136296
 40
0.5312570135
 40
0.5625003913
 40
0.593743759
 40
0.6249871298
 40
0.656230579
 40
0.6874738683
 40
0.71871718
 40
0.7499603981
 40
0.781203335
 40
0.8124458079
 40
0.8436874554
 40
0.8749275565
 40
0.8905514539
 40
0.9061756046
 40
0.921801664
 40
0.9296166207
 40
0.9374344616
 40
0.9530642053
 40
0.9687006504
 40
0.9843620474
 40
1.0
 40
1.0
 40
1.0
 40
1.0
 10
7.5817820168
 20
3.0788004135
 30
0.0
 10
7.5799329453
 20
3.0793783286
 30
0.0
 10
7.576366026
 20
3.0809885483
 30
0.0
 10
7.5715939551
 20
3.0843546083
 30
0.0
 10
7.5673863594
 20
3.0883921062
 30
0.0
 10
7.5642855234
 20
3.0921239429
 30
0.0
 10
7.5620194978
 20
3.0952676839
 30
0.0
 10
7.5598817388
 20
3.0984994489
 30
0.0
 10
7.557434127
 20
3.1026812483
 30
0.0
 10
7.5548062923
 20
3.1078649319
 30
0.0
 10
7.5524427719
 20
3.1131733955
 30
0.0
 10
7.5503125795
 20
3.1185785956
 30
0.0
 10
7.5483848691
 20
3.1240587192
 30
0.0
 10
7.5466395653
 20
3.1295990729
 30
0.0
 10
7.5445264766
 20
3.1370493731
 30
0.0
 10
7.5422487375
 20
3.1464603787
 30
0.0
 10
7.5399919997
 20
3.157855975
 30
0.0
 10
7.5381358732
 20
3.1693230249
 30
0.0
 10
7.5366230737
 20
3.1808397829
 30
0.0
 10
7.5354088428
 20
3.1923914788
 30
0.0
 10
7.5344580114
 20
3.20396757
 30
0.0
 10
7.5337461725
 20
3.215560605
 30
0.0
 10
7.533252096
 20
3.227164834
 30
0.0
 10
7.5329649466
 20
3.2387759206
 30
0.0
 10
7.5328749601
 20
3.2503901593
 30
0.0
 10
7.5329818508
 20
3.2620042384
 30
0.0
 10
7.5332865874
 20
3.2736148325
 30
0.0
 10
7.5337986388
 20
3.2852181992
 30
0.0
 10
7.5345306526
 20
3.2968098777
 30
0.0
 10
7.5355025892
 20
3.3083840659
 30
0.0
 10
7.536741511
 20
3.3199329595
 30
0.0
 10
7.5382819169
 20
3.3314458454
 30
0.0
 10
7.5401697526
 20
3.3429074076
 30
0.0
 10
7.5424642981
 20
3.3542952237
 30
0.0
 10
7.5452434752
 20
3.3655759575
 30
0.0
 10
7.5486118267
 20
3.3766963582
 30
0.0
 10
7.5520310782
 20
3.3857617367
 30
0.0
 10
7.5552373064
 20
3.3928126377
 30
0.0
 10
7.5579157585
 20
3.397969608
 30
0.0
 10
7.5604096468
 20
3.4021232015
 30
0.0
 10
7.5625906762
 20
3.4053252372
 30
0.0
 10
7.5649034994
 20
3.4084339162
 30
0.0
 10
7.5680691334
 20
3.4121106958
 30
0.0
 10
7.5723678414
 20
3.4160537618
 30
0.0
 10
7.5772407452
 20
3.4192781366
 30
0.0
 10
7.580869395
 20
3.4207545551
 30
0.0
 10
7.5827413185
 20
3.4212550749
 30
0.0
  0
SPLINE
  5
33F
100
AcDbEntity
  8
ALL_ASSEMBLY_MEMBERS
100
AcDbSpline
 62
7
  6
CONTINUOUS
 70
0
 71
3
 72
54
 73
50
 74
0
 42
0.0000001
 43
0.0000001
 44
0.0000000001
 40
0.0
 40
0.0
 40
0.0
 40
0.0
 40
0.0537555606
 40
0.0810758627
 40
0.1088562352
 40
0.1229818447
 40
0.1373053326
 40
0.1518680304
 40
0.1667216786
 40
0.1819289256
 40
0.1975709448
 40
0.2305751032
 40
0.2669570348
 40
0.2768033056
 40
0.2870194814
 40
0.2976403655
 40
0.3087073002
 40
0.3202660672
 40
0.3323094228
 40
0.344797958
 40
0.3576991347
 40
0.3708866595
 40
0.3841535403
 40
0.3973025404
 40
0.4101926905
 40
0.4226979254
 40
0.4347165187
 40
0.4462515996
 40
0.4573175727
 40
0.4679331276
 40
0.4781421483
 40
0.4879853935
 40
0.4974983084
 40
0.5156696619
 40
0.5329064222
 40
0.5652743127
 40
0.5956947316
 40
0.6248229733
 40
0.6806856565
 40
0.734828031
 40
0.788133087
 40
0.814626745
 40
0.8410616997
 40
0.8674669752
 40
0.8938684673
 40
0.9202914712
 40
0.9467638479
 40
0.9733190287
 40
1.0
 40
1.0
 40
1.0
 40
1.0
 10
7.5350981303
 20
2.8219952626
 30
0.0
 10
7.535797642
 20
2.8260684012
 30
0.0
 10
7.5371313137
 20
2.8321719707
 30
0.0
 10
7.5396091117
 20
2.8401698668
 30
0.0
 10
7.5415147074
 20
2.8451446962
 30
0.0
 10
7.5432897064
 20
2.8490875098
 30
0.0
 10
7.5447693663
 20
2.8520459115
 30
0.0
 10
7.546406824
 20
2.8549844688
 30
0.0
 10
7.5482218092
 20
2.857897399
 30
0.0
 10
7.5502332786
 20
2.8607806299
 30
0.0
 10
7.5532722436
 20
2.8646390533
 30
0.0
 10
7.5578031536
 20
2.869379313
 30
0.0
 10
7.5626604504
 20
2.8731101968
 30
0.0
 10
7.5663761553
 20
2.8753536558
 30
0.0
 10
7.5684526381
 20
2.8764752356
 30
0.0
 10
7.5706697191
 20
2.8775271618
 30
0.0
 10
7.5730374936
 20
2.8784935518
 30
0.0
 10
7.5755606516
 20
2.8793573493
 30
0.0
 10
7.5782368385
 20
2.8800967155
 30
0.0
 10
7.5810561893
 20
2.8806847342
 30
0.0
 10
7.5839966514
 20
2.8810897902
 30
0.0
 10
7.5870174416
 20
2.8812977249
 30
0.0
 10
7.5900646499
 20
2.881302806
 30
0.0
 10
7.5930816669
 20
2.881090501
 30
0.0
 10
7.5960183885
 20
2.8806781656
 30
0.0
 10
7.5988366788
 20
2.8800928289
 30
0.0
 10
7.601510832
 20
2.8793549415
 30
0.0
 10
7.6040296822
 20
2.8784901782
 30
0.0
 10
7.6063944342
 20
2.8775226266
 30
0.0
 10
7.6086110901
 20
2.8764722552
 30
0.0
 10
7.6106869368
 20
2.8753521179
 30
0.0
 10
7.6126324379
 20
2.8741750399
 30
0.0
 10
7.6150307868
 20
2.8725698306
 30
0.0
 10
7.6177717552
 20
2.8704612897
 30
0.0
 10
7.6216406746
 20
2.8669647044
 30
0.0
 10
7.6257532045
 20
2.8623620587
 30
0.0
 10
7.6298019751
 20
2.8565536467
 30
0.0
 10
7.6341212546
 20
2.8487893887
 30
0.0
 10
7.638115399
 20
2.8388193873
 30
0.0
 10
7.6412817088
 20
2.8266464416
 30
0.0
 10
7.6428947164
 20
2.8164615574
 30
0.0
 10
7.6436832995
 20
2.8083309777
 30
0.0
 10
7.6440439734
 20
2.8022409028
 30
0.0
 10
7.6441840216
 20
2.7961491033
 30
0.0
 10
7.644109533
 20
2.7900570293
 30
0.0
 10
7.6438161308
 20
2.7839663677
 30
0.0
 10
7.6432975472
 20
2.7778786944
 30
0.0
 10
7.6425362964
 20
2.7717965085
 30
0.0
 10
7.6418554
 20
2.7677590324
 30
0.0
 10
7.6414663493
 20
2.7657450116
 30
0.0
  0
SPLINE
  5
340
100
AcDbEntity
  8
ALL_ASSEMBLY_MEMBERS
100
AcDbSpline
 62
7
  6
CONTINUOUS
 70
0
 71
3
 72
35
 73
31
 74
0
 42
0.0000001
 43
0.0000001
 44
0.0000000001
 40
0.0
 40
0.0
 40
0.0
 40
0.0
 40
0.0387733837
 40
0.0820744771
 40
0.1057112999
 40
0.1305524972
 40
0.1561965561
 40
0.1819818783
 40
0.1947013712
 40
0.2071842859
 40
0.2312908532
 40
0.2540782437
 40
0.2755510281
 40
0.2958300031
 40
0.3150600027
 40
0.3509588348
 40
0.3842644735
 40
0.4156878929
 40
0.4746972198
 40
0.5029315281
 40
0.5305748313
 40
0.5845876832
 40
0.6375029221
 40
0.689758274
 40
0.7416230281
 40
0.7932717249
 40
0.8448279896
 40
0.8963940606
 40
0.9480743281
 40
1.0
 40
1.0
 40
1.0
 40
1.0
 10
7.6138718755
 20
2.7171122055
 30
0.0
 10
7.6120794552
 20
2.7158918094
 30
0.0
 10
7.6081075228
 20
2.7135593788
 30
0.0
 10
7.6025951499
 20
2.7113481621
 30
0.0
 10
7.5976231896
 20
2.7100492898
 30
0.0
 10
7.5935264026
 20
2.7093758155
 30
0.0
 10
7.5892636048
 20
2.709090695
 30
0.0
 10
7.5856716445
 20
2.7092109378
 30
0.0
 10
7.5828351248
 20
2.7095122581
 30
0.0
 10
7.5801095906
 20
2.7099382463
 30
0.0
 10
7.5768677265
 20
2.7106803046
 30
0.0
 10
7.5732254479
 20
2.7118583677
 30
0.0
 10
7.5698922299
 20
2.7132530321
 30
0.0
 10
7.5668517938
 20
2.7148048898
 30
0.0
 10
7.5632382879
 20
2.7169846908
 30
0.0
 10
7.5592566189
 20
2.7199409827
 30
0.0
 10
7.5551397413
 20
2.7237930859
 30
0.0
 10
7.5505712806
 20
2.7290023409
 30
0.0
 10
7.5468458816
 20
2.7345319809
 30
0.0
 10
7.5438239906
 20
2.7402050365
 30
0.0
 10
7.5412634586
 20
2.745795703
 30
0.0
 10
7.5386847232
 20
2.7528801216
 30
0.0
 10
7.536380309
 20
2.7614883141
 30
0.0
 10
7.5347307641
 20
2.7701211283
 30
0.0
 10
7.5336303638
 20
2.7787677833
 30
0.0
 10
7.5330116187
 20
2.7874221569
 30
0.0
 10
7.5328375215
 20
2.7960797529
 30
0.0
 10
7.5330977823
 20
2.8047370973
 30
0.0
 10
7.5338077447
 20
2.8133900201
 30
0.0
 10
7.5346066005
 20
2.8191331668
 30
0.0
 10
7.5350981303
 20
2.8219952626
 30
0.0
  0
SPLINE
  5
341
100
AcDbEntity
  8
ALL_ASSEMBLY_MEMBERS
100
AcDbSpline
 62
7
  6
CONTINUOUS
 70
0
 71
3
 72
23
 73
19
 74
0
 42
0.0000001
 43
0.0000001
 44
0.0000000001
 40
0.0
 40
0.0
 40
0.0
 40
0.0
 40
0.1182162447
 40
0.1771231622
 40
0.2359864347
 40
0.2948708693
 40
0.3538441847
 40
0.4129858543
 40
0.4723972778
 40
0.53221659
 40
0.5926385788
 40
0.7164670441
 40
0.7810193489
 40
0.8485020805
 40
0.8838300659
 40
0.9205973595
 40
0.9591731363
 40
1.0
 40
1.0
 40
1.0
 40
1.0
 10
7.6424098034
 20
3.7285344945
 30
0.0
 10
7.6430628134
 20
3.7242075311
 30
0.0
 10
7.6437451474
 20
3.7176761297
 30
0.0
 10
7.6441360853
 20
3.7089483237
 30
0.0
 10
7.6441790975
 20
3.7024075361
 30
0.0
 10
7.6439725832
 20
3.6958676404
 30
0.0
 10
7.6435111499
 20
3.6893302539
 30
0.0
 10
7.6427779056
 20
3.6827978105
 30
0.0
 10
7.6417482271
 20
3.6762735676
 30
0.0
 10
7.6403858892
 20
3.6697607281
 30
0.0
 10
7.6380409875
 20
3.6610332775
 30
0.0
 10
7.6347802347
 20
3.6523743138
 30
0.0
 10
7.6303043584
 20
3.6440131812
 30
0.0
 10
7.6268094466
 20
3.6388788041
 30
0.0
 10
7.6235117597
 20
3.6348969711
 30
0.0
 10
7.6206795778
 20
3.6319317221
 30
0.0
 10
7.617476601
 20
3.629055679
 30
0.0
 10
7.6151210828
 20
3.6272894208
 30
0.0
 10
7.6138718755
 20
3.6264388794
 30
0.0
  0
SPLINE
  5
342
100
AcDbEntity
  8
ALL_ASSEMBLY_MEMBERS
100
AcDbSpline
 62
7
  6
CONTINUOUS
 70
0
 71
3
 72
11
 73
7
 74
0
 42
0.0000001
 43
0.0000001
 44
0.0000000001
 40
0.0
 40
0.0
 40
0.0
 40
0.0
 40
0.2499744144
 40
0.5001953556
 40
0.7504623525
 40
1.0
 40
1.0
 40
1.0
 40
1.0
 10
7.5918528939
 20
3.0780072195
 30
0.0
 10
7.5910140848
 20
3.0778781182
 30
0.0
 10
7.5893191405
 20
3.0777142502
 30
0.0
 10
7.5867662157
 20
3.0777766816
 30
0.0
 10
7.5842392012
 20
3.0781291978
 30
0.0
 10
7.5825906452
 20
3.078547682
 30
0.0
 10
7.5817820168
 20
3.0788004135
 30
0.0
  0
SPLINE
  5
343
100
AcDbEntity
  8
ALL_ASSEMBLY_MEMBERS
100
AcDbSpline
 62
7
  6
CONTINUOUS
 70
0
 71
3
 72
17
 73
13
 74
0
 42
0.0000001
 43
0.0000001
 44
0.0000000001
 40
0.0
 40
0.0
 40
0.0
 40
0.0
 40
0.2276258414
 40
0.4623408831
 40
0.523009685
 40
0.5847971875
 40
0.6479485217
 40
0.7128191864
 40
0.7798704065
 40
0.8496393053
 40
0.9227444447
 40
1.0
 40
1.0
 40
1.0
 40
1.0
 10
7.6414663493
 20
2.7657450116
 30
0.0
 10
7.6406411257
 20
2.7614730293
 30
0.0
 10
7.63853297
 20
2.7528718636
 30
0.0
 10
7.6349091135
 20
2.7435075164
 30
0.0
 10
7.6317743872
 20
2.7374403742
 30
0.0
 10
7.6299943776
 20
2.7343696566
 30
0.0
 10
7.6280150935
 20
2.7313269082
 30
0.0
 10
7.6258034698
 20
2.7283219793
 30
0.0
 10
7.6233239292
 20
2.7253664573
 30
0.0
 10
7.6205426967
 20
2.7224692384
 30
0.0
 10
7.6173984029
 20
2.7196663831
 30
0.0
 10
7.6150925086
 20
2.7179432917
 30
0.0
 10
7.6138718755
 20
2.7171122055
 30
0.0
  0
SPLINE
  5
344
100
AcDbEntity
  8
ALL_ASSEMBLY_MEMBERS
100
AcDbSpline
 62
7
  6
CONTINUOUS
 70
0
 71
3
 72
20
 73
16
 74
0
 42
0.0000001
 43
0.0000001
 44
0.0000000001
 40
0.0
 40
0.0
 40
0.0
 40
0.0
 40
0.1201246682
 40
0.1822189462
 40
0.245456639
 40
0.3096603674
 40
0.3746043598
 40
0.4399631578
 40
0.5054141544
 40
0.5706430356
 40
0.6353212671
 40
0.7618636095
 40
0.8234339502
 40
0.8836494822
 40
1.0
 40
1.0
 40
1.0
 40
1.0
 10
7.1740016297
 20
6.4789577675
 30
0.0
 10
7.1728142069
 20
6.4782883169
 30
0.0
 10
7.1709393463
 20
6.4773960376
 30
0.0
 10
7.1683124723
 20
6.4764653307
 30
0.0
 10
7.1662383072
 20
6.4758891496
 30
0.0
 10
7.1640968407
 20
6.4754553541
 30
0.0
 10
7.1619059108
 20
6.4751729004
 30
0.0
 10
7.1596863283
 20
6.47504523
 30
0.0
 10
7.15746008
 20
6.4750784626
 30
0.0
 10
7.1552495424
 20
6.4752702582
 30
0.0
 10
7.1523735609
 20
6.4757267233
 30
0.0
 10
7.1495934671
 20
6.4764785538
 30
0.0
 10
7.1469636101
 20
6.4774960149
 30
0.0
 10
7.1445158462
 20
6.478644704
 30
0.0
 10
7.1427905333
 20
6.4796788093
 30
0.0
 10
7.1417065403
 20
6.4804325799
 30
0.0
  0
SPLINE
  5
345
100
AcDbEntity
  8
ALL_ASSEMBLY_MEMBERS
100
AcDbSpline
 62
7
  6
CONTINUOUS
 70
0
 71
3
 72
21
 73
17
 74
0
 42
0.0000001
 43
0.0000001
 44
0.0000000001
 40
0.0
 40
0.0
 40
0.0
 40
0.0
 40
0.1172853819
 40
0.1781716609
 40
0.2405144973
 40
0.3041184362
 40
0.3687723567
 40
0.4341956965
 40
0.4999988301
 40
0.5658019428
 40
0.6312255621
 40
0.6958802035
 40
0.7594847747
 40
0.8218289205
 40
0.882716083
 40
1.0
 40
1.0
 40
1.0
 40
1.0
 10
7.1417122856
 20
7.0193491659
 30
0.0
 10
7.1428936122
 20
7.0201706606
 30
0.0
 10
7.1447844106
 20
7.0212877823
 30
0.0
 10
7.1474764358
 20
7.0225005095
 30
0.0
 10
7.1496338103
 20
7.0232818065
 30
0.0
 10
7.1518884498
 20
7.0239101424
 30
0.0
 10
7.154222201
 20
7.0243696174
 30
0.0
 10
7.1566113514
 20
7.0246495007
 30
0.0
 10
7.1590291398
 20
7.0247450327
 30
0.0
 10
7.1614469332
 20
7.0246495231
 30
0.0
 10
7.1638360955
 20
7.0243696409
 30
0.0
 10
7.1661698724
 20
7.0239101923
 30
0.0
 10
7.1684245428
 20
7.0232818431
 30
0.0
 10
7.1705819523
 20
7.0225005438
 30
0.0
 10
7.1732740028
 20
7.0212878492
 30
0.0
 10
7.1751647882
 20
7.0201707184
 30
0.0
 10
7.1763461045
 20
7.0193492404
 30
0.0
  0
SPLINE
  5
346
100
AcDbEntity
  8
ALL_ASSEMBLY_MEMBERS
100
AcDbSpline
 62
7
  6
CONTINUOUS
 70
0
 71
3
 72
19
 73
15
 74
0
 42
0.0000001
 43
0.0000001
 44
0.0000000001
 40
0.0
 40
0.0
 40
0.0
 40
0.0
 40
0.1103302804
 40
0.2309722719
 40
0.2953404014
 40
0.3620519313
 40
0.4305452857
 40
0.5000007146
 40
0.5694562381
 40
0.6379502379
 40
0.7046622941
 40
0.7690316108
 40
0.8896719158
 40
1.0
 40
1.0
 40
1.0
 40
1.0
 10
7.1813899297
 20
6.4859576231
 30
0.0
 10
7.1801149039
 20
6.4846657614
 30
0.0
 10
7.1771667589
 20
6.4822248299
 30
0.0
 10
7.1728613149
 20
6.4799025195
 30
0.0
 10
7.1689643567
 20
6.4784850178
 30
0.0
 10
7.1657775923
 20
6.477671299
 30
0.0
 10
7.1624427234
 20
6.4771688071
 30
0.0
 10
7.1590292127
 20
6.4769966961
 30
0.0
 10
7.155615693
 20
6.4771688208
 30
0.0
 10
7.1522808017
 20
6.4776713105
 30
0.0
 10
7.1490940093
 20
6.4784850756
 30
0.0
 10
7.1451970469
 20
6.4799025663
 30
0.0
 10
7.1408916621
 20
6.4822248961
 30
0.0
 10
7.1379435706
 20
6.4846657871
 30
0.0
 10
7.1366685702
 20
6.4859576231
 30
0.0
  0
SPLINE
  5
347
100
AcDbEntity
  8
ALL_ASSEMBLY_MEMBERS
100
AcDbSpline
 62
7
  6
CONTINUOUS
 70
0
 71
3
 72
21
 73
17
 74
0
 42
0.0000001
 43
0.0000001
 44
0.0000000001
 40
0.0
 40
0.0
 40
0.0
 40
0.0
 40
0.1074261674
 40
0.1658375478
 40
0.2274437097
 40
0.2921855356
 40
0.3596886581
 40
0.429282002
 40
0.5000007294
 40
0.570719551
 40
0.6403135476
 40
0.7078171789
 40
0.7725601936
 40
0.8341655721
 40
0.8925759944
 40
1.0
 40
1.0
 40
1.0
 40
1.0
 10
7.1813899297
 20
6.4891517031
 30
0.0
 10
7.1801002972
 20
6.4879906287
 30
0.0
 10
7.177922321
 20
6.4863953548
 30
0.0
 10
7.1746874624
 20
6.4846469354
 30
0.0
 10
7.1719387158
 20
6.4834724803
 30
0.0
 10
7.168954879
 20
6.4825091566
 30
0.0
 10
7.1657708525
 20
6.4817874882
 30
0.0
 10
7.1624391628
 20
6.4813418804
 30
0.0
 10
7.1590292128
 20
6.4811892654
 30
0.0
 10
7.1556192535
 20
6.4813418927
 30
0.0
 10
7.1522875421
 20
6.4817874981
 30
0.0
 10
7.1491034865
 20
6.4825092084
 30
0.0
 10
7.1461196329
 20
6.4834725274
 30
0.0
 10
7.1433709025
 20
6.4846469994
 30
0.0
 10
7.1401361087
 20
6.4863954051
 30
0.0
 10
7.1379581767
 20
6.4879906521
 30
0.0
 10
7.1366685702
 20
6.4891517031
 30
0.0
  0
SPLINE
  5
348
100
AcDbEntity
  8
ALL_ASSEMBLY_MEMBERS
100
AcDbSpline
 62
7
  6
CONTINUOUS
 70
0
 71
3
 72
21
 73
17
 74
0
 42
0.0000001
 43
0.0000001
 44
0.0000000001
 40
0.0
 40
0.0
 40
0.0
 40
0.0
 40
0.1044880538
 40
0.1622708069
 40
0.2237917127
 40
0.2889441855
 40
0.3572724433
 40
0.4279940619
 40
0.5000007429
 40
0.5720075176
 40
0.6427297965
 40
0.7110585463
 40
0.7762122102
 40
0.8377323017
 40
0.8955140745
 40
1.0
 40
1.0
 40
1.0
 40
1.0
 10
7.1813899297
 20
6.4944452005
 30
0.0
 10
7.1800833084
 20
6.4934258076
 30
0.0
 10
7.1778921079
 20
6.4920416153
 30
0.0
 10
7.174675103
 20
6.4905364098
 30
0.0
 10
7.1719276353
 20
6.4895202927
 30
0.0
 10
7.1689458843
 20
6.4886869642
 30
0.0
 10
7.1657644144
 20
6.4880627318
 30
0.0
 10
7.1624358402
 20
6.4876773359
 30
0.0
 10
7.1590292129
 20
6.4875453403
 30
0.0
 10
7.1556225761
 20
6.4876773466
 30
0.0
 10
7.152293981
 20
6.4880627402
 30
0.0
 10
7.1491124807
 20
6.4886870092
 30
0.0
 10
7.1461307142
 20
6.4895203333
 30
0.0
 10
7.1433832617
 20
6.4905364653
 30
0.0
 10
7.1401663206
 20
6.4920416594
 30
0.0
 10
7.1379751649
 20
6.4934258283
 30
0.0
 10
7.1366685702
 20
6.4944452005
 30
0.0
  0
SPLINE
  5
349
100
AcDbEntity
  8
ALL_ASSEMBLY_MEMBERS
100
AcDbSpline
 62
7
  6
CONTINUOUS
 70
0
 71
3
 72
21
 73
17
 74
0
 42
0.0000001
 43
0.0000001
 44
0.0000000001
 40
0.0
 40
0.0
 40
0.0
 40
0.0
 40
0.1016043231
 40
0.1587904523
 40
0.2202459286
 40
0.2858096322
 40
0.3549426184
 40
0.4267543531
 40
0.500000756
 40
0.5732472525
 40
0.6450596548
 40
0.7141931175
 40
0.7797580148
 40
0.8412126469
 40
0.8983977733
 40
1.0
 40
1.0
 40
1.0
 40
1.0
 10
7.1813899297
 20
6.5017954927
 30
0.0
 10
7.1800642246
 20
6.5009288084
 30
0.0
 10
7.1778610932
 20
6.4997685742
 30
0.0
 10
7.1746629141
 20
6.4985158304
 30
0.0
 10
7.171917094
 20
6.4976658298
 30
0.0
 10
7.1689375444
 20
6.4969687188
 30
0.0
 10
7.1657585568
 20
6.4964465345
 30
0.0
 10
7.1624328509
 20
6.4961241596
 30
0.0
 10
7.1590292129
 20
6.4960137441
 30
0.0
 10
7.1556255652
 20
6.4961241685
 30
0.0
 10
7.1522998393
 20
6.4964465415
 30
0.0
 10
7.14912082
 20
6.4969687566
 30
0.0
 10
7.1461412563
 20
6.4976658635
 30
0.0
 10
7.1433954505
 20
6.4985158768
 30
0.0
 10
7.140197334
 20
6.4997686115
 30
0.0
 10
7.137994248
 20
6.5009288262
 30
0.0
 10
7.1366685702
 20
6.5017954927
 30
0.0
  0
SPLINE
  5
34A
100
AcDbEntity
  8
ALL_ASSEMBLY_MEMBERS
100
AcDbSpline
 62
7
  6
CONTINUOUS
 70
0
 71
3
 72
23
 73
19
 74
0
 42
0.0000001
 43
0.0000001
 44
0.0000000001
 40
0.0
 40
0.0
 40
0.0
 40
0.0
 40
0.0471516705
 40
0.0989772762
 40
0.1556205859
 40
0.2170234461
 40
0.2829674092
 40
0.3528339796
 40
0.4256336507
 40
0.5000007687
 40
0.5743679801
 40
0.6471683257
 40
0.7170353587
 40
0.782980518
 40
0.8443825064
 40
0.9010247924
 40
0.9528490982
 40
1.0
 40
1.0
 40
1.0
 40
1.0
 10
7.1813899297
 20
6.5111433962
 30
0.0
 10
7.1807482947
 20
6.510808419
 30
0.0
 10
7.1793720443
 20
6.5101606435
 30
0.0
 10
7.1771419643
 20
6.5092993507
 30
0.0
 10
7.1746512816
 20
6.5085211548
 30
0.0
 10
7.171907699
 20
6.5078435785
 30
0.0
 10
7.1689301895
 20
6.507287742
 30
0.0
 10
7.1657535027
 20
6.5068713822
 30
0.0
 10
7.1624302914
 20
6.5066143352
 30
0.0
 10
7.159029213
 20
6.5065262914
 30
0.0
 10
7.1556281247
 20
6.5066143423
 30
0.0
 10
7.152304894
 20
6.5068713876
 30
0.0
 10
7.1491281744
 20
6.5072877723
 30
0.0
 10
7.1461506521
 20
6.5078436054
 30
0.0
 10
7.1434070827
 20
6.5085211915
 30
0.0
 10
7.1409164502
 20
6.5092993828
 30
0.0
 10
7.1386864147
 20
6.5101606588
 30
0.0
 10
7.1373101947
 20
6.5108084244
 30
0.0
 10
7.1366685702
 20
6.5111433962
 30
0.0
  0
SPLINE
  5
34B
100
AcDbEntity
  8
ALL_ASSEMBLY_MEMBERS
100
AcDbSpline
 62
7
  6
CONTINUOUS
 70
0
 71
3
 72
23
 73
19
 74
0
 42
0.0000001
 43
0.0000001
 44
0.0000000001
 40
0.0
 40
0.0
 40
0.0
 40
0.0
 40
0.0457416068
 40
0.0966597652
 40
0.1528606473
 40
0.2142401162
 40
0.280525607
 40
0.3510287535
 40
0.4246761211
 40
0.5000007791
 40
0.5753255304
 40
0.6489735783
 40
0.7194771764
 40
0.7857638657
 40
0.8471424394
 40
0.9033422793
 40
0.9542591505
 40
1.0
 40
1.0
 40
1.0
 40
1.0
 10
7.1813899297
 20
6.5224136431
 30
0.0
 10
7.1807433336
 20
6.522163941
 30
0.0
 10
7.1793588426
 20
6.5216825768
 30
0.0
 10
7.1771304383
 20
6.5210466518
 30
0.0
 10
7.1746415873
 20
6.5204719753
 30
0.0
 10
7.1718997947
 20
6.5199714937
 30
0.0
 10
7.1689242092
 20
6.5195608959
 30
0.0
 10
7.1657494288
 20
6.5192532945
 30
0.0
 10
7.1624282501
 20
6.5190633893
 30
0.0
 10
7.1590292131
 20
6.5189983388
 30
0.0
 10
7.155630166
 20
6.5190633946
 30
0.0
 10
7.1523089684
 20
6.5192532985
 30
0.0
 10
7.1491341544
 20
6.5195609183
 30
0.0
 10
7.146158557
 20
6.5199715135
 30
0.0
 10
7.143416777
 20
6.5204720025
 30
0.0
 10
7.1409279755
 20
6.5210466757
 30
0.0
 10
7.1386996162
 20
6.5216825881
 30
0.0
 10
7.1373151556
 20
6.5221639452
 30
0.0
 10
7.1366685702
 20
6.5224136431
 30
0.0
  0
SPLINE
  5
34C
100
AcDbEntity
  8
ALL_ASSEMBLY_MEMBERS
100
AcDbSpline
 62
7
  6
CONTINUOUS
 70
0
 71
3
 72
23
 73
19
 74
0
 42
0.0000001
 43
0.0000001
 44
0.0000000001
 40
0.0
 40
0.0
 40
0.0
 40
0.0
 40
0.0446651512
 40
0.0948998265
 40
0.1507729509
 40
0.2121403495
 40
0.2786894602
 40
0.3496732678
 40
0.4239581261
 40
0.5000003888
 40
0.576042497
 40
0.65032717
 40
0.7213106954
 40
0.7878596048
 40
0.8492270048
 40
0.905100174
 40
0.9553348546
 40
1.0
 40
1.0
 40
1.0
 40
1.0
 10
7.1813899297
 20
6.5355154869
 30
0.0
 10
7.1807391351
 20
6.5353546228
 30
0.0
 10
7.1793482389
 20
6.5350454477
 30
0.0
 10
7.1771216147
 20
6.534639089
 30
0.0
 10
7.1746345095
 20
6.5342717686
 30
0.0
 10
7.1718942341
 20
6.5339517846
 30
0.0
 10
7.1689201293
 20
6.5336892466
 30
0.0
 10
7.1657466893
 20
6.5334925164
 30
0.0
 10
7.1624269029
 20
6.5333710778
 30
0.0
 10
7.1590292348
 20
6.533329464
 30
0.0
 10
7.1556315694
 20
6.5333710783
 30
0.0
 10
7.1523117924
 20
6.5334925173
 30
0.0
 10
7.1491383624
 20
6.5336892468
 30
0.0
 10
7.1461642648
 20
6.533951785
 30
0.0
 10
7.1434239918
 20
6.5342717686
 30
0.0
 10
7.1409368857
 20
6.5346390888
 30
0.0
 10
7.1387102609
 20
6.5350454476
 30
0.0
 10
7.1373193648
 20
6.5353546228
 30
0.0
 10
7.1366685702
 20
6.5355154869
 30
0.0
  0
SPLINE
  5
34D
100
AcDbEntity
  8
ALL_ASSEMBLY_MEMBERS
100
AcDbSpline
 62
7
  6
CONTINUOUS
 70
0
 71
3
 72
17
 73
13
 74
0
 42
0.0000001
 43
0.0000001
 44
0.0000000001
 40
0.0
 40
0.0
 40
0.0
 40
0.0
 40
0.0440296858
 40
0.0938677844
 40
0.2109209542
 40
0.3488881924
 40
0.5000007915
 40
0.6511141713
 40
0.7890830503
 40
0.9061342321
 40
0.9559710585
 40
1.0
 40
1.0
 40
1.0
 40
1.0
 10
7.1813899297
 20
6.5503434334
 30
0.0
 10
7.1807364241
 20
6.5502740361
 30
0.0
 10
7.1793416097
 20
6.5501409109
 30
0.0
 10
7.1762029332
 20
6.5498951223
 30
0.0
 10
7.1716589378
 20
6.549644711
 30
0.0
 10
7.1655995983
 20
6.5494543044
 30
0.0
 10
7.1590292029
 20
6.5493872854
 30
0.0
 10
7.1524587829
 20
6.5494543064
 30
0.0
 10
7.146399437
 20
6.5496447153
 30
0.0
 10
7.141855466
 20
6.5498951298
 30
0.0
 10
7.1387168491
 20
6.5501409141
 30
0.0
 10
7.1373220648
 20
6.5502740372
 30
0.0
 10
7.1366685702
 20
6.5503434334
 30
0.0
  0
SPLINE
  5
34E
100
AcDbEntity
  8
ALL_ASSEMBLY_MEMBERS
100
AcDbSpline
 62
7
  6
CONTINUOUS
 70
0
 71
3
 72
17
 73
13
 74
0
 42
0.0000001
 43
0.0000001
 44
0.0000000001
 40
0.0
 40
0.0
 40
0.0
 40
0.0
 40
0.0440308416
 40
0.0938696745
 40
0.2109231956
 40
0.3488895227
 40
0.5000008969
 40
0.6511127864
 40
0.7890808157
 40
0.9061323375
 40
0.9559698994
 40
1.0
 40
1.0
 40
1.0
 40
1.0
 10
7.1366685702
 20
6.9494795666
 30
0.0
 10
7.137322071
 20
6.9495492334
 30
0.0
 10
7.1387168787
 20
6.9496828758
 30
0.0
 10
7.1418555455
 20
6.9499296199
 30
0.0
 10
7.1463995391
 20
6.9501810055
 30
0.0
 10
7.1524588913
 20
6.9503721536
 30
0.0
 10
7.1590292978
 20
6.9504394333
 30
0.0
 10
7.1655997298
 20
6.9503721514
 30
0.0
 10
7.1716590852
 20
6.9501810013
 30
0.0
 10
7.1762030551
 20
6.9499296123
 30
0.0
 10
7.1793416622
 20
6.9496828726
 30
0.0
 10
7.18073644
 20
6.9495492322
 30
0.0
 10
7.1813899297
 20
6.9494795666
 30
0.0
  0
SPLINE
  5
34F
100
AcDbEntity
  8
ALL_ASSEMBLY_MEMBERS
100
AcDbSpline
 62
7
  6
CONTINUOUS
 70
0
 71
3
 72
23
 73
19
 74
0
 42
0.0000001
 43
0.0000001
 44
0.0000000001
 40
0.0
 40
0.0
 40
0.0
 40
0.0
 40
0.0446684153
 40
0.0949061113
 40
0.1507817332
 40
0.2121508133
 40
0.2786980753
 40
0.3496804482
 40
0.4239626521
 40
0.5000024072
 40
0.5760412186
 40
0.6503226782
 40
0.7213042855
 40
0.7878516637
 40
0.8492200546
 40
0.9050950431
 40
0.955332009
 40
1.0
 40
1.0
 40
1.0
 40
1.0
 10
7.1366685702
 20
6.9643026459
 30
0.0
 10
7.1373193649
 20
6.9644637761
 30
0.0
 10
7.1387102774
 20
6.9647734656
 30
0.0
 10
7.1409369634
 20
6.9651805083
 30
0.0
 10
7.1434241457
 20
6.9655484402
 30
0.0
 10
7.1461644578
 20
6.9658689513
 30
0.0
 10
7.149138568
 20
6.9661319272
 30
0.0
 10
7.1523119717
 20
6.9663289664
 30
0.0
 10
7.1556317269
 20
6.9664506076
 30
0.0
 10
7.1590293442
 20
6.9664922821
 30
0.0
 10
7.1624269504
 20
6.9664506051
 30
0.0
 10
7.1657466686
 20
6.9663289601
 30
0.0
 10
7.168920051
 20
6.9661319165
 30
0.0
 10
7.1718941412
 20
6.9658689419
 30
0.0
 10
7.1746344349
 20
6.9655484296
 30
0.0
 10
7.1771215863
 20
6.9651804996
 30
0.0
 10
7.1793482459
 20
6.9647734616
 30
0.0
 10
7.1807391412
 20
6.9644637745
 30
0.0
 10
7.1813899297
 20
6.9643026459
 30
0.0
  0
SPLINE
  5
350
100
AcDbEntity
  8
ALL_ASSEMBLY_MEMBERS
100
AcDbSpline
 62
7
  6
CONTINUOUS
 70
0
 71
3
 72
23
 73
19
 74
0
 42
0.0000001
 43
0.0000001
 44
0.0000000001
 40
0.0
 40
0.0
 40
0.0
 40
0.0
 40
0.0457452965
 40
0.0966658195
 40
0.1528678516
 40
0.2142473691
 40
0.2805318945
 40
0.3510333379
 40
0.4246786014
 40
0.5000008828
 40
0.5753231389
 40
0.6489689404
 40
0.7194708522
 40
0.7857566191
 40
0.8471352407
 40
0.9033362207
 40
0.9542554578
 40
1.0
 40
1.0
 40
1.0
 40
1.0
 10
7.1366685702
 20
6.9773992941
 30
0.0
 10
7.1373151527
 20
6.9776492504
 30
0.0
 10
7.1386996221
 20
6.9781311093
 30
0.0
 10
7.1409280322
 20
6.9787676989
 30
0.0
 10
7.1434168892
 20
6.9793429751
 30
0.0
 10
7.1461586859
 20
6.9798439785
 30
0.0
 10
7.1491342746
 20
6.980255005
 30
0.0
 10
7.1523090593
 20
6.980562927
 30
0.0
 10
7.1556302453
 20
6.9807530293
 30
0.0
 10
7.1590292898
 20
6.9808181484
 30
0.0
 10
7.1624283423
 20
6.9807530248
 30
0.0
 10
7.1657495432
 20
6.9805629225
 30
0.0
 10
7.1689243604
 20
6.9802549824
 30
0.0
 10
7.1718999619
 20
6.979843959
 30
0.0
 10
7.1746417466
 20
6.9793429481
 30
0.0
 10
7.1771305538
 20
6.9787676749
 30
0.0
 10
7.1793589187
 20
6.978131098
 30
0.0
 10
7.1807433579
 20
6.9776492463
 30
0.0
 10
7.1813899297
 20
6.9773992941
 30
0.0
  0
SPLINE
  5
351
100
AcDbEntity
  8
ALL_ASSEMBLY_MEMBERS
100
AcDbSpline
 62
7
  6
CONTINUOUS
 70
0
 71
3
 72
23
 73
19
 74
0
 42
0.0000001
 43
0.0000001
 44
0.0000000001
 40
0.0
 40
0.0
 40
0.0
 40
0.0
 40
0.0471561677
 40
0.0989847027
 40
0.1556294661
 40
0.2170324223
 40
0.2829752319
 40
0.352839711
 40
0.4256367419
 40
0.5000008708
 40
0.5743649761
 40
0.6471625418
 40
0.7170275002
 40
0.7829715477
 40
0.8443736315
 40
0.9010173619
 40
0.9528445981
 40
1.0
 40
1.0
 40
1.0
 40
1.0
 10
7.1366685702
 20
6.9886640589
 30
0.0
 10
7.1373101904
 20
6.9889992791
 30
0.0
 10
7.1386864154
 20
6.9896475301
 30
0.0
 10
7.1409165004
 20
6.9905094725
 30
0.0
 10
7.143407189
 20
6.9912882545
 30
0.0
 10
7.1461507763
 20
6.9919663406
 30
0.0
 10
7.1491282899
 20
6.9925225959
 30
0.0
 10
7.1523049823
 20
6.9929392691
 30
0.0
 10
7.1556282023
 20
6.9931965082
 30
0.0
 10
7.1590292898
 20
6.9932846193
 30
0.0
 10
7.1624303852
 20
6.9931965022
 30
0.0
 10
7.1657536207
 20
6.9929392629
 30
0.0
 10
7.1689303447
 20
6.9925225655
 30
0.0
 10
7.1719078722
 20
6.991966314
 30
0.0
 10
7.1746514467
 20
6.9912882179
 30
0.0
 10
7.1771420848
 20
6.9905094403
 30
0.0
 10
7.1793721253
 20
6.9896475148
 30
0.0
 10
7.1807483199
 20
6.9889992737
 30
0.0
 10
7.1813899297
 20
6.9886640589
 30
0.0
  0
SPLINE
  5
352
100
AcDbEntity
  8
ALL_ASSEMBLY_MEMBERS
100
AcDbSpline
 62
7
  6
CONTINUOUS
 70
0
 71
3
 72
21
 73
17
 74
0
 42
0.0000001
 43
0.0000001
 44
0.0000000001
 40
0.0
 40
0.0
 40
0.0
 40
0.0
 40
0.1016125399
 40
0.1588003513
 40
0.2202559903
 40
0.2858184465
 40
0.3549491033
 40
0.4267578487
 40
0.5000008562
 40
0.5732438421
 40
0.6450531188
 40
0.7141842684
 40
0.7797479586
 40
0.8412027528
 40
0.8983895527
 40
1.0
 40
1.0
 40
1.0
 40
1.0
 10
7.1366685702
 20
6.998006238
 30
0.0
 10
7.1379942177
 20
6.9988733842
 30
0.0
 10
7.1401973176
 20
7.0000342886
 30
0.0
 10
7.1433955528
 20
7.0012877792
 30
0.0
 10
7.1461413775
 20
7.0021382736
 30
0.0
 10
7.1491209315
 20
7.0028357904
 30
0.0
 10
7.1522999256
 20
7.0033582782
 30
0.0
 10
7.1556256414
 20
7.003680839
 30
0.0
 10
7.1590292899
 20
7.00379132
 30
0.0
 10
7.162432946
 20
7.0036808314
 30
0.0
 10
7.165758678
 20
7.0033582704
 30
0.0
 10
7.1689377026
 20
7.0028357523
 30
0.0
 10
7.1719172718
 20
7.0021382403
 30
0.0
 10
7.1746630826
 20
7.0012877329
 30
0.0
 10
7.1778612549
 20
7.000034251
 30
0.0
 10
7.1800643096
 20
6.9988733663
 30
0.0
 10
7.1813899297
 20
6.998006238
 30
0.0
  0
SPLINE
  5
353
100
AcDbEntity
  8
ALL_ASSEMBLY_MEMBERS
100
AcDbSpline
 62
7
  6
CONTINUOUS
 70
0
 71
3
 72
21
 73
17
 74
0
 42
0.0000001
 43
0.0000001
 44
0.0000000001
 40
0.0
 40
0.0
 40
0.0
 40
0.0
 40
0.104496636
 40
0.1622812052
 40
0.2238023336
 40
0.2889535313
 40
0.3572793431
 40
0.4279977829
 40
0.5000008407
 40
0.5720038794
 40
0.6427228471
 40
0.711049167
 40
0.7762015944
 40
0.8377219081
 40
0.8955054888
 40
1.0
 40
1.0
 40
1.0
 40
1.0
 10
7.1366685702
 20
7.0053506095
 30
0.0
 10
7.137975139
 20
7.0063704318
 30
0.0
 10
7.1401663028
 20
7.0077552598
 30
0.0
 10
7.1433833625
 20
7.0092611893
 30
0.0
 10
7.1461308339
 20
7.0102777796
 30
0.0
 10
7.1491125892
 20
7.0111114975
 30
0.0
 10
7.152294066
 20
7.0117360212
 30
0.0
 10
7.1556226511
 20
7.0121215952
 30
0.0
 10
7.1590292899
 20
7.012253654
 30
0.0
 10
7.1624359363
 20
7.0121215862
 30
0.0
 10
7.1657645383
 20
7.0117360118
 30
0.0
 10
7.1689460444
 20
7.0111114522
 30
0.0
 10
7.1719278162
 20
7.0102777395
 30
0.0
 10
7.1746752728
 20
7.009261134
 30
0.0
 10
7.1778922685
 20
7.0077552155
 30
0.0
 10
7.1800833875
 20
7.0063704111
 30
0.0
 10
7.1813899297
 20
7.0053506095
 30
0.0
  0
SPLINE
  5
354
100
AcDbEntity
  8
ALL_ASSEMBLY_MEMBERS
100
AcDbSpline
 62
7
  6
CONTINUOUS
 70
0
 71
3
 72
21
 73
17
 74
0
 42
0.0000001
 43
0.0000001
 44
0.0000000001
 40
0.0
 40
0.0
 40
0.0
 40
0.0
 40
0.1074347166
 40
0.1658479652
 40
0.2274544032
 40
0.2921949858
 40
0.3596956577
 40
0.429285782
 40
0.5000008259
 40
0.5707158521
 40
0.6403064991
 40
0.7078076956
 40
0.7725495043
 40
0.8341551585
 40
0.8925674417
 40
1.0
 40
1.0
 40
1.0
 40
1.0
 10
7.1366685702
 20
7.0106380375
 30
0.0
 10
7.1379581569
 20
7.0117995095
 30
0.0
 10
7.1401360941
 20
7.013395379
 30
0.0
 10
7.1433710035
 20
7.0151444911
 30
0.0
 10
7.1461197527
 20
7.0163193945
 30
0.0
 10
7.1491035931
 20
7.0172830877
 30
0.0
 10
7.1522876264
 20
7.0180050329
 30
0.0
 10
7.1556193277
 20
7.0184508095
 30
0.0
 10
7.15902929
 20
7.0186034849
 30
0.0
 10
7.1624392598
 20
7.0184507992
 30
0.0
 10
7.1657709785
 20
7.0180050217
 30
0.0
 10
7.1689550399
 20
7.0172830356
 30
0.0
 10
7.1719388983
 20
7.0163193479
 30
0.0
 10
7.1746876317
 20
7.0151444273
 30
0.0
 10
7.1779224759
 20
7.0133953284
 30
0.0
 10
7.1801003689
 20
7.0117994861
 30
0.0
 10
7.1813899297
 20
7.0106380375
 30
0.0
  0
SPLINE
  5
355
100
AcDbEntity
  8
ALL_ASSEMBLY_MEMBERS
100
AcDbSpline
 62
7
  6
CONTINUOUS
 70
0
 71
3
 72
19
 73
15
 74
0
 42
0.0000001
 43
0.0000001
 44
0.0000000001
 40
0.0
 40
0.0
 40
0.0
 40
0.0
 40
0.1103385043
 40
0.2309826224
 40
0.2953495892
 40
0.3620587584
 40
0.4305489798
 40
0.5000008093
 40
0.5694526233
 40
0.6379433635
 40
0.7046530745
 40
0.7690212643
 40
0.8896636884
 40
1.0
 40
1.0
 40
1.0
 40
1.0
 10
7.1366685702
 20
7.0138259485
 30
0.0
 10
7.1379435572
 20
7.015118176
 30
0.0
 10
7.1408916044
 20
7.0175598221
 30
0.0
 10
7.1451971102
 20
7.0198829204
 30
0.0
 10
7.1490941149
 20
7.0213008895
 30
0.0
 10
7.152280886
 20
7.0221148681
 30
0.0
 10
7.1556157666
 20
7.0226175182
 30
0.0
 10
7.1590292901
 20
7.0227896863
 30
0.0
 10
7.1624428208
 20
7.0226175067
 30
0.0
 10
7.1657777197
 20
7.0221148553
 30
0.0
 10
7.1689645175
 20
7.0213008314
 30
0.0
 10
7.1728615278
 20
7.0198828747
 30
0.0
 10
7.1771669742
 20
7.0175597555
 30
0.0
 10
7.180114968
 20
7.0151181504
 30
0.0
 10
7.1813899297
 20
7.0138259485
 30
0.0
  0
SPLINE
  5
356
100
AcDbEntity
  8
ALL_ASSEMBLY_MEMBERS
100
AcDbSpline
 62
7
  6
CONTINUOUS
 70
0
 71
3
 72
23
 73
19
 74
0
 42
0.0000001
 43
0.0000001
 44
0.0000000001
 40
0.0
 40
0.0
 40
0.0
 40
0.0
 40
0.1247664233
 40
0.1872875438
 40
0.249788355
 40
0.3123075016
 40
0.374848671
 40
0.4061417979
 40
0.4374451443
 40
0.5000007351
 40
0.5625563235
 40
0.5938598497
 40
0.625153291
 40
0.6876951024
 40
0.7502154585
 40
0.8127156711
 40
0.8752359507
 40
1.0
 40
1.0
 40
1.0
 40
1.0
 10
7.1366685702
 20
6.5503434334
 30
0.0
 10
7.137890904
 20
6.5484151178
 30
0.0
 10
7.1399864292
 20
6.5456678877
 30
0.0
 10
7.1433006857
 20
6.542509444
 30
0.0
 10
7.1460485142
 20
6.5404386827
 30
0.0
 10
7.1490389025
 20
6.5387345711
 30
0.0
 10
7.1517053005
 20
6.5376680295
 30
0.0
 10
7.1539144458
 20
6.5370579374
 30
0.0
 10
7.1561636964
 20
6.5366172782
 30
0.0
 10
7.1590292899
 20
6.5363900527
 30
0.0
 10
7.1618948875
 20
6.5366172863
 30
0.0
 10
7.1641441424
 20
6.5370579672
 30
0.0
 10
7.1663533112
 20
6.5376680547
 30
0.0
 10
7.1690197254
 20
6.5387346629
 30
0.0
 10
7.1720101427
 20
6.5404387672
 30
0.0
 10
7.1747579475
 20
6.542509556
 30
0.0
 10
7.1780721337
 20
6.54566797
 30
0.0
 10
7.1801676192
 20
6.5484151545
 30
0.0
 10
7.1813899297
 20
6.5503434334
 30
0.0
  0
SPLINE
  5
357
100
AcDbEntity
  8
ALL_ASSEMBLY_MEMBERS
100
AcDbSpline
 62
7
  6
CONTINUOUS
 70
0
 71
3
 72
23
 73
19
 74
0
 42
0.0000001
 43
0.0000001
 44
0.0000000001
 40
0.0
 40
0.0
 40
0.0
 40
0.0
 40
0.1248442109
 40
0.1873852449
 40
0.2498916502
 40
0.3124017722
 40
0.3749204731
 40
0.4061982079
 40
0.4374840334
 40
0.5000007347
 40
0.5625174336
 40
0.5938034389
 40
0.6250814881
 40
0.6876008315
 40
0.750112163
 40
0.8126179705
 40
0.875158164
 40
1.0
 40
1.0
 40
1.0
 40
1.0
 10
7.1366685702
 20
6.5667780901
 30
0.0
 10
7.1378906906
 20
6.5648462393
 30
0.0
 10
7.1399858628
 20
6.5620937485
 30
0.0
 10
7.1433003854
 20
6.5589286244
 30
0.0
 10
7.1460481762
 20
6.5568536722
 30
0.0
 10
7.1490385651
 20
6.5551460761
 30
0.0
 10
7.1517051299
 20
6.5540772825
 30
0.0
 10
7.153914389
 20
6.5534659272
 30
0.0
 10
7.1561636132
 20
6.5530243822
 30
0.0
 10
7.1590292899
 20
6.5527966816
 30
0.0
 10
7.1618949707
 20
6.5530243903
 30
0.0
 10
7.1641441992
 20
6.553465957
 30
0.0
 10
7.1663534818
 20
6.5540773077
 30
0.0
 10
7.1690200628
 20
6.555146168
 30
0.0
 10
7.1720104807
 20
6.5568537569
 30
0.0
 10
7.1747582477
 20
6.5589287366
 30
0.0
 10
7.1780727001
 20
6.5620938309
 30
0.0
 10
7.1801678326
 20
6.5648462761
 30
0.0
 10
7.1813899297
 20
6.5667780901
 30
0.0
  0
SPLINE
  5
358
100
AcDbEntity
  8
ALL_ASSEMBLY_MEMBERS
100
AcDbSpline
 62
7
  6
CONTINUOUS
 70
0
 71
3
 72
15
 73
11
 74
0
 42
0.0000001
 43
0.0000001
 44
0.0000000001
 40
0.0
 40
0.0
 40
0.0
 40
0.0
 40
0.0936542658
 40
0.2106700399
 40
0.3487271419
 40
0.5000007926
 40
0.6512752245
 40
0.7893339663
 40
0.9063477486
 40
1.0
 40
1.0
 40
1.0
 40
1.0
 10
7.1813899297
 20
6.5667780901
 30
0.0
 10
7.1799945041
 20
6.5668278386
 30
0.0
 10
7.1768547417
 20
6.5669164055
 30
0.0
 10
7.1716563309
 20
6.5670127519
 30
0.0
 10
7.1655982965
 20
6.5670765795
 30
0.0
 10
7.1590292029
 20
6.5670990966
 30
0.0
 10
7.1524600848
 20
6.5670765789
 30
0.0
 10
7.146402044
 20
6.5670127503
 30
0.0
 10
7.1412036685
 20
6.5669164032
 30
0.0
 10
7.1380639658
 20
6.5668278375
 30
0.0
 10
7.1366685702
 20
6.5667780901
 30
0.0
  0
SPLINE
  5
359
100
AcDbEntity
  8
ALL_ASSEMBLY_MEMBERS
100
AcDbSpline
 62
7
  6
CONTINUOUS
 70
0
 71
3
 72
23
 73
19
 74
0
 42
0.0000001
 43
0.0000001
 44
0.0000000001
 40
0.0
 40
0.0
 40
0.0
 40
0.0
 40
0.1246092948
 40
0.1870902292
 40
0.2495797844
 40
0.312117189
 40
0.3747037407
 40
0.4060279429
 40
0.4373666562
 40
0.500000736
 40
0.5626348132
 40
0.5939737062
 40
0.6252982231
 40
0.6878854155
 40
0.7504240297
 40
0.8129129847
 40
0.8753930771
 40
1.0
 40
1.0
 40
1.0
 40
1.0
 10
7.1366685702
 20
6.5846871275
 30
0.0
 10
7.1378913368
 20
6.5827659446
 30
0.0
 10
7.139987576
 20
6.5800293306
 30
0.0
 10
7.1433012927
 20
6.5768843636
 30
0.0
 10
7.1460491965
 20
6.5748220577
 30
0.0
 10
7.1490395825
 20
6.5731249762
 30
0.0
 10
7.151705644
 20
6.5720629764
 30
0.0
 10
7.1539145602
 20
6.5714554322
 30
0.0
 10
7.1561638637
 20
6.57101656
 30
0.0
 10
7.1590292899
 20
6.570790293
 30
0.0
 10
7.1618947202
 20
6.5710165681
 30
0.0
 10
7.1641440281
 20
6.5714554618
 30
0.0
 10
7.1663529677
 20
6.5720630014
 30
0.0
 10
7.1690190454
 20
6.5731250675
 30
0.0
 10
7.1720094603
 20
6.5748221418
 30
0.0
 10
7.1747573405
 20
6.5768844751
 30
0.0
 10
7.178070987
 20
6.5800294126
 30
0.0
 10
7.1801671864
 20
6.5827659811
 30
0.0
 10
7.1813899297
 20
6.5846871275
 30
0.0
  0
SPLINE
  5
35A
100
AcDbEntity
  8
ALL_ASSEMBLY_MEMBERS
100
AcDbSpline
 62
7
  6
CONTINUOUS
 70
0
 71
3
 72
21
 73
17
 74
0
 42
0.0000001
 43
0.0000001
 44
0.0000000001
 40
0.0
 40
0.0
 40
0.0
 40
0.0
 40
0.0442895774
 40
0.0942900868
 40
0.150054418
 40
0.2114227178
 40
0.2780627424
 40
0.3492136024
 40
0.5000007897
 40
0.6507887567
 40
0.7219400573
 40
0.7885812832
 40
0.849948664
 40
0.9057119339
 40
0.9557111688
 40
1.0
 40
1.0
 40
1.0
 40
1.0
 10
7.1813899297
 20
6.5846871275
 30
0.0
 10
7.180737543
 20
6.5848027354
 30
0.0
 10
7.1793443121
 20
6.5850246629
 30
0.0
 10
7.1771182983
 20
6.5853158173
 30
0.0
 10
7.1746317274
 20
6.5855790257
 30
0.0
 10
7.1718919555
 20
6.5858083228
 30
0.0
 10
7.1689183828
 20
6.5859965088
 30
0.0
 10
7.1646054249
 20
6.5861879566
 30
0.0
 10
7.1590292029
 20
6.5862825753
 30
0.0
 10
7.1534529741
 20
6.5861879564
 30
0.0
 10
7.1491399804
 20
6.5859964987
 30
0.0
 10
7.1461663968
 20
6.5858083137
 30
0.0
 10
7.1434266369
 20
6.5855790133
 30
0.0
 10
7.1409401148
 20
6.5853158062
 30
0.0
 10
7.1387141467
 20
6.5850246577
 30
0.0
 10
7.137320946
 20
6.5848027335
 30
0.0
 10
7.1366685702
 20
6.5846871275
 30
0.0
  0
SPLINE
  5
35B
100
AcDbEntity
  8
ALL_ASSEMBLY_MEMBERS
100
AcDbSpline
 62
7
  6
CONTINUOUS
 70
0
 71
3
 72
23
 73
19
 74
0
 42
0.0000001
 43
0.0000001
 44
0.0000000001
 40
0.0
 40
0.0
 40
0.0
 40
0.0
 40
0.1240613178
 40
0.1864025076
 40
0.2488532661
 40
0.3114546438
 40
0.3741994259
 40
0.4056318332
 40
0.4370936286
 40
0.500000739
 40
0.5629078462
 40
0.5943698211
 40
0.6258025441
 40
0.6885479627
 40
0.7511505503
 40
0.8136007027
 40
0.8759410468
 40
1.0
 40
1.0
 40
1.0
 40
1.0
 10
7.1366685702
 20
6.6039263444
 30
0.0
 10
7.1378928652
 20
6.6020299526
 30
0.0
 10
7.1399916035
 20
6.5993302579
 30
0.0
 10
7.143303415
 20
6.5962321099
 30
0.0
 10
7.146051572
 20
6.5941991898
 30
0.0
 10
7.14904194
 20
6.592526535
 30
0.0
 10
7.1517068305
 20
6.5914803028
 30
0.0
 10
7.1539149547
 20
6.5908816061
 30
0.0
 10
7.1561644402
 20
6.5904489439
 30
0.0
 10
7.1590292899
 20
6.5902260036
 30
0.0
 10
7.1618941436
 20
6.5904489518
 30
0.0
 10
7.1641436336
 20
6.5908816353
 30
0.0
 10
7.166351781
 20
6.5914803275
 30
0.0
 10
7.1690166881
 20
6.5925266251
 30
0.0
 10
7.1720070846
 20
6.5941992727
 30
0.0
 10
7.1747552182
 20
6.5962322198
 30
0.0
 10
7.1780669597
 20
6.5993303389
 30
0.0
 10
7.1801656581
 20
6.6020299887
 30
0.0
 10
7.1813899297
 20
6.6039263444
 30
0.0
  0
SPLINE
  5
35C
100
AcDbEntity
  8
ALL_ASSEMBLY_MEMBERS
100
AcDbSpline
 62
7
  6
CONTINUOUS
 70
0
 71
3
 72
23
 73
19
 74
0
 42
0.0000001
 43
0.0000001
 44
0.0000000001
 40
0.0
 40
0.0
 40
0.0
 40
0.0
 40
0.0451576716
 40
0.0957046301
 40
0.1517274792
 40
0.2131006996
 40
0.2795281932
 40
0.3502924897
 40
0.4242859416
 40
0.5000007834
 40
0.5757157184
 40
0.6497098531
 40
0.7204745966
 40
0.7869032899
 40
0.8482756055
 40
0.9042974047
 40
0.9548430812
 40
1.0
 40
1.0
 40
1.0
 40
1.0
 10
7.1813899297
 20
6.6039263444
 30
0.0
 10
7.1807410954
 20
6.6041322438
 30
0.0
 10
7.1793531171
 20
6.6045285492
 30
0.0
 10
7.1771255892
 20
6.6050506617
 30
0.0
 10
7.1746376068
 20
6.6055225449
 30
0.0
 10
7.171896606
 20
6.605933556
 30
0.0
 10
7.1689218278
 20
6.6062707705
 30
0.0
 10
7.1657478206
 20
6.6065234111
 30
0.0
 10
7.1624274484
 20
6.6066793867
 30
0.0
 10
7.1590292131
 20
6.6067328164
 30
0.0
 10
7.1556309677
 20
6.6066793824
 30
0.0
 10
7.1523105768
 20
6.6065234078
 30
0.0
 10
7.1491365356
 20
6.6062707521
 30
0.0
 10
7.146161746
 20
6.6059335397
 30
0.0
 10
7.1434207575
 20
6.6055225226
 30
0.0
 10
7.1409328243
 20
6.605050642
 30
0.0
 10
7.1387053418
 20
6.6045285399
 30
0.0
 10
7.1373173937
 20
6.6041322404
 30
0.0
 10
7.1366685702
 20
6.6039263444
 30
0.0
  0
SPLINE
  5
35D
100
AcDbEntity
  8
ALL_ASSEMBLY_MEMBERS
100
AcDbSpline
 62
7
  6
CONTINUOUS
 70
0
 71
3
 72
23
 73
19
 74
0
 42
0.0000001
 43
0.0000001
 44
0.0000000001
 40
0.0
 40
0.0
 40
0.0
 40
0.0
 40
0.1231997205
 40
0.1853224559
 40
0.2477136502
 40
0.3104165443
 40
0.3734099883
 40
0.4050119997
 40
0.4366665118
 40
0.5000007437
 40
0.5633349716
 40
0.5949896627
 40
0.6265919915
 40
0.6895860653
 40
0.75229017
 40
0.8146807489
 40
0.8768026329
 40
1.0
 40
1.0
 40
1.0
 40
1.0
 10
7.1366685702
 20
6.6243408295
 30
0.0
 10
7.1378953291
 20
6.6224831685
 30
0.0
 10
7.1399980255
 20
6.6198412158
 30
0.0
 10
7.1433067689
 20
6.6168161383
 30
0.0
 10
7.1460552941
 20
6.6148291168
 30
0.0
 10
7.1490456023
 20
6.6131945963
 30
0.0
 10
7.1517086611
 20
6.6121729388
 30
0.0
 10
7.1539155618
 20
6.6115880381
 30
0.0
 10
7.1561653251
 20
6.6111650729
 30
0.0
 10
7.1590292899
 20
6.6109473168
 30
0.0
 10
7.1618932587
 20
6.6111650806
 30
0.0
 10
7.1641430266
 20
6.6115880667
 30
0.0
 10
7.1663499501
 20
6.6121729629
 30
0.0
 10
7.1690130261
 20
6.6131946845
 30
0.0
 10
7.1720033622
 20
6.6148291976
 30
0.0
 10
7.1747518645
 20
6.6168162458
 30
0.0
 10
7.178060538
 20
6.6198412953
 30
0.0
 10
7.1801631943
 20
6.622483204
 30
0.0
 10
7.1813899297
 20
6.6243408295
 30
0.0
  0
SPLINE
  5
35E
100
AcDbEntity
  8
ALL_ASSEMBLY_MEMBERS
100
AcDbSpline
 62
7
  6
CONTINUOUS
 70
0
 71
3
 72
23
 73
19
 74
0
 42
0.0000001
 43
0.0000001
 44
0.0000000001
 40
0.0
 40
0.0
 40
0.0
 40
0.0
 40
0.0464154562
 40
0.0977653403
 40
0.1541754495
 40
0.2155646194
 40
0.2816866388
 40
0.3518866156
 40
0.4251309962
 40
0.5000007742
 40
0.5748706454
 40
0.6481157035
 40
0.7183161372
 40
0.7844393539
 40
0.8458276397
 40
0.9022367156
 40
0.9535853065
 40
1.0
 40
1.0
 40
1.0
 40
1.0
 10
7.1813899297
 20
6.6243408295
 30
0.0
 10
7.180745779
 20
6.6246338613
 30
0.0
 10
7.1793652602
 20
6.6251996585
 30
0.0
 10
7.1771359795
 20
6.6259494601
 30
0.0
 10
7.1746462064
 20
6.6266269732
 30
0.0
 10
7.1719035361
 20
6.6272169441
 30
0.0
 10
7.168927026
 20
6.6277009347
 30
0.0
 10
7.1657513414
 20
6.6280634969
 30
0.0
 10
7.1624292066
 20
6.6282873316
 30
0.0
 10
7.159029213
 20
6.628364002
 30
0.0
 10
7.1556292095
 20
6.6282873254
 30
0.0
 10
7.1523070556
 20
6.6280634921
 30
0.0
 10
7.1491313377
 20
6.6277009083
 30
0.0
 10
7.1461548154
 20
6.6272169208
 30
0.0
 10
7.1434121579
 20
6.6266269412
 30
0.0
 10
7.1409224346
 20
6.6259494321
 30
0.0
 10
7.1386931987
 20
6.6251996452
 30
0.0
 10
7.1373127104
 20
6.6246338565
 30
0.0
 10
7.1366685702
 20
6.6243408295
 30
0.0
  0
SPLINE
  5
35F
100
AcDbEntity
  8
ALL_ASSEMBLY_MEMBERS
100
AcDbSpline
 62
7
  6
CONTINUOUS
 70
0
 71
3
 72
21
 73
17
 74
0
 42
0.0000001
 43
0.0000001
 44
0.0000000001
 40
0.0
 40
0.0
 40
0.0
 40
0.0
 40
0.1220342205
 40
0.1838664473
 40
0.2461842164
 40
0.309032433
 40
0.3723698791
 40
0.436082985
 40
0.5000007474
 40
0.5639185045
 40
0.6276321142
 40
0.6909701812
 40
0.7538196093
 40
0.8161367503
 40
0.8779681178
 40
1.0
 40
1.0
 40
1.0
 40
1.0
 10
7.1366685702
 20
6.6457662081
 30
0.0
 10
7.1378988149
 20
6.6439609369
 30
0.0
 10
7.1400069552
 20
6.6413972109
 30
0.0
 10
7.1433113906
 20
6.63847081
 30
0.0
 10
7.1460602891
 20
6.6365458306
 30
0.0
 10
7.1490507201
 20
6.6349628744
 30
0.0
 10
7.152247033
 20
6.633774752
 30
0.0
 10
7.1555974123
 20
6.6330395874
 30
0.0
 10
7.1590292905
 20
6.632787638
 30
0.0
 10
7.1624611751
 20
6.633039604
 30
0.0
 10
7.1658115761
 20
6.633774772
 30
0.0
 10
7.1690079093
 20
6.634962958
 30
0.0
 10
7.1719983666
 20
6.6365459093
 30
0.0
 10
7.174747243
 20
6.6384709141
 30
0.0
 10
7.1780516087
 20
6.6413972885
 30
0.0
 10
7.1801597086
 20
6.6439609715
 30
0.0
 10
7.1813899297
 20
6.6457662081
 30
0.0
  0
SPLINE
  5
360
100
AcDbEntity
  8
ALL_ASSEMBLY_MEMBERS
100
AcDbSpline
 62
7
  6
CONTINUOUS
 70
0
 71
3
 72
23
 73
19
 74
0
 42
0.0000001
 43
0.0000001
 44
0.0000000001
 40
0.0
 40
0.0
 40
0.0
 40
0.0
 40
0.0479498761
 40
0.1002959157
 40
0.1571974715
 40
0.2186188756
 40
0.2843705092
 40
0.3538730772
 40
0.4261853694
 40
0.5000007628
 40
0.5738162497
 40
0.646129213
 40
0.7156322503
 40
0.7813850786
 40
0.8428056245
 40
0.899706167
 40
0.9520508992
 40
1.0
 40
1.0
 40
1.0
 40
1.0
 10
7.1813899297
 20
6.6457662081
 30
0.0
 10
7.1807508533
 20
6.6461425114
 30
0.0
 10
7.1793791382
 20
6.6468712411
 30
0.0
 10
7.177148368
 20
6.6478435582
 30
0.0
 10
7.1746568142
 20
6.6487220318
 30
0.0
 10
7.1719123009
 20
6.6494868622
 30
0.0
 10
7.168933723
 20
6.6501142609
 30
0.0
 10
7.1657559338
 20
6.650584204
 30
0.0
 10
7.1624315168
 20
6.6508743327
 30
0.0
 10
7.159029213
 20
6.6509737045
 30
0.0
 10
7.1556268993
 20
6.6508743246
 30
0.0
 10
7.1523024626
 20
6.6505841978
 30
0.0
 10
7.1491246411
 20
6.6501142269
 30
0.0
 10
7.1461460499
 20
6.6494868318
 30
0.0
 10
7.1434015502
 20
6.6487219903
 30
0.0
 10
7.1409100469
 20
6.6478435222
 30
0.0
 10
7.1386793207
 20
6.6468712238
 30
0.0
 10
7.1373076363
 20
6.6461425053
 30
0.0
 10
7.1366685702
 20
6.6457662081
 30
0.0
  0
SPLINE
  5
361
100
AcDbEntity
  8
ALL_ASSEMBLY_MEMBERS
100
AcDbSpline
 62
7
  6
CONTINUOUS
 70
0
 71
3
 72
15
 73
11
 74
0
 42
0.0000001
 43
0.0000001
 44
0.0000000001
 40
0.0
 40
0.0
 40
0.0
 40
0.0
 40
0.1207286774
 40
0.2444033936
 40
0.3711329671
 40
0.500002059
 40
0.6288698237
 40
0.7555990816
 40
0.8792726731
 40
1.0
 40
1.0
 40
1.0
 40
1.0
 10
7.1366685702
 20
6.6680299662
 30
0.0
 10
7.1379034339
 20
6.6662903923
 30
0.0
 10
7.1407355854
 20
6.6629879901
 30
0.0
 10
7.1459960769
 20
6.6589813873
 30
0.0
 10
7.1522148059
 20
6.6562888307
 30
0.0
 10
7.1590293385
 20
6.6553297107
 30
0.0
 10
7.1658438574
 20
6.656288876
 30
0.0
 10
7.1720625249
 20
6.6589814496
 30
0.0
 10
7.1773229608
 20
6.6629880408
 30
0.0
 10
7.1801550799
 20
6.6662904118
 30
0.0
 10
7.1813899297
 20
6.6680299662
 30
0.0
  0
SPLINE
  5
362
100
AcDbEntity
  8
ALL_ASSEMBLY_MEMBERS
100
AcDbSpline
 62
7
  6
CONTINUOUS
 70
0
 71
3
 72
21
 73
17
 74
0
 42
0.0000001
 43
0.0000001
 44
0.0000000001
 40
0.0
 40
0.0
 40
0.0
 40
0.0
 40
0.1030344229
 40
0.1605124094
 40
0.2219962073
 40
0.2873564198
 40
0.356091029
 40
0.4273653478
 40
0.5000003649
 40
0.5726352398
 40
0.6439093882
 40
0.7126437255
 40
0.7780037447
 40
0.839487545
 40
0.8969655742
 40
1.0
 40
1.0
 40
1.0
 40
1.0
 10
7.1813899297
 20
6.6680299662
 30
0.0
 10
7.1800740781
 20
6.6689747399
 30
0.0
 10
7.1778767903
 20
6.6702489365
 30
0.0
 10
7.1746692137
 20
6.6716294871
 30
0.0
 10
7.1719225673
 20
6.6725638451
 30
0.0
 10
7.1689418913
 20
6.6733300929
 30
0.0
 10
7.165761605
 20
6.6739041427
 30
0.0
 10
7.1624344146
 20
6.6742584859
 30
0.0
 10
7.1590292349
 20
6.6743798876
 30
0.0
 10
7.155624058
 20
6.6742584844
 30
0.0
 10
7.152296877
 20
6.6739041402
 30
0.0
 10
7.1491166005
 20
6.6733300924
 30
0.0
 10
7.1461359322
 20
6.6725638439
 30
0.0
 10
7.1433892879
 20
6.6716294871
 30
0.0
 10
7.14018171
 20
6.6702489374
 30
0.0
 10
7.1379844219
 20
6.6689747399
 30
0.0
 10
7.1366685702
 20
6.6680299662
 30
0.0
  0
SPLINE
  5
363
100
AcDbEntity
  8
ALL_ASSEMBLY_MEMBERS
100
AcDbSpline
 62
7
  6
CONTINUOUS
 70
0
 71
3
 72
15
 73
11
 74
0
 42
0.0000001
 43
0.0000001
 44
0.0000000001
 40
0.0
 40
0.0
 40
0.0
 40
0.0
 40
0.1189200718
 40
0.2420417167
 40
0.3695123874
 40
0.5000007498
 40
0.6304896142
 40
0.7579621248
 40
0.8810822277
 40
1.0
 40
1.0
 40
1.0
 40
1.0
 10
7.1366685702
 20
6.690952839
 30
0.0
 10
7.1379093797
 20
6.6892917876
 30
0.0
 10
7.1407609416
 20
6.6861383182
 30
0.0
 10
7.1460266994
 20
6.6823372456
 30
0.0
 10
7.1522377196
 20
6.6797903541
 30
0.0
 10
7.1590292995
 20
6.6788855227
 30
0.0
 10
7.165820908
 20
6.6797903822
 30
0.0
 10
7.1720319322
 20
6.6823373091
 30
0.0
 10
7.1772976328
 20
6.6861383981
 30
0.0
 10
7.1801491442
 20
6.6892918197
 30
0.0
 10
7.1813899297
 20
6.690952839
 30
0.0
  0
SPLINE
  5
364
100
AcDbEntity
  8
ALL_ASSEMBLY_MEMBERS
100
AcDbSpline
 62
7
  6
CONTINUOUS
 70
0
 71
3
 72
21
 73
17
 74
0
 42
0.0000001
 43
0.0000001
 44
0.0000000001
 40
0.0
 40
0.0
 40
0.0
 40
0.0
 40
0.1059657612
 40
0.1640620891
 40
0.2256235112
 40
0.2905683601
 40
0.3584822567
 40
0.4286386485
 40
0.5000007361
 40
0.5713629176
 40
0.6415199659
 40
0.7094343629
 40
0.7743804017
 40
0.835941025
 40
0.8940363839
 40
1.0
 40
1.0
 40
1.0
 40
1.0
 10
7.1813899297
 20
6.690952839
 30
0.0
 10
7.1800921345
 20
6.6920447825
 30
0.0
 10
7.1779074808
 20
6.6935367588
 30
0.0
 10
7.174681328
 20
6.6951654984
 30
0.0
 10
7.1719331664
 20
6.6962622335
 30
0.0
 10
7.1689503439
 20
6.697161726
 30
0.0
 10
7.1657675907
 20
6.6978355422
 30
0.0
 10
7.1624374745
 20
6.6982515729
 30
0.0
 10
7.1590292128
 20
6.698394059
 30
0.0
 10
7.1556209418
 20
6.6982515614
 30
0.0
 10
7.1522908044
 20
6.697835533
 30
0.0
 10
7.1491080212
 20
6.6971616775
 30
0.0
 10
7.1461251827
 20
6.6962621896
 30
0.0
 10
7.1433770368
 20
6.6951654386
 30
0.0
 10
7.1401509483
 20
6.6935367115
 30
0.0
 10
7.1379663391
 20
6.6920447604
 30
0.0
 10
7.1366685702
 20
6.690952839
 30
0.0
  0
SPLINE
  5
365
100
AcDbEntity
  8
ALL_ASSEMBLY_MEMBERS
100
AcDbSpline
 62
7
  6
CONTINUOUS
 70
0
 71
3
 72
15
 73
11
 74
0
 42
0.0000001
 43
0.0000001
 44
0.0000000001
 40
0.0
 40
0.0
 40
0.0
 40
0.0
 40
0.1168118294
 40
0.2393076853
 40
0.3676476123
 40
0.5000007625
 40
0.6323544153
 40
0.7606961671
 40
0.8831904434
 40
1.0
 40
1.0
 40
1.0
 40
1.0
 10
7.1366685702
 20
6.714350255
 30
0.0
 10
7.13791682
 20
6.7127801177
 30
0.0
 10
7.1407915867
 20
6.7098002177
 30
0.0
 10
7.1460618464
 20
6.7062367454
 30
0.0
 10
7.1522629254
 20
6.7038564514
 30
0.0
 10
7.1590292993
 20
6.7030129882
 30
0.0
 10
7.1657957015
 20
6.7038564777
 30
0.0
 10
7.1719967847
 20
6.7062368044
 30
0.0
 10
7.1772669891
 20
6.7098002936
 30
0.0
 10
7.1801417042
 20
6.7127801482
 30
0.0
 10
7.1813899297
 20
6.714350255
 30
0.0
  0
SPLINE
  5
366
100
AcDbEntity
  8
ALL_ASSEMBLY_MEMBERS
100
AcDbSpline
 62
7
  6
CONTINUOUS
 70
0
 71
3
 72
21
 73
17
 74
0
 42
0.0000001
 43
0.0000001
 44
0.0000000001
 40
0.0
 40
0.0
 40
0.0
 40
0.0
 40
0.1088836216
 40
0.1676144643
 40
0.229269965
 40
0.2938114092
 40
0.3609033854
 40
0.4299303961
 40
0.5000007228
 40
0.5700711437
 40
0.6390988033
 40
0.706191297
 40
0.770733929
 40
0.8323886617
 40
0.8911185572
 40
1.0
 40
1.0
 40
1.0
 40
1.0
 10
7.1813899297
 20
6.714350255
 30
0.0
 10
7.1801079361
 20
6.7155784025
 30
0.0
 10
7.1779367792
 20
6.7172743049
 30
0.0
 10
7.1746935639
 20
6.7191405285
 30
0.0
 10
7.171944334
 20
6.7203911454
 30
0.0
 10
7.1689595339
 20
6.7214170702
 30
0.0
 10
7.1657742346
 20
6.7221856897
 30
0.0
 10
7.1624409243
 20
6.7226603314
 30
0.0
 10
7.1590292127
 20
6.7228228905
 30
0.0
 10
7.1556174921
 20
6.7226603184
 30
0.0
 10
7.1522841597
 20
6.722185679
 30
0.0
 10
7.1490988319
 20
6.7214170151
 30
0.0
 10
7.1461140142
 20
6.720391095
 30
0.0
 10
7.1433648011
 20
6.7191404604
 30
0.0
 10
7.1401216512
 20
6.7172742518
 30
0.0
 10
7.1379505382
 20
6.7155783779
 30
0.0
 10
7.1366685702
 20
6.714350255
 30
0.0
  0
SPLINE
  5
367
100
AcDbEntity
  8
ALL_ASSEMBLY_MEMBERS
100
AcDbSpline
 62
7
  6
CONTINUOUS
 70
0
 71
3
 72
19
 73
15
 74
0
 42
0.0000001
 43
0.0000001
 44
0.0000000001
 40
0.0
 40
0.0
 40
0.0
 40
0.0
 40
0.0563680326
 40
0.114482446
 40
0.2362073101
 40
0.3654429357
 40
0.4323611411
 40
0.5000007776
 40
0.5676404031
 40
0.6345591236
 40
0.7637965559
 40
0.8855197986
 40
0.9436328171
 40
1.0
 40
1.0
 40
1.0
 40
1.0
 10
7.1366685702
 20
6.7380338213
 30
0.0
 10
7.1372884517
 20
6.7373104628
 30
0.0
 10
7.1386194331
 20
6.7359011075
 30
0.0
 10
7.1416370472
 20
6.7332796176
 30
0.0
 10
7.1461008731
 20
6.7304878006
 30
0.0
 10
7.1512098249
 20
6.728676979
 30
0.0
 10
7.1556100483
 20
6.7279120795
 30
0.0
 10
7.15902929
 20
6.727713158
 30
0.0
 10
7.1624485397
 20
6.7279120911
 30
0.0
 10
7.1668487998
 20
6.7286770066
 30
0.0
 10
7.1719577583
 20
6.7304878542
 30
0.0
 10
7.1764215436
 20
6.7332796934
 30
0.0
 10
7.179439107
 20
6.7359011415
 30
0.0
 10
7.1807700576
 20
6.7373104737
 30
0.0
 10
7.1813899297
 20
6.7380338213
 30
0.0
  0
SPLINE
  5
368
100
AcDbEntity
  8
ALL_ASSEMBLY_MEMBERS
100
AcDbSpline
 62
7
  6
CONTINUOUS
 70
0
 71
3
 72
19
 73
15
 74
0
 42
0.0000001
 43
0.0000001
 44
0.0000000001
 40
0.0
 40
0.0
 40
0.0
 40
0.0
 40
0.1117208905
 40
0.2327256963
 40
0.2969083679
 40
0.3632272189
 40
0.431173879
 40
0.5000007081
 40
0.5688276319
 40
0.6367749338
 40
0.7030943198
 40
0.7672781779
 40
0.8882813223
 40
1.0
 40
1.0
 40
1.0
 40
1.0
 10
7.1813899297
 20
6.7380338213
 30
0.0
 10
7.1801213517
 20
6.7393872661
 30
0.0
 10
7.1771897859
 20
6.7419482498
 30
0.0
 10
7.1728742774
 20
6.7444044223
 30
0.0
 10
7.1689690366
 20
6.7459009351
 30
0.0
 10
7.1657810637
 20
6.7467585804
 30
0.0
 10
7.1624445546
 20
6.7472882493
 30
0.0
 10
7.1590292126
 20
6.7474696759
 30
0.0
 10
7.1556138618
 20
6.7472882349
 30
0.0
 10
7.1522773299
 20
6.7467585681
 30
0.0
 10
7.1490893296
 20
6.7459008743
 30
0.0
 10
7.1451840838
 20
6.7444043727
 30
0.0
 10
7.1408686361
 20
6.7419481805
 30
0.0
 10
7.1379371231
 20
6.7393872393
 30
0.0
 10
7.1366685702
 20
6.7380338213
 30
0.0
  0
SPLINE
  5
369
100
AcDbEntity
  8
ALL_ASSEMBLY_MEMBERS
100
AcDbSpline
 62
7
  6
CONTINUOUS
 70
0
 71
3
 72
19
 73
15
 74
0
 42
0.0000001
 43
0.0000001
 44
0.0000000001
 40
0.0
 40
0.0
 40
0.0
 40
0.0
 40
0.1117129783
 40
0.2327157007
 40
0.2968993626
 40
0.3632204098
 40
0.4311702791
 40
0.5000008019
 40
0.5688313102
 40
0.6367816966
 40
0.7031032939
 40
0.7672881773
 40
0.888289231
 40
1.0
 40
1.0
 40
1.0
 40
1.0
 10
7.1366685702
 20
6.7618128413
 30
0.0
 10
7.1379371843
 20
6.7604597456
 30
0.0
 10
7.1408688446
 20
6.757899441
 30
0.0
 10
7.1451842982
 20
6.7554440343
 30
0.0
 10
7.1490894893
 20
6.7539479712
 30
0.0
 10
7.1522774548
 20
6.753090576
 30
0.0
 10
7.1556139567
 20
6.7525610644
 30
0.0
 10
7.1590292901
 20
6.7523796888
 30
0.0
 10
7.1624446307
 20
6.7525610766
 30
0.0
 10
7.1657811512
 20
6.7530905897
 30
0.0
 10
7.1689691429
 20
6.7539480323
 30
0.0
 10
7.1728743404
 20
6.7554440828
 30
0.0
 10
7.1771897329
 20
6.7578995107
 30
0.0
 10
7.1801213407
 20
6.7604597723
 30
0.0
 10
7.1813899297
 20
6.7618128413
 30
0.0
  0
SPLINE
  5
36A
100
AcDbEntity
  8
ALL_ASSEMBLY_MEMBERS
100
AcDbSpline
 62
7
  6
CONTINUOUS
 70
0
 71
3
 72
19
 73
15
 74
0
 42
0.0000001
 43
0.0000001
 44
0.0000000001
 40
0.0
 40
0.0
 40
0.0
 40
0.0
 40
0.0563723008
 40
0.1144897373
 40
0.2362166203
 40
0.3654492837
 40
0.4323645029
 40
0.500000687
 40
0.5676369663
 40
0.6345528208
 40
0.7637872419
 40
0.8855125104
 40
0.9436285508
 40
1.0
 40
1.0
 40
1.0
 40
1.0
 10
7.1813899297
 20
6.7618128413
 30
0.0
 10
7.1807700555
 20
6.7625363644
 30
0.0
 10
7.1794390919
 20
6.7639460412
 30
0.0
 10
7.1764215202
 20
6.7665681281
 30
0.0
 10
7.1719577471
 20
6.7693606135
 30
0.0
 10
7.1668487242
 20
6.771171911
 30
0.0
 10
7.1624484631
 20
6.7719370063
 30
0.0
 10
7.1590292127
 20
6.7721359745
 30
0.0
 10
7.1556099528
 20
6.7719369923
 30
0.0
 10
7.1512096509
 20
6.7711718864
 30
0.0
 10
7.1461006211
 20
6.7693605581
 30
0.0
 10
7.1416368887
 20
6.7665680525
 30
0.0
 10
7.1386193677
 20
6.7639460072
 30
0.0
 10
7.1372884351
 20
6.7625363535
 30
0.0
 10
7.1366685702
 20
6.7618128413
 30
0.0
  0
SPLINE
  5
36B
100
AcDbEntity
  8
ALL_ASSEMBLY_MEMBERS
100
AcDbSpline
 62
7
  6
CONTINUOUS
 70
0
 71
3
 72
21
 73
17
 74
0
 42
0.0000001
 43
0.0000001
 44
0.0000000001
 40
0.0
 40
0.0
 40
0.0
 40
0.0
 40
0.1088752619
 40
0.1676042663
 40
0.2292594707
 40
0.2938019972
 40
0.3608962931
 40
0.4299266535
 40
0.5000008183
 40
0.5700749665
 40
0.6391058476
 40
0.7062006765
 40
0.7707444274
 40
0.8323988632
 40
0.8911269133
 40
1.0
 40
1.0
 40
1.0
 40
1.0
 10
7.1366685702
 20
6.7854958495
 30
0.0
 10
7.1379506067
 20
6.7842680831
 30
0.0
 10
7.1401218037
 20
6.7825727532
 30
0.0
 10
7.1433649728
 20
6.7807072043
 30
0.0
 10
7.1461141996
 20
6.7794570233
 30
0.0
 10
7.1490989921
 20
6.7784314555
 30
0.0
 10
7.1522842836
 20
6.7776631043
 30
0.0
 10
7.1556175867
 20
6.7771886308
 30
0.0
 10
7.1590292901
 20
6.7770261266
 30
0.0
 10
7.1624410007
 20
6.7771886418
 30
0.0
 10
7.1657743217
 20
6.7776631162
 30
0.0
 10
7.1689596405
 20
6.7784315108
 30
0.0
 10
7.1719444518
 20
6.779457073
 30
0.0
 10
7.1746936622
 20
6.7807072722
 30
0.0
 10
7.1779367657
 20
6.7825728067
 30
0.0
 10
7.1801079188
 20
6.7842681077
 30
0.0
 10
7.1813899297
 20
6.7854958495
 30
0.0
  0
SPLINE
  5
36C
100
AcDbEntity
  8
ALL_ASSEMBLY_MEMBERS
100
AcDbSpline
 62
7
  6
CONTINUOUS
 70
0
 71
3
 72
15
 73
11
 74
0
 42
0.0000001
 43
0.0000001
 44
0.0000000001
 40
0.0
 40
0.0
 40
0.0
 40
0.0
 40
0.1168183678
 40
0.2393161283
 40
0.3676534496
 40
0.5000006707
 40
0.6323486231
 40
0.7606877212
 40
0.8831839084
 40
1.0
 40
1.0
 40
1.0
 40
1.0
 10
7.1813899297
 20
6.7854958495
 30
0.0
 10
7.1801417043
 20
6.7870662691
 30
0.0
 10
7.1772670112
 20
6.7900467099
 30
0.0
 10
7.1719967627
 20
6.7936109222
 30
0.0
 10
7.1657956514
 20
6.7959917281
 30
0.0
 10
7.1590292015
 20
6.7968353812
 30
0.0
 10
7.1522627235
 20
6.7959917039
 30
0.0
 10
7.1460616058
 20
6.7936108619
 30
0.0
 10
7.1407914126
 20
6.7900466344
 30
0.0
 10
7.1379167713
 20
6.7870662385
 30
0.0
 10
7.1366685702
 20
6.7854958495
 30
0.0
  0
SPLINE
  5
36D
100
AcDbEntity
  8
ALL_ASSEMBLY_MEMBERS
100
AcDbSpline
 62
7
  6
CONTINUOUS
 70
0
 71
3
 72
21
 73
17
 74
0
 42
0.0000001
 43
0.0000001
 44
0.0000000001
 40
0.0
 40
0.0
 40
0.0
 40
0.0
 40
0.1059572032
 40
0.1640517095
 40
0.2256128839
 40
0.2905588667
 40
0.358475124
 40
0.4286348921
 40
0.5000008327
 40
0.5713667558
 40
0.6415270503
 40
0.7094438235
 40
0.7743910341
 40
0.835951409
 40
0.8940449383
 40
1.0
 40
1.0
 40
1.0
 40
1.0
 10
7.1366685702
 20
6.8088921539
 30
0.0
 10
7.1379664153
 20
6.8078006233
 30
0.0
 10
7.1401511082
 20
6.8063092623
 30
0.0
 10
7.1433772098
 20
6.8046812326
 30
0.0
 10
7.1461253671
 20
6.8035849602
 30
0.0
 10
7.1491081812
 20
6.8026858463
 30
0.0
 10
7.1522909265
 20
6.8020123143
 30
0.0
 10
7.1556210357
 20
6.8015964612
 30
0.0
 10
7.15902929
 20
6.8014540336
 30
0.0
 10
7.1624375517
 20
6.8015964709
 30
0.0
 10
7.1657676781
 20
6.8020123246
 30
0.0
 10
7.1689504521
 20
6.802685895
 30
0.0
 10
7.1719332835
 20
6.8035850035
 30
0.0
 10
7.1746814255
 20
6.8046812922
 30
0.0
 10
7.1779074625
 20
6.8063093098
 30
0.0
 10
7.1800921109
 20
6.8078006454
 30
0.0
 10
7.1813899297
 20
6.8088921539
 30
0.0
  0
SPLINE
  5
36E
100
AcDbEntity
  8
ALL_ASSEMBLY_MEMBERS
100
AcDbSpline
 62
7
  6
CONTINUOUS
 70
0
 71
3
 72
15
 73
11
 74
0
 42
0.0000001
 43
0.0000001
 44
0.0000000001
 40
0.0
 40
0.0
 40
0.0
 40
0.0
 40
0.118925763
 40
0.242049123
 40
0.3695175482
 40
0.5000006593
 40
0.6304844975
 40
0.7579547161
 40
0.8810765397
 40
1.0
 40
1.0
 40
1.0
 40
1.0
 10
7.1813899297
 20
6.8088921539
 30
0.0
 10
7.1801491399
 20
6.8105534522
 30
0.0
 10
7.1772976404
 20
6.8137073912
 30
0.0
 10
7.1720318972
 20
6.817509113
 30
0.0
 10
7.1658208514
 20
6.8200564581
 30
0.0
 10
7.1590292013
 20
6.8209614602
 30
0.0
 10
7.1522375226
 20
6.8200564322
 30
0.0
 10
7.1460264709
 20
6.8175090482
 30
0.0
 10
7.1407607848
 20
6.8137073117
 30
0.0
 10
7.137909336
 20
6.81055342
 30
0.0
 10
7.1366685702
 20
6.8088921539
 30
0.0
  0
SPLINE
  5
36F
100
AcDbEntity
  8
ALL_ASSEMBLY_MEMBERS
100
AcDbSpline
 62
7
  6
CONTINUOUS
 70
0
 71
3
 72
21
 73
17
 74
0
 42
0.0000001
 43
0.0000001
 44
0.0000000001
 40
0.0
 40
0.0
 40
0.0
 40
0.0
 40
0.1030282397
 40
0.1605061416
 40
0.221991321
 40
0.2873515047
 40
0.3560880905
 40
0.4273644696
 40
0.5000023158
 40
0.572639264
 40
0.6439149606
 40
0.7126508431
 40
0.7780111666
 40
0.8394956893
 40
0.8969729754
 40
1.0
 40
1.0
 40
1.0
 40
1.0
 10
7.1366685702
 20
6.8318133705
 30
0.0
 10
7.1379845063
 20
6.8308690215
 30
0.0
 10
7.1401818835
 20
6.8295954473
 30
0.0
 10
7.1433894949
 20
6.828215623
 30
0.0
 10
7.146136172
 20
6.8272817585
 30
0.0
 10
7.1491168394
 20
6.8265159
 30
0.0
 10
7.1522970835
 20
6.8259421963
 30
0.0
 10
7.1556242284
 20
6.8255880331
 30
0.0
 10
7.1590293455
 20
6.8254667181
 30
0.0
 10
7.1624344516
 20
6.8255880406
 30
0.0
 10
7.1657615594
 20
6.8259422148
 30
0.0
 10
7.1689417809
 20
6.8265159316
 30
0.0
 10
7.1719224294
 20
6.8272817863
 30
0.0
 10
7.1746690866
 20
6.8282156543
 30
0.0
 10
7.1778766587
 20
6.8295954707
 30
0.0
 10
7.1800740092
 20
6.8308690326
 30
0.0
 10
7.1813899297
 20
6.8318133705
 30
0.0
  0
SPLINE
  5
370
100
AcDbEntity
  8
ALL_ASSEMBLY_MEMBERS
100
AcDbSpline
 62
7
  6
CONTINUOUS
 70
0
 71
3
 72
15
 73
11
 74
0
 42
0.0000001
 43
0.0000001
 44
0.0000000001
 40
0.0
 40
0.0
 40
0.0
 40
0.0
 40
0.1207310017
 40
0.2444043531
 40
0.3711338042
 40
0.5000003169
 40
0.6288665697
 40
0.7555956005
 40
0.87926899
 40
1.0
 40
1.0
 40
1.0
 40
1.0
 10
7.1813899297
 20
6.8318133705
 30
0.0
 10
7.1801551069
 20
6.8335531188
 30
0.0
 10
7.1773230715
 20
6.8368558467
 30
0.0
 10
7.1720626868
 20
6.8408630112
 30
0.0
 10
7.1658439446
 20
6.8435560191
 30
0.0
 10
7.1590292375
 20
6.8445153345
 30
0.0
 10
7.1522145383
 20
6.8435560147
 30
0.0
 10
7.1459958098
 20
6.8408630059
 30
0.0
 10
7.1407354284
 20
6.8368558482
 30
0.0
 10
7.1379033931
 20
6.833553119
 30
0.0
 10
7.1366685702
 20
6.8318133705
 30
0.0
  0
SPLINE
  5
371
100
AcDbEntity
  8
ALL_ASSEMBLY_MEMBERS
100
AcDbSpline
 62
7
  6
CONTINUOUS
 70
0
 71
3
 72
23
 73
19
 74
0
 42
0.0000001
 43
0.0000001
 44
0.0000000001
 40
0.0
 40
0.0
 40
0.0
 40
0.0
 40
0.0479451201
 40
0.1002880551
 40
0.1571880696
 40
0.2186093538
 40
0.284362064
 40
0.3538667611
 40
0.4261820629
 40
0.5000008636
 40
0.5738196423
 40
0.6461354778
 40
0.7156406606
 40
0.7813946065
 40
0.8428150317
 40
0.8997140236
 40
0.9520556523
 40
1.0
 40
1.0
 40
1.0
 40
1.0
 10
7.1366685702
 20
6.8540749411
 30
0.0
 10
7.1373076616
 20
6.8536988746
 30
0.0
 10
7.1386794037
 20
6.8529706091
 30
0.0
 10
7.1409101709
 20
6.8519989311
 30
0.0
 10
7.1434017206
 20
6.8511210354
 30
0.0
 10
7.1461462278
 20
6.8503567081
 30
0.0
 10
7.1491247973
 20
6.8497297211
 30
0.0
 10
7.1523025794
 20
6.8492600868
 30
0.0
 10
7.1556269911
 20
6.84897015
 30
0.0
 10
7.1590292898
 20
6.8488708423
 30
0.0
 10
7.1624315963
 20
6.8489701568
 30
0.0
 10
7.1657560239
 20
6.8492600938
 30
0.0
 10
7.1689338371
 20
6.8497297554
 30
0.0
 10
7.171912421
 20
6.8503567381
 30
0.0
 10
7.1746569151
 20
6.8511210767
 30
0.0
 10
7.177148414
 20
6.8519989672
 30
0.0
 10
7.179379137
 20
6.8529706263
 30
0.0
 10
7.1807508487
 20
6.8536988806
 30
0.0
 10
7.1813899297
 20
6.8540749411
 30
0.0
  0
SPLINE
  5
372
100
AcDbEntity
  8
ALL_ASSEMBLY_MEMBERS
100
AcDbSpline
 62
7
  6
CONTINUOUS
 70
0
 71
3
 72
21
 73
17
 74
0
 42
0.0000001
 43
0.0000001
 44
0.0000000001
 40
0.0
 40
0.0
 40
0.0
 40
0.0
 40
0.1220380765
 40
0.1838712651
 40
0.24618929
 40
0.3090370966
 40
0.3723734706
 40
0.4360848836
 40
0.5000006615
 40
0.5639165364
 40
0.6276285642
 40
0.6909655451
 40
0.7538145343
 40
0.816131931
 40
0.8779642649
 40
1.0
 40
1.0
 40
1.0
 40
1.0
 10
7.1813899297
 20
6.8540749411
 30
0.0
 10
7.180159697
 20
6.8558803842
 30
0.0
 10
7.1780515752
 20
6.8584443669
 30
0.0
 10
7.1747471264
 20
6.8613710923
 30
0.0
 10
7.1719982289
 20
6.8632962769
 30
0.0
 10
7.1690077946
 20
6.8648794015
 30
0.0
 10
7.1658114783
 20
6.8660676519
 30
0.0
 10
7.1624610958
 20
6.8668028999
 30
0.0
 10
7.1590292122
 20
6.8670548739
 30
0.0
 10
7.1555973209
 20
6.8668028802
 30
0.0
 10
7.152246912
 20
6.8660676337
 30
0.0
 10
7.1490505743
 20
6.8648793183
 30
0.0
 10
7.1460601153
 20
6.8632961974
 30
0.0
 10
7.1433112401
 20
6.861370988
 30
0.0
 10
7.1400068605
 20
6.8584442897
 30
0.0
 10
7.1378987793
 20
6.8558803496
 30
0.0
 10
7.1366685702
 20
6.8540749411
 30
0.0
  0
SPLINE
  5
373
100
AcDbEntity
  8
ALL_ASSEMBLY_MEMBERS
100
AcDbSpline
 62
7
  6
CONTINUOUS
 70
0
 71
3
 72
23
 73
19
 74
0
 42
0.0000001
 43
0.0000001
 44
0.0000000001
 40
0.0
 40
0.0
 40
0.0
 40
0.0
 40
0.0464113368
 40
0.0977585814
 40
0.1541674142
 40
0.2155565192
 40
0.281679468
 40
0.351881256
 40
0.4251282032
 40
0.5000008772
 40
0.5748735266
 40
0.6481210102
 40
0.7183232716
 40
0.7844474603
 40
0.8458356804
 40
0.9022434702
 40
0.9535894229
 40
1.0
 40
1.0
 40
1.0
 40
1.0
 10
7.1366685702
 20
6.8754976186
 30
0.0
 10
7.1373127356
 20
6.8752048354
 30
0.0
 10
7.1386932789
 20
6.8746395236
 30
0.0
 10
7.1409225552
 20
6.8738903793
 30
0.0
 10
7.1434123236
 20
6.8732134602
 30
0.0
 10
7.1461549879
 20
6.8726240063
 30
0.0
 10
7.1491314904
 20
6.8721404391
 30
0.0
 10
7.152307169
 20
6.8717781942
 30
0.0
 10
7.1556292999
 20
6.8715545564
 30
0.0
 10
7.1590292898
 20
6.8714779521
 30
0.0
 10
7.1624292876
 20
6.8715545616
 30
0.0
 10
7.1657514338
 20
6.8717781995
 30
0.0
 10
7.1689271444
 20
6.8721404656
 30
0.0
 10
7.1719036602
 20
6.8726240293
 30
0.0
 10
7.1746463121
 20
6.873213492
 30
0.0
 10
7.1771360304
 20
6.8738904074
 30
0.0
 10
7.1793652619
 20
6.874639537
 30
0.0
 10
7.1807457748
 20
6.8752048402
 30
0.0
 10
7.1813899297
 20
6.8754976186
 30
0.0
  0
SPLINE
  5
374
100
AcDbEntity
  8
ALL_ASSEMBLY_MEMBERS
100
AcDbSpline
 62
7
  6
CONTINUOUS
 70
0
 71
3
 72
23
 73
19
 74
0
 42
0.0000001
 43
0.0000001
 44
0.0000000001
 40
0.0
 40
0.0
 40
0.0
 40
0.0
 40
0.1232026604
 40
0.1853261357
 40
0.2477175337
 40
0.3104201312
 40
0.3734127646
 40
0.4050141717
 40
0.4366679757
 40
0.5000006587
 40
0.563333439
 40
0.5949874918
 40
0.6265892561
 40
0.6895825054
 40
0.7522862853
 40
0.8146770677
 40
0.876799696
 40
1.0
 40
1.0
 40
1.0
 40
1.0
 10
7.1813899297
 20
6.8754976186
 30
0.0
 10
7.1801631798
 20
6.8773554121
 30
0.0
 10
7.1780604973
 20
6.8799975624
 30
0.0
 10
7.1747517443
 20
6.8830228909
 30
0.0
 10
7.1720032201
 20
6.8850100711
 30
0.0
 10
7.1690129089
 20
6.8866447216
 30
0.0
 10
7.1663498425
 20
6.8876664633
 30
0.0
 10
7.1641429385
 20
6.8882514132
 30
0.0
 10
7.1618931789
 20
6.8886744125
 30
0.0
 10
7.1590292128
 20
6.888892184
 30
0.0
 10
7.1561652419
 20
6.8886744021
 30
0.0
 10
7.1539154735
 20
6.888251384
 30
0.0
 10
7.1517085445
 20
6.8876664405
 30
0.0
 10
7.1490454609
 20
6.8866446338
 30
0.0
 10
7.1460551236
 20
6.8850099894
 30
0.0
 10
7.1433066224
 20
6.8830227831
 30
0.0
 10
7.1399979387
 20
6.8799974832
 30
0.0
 10
7.1378952967
 20
6.8773553766
 30
0.0
 10
7.1366685702
 20
6.8754976186
 30
0.0
  0
SPLINE
  5
375
100
AcDbEntity
  8
ALL_ASSEMBLY_MEMBERS
100
AcDbSpline
 62
7
  6
CONTINUOUS
 70
0
 71
3
 72
23
 73
19
 74
0
 42
0.0000001
 43
0.0000001
 44
0.0000000001
 40
0.0
 40
0.0
 40
0.0
 40
0.0
 40
0.0451545291
 40
0.0956995081
 40
0.151721423
 40
0.2130946182
 40
0.2795228071
 40
0.3502884564
 40
0.4242838552
 40
0.5000008877
 40
0.5757178943
 40
0.6497138326
 40
0.7204799458
 40
0.7869093779
 40
0.8482816674
 40
0.9043025223
 40
0.9548462205
 40
1.0
 40
1.0
 40
1.0
 40
1.0
 10
7.1366685702
 20
6.8959089106
 30
0.0
 10
7.1373174171
 20
6.8957032704
 30
0.0
 10
7.1387054146
 20
6.8953074673
 30
0.0
 10
7.140932938
 20
6.8947860244
 30
0.0
 10
7.1434209162
 20
6.8943147462
 30
0.0
 10
7.146161912
 20
6.893904262
 30
0.0
 10
7.1491366838
 20
6.8935674791
 30
0.0
 10
7.1523106864
 20
6.893315162
 30
0.0
 10
7.1556310564
 20
6.8931593869
 30
0.0
 10
7.1590292898
 20
6.8931060249
 30
0.0
 10
7.1624275312
 20
6.8931593905
 30
0.0
 10
7.165747916
 20
6.8933151657
 30
0.0
 10
7.1689219513
 20
6.8935674976
 30
0.0
 10
7.1718967356
 20
6.893904278
 30
0.0
 10
7.1746377195
 20
6.8943147684
 30
0.0
 10
7.1771256482
 20
6.8947860441
 30
0.0
 10
7.1793531263
 20
6.8953074766
 30
0.0
 10
7.1807410936
 20
6.8957032738
 30
0.0
 10
7.1813899297
 20
6.8959089106
 30
0.0
  0
SPLINE
  5
376
100
AcDbEntity
  8
ALL_ASSEMBLY_MEMBERS
100
AcDbSpline
 62
7
  6
CONTINUOUS
 70
0
 71
3
 72
23
 73
19
 74
0
 42
0.0000001
 43
0.0000001
 44
0.0000000001
 40
0.0
 40
0.0
 40
0.0
 40
0.0
 40
0.1240633424
 40
0.1864050447
 40
0.2488559488
 40
0.3114571405
 40
0.3742013755
 40
0.4056333571
 40
0.4370946467
 40
0.5000006546
 40
0.5629067602
 40
0.5943682983
 40
0.625800635
 40
0.6885454926
 40
0.7511478667
 40
0.8135981644
 40
0.8759390253
 40
1.0
 40
1.0
 40
1.0
 40
1.0
 10
7.1813899297
 20
6.8959089106
 30
0.0
 10
7.1801656408
 20
6.8978053946
 30
0.0
 10
7.1780669121
 20
6.9005052267
 30
0.0
 10
7.1747550946
 20
6.9036035499
 30
0.0
 10
7.1720069383
 20
6.905636581
 30
0.0
 10
7.1690165675
 20
6.9073093263
 30
0.0
 10
7.1663516713
 20
6.9083556173
 30
0.0
 10
7.164143545
 20
6.908954349
 30
0.0
 10
7.161894063
 20
6.9093870352
 30
0.0
 10
7.1590292128
 20
6.9096099855
 30
0.0
 10
7.1561643578
 20
6.9093870245
 30
0.0
 10
7.1539148671
 20
6.9089543191
 30
0.0
 10
7.1517067154
 20
6.9083555939
 30
0.0
 10
7.1490418026
 20
6.9073092365
 30
0.0
 10
7.1460514051
 20
6.9056364972
 30
0.0
 10
7.1433032722
 20
6.9036034397
 30
0.0
 10
7.1399915242
 20
6.9005051459
 30
0.0
 10
7.1378928357
 20
6.8978053585
 30
0.0
 10
7.1366685702
 20
6.8959089106
 30
0.0
  0
SPLINE
  5
377
100
AcDbEntity
  8
ALL_ASSEMBLY_MEMBERS
100
AcDbSpline
 62
7
  6
CONTINUOUS
 70
0
 71
3
 72
21
 73
17
 74
0
 42
0.0000001
 43
0.0000001
 44
0.0000000001
 40
0.0
 40
0.0
 40
0.0
 40
0.0
 40
0.0442877146
 40
0.0942870671
 40
0.1500508637
 40
0.211419156
 40
0.2780595606
 40
0.3492111903
 40
0.5000008945
 40
0.6507911149
 40
0.7219432021
 40
0.788584852
 40
0.8499522243
 40
0.9057149491
 40
0.9557130283
 40
1.0
 40
1.0
 40
1.0
 40
1.0
 10
7.1366685702
 20
6.9151444683
 30
0.0
 10
7.137320965
 20
6.9150291273
 30
0.0
 10
7.1387142076
 20
6.9148077136
 30
0.0
 10
7.1409402185
 20
6.9145172358
 30
0.0
 10
7.1434267868
 20
6.9142546391
 30
0.0
 10
7.1461665552
 20
6.9140258748
 30
0.0
 10
7.1491401235
 20
6.9138381258
 30
0.0
 10
7.1534530851
 20
6.9136471225
 30
0.0
 10
7.1590292978
 20
6.913552724
 30
0.0
 10
7.1646055176
 20
6.9136471229
 30
0.0
 10
7.1689185119
 20
6.913838136
 30
0.0
 10
7.171892092
 20
6.9140258838
 30
0.0
 10
7.174631849
 20
6.9142546515
 30
0.0
 10
7.1771183683
 20
6.9145172469
 30
0.0
 10
7.1793443333
 20
6.9148077187
 30
0.0
 10
7.1807375459
 20
6.9150291292
 30
0.0
 10
7.1813899297
 20
6.9151444683
 30
0.0
  0
SPLINE
  5
378
100
AcDbEntity
  8
ALL_ASSEMBLY_MEMBERS
100
AcDbSpline
 62
7
  6
CONTINUOUS
 70
0
 71
3
 72
23
 73
19
 74
0
 42
0.0000001
 43
0.0000001
 44
0.0000000001
 40
0.0
 40
0.0
 40
0.0
 40
0.0
 40
0.1246104053
 40
0.1870916212
 40
0.2495812594
 40
0.3121185857
 40
0.3747048539
 40
0.4060288103
 40
0.4373672222
 40
0.5000006521
 40
0.5626341798
 40
0.5939728399
 40
0.6252971501
 40
0.6878840452
 40
0.7504225539
 40
0.8129115916
 40
0.8753919695
 40
1.0
 40
1.0
 40
1.0
 40
1.0
 10
7.1813899297
 20
6.9151444683
 30
0.0
 10
7.1801671665
 20
6.9170657025
 30
0.0
 10
7.1780709328
 20
6.9198023926
 30
0.0
 10
7.1747572134
 20
6.9229474575
 30
0.0
 10
7.1720093099
 20
6.925009826
 30
0.0
 10
7.1690189211
 20
6.9267069576
 30
0.0
 10
7.1663528558
 20
6.9277689903
 30
0.0
 10
7.1641439389
 20
6.9283765549
 30
0.0
 10
7.1618946386
 20
6.9288154408
 30
0.0
 10
7.1590292128
 20
6.9290417124
 30
0.0
 10
7.1561637822
 20
6.9288154299
 30
0.0
 10
7.1539144733
 20
6.9283765245
 30
0.0
 10
7.1517055306
 20
6.9277689664
 30
0.0
 10
7.1490394492
 20
6.9267068666
 30
0.0
 10
7.1460490333
 20
6.9250097409
 30
0.0
 10
7.1433011535
 20
6.9229473457
 30
0.0
 10
7.1399875037
 20
6.9198023108
 30
0.0
 10
7.1378913101
 20
6.9170656658
 30
0.0
 10
7.1366685702
 20
6.9151444683
 30
0.0
  0
SPLINE
  5
379
100
AcDbEntity
  8
ALL_ASSEMBLY_MEMBERS
100
AcDbSpline
 62
7
  6
CONTINUOUS
 70
0
 71
3
 72
15
 73
11
 74
0
 42
0.0000001
 43
0.0000001
 44
0.0000000001
 40
0.0
 40
0.0
 40
0.0
 40
0.0
 40
0.0936536695
 40
0.2106693536
 40
0.3487265917
 40
0.5000008981
 40
0.65127572
 40
0.7893346595
 40
0.9063483403
 40
1.0
 40
1.0
 40
1.0
 40
1.0
 10
7.1366685702
 20
6.9330494096
 30
0.0
 10
7.1380640028
 20
6.9330002384
 30
0.0
 10
7.1412037716
 20
6.9329126995
 30
0.0
 10
7.1464021767
 20
6.9328174718
 30
0.0
 10
7.1524602083
 20
6.9327543851
 30
0.0
 10
7.1590292978
 20
6.9327321294
 30
0.0
 10
7.1655984127
 20
6.9327543858
 30
0.0
 10
7.1716564475
 20
6.9328174733
 30
0.0
 10
7.1768548181
 20
6.9329127019
 30
0.0
 10
7.1799945271
 20
6.9330002394
 30
0.0
 10
7.1813899297
 20
6.9330494096
 30
0.0
  0
SPLINE
  5
37A
100
AcDbEntity
  8
ALL_ASSEMBLY_MEMBERS
100
AcDbSpline
 62
7
  6
CONTINUOUS
 70
0
 71
3
 72
23
 73
19
 74
0
 42
0.0000001
 43
0.0000001
 44
0.0000000001
 40
0.0
 40
0.0
 40
0.0
 40
0.0
 40
0.124844409
 40
0.1873854915
 40
0.2498919148
 40
0.3124020646
 40
0.3749207453
 40
0.4061984148
 40
0.4374841442
 40
0.500000651
 40
0.5625172556
 40
0.5938032332
 40
0.6250812559
 40
0.6876005655
 40
0.7501118976
 40
0.8126177228
 40
0.8751579689
 40
1.0
 40
1.0
 40
1.0
 40
1.0
 10
7.1813899297
 20
6.9330494096
 30
0.0
 10
7.1801678102
 20
6.9349812703
 30
0.0
 10
7.1780726393
 20
6.9377337758
 30
0.0
 10
7.1747581171
 20
6.9408989196
 30
0.0
 10
7.1720103262
 20
6.9429738853
 30
0.0
 10
7.1690199345
 20
6.9446814908
 30
0.0
 10
7.1663533679
 20
6.945750291
 30
0.0
 10
7.1641441094
 20
6.9463616519
 30
0.0
 10
7.1618948881
 20
6.9468032003
 30
0.0
 10
7.1590292128
 20
6.9470308999
 30
0.0
 10
7.1561635327
 20
6.9468031894
 30
0.0
 10
7.1539143028
 20
6.9463616214
 30
0.0
 10
7.1517050185
 20
6.945750267
 30
0.0
 10
7.1490384358
 20
6.9446813993
 30
0.0
 10
7.1460480169
 20
6.9429737997
 30
0.0
 10
7.1433002498
 20
6.9408988072
 30
0.0
 10
7.1399857973
 20
6.9377336937
 30
0.0
 10
7.1378906664
 20
6.9349812335
 30
0.0
 10
7.1366685702
 20
6.9330494096
 30
0.0
  0
SPLINE
  5
37B
100
AcDbEntity
  8
ALL_ASSEMBLY_MEMBERS
100
AcDbSpline
 62
7
  6
CONTINUOUS
 70
0
 71
3
 72
23
 73
19
 74
0
 42
0.0000001
 43
0.0000001
 44
0.0000000001
 40
0.0
 40
0.0
 40
0.0
 40
0.0
 40
0.1247657094
 40
0.187286645
 40
0.2497874087
 40
0.3123066889
 40
0.3748481016
 40
0.4061413436
 40
0.4374447992
 40
0.5000006513
 40
0.5625566014
 40
0.5938603052
 40
0.6251539006
 40
0.6876959415
 40
0.750216404
 40
0.8127165688
 40
0.8752366674
 40
1.0
 40
1.0
 40
1.0
 40
1.0
 10
7.1813899297
 20
6.9494795666
 30
0.0
 10
7.1801675943
 20
6.9514078507
 30
0.0
 10
7.1780720663
 20
6.9541550338
 30
0.0
 10
7.1747578133
 20
6.9573134189
 30
0.0
 10
7.1720099843
 20
6.9593841446
 30
0.0
 10
7.1690195932
 20
6.9610882246
 30
0.0
 10
7.1663531953
 20
6.9621547465
 30
0.0
 10
7.1641440519
 20
6.9627648294
 30
0.0
 10
7.161894804
 20
6.9632054816
 30
0.0
 10
7.1590292128
 20
6.9634327005
 30
0.0
 10
7.1561636168
 20
6.9632054707
 30
0.0
 10
7.1539143603
 20
6.962764799
 30
0.0
 10
7.1517051911
 20
6.9621547225
 30
0.0
 10
7.1490387771
 20
6.9610881333
 30
0.0
 10
7.1460483589
 20
6.9593840592
 30
0.0
 10
7.1433005536
 20
6.9573133067
 30
0.0
 10
7.1399863703
 20
6.9541549518
 30
0.0
 10
7.1378908823
 20
6.9514078139
 30
0.0
 10
7.1366685702
 20
6.9494795666
 30
0.0
  0
SPLINE
  5
37C
100
AcDbEntity
  8
ALL_ASSEMBLY_MEMBERS
100
AcDbSpline
 62
7
  6
CONTINUOUS
 70
0
 71
3
 72
23
 73
19
 74
0
 42
0.0000001
 43
0.0000001
 44
0.0000000001
 40
0.0
 40
0.0
 40
0.0
 40
0.0
 40
0.1243705674
 40
0.1867896055
 40
0.2492608538
 40
0.3118276037
 40
0.3744833076
 40
0.405854925
 40
0.4372474493
 40
0.5000003047
 40
0.5627530487
 40
0.5941455034
 40
0.6255170546
 40
0.6881725149
 40
0.7507390979
 40
0.8132103489
 40
0.8756294221
 40
1.0
 40
1.0
 40
1.0
 40
1.0
 10
7.1813899297
 20
6.9643026459
 30
0.0
 10
7.180166547
 20
6.9662131214
 30
0.0
 10
7.1780693002
 20
6.9689337945
 30
0.0
 10
7.1747565316
 20
6.9720585924
 30
0.0
 10
7.1720085708
 20
6.974108304
 30
0.0
 10
7.169018152
 20
6.9757948747
 30
0.0
 10
7.1663525622
 20
6.9768502268
 30
0.0
 10
7.1641439215
 20
6.977453954
 30
0.0
 10
7.161894483
 20
6.9778901865
 30
0.0
 10
7.1590292353
 20
6.9781150652
 30
0.0
 10
7.1561639883
 20
6.9778901853
 30
0.0
 10
7.1539145559
 20
6.9774539461
 30
0.0
 10
7.1517059211
 20
6.976850224
 30
0.0
 10
7.1490403398
 20
6.975794873
 30
0.0
 10
7.1460499299
 20
6.9741083022
 30
0.0
 10
7.1433019705
 20
6.9720585928
 30
0.0
 10
7.1399891995
 20
6.9689337962
 30
0.0
 10
7.1378919531
 20
6.9662131216
 30
0.0
 10
7.1366685702
 20
6.9643026459
 30
0.0
  0
SPLINE
  5
37D
100
AcDbEntity
  8
ALL_ASSEMBLY_MEMBERS
100
AcDbSpline
 62
7
  6
CONTINUOUS
 70
0
 71
3
 72
23
 73
19
 74
0
 42
0.0000001
 43
0.0000001
 44
0.0000000001
 40
0.0
 40
0.0
 40
0.0
 40
0.0
 40
0.1236693007
 40
0.1859109005
 40
0.248334344
 40
0.3109818219
 40
0.3738398001
 40
0.4053494291
 40
0.4368989787
 40
0.5000006565
 40
0.5631024318
 40
0.59465223
 40
0.6261622151
 40
0.6890208128
 40
0.7516694731
 40
0.8140923059
 40
0.8763330618
 40
1.0
 40
1.0
 40
1.0
 40
1.0
 10
7.1813899297
 20
6.9773992941
 30
0.0
 10
7.1801645235
 20
6.9792780283
 30
0.0
 10
7.1780639888
 20
6.9819514076
 30
0.0
 10
7.1747535633
 20
6.9850162315
 30
0.0
 10
7.172005234
 20
6.987028226
 30
0.0
 10
7.1690148858
 20
6.9886834904
 30
0.0
 10
7.1663508288
 20
6.98971851
 30
0.0
 10
7.1641432654
 20
6.9903109151
 30
0.0
 10
7.161893655
 20
6.9907391566
 30
0.0
 10
7.1590292128
 20
6.990959729
 30
0.0
 10
7.1561647658
 20
6.990739146
 30
0.0
 10
7.1539151467
 20
6.9903108855
 30
0.0
 10
7.151707558
 20
6.9897184868
 30
0.0
 10
7.1490434842
 20
6.9886834015
 30
0.0
 10
7.1460531095
 20
6.9870281432
 30
0.0
 10
7.1433048035
 20
6.9850161224
 30
0.0
 10
7.1399944474
 20
6.9819513275
 30
0.0
 10
7.1378939531
 20
6.9792779924
 30
0.0
 10
7.1366685702
 20
6.9773992941
 30
0.0
  0
SPLINE
  5
37E
100
AcDbEntity
  8
ALL_ASSEMBLY_MEMBERS
100
AcDbSpline
 62
7
  6
CONTINUOUS
 70
0
 71
3
 72
23
 73
19
 74
0
 42
0.0000001
 43
0.0000001
 44
0.0000000001
 40
0.0
 40
0.0
 40
0.0
 40
0.0
 40
0.1226506421
 40
0.1846349716
 40
0.2469891242
 40
0.3097573495
 40
0.37290921
 40
0.4046189419
 40
0.4363957031
 40
0.5000006613
 40
0.5636057167
 40
0.5953827267
 40
0.6270928173
 40
0.6902452894
 40
0.7530146971
 40
0.8153682282
 40
0.8773517072
 40
1.0
 40
1.0
 40
1.0
 40
1.0
 10
7.1813899297
 20
6.9886640589
 30
0.0
 10
7.180161561
 20
6.9904971854
 30
0.0
 10
7.1780563252
 20
6.9931025206
 30
0.0
 10
7.174749585
 20
6.9960813641
 30
0.0
 10
7.172000844
 20
6.9980393218
 30
0.0
 10
7.1690105909
 20
6.9996497046
 30
0.0
 10
7.1663486915
 20
7.0006558336
 30
0.0
 10
7.1641425578
 20
7.0012320141
 30
0.0
 10
7.1618926254
 20
7.001648841
 30
0.0
 10
7.1590292128
 20
7.0018633193
 30
0.0
 10
7.1561657955
 20
7.0016488307
 30
0.0
 10
7.1539158542
 20
7.0012319852
 30
0.0
 10
7.1517096956
 20
7.0006558111
 30
0.0
 10
7.1490477788
 20
6.999649618
 30
0.0
 10
7.1460574998
 20
6.9980392413
 30
0.0
 10
7.1433087816
 20
6.9960812579
 30
0.0
 10
7.1400021107
 20
6.9931024423
 30
0.0
 10
7.1378969154
 20
6.9904971503
 30
0.0
 10
7.1366685702
 20
6.9886640589
 30
0.0
  0
SPLINE
  5
37F
100
AcDbEntity
  8
ALL_ASSEMBLY_MEMBERS
100
AcDbSpline
 62
7
  6
CONTINUOUS
 70
0
 71
3
 72
15
 73
11
 74
0
 42
0.0000001
 43
0.0000001
 44
0.0000000001
 40
0.0
 40
0.0
 40
0.0
 40
0.0
 40
0.1215181836
 40
0.2454396636
 40
0.3718457003
 40
0.5000006452
 40
0.6281563122
 40
0.7545641636
 40
0.8784841523
 40
1.0
 40
1.0
 40
1.0
 40
1.0
 10
7.1813899297
 20
6.998006238
 30
0.0
 10
7.1801575202
 20
6.9997802716
 30
0.0
 10
7.177333631
 20
7.0031477439
 30
0.0
 10
7.1720757909
 20
7.0072444671
 30
0.0
 10
7.165854033
 20
7.0100013128
 30
0.0
 10
7.1590292011
 20
7.0109846271
 30
0.0
 10
7.1522043399
 20
7.0100012845
 30
0.0
 10
7.1459825769
 20
7.0072443966
 30
0.0
 10
7.1407247958
 20
7.0031476595
 30
0.0
 10
7.1379009561
 20
6.9997802375
 30
0.0
 10
7.1366685702
 20
6.998006238
 30
0.0
  0
SPLINE
  5
380
100
AcDbEntity
  8
ALL_ASSEMBLY_MEMBERS
100
AcDbSpline
 62
7
  6
CONTINUOUS
 70
0
 71
3
 72
15
 73
11
 74
0
 42
0.0000001
 43
0.0000001
 44
0.0000000001
 40
0.0
 40
0.0
 40
0.0
 40
0.0
 40
0.1198621883
 40
0.2432702181
 40
0.3703540176
 40
0.5000006542
 40
0.6296480162
 40
0.7567336165
 40
0.8801401263
 40
1.0
 40
1.0
 40
1.0
 40
1.0
 10
7.1813899297
 20
7.0053506095
 30
0.0
 10
7.1801522597
 20
7.007052469
 30
0.0
 10
7.1773108548
 20
7.0102834477
 30
0.0
 10
7.1720476721
 20
7.0141913013
 30
0.0
 10
7.1658325506
 20
7.0168136763
 30
0.0
 10
7.1590292013
 20
7.0177465696
 30
0.0
 10
7.152225823
 20
7.0168136495
 30
0.0
 10
7.146010696
 20
7.0141912345
 30
0.0
 10
7.140747571
 20
7.0102833665
 30
0.0
 10
7.1379062163
 20
7.0070524361
 30
0.0
 10
7.1366685702
 20
7.0053506095
 30
0.0
  0
SPLINE
  5
381
100
AcDbEntity
  8
ALL_ASSEMBLY_MEMBERS
100
AcDbSpline
 62
7
  6
CONTINUOUS
 70
0
 71
3
 72
15
 73
11
 74
0
 42
0.0000001
 43
0.0000001
 44
0.0000000001
 40
0.0
 40
0.0
 40
0.0
 40
0.0
 40
0.1179012125
 40
0.2407178204
 40
0.3686081255
 40
0.5000006649
 40
0.6313939333
 40
0.7592860237
 40
0.8821010772
 40
1.0
 40
1.0
 40
1.0
 40
1.0
 10
7.1813899297
 20
7.0106380375
 30
0.0
 10
7.180145599
 20
7.0122551035
 30
0.0
 10
7.1772829037
 20
7.015324752
 30
0.0
 10
7.1720147502
 20
7.0190108052
 30
0.0
 10
7.1658084087
 20
7.0214768106
 30
0.0
 10
7.1590292014
 20
7.0223517572
 30
0.0
 10
7.1522499657
 20
7.0214767855
 30
0.0
 10
7.1460436181
 20
7.0190107426
 30
0.0
 10
7.1407755208
 20
7.0153246744
 30
0.0
 10
7.1379128768
 20
7.0122550721
 30
0.0
 10
7.1366685702
 20
7.0106380375
 30
0.0
  0
SPLINE
  5
382
100
AcDbEntity
  8
ALL_ASSEMBLY_MEMBERS
100
AcDbSpline
 62
7
  6
CONTINUOUS
 70
0
 71
3
 72
15
 73
11
 74
0
 42
0.0000001
 43
0.0000001
 44
0.0000000001
 40
0.0
 40
0.0
 40
0.0
 40
0.0
 40
0.1156504225
 40
0.2378104635
 40
0.3666311532
 40
0.500000677
 40
0.6333709344
 40
0.7621933921
 40
0.8843518391
 40
1.0
 40
1.0
 40
1.0
 40
1.0
 10
7.1813899297
 20
7.0138259485
 30
0.0
 10
7.1801373183
 20
7.0153460909
 30
0.0
 10
7.1772495034
 20
7.0182300162
 30
0.0
 10
7.1719775264
 20
7.0216631482
 30
0.0
 10
7.1657823293
 20
7.0239528321
 30
0.0
 10
7.1590292016
 20
7.0247632137
 30
0.0
 10
7.1522760459
 20
7.0239528089
 30
0.0
 10
7.1460808423
 20
7.0216630904
 30
0.0
 10
7.1408089197
 20
7.0182299429
 30
0.0
 10
7.1379211572
 20
7.0153460612
 30
0.0
 10
7.1366685702
 20
7.0138259485
 30
0.0
  0
SPLINE
  5
383
100
AcDbEntity
  8
ALL_ASSEMBLY_MEMBERS
100
AcDbSpline
 62
7
  6
CONTINUOUS
 70
0
 71
3
 72
55
 73
51
 74
0
 42
0.0000001
 43
0.0000001
 44
0.0000000001
 40
0.0
 40
0.0
 40
0.0
 40
0.0
 40
0.027149784
 40
0.0543631223
 40
0.0816830764
 40
0.1091787604
 40
0.1369604395
 40
0.1652039562
 40
0.1941919722
 40
0.2243868941
 40
0.2401716578
 40
0.2565884914
 40
0.2738263675
 40
0.2828314441
 40
0.2921426328
 40
0.3018024503
 40
0.3118595596
 40
0.3223710497
 40
0.3333867598
 40
0.3570905914
 40
0.3697984824
 40
0.3829866003
 40
0.4100428894
 40
0.423436975
 40
0.436436809
 40
0.4607835106
 40
0.4721025294
 40
0.4828892859
 40
0.4931967144
 40
0.5030741927
 40
0.5217424781
 40
0.5392546435
 40
0.5558823428
 40
0.5872317248
 40
0.6169248368
 40
0.6313669197
 40
0.6456118364
 40
0.6736639218
 40
0.7013269859
 40
0.7287497027
 40
0.7560253177
 40
0.7832121873
 40
0.810346568
 40
0.8374507294
 40
0.8645384971
 40
0.8916186949
 40
0.9186977711
 40
0.9457819389
 40
0.9728788019
 40
1.0
 40
1.0
 40
1.0
 40
1.0
 10
7.6232145168
 20
6.4697562184
 30
0.0
 10
7.6233303815
 20
6.4714087506
 30
0.0
 10
7.6236044279
 20
6.4747149666
 30
0.0
 10
7.6241704738
 20
6.4796677064
 30
0.0
 10
7.6249297713
 20
6.4846164447
 30
0.0
 10
7.6259310263
 20
6.4895581845
 30
0.0
 10
7.627236775
 20
6.4944879425
 30
0.0
 10
7.6289288816
 20
6.4993974661
 30
0.0
 10
7.6311169336
 20
6.5042716946
 30
0.0
 10
7.6334487514
 20
6.5082220469
 30
0.0
 10
7.6357067979
 20
6.5112910686
 30
0.0
 10
7.6376762841
 20
6.5135802148
 30
0.0
 10
7.6395360931
 20
6.5154067521
 30
0.0
 10
7.6411871933
 20
6.516815054
 30
0.0
 10
7.642539516
 20
6.5178579492
 30
0.0
 10
7.6439971035
 20
6.5188657426
 30
0.0
 10
7.6455716581
 20
6.5198282448
 30
0.0
 10
7.6472729964
 20
6.5207360848
 30
0.0
 10
7.649784541
 20
6.5218835291
 30
0.0
 10
7.6525367265
 20
6.5228133571
 30
0.0
 10
7.6554929586
 20
6.5234725523
 30
0.0
 10
7.6586942107
 20
6.52392872
 30
0.0
 10
7.6619829911
 20
6.5240052757
 30
0.0
 10
7.6652313462
 20
6.5236849756
 30
0.0
 10
7.6682825999
 20
6.5231453788
 30
0.0
 10
7.6711421169
 20
6.5223007405
 30
0.0
 10
7.6737641542
 20
6.5212205235
 30
0.0
 10
7.6755412542
 20
6.5203493308
 30
0.0
 10
7.6771855531
 20
6.5194157055
 30
0.0
 10
7.6791783484
 20
6.5181296422
 30
0.0
 10
7.6814136485
 20
6.5164174233
 30
0.0
 10
7.6837740057
 20
6.5142174858
 30
0.0
 10
7.6864511891
 20
6.511245451
 30
0.0
 10
7.689207167
 20
6.5073686911
 30
0.0
 10
7.6913814584
 20
6.5032970564
 30
0.0
 10
7.6928104858
 20
6.5000329095
 30
0.0
 10
7.6940505928
 20
6.4967994418
 30
0.0
 10
7.6953296169
 20
6.4927221212
 30
0.0
 10
7.6965178857
 20
6.48778745
 30
0.0
 10
7.6974260092
 20
6.4828426913
 30
0.0
 10
7.6981110215
 20
6.4778922181
 30
0.0
 10
7.698617594
 20
6.4729384406
 30
0.0
 10
7.6989801597
 20
6.46798282
 30
0.0
 10
7.6992245512
 20
6.4630261986
 30
0.0
 10
7.6993701193
 20
6.4580690945
 30
0.0
 10
7.6994270043
 20
6.4531117563
 30
0.0
 10
7.6994011341
 20
6.4481543911
 30
0.0
 10
7.6992894246
 20
6.443197155
 30
0.0
 10
7.699083419
 20
6.4382403334
 30
0.0
 10
7.6988728329
 20
6.4349384409
 30
0.0
 10
7.6987454948
 20
6.4332885026
 30
0.0
  0
SPLINE
  5
384
100
AcDbEntity
  8
ALL_ASSEMBLY_MEMBERS
100
AcDbSpline
 62
7
  6
CONTINUOUS
 70
0
 71
3
 72
42
 73
38
 74
0
 42
0.0000001
 43
0.0000001
 44
0.0000000001
 40
0.0
 40
0.0
 40
0.0
 40
0.0
 40
0.0294616305
 40
0.0447212112
 40
0.0604315918
 40
0.0766914741
 40
0.0936242088
 40
0.1113818279
 40
0.1301506187
 40
0.1501522124
 40
0.1716276124
 40
0.1947570308
 40
0.2069664463
 40
0.219545986
 40
0.2455032029
 40
0.2586328462
 40
0.2716640537
 40
0.2969399827
 40
0.3206563055
 40
0.3426782046
 40
0.3631539118
 40
0.3823157953
 40
0.4003950789
 40
0.4340466229
 40
0.4653265577
 40
0.4950087255
 40
0.5236007086
 40
0.5514417084
 40
0.5787623073
 40
0.6324135381
 40
0.6853549816
 40
0.7379629076
 40
0.7904202053
 40
0.8428144224
 40
0.8951889665
 40
0.9475723544
 40
1.0
 40
1.0
 40
1.0
 40
1.0
 10
7.6901369045
 20
6.3988304798
 30
0.0
 10
7.6894441444
 20
6.3975911126
 30
0.0
 10
7.6883048281
 20
6.3957563179
 30
0.0
 10
7.6865795655
 20
6.3934085603
 30
0.0
 10
7.6851275131
 20
6.3916539204
 30
0.0
 10
7.6835151419
 20
6.3899327884
 30
0.0
 10
7.68171723
 20
6.3882575134
 30
0.0
 10
7.6797082279
 20
6.3866406279
 30
0.0
 10
7.6774532945
 20
6.3851064175
 30
0.0
 10
7.6749177404
 20
6.3836837754
 30
0.0
 10
7.6720654335
 20
6.3824230481
 30
0.0
 10
7.6694550654
 20
6.3815777081
 30
0.0
 10
7.6672056278
 20
6.3810503321
 30
0.0
 10
7.664795446
 20
6.3806289861
 30
0.0
 10
7.6623064809
 20
6.380425654
 30
0.0
 10
7.6597935845
 20
6.3804475213
 30
0.0
 10
7.6573196551
 20
6.3806246703
 30
0.0
 10
7.6543612467
 20
6.3811019847
 30
0.0
 10
7.6510613205
 20
6.3820349223
 30
0.0
 10
7.6480944742
 20
6.3832247917
 30
0.0
 10
7.6454536286
 20
6.3845964696
 30
0.0
 10
7.6431065823
 20
6.3860957143
 30
0.0
 10
7.6403849967
 20
6.3881660423
 30
0.0
 10
7.6374770949
 20
6.3909341443
 30
0.0
 10
7.6345976262
 20
6.3944825957
 30
0.0
 10
7.6322542343
 20
6.3981155284
 30
0.0
 10
7.6303348895
 20
6.4018007927
 30
0.0
 10
7.6287573089
 20
6.4055199668
 30
0.0
 10
7.6270380167
 20
6.4104774327
 30
0.0
 10
7.6254479307
 20
6.41674426
 30
0.0
 10
7.6241805949
 20
6.4243168121
 30
0.0
 10
7.6233718433
 20
6.4318918526
 30
0.0
 10
7.6228914403
 20
6.4394667031
 30
0.0
 10
7.6226558851
 20
6.4470412454
 30
0.0
 10
7.6226214453
 20
6.4546156143
 30
0.0
 10
7.6227815026
 20
6.4621899533
 30
0.0
 10
7.6230377992
 20
6.4672357668
 30
0.0
 10
7.6232145168
 20
6.4697562184
 30
0.0
  0
SPLINE
  5
385
100
AcDbEntity
  8
ALL_ASSEMBLY_MEMBERS
100
AcDbSpline
 62
7
  6
CONTINUOUS
 70
0
 71
3
 72
60
 73
56
 74
0
 42
0.0000001
 43
0.0000001
 44
0.0000000001
 40
0.0
 40
0.0
 40
0.0
 40
0.0
 40
0.0312417693
 40
0.0625026274
 40
0.1249786827
 40
0.1874561724
 40
0.2499332843
 40
0.3124106031
 40
0.3436495097
 40
0.3748884461
 40
0.4061273594
 40
0.4373663739
 40
0.4686053453
 40
0.4998443485
 40
0.5310833717
 40
0.5623223002
 40
0.5935610602
 40
0.6247994594
 40
0.6560370443
 40
0.6716572969
 40
0.6872774702
 40
0.7028978414
 40
0.7185192272
 40
0.7263307982
 40
0.7341435665
 40
0.7497671894
 40
0.7653954584
 40
0.7732117148
 40
0.7810330189
 40
0.7888540563
 40
0.7966772109
 40
0.8123128096
 40
0.8201483277
 40
0.824070476
 40
0.8279900702
 40
0.8319079318
 40
0.8358272908
 40
0.8397487511
 40
0.8436707143
 40
0.847590397
 40
0.8515066605
 40
0.8554234915
 40
0.8593423543
 40
0.8671722042
 40
0.8749946339
 40
0.8828191057
 40
0.8906368191
 40
0.8984545048
 40
0.9062706809
 40
0.9218950907
 40
0.9375175334
 40
0.9531391836
 40
0.9687599597
 40
0.9843800695
 40
1.0
 40
1.0
 40
1.0
 40
1.0
 10
7.6324907519
 20
6.6411863882
 30
0.0
 10
7.6315465379
 20
6.6443750867
 30
0.0
 10
7.6298952911
 20
6.6508262806
 30
0.0
 10
7.6273525114
 20
6.6638893023
 30
0.0
 10
7.6252314481
 20
6.6803975117
 30
0.0
 10
7.6237572171
 20
6.7002988826
 30
0.0
 10
7.6229658017
 20
6.7202372291
 30
0.0
 10
7.6226831556
 20
6.7368619662
 30
0.0
 10
7.6226296853
 20
6.7501629436
 30
0.0
 10
7.6226741775
 20
6.760138739
 30
0.0
 10
7.6228067396
 20
6.7701137723
 30
0.0
 10
7.6230373389
 20
6.780087075
 30
0.0
 10
7.6233846442
 20
6.7900570883
 30
0.0
 10
7.6238731887
 20
6.8000213161
 30
0.0
 10
7.6245370493
 20
6.8099756286
 30
0.0
 10
7.6254196888
 20
6.819913249
 30
0.0
 10
7.6265764441
 20
6.829823289
 30
0.0
 10
7.6280783356
 20
6.8396874938
 30
0.0
 10
7.6296947486
 20
6.8478460198
 30
0.0
 10
7.6312696037
 20
6.8543084029
 30
0.0
 10
7.6326128083
 20
6.8591134509
 30
0.0
 10
7.6341422767
 20
6.8638628946
 30
0.0
 10
7.6355964804
 20
6.8677593946
 30
0.0
 10
7.6368871838
 20
6.8708251937
 30
0.0
 10
7.638268996
 20
6.8738512919
 30
0.0
 10
7.6401861401
 20
6.8775453416
 30
0.0
 10
7.6424013225
 20
6.8810730409
 30
0.0
 10
7.6443932042
 20
6.883741399
 30
0.0
 10
7.6460058258
 20
6.8856500564
 30
0.0
 10
7.6477506764
 20
6.8874415073
 30
0.0
 10
7.6502642857
 20
6.889627751
 30
0.0
 10
7.6530898045
 20
6.8914547493
 30
0.0
 10
7.6558088643
 20
6.8925336772
 30
0.0
 10
7.6574186999
 20
6.8929784981
 30
0.0
 10
7.6586481531
 20
6.8932204245
 30
0.0
 10
7.6598927768
 20
6.8933638911
 30
0.0
 10
7.6611452338
 20
6.8934034719
 30
0.0
 10
7.6623971502
 20
6.8933421104
 30
0.0
 10
7.6636403106
 20
6.8931820773
 30
0.0
 10
7.6648666458
 20
6.892925624
 30
0.0
 10
7.6660687834
 20
6.8925750369
 30
0.0
 10
7.6672421574
 20
6.892138359
 30
0.0
 10
7.6687629668
 20
6.8914518523
 30
0.0
 10
7.6705766731
 20
6.8904158321
 30
0.0
 10
7.6725992275
 20
6.8889409206
 30
0.0
 10
7.6744715351
 20
6.8872829562
 30
0.0
 10
7.676204348
 20
6.8854815938
 30
0.0
 10
7.6778053952
 20
6.8835639903
 30
0.0
 10
7.6797820804
 20
6.8808855045
 30
0.0
 10
7.6819834174
 20
6.8773499124
 30
0.0
 10
7.6842679574
 20
6.872910189
 30
0.0
 10
7.6862542301
 20
6.8683308134
 30
0.0
 10
7.6879891505
 20
6.8636517697
 30
0.0
 10
7.6895095204
 20
6.8588995016
 30
0.0
 10
7.6903998751
 20
6.8556946855
 30
0.0
 10
7.6908181722
 20
6.8540854856
 30
0.0
  0
SPLINE
  5
386
100
AcDbEntity
  8
ALL_ASSEMBLY_MEMBERS
100
AcDbSpline
 62
7
  6
CONTINUOUS
 70
0
 71
3
 72
39
 73
35
 74
0
 42
0.0000001
 43
0.0000001
 44
0.0000000001
 40
0.0
 40
0.0
 40
0.0
 40
0.0
 40
0.0624352199
 40
0.1248730946
 40
0.1560976488
 40
0.1873246878
 40
0.218553791
 40
0.2497919975
 40
0.2810279574
 40
0.3122772551
 40
0.3747270098
 40
0.4060031872
 40
0.4372903198
 40
0.4529590538
 40
0.4686166784
 40
0.4842741211
 40
0.499946276
 40
0.5312481403
 40
0.5469053871
 40
0.5625726305
 40
0.5938775373
 40
0.625153157
 40
0.6408070609
 40
0.6564475454
 40
0.6720775494
 40
0.6877080661
 40
0.7189623367
 40
0.7502000744
 40
0.7814406695
 40
0.8126718536
 40
0.8439005167
 40
0.8751266527
 40
0.9375648322
 40
1.0
 40
1.0
 40
1.0
 40
1.0
 10
7.6901369045
 20
6.643164747
 30
0.0
 10
7.6895891714
 20
6.6412049273
 30
0.0
 10
7.688407308
 20
6.6373086127
 30
0.0
 10
7.6866725772
 20
6.6325223745
 30
0.0
 10
7.6850974999
 20
6.6287681799
 30
0.0
 10
7.683812297
 20
6.6259976596
 30
0.0
 10
7.6824103192
 20
6.6232836049
 30
0.0
 10
7.6808806834
 20
6.6206388239
 30
0.0
 10
7.6792036309
 20
6.6180829398
 30
0.0
 10
7.6767546802
 20
6.6148284112
 30
0.0
 10
7.6739291078
 20
6.6118554643
 30
0.0
 10
7.670670457
 20
6.6093947519
 30
0.0
 10
7.6684372168
 20
6.6081426015
 30
0.0
 10
7.6665491205
 20
6.6073628579
 30
0.0
 10
7.6650870489
 20
6.6069007194
 30
0.0
 10
7.6635876588
 20
6.6065768175
 30
0.0
 10
7.6615574625
 20
6.6063424002
 30
0.0
 10
7.6595012196
 20
6.6064048966
 30
0.0
 10
7.6574908664
 20
6.60677277
 30
0.0
 10
7.655523365
 20
6.6073261758
 30
0.0
 10
7.6531680628
 20
6.6083368216
 30
0.0
 10
7.6509991774
 20
6.6096936279
 30
0.0
 10
7.6493792242
 20
6.610933829
 30
0.0
 10
7.6482190289
 20
6.6119315572
 30
0.0
 10
7.6471131517
 20
6.6129878064
 30
0.0
 10
7.6457084812
 20
6.6144646268
 30
0.0
 10
7.6440755308
 20
6.6164221142
 30
0.0
 10
7.6422908314
 20
6.6189042257
 30
0.0
 10
7.6406651943
 20
6.6214918843
 30
0.0
 10
7.6391776112
 20
6.6241603924
 30
0.0
 10
7.6378157081
 20
6.626894401
 30
0.0
 10
7.6361488034
 20
6.6306090033
 30
0.0
 10
7.6343156653
 20
6.6353590508
 30
0.0
 10
7.6330685194
 20
6.6392352136
 30
0.0
 10
7.6324907519
 20
6.6411863882
 30
0.0
  0
SPLINE
  5
387
100
AcDbEntity
  8
ALL_ASSEMBLY_MEMBERS
100
AcDbSpline
 62
7
  6
CONTINUOUS
 70
0
 71
3
 72
57
 73
53
 74
0
 42
0.0000001
 43
0.0000001
 44
0.0000000001
 40
0.0
 40
0.0
 40
0.0
 40
0.0
 40
0.0271033649
 40
0.0541864268
 40
0.0812591848
 40
0.1083287548
 40
0.1354010866
 40
0.162483062
 40
0.1895845504
 40
0.2167211659
 40
0.2439182867
 40
0.2712169721
 40
0.2986829748
 40
0.3264210648
 40
0.3545982419
 40
0.3834825759
 40
0.4135112431
 40
0.4291758249
 40
0.4454373019
 40
0.4624718477
 40
0.4713529655
 40
0.4805213446
 40
0.4900174625
 40
0.4998889873
 40
0.5209546618
 40
0.5322640892
 40
0.5441509419
 40
0.5565995381
 40
0.569587838
 40
0.5829722847
 40
0.5897466201
 40
0.5965390787
 40
0.6100494498
 40
0.6232470143
 40
0.6359673343
 40
0.6481382696
 40
0.6597186268
 40
0.6707515067
 40
0.6913425867
 40
0.7010164622
 40
0.7103403717
 40
0.7281005092
 40
0.7449192094
 40
0.7765290927
 40
0.8063797408
 40
0.8351544335
 40
0.8632634078
 40
0.8909589928
 40
0.9183986777
 40
0.9456813205
 40
0.9728688944
 40
1.0
 40
1.0
 40
1.0
 40
1.0
 10
7.6232090914
 20
7.0300987395
 30
0.0
 10
7.6230943018
 20
7.0317453521
 30
0.0
 10
7.6229063044
 20
7.0350403294
 30
0.0
 10
7.6227286958
 20
7.0399861531
 30
0.0
 10
7.6226418796
 20
7.0449323167
 30
0.0
 10
7.6226389337
 20
7.0498785583
 30
0.0
 10
7.6227194987
 20
7.0548247255
 30
0.0
 10
7.6228900801
 20
7.0597706105
 30
0.0
 10
7.6231639878
 20
7.0647158868
 30
0.0
 10
7.6235615767
 20
7.0696599899
 30
0.0
 10
7.6241107393
 20
7.0746019635
 30
0.0
 10
7.6248483628
 20
7.0795401334
 30
0.0
 10
7.6258218281
 20
7.084471667
 30
0.0
 10
7.6270916673
 20
7.0893918196
 30
0.0
 10
7.6287369351
 20
7.0942928048
 30
0.0
 10
7.6308631133
 20
7.0991604626
 30
0.0
 10
7.6331278866
 20
7.1031114454
 30
0.0
 10
7.6353190726
 20
7.1061865007
 30
0.0
 10
7.6372267348
 20
7.1084819826
 30
0.0
 10
7.6390273264
 20
7.110318807
 30
0.0
 10
7.6406241382
 20
7.1117394653
 30
0.0
 10
7.6419294955
 20
7.1127942085
 30
0.0
 10
7.6433364426
 20
7.1138158438
 30
0.0
 10
7.6454053492
 20
7.1151527517
 30
0.0
 10
7.6476856775
 20
7.1163604258
 30
0.0
 10
7.6501784761
 20
7.1173902551
 30
0.0
 10
7.6522375604
 20
7.1180833025
 30
0.0
 10
7.6544401782
 20
7.118653115
 30
0.0
 10
7.6567698136
 20
7.1190693017
 30
0.0
 10
7.6587806176
 20
7.1192711376
 30
0.0
 10
7.6604210337
 20
7.1193373668
 30
0.0
 10
7.6620704424
 20
7.1193353875
 30
0.0
 10
7.6641091885
 20
7.1192118403
 30
0.0
 10
7.6664896368
 20
7.1188787764
 30
0.0
 10
7.6687570774
 20
7.1183790569
 30
0.0
 10
7.670887572
 20
7.117744577
 30
0.0
 10
7.6728723781
 20
7.1169992794
 30
0.0
 10
7.6752698055
 20
7.1159117425
 30
0.0
 10
7.6774630912
 20
7.1146668082
 30
0.0
 10
7.6794504073
 20
7.1133001836
 30
0.0
 10
7.6812275107
 20
7.1119374572
 30
0.0
 10
7.6832271219
 20
7.1101558942
 30
0.0
 10
7.6859891689
 20
7.1072143896
 30
0.0
 10
7.68883107
 20
7.1033636598
 30
0.0
 10
7.6914965701
 20
7.0985445297
 30
0.0
 10
7.6935548949
 20
7.0936712047
 30
0.0
 10
7.6951471536
 20
7.0887672994
 30
0.0
 10
7.6963753757
 20
7.0838453479
 30
0.0
 10
7.6973157871
 20
7.0789127991
 30
0.0
 10
7.698027107
 20
7.073974037
 30
0.0
 10
7.6985553157
 20
7.0690317579
 30
0.0
 10
7.6988090497
 20
7.0657330129
 30
0.0
 10
7.6989158235
 20
7.0640841681
 30
0.0
  0
SPLINE
  5
388
100
AcDbEntity
  8
ALL_ASSEMBLY_MEMBERS
100
AcDbSpline
 62
7
  6
CONTINUOUS
 70
0
 71
3
 72
37
 73
33
 74
0
 42
0.0000001
 43
0.0000001
 44
0.0000000001
 40
0.0
 40
0.0
 40
0.0
 40
0.0
 40
0.055809892
 40
0.0853458064
 40
0.1164315743
 40
0.149586775
 40
0.1855045389
 40
0.2047727551
 40
0.2250651687
 40
0.2464636214
 40
0.2689989527
 40
0.292574047
 40
0.3046692474
 40
0.3169129161
 40
0.3415503625
 40
0.3659186965
 40
0.3895760364
 40
0.4121818176
 40
0.4539881475
 40
0.4917183251
 40
0.5262443185
 40
0.5583588121
 40
0.5886688193
 40
0.6455068351
 40
0.6991687577
 40
0.7252513044
 40
0.7509784358
 40
0.8016627657
 40
0.8516864409
 40
0.9013195456
 40
0.9507250004
 40
1.0
 40
1.0
 40
1.0
 40
1.0
 10
7.6901369045
 20
6.9942229449
 30
0.0
 10
7.68914301
 20
6.9924448398
 30
0.0
 10
7.6874398183
 20
6.9898197001
 30
0.0
 10
7.6847181408
 20
6.9865506297
 30
0.0
 10
7.6822968493
 20
6.984123665
 30
0.0
 10
7.6794609655
 20
6.9818060235
 30
0.0
 10
7.6767399172
 20
6.9800598644
 30
0.0
 10
7.6742898438
 20
6.9787964562
 30
0.0
 10
7.6722450399
 20
6.9779145409
 30
0.0
 10
7.6700287963
 20
6.97714381
 30
0.0
 10
7.6676429229
 20
6.9765179618
 30
0.0
 10
7.6655484605
 20
6.9761465669
 30
0.0
 10
7.6638101029
 20
6.975950981
 30
0.0
 10
7.6620261568
 20
6.9758295757
 30
0.0
 10
7.6597874982
 20
6.9758205446
 30
0.0
 10
7.6571415505
 20
6.9760444766
 30
0.0
 10
7.6545970468
 20
6.9764777768
 30
0.0
 10
7.6514805376
 20
6.9772771269
 30
0.0
 10
7.6479838818
 20
6.9786122636
 30
0.0
 10
7.6443267731
 20
6.9806252066
 30
0.0
 10
7.641231229
 20
6.9828598
 30
0.0
 10
7.6385977708
 20
6.9852327021
 30
0.0
 10
7.6356543087
 20
6.9884468994
 30
0.0
 10
7.6326735541
 20
6.9926609073
 30
0.0
 10
7.6303713583
 20
6.9970963364
 30
0.0
 10
7.6288832477
 20
7.0006481297
 30
0.0
 10
7.6276060709
 20
7.0041656969
 30
0.0
 10
7.6263122493
 20
7.0086007591
 30
0.0
 10
7.6251400096
 20
7.0139647013
 30
0.0
 10
7.6242690869
 20
7.019337415
 30
0.0
 10
7.6236339806
 20
7.02471466
 30
0.0
 10
7.6233341665
 20
7.0283045853
 30
0.0
 10
7.6232090914
 20
7.0300987395
 30
0.0
  0
SPLINE
  5
389
100
AcDbEntity
  8
ALL_ASSEMBLY_MEMBERS
100
AcDbSpline
 62
7
  6
CONTINUOUS
 70
0
 71
3
 72
15
 73
11
 74
0
 42
0.0000001
 43
0.0000001
 44
0.0000000001
 40
0.0
 40
0.0
 40
0.0
 40
0.0
 40
0.115657414
 40
0.2378194621
 40
0.3666371568
 40
0.5000007688
 40
0.6333648857
 40
0.7621843969
 40
0.8843448446
 40
1.0
 40
1.0
 40
1.0
 40
1.0
 10
7.1366685702
 20
6.4859576231
 30
0.0
 10
7.1379211552
 20
6.4844371805
 30
0.0
 10
7.1408088917
 20
6.4815526777
 30
0.0
 10
7.1460808599
 20
6.478118767
 30
0.0
 10
7.1522760932
 20
6.4758285394
 30
0.0
 10
7.1590292992
 20
6.4750179624
 30
0.0
 10
7.1657825333
 20
6.4758285647
 30
0.0
 10
7.171977771
 20
6.4781188236
 30
0.0
 10
7.1772496848
 20
6.4815527514
 30
0.0
 10
7.1801373692
 20
6.4844372102
 30
0.0
 10
7.1813899297
 20
6.4859576231
 30
0.0
  0
SPLINE
  5
38A
100
AcDbEntity
  8
ALL_ASSEMBLY_MEMBERS
100
AcDbSpline
 62
7
  6
CONTINUOUS
 70
0
 71
3
 72
15
 73
11
 74
0
 42
0.0000001
 43
0.0000001
 44
0.0000000001
 40
0.0
 40
0.0
 40
0.0
 40
0.0
 40
0.117907391
 40
0.2407258371
 40
0.368613499
 40
0.5000007559
 40
0.6313885151
 40
0.7592780095
 40
0.8820948956
 40
1.0
 40
1.0
 40
1.0
 40
1.0
 10
7.1366685702
 20
6.4891517031
 30
0.0
 10
7.1379128796
 20
6.4875343716
 30
0.0
 10
7.1407755075
 20
6.4844642161
 30
0.0
 10
7.1460436477
 20
6.480777472
 30
0.0
 10
7.1522500183
 20
6.4783109779
 30
0.0
 10
7.1590292994
 20
6.4774358539
 30
0.0
 10
7.165808609
 20
6.4783110051
 30
0.0
 10
7.1720149836
 20
6.4807775333
 30
0.0
 10
7.1772830676
 20
6.484464294
 30
0.0
 10
7.1801456445
 20
6.4875344029
 30
0.0
 10
7.1813899297
 20
6.4891517031
 30
0.0
  0
SPLINE
  5
38B
100
AcDbEntity
  8
ALL_ASSEMBLY_MEMBERS
100
AcDbSpline
 62
7
  6
CONTINUOUS
 70
0
 71
3
 72
15
 73
11
 74
0
 42
0.0000001
 43
0.0000001
 44
0.0000000001
 40
0.0
 40
0.0
 40
0.0
 40
0.0
 40
0.1198674953
 40
0.243277152
 40
0.3703586802
 40
0.500000744
 40
0.6296433098
 40
0.7567266849
 40
0.8801348163
 40
1.0
 40
1.0
 40
1.0
 40
1.0
 10
7.1366685702
 20
6.4944452005
 30
0.0
 10
7.1379062232
 20
6.4927431115
 30
0.0
 10
7.1407475719
 20
6.4895116975
 30
0.0
 10
7.1460107393
 20
6.4856032466
 30
0.0
 10
7.1522258831
 20
6.4829804441
 30
0.0
 10
7.1590292996
 20
6.482047394
 30
0.0
 10
7.1658327449
 20
6.4829804731
 30
0.0
 10
7.1720478924
 20
6.4856033121
 30
0.0
 10
7.1773110019
 20
6.4895117791
 30
0.0
 10
7.1801523006
 20
6.4927431443
 30
0.0
 10
7.1813899297
 20
6.4944452005
 30
0.0
  0
SPLINE
  5
38C
100
AcDbEntity
  8
ALL_ASSEMBLY_MEMBERS
100
AcDbSpline
 62
7
  6
CONTINUOUS
 70
0
 71
3
 72
15
 73
11
 74
0
 42
0.0000001
 43
0.0000001
 44
0.0000000001
 40
0.0
 40
0.0
 40
0.0
 40
0.0
 40
0.1215225874
 40
0.2454454506
 40
0.3718495964
 40
0.5000007332
 40
0.6281523737
 40
0.7545583787
 40
0.8784797457
 40
1.0
 40
1.0
 40
1.0
 40
1.0
 10
7.1366685702
 20
6.5017954927
 30
0.0
 10
7.1379009666
 20
6.5000212671
 30
0.0
 10
7.1407248103
 20
6.4966534326
 30
0.0
 10
7.1459826351
 20
6.4925562105
 30
0.0
 10
7.1522044093
 20
6.4897990036
 30
0.0
 10
7.1590292998
 20
6.4888155558
 30
0.0
 10
7.1658542193
 20
6.4897990342
 30
0.0
 10
7.1720759969
 20
6.4925562796
 30
0.0
 10
7.1773337625
 20
6.4966535173
 30
0.0
 10
7.180157557
 20
6.5000213011
 30
0.0
 10
7.1813899297
 20
6.5017954927
 30
0.0
  0
SPLINE
  5
38D
100
AcDbEntity
  8
ALL_ASSEMBLY_MEMBERS
100
AcDbSpline
 62
7
  6
CONTINUOUS
 70
0
 71
3
 72
23
 73
19
 74
0
 42
0.0000001
 43
0.0000001
 44
0.0000000001
 40
0.0
 40
0.0
 40
0.0
 40
0.0
 40
0.1226540984
 40
0.1846393003
 40
0.2469936806
 40
0.3097614414
 40
0.3729122675
 40
0.4046213488
 40
0.4363973937
 40
0.5000007467
 40
0.5636040951
 40
0.5953803188
 40
0.6270897185
 40
0.6902411702
 40
0.753010142
 40
0.815363901
 40
0.8773482479
 40
1.0
 40
1.0
 40
1.0
 40
1.0
 10
7.1366685702
 20
6.5111433962
 30
0.0
 10
7.137896929
 20
6.5093101165
 30
0.0
 10
7.1400021492
 20
6.5067045524
 30
0.0
 10
7.1433089033
 20
6.5037254212
 30
0.0
 10
7.1460576426
 20
6.5017672838
 30
0.0
 10
7.1490478935
 20
6.5001567497
 30
0.0
 10
7.1517097987
 20
6.4991505242
 30
0.0
 10
7.153915938
 20
6.4985742913
 30
0.0
 10
7.1561658722
 20
6.4981574269
 30
0.0
 10
7.1590292899
 20
6.4979429259
 30
0.0
 10
7.1618927115
 20
6.4981574345
 30
0.0
 10
7.1641426504
 20
6.4985743194
 30
0.0
 10
7.1663488123
 20
6.4991505478
 30
0.0
 10
7.1690107351
 20
6.5001568367
 30
0.0
 10
7.1720010135
 20
6.5017673633
 30
0.0
 10
7.1747497302
 20
6.5037255272
 30
0.0
 10
7.1780564144
 20
6.5067046309
 30
0.0
 10
7.1801615944
 20
6.5093101516
 30
0.0
 10
7.1813899297
 20
6.5111433962
 30
0.0
  0
SPLINE
  5
38E
100
AcDbEntity
  8
ALL_ASSEMBLY_MEMBERS
100
AcDbSpline
 62
7
  6
CONTINUOUS
 70
0
 71
3
 72
23
 73
19
 74
0
 42
0.0000001
 43
0.0000001
 44
0.0000000001
 40
0.0
 40
0.0
 40
0.0
 40
0.0
 40
0.1236718421
 40
0.1859140892
 40
0.2483377051
 40
0.3109848323
 40
0.3738420395
 40
0.4053511947
 40
0.4369002277
 40
0.5000007411
 40
0.563101251
 40
0.5946504633
 40
0.6261599349
 40
0.6890177755
 40
0.751666113
 40
0.8140891185
 40
0.8763305175
 40
1.0
 40
1.0
 40
1.0
 40
1.0
 10
7.1366685702
 20
6.5224136431
 30
0.0
 10
7.1378939696
 20
6.5205347955
 30
0.0
 10
7.1399944929
 20
6.517861247
 30
0.0
 10
7.1433049286
 20
6.5147962102
 30
0.0
 10
7.1460532565
 20
6.5127840831
 30
0.0
 10
7.1490436022
 20
6.5111287066
 30
0.0
 10
7.1517076632
 20
6.5100936153
 30
0.0
 10
7.1539152311
 20
6.5095011718
 30
0.0
 10
7.1561648434
 20
6.5090729029
 30
0.0
 10
7.1590292899
 20
6.5088523129
 30
0.0
 10
7.1618937404
 20
6.5090729107
 30
0.0
 10
7.1641433572
 20
6.5095012007
 30
0.0
 10
7.1663509481
 20
6.5100936396
 30
0.0
 10
7.169015026
 20
6.5111287958
 30
0.0
 10
7.1720053999
 20
6.512784165
 30
0.0
 10
7.1747537047
 20
6.514796319
 30
0.0
 10
7.1780640704
 20
6.5178613274
 30
0.0
 10
7.1801645537
 20
6.5205348314
 30
0.0
 10
7.1813899297
 20
6.5224136431
 30
0.0
  0
SPLINE
  5
38F
100
AcDbEntity
  8
ALL_ASSEMBLY_MEMBERS
100
AcDbSpline
 62
7
  6
CONTINUOUS
 70
0
 71
3
 72
23
 73
19
 74
0
 42
0.0000001
 43
0.0000001
 44
0.0000000001
 40
0.0
 40
0.0
 40
0.0
 40
0.0
 40
0.1243747111
 40
0.1867956205
 40
0.2492682943
 40
0.3118336014
 40
0.3744882231
 40
0.4058589756
 40
0.4372506736
 40
0.5000020278
 40
0.5627526237
 40
0.5941439637
 40
0.6255145601
 40
0.688168687
 40
0.7507342087
 40
0.8132063331
 40
0.8756266789
 40
1.0
 40
1.0
 40
1.0
 40
1.0
 10
7.1366685702
 20
6.5355154869
 30
0.0
 10
7.1378919736
 20
6.5336048999
 30
0.0
 10
7.1399892574
 20
6.5308840577
 30
0.0
 10
7.143302134
 20
6.5277590871
 30
0.0
 10
7.1460501387
 20
6.5257093075
 30
0.0
 10
7.1490405402
 20
6.5240226495
 30
0.0
 10
7.1517061234
 20
6.5229673484
 30
0.0
 10
7.1539147304
 20
6.5223635804
 30
0.0
 10
7.156164145
 20
6.5219273665
 30
0.0
 10
7.1590293471
 20
6.5217025055
 30
0.0
 10
7.1618945465
 20
6.5219273687
 30
0.0
 10
7.1641439271
 20
6.5223636319
 30
0.0
 10
7.16635252
 20
6.5229673811
 30
0.0
 10
7.1690180794
 20
6.5240227236
 30
0.0
 10
7.1720084678
 20
6.5257093702
 30
0.0
 10
7.1747564481
 20
6.5277591569
 30
0.0
 10
7.178069281
 20
6.530884106
 30
0.0
 10
7.18016654
 20
6.5336049212
 30
0.0
 10
7.1813899297
 20
6.5355154869
 30
0.0
  0
SPLINE
  5
390
100
AcDbEntity
  8
ALL_ASSEMBLY_MEMBERS
100
AcDbSpline
 62
7
  6
CONTINUOUS
 70
0
 71
3
 72
15
 73
11
 74
0
 42
0.0000001
 43
0.0000001
 44
0.0000000001
 40
0.0
 40
0.0
 40
0.0
 40
0.0
 40
0.1219025695
 40
0.244079286
 40
0.3666805111
 40
0.4899365339
 40
0.6142052024
 40
0.7400484521
 40
0.8682587891
 40
1.0
 40
1.0
 40
1.0
 40
1.0
 10
7.6987454948
 20
6.4332885026
 30
0.0
 10
7.6986336015
 20
6.4318386844
 30
0.0
 10
7.6983748349
 20
6.4289383069
 30
0.0
 10
7.6978645013
 20
6.4245935184
 30
0.0
 10
7.6972039594
 20
6.4202523214
 30
0.0
 10
7.6963612489
 20
6.4159169126
 30
0.0
 10
7.6952965879
 20
6.4115900178
 30
0.0
 10
7.693956461
 20
6.4072773852
 30
0.0
 10
7.6922829114
 20
6.4029857514
 30
0.0
 10
7.6909036569
 20
6.4002022214
 30
0.0
 10
7.6901369045
 20
6.3988304798
 30
0.0
  0
SPLINE
  5
391
100
AcDbEntity
  8
ALL_ASSEMBLY_MEMBERS
100
AcDbSpline
 62
7
  6
CONTINUOUS
 70
0
 71
3
 72
28
 73
24
 74
0
 42
0.0000001
 43
0.0000001
 44
0.0000000001
 40
0.0
 40
0.0
 40
0.0
 40
0.0
 40
0.0312485544
 40
0.062497332
 40
0.0937462207
 40
0.1249951327
 40
0.1874898706
 40
0.2499858087
 40
0.3124822898
 40
0.374978981
 40
0.4374757534
 40
0.4999725203
 40
0.5624693172
 40
0.6249662688
 40
0.6874633389
 40
0.7187125375
 40
0.7499630771
 40
0.8124618511
 40
0.8749598973
 40
0.9062163211
 40
0.9374850304
 40
0.9687497616
 40
1.0
 40
1.0
 40
1.0
 40
1.0
 10
7.6908181722
 20
6.8540854856
 30
0.0
 10
7.6913742708
 20
6.8519461594
 30
0.0
 10
7.6923921393
 20
6.847642581
 30
0.0
 10
7.693680824
 20
6.841136554
 30
0.0
 10
7.6947682982
 20
6.8345940636
 30
0.0
 10
7.6959894318
 20
6.8258364366
 30
0.0
 10
7.6971510014
 20
6.8148426706
 30
0.0
 10
7.698115068
 20
6.8016139891
 30
0.0
 10
7.6987593312
 20
6.7883662876
 30
0.0
 10
7.6991629924
 20
6.7751094652
 30
0.0
 10
7.6993793482
 20
6.7618484209
 30
0.0
 10
7.699438709
 20
6.7485858198
 30
0.0
 10
7.6993497522
 20
6.735323352
 30
0.0
 10
7.6990996499
 20
6.7220628686
 30
0.0
 10
7.6987286759
 20
6.7110163633
 30
0.0
 10
7.6983035349
 20
6.702184565
 30
0.0
 10
7.697781292
 20
6.693357851
 30
0.0
 10
7.696914374
 20
6.6823379877
 30
0.0
 10
7.6956706299
 20
6.6713518243
 30
0.0
 10
7.6943614658
 20
6.6626046323
 30
0.0
 10
7.693200716
 20
6.6560715293
 30
0.0
 10
7.6918229389
 20
6.6495808361
 30
0.0
 10
7.6907319084
 20
6.6452937044
 30
0.0
 10
7.6901369045
 20
6.643164747
 30
0.0
  0
SPLINE
  5
392
100
AcDbEntity
  8
ALL_ASSEMBLY_MEMBERS
100
AcDbSpline
 62
7
  6
CONTINUOUS
 70
0
 71
3
 72
23
 73
19
 74
0
 42
0.0000001
 43
0.0000001
 44
0.0000000001
 40
0.0
 40
0.0
 40
0.0
 40
0.0
 40
0.0616799841
 40
0.1233211315
 40
0.1849412082
 40
0.2465530872
 40
0.3081675238
 40
0.369796019
 40
0.4314531789
 40
0.4931606798
 40
0.5549521978
 40
0.6168801225
 40
0.6790198364
 40
0.7414878648
 40
0.8044668643
 40
0.8682439411
 40
0.9332225864
 40
1.0
 40
1.0
 40
1.0
 40
1.0
 10
7.6989158235
 20
7.0640841681
 30
0.0
 10
7.6990104412
 20
7.0626230429
 30
0.0
 10
7.6991677389
 20
7.0596995882
 30
0.0
 10
7.6993233977
 20
7.0553119359
 30
0.0
 10
7.6994065115
 20
7.0509239449
 30
0.0
 10
7.6994239789
 20
7.0465358566
 30
0.0
 10
7.6993750714
 20
7.042147801
 30
0.0
 10
7.6992586743
 20
7.0377599137
 30
0.0
 10
7.6990654915
 20
7.0333724741
 30
0.0
 10
7.6987862423
 20
7.0289856998
 30
0.0
 10
7.6984024856
 20
7.0246002386
 30
0.0
 10
7.6978957263
 20
7.0202167394
 30
0.0
 10
7.6972371963
 20
7.015836882
 30
0.0
 10
7.6963954259
 20
7.0114626476
 30
0.0
 10
7.6953287636
 20
7.0070969642
 30
0.0
 10
7.6939838246
 20
7.0027453434
 30
0.0
 10
7.6923005371
 20
6.9984148372
 30
0.0
 10
7.6909103411
 20
6.9956066446
 30
0.0
 10
7.6901369045
 20
6.9942229449
 30
0.0
  0
SPLINE
  5
393
100
AcDbEntity
  8
ALL_ASSEMBLY_MEMBERS
100
AcDbSpline
 62
7
  6
CONTINUOUS
 70
0
 71
3
 72
9
 73
5
 74
0
 42
0.0000001
 43
0.0000001
 44
0.0000000001
 40
0.0
 40
0.0
 40
0.0
 40
0.0
 40
0.7021316059
 40
1.0
 40
1.0
 40
1.0
 40
1.0
 10
7.43102925
 20
2.7824787517
 30
0.0
 10
7.44268832
 20
2.779088018
 30
0.0
 10
7.4594094756
 20
2.7746483026
 30
0.0
 10
7.4762528924
 20
2.77072371
 30
0.0
 10
7.48127925
 20
2.7695989121
 30
0.0
  0
SPLINE
  5
394
100
AcDbEntity
  8
ALL_ASSEMBLY_MEMBERS
100
AcDbSpline
 62
7
  6
CONTINUOUS
 70
0
 71
3
 72
10
 73
6
 74
0
 42
0.0000001
 43
0.0000001
 44
0.0000000001
 40
0.0
 40
0.0
 40
0.0
 40
0.0
 40
0.3036474408
 40
0.6263804236
 40
1.0
 40
1.0
 40
1.0
 40
1.0
 10
7.38077925
 20
2.7991044786
 30
0.0
 10
7.3857971747
 20
2.7972241008
 30
0.0
 10
7.3961969724
 20
2.7934764208
 30
0.0
 10
7.412942213
 20
2.7879028433
 30
0.0
 10
7.4246983876
 20
2.7843199164
 30
0.0
 10
7.43102925
 20
2.7824787517
 30
0.0
  0
ENDSEC
  0
SECTION
  2
OBJECTS
  0
DICTIONARY
  5
C
100
AcDbDictionary
280
0
281
1
  3
ACAD_GROUP
350
D
  3
ACAD_MLINESTYLE
350
17
  3
ACAD_LAYOUT
350
1A
  3
ACAD_PLOTSETTINGS
350
19
  3
ACAD_PLOTSTYLENAME
350
E
  0
DICTIONARY
  5
D
102
{ACAD_REACTORS
330
C
102
}
100
AcDbDictionary
280
0
281
1
  0
ACDBDICTIONARYWDFLT
  5
E
102
{ACAD_REACTORS
330
C
102
}
100
AcDbDictionary
281
1
  3
Normal
350
F
100
AcDbDictionaryWithDefault
340
F
  0
DICTIONARY
  5
17
102
{ACAD_REACTORS
330
C
102
}
100
AcDbDictionary
280
0
281
1
  3
Standard
350
18
  0
DICTIONARY
  5
19
102
{ACAD_REACTORS
330
C
102
}
100
AcDbDictionary
281
1
  0
DICTIONARY
  5
1A
102
{ACAD_REACTORS
330
C
102
}
100
AcDbDictionary
281
1
  3
Model
350
395
  3
Layout1
350
396
  0
ACDBPLACEHOLDER
  5
F
102
{ACAD_REACTORS
330
E
102
}
  0
MLINESTYLE
  5
18
102
{ACAD_REACTORS
330
17
102
}
100
AcDbMlineStyle
  2
STANDARD
 70
0
  3

 62
256
 51
90.0
 52
90.0
 71
2
 49
0.5
 62
256
  6
BYLAYER
 49
-0.5
 62
256
  6
BYLAYER
  0
LAYOUT
  5
395
102
{ACAD_REACTORS
330
1A
102
}
100
AcDbPlotSettings
  1

  2
none_device
  4
ANSI_A_(11.00_x_8.50_Inches)
  6

 40
0.0
 41
0.0
 42
0.0
 43
0.0
 44
279.4
 45
215.9
 46
0.0
 47
0.0
 48
0.0
 49
0.0
140
0.0
141
0.0
142
1.0
143
1.0
 70
1024
 72
0
 73
0
 74
0
  7

 75
0
147
1.0
148
0.0
149
0.0
100
AcDbLayout
  1
Model
 70
0
 71
0
 10
0.0
 20
0.0
 11
11.0
 21
8.5
 12
0.0
 22
0.0
 32
0.0
 14
0.0
 24
0.0
 34
0.0
 15
0.0
 25
0.0
 35
0.0
146
0.0
 13
0.0
 23
0.0
 33
0.0
 16
1.0
 26
0.0
 36
0.0
 17
0.0
 27
1.0
 37
0.0
 76
0
330
21A
345
0
346
0
  0
LAYOUT
  5
396
102
{ACAD_REACTORS
330
1A
102
}
100
AcDbPlotSettings
  1

  2
none_device
  4
ANSI_A_(11.00_x_8.50_Inches)
  6

 40
0.0
 41
0.0
 42
0.0
 43
0.0
 44
279.4
 45
215.9
 46
0.0
 47
0.0
 48
0.0
 49
0.0
140
0.0
141
0.0
142
1.0
143
1.0
 70
0
 72
0
 73
0
 74
0
  7

 75
0
147
1.0
148
0.0
149
0.0
100
AcDbLayout
  1
Layout1
 70
0
 71
1
 10
0.0
 20
0.0
 11
11.0
 21
8.5
 12
0.0
 22
0.0
 32
0.0
 14
0.0
 24
0.0
 34
0.0
 15
0.0
 25
0.0
 35
0.0
146
0.0
 13
0.0
 23
0.0
 33
0.0
 16
1.0
 26
0.0
 36
0.0
 17
0.0
 27
1.0
 37
0.0
 76
0
330
21B
345
0
346
0
  0
ENDSEC
  0
EOF
