999
DXF file: E:\BT Custom\CADOUTPUT\_RIGHT.dxf
999
Pro/ENGINEER 2018400 by Parametric Technology Corporation
  0
SECTION
  2
HEADER
  9
$ACADVER
  1
AC1018
  9
$DWGCODEPAGE
  3
ANSI_1252
  9
$EXTMAX
 10
22.0
 20
17.0
 30
0.0
  9
$EXTMIN
 10
0.0
 20
0.0
 30
0.0
  9
$LIMMIN
 10
0.0
 20
0.0
  9
$LIMMAX
 10
22.0
 20
17.0
  9
$VIEWCTR
 10
11.0
 20
8.5
  9
$VIEWSIZE
 40
17.0
  9
$CLAYER
  8
0
  9
$LTSCALE
 40
1.21
  9
$CELTYPE
  6
BYLAYER
  9
$DIMSCALE
 40
1.0
  9
$DIMASZ
 40
0.1
  9
$DIMEXO
 40
0.0625
  9
$DIMDLI
 40
0.836
  9
$DIMEXE
 40
0.125
  9
$DIMCEN
 40
0.198
  9
$DIMLFAC
 40
1.0
  9
$DIMBLK
  1
_FILLED
  9
$DIMALT
 70
1
  9
$DIMALTD
 70
2
  9
$DIMALTTD
 70
2
  9
$DIMALTF
 40
25.4
  9
$DIMTXT
 40
0.08
  9
$DIMTOL
 70
1
  9
$DIMLIM
 70
0
  9
$DIMTFAC
 40
1.0
  9
$DIMTP
 40
0.001
  9
$DIMTM
 40
0.001
  9
$DIMGAP
 40
0.09
  9
$DIMDSEP
 70
46
  9
$AUNITS
 70
0
  9
$PDMODE
 70
3
  9
$PDSIZE
 40
0.06
  9
$HANDSEED
  5
4E0
  9
$TILEMODE
 70
1
  9
$MEASUREMENT
 70
0
  9
$INSUNITS
 70
1
  0
ENDSEC
  0
SECTION
  2
CLASSES
  0
CLASS
  1
ACDBDICTIONARYWDFLT
  2
AcDbDictionaryWithDefault
  3
AutoCAD 2000
 90
0
 91
1
280
0
281
0
  0
CLASS
  1
ACDBPLACEHOLDER
  2
AcDbPlaceHolder
  3
AutoCAD 2000
 90
0
 91
1
280
0
281
0
  0
CLASS
  1
LAYOUT
  2
AcDbLayout
  3
AutoCAD 2000
 90
0
 91
0
280
0
281
0
  0
ENDSEC
  0
SECTION
  2
TABLES
  0
TABLE
  2
VPORT
  5
8
100
AcDbSymbolTable
 70
2
  0
VPORT
  5
1F4
100
AcDbSymbolTableRecord
100
AcDbViewportTableRecord
  2
*ACTIVE
 70
0
 10
0.0
 20
0.0
 11
1.0
 21
1.0
 12
11.0
 22
8.5
 13
0.0
 23
0.0
 14
1.0
 24
1.0
 15
0.0
 25
0.0
 16
0.0
 26
0.0
 36
1.0
 17
0.0
 27
0.0
 37
0.0
 40
17.0
 41
1.2941176471
 42
50.0
 43
0.0
 44
0.0
 50
0.0
 51
0.0
 71
0
 72
100
 73
1
 74
1
 75
0
 76
0
 77
0
 78
0
  0
ENDTAB
  0
TABLE
  2
LTYPE
  5
5
100
AcDbSymbolTable
 70
6
  0
LTYPE
  5
14
100
AcDbSymbolTableRecord
100
AcDbLinetypeTableRecord
  2
BYBLOCK
 70
0
  3

 72
65
 73
0
 40
0.0
  0
LTYPE
  5
15
100
AcDbSymbolTableRecord
100
AcDbLinetypeTableRecord
  2
BYLAYER
 70
0
  3

 72
65
 73
0
 40
0.0
  0
LTYPE
  5
16
100
AcDbSymbolTableRecord
100
AcDbLinetypeTableRecord
  2
CONTINUOUS
 70
64
  3
Solid line
 72
65
 73
0
 40
0.0
  0
LTYPE
  5
1F5
100
AcDbSymbolTableRecord
100
AcDbLinetypeTableRecord
  2
CENTER
 70
64
  3
____ _ ____ _ ____ _ ____ _ ____ _ ____ _ ____
 72
65
 73
4
 40
0.6
 49
0.375
 74
0
 49
-0.075
 74
0
 49
0.075
 74
0
 49
-0.075
 74
0
  0
LTYPE
  5
1F6
100
AcDbSymbolTableRecord
100
AcDbLinetypeTableRecord
  2
HIDDEN
 70
64
  3
- - - - - - - - - - - - - - - - - - - -
 72
65
 73
2
 40
0.2
 49
0.1
 74
0
 49
-0.1
 74
0
  0
LTYPE
  5
1F7
100
AcDbSymbolTableRecord
100
AcDbLinetypeTableRecord
  2
PHANTOM
 70
64
  3
_____ _ _ _____ _ _ _____ _ _ _____
 72
65
 73
6
 40
0.8
 49
0.45
 74
0
 49
-0.05
 74
0
 49
0.1
 74
0
 49
-0.05
 74
0
 49
0.1
 74
0
 49
-0.05
 74
0
  0
LTYPE
  5
1F8
100
AcDbSymbolTableRecord
100
AcDbLinetypeTableRecord
  2
DOT
 70
64
  3
. . . . . . . . . . . . . . . . . . . .
 72
65
 73
2
 40
0.2
 49
0.1
 74
0
 49
-0.1
 74
0
  0
LTYPE
  5
1F9
100
AcDbSymbolTableRecord
100
AcDbLinetypeTableRecord
  2
DASHED
 70
64
  3
- - - - - - - - - - - - - - - - - - - -
 72
65
 73
2
 40
0.2
 49
0.1
 74
0
 49
-0.1
 74
0
  0
ENDTAB
  0
TABLE
  2
LAYER
  5
2
100
AcDbSymbolTable
 70
36
  0
LAYER
  5
10
100
AcDbSymbolTableRecord
100
AcDbLayerTableRecord
  2
0
 70
0
 62
7
  6
CONTINUOUS
370
-3
390
F
  0
LAYER
  5
1FA
100
AcDbSymbolTableRecord
100
AcDbLayerTableRecord
  2
DEFAULT_1
 70
0
 62
7
  6
CENTER
370
-3
390
F
  0
LAYER
  5
1FB
100
AcDbSymbolTableRecord
100
AcDbLayerTableRecord
  2
DEFAULT_2
 70
0
 62
8
  6
HIDDEN
370
-3
390
F
  0
LAYER
  5
1FC
100
AcDbSymbolTableRecord
100
AcDbLayerTableRecord
  2
DEFAULT_3
 70
0
 62
7
  6
PHANTOM
370
-3
390
F
  0
LAYER
  5
1FD
100
AcDbSymbolTableRecord
100
AcDbLayerTableRecord
  2
ALL_FEATURES
 70
0
 62
7
  6
CONTINUOUS
370
-3
390
F
  0
LAYER
  5
1FE
100
AcDbSymbolTableRecord
100
AcDbLayerTableRecord
  2
AXES_FEATURES
 70
0
 62
7
  6
CONTINUOUS
370
-3
390
F
  0
LAYER
  5
1FF
100
AcDbSymbolTableRecord
100
AcDbLayerTableRecord
  2
DIMENSIONS
 70
0
 62
7
  6
CONTINUOUS
370
-3
390
F
  0
ENDTAB
  0
TABLE
  2
STYLE
  5
3
100
AcDbSymbolTable
 70
1
  0
STYLE
  5
11
100
AcDbSymbolTableRecord
100
AcDbTextStyleTableRecord
  2
STANDARD
 70
0
 40
0.0
 41
0.8
 50
0.0
 71
0
 42
0.2
  3
txt
  4

  0
STYLE
  5
200
100
AcDbSymbolTableRecord
100
AcDbTextStyleTableRecord
  2
TEXTSTYLE_1
 70
0
 40
0.0
 41
0.8
 50
0.0
 71
0
 42
0.2
  3
gdt
  4

  0
ENDTAB
  0
TABLE
  2
VIEW
  5
6
100
AcDbSymbolTable
 70
0
  0
ENDTAB
  0
TABLE
  2
UCS
  5
7
100
AcDbSymbolTable
 70
0
  0
ENDTAB
  0
TABLE
  2
APPID
  5
9
100
AcDbSymbolTable
 70
1
  0
APPID
  5
201
100
AcDbSymbolTableRecord
100
AcDbRegAppTableRecord
  2
ACAD
 70
0
  0
ENDTAB
  0
TABLE
  2
BLOCK_RECORD
  5
1
100
AcDbSymbolTable
 70
0
  0
BLOCK_RECORD
  5
202
100
AcDbSymbolTableRecord
100
AcDbBlockTableRecord
  2
*Model_Space
  0
BLOCK_RECORD
  5
203
100
AcDbSymbolTableRecord
100
AcDbBlockTableRecord
  2
*Paper_Space
  0
BLOCK_RECORD
  5
204
100
AcDbSymbolTableRecord
100
AcDbBlockTableRecord
  2
_FILLED
  0
ENDTAB
  0
TABLE
  2
DIMSTYLE
  5
A
100
AcDbSymbolTable
 70
1
100
AcDbDimStyleTable
 71
0
  0
DIMSTYLE
105
205
100
AcDbSymbolTableRecord
100
AcDbDimStyleTableRecord
  2
STANDARD
 70
0
  3

  4

 40
1.0
 41
0.1
 42
0.0625
 43
0.38
 44
0.125
 45
0.0
 46
0.0
 47
0.001
 48
0.001
140
0.08
141
0.09
142
0.0
143
25.4
144
1.0
145
0.0
146
1.0
147
0.09
 71
1.0
 72
0.0
 73
1
 74
1
 75
0
 76
0
 77
0
 78
4
 79
1
170
1
171
2
172
0
173
0
174
0
175
0
176
0
177
0
178
0
270
2
179
3
271
3
272
3
273
2
274
2
275
0
280
0
281
0
282
0
283
1
284
4
285
0
286
0
287
3
288
0
340
11
278
46
341
204
342
204
343
204
344
204
  0
ENDTAB
  0
ENDSEC
  0
SECTION
  2
BLOCKS
  0
BLOCK
  5
20
100
AcDbEntity
  8
0
100
AcDbBlockBegin
  2
*Model_Space
 70
0
 10
0.0
 20
0.0
 30
0.0
  3
*Model_Space
  1

  0
ENDBLK
  5
21
100
AcDbEntity
  8
0
100
AcDbBlockEnd
  0
BLOCK
  5
1C
100
AcDbEntity
  8
0
100
AcDbBlockBegin
  2
*Paper_Space
 70
0
 10
0.0
 20
0.0
 30
0.0
  3
*Paper_Space
  1

  0
ENDBLK
  5
1D
100
AcDbEntity
  8
0
100
AcDbBlockEnd
  0
BLOCK
  5
206
100
AcDbEntity
  8
0
100
AcDbBlockBegin
  2
_FILLED
 70
64
 10
0.0
 20
0.0
  3
_FILLED
  1

  0
SOLID
  5
207
100
AcDbEntity
  8
0
  6
BYBLOCK
 62
0
100
AcDbTrace
 10
0.0
 20
0.0
 11
-1.0
 21
0.2
 12
-1.0
 22
-0.2
 13
-1.0
 23
-0.2
  0
ENDBLK
  5
208
100
AcDbEntity
  8
0
  6
BYBLOCK
 62
0
100
AcDbBlockEnd
  0
ENDSEC
  0
SECTION
  2
ENTITIES
  0
LINE
  5
209
100
AcDbEntity
  8
0
100
AcDbLine
 62
7
  6
CONTINUOUS
 10
8.3604740534
 20
7.5106349783
 11
8.370759369
 21
7.4983531813
  0
LINE
  5
20A
100
AcDbEntity
  8
0
100
AcDbLine
 62
7
  6
CONTINUOUS
 10
8.3741404991
 20
7.4984443215
 11
8.3639856837
 21
7.510764585
  0
LINE
  5
20B
100
AcDbEntity
  8
0
100
AcDbLine
 62
7
  6
CONTINUOUS
 10
8.3777066839
 20
7.5106318452
 11
8.3878291893
 21
7.4983507817
  0
LINE
  5
20C
100
AcDbEntity
  8
0
100
AcDbLine
 62
7
  6
CONTINUOUS
 10
8.3953190422
 20
7.4984589004
 11
8.3854804943
 21
7.5107874262
  0
LINE
  5
20D
100
AcDbEntity
  8
0
100
AcDbLine
 62
7
  6
CONTINUOUS
 10
8.414895247
 20
7.5106349783
 11
8.424696504
 21
7.4983531813
  0
LINE
  5
20E
100
AcDbEntity
  8
0
100
AcDbLine
 62
7
  6
CONTINUOUS
 10
8.4433713831
 20
7.4984443215
 11
8.4340173456
 21
7.510764585
  0
LINE
  5
20F
100
AcDbEntity
  8
0
100
AcDbLine
 62
9
  6
CONTINUOUS
 10
8.4594516137
 20
7.5857154146
 11
8.4579522408
 21
7.5875058306
  0
LINE
  5
210
100
AcDbEntity
  8
0
100
AcDbLine
 62
7
  6
CONTINUOUS
 10
8.5006417698
 20
7.59653437
 11
8.4996790766
 21
7.5976839202
  0
LINE
  5
211
100
AcDbEntity
  8
0
100
AcDbLine
 62
9
  6
CONTINUOUS
 10
8.4866936802
 20
7.5851688914
 11
8.484834666
 21
7.5874243283
  0
LINE
  5
212
100
AcDbEntity
  8
0
100
AcDbLine
 62
7
  6
CONTINUOUS
 10
8.5325692638
 20
7.5961316634
 11
8.531288467
 21
7.5976855449
  0
LINE
  5
213
100
AcDbEntity
  8
0
100
AcDbLine
 62
9
  6
CONTINUOUS
 10
8.5340129299
 20
7.5820982989
 11
8.5296975511
 21
7.5875058306
  0
LINE
  5
214
100
AcDbEntity
  8
0
100
AcDbLine
 62
7
  6
CONTINUOUS
 10
8.5810168577
 20
7.5952678553
 11
8.5790887061
 21
7.5976839202
  0
LINE
  5
215
100
AcDbEntity
  8
0
100
AcDbLine
 62
7
  6
CONTINUOUS
 10
8.4760245682
 20
7.5106318452
 11
8.4853488434
 21
7.4983507817
  0
LINE
  5
216
100
AcDbEntity
  8
0
100
AcDbLine
 62
9
  6
CONTINUOUS
 10
8.6000603455
 20
7.583364546
 11
8.5969779963
 21
7.5874243283
  0
LINE
  5
217
100
AcDbEntity
  8
0
100
AcDbLine
 62
7
  6
CONTINUOUS
 10
8.502985236
 20
7.4984589004
 11
8.4942507806
 21
7.5107874262
  0
LINE
  5
218
100
AcDbEntity
  8
0
100
AcDbLine
 62
7
  6
CONTINUOUS
 10
8.5530505806
 20
7.5106349783
 11
8.5617519299
 21
7.4983531813
  0
LINE
  5
219
100
AcDbEntity
  8
0
100
AcDbLine
 62
7
  6
CONTINUOUS
 10
8.5945471466
 20
7.4984443215
 11
8.5865816357
 21
7.510764585
  0
LINE
  5
21A
100
AcDbEntity
  8
0
100
AcDbLine
 62
7
  6
CONTINUOUS
 10
8.6542356123
 20
7.5106318452
 11
8.6621757789
 21
7.4983507817
  0
LINE
  5
21B
100
AcDbEntity
  8
0
100
AcDbLine
 62
7
  6
CONTINUOUS
 10
8.3598123735
 20
7.5106737256
 11
8.3598125844
 21
7.5106714751
  0
LINE
  5
21C
100
AcDbEntity
  8
0
100
AcDbLine
 62
7
  6
CONTINUOUS
 10
8.6515113091
 20
7.5952992179
 11
8.6496994255
 21
7.5976855449
  0
LINE
  5
21D
100
AcDbEntity
  8
0
100
AcDbLine
 62
7
  6
CONTINUOUS
 10
8.7345883234
 20
7.5939116126
 11
8.7319155966
 21
7.5976839202
  0
LINE
  5
21E
100
AcDbEntity
  8
0
100
AcDbLine
 62
9
  6
CONTINUOUS
 10
8.6843273582
 20
7.578523431
 11
8.6779635503
 21
7.5875058306
  0
LINE
  5
21F
100
AcDbEntity
  8
0
100
AcDbLine
 62
9
  6
CONTINUOUS
 10
8.7851586285
 20
7.5816333393
 11
8.7814145377
 21
7.5874243283
  0
LINE
  5
220
100
AcDbEntity
  8
0
100
AcDbLine
 62
7
  6
CONTINUOUS
 10
8.8390211561
 20
7.5947002789
 11
8.8370909139
 21
7.5976855449
  0
LINE
  5
221
100
AcDbEntity
  8
0
100
AcDbLine
 62
7
  6
CONTINUOUS
 10
8.6888505517
 20
7.4984589004
 11
8.6817690067
 21
7.5107874262
  0
LINE
  5
222
100
AcDbEntity
  8
0
100
AcDbLine
 62
7
  6
CONTINUOUS
 10
8.7662592465
 20
7.5106349783
 11
8.7733139504
 21
7.4983531813
  0
LINE
  5
223
100
AcDbEntity
  8
0
100
AcDbLine
 62
7
  6
CONTINUOUS
 10
8.8181688606
 20
7.4984443215
 11
8.8120923786
 21
7.510764585
  0
LINE
  5
224
100
AcDbEntity
  8
0
100
AcDbLine
 62
7
  6
CONTINUOUS
 10
8.5725267748
 20
7.6132402901
 11
8.5725267748
 21
7.599891804
  0
LINE
  5
225
100
AcDbEntity
  8
0
100
AcDbLine
 62
9
  6
CONTINUOUS
 10
8.9005004374
 20
7.575203851
 11
8.8934341406
 21
7.5875058306
  0
LINE
  5
226
100
AcDbEntity
  8
0
100
AcDbLine
 62
7
  6
CONTINUOUS
 10
8.9514328842
 20
7.5926777361
 11
8.9485570729
 21
7.5976839198
  0
LINE
  5
227
100
AcDbEntity
  8
0
100
AcDbLine
 62
7
  6
CONTINUOUS
 10
8.901142161
 20
7.5106318452
 11
8.9071993091
 21
7.4983507817
  0
LINE
  5
228
100
AcDbEntity
  8
0
100
AcDbLine
 62
9
  6
CONTINUOUS
 10
9.0304856854
 20
7.5794556776
 11
9.0265554641
 21
7.5874243283
  0
LINE
  5
229
100
AcDbEntity
  8
0
100
AcDbLine
 62
7
  6
CONTINUOUS
 10
8.9412363881
 20
7.4984589004
 11
8.9362527131
 21
7.5107874262
  0
LINE
  5
22A
100
AcDbEntity
  8
0
100
AcDbLine
 62
7
  6
CONTINUOUS
 10
9.0835796757
 20
7.5938514945
 11
9.0816884359
 21
7.5976855443
  0
LINE
  5
22B
100
AcDbEntity
  8
0
100
AcDbLine
 62
7
  6
CONTINUOUS
 10
9.04112456
 20
7.5106349783
 11
9.0460893454
 21
7.4983531813
  0
LINE
  5
22C
100
AcDbEntity
  8
0
100
AcDbLine
 62
9
  6
CONTINUOUS
 10
9.1675434562
 20
7.575203851
 11
9.1625705122
 21
7.5875058306
  0
LINE
  5
22D
100
AcDbEntity
  8
0
100
AcDbLine
 62
7
  6
CONTINUOUS
 10
9.1001855502
 20
7.4984443215
 11
9.0963799049
 21
7.510764585
  0
LINE
  5
22E
100
AcDbEntity
  8
0
100
AcDbLine
 62
7
  6
CONTINUOUS
 10
9.2865313836
 20
10.4935799851
 11
9.2759426837
 21
10.4528010486
  0
LWPOLYLINE
  5
22F
100
AcDbEntity
  8
0
100
AcDbPolyline
 62
7
  6
CONTINUOUS
 90
5
 70
0
 10
9.2847580772
 20
10.1661783325
 10
9.2785210756
 20
10.1580575844
 10
9.2753789382
 20
10.1483157767
 10
9.2756954253
 20
10.138081992
 10
9.2759430396
 20
10.1369809464
  0
LINE
  5
230
100
AcDbEntity
  8
0
100
AcDbLine
 62
7
  6
CONTINUOUS
 10
9.4059243612
 20
10.4041844237
 11
9.4083752727
 21
10.4073631626
  0
LINE
  5
231
100
AcDbEntity
  8
0
100
AcDbLine
 62
7
  6
CONTINUOUS
 10
9.2861600552
 20
10.1673918036
 11
9.2847580772
 21
10.1661783325
  0
LWPOLYLINE
  5
232
100
AcDbEntity
  8
0
100
AcDbPolyline
 62
7
  6
CONTINUOUS
 90
4
 70
0
 10
9.5268900037
 20
10.6337736503
 10
9.5105534961
 20
10.6286688567
 10
9.495211055
 20
10.6217932194
 10
9.4924950428
 20
10.619891804
  0
LINE
  5
233
100
AcDbEntity
  8
0
100
AcDbLine
 62
7
  6
CONTINUOUS
 10
9.2181548961
 20
7.5908717314
 11
9.2154007536
 21
7.5976839198
  0
LINE
  5
234
100
AcDbEntity
  8
0
100
AcDbLine
 62
7
  6
CONTINUOUS
 10
9.2012301677
 20
7.5106318452
 11
9.2050237044
 21
7.4983507817
  0
LINE
  5
235
100
AcDbEntity
  8
0
100
AcDbLine
 62
9
  6
CONTINUOUS
 10
9.3207960864
 20
7.5751274659
 11
9.3169976695
 21
7.5874243283
  0
LINE
  5
236
100
AcDbEntity
  8
0
100
AcDbLine
 62
7
  6
CONTINUOUS
 10
9.2442844148
 20
7.4984589004
 11
9.2417117523
 21
7.5107874262
  0
LWPOLYLINE
  5
237
100
AcDbEntity
  8
0
100
AcDbPolyline
 62
7
  6
CONTINUOUS
 90
6
 70
0
 10
9.2759425462
 20
10.4528004454
 10
9.2755648388
 20
10.4510257421
 10
9.2754846989
 20
10.4407785167
 10
9.2788563974
 20
10.4311052065
 10
9.2852882305
 20
10.4231284696
 10
9.2861600552
 20
10.4223918049
  0
LINE
  5
238
100
AcDbEntity
  8
0
100
AcDbLine
 62
7
  6
CONTINUOUS
 10
9.4475267748
 20
10.5425601211
 11
9.4467527308
 21
10.5401393003
  0
LINE
  5
239
100
AcDbEntity
  8
0
100
AcDbLine
 62
7
  6
CONTINUOUS
 10
8.3250267753
 20
7.309891804
 11
11.1700267742
 21
7.309891804
  0
LINE
  5
23A
100
AcDbEntity
  8
0
100
AcDbLine
 62
7
  6
CONTINUOUS
 10
9.3696463166
 20
7.5927552594
 11
9.3681230293
 21
7.5976855443
  0
LINE
  5
23B
100
AcDbEntity
  8
0
100
AcDbLine
 62
7
  6
CONTINUOUS
 10
9.3603757226
 20
7.5106349783
 11
9.3629386339
 21
7.4983531813
  0
LINE
  5
23C
100
AcDbEntity
  8
0
100
AcDbLine
 62
7
  6
CONTINUOUS
 10
9.4228770697
 20
7.4984443215
 11
9.4215813837
 21
7.510764585
  0
LINE
  5
23D
100
AcDbEntity
  8
0
100
AcDbLine
 62
7
  6
CONTINUOUS
 10
9.2861600552
 20
10.4223918049
 11
9.2861600552
 21
10.4191042969
  0
LINE
  5
23E
100
AcDbEntity
  8
0
100
AcDbLine
 62
7
  6
CONTINUOUS
 10
9.2861600552
 20
10.1717271615
 11
9.2861600552
 21
10.1673918036
  0
LINE
  5
23F
100
AcDbEntity
  8
0
100
AcDbLine
 62
9
  6
CONTINUOUS
 10
9.3205429692
 20
10.42239183
 11
9.3205429692
 21
10.4095513766
  0
LINE
  5
240
100
AcDbEntity
  8
0
100
AcDbLine
 62
9
  6
CONTINUOUS
 10
9.3205429693
 20
10.1749489966
 11
9.3205429693
 21
10.1673918276
  0
LINE
  5
241
100
AcDbEntity
  8
0
100
AcDbLine
 62
7
  6
CONTINUOUS
 10
9.3844166481
 20
9.3694742603
 11
9.3825267748
 21
9.3501247631
  0
LINE
  5
242
100
AcDbEntity
  8
0
100
AcDbLine
 62
7
  6
CONTINUOUS
 10
9.4148673905
 20
9.5238723912
 11
9.3844166481
 21
9.3694742603
  0
LINE
  5
243
100
AcDbEntity
  8
0
100
AcDbLine
 62
7
  6
CONTINUOUS
 10
9.4436109642
 20
9.8336008463
 11
9.3818825683
 21
9.69143848
  0
LINE
  5
244
100
AcDbEntity
  8
0
100
AcDbLine
 62
7
  6
CONTINUOUS
 10
8.3701055249
 20
7.4983815439
 11
8.3650267748
 21
7.4888105626
  0
LINE
  5
245
100
AcDbEntity
  8
0
100
AcDbLine
 62
7
  6
CONTINUOUS
 10
10.9442896067
 20
7.597671796
 11
10.93913284
 21
7.5969059145
  0
LINE
  5
246
100
AcDbEntity
  8
0
100
AcDbLine
 62
7
  6
CONTINUOUS
 10
10.9835888298
 20
7.597671796
 11
10.9822157007
 21
7.5974929157
  0
LINE
  5
247
100
AcDbEntity
  8
0
100
AcDbLine
 62
7
  6
CONTINUOUS
 10
11.0033946158
 20
7.597671796
 11
11.0032055413
 21
7.5976627125
  0
LINE
  5
248
100
AcDbEntity
  8
0
100
AcDbLine
 62
7
  6
CONTINUOUS
 10
8.3508822278
 20
7.474891804
 11
11.1441713217
 21
7.474891804
  0
LINE
  5
249
100
AcDbEntity
  8
0
100
AcDbLine
 62
9
  6
CONTINUOUS
 10
8.3650267748
 20
7.4888105626
 11
11.1300267748
 21
7.4888105626
  0
LINE
  5
24A
100
AcDbEntity
  8
0
100
AcDbLine
 62
9
  6
CONTINUOUS
 10
10.8667533779
 20
7.584891804
 11
10.8646296922
 21
7.584891804
  0
LINE
  5
24B
100
AcDbEntity
  8
0
100
AcDbLine
 62
9
  6
CONTINUOUS
 10
10.7838579765
 20
7.584891804
 11
10.7769410045
 21
7.584891804
  0
LINE
  5
24C
100
AcDbEntity
  8
0
100
AcDbLine
 62
9
  6
CONTINUOUS
 10
10.6898553931
 20
7.584891804
 11
10.6662950561
 21
7.584891804
  0
LINE
  5
24D
100
AcDbEntity
  8
0
100
AcDbLine
 62
9
  6
CONTINUOUS
 10
10.5704323323
 20
7.584891804
 11
10.5488408222
 21
7.584891804
  0
LINE
  5
24E
100
AcDbEntity
  8
0
100
AcDbLine
 62
9
  6
CONTINUOUS
 10
10.4495693095
 20
7.584891804
 11
10.4195923494
 21
7.584891804
  0
LINE
  5
24F
100
AcDbEntity
  8
0
100
AcDbLine
 62
9
  6
CONTINUOUS
 10
10.2928346632
 20
7.584891804
 11
10.2879843449
 21
7.584891804
  0
LINE
  5
250
100
AcDbEntity
  8
0
100
AcDbLine
 62
9
  6
CONTINUOUS
 10
10.1564539006
 20
7.584891804
 11
10.1373056114
 21
7.584891804
  0
LINE
  5
251
100
AcDbEntity
  8
0
100
AcDbLine
 62
7
  6
CONTINUOUS
 10
10.9650254765
 20
7.599891804
 11
8.530028073
 21
7.599891804
  0
LINE
  5
252
100
AcDbEntity
  8
0
100
AcDbLine
 62
9
  6
CONTINUOUS
 10
10.9225267748
 20
7.6132402901
 11
8.5725267748
 21
7.6132402901
  0
LINE
  5
253
100
AcDbEntity
  8
0
100
AcDbLine
 62
7
  6
CONTINUOUS
 10
11.0057976996
 20
7.5976839201
 11
11.0058105713
 21
7.597682761
  0
LINE
  5
254
100
AcDbEntity
  8
0
100
AcDbLine
 62
7
  6
CONTINUOUS
 10
11.0085449865
 20
7.597215032
 11
11.0058105833
 21
7.5976827754
  0
LINE
  5
255
100
AcDbEntity
  8
0
100
AcDbLine
 62
7
  6
CONTINUOUS
 10
9.5177202388
 20
7.5879091016
 11
9.5156798692
 21
7.5976839197
  0
LINE
  5
256
100
AcDbEntity
  8
0
100
AcDbLine
 62
9
  6
CONTINUOUS
 10
9.47102896
 20
7.575203851
 11
9.4684618371
 21
7.5875058306
  0
LINE
  5
257
100
AcDbEntity
  8
0
100
AcDbLine
 62
7
  6
CONTINUOUS
 10
9.6790545763
 20
7.5914369272
 11
9.6783969553
 21
7.5976855443
  0
LINE
  5
258
100
AcDbEntity
  8
0
100
AcDbLine
 62
7
  6
CONTINUOUS
 10
9.5356439995
 20
7.5106318452
 11
9.5369355629
 21
7.4983507817
  0
LINE
  5
259
100
AcDbEntity
  8
0
100
AcDbLine
 62
9
  6
CONTINUOUS
 10
9.6357848269
 20
7.5751274659
 11
9.6344916019
 21
7.5874243283
  0
LINE
  5
25A
100
AcDbEntity
  8
0
100
AcDbLine
 62
7
  6
CONTINUOUS
 10
9.3825267748
 20
9.3501247631
 11
9.3825267748
 21
9.249891804
  0
LINE
  5
25B
100
AcDbEntity
  8
0
100
AcDbLine
 62
7
  6
CONTINUOUS
 10
9.3975267748
 20
10.049891804
 11
9.3975267748
 21
9.9846277163
  0
LINE
  5
25C
100
AcDbEntity
  8
0
100
AcDbLine
 62
7
  6
CONTINUOUS
 10
9.4475267748
 20
10.599891804
 11
9.4475267748
 21
10.539891804
  0
LINE
  5
25D
100
AcDbEntity
  8
0
100
AcDbLine
 62
7
  6
CONTINUOUS
 10
9.5275267748
 20
10.649891804
 11
9.5275267748
 21
10.619891804
  0
LINE
  5
25E
100
AcDbEntity
  8
0
100
AcDbLine
 62
7
  6
CONTINUOUS
 10
9.5475267748
 20
9.249891804
 11
9.5475267748
 21
9.229891804
  0
LINE
  5
25F
100
AcDbEntity
  8
0
100
AcDbLine
 62
7
  6
CONTINUOUS
 10
10.8625267748
 20
7.704891804
 11
8.6325267748
 21
7.704891804
  0
LINE
  5
260
100
AcDbEntity
  8
0
100
AcDbLine
 62
9
  6
CONTINUOUS
 10
10.7802912123
 20
7.844891804
 11
8.7147623372
 21
7.844891804
  0
LINE
  5
261
100
AcDbEntity
  8
0
100
AcDbLine
 62
7
  6
CONTINUOUS
 10
11.0463320296
 20
7.5862483789
 11
11.0593776596
 21
7.5803323489
  0
LINE
  5
262
100
AcDbEntity
  8
0
100
AcDbLine
 62
7
  6
CONTINUOUS
 10
9.5765827837
 20
7.4984613348
 11
9.5765827837
 21
7.5107913107
  0
LINE
  5
263
100
AcDbEntity
  8
0
100
AcDbLine
 62
7
  6
CONTINUOUS
 10
9.6025267748
 20
10.689891804
 11
9.6025267748
 21
10.669891804
  0
LINE
  5
264
100
AcDbEntity
  8
0
100
AcDbLine
 62
7
  6
CONTINUOUS
 10
9.6915827837
 20
7.5106437059
 11
9.6915827837
 21
7.4983598015
  0
LINE
  5
265
100
AcDbEntity
  8
0
100
AcDbLine
 62
9
  6
CONTINUOUS
 10
9.7475265816
 20
10.4528022213
 11
9.7475254635
 21
10.4223918231
  0
LINE
  5
266
100
AcDbEntity
  8
0
100
AcDbLine
 62
9
  6
CONTINUOUS
 10
9.7475254489
 20
10.1673917794
 11
9.7475254047
 21
10.1369808517
  0
LINE
  5
267
100
AcDbEntity
  8
0
100
AcDbLine
 62
7
  6
CONTINUOUS
 10
9.7525267748
 20
10.167391804
 11
9.7525267748
 21
10.1904361836
  0
LINE
  5
268
100
AcDbEntity
  8
0
100
AcDbLine
 62
7
  6
CONTINUOUS
 10
9.7525267748
 20
10.4078043651
 11
9.7525267748
 21
10.422391804
  0
LINE
  5
269
100
AcDbEntity
  8
0
100
AcDbLine
 62
7
  6
CONTINUOUS
 10
10.099755274
 20
10.0389801293
 11
10.1044779005
 21
10.049891804
  0
LINE
  5
26A
100
AcDbEntity
  8
0
100
AcDbLine
 62
7
  6
CONTINUOUS
 10
10.0533047685
 20
9.8852931834
 11
10.0907003014
 21
9.9568324637
  0
LINE
  5
26B
100
AcDbEntity
  8
0
100
AcDbLine
 62
7
  6
CONTINUOUS
 10
10.0975267748
 20
10.0360713241
 11
10.099755274
 21
10.0389801293
  0
LINE
  5
26C
100
AcDbEntity
  8
0
100
AcDbLine
 62
7
  6
CONTINUOUS
 10
8.4822664437
 20
7.5964282435
 11
8.4892983049
 21
7.5976854607
  0
LWPOLYLINE
  5
26D
100
AcDbEntity
  8
0
100
AcDbPolyline
 62
7
  6
CONTINUOUS
 90
6
 70
0
 10
9.286531063
 20
10.0962046825
 10
9.289791151
 20
10.0871249388
 10
9.2994497938
 20
10.071889518
 10
9.313022366
 20
10.0600206924
 10
9.3294095981
 20
10.0524797405
 10
9.3472808755
 20
10.049891804
  0
LINE
  5
26E
100
AcDbEntity
  8
0
100
AcDbLine
 62
7
  6
CONTINUOUS
 10
9.4126328159
 20
9.555303115
 11
9.3802867767
 21
9.64772037
  0
LINE
  5
26F
100
AcDbEntity
  8
0
100
AcDbLine
 62
7
  6
CONTINUOUS
 10
9.2759434724
 20
10.1369792602
 11
9.2865307465
 21
10.0962058737
  0
LINE
  5
270
100
AcDbEntity
  8
0
100
AcDbLine
 62
9
  6
CONTINUOUS
 10
9.7721183517
 20
7.5704053517
 11
9.7721183517
 21
7.5824269924
  0
LINE
  5
271
100
AcDbEntity
  8
0
100
AcDbLine
 62
7
  6
CONTINUOUS
 10
9.8485274888
 20
7.5910524926
 11
9.848526783
 21
7.5976891451
  0
LINE
  5
272
100
AcDbEntity
  8
0
100
AcDbLine
 62
7
  6
CONTINUOUS
 10
9.8925267748
 20
10.689891804
 11
9.8925267748
 21
10.669891804
  0
LINE
  5
273
100
AcDbEntity
  8
0
100
AcDbLine
 62
7
  6
CONTINUOUS
 10
9.9475267748
 20
9.249891804
 11
9.9475267748
 21
9.229891804
  0
LINE
  5
274
100
AcDbEntity
  8
0
100
AcDbLine
 62
7
  6
CONTINUOUS
 10
9.7659675242
 20
7.4984443215
 11
9.7672632102
 21
7.510764585
  0
LWPOLYLINE
  5
275
100
AcDbEntity
  8
0
100
AcDbPolyline
 62
7
  6
CONTINUOUS
 90
3
 70
0
 10
10.1871525565
 20
10.0962027197
 10
10.2080790863
 20
10.182248979
 10
10.2218802769
 20
10.2564541718
  0
LINE
  5
276
100
AcDbEntity
  8
0
100
AcDbLine
 62
7
  6
CONTINUOUS
 10
10.0824207336
 20
9.555303115
 11
10.1147667728
 21
9.64772037
  0
LINE
  5
277
100
AcDbEntity
  8
0
100
AcDbLine
 62
7
  6
CONTINUOUS
 10
10.1106369014
 20
9.3694742603
 11
10.1125267748
 21
9.3501247631
  0
LINE
  5
278
100
AcDbEntity
  8
0
100
AcDbLine
 62
7
  6
CONTINUOUS
 10
9.9675267748
 20
10.649891804
 11
9.9675267748
 21
10.619891804
  0
LINE
  5
279
100
AcDbEntity
  8
0
100
AcDbLine
 62
7
  6
CONTINUOUS
 10
10.0475267748
 20
10.599891804
 11
10.0475267748
 21
10.539891804
  0
LINE
  5
27A
100
AcDbEntity
  8
0
100
AcDbLine
 62
7
  6
CONTINUOUS
 10
10.0975267748
 20
10.049891804
 11
10.0975267748
 21
9.9846277163
  0
LINE
  5
27B
100
AcDbEntity
  8
0
100
AcDbLine
 62
7
  6
CONTINUOUS
 10
10.1125267748
 20
9.3501247631
 11
10.1125267748
 21
9.249891804
  0
LINE
  5
27C
100
AcDbEntity
  8
0
100
AcDbLine
 62
7
  6
CONTINUOUS
 10
9.9920771837
 20
7.5887660207
 11
9.9930145622
 21
7.5976855443
  0
LINE
  5
27D
100
AcDbEntity
  8
0
100
AcDbLine
 62
7
  6
CONTINUOUS
 10
9.8833712052
 20
7.5106318452
 11
9.8820796417
 21
7.4983507817
  0
LINE
  5
27E
100
AcDbEntity
  8
0
100
AcDbLine
 62
9
  6
CONTINUOUS
 10
9.957794725
 20
7.5751274659
 11
9.95908795
 21
7.5874243283
  0
LWPOLYLINE
  5
27F
100
AcDbEntity
  8
0
100
AcDbPolyline
 62
7
  6
CONTINUOUS
 90
4
 70
0
 10
10.2218806559
 20
10.2564565397
 10
10.2244258732
 20
10.2791299349
 10
10.2243693051
 20
10.311501694
 10
10.2218802773
 20
10.3333294333
  0
LINE
  5
280
100
AcDbEntity
  8
0
100
AcDbLine
 62
7
  6
CONTINUOUS
 10
9.441748781
 20
9.8852931834
 11
9.4043532481
 21
9.9568324637
  0
LINE
  5
281
100
AcDbEntity
  8
0
100
AcDbLine
 62
7
  6
CONTINUOUS
 10
9.9242137143
 20
7.4984589004
 11
9.9267863767
 21
7.5107874262
  0
LINE
  5
282
100
AcDbEntity
  8
0
100
AcDbLine
 62
7
  6
CONTINUOUS
 10
10.080186159
 20
9.5238723912
 11
10.1106369014
 21
9.3694742603
  0
LINE
  5
283
100
AcDbEntity
  8
0
100
AcDbLine
 62
7
  6
CONTINUOUS
 10
10.0502681967
 20
7.5106349783
 11
10.0477052854
 21
7.4983531813
  0
LINE
  5
284
100
AcDbEntity
  8
0
100
AcDbLine
 62
9
  6
CONTINUOUS
 10
10.1099593479
 20
7.575203851
 11
10.1125264708
 21
7.5875058306
  0
LINE
  5
285
100
AcDbEntity
  8
0
100
AcDbLine
 62
7
  6
CONTINUOUS
 10
10.1373056114
 20
7.5840086424
 11
10.1401584925
 21
7.5976839198
  0
LINE
  5
286
100
AcDbEntity
  8
0
100
AcDbLine
 62
7
  6
CONTINUOUS
 10
11.1249481453
 20
7.4983813329
 11
11.1300267748
 21
7.4888105626
  0
LINE
  5
287
100
AcDbEntity
  8
0
100
AcDbLine
 62
7
  6
CONTINUOUS
 10
10.0514425853
 20
9.8336008463
 11
10.1131709812
 21
9.69143848
  0
LWPOLYLINE
  5
288
100
AcDbEntity
  8
0
100
AcDbPolyline
 62
7
  6
CONTINUOUS
 90
3
 70
0
 10
10.2218806506
 20
10.3333271012
 10
10.2079012219
 20
10.4083718553
 10
10.187152851
 20
10.4935798166
  0
LINE
  5
289
100
AcDbEntity
  8
0
100
AcDbLine
 62
7
  6
CONTINUOUS
 10
10.5654819069
 20
7.5685371817
 11
10.5661146019
 21
7.577374906
  0
LINE
  5
28A
100
AcDbEntity
  8
0
100
AcDbLine
 62
7
  6
CONTINUOUS
 10
10.573285807
 20
7.5898595244
 11
10.5723468671
 21
7.5804886469
  0
LINE
  5
28B
100
AcDbEntity
  8
0
100
AcDbLine
 62
7
  6
CONTINUOUS
 10
10.2879843449
 20
7.5840113822
 11
10.2922072685
 21
7.5976855443
  0
LINE
  5
28C
100
AcDbEntity
  8
0
100
AcDbLine
 62
7
  6
CONTINUOUS
 10
10.1078992786
 20
7.4984443215
 11
10.1117049239
 21
7.510764585
  0
LINE
  5
28D
100
AcDbEntity
  8
0
100
AcDbLine
 62
7
  6
CONTINUOUS
 10
10.2225628058
 20
7.5106318452
 11
10.2187692691
 21
7.4983507817
  0
LINE
  5
28E
100
AcDbEntity
  8
0
100
AcDbLine
 62
9
  6
CONTINUOUS
 10
10.2665927145
 20
7.5751274659
 11
10.2703911314
 21
7.5874243283
  0
LINE
  5
28F
100
AcDbEntity
  8
0
100
AcDbLine
 62
9
  6
CONTINUOUS
 10
10.2925267748
 20
8.8612563116
 11
9.2025267748
 21
8.8612563116
  0
LWPOLYLINE
  5
290
100
AcDbEntity
  8
0
100
AcDbPolyline
 62
7
  6
CONTINUOUS
 90
6
 70
0
 10
10.1871530023
 20
10.4935824948
 10
10.1838825552
 20
10.5026838275
 10
10.1742215656
 20
10.5179097871
 10
10.1606505923
 20
10.5297704458
 10
10.1442679369
 20
10.5373058672
 10
10.1264031075
 20
10.539891804
  0
LINE
  5
291
100
AcDbEntity
  8
0
100
AcDbLine
 62
7
  6
CONTINUOUS
 10
10.9225267748
 20
7.6132402901
 11
10.9225267748
 21
7.599891804
  0
LINE
  5
292
100
AcDbEntity
  8
0
100
AcDbLine
 62
7
  6
CONTINUOUS
 10
10.5488408222
 20
7.5874243283
 11
10.5499292834
 21
7.5923416641
  0
LINE
  5
293
100
AcDbEntity
  8
0
100
AcDbLine
 62
7
  6
CONTINUOUS
 10
10.4450115426
 20
7.5740245168
 11
10.4457250613
 21
7.5770974599
  0
LINE
  5
294
100
AcDbEntity
  8
0
100
AcDbLine
 62
7
  6
CONTINUOUS
 10
10.4518773927
 20
7.5895715129
 11
10.4510404784
 21
7.5862483789
  0
LINE
  5
295
100
AcDbEntity
  8
0
100
AcDbLine
 62
7
  6
CONTINUOUS
 10
10.2583725287
 20
7.4984589004
 11
10.2633562037
 21
7.5107874262
  0
LINE
  5
296
100
AcDbEntity
  8
0
100
AcDbLine
 62
7
  6
CONTINUOUS
 10
10.1225267748
 20
9.089891804
 11
9.3725267748
 21
9.089891804
  0
LINE
  5
297
100
AcDbEntity
  8
0
100
AcDbLine
 62
7
  6
CONTINUOUS
 10
10.0525267748
 20
9.229891804
 11
9.4425267748
 21
9.229891804
  0
LWPOLYLINE
  5
298
100
AcDbEntity
  8
0
100
AcDbPolyline
 62
7
  6
CONTINUOUS
 90
5
 70
0
 10
10.1044804314
 20
10.539891804
 10
10.0997884261
 20
10.5507450782
 10
10.084193493
 20
10.5711388153
 10
10.0660441879
 20
10.5865712575
 10
10.0475267748
 20
10.5985495316
  0
LINE
  5
299
100
AcDbEntity
  8
0
100
AcDbLine
 62
7
  6
CONTINUOUS
 10
10.3775610267
 20
7.5106349783
 11
10.3725962413
 21
7.4983531813
  0
LINE
  5
29A
100
AcDbEntity
  8
0
100
AcDbLine
 62
9
  6
CONTINUOUS
 10
10.405257886
 20
7.575203851
 11
10.41023083
 21
7.5875058306
  0
LINE
  5
29B
100
AcDbEntity
  8
0
100
AcDbLine
 62
7
  6
CONTINUOUS
 10
10.4195923494
 20
7.5840086424
 11
10.4251197116
 21
7.5976839198
  0
LINE
  5
29C
100
AcDbEntity
  8
0
100
AcDbLine
 62
7
  6
CONTINUOUS
 10
10.4457604616
 20
7.5771692417
 11
10.4503953243
 21
7.5865665756
  0
LINE
  5
29D
100
AcDbEntity
  8
0
100
AcDbLine
 62
9
  6
CONTINUOUS
 10
10.4510404784
 20
7.5862483789
 11
10.4450115426
 21
7.5740245168
  0
LINE
  5
29E
100
AcDbEntity
  8
0
100
AcDbLine
 62
7
  6
CONTINUOUS
 10
10.4271875032
 20
7.4984443215
 11
10.4332639851
 21
7.510764585
  0
LINE
  5
29F
100
AcDbEntity
  8
0
100
AcDbLine
 62
7
  6
CONTINUOUS
 10
9.3825414197
 20
9.249891804
 11
10.1125121298
 21
9.249891804
  0
LINE
  5
2A0
100
AcDbEntity
  8
0
100
AcDbLine
 62
9
  6
CONTINUOUS
 10
10.1125267748
 20
9.3501247631
 11
9.3825267748
 21
9.3501247631
  0
LINE
  5
2A1
100
AcDbEntity
  8
0
100
AcDbLine
 62
9
  6
CONTINUOUS
 10
9.3844166481
 20
9.3694742603
 11
10.1106369014
 21
9.3694742603
  0
LINE
  5
2A2
100
AcDbEntity
  8
0
100
AcDbLine
 62
7
  6
CONTINUOUS
 10
11.1352412218
 20
7.5106734218
 11
11.1352409878
 21
7.5106711562
  0
LINE
  5
2A3
100
AcDbEntity
  8
0
100
AcDbLine
 62
7
  6
CONTINUOUS
 10
10.5504322481
 20
7.5840113822
 11
10.5571756962
 21
7.5976855443
  0
LINE
  5
2A4
100
AcDbEntity
  8
0
100
AcDbLine
 62
7
  6
CONTINUOUS
 10
10.5319061455
 20
7.5106318452
 11
10.5258489974
 21
7.4983507817
  0
LINE
  5
2A5
100
AcDbEntity
  8
0
100
AcDbLine
 62
7
  6
CONTINUOUS
 10
10.5661081453
 20
7.5773636656
 11
10.5732791236
 21
7.5898478892
  0
LINE
  5
2A6
100
AcDbEntity
  8
0
100
AcDbLine
 62
9
  6
CONTINUOUS
 10
10.5723468671
 20
7.5804886469
 11
10.5654819069
 21
7.5685371817
  0
LINE
  5
2A7
100
AcDbEntity
  8
0
100
AcDbLine
 62
9
  6
CONTINUOUS
 10
10.080186159
 20
9.5238723912
 11
9.4148673905
 21
9.5238723912
  0
LINE
  5
2A8
100
AcDbEntity
  8
0
100
AcDbLine
 62
9
  6
CONTINUOUS
 10
9.4126328159
 20
9.555303115
 11
10.0824207336
 21
9.555303115
  0
LINE
  5
2A9
100
AcDbEntity
  8
0
100
AcDbLine
 62
7
  6
CONTINUOUS
 10
10.6651555099
 20
7.5935928225
 11
10.6675052747
 21
7.5976839201
  0
LINE
  5
2AA
100
AcDbEntity
  8
0
100
AcDbLine
 62
7
  6
CONTINUOUS
 10
10.5604330256
 20
7.4984589004
 11
10.5675145705
 21
7.5107874262
  0
LINE
  5
2AB
100
AcDbEntity
  8
0
100
AcDbLine
 62
7
  6
CONTINUOUS
 10
10.6652664876
 20
7.5106349783
 11
10.6582117838
 21
7.4983531813
  0
LINE
  5
2AC
100
AcDbEntity
  8
0
100
AcDbLine
 62
7
  6
CONTINUOUS
 10
10.6898553931
 20
7.5812764237
 11
10.6982451144
 21
7.5942528138
  0
LINE
  5
2AD
100
AcDbEntity
  8
0
100
AcDbLine
 62
9
  6
CONTINUOUS
 10
10.7004598447
 20
7.5862483789
 11
10.6925566609
 21
7.5740245168
  0
LINE
  5
2AE
100
AcDbEntity
  8
0
100
AcDbLine
 62
9
  6
CONTINUOUS
 10
10.1147667728
 20
9.64772037
 11
9.3802867767
 21
9.64772037
  0
LINE
  5
2AF
100
AcDbEntity
  8
0
100
AcDbLine
 62
9
  6
CONTINUOUS
 10
9.3818825683
 20
9.69143848
 11
10.1131709812
 21
9.69143848
  0
LINE
  5
2B0
100
AcDbEntity
  8
0
100
AcDbLine
 62
9
  6
CONTINUOUS
 10
9.7431193148
 20
10.1824191982
 11
9.6579249549
 21
10.2221459842
  0
LINE
  5
2B1
100
AcDbEntity
  8
0
100
AcDbLine
 62
7
  6
CONTINUOUS
 10
10.7037701446
 20
7.4984443215
 11
10.7117356555
 21
7.510764585
  0
LINE
  5
2B2
100
AcDbEntity
  8
0
100
AcDbLine
 62
7
  6
CONTINUOUS
 10
10.7919640446
 20
7.5106318452
 11
10.784023878
 21
7.4983507817
  0
LINE
  5
2B3
100
AcDbEntity
  8
0
100
AcDbLine
 62
7
  6
CONTINUOUS
 10
10.7838579765
 20
7.5816820006
 11
10.7913907829
 21
7.5923144205
  0
LINE
  5
2B4
100
AcDbEntity
  8
0
100
AcDbLine
 62
9
  6
CONTINUOUS
 10
10.8000325911
 20
7.5804886469
 11
10.7915652738
 21
7.5685371817
  0
LINE
  5
2B5
100
AcDbEntity
  8
0
100
AcDbLine
 62
7
  6
CONTINUOUS
 10
10.811415633
 20
7.4984589004
 11
10.8201500885
 21
7.5107874262
  0
LINE
  5
2B6
100
AcDbEntity
  8
0
100
AcDbLine
 62
7
  6
CONTINUOUS
 10
10.8691162429
 20
7.5840994617
 11
10.878543894
 21
7.5965166822
  0
LINE
  5
2B7
100
AcDbEntity
  8
0
100
AcDbLine
 62
9
  6
CONTINUOUS
 10
10.0514425853
 20
9.8336008463
 11
9.4436109642
 21
9.8336008463
  0
LINE
  5
2B8
100
AcDbEntity
  8
0
100
AcDbLine
 62
9
  6
CONTINUOUS
 10
9.441748781
 20
9.8852931834
 11
10.0533047685
 21
9.8852931834
  0
LINE
  5
2B9
100
AcDbEntity
  8
0
100
AcDbLine
 62
9
  6
CONTINUOUS
 10
10.0907003014
 20
9.9568324637
 11
9.4043532481
 21
9.9568324637
  0
LINE
  5
2BA
100
AcDbEntity
  8
0
100
AcDbLine
 62
9
  6
CONTINUOUS
 10
9.3975267748
 20
9.9846277163
 11
10.0975267748
 21
9.9846277163
  0
LINE
  5
2BB
100
AcDbEntity
  8
0
100
AcDbLine
 62
9
  6
CONTINUOUS
 10
9.7519521993
 20
10.4073560421
 11
9.7689074018
 21
10.3994496886
  0
LINE
  5
2BC
100
AcDbEntity
  8
0
100
AcDbLine
 62
7
  6
CONTINUOUS
 10
10.8953069871
 20
7.5106349783
 11
10.8866056379
 21
7.4983531813
  0
LINE
  5
2BD
100
AcDbEntity
  8
0
100
AcDbLine
 62
9
  6
CONTINUOUS
 10
10.8900029216
 20
7.5862483789
 11
10.880722076
 21
7.5740245168
  0
LINE
  5
2BE
100
AcDbEntity
  8
0
100
AcDbLine
 62
7
  6
CONTINUOUS
 10
10.9202684982
 20
7.4984443215
 11
10.9296225357
 21
7.510764585
  0
LINE
  5
2BF
100
AcDbEntity
  8
0
100
AcDbLine
 62
7
  6
CONTINUOUS
 10
10.9863961088
 20
7.5106318452
 11
10.9770718336
 21
7.4983507817
  0
LINE
  5
2C0
100
AcDbEntity
  8
0
100
AcDbLine
 62
7
  6
CONTINUOUS
 10
10.9344000541
 20
7.5909753368
 11
10.9391360175
 21
7.5969098962
  0
LINE
  5
2C1
100
AcDbEntity
  8
0
100
AcDbLine
 62
9
  6
CONTINUOUS
 10
10.9615855038
 20
7.5804886469
 11
10.9558972929
 21
7.5733608415
  0
LINE
  5
2C2
100
AcDbEntity
  8
0
100
AcDbLine
 62
7
  6
CONTINUOUS
 10
10.9955501909
 20
7.4984589004
 11
11.0053887388
 21
7.5107874262
  0
LINE
  5
2C3
100
AcDbEntity
  8
0
100
AcDbLine
 62
7
  6
CONTINUOUS
 10
10.9790650962
 20
7.5936704653
 11
10.9822059697
 21
7.5974811095
  0
LINE
  5
2C4
100
AcDbEntity
  8
0
100
AcDbLine
 62
9
  6
CONTINUOUS
 10
11.0077600204
 20
7.5862483789
 11
11.002314227
 21
7.5796413057
  0
LINE
  5
2C5
100
AcDbEntity
  8
0
100
AcDbLine
 62
7
  6
CONTINUOUS
 10
11.0022061601
 20
7.5964693416
 11
11.0031895853
 21
7.5976436594
  0
LINE
  5
2C6
100
AcDbEntity
  8
0
100
AcDbLine
 62
9
  6
CONTINUOUS
 10
11.0468546416
 20
7.5804886469
 11
11.0445778698
 21
7.5777699311
  0
LINE
  5
2C7
100
AcDbEntity
  8
0
100
AcDbLine
 62
7
  6
CONTINUOUS
 10
10.6655394266
 20
7.5958606295
 11
10.6675052323
 21
7.597683851
  0
LWPOLYLINE
  5
2C8
100
AcDbEntity
  8
0
100
AcDbPolyline
 62
7
  6
CONTINUOUS
 90
6
 70
0
 10
10.1264060398
 20
10.049891804
 10
10.1442713001
 20
10.0524779991
 10
10.1606540148
 20
10.0600139161
 10
10.1742248742
 20
10.0718752687
 10
10.1838854971
 20
10.0871020351
 10
10.1871551249
 20
10.0962019811
  0
LINE
  5
2C9
100
AcDbEntity
  8
0
100
AcDbLine
 62
7
  6
CONTINUOUS
 10
10.1264052172
 20
10.049891804
 11
9.3473258197
 21
10.049891804
  0
LINE
  5
2CA
100
AcDbEntity
  8
0
100
AcDbLine
 62
9
  6
CONTINUOUS
 10
9.286531063
 20
10.0962046825
 11
9.3209024728
 21
10.0962033637
  0
LINE
  5
2CB
100
AcDbEntity
  8
0
100
AcDbLine
 62
7
  6
CONTINUOUS
 10
9.2861600478
 20
10.1673917976
 11
9.7525267748
 21
10.167391804
  0
LINE
  5
2CC
100
AcDbEntity
  8
0
100
AcDbLine
 62
7
  6
CONTINUOUS
 10
10.0052840538
 20
10.619891804
 11
9.9930959755
 21
10.625212066
  0
LINE
  5
2CD
100
AcDbEntity
  8
0
100
AcDbLine
 62
7
  6
CONTINUOUS
 10
11.0532282347
 20
7.5106349783
 11
11.0434269777
 21
7.4983531813
  0
LINE
  5
2CE
100
AcDbEntity
  8
0
100
AcDbLine
 62
7
  6
CONTINUOUS
 10
11.0630791764
 20
7.4984443215
 11
11.0732339918
 21
7.510764585
  0
LINE
  5
2CF
100
AcDbEntity
  8
0
100
AcDbLine
 62
7
  6
CONTINUOUS
 10
11.1029854565
 20
7.5106318452
 11
11.0928629512
 21
7.4983507817
  0
LINE
  5
2D0
100
AcDbEntity
  8
0
100
AcDbLine
 62
7
  6
CONTINUOUS
 10
11.1012668475
 20
7.4984589004
 11
11.1115912958
 21
7.5107874262
  0
LINE
  5
2D1
100
AcDbEntity
  8
0
100
AcDbLine
 62
7
  6
CONTINUOUS
 10
11.1291074574
 20
7.5106349783
 11
11.1188221419
 21
7.4983531813
  0
LINE
  5
2D2
100
AcDbEntity
  8
0
100
AcDbLine
 62
7
  6
CONTINUOUS
 10
11.1232288588
 20
7.4984443215
 11
11.1335463879
 21
7.510764585
  0
LINE
  5
2D3
100
AcDbEntity
  8
0
100
AcDbLine
 62
7
  6
CONTINUOUS
 10
11.1249479983
 20
7.4983801956
 11
11.1345886692
 21
7.5098922161
  0
LINE
  5
2D4
100
AcDbEntity
  8
0
100
AcDbLine
 62
9
  6
CONTINUOUS
 10
10.2218806559
 20
10.2564565397
 11
9.8051015118
 21
10.2564545997
  0
LINE
  5
2D5
100
AcDbEntity
  8
0
100
AcDbLine
 62
9
  6
CONTINUOUS
 10
10.2218806506
 20
10.3333271012
 11
9.8051007218
 21
10.3333293462
  0
LINE
  5
2D6
100
AcDbEntity
  8
0
100
AcDbLine
 62
7
  6
CONTINUOUS
 10
9.9930959755
 20
10.625212066
 11
9.9699863447
 21
10.6332794307
  0
LINE
  5
2D7
100
AcDbEntity
  8
0
100
AcDbLine
 62
7
  6
CONTINUOUS
 10
9.2861600552
 20
10.4223918214
 11
9.7525267748
 21
10.422391804
  0
LINE
  5
2D8
100
AcDbEntity
  8
0
100
AcDbLine
 62
7
  6
CONTINUOUS
 10
9.3473070823
 20
10.539891804
 11
10.1264021247
 21
10.539891804
  0
LINE
  5
2D9
100
AcDbEntity
  8
0
100
AcDbLine
 62
9
  6
CONTINUOUS
 10
9.3209030306
 20
10.4935801722
 11
9.2865323554
 21
10.4935834995
  0
LINE
  5
2DA
100
AcDbEntity
  8
0
100
AcDbLine
 62
7
  6
CONTINUOUS
 10
9.9699863447
 20
10.6332794307
 11
9.9675267748
 21
10.6338296409
  0
LWPOLYLINE
  5
2DB
100
AcDbEntity
  8
0
100
AcDbPolyline
 62
7
  6
CONTINUOUS
 90
6
 70
0
 10
9.3472809144
 20
10.539891804
 10
9.3294050764
 20
10.5373025185
 10
9.3130144376
 20
10.5297577534
 10
9.299440584
 20
10.5178833015
 10
9.2897834451
 20
10.5026413891
 10
9.2865323554
 20
10.4935834995
  0
LINE
  5
2DC
100
AcDbEntity
  8
0
100
AcDbLine
 62
9
  6
CONTINUOUS
 10
10.0475267748
 20
10.599891804
 11
9.4475267748
 21
10.599891804
  0
LINE
  5
2DD
100
AcDbEntity
  8
0
100
AcDbLine
 62
7
  6
CONTINUOUS
 10
10.0275247507
 20
10.619891804
 11
9.4675287988
 21
10.619891804
  0
LINE
  5
2DE
100
AcDbEntity
  8
0
100
AcDbLine
 62
9
  6
CONTINUOUS
 10
9.9675267748
 20
10.649891804
 11
9.5275267748
 21
10.649891804
  0
LINE
  5
2DF
100
AcDbEntity
  8
0
100
AcDbLine
 62
7
  6
CONTINUOUS
 10
9.9475139028
 20
10.669891804
 11
9.5475396467
 21
10.669891804
  0
LINE
  5
2E0
100
AcDbEntity
  8
0
100
AcDbLine
 62
9
  6
CONTINUOUS
 10
9.8925267748
 20
10.689891804
 11
9.6025267748
 21
10.689891804
  0
LINE
  5
2E1
100
AcDbEntity
  8
0
100
AcDbLine
 62
7
  6
CONTINUOUS
 10
9.8725104759
 20
10.709891804
 11
9.6225430736
 21
10.709891804
  0
ARC
  5
2E2
100
AcDbEntity
  8
0
100
AcDbCircle
 62
7
  6
CONTINUOUS
 10
7.8032920597
 20
8.9075403505
 40
1.4
100
AcDbArc
 50
310.6208291884
 51
358.1054547173
  0
ARC
  5
2E3
100
AcDbEntity
  8
0
100
AcDbCircle
 62
7
  6
CONTINUOUS
 10
8.5348195417
 20
7.3884571764
 40
0.2114383087
100
AcDbArc
 50
110.698084328
 51
111.0667043002
  0
ARC
  5
2E4
100
AcDbEntity
  8
0
100
AcDbCircle
 62
7
  6
CONTINUOUS
 10
8.5280649692
 20
7.3933815619
 40
0.2063977384
100
AcDbArc
 50
109.8584253519
 51
110.9587068935
  0
ARC
  5
2E5
100
AcDbEntity
  8
0
100
AcDbCircle
 62
7
  6
CONTINUOUS
 10
8.5246634287
 20
7.4026716847
 40
0.1965048291
100
AcDbArc
 50
105.441091698
 51
109.3500320555
  0
ARC
  5
2E6
100
AcDbEntity
  8
0
100
AcDbCircle
 62
7
  6
CONTINUOUS
 10
8.5359003844
 20
7.3952369762
 40
0.1958091485
100
AcDbArc
 50
142.3330355969
 51
143.8910066928
  0
ARC
  5
2E7
100
AcDbEntity
  8
0
100
AcDbCircle
 62
7
  6
CONTINUOUS
 10
8.5280500227
 20
7.4049005613
 40
0.193683816
100
AcDbArc
 50
100.3028700308
 51
104.8474542411
  0
ARC
  5
2E8
100
AcDbEntity
  8
0
100
AcDbCircle
 62
7
  6
CONTINUOUS
 10
8.5236725018
 20
7.4055444273
 40
0.1934660306
100
AcDbArc
 50
109.3550366406
 51
109.8585504048
  0
ARC
  5
2E9
100
AcDbEntity
  8
0
100
AcDbCircle
 62
7
  6
CONTINUOUS
 10
8.5275294152
 20
7.4070053037
 40
0.1915159474
100
AcDbArc
 50
104.8582565249
 51
107.1835358547
  0
ARC
  5
2EA
100
AcDbEntity
  8
0
100
AcDbCircle
 62
7
  6
CONTINUOUS
 10
8.5207990327
 20
7.4064402436
 40
0.1883454131
100
AcDbArc
 50
142.1776104167
 51
146.3650839321
  0
ARC
  5
2EB
100
AcDbEntity
  8
0
100
AcDbCircle
 62
7
  6
CONTINUOUS
 10
8.5265177168
 20
7.4102159399
 40
0.1881497347
100
AcDbArc
 50
107.1780514318
 51
110.6750941999
  0
ARC
  5
2EC
100
AcDbEntity
  8
0
100
AcDbCircle
 62
7
  6
CONTINUOUS
 10
8.5194250218
 20
7.4130135884
 40
0.1871193873
100
AcDbArc
 50
110.6946286836
 51
147.7358359598
  0
ARC
  5
2ED
100
AcDbEntity
  8
0
100
AcDbCircle
 62
7
  6
CONTINUOUS
 10
8.5137842536
 20
7.4131365078
 40
0.1816866451
100
AcDbArc
 50
142.5404932434
 51
146.8172021545
  0
ARC
  5
2EE
100
AcDbEntity
  8
0
100
AcDbCircle
 62
7
  6
CONTINUOUS
 10
8.5368995949
 20
7.3959420334
 40
0.1808580966
100
AcDbArc
 50
143.6104042584
 51
143.9293681517
  0
ARC
  5
2EF
100
AcDbEntity
  8
0
100
AcDbCircle
 62
7
  6
CONTINUOUS
 10
8.5127884857
 20
7.41379604
 40
0.1804922887
100
AcDbArc
 50
146.8194196824
 51
147.5524898037
  0
ARC
  5
2F0
100
AcDbEntity
  8
0
100
AcDbCircle
 62
7
  6
CONTINUOUS
 10
8.5360006937
 20
7.3965918483
 40
0.1797489228
100
AcDbArc
 50
143.9280877235
 51
145.5201013727
  0
ARC
  5
2F1
100
AcDbEntity
  8
0
100
AcDbCircle
 62
7
  6
CONTINUOUS
 10
8.5166867978
 20
7.4203883715
 40
0.1792502749
100
AcDbArc
 50
109.4041291803
 51
110.7088870352
  0
ARC
  5
2F2
100
AcDbEntity
  8
0
100
AcDbCircle
 62
7
  6
CONTINUOUS
 10
8.5176537167
 20
7.4217567125
 40
0.1781982872
100
AcDbArc
 50
101.450517568
 51
103.8103434989
  0
ARC
  5
2F3
100
AcDbEntity
  8
0
100
AcDbCircle
 62
7
  6
CONTINUOUS
 10
8.5175307238
 20
7.4222621429
 40
0.1776781086
100
AcDbArc
 50
103.810734782
 51
104.6015684638
  0
ARC
  5
2F4
100
AcDbEntity
  8
0
100
AcDbCircle
 62
7
  6
CONTINUOUS
 10
8.5173679722
 20
7.4228678055
 40
0.1770509787
100
AcDbArc
 50
104.6000118452
 51
107.1387125514
  0
ARC
  5
2F5
100
AcDbEntity
  8
0
100
AcDbCircle
 62
7
  6
CONTINUOUS
 10
8.5158253888
 20
7.4229721249
 40
0.1765271028
100
AcDbArc
 50
103.6132403543
 51
109.4190329284
  0
ARC
  5
2F6
100
AcDbEntity
  8
0
100
AcDbCircle
 62
7
  6
CONTINUOUS
 10
8.514085354
 20
7.4130262428
 40
0.1668023514
100
AcDbArc
 50
148.4957215379
 51
149.2331918352
  0
ARC
  5
2F7
100
AcDbEntity
  8
0
100
AcDbCircle
 62
7
  6
CONTINUOUS
 10
8.5131542902
 20
7.4343632886
 40
0.1648272895
100
AcDbArc
 50
100.5275599943
 51
103.6428020274
  0
ARC
  5
2F8
100
AcDbEntity
  8
0
100
AcDbCircle
 62
7
  6
CONTINUOUS
 10
8.5102531713
 20
7.4499647348
 40
0.1489584013
100
AcDbArc
 50
99.1708088864
 51
100.5268797388
  0
ARC
  5
2F9
100
AcDbEntity
  8
0
100
AcDbCircle
 62
7
  6
CONTINUOUS
 10
8.3380968479
 20
7.5020309651
 40
0.03
100
AcDbArc
 50
295.2253339089
 51
333.8527188577
  0
ARC
  5
2FA
100
AcDbEntity
  8
0
100
AcDbCircle
 62
7
  6
CONTINUOUS
 10
8.5122763858
 20
7.6028790592
 40
0.018
100
AcDbArc
 50
345.4641668787
 51
350.447072929
  0
ARC
  5
2FB
100
AcDbEntity
  8
0
100
AcDbCircle
 62
7
  6
CONTINUOUS
 10
8.6882703201
 20
7.2913928971
 40
0.3063136049
100
AcDbArc
 50
95.4299186587
 51
97.1234447557
  0
ARC
  5
2FC
100
AcDbEntity
  8
0
100
AcDbCircle
 62
7
  6
CONTINUOUS
 10
8.6864458073
 20
7.3063982604
 40
0.2911978148
100
AcDbArc
 50
97.1333511484
 51
98.3079405058
  0
ARC
  5
2FD
100
AcDbEntity
  8
0
100
AcDbCircle
 62
7
  6
CONTINUOUS
 10
8.6812782611
 20
7.3149771456
 40
0.2851911674
100
AcDbArc
 50
107.1930475016
 51
108.7834225624
  0
ARC
  5
2FE
100
AcDbEntity
  8
0
100
AcDbCircle
 62
7
  6
CONTINUOUS
 10
8.5635441178
 20
7.328905527
 40
0.2707084693
100
AcDbArc
 50
96.8431917246
 51
97.029734757
  0
ARC
  5
2FF
100
AcDbEntity
  8
0
100
AcDbCircle
 62
7
  6
CONTINUOUS
 10
8.6079634339
 20
7.3419347094
 40
0.2577415837
100
AcDbArc
 50
107.677581604
 51
118.4490342994
  0
ARC
  5
300
100
AcDbEntity
  8
0
100
AcDbCircle
 62
7
  6
CONTINUOUS
 10
8.6264084647
 20
7.3457396479
 40
0.2544851055
100
AcDbArc
 50
109.077069403
 51
111.7509480994
  0
ARC
  5
301
100
AcDbEntity
  8
0
100
AcDbCircle
 62
7
  6
CONTINUOUS
 10
8.6262749925
 20
7.3460615161
 40
0.2541367106
100
AcDbArc
 50
111.7503122232
 51
115.4516436256
  0
ARC
  5
302
100
AcDbEntity
  8
0
100
AcDbCircle
 62
7
  6
CONTINUOUS
 10
8.5604812304
 20
7.36268658
 40
0.2371275146
100
AcDbArc
 50
108.6031959754
 51
111.778764164
  0
ARC
  5
303
100
AcDbEntity
  8
0
100
AcDbCircle
 62
7
  6
CONTINUOUS
 10
8.7383893063
 20
7.3426891149
 40
0.2354401501
100
AcDbArc
 50
132.1369656434
 51
138.6114507625
  0
ARC
  5
304
100
AcDbEntity
  8
0
100
AcDbCircle
 62
7
  6
CONTINUOUS
 10
8.5595048563
 20
7.3651109295
 40
0.2345139491
100
AcDbArc
 50
111.7770068584
 51
114.234200768
  0
ARC
  5
305
100
AcDbEntity
  8
0
100
AcDbCircle
 62
7
  6
CONTINUOUS
 10
8.6510975017
 20
7.3574246843
 40
0.2326434314
100
AcDbArc
 50
135.5326714675
 51
138.810674845
  0
ARC
  5
306
100
AcDbEntity
  8
0
100
AcDbCircle
 62
7
  6
CONTINUOUS
 10
8.5600741559
 20
7.3718530584
 40
0.2261269756
100
AcDbArc
 50
95.3466768334
 51
102.3717148116
  0
ARC
  5
307
100
AcDbEntity
  8
0
100
AcDbCircle
 62
7
  6
CONTINUOUS
 10
8.597606206
 20
7.3749279202
 40
0.2231612722
100
AcDbArc
 50
103.3224605907
 51
107.7162384124
  0
ARC
  5
308
100
AcDbEntity
  8
0
100
AcDbCircle
 62
7
  6
CONTINUOUS
 10
8.6526714761
 20
7.359103771
 40
0.2176903865
100
AcDbArc
 50
136.2897882878
 51
136.9067847725
  0
ARC
  5
309
100
AcDbEntity
  8
0
100
AcDbCircle
 62
7
  6
CONTINUOUS
 10
8.5578927905
 20
7.3818305091
 40
0.2159138553
100
AcDbArc
 50
102.3735697217
 51
105.9263729318
  0
ARC
  5
30A
100
AcDbEntity
  8
0
100
AcDbCircle
 62
7
  6
CONTINUOUS
 10
8.581360077
 20
7.3765555485
 40
0.2137471242
100
AcDbArc
 50
137.5328745346
 51
141.1502242034
  0
ARC
  5
30B
100
AcDbEntity
  8
0
100
AcDbCircle
 62
7
  6
CONTINUOUS
 10
8.6497513868
 20
7.3618110424
 40
0.2137084385
100
AcDbArc
 50
136.9019585581
 51
140.2896617607
  0
ARC
  5
30C
100
AcDbEntity
  8
0
100
AcDbCircle
 62
7
  6
CONTINUOUS
 10
8.5553056391
 20
7.3912537927
 40
0.2061423875
100
AcDbArc
 50
105.9535898812
 51
108.1761160214
  0
ARC
  5
30D
100
AcDbEntity
  8
0
100
AcDbCircle
 62
7
  6
CONTINUOUS
 10
8.5837569962
 20
7.3769368344
 40
0.2001114068
100
AcDbArc
 50
138.2445106684
 51
138.9474932086
  0
ARC
  5
30E
100
AcDbEntity
  8
0
100
AcDbCircle
 62
7
  6
CONTINUOUS
 10
8.5812140668
 20
7.3791293321
 40
0.1967538403
100
AcDbArc
 50
138.9426330937
 51
142.7024511442
  0
ARC
  5
30F
100
AcDbEntity
  8
0
100
AcDbCircle
 62
7
  6
CONTINUOUS
 10
8.5519793309
 20
7.401238698
 40
0.1956181078
100
AcDbArc
 50
108.1627446241
 51
113.6052627872
  0
ARC
  5
310
100
AcDbEntity
  8
0
100
AcDbCircle
 62
7
  6
CONTINUOUS
 10
8.6622656502
 20
7.4081008076
 40
0.1864258755
100
AcDbArc
 50
110.0263369115
 51
112.3769744588
  0
ARC
  5
311
100
AcDbEntity
  8
0
100
AcDbCircle
 62
7
  6
CONTINUOUS
 10
8.6725267748
 20
7.6132402901
 40
0.1
100
AcDbArc
 50
113.5781784782
 51
180.0
  0
ARC
  5
312
100
AcDbEntity
  8
0
100
AcDbCircle
 62
7
  6
CONTINUOUS
 10
8.4228951649
 20
11.8880101281
 40
4.3773822597
100
AcDbArc
 50
269.5102678264
 51
269.895286496
  0
ARC
  5
313
100
AcDbEntity
  8
0
100
AcDbCircle
 62
7
  6
CONTINUOUS
 10
8.2490628696
 20
10.3722275181
 40
1.0381573242
100
AcDbArc
 50
2.3161818841
 51
2.4402776091
  0
ARC
  5
314
100
AcDbEntity
  8
0
100
AcDbCircle
 62
7
  6
CONTINUOUS
 10
9.0504414708
 20
7.2807452987
 40
0.726
100
AcDbArc
 50
164.4892346395
 51
177.6991450868
  0
ARC
  5
315
100
AcDbEntity
  8
0
100
AcDbCircle
 62
7
  6
CONTINUOUS
 10
8.7632563011
 20
7.2671673979
 40
0.3319990401
100
AcDbArc
 50
95.4167782065
 51
98.55865632
  0
ARC
  5
316
100
AcDbEntity
  8
0
100
AcDbCircle
 62
7
  6
CONTINUOUS
 10
9.4327990322
 20
7.2870592712
 40
0.310685858
100
AcDbArc
 50
130.5862170148
 51
137.1500366852
  0
ARC
  5
317
100
AcDbEntity
  8
0
100
AcDbCircle
 62
7
  6
CONTINUOUS
 10
8.869853191
 20
7.2964216657
 40
0.304144612
100
AcDbArc
 50
106.9045574604
 51
107.3548851471
  0
ARC
  5
318
100
AcDbEntity
  8
0
100
AcDbCircle
 62
7
  6
CONTINUOUS
 10
9.1250694621
 20
7.2979245274
 40
0.2990021066
100
AcDbArc
 50
97.2432880327
 51
98.2081966042
  0
ARC
  5
319
100
AcDbEntity
  8
0
100
AcDbCircle
 62
7
  6
CONTINUOUS
 10
9.5443149707
 20
7.3049760311
 40
0.294105145
100
AcDbArc
 50
95.5873661799
 51
96.4111362612
  0
ARC
  5
31A
100
AcDbEntity
  8
0
100
AcDbCircle
 62
7
  6
CONTINUOUS
 10
9.1168189169
 20
7.2971973351
 40
0.2905505844
100
AcDbArc
 50
114.6343787347
 51
130.2444094935
  0
ARC
  5
31B
100
AcDbEntity
  8
0
100
AcDbCircle
 62
7
  6
CONTINUOUS
 10
9.1114369053
 20
7.3033165681
 40
0.2824027978
100
AcDbArc
 50
130.2130152504
 51
136.3204579207
  0
ARC
  5
31C
100
AcDbEntity
  8
0
100
AcDbCircle
 62
7
  6
CONTINUOUS
 10
9.3061577075
 20
7.3329636029
 40
0.273763316
100
AcDbArc
 50
119.8222172641
 51
121.0468117478
  0
ARC
  5
31D
100
AcDbEntity
  8
0
100
AcDbCircle
 62
7
  6
CONTINUOUS
 10
8.8497061326
 20
7.3218408069
 40
0.2717550008
100
AcDbArc
 50
131.6016615915
 51
135.9958518684
  0
ARC
  5
31E
100
AcDbEntity
  8
0
100
AcDbCircle
 62
7
  6
CONTINUOUS
 10
8.9705072186
 20
7.3120694307
 40
0.2712689086
100
AcDbArc
 50
128.7441504289
 51
136.6295651027
  0
ARC
  5
31F
100
AcDbEntity
  8
0
100
AcDbCircle
 62
7
  6
CONTINUOUS
 10
9.3047834575
 20
7.3353520532
 40
0.271007733
100
AcDbArc
 50
119.6003475006
 51
119.8212742391
  0
ARC
  5
320
100
AcDbEntity
  8
0
100
AcDbCircle
 62
7
  6
CONTINUOUS
 10
8.8577762797
 20
7.3155503712
 40
0.2678082767
100
AcDbArc
 50
123.3050232719
 51
132.0477266985
  0
ARC
  5
321
100
AcDbEntity
  8
0
100
AcDbCircle
 62
7
  6
CONTINUOUS
 10
9.1384071872
 20
7.3411930672
 40
0.261651972
100
AcDbArc
 50
113.8571406996
 51
114.3912504447
  0
ARC
  5
322
100
AcDbEntity
  8
0
100
AcDbCircle
 62
7
  6
CONTINUOUS
 10
8.8504670287
 20
7.3241106055
 40
0.2565563717
100
AcDbArc
 50
132.1159429883
 51
132.7791145317
  0
ARC
  5
323
100
AcDbEntity
  8
0
100
AcDbCircle
 62
7
  6
CONTINUOUS
 10
8.8463260425
 20
7.328527415
 40
0.2505020868
100
AcDbArc
 50
132.7700549236
 51
137.3177515186
  0
ARC
  5
324
100
AcDbEntity
  8
0
100
AcDbCircle
 62
7
  6
CONTINUOUS
 10
8.8775248867
 20
7.655133135
 40
0.25
100
AcDbArc
 50
130.6208291883
 51
168.5194848001
  0
ARC
  5
325
100
AcDbEntity
  8
0
100
AcDbCircle
 62
7
  6
CONTINUOUS
 10
9.4523901167
 20
8.8529913047
 40
0.25
100
AcDbArc
 50
108.6298701201
 51
178.1054547175
  0
ARC
  5
326
100
AcDbEntity
  8
0
100
AcDbCircle
 62
7
  6
CONTINUOUS
 10
9.6198943806
 20
9.0537080011
 40
0.25
100
AcDbArc
 50
135.1918438317
 51
171.6780538141
  0
ARC
  5
327
100
AcDbEntity
  8
0
100
AcDbCircle
 62
7
  6
CONTINUOUS
 10
9.4338590834
 20
7.373960899
 40
0.2318529249
100
AcDbArc
 50
117.0297710457
 51
119.2858373786
  0
ARC
  5
328
100
AcDbEntity
  8
0
100
AcDbCircle
 62
7
  6
CONTINUOUS
 10
9.5319659925
 20
7.3557017031
 40
0.2286439198
100
AcDbArc
 50
96.2104382483
 51
97.6873319247
  0
ARC
  5
329
100
AcDbEntity
  8
0
100
AcDbCircle
 62
7
  6
CONTINUOUS
 10
9.7105308441
 20
7.4560649925
 40
0.1394197414
100
AcDbArc
 50
102.9580119377
 51
103.5441324979
  0
ARC
  5
32A
100
AcDbEntity
  8
0
100
AcDbCircle
 62
7
  6
CONTINUOUS
 10
9.5464290869
 20
7.5156670859
 40
0.0781210961
100
AcDbArc
 50
110.9160914528
 51
112.2220191564
  0
ARC
  5
32B
100
AcDbEntity
  8
0
100
AcDbCircle
 62
7
  6
CONTINUOUS
 10
9.5435390973
 20
7.5227016661
 40
0.0705160245
100
AcDbArc
 50
112.2099269747
 51
115.6881121108
  0
ARC
  5
32C
100
AcDbEntity
  8
0
100
AcDbCircle
 62
7
  6
CONTINUOUS
 10
9.3560013145
 20
9.5354820895
 40
0.06
100
AcDbArc
 50
348.8431825532
 51
19.2900462192
  0
ARC
  5
32D
100
AcDbEntity
  8
0
100
AcDbCircle
 62
9
  6
CONTINUOUS
 10
9.0632765056
 20
10.2948842985
 40
0.7428197504
100
AcDbArc
 50
357.0344852245
 51
2.9666997654
  0
ARC
  5
32E
100
AcDbEntity
  8
0
100
AcDbCircle
 62
7
  6
CONTINUOUS
 10
8.8514712345
 20
10.3993758098
 40
0.5327207755
100
AcDbArc
 50
339.4483511381
 51
340.0268491813
  0
ARC
  5
32F
100
AcDbEntity
  8
0
100
AcDbCircle
 62
7
  6
CONTINUOUS
 10
8.79220896
 20
10.2978782767
 40
0.5265009793
100
AcDbArc
 50
347.2907055716
 51
348.3294345071
  0
ARC
  5
330
100
AcDbEntity
  8
0
100
AcDbCircle
 62
7
  6
CONTINUOUS
 10
9.0222334636
 20
10.3742495496
 40
0.3595040713
100
AcDbArc
 50
358.5576829621
 51
358.9464503021
  0
ARC
  5
331
100
AcDbEntity
  8
0
100
AcDbCircle
 62
7
  6
CONTINUOUS
 10
9.1283345469
 20
10.385609431
 40
0.3417856389
100
AcDbArc
 50
331.5201844813
 51
332.9180621493
  0
ARC
  5
332
100
AcDbEntity
  8
0
100
AcDbCircle
 62
7
  6
CONTINUOUS
 10
9.206470908
 20
10.3744041791
 40
0.2627564052
100
AcDbArc
 50
356.81080656
 51
358.5243332191
  0
ARC
  5
333
100
AcDbEntity
  8
0
100
AcDbCircle
 62
7
  6
CONTINUOUS
 10
9.4575267748
 20
9.9846277163
 40
0.06
100
AcDbArc
 50
180.0
 51
207.5972958681
  0
ARC
  5
334
100
AcDbEntity
  8
0
100
AcDbCircle
 62
7
  6
CONTINUOUS
 10
9.3885752544
 20
9.8574979308
 40
0.06
100
AcDbArc
 50
336.5290068818
 51
27.5972958681
  0
ARC
  5
335
100
AcDbEntity
  8
0
100
AcDbCircle
 62
7
  6
CONTINUOUS
 10
9.436918278
 20
9.6675413955
 40
0.06
100
AcDbArc
 50
156.5290068818
 51
199.2900462186
  0
ARC
  5
336
100
AcDbEntity
  8
0
100
AcDbCircle
 62
7
  6
CONTINUOUS
 10
9.7185462758
 20
10.2194251594
 40
0.2864285888
100
AcDbArc
 50
173.3304569484
 51
177.8824166888
  0
ARC
  5
337
100
AcDbEntity
  8
0
100
AcDbCircle
 62
7
  6
CONTINUOUS
 10
9.7165809773
 20
10.2195012928
 40
0.2844618192
100
AcDbArc
 50
177.8831141663
 51
179.7226263371
  0
ARC
  5
338
100
AcDbEntity
  8
0
100
AcDbCircle
 62
7
  6
CONTINUOUS
 10
9.6262199507
 20
10.2392672174
 40
0.2751860715
100
AcDbArc
 50
153.8214337263
 51
185.0723510863
  0
ARC
  5
339
100
AcDbEntity
  8
0
100
AcDbCircle
 62
7
  6
CONTINUOUS
 10
9.6254389684
 20
10.239726138
 40
0.2742864307
100
AcDbArc
 50
143.1555158247
 51
152.3294072814
  0
ARC
  5
33A
100
AcDbEntity
  8
0
100
AcDbCircle
 62
7
  6
CONTINUOUS
 10
9.6249514751
 20
10.2399804759
 40
0.2737365796
100
AcDbArc
 50
152.3291695106
 51
153.8382532318
  0
ARC
  5
33B
100
AcDbEntity
  8
0
100
AcDbCircle
 62
7
  6
CONTINUOUS
 10
9.5601772673
 20
10.2630613359
 40
0.2638864481
100
AcDbArc
 50
155.5913918081
 51
157.4060665524
  0
ARC
  5
33C
100
AcDbEntity
  8
0
100
AcDbCircle
 62
7
  6
CONTINUOUS
 10
9.5585738777
 20
10.2638198831
 40
0.2621129054
100
AcDbArc
 50
148.0324218326
 51
155.5975479625
  0
ARC
  5
33D
100
AcDbEntity
  8
0
100
AcDbCircle
 62
7
  6
CONTINUOUS
 10
9.5241250293
 20
10.2801315144
 40
0.2574783898
100
AcDbArc
 50
155.030158795
 51
158.3584892527
  0
ARC
  5
33E
100
AcDbEntity
  8
0
100
AcDbCircle
 62
7
  6
CONTINUOUS
 10
9.5205902543
 20
10.2817554647
 40
0.2535884743
100
AcDbArc
 50
152.6847929482
 51
155.0256368156
  0
ARC
  5
33F
100
AcDbEntity
  8
0
100
AcDbCircle
 62
7
  6
CONTINUOUS
 10
9.5022391693
 20
10.2912545589
 40
0.2508653997
100
AcDbArc
 50
155.4836086034
 51
156.6907623493
  0
ARC
  5
340
100
AcDbEntity
  8
0
100
AcDbCircle
 62
7
  6
CONTINUOUS
 10
9.4982423904
 20
10.3004004476
 40
0.2497570546
100
AcDbArc
 50
158.3805945327
 51
158.6988809089
  0
ARC
  5
341
100
AcDbEntity
  8
0
100
AcDbCircle
 62
7
  6
CONTINUOUS
 10
9.6027454624
 20
10.3571790321
 40
0.2241557894
100
AcDbArc
 50
308.7727764509
 51
310.2183263035
  0
ARC
  5
342
100
AcDbEntity
  8
0
100
AcDbCircle
 62
7
  6
CONTINUOUS
 10
9.3610917843
 20
10.3744026486
 40
0.2199320655
100
AcDbArc
 50
356.1870457032
 51
358.2375831956
  0
ARC
  5
343
100
AcDbEntity
  8
0
100
AcDbCircle
 62
7
  6
CONTINUOUS
 10
9.5029766075
 20
10.3744006522
 40
0.2043975885
100
AcDbArc
 50
355.8961591798
 51
358.1042837403
  0
ARC
  5
344
100
AcDbEntity
  8
0
100
AcDbCircle
 62
7
  6
CONTINUOUS
 10
9.6242145285
 20
10.3317529806
 40
0.1908781539
100
AcDbArc
 50
310.2255398184
 51
312.238691734
  0
ARC
  5
345
100
AcDbEntity
  8
0
100
AcDbCircle
 62
7
  6
CONTINUOUS
 10
9.3248763499
 20
10.3690648289
 40
0.0632893911
100
AcDbArc
 50
143.8996677383
 51
152.5422259818
  0
ARC
  5
346
100
AcDbEntity
  8
0
100
AcDbCircle
 62
7
  6
CONTINUOUS
 10
9.331415494
 20
10.3691426735
 40
0.0631227963
100
AcDbArc
 50
143.1112124349
 51
155.4673008767
  0
ARC
  5
347
100
AcDbEntity
  8
0
100
AcDbCircle
 62
7
  6
CONTINUOUS
 10
9.3512797994
 20
10.3691862877
 40
0.0630361761
100
AcDbArc
 50
128.6772545468
 51
152.6737004548
  0
ARC
  5
348
100
AcDbEntity
  8
0
100
AcDbCircle
 62
7
  6
CONTINUOUS
 10
9.3896479363
 20
10.3692017802
 40
0.0630116431
100
AcDbArc
 50
132.6825061128
 51
148.000116271
  0
ARC
  5
349
100
AcDbEntity
  8
0
100
AcDbCircle
 62
7
  6
CONTINUOUS
 10
9.3636827285
 20
10.2205784284
 40
0.0630083806
100
AcDbArc
 50
192.1835372843
 51
230.484296565
  0
ARC
  5
34A
100
AcDbEntity
  8
0
100
AcDbCircle
 62
7
  6
CONTINUOUS
 10
9.3383400904
 20
10.2205773055
 40
0.0630051061
100
AcDbArc
 50
197.3889493629
 51
231.8466112975
  0
ARC
  5
34B
100
AcDbEntity
  8
0
100
AcDbCircle
 62
7
  6
CONTINUOUS
 10
9.495125265
 20
10.22057512
 40
0.0630035035
100
AcDbArc
 50
179.7242025446
 51
203.8620923072
  0
ARC
  5
34C
100
AcDbEntity
  8
0
100
AcDbCircle
 62
7
  6
CONTINUOUS
 10
9.4148558883
 20
10.2205709671
 40
0.0629924221
100
AcDbArc
 50
185.1309553411
 51
223.6604438844
  0
ARC
  5
34D
100
AcDbEntity
  8
0
100
AcDbCircle
 62
7
  6
CONTINUOUS
 10
9.3258733798
 20
10.2205645623
 40
0.062984352
100
AcDbArc
 50
202.6482580478
 51
232.3332934711
  0
ARC
  5
34E
100
AcDbEntity
  8
0
100
AcDbCircle
 62
7
  6
CONTINUOUS
 10
9.3245484918
 20
10.3692783353
 40
0.0628986915
100
AcDbArc
 50
127.6168607371
 51
143.8808444105
  0
ARC
  5
34F
100
AcDbEntity
  8
0
100
AcDbCircle
 62
7
  6
CONTINUOUS
 10
9.3311673926
 20
10.3693464127
 40
0.0628020685
100
AcDbArc
 50
127.874864475
 51
143.1240074978
  0
ARC
  5
350
100
AcDbEntity
  8
0
100
AcDbCircle
 62
7
  6
CONTINUOUS
 10
9.3244344498
 20
10.3692778778
 40
0.0627990367
100
AcDbArc
 50
152.5288062045
 51
158.3754158427
  0
ARC
  5
351
100
AcDbEntity
  8
0
100
AcDbCircle
 62
7
  6
CONTINUOUS
 10
9.3254580015
 20
10.2204182659
 40
0.0625446753
100
AcDbArc
 50
200.338499039
 51
202.6711012689
  0
ARC
  5
352
100
AcDbEntity
  8
0
100
AcDbCircle
 62
7
  6
CONTINUOUS
 10
9.6225267748
 20
10.689891804
 40
0.02
100
AcDbArc
 50
90.0
 51
180.0
  0
ARC
  5
353
100
AcDbEntity
  8
0
100
AcDbCircle
 62
7
  6
CONTINUOUS
 10
9.5475267748
 20
10.649891804
 40
0.02
100
AcDbArc
 50
90.0
 51
180.0
  0
ARC
  5
354
100
AcDbEntity
  8
0
100
AcDbCircle
 62
7
  6
CONTINUOUS
 10
9.4675267748
 20
10.599891804
 40
0.02
100
AcDbArc
 50
90.0
 51
180.0
  0
ARC
  5
355
100
AcDbEntity
  8
0
100
AcDbCircle
 62
7
  6
CONTINUOUS
 10
8.5822454156
 20
30.0897978646
 40
22.5791815605
100
AcDbArc
 50
269.7767080806
 51
269.925916288
  0
ARC
  5
356
100
AcDbEntity
  8
0
100
AcDbCircle
 62
7
  6
CONTINUOUS
 10
8.4920843764
 20
19.2294994903
 40
11.7188784838
100
AcDbArc
 50
269.7160972125
 51
269.9214799587
  0
ARC
  5
357
100
AcDbEntity
  8
0
100
AcDbCircle
 62
7
  6
CONTINUOUS
 10
10.4446120787
 20
7.2807452987
 40
0.726
100
AcDbArc
 50
2.3008549132
 51
15.5107653605
  0
ARC
  5
358
100
AcDbEntity
  8
0
100
AcDbCircle
 62
7
  6
CONTINUOUS
 10
9.8643675326
 20
7.1312157945
 40
0.4667421172
100
AcDbArc
 50
91.9449346097
 51
93.3643195907
  0
ARC
  5
359
100
AcDbEntity
  8
0
100
AcDbCircle
 62
7
  6
CONTINUOUS
 10
10.1802979763
 20
7.3845154043
 40
0.2810285194
100
AcDbArc
 50
139.3797252002
 51
140.8190741813
  0
ARC
  5
35A
100
AcDbEntity
  8
0
100
AcDbCircle
 62
7
  6
CONTINUOUS
 10
10.6175286628
 20
7.655133135
 40
0.25
100
AcDbArc
 50
11.4805151999
 51
49.3791708117
  0
ARC
  5
35B
100
AcDbEntity
  8
0
100
AcDbCircle
 62
7
  6
CONTINUOUS
 10
10.0426634328
 20
8.8529913047
 40
0.25
100
AcDbArc
 50
1.8945452825
 51
71.3701298799
  0
ARC
  5
35C
100
AcDbEntity
  8
0
100
AcDbCircle
 62
7
  6
CONTINUOUS
 10
9.999328821
 20
7.4702297418
 40
0.1139595076
100
AcDbArc
 50
98.4521754579
 51
100.4823671362
  0
ARC
  5
35D
100
AcDbEntity
  8
0
100
AcDbCircle
 62
7
  6
CONTINUOUS
 10
10.7035738368
 20
7.5415706386
 40
0.0872640246
100
AcDbArc
 50
17.4436488082
 51
17.9447647727
  0
ARC
  5
35E
100
AcDbEntity
  8
0
100
AcDbCircle
 62
7
  6
CONTINUOUS
 10
10.0170557955
 20
7.5315387303
 40
0.0626524374
100
AcDbArc
 50
110.724261835
 51
112.4174136574
  0
ARC
  5
35F
100
AcDbEntity
  8
0
100
AcDbCircle
 62
9
  6
CONTINUOUS
 10
9.7477704372
 20
9.7858931974
 40
0.6669088438
100
AcDbArc
 50
86.6034061695
 51
90.0209502307
  0
ARC
  5
360
100
AcDbEntity
  8
0
100
AcDbCircle
 62
9
  6
CONTINUOUS
 10
9.7477243562
 20
10.8027792833
 40
0.6657985393
100
AcDbArc
 50
269.9764813458
 51
273.4063828239
  0
ARC
  5
361
100
AcDbEntity
  8
0
100
AcDbCircle
 62
9
  6
CONTINUOUS
 10
9.8183521815
 20
10.0051544054
 40
0.3284418047
100
AcDbArc
 50
92.3123181957
 51
95.266584708
  0
ARC
  5
362
100
AcDbEntity
  8
0
100
AcDbCircle
 62
7
  6
CONTINUOUS
 10
9.8751591689
 20
9.0537080011
 40
0.25
100
AcDbArc
 50
8.3219461859
 51
44.8081561683
  0
ARC
  5
363
100
AcDbEntity
  8
0
100
AcDbCircle
 62
7
  6
CONTINUOUS
 10
9.7674755102
 20
10.2153969715
 40
0.2316795286
100
AcDbArc
 50
176.3853429807
 51
178.3308506884
  0
ARC
  5
364
100
AcDbEntity
  8
0
100
AcDbCircle
 62
7
  6
CONTINUOUS
 10
9.8655800646
 20
10.2153844855
 40
0.2077651618
100
AcDbArc
 50
175.9666884401
 51
178.1350398194
  0
ARC
  5
365
100
AcDbEntity
  8
0
100
AcDbCircle
 62
7
  6
CONTINUOUS
 10
9.8627048126
 20
10.2676429928
 40
0.1782859385
100
AcDbArc
 50
128.4069318749
 51
130.2612531607
  0
ARC
  5
366
100
AcDbEntity
  8
0
100
AcDbCircle
 62
7
  6
CONTINUOUS
 10
10.1064782951
 20
9.8574979308
 40
0.06
100
AcDbArc
 50
152.4027041319
 51
203.4709931182
  0
ARC
  5
367
100
AcDbEntity
  8
0
100
AcDbCircle
 62
7
  6
CONTINUOUS
 10
10.0375267748
 20
9.9846277163
 40
0.06
100
AcDbArc
 50
332.4027041319
 51
360.0
  0
ARC
  5
368
100
AcDbEntity
  8
0
100
AcDbCircle
 62
7
  6
CONTINUOUS
 10
10.0581352715
 20
9.6675413955
 40
0.06
100
AcDbArc
 50
340.7099537814
 51
23.4709931182
  0
ARC
  5
369
100
AcDbEntity
  8
0
100
AcDbCircle
 62
7
  6
CONTINUOUS
 10
10.139052235
 20
9.5354820895
 40
0.06
100
AcDbArc
 50
160.7099537808
 51
191.1568174468
  0
ARC
  5
36A
100
AcDbEntity
  8
0
100
AcDbCircle
 62
7
  6
CONTINUOUS
 10
9.7821814722
 20
10.3692090426
 40
0.0486723741
100
AcDbArc
 50
127.5368568175
 51
128.4040978654
  0
ARC
  5
36B
100
AcDbEntity
  8
0
100
AcDbCircle
 62
7
  6
CONTINUOUS
 10
9.8725267748
 20
10.689891804
 40
0.02
100
AcDbArc
 50
0.0
 51
90.0
  0
ARC
  5
36C
100
AcDbEntity
  8
0
100
AcDbCircle
 62
7
  6
CONTINUOUS
 10
9.9475267748
 20
10.649891804
 40
0.02
100
AcDbArc
 50
0.0
 51
90.0
  0
ARC
  5
36D
100
AcDbEntity
  8
0
100
AcDbCircle
 62
7
  6
CONTINUOUS
 10
10.0275267748
 20
10.599891804
 40
0.02
100
AcDbArc
 50
0.0
 51
90.0
  0
ARC
  5
36E
100
AcDbEntity
  8
0
100
AcDbCircle
 62
7
  6
CONTINUOUS
 10
10.8438106202
 20
7.463385253
 40
0.1557403546
100
AcDbArc
 50
13.0149863713
 51
15.2422839013
  0
ARC
  5
36F
100
AcDbEntity
  8
0
100
AcDbCircle
 62
7
  6
CONTINUOUS
 10
10.8507898413
 20
7.4652801938
 40
0.1485084612
100
AcDbArc
 50
15.2448164413
 51
18.6270596164
  0
ARC
  5
370
100
AcDbEntity
  8
0
100
AcDbCircle
 62
7
  6
CONTINUOUS
 10
10.8623836382
 20
7.4655261259
 40
0.1447044447
100
AcDbArc
 50
57.3938243651
 51
59.8164256924
  0
ARC
  5
371
100
AcDbEntity
  8
0
100
AcDbCircle
 62
7
  6
CONTINUOUS
 10
10.8676821107
 20
7.4745063826
 40
0.1342778317
100
AcDbArc
 50
59.8441938376
 51
60.7856294086
  0
ARC
  5
372
100
AcDbEntity
  8
0
100
AcDbCircle
 62
7
  6
CONTINUOUS
 10
10.8871657991
 20
7.5086850274
 40
0.095241003
100
AcDbArc
 50
38.8720424017
 51
43.1537479458
  0
ARC
  5
373
100
AcDbEntity
  8
0
100
AcDbCircle
 62
7
  6
CONTINUOUS
 10
10.8897221911
 20
7.5110142929
 40
0.0917829538
100
AcDbArc
 50
43.1844722315
 51
43.7880798066
  0
ARC
  5
374
100
AcDbEntity
  8
0
100
AcDbCircle
 62
7
  6
CONTINUOUS
 10
10.9222069289
 20
7.4172823266
 40
0.1893907556
100
AcDbArc
 50
63.1454005343
 51
67.3903630019
  0
ARC
  5
375
100
AcDbEntity
  8
0
100
AcDbCircle
 62
7
  6
CONTINUOUS
 10
10.9756285277
 20
7.4130135884
 40
0.1871193873
100
AcDbArc
 50
31.4605927049
 51
32.599730782
  0
ARC
  5
376
100
AcDbEntity
  8
0
100
AcDbCircle
 62
7
  6
CONTINUOUS
 10
10.9774396868
 20
7.4167347569
 40
0.1829779332
100
AcDbArc
 50
69.1700750188
 51
73.2025685713
  0
ARC
  5
377
100
AcDbEntity
  8
0
100
AcDbCircle
 62
7
  6
CONTINUOUS
 10
10.9777016077
 20
7.4173678478
 40
0.1822930843
100
AcDbArc
 50
67.8839397481
 51
69.1762598244
  0
ARC
  5
378
100
AcDbEntity
  8
0
100
AcDbCircle
 62
7
  6
CONTINUOUS
 10
10.9785730683
 20
7.4204225517
 40
0.179119954
100
AcDbArc
 50
73.2087393338
 51
73.4451998581
  0
ARC
  5
379
100
AcDbEntity
  8
0
100
AcDbCircle
 62
7
  6
CONTINUOUS
 10
10.9786713096
 20
7.4207512408
 40
0.1787768977
100
AcDbArc
 50
73.4453648338
 51
73.9233419684
  0
ARC
  5
37A
100
AcDbEntity
  8
0
100
AcDbCircle
 62
7
  6
CONTINUOUS
 10
10.9771446526
 20
7.4222133072
 40
0.177807424
100
AcDbArc
 50
68.3749454291
 51
72.8161017212
  0
ARC
  5
37B
100
AcDbEntity
  8
0
100
AcDbCircle
 62
7
  6
CONTINUOUS
 10
10.9772823288
 20
7.4223102104
 40
0.1776767055
100
AcDbArc
 50
77.0520217115
 51
79.865937788
  0
ARC
  5
37C
100
AcDbEntity
  8
0
100
AcDbCircle
 62
7
  6
CONTINUOUS
 10
10.9606755968
 20
7.4255335909
 40
0.1773073522
100
AcDbArc
 50
60.9191529164
 51
63.283338731
  0
ARC
  5
37D
100
AcDbEntity
  8
0
100
AcDbCircle
 62
7
  6
CONTINUOUS
 10
10.9775410221
 20
7.4234030359
 40
0.1765537019
100
AcDbArc
 50
72.8249232724
 51
77.054374627
  0
ARC
  5
37E
100
AcDbEntity
  8
0
100
AcDbCircle
 62
7
  6
CONTINUOUS
 10
10.9787294378
 20
7.4261971919
 40
0.1735199008
100
AcDbArc
 50
67.0927822086
 51
68.3766146875
  0
ARC
  5
37F
100
AcDbEntity
  8
0
100
AcDbCircle
 62
7
  6
CONTINUOUS
 10
10.962570459
 20
7.4294410236
 40
0.1729651965
100
AcDbArc
 50
63.2620950135
 51
67.2736306269
  0
ARC
  5
380
100
AcDbEntity
  8
0
100
AcDbCircle
 62
7
  6
CONTINUOUS
 10
10.978948098
 20
7.4267158877
 40
0.1729569999
100
AcDbArc
 50
66.0444436355
 51
67.0926227924
  0
ARC
  5
381
100
AcDbEntity
  8
0
100
AcDbCircle
 62
7
  6
CONTINUOUS
 10
10.9793184319
 20
7.4275375218
 40
0.172055775
100
AcDbArc
 50
63.7138568542
 51
66.0460511258
  0
ARC
  5
382
100
AcDbEntity
  8
0
100
AcDbCircle
 62
7
  6
CONTINUOUS
 10
10.9796631694
 20
7.4282368733
 40
0.1712760724
100
AcDbArc
 50
62.3213607077
 51
63.7136489767
  0
ARC
  5
383
100
AcDbEntity
  8
0
100
AcDbCircle
 62
7
  6
CONTINUOUS
 10
10.9800302996
 20
7.4308452247
 40
0.169086971
100
AcDbArc
 50
28.1567826926
 51
33.2510602681
  0
ARC
  5
384
100
AcDbEntity
  8
0
100
AcDbCircle
 62
7
  6
CONTINUOUS
 10
10.9622256781
 20
7.4398874881
 40
0.1653387098
100
AcDbArc
 50
25.392464674
 51
26.9039246334
  0
ARC
  5
385
100
AcDbEntity
  8
0
100
AcDbCircle
 62
7
  6
CONTINUOUS
 10
10.9657367524
 20
7.437049359
 40
0.1647243343
100
AcDbArc
 50
67.2670674457
 51
72.9500320451
  0
ARC
  5
386
100
AcDbEntity
  8
0
100
AcDbCircle
 62
7
  6
CONTINUOUS
 10
10.9819193587
 20
7.422544656
 40
0.1604030362
100
AcDbArc
 50
28.2409795638
 51
29.4737990477
  0
ARC
  5
387
100
AcDbEntity
  8
0
100
AcDbCircle
 62
7
  6
CONTINUOUS
 10
10.9236056785
 20
7.4543988744
 40
0.1598928563
100
AcDbArc
 50
20.6416348221
 51
23.9343070895
  0
ARC
  5
388
100
AcDbEntity
  8
0
100
AcDbCircle
 62
7
  6
CONTINUOUS
 10
10.9636331103
 20
7.4417170116
 40
0.1596274949
100
AcDbArc
 50
65.8946241588
 51
70.3586915148
  0
ARC
  5
389
100
AcDbEntity
  8
0
100
AcDbCircle
 62
7
  6
CONTINUOUS
 10
10.960843439
 20
7.437104683
 40
0.1532418796
100
AcDbArc
 50
23.6016235575
 51
25.1479992347
  0
ARC
  5
38A
100
AcDbEntity
  8
0
100
AcDbCircle
 62
7
  6
CONTINUOUS
 10
10.9616330095
 20
7.4374729268
 40
0.1523706619
100
AcDbArc
 50
25.1488246707
 51
26.2072636542
  0
ARC
  5
38B
100
AcDbEntity
  8
0
100
AcDbCircle
 62
7
  6
CONTINUOUS
 10
10.9206978982
 20
7.4496830344
 40
0.1504994734
100
AcDbArc
 50
18.9047830502
 51
22.2152648016
  0
ARC
  5
38C
100
AcDbEntity
  8
0
100
AcDbCircle
 62
7
  6
CONTINUOUS
 10
10.9668202552
 20
7.4504278653
 40
0.1503522
100
AcDbArc
 50
70.3867833168
 51
74.7227059165
  0
ARC
  5
38D
100
AcDbEntity
  8
0
100
AcDbCircle
 62
7
  6
CONTINUOUS
 10
10.9248081443
 20
7.4513329418
 40
0.1460705245
100
AcDbArc
 50
22.2256977609
 51
24.9244436332
  0
ARC
  5
38E
100
AcDbEntity
  8
0
100
AcDbCircle
 62
7
  6
CONTINUOUS
 10
10.9255875719
 20
7.4588675906
 40
0.1451262576
100
AcDbArc
 50
62.4228729639
 51
65.8362628333
  0
ARC
  5
38F
100
AcDbEntity
  8
0
100
AcDbCircle
 62
7
  6
CONTINUOUS
 10
10.9688142266
 20
7.4575572348
 40
0.1429493827
100
AcDbArc
 50
74.7407365024
 51
78.5981072708
  0
ARC
  5
390
100
AcDbEntity
  8
0
100
AcDbCircle
 62
7
  6
CONTINUOUS
 10
10.9714281952
 20
7.4590409755
 40
0.1406306198
100
AcDbArc
 50
59.0817659978
 51
65.9108946344
  0
ARC
  5
391
100
AcDbEntity
  8
0
100
AcDbCircle
 62
7
  6
CONTINUOUS
 10
10.9715470899
 20
7.4592452999
 40
0.1403942398
100
AcDbArc
 50
51.0743031546
 51
59.0805478633
  0
ARC
  5
392
100
AcDbEntity
  8
0
100
AcDbCircle
 62
7
  6
CONTINUOUS
 10
10.929664333
 20
7.4677231469
 40
0.1353778592
100
AcDbArc
 50
65.8762872349
 51
66.7247954088
  0
ARC
  5
393
100
AcDbEntity
  8
0
100
AcDbCircle
 62
7
  6
CONTINUOUS
 10
10.9312102378
 20
7.4713092175
 40
0.1314727709
100
AcDbArc
 50
66.7261317935
 51
68.04432718
  0
ARC
  5
394
100
AcDbEntity
  8
0
100
AcDbCircle
 62
7
  6
CONTINUOUS
 10
10.9416084993
 20
7.4897244917
 40
0.1103626521
100
AcDbArc
 50
55.7178221336
 51
56.2242633608
  0
ARC
  5
395
100
AcDbEntity
  8
0
100
AcDbCircle
 62
7
  6
CONTINUOUS
 10
10.9421000226
 20
7.4904740652
 40
0.1094663328
100
AcDbArc
 50
56.2199940767
 51
62.4252148435
  0
ARC
  5
396
100
AcDbEntity
  8
0
100
AcDbCircle
 62
7
  6
CONTINUOUS
 10
10.8225267748
 20
7.6132402901
 40
0.1
100
AcDbArc
 50
0.0
 51
66.4218215218
  0
ARC
  5
397
100
AcDbEntity
  8
0
100
AcDbCircle
 62
7
  6
CONTINUOUS
 10
10.8076434158
 20
7.5274251896
 40
0.083252471
100
AcDbArc
 50
29.603688561
 51
32.3882165687
  0
ARC
  5
398
100
AcDbEntity
  8
0
100
AcDbCircle
 62
7
  6
CONTINUOUS
 10
10.9823340421
 20
7.423415056
 40
0.1746285021
100
AcDbArc
 50
30.0133662592
 51
30.8455043814
  0
ARC
  5
399
100
AcDbEntity
  8
0
100
AcDbCircle
 62
7
  6
CONTINUOUS
 10
11.1569567016
 20
7.5020309651
 40
0.03
100
AcDbArc
 50
206.1472811423
 51
244.7746660911
  0
ARC
  5
39A
100
AcDbEntity
  8
0
100
AcDbCircle
 62
7
  6
CONTINUOUS
 10
10.9827771637
 20
7.6028790592
 40
0.018
100
AcDbArc
 50
189.552927071
 51
198.8552970445
  0
ARC
  5
39B
100
AcDbEntity
  8
0
100
AcDbCircle
 62
7
  6
CONTINUOUS
 10
11.6917614898
 20
8.9075403505
 40
1.4
100
AcDbArc
 50
181.8945452827
 51
229.3791708116
  0
ARC
  5
39C
100
AcDbEntity
  8
0
100
AcDbCircle
 62
9
  6
CONTINUOUS
 10
10.8079645406
 20
10.4921593919
 40
1.5388740268
100
AcDbArc
 50
193.3444016996
 51
194.9100554482
  0
ARC
  5
39D
100
AcDbEntity
  8
0
100
AcDbCircle
 62
9
  6
CONTINUOUS
 10
10.8076550978
 20
10.0977020992
 40
1.5385549632
100
AcDbArc
 50
165.0897892944
 51
166.6557606526
  0
ARC
  5
39E
100
AcDbEntity
  8
0
100
AcDbCircle
 62
7
  6
CONTINUOUS
 10
11.1481960319
 20
20.9659224296
 40
13.4553663732
100
AcDbArc
 50
269.6807951845
 51
269.8074840788
  0
LINE
  5
39F
100
AcDbEntity
  8
0
100
AcDbLine
 62
7
  6
CONTINUOUS
 10
8.4892712726
 20
7.5976801358
 11
8.4916587557
 21
7.5976720084
  0
SPLINE
  5
3A0
100
AcDbEntity
  8
0
100
AcDbSpline
 62
7
  6
CONTINUOUS
 70
0
 71
3
 72
9
 73
5
 74
0
 42
0.0000001
 43
0.0000001
 44
0.0000000001
 40
0.0
 40
0.0
 40
0.0
 40
0.0
 40
0.485332185
 40
1.0
 40
1.0
 40
1.0
 40
1.0
 10
9.650891878
 20
7.5808974065
 30
0.0
 10
9.6466161543
 20
7.5782122907
 30
0.0
 10
9.6380262634
 20
7.5723250116
 30
0.0
 10
9.6298590257
 20
7.5658690516
 30
0.0
 10
9.6257591196
 20
7.5624256197
 30
0.0
  0
SPLINE
  5
3A1
100
AcDbEntity
  8
0
100
AcDbSpline
 62
7
  6
CONTINUOUS
 70
0
 71
3
 72
11
 73
7
 74
0
 42
0.0000001
 43
0.0000001
 44
0.0000000001
 40
0.0
 40
0.0
 40
0.0
 40
0.0
 40
0.2342545589
 40
0.4796084527
 40
0.7352864586
 40
1.0
 40
1.0
 40
1.0
 40
1.0
 10
9.6257591196
 20
7.5624256197
 30
0.0
 10
9.6214885355
 20
7.5588388386
 30
0.0
 10
9.6129709331
 20
7.5512230947
 30
0.0
 10
9.6005770156
 20
7.5388500104
 30
0.0
 10
9.5883414987
 20
7.5253258986
 30
0.0
 10
9.5804731177
 20
7.5157493693
 30
0.0
 10
9.5765827837
 20
7.5107913107
 30
0.0
  0
SPLINE
  5
3A2
100
AcDbEntity
  8
0
100
AcDbSpline
 62
7
  6
CONTINUOUS
 70
0
 71
3
 72
12
 73
8
 74
0
 42
0.0000001
 43
0.0000001
 44
0.0000000001
 40
0.0
 40
0.0
 40
0.0
 40
0.0
 40
0.2660345445
 40
0.3968815153
 40
0.5249466564
 40
0.7706103135
 40
1.0
 40
1.0
 40
1.0
 40
1.0
 10
9.7475267748
 20
7.597671796
 30
0.0
 10
9.7414412269
 20
7.5976717929
 30
0.0
 10
9.7323613916
 20
7.5975407943
 30
0.0
 10
9.7203628231
 20
7.5970448241
 30
0.0
 10
9.7088419603
 20
7.5963313868
 30
0.0
 10
9.6951060238
 20
7.5949701471
 30
0.0
 10
9.6843814187
 20
7.5931111723
 30
0.0
 10
9.679267787
 20
7.5919343619
 30
0.0
  0
LINE
  5
3A3
100
AcDbEntity
  8
0
100
AcDbLine
 62
7
  6
CONTINUOUS
 10
9.6778795395
 20
7.5916074456
 11
9.6707090882
 21
7.5896569898
  0
SPLINE
  5
3A4
100
AcDbEntity
  8
0
100
AcDbSpline
 62
7
  6
CONTINUOUS
 70
0
 71
3
 72
9
 73
5
 74
0
 42
0.0000001
 43
0.0000001
 44
0.0000000001
 40
0.0
 40
0.0
 40
0.0
 40
0.0
 40
0.515516389
 40
1.0
 40
1.0
 40
1.0
 40
1.0
 10
9.6707090882
 20
7.5896569898
 30
0.0
 10
9.66714101
 20
7.5885656252
 30
0.0
 10
9.6603179339
 20
7.5861011641
 30
0.0
 10
9.653861506
 20
7.582762306
 30
0.0
 10
9.650891878
 20
7.5808974065
 30
0.0
  0
LINE
  5
3A5
100
AcDbEntity
  8
0
100
AcDbLine
 62
7
  6
CONTINUOUS
 10
9.848526783
 20
7.5976891451
 11
9.7475267748
 21
7.5976721028
  0
LINE
  5
3A6
100
AcDbEntity
  8
0
100
AcDbLine
 62
7
  6
CONTINUOUS
 10
11.0058104643
 20
7.5976817849
 11
11.0048171263
 21
7.5976732382
  0
SPLINE
  5
3A7
100
AcDbEntity
  8
0
100
AcDbSpline
 62
7
  6
CONTINUOUS
 70
0
 71
3
 72
12
 73
8
 74
0
 42
0.0000001
 43
0.0000001
 44
0.0000000001
 40
0.0
 40
0.0
 40
0.0
 40
0.0
 40
0.2485635156
 40
0.3737038574
 40
0.4990187861
 40
0.7496543875
 40
1.0
 40
1.0
 40
1.0
 40
1.0
 10
9.3020935124
 20
10.2072808909
 30
0.0
 10
9.2992937654
 20
10.2202504092
 30
0.0
 10
9.2965853997
 20
10.2401164159
 30
0.0
 10
9.2959937989
 20
10.2667651513
 30
0.0
 10
9.2974314333
 20
10.2934986688
 30
0.0
 10
9.3030085064
 20
10.3265945735
 30
0.0
 10
9.311409724
 20
10.3521080809
 30
0.0
 10
9.3165438661
 20
10.3644458679
 30
0.0
  0
SPLINE
  5
3A8
100
AcDbEntity
  8
0
100
AcDbSpline
 62
7
  6
CONTINUOUS
 70
0
 71
3
 72
13
 73
9
 74
0
 42
0.0000001
 43
0.0000001
 44
0.0000000001
 40
0.0
 40
0.0
 40
0.0
 40
0.0
 40
0.1239206911
 40
0.24872799
 40
0.4991341174
 40
0.7498182549
 40
0.8750893459
 40
1.0
 40
1.0
 40
1.0
 40
1.0
 10
9.2782144444
 20
10.2017478047
 30
0.0
 10
9.2760330962
 20
10.208713696
 30
0.0
 10
9.2722616725
 20
10.2228939725
 30
0.0
 10
9.2671369441
 20
10.2518735475
 30
0.0
 10
9.2653970537
 20
10.2888912288
 30
0.0
 10
9.2699293953
 20
10.3256971597
 30
0.0
 10
9.2772278044
 20
10.3543125366
 30
0.0
 10
9.282082691
 20
10.3682500182
 30
0.0
 10
9.2847964107
 20
10.3750890497
 30
0.0
  0
SPLINE
  5
3A9
100
AcDbEntity
  8
0
100
AcDbSpline
 62
7
  6
CONTINUOUS
 70
0
 71
3
 72
13
 73
9
 74
0
 42
0.0000001
 43
0.0000001
 44
0.0000000001
 40
0.0
 40
0.0
 40
0.0
 40
0.0
 40
0.1240557602
 40
0.2490639516
 40
0.4997621535
 40
0.6253549626
 40
0.7508182602
 40
1.0
 40
1.0
 40
1.0
 40
1.0
 10
9.2668126362
 20
10.1986798774
 30
0.0
 10
9.2639900661
 20
10.2062953209
 30
0.0
 10
9.2590644691
 20
10.2218722031
 30
0.0
 10
9.2521897178
 20
10.2538961638
 30
0.0
 10
9.2499336434
 20
10.2868746937
 30
0.0
 10
9.2523540771
 20
10.3196747465
 30
0.0
 10
9.2578381211
 20
10.3519981758
 30
0.0
 10
9.2653933905
 20
10.3755384994
 30
0.0
 10
9.2718487521
 20
10.3905203861
 30
0.0
  0
SPLINE
  5
3AA
100
AcDbEntity
  8
0
100
AcDbSpline
 62
7
  6
CONTINUOUS
 70
0
 71
3
 72
13
 73
9
 74
0
 42
0.0000001
 43
0.0000001
 44
0.0000000001
 40
0.0
 40
0.0
 40
0.0
 40
0.0
 40
0.1248506465
 40
0.2500944677
 40
0.5007793728
 40
0.7512229571
 40
0.8760588319
 40
1.0
 40
1.0
 40
1.0
 40
1.0
 10
9.2604187968
 20
10.2182776338
 30
0.0
 10
9.2581754209
 20
10.2252580049
 30
0.0
 10
9.254276479
 20
10.2394410802
 30
0.0
 10
9.2489306233
 20
10.2683888807
 30
0.0
 10
9.2468936298
 20
10.3053060786
 30
0.0
 10
9.2511235849
 20
10.3420145747
 30
0.0
 10
9.2581875373
 20
10.3704972045
 30
0.0
 10
9.2629036063
 20
10.3843482007
 30
0.0
 10
9.2655477056
 20
10.39112955
 30
0.0
  0
SPLINE
  5
3AB
100
AcDbEntity
  8
0
100
AcDbSpline
 62
7
  6
CONTINUOUS
 70
0
 71
3
 72
13
 73
9
 74
0
 42
0.0000001
 43
0.0000001
 44
0.0000000001
 40
0.0
 40
0.0
 40
0.0
 40
0.0
 40
0.1002572406
 40
0.2081917089
 40
0.3235206596
 40
0.4459447094
 40
0.7109356322
 40
1.0
 40
1.0
 40
1.0
 40
1.0
 10
9.8380381439
 20
7.5862483789
 30
0.0
 10
9.8351568152
 20
7.5843051751
 30
0.0
 10
9.8293273517
 20
7.5800392933
 30
0.0
 10
9.8207043223
 20
7.5728602002
 30
0.0
 10
9.8119197743
 20
7.5647021475
 30
0.0
 10
9.7997288604
 20
7.5522408256
 30
0.0
 10
9.7844447454
 20
7.5344221098
 30
0.0
 10
9.772988906
 20
7.5189878195
 30
0.0
 10
9.7672632102
 20
7.510764585
 30
0.0
  0
SPLINE
  5
3AC
100
AcDbEntity
  8
0
100
AcDbSpline
 62
7
  6
CONTINUOUS
 70
0
 71
3
 72
11
 73
7
 74
0
 42
0.0000001
 43
0.0000001
 44
0.0000000001
 40
0.0
 40
0.0
 40
0.0
 40
0.0
 40
0.2822933205
 40
0.5471186111
 40
0.7872307558
 40
1.0
 40
1.0
 40
1.0
 40
1.0
 10
9.9052399632
 20
7.597671796
 30
0.0
 10
9.9000799415
 20
7.5976717942
 30
0.0
 10
9.890078267
 20
7.5975046707
 30
0.0
 10
9.8757064201
 20
7.5966629523
 30
0.0
 10
9.8626742415
 20
7.5950755333
 30
0.0
 10
9.8545680144
 20
7.5932683489
 30
0.0
 10
9.850852973
 20
7.592117563
 30
0.0
  0
LINE
  5
3AD
100
AcDbEntity
  8
0
100
AcDbLine
 62
7
  6
CONTINUOUS
 10
9.850852973
 20
7.592117563
 11
9.8453778279
 21
7.590143134
  0
SPLINE
  5
3AE
100
AcDbEntity
  8
0
100
AcDbSpline
 62
7
  6
CONTINUOUS
 70
0
 71
3
 72
9
 73
5
 74
0
 42
0.0000001
 43
0.0000001
 44
0.0000000001
 40
0.0
 40
0.0
 40
0.0
 40
0.0
 40
0.2608300703
 40
1.0
 40
1.0
 40
1.0
 40
1.0
 10
9.8453778279
 20
7.590143134
 30
0.0
 10
9.8447108437
 20
7.5898639879
 30
0.0
 10
9.8421764805
 20
7.588741551
 30
0.0
 10
9.8397369507
 20
7.5873940753
 30
0.0
 10
9.8380381439
 20
7.5862483789
 30
0.0
  0
LINE
  5
3AF
100
AcDbEntity
  8
0
100
AcDbLine
 62
7
  6
CONTINUOUS
 10
9.9930145622
 20
7.5976855443
 11
9.9052399856
 21
7.5976720088
  0
SPLINE
  5
3B0
100
AcDbEntity
  8
0
100
AcDbSpline
 62
7
  6
CONTINUOUS
 70
0
 71
3
 72
9
 73
5
 74
0
 42
0.0000001
 43
0.0000001
 44
0.0000000001
 40
0.0
 40
0.0
 40
0.0
 40
0.0
 40
0.4807237348
 40
1.0
 40
1.0
 40
1.0
 40
1.0
 10
9.9790587591
 20
7.5804886469
 30
0.0
 10
9.977030847
 20
7.5784934102
 30
0.0
 10
9.9729184765
 20
7.5742344746
 30
0.0
 10
9.9689868509
 20
7.5698092731
 30
0.0
 10
9.9669858147
 20
7.5674770136
 30
0.0
  0
SPLINE
  5
3B1
100
AcDbEntity
  8
0
100
AcDbSpline
 62
7
  6
CONTINUOUS
 70
0
 71
3
 72
11
 73
7
 74
0
 42
0.0000001
 43
0.0000001
 44
0.0000000001
 40
0.0
 40
0.0
 40
0.0
 40
0.0
 40
0.2249486304
 40
0.4674139009
 40
0.7263016376
 40
1.0
 40
1.0
 40
1.0
 40
1.0
 10
9.9624573556
 20
7.5620611526
 30
0.0
 10
9.9594947947
 20
7.5584294518
 30
0.0
 10
9.9535109604
 20
7.5507420598
 30
0.0
 10
9.9446683481
 20
7.5384585224
 30
0.0
 10
9.9356687519
 20
7.525047594
 30
0.0
 10
9.9297588182
 20
7.5156539425
 30
0.0
 10
9.9267863767
 20
7.5107874262
 30
0.0
  0
SPLINE
  5
3B2
100
AcDbEntity
  8
0
100
AcDbSpline
 62
7
  6
CONTINUOUS
 70
0
 71
3
 72
14
 73
10
 74
0
 42
0.0000001
 43
0.0000001
 44
0.0000000001
 40
0.0
 40
0.0
 40
0.0
 40
0.0
 40
0.28998674
 40
0.4265357688
 40
0.556024274
 40
0.6781290244
 40
0.7926935487
 40
0.8998321555
 40
1.0
 40
1.0
 40
1.0
 40
1.0
 10
10.0604659204
 20
7.597671796
 30
0.0
 10
10.0540553884
 20
7.5976717941
 30
0.0
 10
10.0446240355
 20
7.5975201524
 30
0.0
 10
10.0323475858
 20
7.5968863993
 30
0.0
 10
10.0237935886
 20
7.5961934778
 30
0.0
 10
10.0157541763
 20
7.5952307584
 30
0.0
 10
10.0082573567
 20
7.5939563755
 30
0.0
 10
10.001326207
 20
7.5923245932
 30
0.0
 10
9.9969559041
 20
7.5909209839
 30
0.0
 10
9.9948849196
 20
7.5901371959
 30
0.0
  0
SPLINE
  5
3B3
100
AcDbEntity
  8
0
100
AcDbSpline
 62
7
  6
CONTINUOUS
 70
0
 71
3
 72
9
 73
5
 74
0
 42
0.0000001
 43
0.0000001
 44
0.0000000001
 40
0.0
 40
0.0
 40
0.0
 40
0.0
 40
0.5174189618
 40
1.0
 40
1.0
 40
1.0
 40
1.0
 10
9.9931632038
 20
7.5894565339
 30
0.0
 10
9.9904861521
 20
7.5883512788
 30
0.0
 10
9.9854523632
 20
7.5858379718
 30
0.0
 10
9.9809842695
 20
7.5823831319
 30
0.0
 10
9.9790587591
 20
7.5804886469
 30
0.0
  0
LINE
  5
3B4
100
AcDbEntity
  8
0
100
AcDbLine
 62
7
  6
CONTINUOUS
 10
10.1401584925
 20
7.5976839198
 11
10.0604659569
 21
7.5976719708
  0
SPLINE
  5
3B5
100
AcDbEntity
  8
0
100
AcDbSpline
 62
7
  6
CONTINUOUS
 70
0
 71
3
 72
13
 73
9
 74
0
 42
0.0000001
 43
0.0000001
 44
0.0000000001
 40
0.0
 40
0.0
 40
0.0
 40
0.0
 40
0.0872487362
 40
0.1862772693
 40
0.2965801001
 40
0.4176644703
 40
0.6903927028
 40
1.0
 40
1.0
 40
1.0
 40
1.0
 10
10.1574167587
 20
7.5862483789
 30
0.0
 10
10.1558116333
 20
7.584241676
 30
0.0
 10
10.1525006651
 20
7.5798643097
 30
0.0
 10
10.1474984775
 20
7.5727017351
 30
0.0
 10
10.1421685685
 20
7.5645580401
 30
0.0
 10
10.1343481377
 20
7.5519357611
 30
0.0
 10
10.1240053411
 20
7.5339788783
 30
0.0
 10
10.115909121
 20
7.5188562521
 30
0.0
 10
10.1117049239
 20
7.510764585
 30
0.0
  0
SPLINE
  5
3B6
100
AcDbEntity
  8
0
100
AcDbSpline
 62
7
  6
CONTINUOUS
 70
0
 71
3
 72
15
 73
11
 74
0
 42
0.0000001
 43
0.0000001
 44
0.0000000001
 40
0.0
 40
0.0
 40
0.0
 40
0.0
 40
0.1736641618
 40
0.3351147925
 40
0.4817649606
 40
0.6128427047
 40
0.7284075172
 40
0.8296659112
 40
0.9189667521
 40
1.0
 40
1.0
 40
1.0
 40
1.0
 10
10.2107566403
 20
7.597671796
 30
0.0
 10
10.207519002
 20
7.5976717948
 30
0.0
 10
10.2012709773
 20
7.5975972471
 30
0.0
 10
10.1922957501
 20
7.5972172658
 30
0.0
 10
10.1841327949
 20
7.5965438122
 30
0.0
 10
10.1768668593
 20
7.5955182618
 30
0.0
 10
10.1705322669
 20
7.5940777634
 30
0.0
 10
10.1651421725
 20
7.5921415725
 30
0.0
 10
10.1607130146
 20
7.5896239322
 30
0.0
 10
10.1583604074
 20
7.5874281139
 30
0.0
 10
10.1574167587
 20
7.5862483789
 30
0.0
  0
LINE
  5
3B7
100
AcDbEntity
  8
0
100
AcDbLine
 62
7
  6
CONTINUOUS
 10
10.2922072685
 20
7.5976855443
 11
10.2107567061
 21
7.5976720088
  0
LINE
  5
3B8
100
AcDbEntity
  8
0
100
AcDbLine
 62
7
  6
CONTINUOUS
 10
10.2928346632
 20
7.5804886469
 11
10.2633562037
 21
7.5107874262
  0
SPLINE
  5
3B9
100
AcDbEntity
  8
0
100
AcDbSpline
 62
7
  6
CONTINUOUS
 70
0
 71
3
 72
14
 73
10
 74
0
 42
0.0000001
 43
0.0000001
 44
0.0000000001
 40
0.0
 40
0.0
 40
0.0
 40
0.0
 40
0.3205820114
 40
0.4636565303
 40
0.594061595
 40
0.7120227642
 40
0.8181083981
 40
0.9134674036
 40
1.0
 40
1.0
 40
1.0
 40
1.0
 10
10.3537419485
 20
7.597671796
 30
0.0
 10
10.3479200549
 20
7.5976717941
 30
0.0
 10
10.3394963823
 20
7.5975263009
 30
0.0
 10
10.3287280343
 20
7.5968380781
 30
0.0
 10
10.3216556028
 20
7.5960936133
 30
0.0
 10
10.3152984605
 20
7.5950541716
 30
0.0
 10
10.3096567903
 20
7.5936704657
 30
0.0
 10
10.3047280911
 20
7.5918867155
 30
0.0
 10
10.3017983861
 20
7.5903232767
 30
0.0
 10
10.3004875616
 20
7.5894565339
 30
0.0
  0
SPLINE
  5
3BA
100
AcDbEntity
  8
0
100
AcDbSpline
 62
7
  6
CONTINUOUS
 70
0
 71
3
 72
11
 73
7
 74
0
 42
0.0000001
 43
0.0000001
 44
0.0000000001
 40
0.0
 40
0.0
 40
0.0
 40
0.0
 40
0.2565804841
 40
0.5048407089
 40
0.7505581303
 40
1.0
 40
1.0
 40
1.0
 40
1.0
 10
10.3004875616
 20
7.5894565339
 30
0.0
 10
10.2996349156
 20
7.5888927477
 30
0.0
 10
10.2980228225
 20
7.5876786364
 30
0.0
 10
10.2959033315
 20
7.5855546243
 30
0.0
 10
10.2941438024
 20
7.583158351
 30
0.0
 10
10.2932288545
 20
7.5814008649
 30
0.0
 10
10.2928346632
 20
7.5804886469
 30
0.0
  0
LINE
  5
3BB
100
AcDbEntity
  8
0
100
AcDbLine
 62
7
  6
CONTINUOUS
 10
10.4251197116
 20
7.5976839198
 11
10.3537420192
 21
7.5976719708
  0
SPLINE
  5
3BC
100
AcDbEntity
  8
0
100
AcDbSpline
 62
7
  6
CONTINUOUS
 70
0
 71
3
 72
16
 73
12
 74
0
 42
0.0000001
 43
0.0000001
 44
0.0000000001
 40
0.0
 40
0.0
 40
0.0
 40
0.0
 40
0.19168708
 40
0.3643959145
 40
0.5161333767
 40
0.646697343
 40
0.7570955834
 40
0.8495257945
 40
0.9281882844
 40
0.964471156
 40
1.0
 40
1.0
 40
1.0
 40
1.0
 10
10.4871668814
 20
7.597671796
 30
0.0
 10
10.4847724941
 20
7.597671795
 30
0.0
 10
10.4802204136
 20
7.5976191337
 30
0.0
 10
10.4737780083
 20
7.5973407959
 30
0.0
 10
10.4681129138
 20
7.5968528067
 30
0.0
 10
10.4632576894
 20
7.5961220746
 30
0.0
 10
10.4592087843
 20
7.5951071764
 30
0.0
 10
10.4559434124
 20
7.5937574593
 30
0.0
 10
10.4538042381
 20
7.5922334091
 30
0.0
 10
10.4525720208
 20
7.5908037366
 30
0.0
 10
10.4521056311
 20
7.5900315502
 30
0.0
 10
10.451909279
 20
7.5896335551
 30
0.0
  0
LINE
  5
3BD
100
AcDbEntity
  8
0
100
AcDbLine
 62
7
  6
CONTINUOUS
 10
10.5571756962
 20
7.5976855443
 11
10.5499771236
 21
7.5976829303
  0
LINE
  5
3BE
100
AcDbEntity
  8
0
100
AcDbLine
 62
7
  6
CONTINUOUS
 10
10.5499771236
 20
7.5976829303
 11
10.4871669863
 21
7.5976720088
  0
SPLINE
  5
3BF
100
AcDbEntity
  8
0
100
AcDbSpline
 62
7
  6
CONTINUOUS
 70
0
 71
3
 72
14
 73
10
 74
0
 42
0.0000001
 43
0.0000001
 44
0.0000000001
 40
0.0
 40
0.0
 40
0.0
 40
0.0
 40
0.3296705366
 40
0.4756141421
 40
0.6082440581
 40
0.7272668021
 40
0.8324197018
 40
0.9234131422
 40
1.0
 40
1.0
 40
1.0
 40
1.0
 10
10.5319061455
 20
7.5106318452
 30
0.0
 10
10.5344120447
 20
7.518920998
 30
0.0
 10
10.5378706157
 20
7.5309291853
 30
0.0
 10
10.5418523166
 20
7.5464031206
 30
0.0
 10
10.5442337706
 20
7.5565729377
 30
0.0
 10
10.5461310801
 20
7.565752568
 30
0.0
 10
10.5475425019
 20
7.5739121733
 30
0.0
 10
10.5484664717
 20
7.5810185196
 30
0.0
 10
10.5487865515
 20
7.5854133077
 30
0.0
 10
10.5488408222
 20
7.5874243283
 30
0.0
  0
SPLINE
  5
3C0
100
AcDbEntity
  8
0
100
AcDbSpline
 62
7
  6
CONTINUOUS
 70
0
 71
3
 72
16
 73
12
 74
0
 42
0.0000001
 43
0.0000001
 44
0.0000000001
 40
0.0
 40
0.0
 40
0.0
 40
0.0
 40
0.1913254587
 40
0.3630249667
 40
0.5139002411
 40
0.6437719973
 40
0.7540368139
 40
0.8470607506
 40
0.9268602541
 40
0.963797733
 40
1.0
 40
1.0
 40
1.0
 40
1.0
 10
10.6089272479
 20
7.597671796
 30
0.0
 10
10.6065228625
 20
7.5976717951
 30
0.0
 10
10.6019603979
 20
7.5976228683
 30
0.0
 10
10.5955064013
 20
7.5973574826
 30
0.0
 10
10.5898376288
 20
7.5968882662
 30
0.0
 10
10.5849697481
 20
7.5961868884
 30
0.0
 10
10.5808902988
 20
7.5952051347
 30
0.0
 10
10.5775671143
 20
7.5938916035
 30
0.0
 10
10.5753503487
 20
7.5924064241
 30
0.0
 10
10.5740260039
 20
7.5910040288
 30
0.0
 10
10.573504442
 20
7.590241658
 30
0.0
 10
10.5732781621
 20
7.5898469681
 30
0.0
  0
LINE
  5
3C1
100
AcDbEntity
  8
0
100
AcDbLine
 62
7
  6
CONTINUOUS
 10
10.6675052747
 20
7.5976839201
 11
10.6655599077
 21
7.5976831456
  0
LINE
  5
3C2
100
AcDbEntity
  8
0
100
AcDbLine
 62
7
  6
CONTINUOUS
 10
10.6655599077
 20
7.5976831456
 11
10.6089273482
 21
7.5976719706
  0
SPLINE
  5
3C3
100
AcDbEntity
  8
0
100
AcDbSpline
 62
7
  6
CONTINUOUS
 70
0
 71
3
 72
12
 73
8
 74
0
 42
0.0000001
 43
0.0000001
 44
0.0000000001
 40
0.0
 40
0.0
 40
0.0
 40
0.0
 40
0.3278712583
 40
0.594955027
 40
0.8122687385
 40
0.9082891862
 40
1.0
 40
1.0
 40
1.0
 40
1.0
 10
10.6662950561
 20
7.5875058306
 30
0.0
 10
10.6659550607
 20
7.5883855897
 30
0.0
 10
10.665394283
 20
7.5900063389
 30
0.0
 10
10.6649081502
 20
7.5922992578
 30
0.0
 10
10.6648994104
 20
7.5939910678
 30
0.0
 10
10.6651792272
 20
7.5951278027
 30
0.0
 10
10.6654031791
 20
7.5956233698
 30
0.0
 10
10.6655345912
 20
7.5958521316
 30
0.0
  0
SPLINE
  5
3C4
100
AcDbEntity
  8
0
100
AcDbSpline
 62
7
  6
CONTINUOUS
 70
0
 71
3
 72
15
 73
11
 74
0
 42
0.0000001
 43
0.0000001
 44
0.0000000001
 40
0.0
 40
0.0
 40
0.0
 40
0.0
 40
0.1689238017
 40
0.3257538548
 40
0.4700120317
 40
0.6014166267
 40
0.7199468756
 40
0.8257024359
 40
0.9188946817
 40
1.0
 40
1.0
 40
1.0
 40
1.0
 10
10.6652664876
 20
7.5106349783
 30
0.0
 10
10.666048498
 20
7.5149350893
 30
0.0
 10
10.6674300975
 20
7.5232513036
 30
0.0
 10
10.6689984215
 20
7.5353133676
 30
0.0
 10
10.6699920223
 20
7.5464627989
 30
0.0
 10
10.6704151057
 20
7.5566577102
 30
0.0
 10
10.6702744598
 20
7.5658653595
 30
0.0
 10
10.6695770517
 20
7.5740587113
 30
0.0
 10
10.6683311824
 20
7.581206928
 30
0.0
 10
10.667051516
 20
7.5855484445
 30
0.0
 10
10.6662950561
 20
7.5875058306
 30
0.0
  0
SPLINE
  5
3C5
100
AcDbEntity
  8
0
100
AcDbSpline
 62
7
  6
CONTINUOUS
 70
0
 71
3
 72
15
 73
11
 74
0
 42
0.0000001
 43
0.0000001
 44
0.0000000001
 40
0.0
 40
0.0
 40
0.0
 40
0.0
 40
0.1982625897
 40
0.3753216293
 40
0.5303923965
 40
0.6629678402
 40
0.7737970319
 40
0.864624584
 40
0.9383311479
 40
1.0
 40
1.0
 40
1.0
 40
1.0
 10
10.7171028143
 20
7.597671796
 30
0.0
 10
10.715806378
 20
7.5976717953
 30
0.0
 10
10.7133520067
 20
7.5976470031
 30
0.0
 10
10.7098856885
 20
7.5975160172
 30
0.0
 10
10.7068545614
 20
7.5972889233
 30
0.0
 10
10.7042680552
 20
7.5969607533
 30
0.0
 10
10.7021241247
 20
7.5965208679
 30
0.0
 10
10.7004087629
 20
7.5959535297
 30
0.0
 10
10.6991006165
 20
7.5952387221
 30
0.0
 10
10.6984645638
 20
7.5945938465
 30
0.0
 10
10.6982455357
 20
7.5942552631
 30
0.0
  0
LINE
  5
3C6
100
AcDbEntity
  8
0
100
AcDbLine
 62
7
  6
CONTINUOUS
 10
10.7712709048
 20
7.5976855448
 11
10.7171029518
 21
7.5976720086
  0
SPLINE
  5
3C7
100
AcDbEntity
  8
0
100
AcDbSpline
 62
7
  6
CONTINUOUS
 70
0
 71
3
 72
15
 73
11
 74
0
 42
0.0000001
 43
0.0000001
 44
0.0000000001
 40
0.0
 40
0.0
 40
0.0
 40
0.0
 40
0.2063487932
 40
0.3872227108
 40
0.5430869848
 40
0.6746530114
 40
0.7831025712
 40
0.8704283291
 40
0.9403349333
 40
1.0
 40
1.0
 40
1.0
 40
1.0
 10
10.7769410045
 20
7.5874243283
 30
0.0
 10
10.7764252868
 20
7.5880743692
 30
0.0
 10
10.7754627403
 20
7.5892983839
 30
0.0
 10
10.7741425772
 20
7.5910382529
 30
0.0
 10
10.7730478543
 20
7.5925710256
 30
0.0
 10
10.7721844378
 20
7.5939094835
 30
0.0
 10
10.7715579942
 20
7.5950696407
 30
0.0
 10
10.7711742934
 20
7.5960713509
 30
0.0
 10
10.7710429513
 20
7.596945331
 30
0.0
 10
10.7711638787
 20
7.5974707008
 30
0.0
 10
10.7712708474
 20
7.5976854607
 30
0.0
  0
SPLINE
  5
3C8
100
AcDbEntity
  8
0
100
AcDbSpline
 62
7
  6
CONTINUOUS
 70
0
 71
3
 72
11
 73
7
 74
0
 42
0.0000001
 43
0.0000001
 44
0.0000000001
 40
0.0
 40
0.0
 40
0.0
 40
0.0
 40
0.2881453574
 40
0.5508485268
 40
0.7878423423
 40
1.0
 40
1.0
 40
1.0
 40
1.0
 10
10.7919640446
 20
7.5106318452
 30
0.0
 10
10.7922786729
 20
7.5161558055
 30
0.0
 10
10.7925607377
 20
7.5267385246
 30
0.0
 10
10.791866546
 20
7.541866238
 30
0.0
 10
10.7900690938
 20
7.5554346958
 30
0.0
 10
10.7880460443
 20
7.5638431248
 30
0.0
 10
10.7868247841
 20
7.5677295711
 30
0.0
  0
SPLINE
  5
3C9
100
AcDbEntity
  8
0
100
AcDbSpline
 62
7
  6
CONTINUOUS
 70
0
 71
3
 72
9
 73
5
 74
0
 42
0.0000001
 43
0.0000001
 44
0.0000000001
 40
0.0
 40
0.0
 40
0.0
 40
0.0
 40
0.5300103042
 40
1.0
 40
1.0
 40
1.0
 40
1.0
 10
10.7865928137
 20
7.5684566844
 30
0.0
 10
10.785429756
 20
7.5720477845
 30
0.0
 10
10.7827942745
 20
7.5786955128
 30
0.0
 10
10.7790214006
 20
7.584802074
 30
0.0
 10
10.7769410045
 20
7.5874243283
 30
0.0
  0
SPLINE
  5
3CA
100
AcDbEntity
  8
0
100
AcDbSpline
 62
7
  6
CONTINUOUS
 70
0
 71
3
 72
13
 73
9
 74
0
 42
0.0000001
 43
0.0000001
 44
0.0000000001
 40
0.0
 40
0.0
 40
0.0
 40
0.0
 40
0.3753102026
 40
0.5302262792
 40
0.6631186923
 40
0.7743330591
 40
0.8655210262
 40
1.0
 40
1.0
 40
1.0
 40
1.0
 10
10.8099875874
 20
7.597671796
 30
0.0
 10
10.8078006044
 20
7.5976717948
 30
0.0
 10
10.8047093632
 20
7.5976218104
 30
0.0
 10
10.8008535204
 20
7.5973427618
 30
0.0
 10
10.7985461328
 20
7.597059749
 30
0.0
 10
10.796621837
 20
7.5966786733
 30
0.0
 10
10.7947606994
 20
7.5960967106
 30
0.0
 10
10.7935592027
 20
7.5953738545
 30
0.0
 10
10.7931057504
 20
7.5947347517
 30
0.0
  0
LINE
  5
3CB
100
AcDbEntity
  8
0
100
AcDbLine
 62
7
  6
CONTINUOUS
 10
10.8520852049
 20
7.5976839201
 11
10.8099877111
 21
7.5976719706
  0
LINE
  5
3CC
100
AcDbEntity
  8
0
100
AcDbLine
 62
7
  6
CONTINUOUS
 10
10.8646296922
 20
7.5875058306
 11
10.8520851542
 21
7.597683851
  0
SPLINE
  5
3CD
100
AcDbEntity
  8
0
100
AcDbSpline
 62
7
  6
CONTINUOUS
 70
0
 71
3
 72
11
 73
7
 74
0
 42
0.0000001
 43
0.0000001
 44
0.0000000001
 40
0.0
 40
0.0
 40
0.0
 40
0.0
 40
0.2814342021
 40
0.5412760345
 40
0.7801661541
 40
1.0
 40
1.0
 40
1.0
 40
1.0
 10
10.8953069871
 20
7.5106349783
 30
0.0
 10
10.8949314083
 20
7.5162850662
 30
0.0
 10
10.8937657652
 20
7.5271300813
 30
0.0
 10
10.8906055272
 20
7.5425334204
 30
0.0
 10
10.8861583153
 20
7.5563228806
 30
0.0
 10
10.8822139386
 20
7.5647062892
 30
0.0
 10
10.8800283697
 20
7.5685517305
 30
0.0
  0
SPLINE
  5
3CE
100
AcDbEntity
  8
0
100
AcDbSpline
 62
7
  6
CONTINUOUS
 70
0
 71
3
 72
9
 73
5
 74
0
 42
0.0000001
 43
0.0000001
 44
0.0000000001
 40
0.0
 40
0.0
 40
0.0
 40
0.0
 40
0.5135980844
 40
1.0
 40
1.0
 40
1.0
 40
1.0
 10
10.8779449747
 20
7.572019637
 30
0.0
 10
10.876065306
 20
7.5749800464
 30
0.0
 10
10.8720204547
 20
7.5805126882
 30
0.0
 10
10.8671708251
 20
7.5853676127
 30
0.0
 10
10.8646296922
 20
7.5875058306
 30
0.0
  0
SPLINE
  5
3CF
100
AcDbEntity
  8
0
100
AcDbSpline
 62
7
  6
CONTINUOUS
 70
0
 71
3
 72
13
 73
9
 74
0
 42
0.0000001
 43
0.0000001
 44
0.0000000001
 40
0.0
 40
0.0
 40
0.0
 40
0.0
 40
0.3816864772
 40
0.6727637129
 40
0.7846759192
 40
0.8748835999
 40
0.9453329401
 40
1.0
 40
1.0
 40
1.0
 40
1.0
 10
10.8861167189
 20
7.597671796
 30
0.0
 10
10.8851259461
 20
7.5976717952
 30
0.0
 10
10.8833797293
 20
7.5976422742
 30
0.0
 10
10.881345253
 20
7.5974862116
 30
0.0
 10
10.8800834793
 20
7.5972631393
 30
0.0
 10
10.8794001607
 20
7.5970725391
 30
0.0
 10
10.878888054
 20
7.5968424205
 30
0.0
 10
10.8786309762
 20
7.5966311134
 30
0.0
 10
10.8785452805
 20
7.596518008
 30
0.0
  0
LINE
  5
3D0
100
AcDbEntity
  8
0
100
AcDbLine
 62
7
  6
CONTINUOUS
 10
10.9210405044
 20
7.5976855448
 11
10.8861168803
 21
7.5976720086
  0
SPLINE
  5
3D1
100
AcDbEntity
  8
0
100
AcDbSpline
 62
7
  6
CONTINUOUS
 70
0
 71
3
 72
10
 73
6
 74
0
 42
0.0000001
 43
0.0000001
 44
0.0000000001
 40
0.0
 40
0.0
 40
0.0
 40
0.0
 40
0.5831797539
 40
0.8129225084
 40
1.0
 40
1.0
 40
1.0
 40
1.0
 10
10.9332202448
 20
7.5917040322
 30
0.0
 10
10.9309170531
 20
7.5929917399
 30
0.0
 10
10.9276501173
 20
7.5946891307
 30
0.0
 10
10.9235445932
 20
7.5965918015
 30
0.0
 10
10.921817221
 20
7.5973491164
 30
0.0
 10
10.9210404387
 20
7.5976854607
 30
0.0
  0
SPLINE
  5
3D2
100
AcDbEntity
  8
0
100
AcDbSpline
 62
7
  6
CONTINUOUS
 70
0
 71
3
 72
11
 73
7
 74
0
 42
0.0000001
 43
0.0000001
 44
0.0000000001
 40
0.0
 40
0.0
 40
0.0
 40
0.0
 40
0.2728715598
 40
0.5294815966
 40
0.7710801273
 40
1.0
 40
1.0
 40
1.0
 40
1.0
 10
10.9863961088
 20
7.5106318452
 30
0.0
 10
10.985305175
 20
7.5163145188
 30
0.0
 10
10.9826469331
 20
7.5272481007
 30
0.0
 10
10.9770510979
 20
7.542650048
 30
0.0
 10
10.9700517527
 20
7.556433506
 30
0.0
 10
10.9643628765
 20
7.5646778434
 30
0.0
 10
10.9613156317
 20
7.5684566844
 30
0.0
  0
SPLINE
  5
3D3
100
AcDbEntity
  8
0
100
AcDbSpline
 62
7
  6
CONTINUOUS
 70
0
 71
3
 72
9
 73
5
 74
0
 42
0.0000001
 43
0.0000001
 44
0.0000000001
 40
0.0
 40
0.0
 40
0.0
 40
0.0
 40
0.5049540667
 40
1.0
 40
1.0
 40
1.0
 40
1.0
 10
10.9559806919
 20
7.5745274544
 30
0.0
 10
10.9536170306
 20
7.5769932518
 30
0.0
 10
10.9486574391
 20
7.5816181653
 30
0.0
 10
10.9431805185
 20
7.585620322
 30
0.0
 10
10.9403593047
 20
7.5874243283
 30
0.0
  0
LINE
  5
3D4
100
AcDbEntity
  8
0
100
AcDbLine
 62
7
  6
CONTINUOUS
 10
10.9672616668
 20
7.5976839201
 11
10.9525294978
 21
7.5976732383
  0
LINE
  5
3D5
100
AcDbEntity
  8
0
100
AcDbLine
 62
7
  6
CONTINUOUS
 10
10.9525294978
 20
7.5976732383
 11
10.944289746
 21
7.5976719706
  0
SPLINE
  5
3D6
100
AcDbEntity
  8
0
100
AcDbSpline
 62
7
  6
CONTINUOUS
 70
0
 71
3
 72
9
 73
5
 74
0
 42
0.0000001
 43
0.0000001
 44
0.0000000001
 40
0.0
 40
0.0
 40
0.0
 40
0.0
 40
0.2867059757
 40
1.0
 40
1.0
 40
1.0
 40
1.0
 10
10.9803664818
 20
7.5932467145
 30
0.0
 10
10.979139665
 20
7.5937411511
 30
0.0
 10
10.9748344273
 20
7.5953998674
 30
0.0
 10
10.9704362654
 20
7.5968174843
 30
0.0
 10
10.9672616107
 20
7.597683851
 30
0.0
  0
SPLINE
  5
3D7
100
AcDbEntity
  8
0
100
AcDbSpline
 62
7
  6
CONTINUOUS
 70
0
 71
3
 72
11
 73
7
 74
0
 42
0.0000001
 43
0.0000001
 44
0.0000000001
 40
0.0
 40
0.0
 40
0.0
 40
0.0
 40
0.2680794047
 40
0.52179819
 40
0.764331175
 40
1.0
 40
1.0
 40
1.0
 40
1.0
 10
11.0532282347
 20
7.5106349783
 30
0.0
 10
11.0509091899
 20
7.5181006528
 30
0.0
 10
11.0453551601
 20
7.5323397642
 30
0.0
 10
11.0340568161
 20
7.5516653562
 30
0.0
 10
11.0202598036
 20
7.5680871096
 30
0.0
 10
11.0094508741
 20
7.5770432144
 30
0.0
 10
11.0037723666
 20
7.5809142312
 30
0.0
  0
LINE
  5
3D8
100
AcDbEntity
  8
0
100
AcDbLine
 62
7
  6
CONTINUOUS
 10
10.9970739204
 20
7.5976855448
 11
10.983589005
 21
7.5976720086
  0
SPLINE
  5
3D9
100
AcDbEntity
  8
0
100
AcDbSpline
 62
7
  6
CONTINUOUS
 70
0
 71
3
 72
11
 73
7
 74
0
 42
0.0000001
 43
0.0000001
 44
0.0000000001
 40
0.0
 40
0.0
 40
0.0
 40
0.0
 40
0.2586493905
 40
0.5105771836
 40
0.7570572861
 40
1.0
 40
1.0
 40
1.0
 40
1.0
 10
11.1029854565
 20
7.5106318452
 30
0.0
 10
11.1005095123
 20
7.5164053578
 30
0.0
 10
11.0949606583
 20
7.5275331253
 30
0.0
 10
11.0848323033
 20
7.5429311962
 30
0.0
 10
11.0731492502
 20
7.5566898947
 30
0.0
 10
11.0643621328
 20
7.5647494422
 30
0.0
 10
11.0597716319
 20
7.5684566844
 30
0.0
  0
SPLINE
  5
3DA
100
AcDbEntity
  8
0
100
AcDbSpline
 62
7
  6
CONTINUOUS
 70
0
 71
3
 72
11
 73
7
 74
0
 42
0.0000001
 43
0.0000001
 44
0.0000000001
 40
0.0
 40
0.0
 40
0.0
 40
0.0
 40
0.2525050375
 40
0.5022085602
 40
0.7508115266
 40
1.0
 40
1.0
 40
1.0
 40
1.0
 10
11.121433677
 20
7.5235570828
 30
0.0
 10
11.1175197198
 20
7.5295254463
 30
0.0
 10
11.1089691318
 20
7.5409139792
 30
0.0
 10
11.0941219306
 20
7.556156114
 30
0.0
 10
11.0775300961
 20
7.5693260437
 30
0.0
 10
11.0654604206
 20
7.576641442
 30
0.0
 10
11.0592229477
 20
7.5799132876
 30
0.0
  0
LINE
  5
3DB
100
AcDbEntity
  8
0
100
AcDbLine
 62
7
  6
CONTINUOUS
 10
10.9971720579
 20
7.5976801612
 11
11.0011789705
 21
7.5976734364
  0
LINE
  5
3DC
100
AcDbEntity
  8
0
100
AcDbLine
 62
7
  6
CONTINUOUS
 10
11.0011789705
 20
7.5976734364
 11
11.0033947938
 21
7.5976720086
  0
LINE
  5
3DD
100
AcDbEntity
  8
0
100
AcDbLine
 62
7
  6
CONTINUOUS
 10
10.9673310485
 20
7.5976817399
 11
10.9719990229
 21
7.5976773124
  0
LINE
  5
3DE
100
AcDbEntity
  8
0
100
AcDbLine
 62
7
  6
CONTINUOUS
 10
10.9719990229
 20
7.5976773124
 11
10.9781045779
 21
7.5976732382
  0
LINE
  5
3DF
100
AcDbEntity
  8
0
100
AcDbLine
 62
7
  6
CONTINUOUS
 10
10.9781045779
 20
7.5976732382
 11
10.9822730504
 21
7.5976720906
  0
LINE
  5
3E0
100
AcDbEntity
  8
0
100
AcDbLine
 62
7
  6
CONTINUOUS
 10
9.6783969553
 20
7.5976855443
 11
9.589813564
 21
7.5976720088
  0
SPLINE
  5
3E1
100
AcDbEntity
  8
0
100
AcDbSpline
 62
7
  6
CONTINUOUS
 70
0
 71
3
 72
14
 73
10
 74
0
 42
0.0000001
 43
0.0000001
 44
0.0000000001
 40
0.0
 40
0.0
 40
0.0
 40
0.0
 40
0.2701120882
 40
0.4033960383
 40
0.5332279396
 40
0.6584244035
 40
0.7782141739
 40
0.8921797137
 40
1.0
 40
1.0
 40
1.0
 40
1.0
 10
9.5898135863
 20
7.597671796
 30
0.0
 10
9.5833135601
 20
7.5976717937
 30
0.0
 10
9.5736037723
 20
7.5974704626
 30
0.0
 10
9.5607925145
 20
7.5967236837
 30
0.0
 10
9.5514836917
 20
7.5958863299
 30
0.0
 10
9.5425361614
 20
7.5947256481
 30
0.0
 10
9.5340308881
 20
7.5931919117
 30
0.0
 10
9.5260420161
 20
7.591232803
 30
0.0
 10
9.5209634057
 20
7.5895667541
 30
0.0
 10
9.5185398278
 20
7.5886403336
 30
0.0
  0
SPLINE
  5
3E2
100
AcDbEntity
  8
0
100
AcDbSpline
 62
7
  6
CONTINUOUS
 70
0
 71
3
 72
9
 73
5
 74
0
 42
0.0000001
 43
0.0000001
 44
0.0000000001
 40
0.0
 40
0.0
 40
0.0
 40
0.0
 40
0.4856495022
 40
1.0
 40
1.0
 40
1.0
 40
1.0
 10
9.5129723669
 20
7.5862483789
 30
0.0
 10
9.5071885299
 20
7.5834576178
 30
0.0
 10
9.4955778823
 20
7.5770800358
 30
0.0
 10
9.4845879718
 20
7.5696959189
 30
0.0
 10
9.4790948278
 20
7.5656852989
 30
0.0
  0
SPLINE
  5
3E3
100
AcDbEntity
  8
0
100
AcDbSpline
 62
7
  6
CONTINUOUS
 70
0
 71
3
 72
11
 73
7
 74
0
 42
0.0000001
 43
0.0000001
 44
0.0000000001
 40
0.0
 40
0.0
 40
0.0
 40
0.0
 40
0.2364184176
 40
0.4825139844
 40
0.7375014714
 40
1.0
 40
1.0
 40
1.0
 40
1.0
 10
9.4790948278
 20
7.5656852989
 30
0.0
 10
9.4740213766
 20
7.5619811024
 30
0.0
 10
9.4639373772
 20
7.5540447434
 30
0.0
 10
9.4493520539
 20
7.5409394836
 30
0.0
 10
9.4351063197
 20
7.5264768758
 30
0.0
 10
9.4260335488
 20
7.5161335285
 30
0.0
 10
9.4215813837
 20
7.510764585
 30
0.0
  0
LINE
  5
3E4
100
AcDbEntity
  8
0
100
AcDbLine
 62
7
  6
CONTINUOUS
 10
9.5156798692
 20
7.5976839197
 11
9.4345875927
 21
7.5976719707
  0
SPLINE
  5
3E5
100
AcDbEntity
  8
0
100
AcDbSpline
 62
7
  6
CONTINUOUS
 70
0
 71
3
 72
11
 73
7
 74
0
 42
0.0000001
 43
0.0000001
 44
0.0000000001
 40
0.0
 40
0.0
 40
0.0
 40
0.0
 40
0.2492851135
 40
0.5026784623
 40
0.754245454
 40
1.0
 40
1.0
 40
1.0
 40
1.0
 10
9.4345876291
 20
7.597671796
 30
0.0
 10
9.4292358733
 20
7.5976717944
 30
0.0
 10
9.4184435762
 20
7.5975230872
 30
0.0
 10
9.4022635012
 20
7.5968212101
 30
0.0
 10
9.3861942733
 20
7.5955314321
 30
0.0
 10
9.3756009548
 20
7.5941401899
 30
0.0
 10
9.3703964367
 20
7.5932748882
 30
0.0
  0
SPLINE
  5
3E6
100
AcDbEntity
  8
0
100
AcDbSpline
 62
7
  6
CONTINUOUS
 70
0
 71
3
 72
9
 73
5
 74
0
 42
0.0000001
 43
0.0000001
 44
0.0000000001
 40
0.0
 40
0.0
 40
0.0
 40
0.0
 40
0.2544672934
 40
1.0
 40
1.0
 40
1.0
 40
1.0
 10
9.3703964367
 20
7.5932748882
 30
0.0
 10
9.3688642861
 20
7.5930201532
 30
0.0
 10
9.3628538887
 20
7.5919579391
 30
0.0
 10
9.3568877284
 20
7.5906326968
 30
0.0
 10
9.3524918773
 20
7.5894565339
 30
0.0
  0
SPLINE
  5
3E7
100
AcDbEntity
  8
0
100
AcDbSpline
 62
7
  6
CONTINUOUS
 70
0
 71
3
 72
9
 73
5
 74
0
 42
0.0000001
 43
0.0000001
 44
0.0000000001
 40
0.0
 40
0.0
 40
0.0
 40
0.0
 40
0.511336849
 40
1.0
 40
1.0
 40
1.0
 40
1.0
 10
9.3524918773
 20
7.5894565339
 30
0.0
 10
9.3482676854
 20
7.5883263005
 30
0.0
 10
9.3400922264
 20
7.5857747262
 30
0.0
 10
9.3322153561
 20
7.5823873678
 30
0.0
 10
9.3284927316
 20
7.5804886469
 30
0.0
  0
SPLINE
  5
3E8
100
AcDbEntity
  8
0
100
AcDbSpline
 62
7
  6
CONTINUOUS
 70
0
 71
3
 72
11
 73
7
 74
0
 42
0.0000001
 43
0.0000001
 44
0.0000000001
 40
0.0
 40
0.0
 40
0.0
 40
0.0
 40
0.2366738486
 40
0.4830061433
 40
0.7379629872
 40
1.0
 40
1.0
 40
1.0
 40
1.0
 10
9.3204443127
 20
7.576180751
 30
0.0
 10
9.3133688572
 20
7.572215298
 30
0.0
 10
9.2993300886
 20
7.5633904545
 30
0.0
 10
9.2791921872
 20
7.5480417046
 30
0.0
 10
9.2597727193
 20
7.5304720031
 30
0.0
 10
9.2476110366
 20
7.5175580216
 30
0.0
 10
9.2417117523
 20
7.5107874262
 30
0.0
  0
LINE
  5
3E9
100
AcDbEntity
  8
0
100
AcDbLine
 62
7
  6
CONTINUOUS
 10
9.3681230293
 20
7.5976855443
 11
9.2842968435
 21
7.5976720088
  0
SPLINE
  5
3EA
100
AcDbEntity
  8
0
100
AcDbSpline
 62
7
  6
CONTINUOUS
 70
0
 71
3
 72
11
 73
7
 74
0
 42
0.0000001
 43
0.0000001
 44
0.0000000001
 40
0.0
 40
0.0
 40
0.0
 40
0.0
 40
0.2465384505
 40
0.5019099997
 40
0.7554243428
 40
1.0
 40
1.0
 40
1.0
 40
1.0
 10
9.2842969092
 20
7.597671796
 30
0.0
 10
9.2787491618
 20
7.5976717939
 30
0.0
 10
9.2674540064
 20
7.5974417528
 30
0.0
 10
9.2504803731
 20
7.5964062245
 30
0.0
 10
9.2336293827
 20
7.5944436991
 30
0.0
 10
9.2226114871
 20
7.5922795796
 30
0.0
 10
9.2172786751
 20
7.5909192478
 30
0.0
  0
SPLINE
  5
3EB
100
AcDbEntity
  8
0
100
AcDbSpline
 62
7
  6
CONTINUOUS
 70
0
 71
3
 72
9
 73
5
 74
0
 42
0.0000001
 43
0.0000001
 44
0.0000000001
 40
0.0
 40
0.0
 40
0.0
 40
0.0
 40
0.2563512256
 40
1.0
 40
1.0
 40
1.0
 40
1.0
 10
9.2172786751
 20
7.5909192478
 30
0.0
 10
9.2160063057
 20
7.5905946827
 30
0.0
 10
9.2110605485
 20
7.5892620949
 30
0.0
 10
9.2061874075
 20
7.5876476323
 30
0.0
 10
9.2026445059
 20
7.5862483789
 30
0.0
  0
SPLINE
  5
3EC
100
AcDbEntity
  8
0
100
AcDbSpline
 62
7
  6
CONTINUOUS
 70
0
 71
3
 72
9
 73
5
 74
0
 42
0.0000001
 43
0.0000001
 44
0.0000000001
 40
0.0
 40
0.0
 40
0.0
 40
0.0
 40
0.2454461164
 40
1.0
 40
1.0
 40
1.0
 40
1.0
 10
9.2026445059
 20
7.5862483789
 30
0.0
 10
9.1999644808
 20
7.5851899148
 30
0.0
 10
9.1891270294
 20
7.5806726964
 30
0.0
 10
9.1786221549
 20
7.5753665949
 30
0.0
 10
9.1709199628
 20
7.5709910911
 30
0.0
  0
SPLINE
  5
3ED
100
AcDbEntity
  8
0
100
AcDbSpline
 62
7
  6
CONTINUOUS
 70
0
 71
3
 72
10
 73
6
 74
0
 42
0.0000001
 43
0.0000001
 44
0.0000000001
 40
0.0
 40
0.0
 40
0.0
 40
0.0
 40
0.4909859388
 40
0.7438126606
 40
1.0
 40
1.0
 40
1.0
 40
1.0
 10
9.1649675008
 20
7.5675092887
 30
0.0
 10
9.1524487041
 20
7.5599741884
 30
0.0
 10
9.1343518885
 20
7.5470406611
 30
0.0
 10
9.1121058895
 20
7.5272532401
 30
0.0
 10
9.1015115114
 20
7.5164030862
 30
0.0
 10
9.0963799049
 20
7.510764585
 30
0.0
  0
LINE
  5
3EE
100
AcDbEntity
  8
0
100
AcDbLine
 62
7
  6
CONTINUOUS
 10
9.2154007536
 20
7.5976839198
 11
9.1413115304
 21
7.5976719708
  0
SPLINE
  5
3EF
100
AcDbEntity
  8
0
100
AcDbSpline
 62
7
  6
CONTINUOUS
 70
0
 71
3
 72
10
 73
6
 74
0
 42
0.0000001
 43
0.0000001
 44
0.0000000001
 40
0.0
 40
0.0
 40
0.0
 40
0.0
 40
0.2357986926
 40
0.4842676667
 40
1.0
 40
1.0
 40
1.0
 40
1.0
 10
9.141311601
 20
7.597671796
 30
0.0
 10
9.1370625774
 20
7.5976717946
 30
0.0
 10
9.1283355276
 20
7.5975559266
 30
0.0
 10
9.1103297424
 20
7.5968463964
 30
0.0
 10
9.0965895041
 20
7.595713269
 30
0.0
 10
9.0873704516
 20
7.5945405155
 30
0.0
  0
SPLINE
  5
3F0
100
AcDbEntity
  8
0
100
AcDbSpline
 62
7
  6
CONTINUOUS
 70
0
 71
3
 72
10
 73
6
 74
0
 42
0.0000001
 43
0.0000001
 44
0.0000000001
 40
0.0
 40
0.0
 40
0.0
 40
0.0
 40
0.5082511101
 40
0.7570805172
 40
1.0
 40
1.0
 40
1.0
 40
1.0
 10
9.0823807737
 20
7.5938636016
 30
0.0
 10
9.0737111882
 20
7.5926120447
 30
0.0
 10
9.0608568448
 20
7.5901606678
 30
0.0
 10
9.0443272393
 20
7.5852397398
 30
0.0
 10
9.0364089568
 20
7.5821819228
 30
0.0
 10
9.0325800641
 20
7.5804886469
 30
0.0
  0
SPLINE
  5
3F1
100
AcDbEntity
  8
0
100
AcDbSpline
 62
7
  6
CONTINUOUS
 70
0
 71
3
 72
11
 73
7
 74
0
 42
0.0000001
 43
0.0000001
 44
0.0000000001
 40
0.0
 40
0.0
 40
0.0
 40
0.0
 40
0.2436792187
 40
0.4923202328
 40
0.7448579026
 40
1.0
 40
1.0
 40
1.0
 40
1.0
 10
9.0303539875
 20
7.5794917464
 30
0.0
 10
9.0216814283
 20
7.5755593646
 30
0.0
 10
9.0045786802
 20
7.5666590951
 30
0.0
 10
8.9802126801
 20
7.5506521363
 30
0.0
 10
8.9571907972
 20
7.5320459785
 30
0.0
 10
8.9430142638
 20
7.5181147745
 30
0.0
 10
8.9362527131
 20
7.5107874262
 30
0.0
  0
LINE
  5
3F2
100
AcDbEntity
  8
0
100
AcDbLine
 62
7
  6
CONTINUOUS
 10
9.0816884359
 20
7.5976855443
 11
9.0078865632
 21
7.5976720088
  0
SPLINE
  5
3F3
100
AcDbEntity
  8
0
100
AcDbSpline
 62
7
  6
CONTINUOUS
 70
0
 71
3
 72
13
 73
9
 74
0
 42
0.0000001
 43
0.0000001
 44
0.0000000001
 40
0.0
 40
0.0
 40
0.0
 40
0.0
 40
0.1105576979
 40
0.2295603438
 40
0.4829319746
 40
0.7435767279
 40
0.872998635
 40
1.0
 40
1.0
 40
1.0
 40
1.0
 10
9.0078866681
 20
7.597671796
 30
0.0
 10
9.004847044
 20
7.5976717947
 30
0.0
 10
8.9985353251
 20
7.5975786131
 30
0.0
 10
8.9852679029
 20
7.5970336306
 30
0.0
 10
8.9679121234
 20
7.5956089186
 30
0.0
 10
8.9504092779
 20
7.5928508123
 30
0.0
 10
8.9365855592
 20
7.5895037251
 30
0.0
 10
8.9298461389
 20
7.5874108339
 30
0.0
 10
8.9265536019
 20
7.5862483789
 30
0.0
  0
SPLINE
  5
3F4
100
AcDbEntity
  8
0
100
AcDbSpline
 62
7
  6
CONTINUOUS
 70
0
 71
3
 72
11
 73
7
 74
0
 42
0.0000001
 43
0.0000001
 44
0.0000000001
 40
0.0
 40
0.0
 40
0.0
 40
0.0
 40
0.2456950045
 40
0.4951279236
 40
0.7470325284
 40
1.0
 40
1.0
 40
1.0
 40
1.0
 10
8.9265536019
 20
7.5862483789
 30
0.0
 10
8.9158707405
 20
7.5824767143
 30
0.0
 10
8.894809749
 20
7.5734871671
 30
0.0
 10
8.8649136943
 20
7.5562215635
 30
0.0
 10
8.8369881072
 20
7.5353584631
 30
0.0
 10
8.8200532552
 20
7.5192900777
 30
0.0
 10
8.8120923786
 20
7.510764585
 30
0.0
  0
LINE
  5
3F5
100
AcDbEntity
  8
0
100
AcDbLine
 62
7
  6
CONTINUOUS
 10
8.9485570729
 20
7.5976839198
 11
8.8861262013
 21
7.5976719707
  0
SPLINE
  5
3F6
100
AcDbEntity
  8
0
100
AcDbSpline
 62
7
  6
CONTINUOUS
 70
0
 71
3
 72
13
 73
9
 74
0
 42
0.0000001
 43
0.0000001
 44
0.0000000001
 40
0.0
 40
0.0
 40
0.0
 40
0.0
 40
0.1036900629
 40
0.2178486102
 40
0.4675905553
 40
0.7322532899
 40
0.86646845
 40
1.0
 40
1.0
 40
1.0
 40
1.0
 10
8.8861263016
 20
7.597671796
 30
0.0
 10
8.8824435912
 20
7.5976717946
 30
0.0
 10
8.8747059572
 20
7.5975440555
 30
0.0
 10
8.8581142945
 20
7.5967903313
 30
0.0
 10
8.8358655097
 20
7.59475533
 30
0.0
 10
8.8131449858
 20
7.5906535262
 30
0.0
 10
8.7949255221
 20
7.5855444067
 30
0.0
 10
8.7859731749
 20
7.5822999806
 30
0.0
 10
8.7815901279
 20
7.5804886469
 30
0.0
  0
SPLINE
  5
3F7
100
AcDbEntity
  8
0
100
AcDbSpline
 62
7
  6
CONTINUOUS
 70
0
 71
3
 72
10
 73
6
 74
0
 42
0.0000001
 43
0.0000001
 44
0.0000000001
 40
0.0
 40
0.0
 40
0.0
 40
0.0
 40
0.2494984284
 40
0.5000476812
 40
1.0
 40
1.0
 40
1.0
 40
1.0
 10
8.7815901279
 20
7.5804886469
 30
0.0
 10
8.7721701323
 20
7.576595749
 30
0.0
 10
8.7537038264
 20
7.567737794
 30
0.0
 10
8.7189421758
 20
7.5461898774
 30
0.0
 10
8.6955670766
 20
7.5258463139
 30
0.0
 10
8.6817690067
 20
7.5107874262
 30
0.0
  0
LINE
  5
3F8
100
AcDbEntity
  8
0
100
AcDbLine
 62
7
  6
CONTINUOUS
 10
8.8370909139
 20
7.5976855449
 11
8.7779505979
 21
7.5976720085
  0
SPLINE
  5
3F9
100
AcDbEntity
  8
0
100
AcDbSpline
 62
7
  6
CONTINUOUS
 70
0
 71
3
 72
13
 73
9
 74
0
 42
0.0000001
 43
0.0000001
 44
0.0000000001
 40
0.0
 40
0.0
 40
0.0
 40
0.0
 40
0.0961779558
 40
0.2051832887
 40
0.451690564
 40
0.7212909892
 40
0.860360691
 40
1.0
 40
1.0
 40
1.0
 40
1.0
 10
8.7779507352
 20
7.597671796
 30
0.0
 10
8.7754803881
 20
7.5976717946
 30
0.0
 10
8.770210022
 20
7.5975714303
 30
0.0
 10
8.758620818
 20
7.5970084601
 30
0.0
 10
8.7426224255
 20
7.5955326431
 30
0.0
 10
8.7259966439
 20
7.592783103
 30
0.0
 10
8.7123023608
 20
7.5894713768
 30
0.0
 10
8.7054448367
 20
7.5873981471
 30
0.0
 10
8.7020474616
 20
7.5862483789
 30
0.0
  0
SPLINE
  5
3FA
100
AcDbEntity
  8
0
100
AcDbSpline
 62
7
  6
CONTINUOUS
 70
0
 71
3
 72
11
 73
7
 74
0
 42
0.0000001
 43
0.0000001
 44
0.0000000001
 40
0.0
 40
0.0
 40
0.0
 40
0.0
 40
0.2511646469
 40
0.5021348609
 40
0.7520227916
 40
1.0
 40
1.0
 40
1.0
 40
1.0
 10
8.7020474616
 20
7.5862483789
 30
0.0
 10
8.6909961873
 20
7.5825083139
 30
0.0
 10
8.6693565391
 20
7.57360994
 30
0.0
 10
8.6388797597
 20
7.55635812
 30
0.0
 10
8.6109341782
 20
7.5354945353
 30
0.0
 10
8.594281585
 20
7.5193317658
 30
0.0
 10
8.5865816357
 20
7.510764585
 30
0.0
  0
LINE
  5
3FB
100
AcDbEntity
  8
0
100
AcDbLine
 62
7
  6
CONTINUOUS
 10
8.7319155966
 20
7.5976839202
 11
8.6850658385
 21
7.5976719705
  0
SPLINE
  5
3FC
100
AcDbEntity
  8
0
100
AcDbSpline
 62
7
  6
CONTINUOUS
 70
0
 71
3
 72
9
 73
5
 74
0
 42
0.0000001
 43
0.0000001
 44
0.0000000001
 40
0.0
 40
0.0
 40
0.0
 40
0.0
 40
0.4520263502
 40
1.0
 40
1.0
 40
1.0
 40
1.0
 10
8.6850659621
 20
7.597671796
 30
0.0
 10
8.6811750725
 20
7.5976717939
 30
0.0
 10
8.6725675946
 20
7.59740598
 30
0.0
 10
8.6639800048
 20
7.5967786078
 30
0.0
 10
8.6592844267
 20
7.5963319771
 30
0.0
  0
SPLINE
  5
3FD
100
AcDbEntity
  8
0
100
AcDbSpline
 62
7
  6
CONTINUOUS
 70
0
 71
3
 72
9
 73
5
 74
0
 42
0.0000001
 43
0.0000001
 44
0.0000000001
 40
0.0
 40
0.0
 40
0.0
 40
0.0
 40
0.2412383125
 40
1.0
 40
1.0
 40
1.0
 40
1.0
 10
8.6443696636
 20
7.5945401794
 30
0.0
 10
8.6422818904
 20
7.594235072
 30
0.0
 10
8.6336421904
 20
7.5928739026
 30
0.0
 10
8.6250661004
 20
7.5910912694
 30
0.0
 10
8.6186339643
 20
7.5894575152
 30
0.0
  0
SPLINE
  5
3FE
100
AcDbEntity
  8
0
100
AcDbSpline
 62
7
  6
CONTINUOUS
 70
0
 71
3
 72
9
 73
5
 74
0
 42
0.0000001
 43
0.0000001
 44
0.0000000001
 40
0.0
 40
0.0
 40
0.0
 40
0.0
 40
0.2467509285
 40
1.0
 40
1.0
 40
1.0
 40
1.0
 10
8.6186339643
 20
7.5894575152
 30
0.0
 10
8.6169482597
 20
7.5890293485
 30
0.0
 10
8.6101370378
 20
7.5872155687
 30
0.0
 10
8.6034117776
 20
7.5850732935
 30
0.0
 10
8.5984237267
 20
7.5832544997
 30
0.0
  0
SPLINE
  5
3FF
100
AcDbEntity
  8
0
100
AcDbSpline
 62
7
  6
CONTINUOUS
 70
0
 71
3
 72
11
 73
7
 74
0
 42
0.0000001
 43
0.0000001
 44
0.0000000001
 40
0.0
 40
0.0
 40
0.0
 40
0.0
 40
0.2528070364
 40
0.5040103274
 40
0.7531825225
 40
1.0
 40
1.0
 40
1.0
 40
1.0
 10
8.5912935437
 20
7.5804886469
 30
0.0
 10
8.5819031852
 20
7.5766184119
 30
0.0
 10
8.5636078258
 20
7.5678195733
 30
0.0
 10
8.5379675101
 20
7.5516272168
 30
0.0
 10
8.5145859549
 20
7.5326929757
 30
0.0
 10
8.5006824756
 20
7.518334657
 30
0.0
 10
8.4942507806
 20
7.5107874262
 30
0.0
  0
LINE
  5
400
100
AcDbEntity
  8
0
100
AcDbLine
 62
7
  6
CONTINUOUS
 10
8.6496994255
 20
7.5976855449
 11
8.6089366694
 21
7.5976720085
  0
SPLINE
  5
401
100
AcDbEntity
  8
0
100
AcDbSpline
 62
7
  6
CONTINUOUS
 70
0
 71
3
 72
10
 73
6
 74
0
 42
0.0000001
 43
0.0000001
 44
0.0000000001
 40
0.0
 40
0.0
 40
0.0
 40
0.0
 40
0.1985125175
 40
0.4336336442
 40
1.0
 40
1.0
 40
1.0
 40
1.0
 10
8.6089368306
 20
7.597671796
 30
0.0
 10
8.6076810945
 20
7.597671795
 30
0.0
 10
8.6049379971
 20
7.597613352
 30
0.0
 10
8.5986198362
 20
7.5972955639
 30
0.0
 10
8.5935666715
 20
7.5968518072
 30
0.0
 10
8.5900052181
 20
7.5964623956
 30
0.0
  0
SPLINE
  5
402
100
AcDbEntity
  8
0
100
AcDbSpline
 62
7
  6
CONTINUOUS
 70
0
 71
3
 72
10
 73
6
 74
0
 42
0.0000001
 43
0.0000001
 44
0.0000000001
 40
0.0
 40
0.0
 40
0.0
 40
0.0
 40
0.2220907574
 40
0.4665549839
 40
1.0
 40
1.0
 40
1.0
 40
1.0
 10
8.5900052181
 20
7.5964623956
 30
0.0
 10
8.5864761727
 20
7.5960765275
 30
0.0
 10
8.5790787458
 20
7.5951032135
 30
0.0
 10
8.5633434757
 20
7.592276186
 30
0.0
 10
8.5512913536
 20
7.5890353144
 30
0.0
 10
8.5432326316
 20
7.5862483789
 30
0.0
  0
SPLINE
  5
403
100
AcDbEntity
  8
0
100
AcDbSpline
 62
7
  6
CONTINUOUS
 70
0
 71
3
 72
9
 73
5
 74
0
 42
0.0000001
 43
0.0000001
 44
0.0000000001
 40
0.0
 40
0.0
 40
0.0
 40
0.0
 40
0.5044295699
 40
1.0
 40
1.0
 40
1.0
 40
1.0
 10
8.5170599491
 20
7.5755338281
 30
0.0
 10
8.5009711172
 20
7.5678754952
 30
0.0
 10
8.4705842409
 20
7.5492696392
 30
0.0
 10
8.4450135258
 20
7.5243855322
 30
0.0
 10
8.4340173456
 20
7.510764585
 30
0.0
  0
LINE
  5
404
100
AcDbEntity
  8
0
100
AcDbLine
 62
7
  6
CONTINUOUS
 10
8.5790887061
 20
7.5976839202
 11
8.5507638035
 21
7.5976719705
  0
SPLINE
  5
405
100
AcDbEntity
  8
0
100
AcDbSpline
 62
7
  6
CONTINUOUS
 70
0
 71
3
 72
9
 73
5
 74
0
 42
0.0000001
 43
0.0000001
 44
0.0000000001
 40
0.0
 40
0.0
 40
0.0
 40
0.0
 40
0.4325630786
 40
1.0
 40
1.0
 40
1.0
 40
1.0
 10
8.5507639428
 20
7.597671796
 30
0.0
 10
8.5490826053
 20
7.5976717945
 30
0.0
 10
8.5451961946
 20
7.5975242367
 30
0.0
 10
8.5413204221
 20
7.5972222508
 30
0.0
 10
8.5391243614
 20
7.5970175426
 30
0.0
  0
SPLINE
  5
406
100
AcDbEntity
  8
0
100
AcDbSpline
 62
7
  6
CONTINUOUS
 70
0
 71
3
 72
11
 73
7
 74
0
 42
0.0000001
 43
0.0000001
 44
0.0000000001
 40
0.0
 40
0.0
 40
0.0
 40
0.0
 40
0.2536801493
 40
0.504655459
 40
0.7532624947
 40
1.0
 40
1.0
 40
1.0
 40
1.0
 10
8.4736473457
 20
7.5804886469
 30
0.0
 10
8.4648499797
 20
7.5766307627
 30
0.0
 10
8.4478086753
 20
7.5678526973
 30
0.0
 10
8.4242476942
 20
7.5516403556
 30
0.0
 10
8.4031892869
 20
7.5326749591
 30
0.0
 10
8.3910117466
 20
7.5183173976
 30
0.0
 10
8.3854804943
 20
7.5107874262
 30
0.0
  0
LINE
  5
407
100
AcDbEntity
  8
0
100
AcDbLine
 62
7
  6
CONTINUOUS
 10
8.5239685053
 20
7.5976780687
 11
8.5114645446
 21
7.5976720085
  0
LINE
  5
408
100
AcDbEntity
  8
0
100
AcDbLine
 62
7
  6
CONTINUOUS
 10
8.5114647197
 20
7.597671796
 11
8.5050888284
 21
7.5971940975
  0
LINE
  5
409
100
AcDbEntity
  8
0
100
AcDbLine
 62
7
  6
CONTINUOUS
 10
8.5050888284
 20
7.5971940975
 11
8.4934093818
 21
7.595461435
  0
SPLINE
  5
40A
100
AcDbEntity
  8
0
100
AcDbSpline
 62
7
  6
CONTINUOUS
 70
0
 71
3
 72
11
 73
7
 74
0
 42
0.0000001
 43
0.0000001
 44
0.0000000001
 40
0.0
 40
0.0
 40
0.0
 40
0.0
 40
0.2534648189
 40
0.50409469
 40
0.7525530437
 40
1.0
 40
1.0
 40
1.0
 40
1.0
 10
8.4588170712
 20
7.5857634937
 30
0.0
 10
8.450224297
 20
7.5824535509
 30
0.0
 10
8.4335436869
 20
7.574744624
 30
0.0
 10
8.4103934833
 20
7.5600520804
 30
0.0
 10
8.3896070692
 20
7.5425042666
 30
0.0
 10
8.3775339503
 20
7.5290381917
 30
0.0
 10
8.3720220818
 20
7.5219366225
 30
0.0
  0
LINE
  5
40B
100
AcDbEntity
  8
0
100
AcDbLine
 62
7
  6
CONTINUOUS
 10
8.4916589337
 20
7.597671796
 11
8.4865124435
 21
7.5970190893
  0
LINE
  5
40C
100
AcDbEntity
  8
0
100
AcDbLine
 62
7
  6
CONTINUOUS
 10
8.4996186882
 20
7.5976818947
 11
8.5023304702
 21
7.5976773125
  0
LINE
  5
40D
100
AcDbEntity
  8
0
100
AcDbLine
 62
7
  6
CONTINUOUS
 10
8.5023304702
 20
7.5976773125
 11
8.5065951207
 21
7.5976732382
  0
LINE
  5
40E
100
AcDbEntity
  8
0
100
AcDbLine
 62
7
  6
CONTINUOUS
 10
8.5065951207
 20
7.5976732382
 11
8.5114645759
 21
7.5976719705
  0
SPLINE
  5
40F
100
AcDbEntity
  8
0
100
AcDbSpline
 62
7
  6
CONTINUOUS
 70
0
 71
3
 72
18
 73
14
 74
0
 42
0.0000001
 43
0.0000001
 44
0.0000000001
 40
0.0
 40
0.0
 40
0.0
 40
0.0
 40
0.2200066845
 40
0.4114383291
 40
0.5728153917
 40
0.7037501922
 40
0.8050055942
 40
0.8454660297
 40
0.8801780771
 40
0.9106133526
 40
0.9389607683
 40
0.9679113958
 40
1.0
 40
1.0
 40
1.0
 40
1.0
 10
9.3058100693
 20
10.1820457178
 30
0.0
 10
9.3055819824
 20
10.1810377134
 30
0.0
 10
9.3051199343
 20
10.179160203
 30
0.0
 10
9.3043479629
 20
10.1765813062
 30
0.0
 10
9.3035543858
 20
10.1744489758
 30
0.0
 10
9.3027508596
 20
10.172781619
 30
0.0
 10
9.3020340406
 20
10.17170808
 30
0.0
 10
9.3014423497
 20
10.1711232819
 30
0.0
 10
9.3010300973
 20
10.1708410433
 30
0.0
 10
9.3006135067
 20
10.1706850771
 30
0.0
 10
9.3001944874
 20
10.170664791
 30
0.0
 10
9.2997846784
 20
10.1707830104
 30
0.0
 10
9.2995394227
 20
10.1709379384
 30
0.0
 10
9.2994204873
 20
10.1710305454
 30
0.0
  0
SPLINE
  5
410
100
AcDbEntity
  8
0
100
AcDbSpline
 62
7
  6
CONTINUOUS
 70
0
 71
3
 72
21
 73
17
 74
0
 42
0.0000001
 43
0.0000001
 44
0.0000000001
 40
0.0
 40
0.0
 40
0.0
 40
0.0
 40
0.2325826052
 40
0.4363438065
 40
0.6094769679
 40
0.6841966169
 40
0.7508577914
 40
0.8093632537
 40
0.8596491895
 40
0.9016724603
 40
0.9354332224
 40
0.9610553698
 40
0.9789201708
 40
0.9903044758
 40
0.9949280768
 40
1.0
 40
1.0
 40
1.0
 40
1.0
 10
9.2894427387
 20
10.1820452804
 30
0.0
 10
9.2893585673
 20
10.1811396092
 30
0.0
 10
9.2891901186
 20
10.1794414372
 30
0.0
 10
9.2889179037
 20
10.1770734185
 30
0.0
 10
9.2886820778
 20
10.1753228945
 30
0.0
 10
9.2884920929
 20
10.174107621
 30
0.0
 10
9.2883585118
 20
10.1733373726
 30
0.0
 10
9.2882272239
 20
10.1726638172
 30
0.0
 10
9.288098901
 20
10.1720881041
 30
0.0
 10
9.2879737239
 20
10.1716109121
 30
0.0
 10
9.2878535198
 20
10.171233178
 30
0.0
 10
9.2877359676
 20
10.1709529674
 30
0.0
 10
9.2876280639
 20
10.1707694674
 30
0.0
 10
9.287518338
 20
10.1706771529
 30
0.0
 10
9.2874323903
 20
10.1706788328
 30
0.0
 10
9.2873981878
 20
10.170697914
 30
0.0
 10
9.287382348
 20
10.1707098525
 30
0.0
  0
LINE
  5
411
100
AcDbEntity
  8
0
100
AcDbLine
 62
9
  6
CONTINUOUS
 10
9.2759424996
 20
10.1369807539
 11
9.3106397296
 21
10.1369808343
  0
LINE
  5
412
100
AcDbEntity
  8
0
100
AcDbLine
 62
7
  6
CONTINUOUS
 10
9.7672632139
 20
7.5107648695
 11
9.8833712188
 21
7.510632011
  0
LINE
  5
413
100
AcDbEntity
  8
0
100
AcDbLine
 62
7
  6
CONTINUOUS
 10
9.8820796417
 20
7.4983507817
 11
9.7659674013
 21
7.4984275925
  0
SPLINE
  5
414
100
AcDbEntity
  8
0
100
AcDbSpline
 62
7
  6
CONTINUOUS
 70
0
 71
3
 72
11
 73
7
 74
0
 42
0.0000001
 43
0.0000001
 44
0.0000000001
 40
0.0
 40
0.0
 40
0.0
 40
0.0
 40
0.22818515
 40
0.4610611826
 40
0.7143214645
 40
1.0
 40
1.0
 40
1.0
 40
1.0
 10
10.5499280008
 20
7.59233919
 30
0.0
 10
10.5502394578
 20
7.5929709702
 30
0.0
 10
10.551029734
 20
7.5941763497
 30
0.0
 10
10.552680986
 20
7.5956682077
 30
0.0
 10
10.5547645864
 20
7.5968528909
 30
0.0
 10
10.5563322512
 20
7.5974278836
 30
0.0
 10
10.557175651
 20
7.5976854607
 30
0.0
  0
SPLINE
  5
415
100
AcDbEntity
  8
0
100
AcDbSpline
 62
7
  6
CONTINUOUS
 70
0
 71
3
 72
11
 73
7
 74
0
 42
0.0000001
 43
0.0000001
 44
0.0000000001
 40
0.0
 40
0.0
 40
0.0
 40
0.0
 40
0.2256199263
 40
0.4654821845
 40
0.7229080817
 40
1.0
 40
1.0
 40
1.0
 40
1.0
 10
9.95908795
 20
7.5874243283
 30
0.0
 10
9.9613690847
 20
7.5888401642
 30
0.0
 10
9.966327114
 20
7.5913657669
 30
0.0
 10
9.9744659849
 20
7.5942081098
 30
0.0
 10
9.9834493325
 20
7.5963181658
 30
0.0
 10
9.9897424074
 20
7.5972788912
 30
0.0
 10
9.9930145484
 20
7.5976854607
 30
0.0
  0
SPLINE
  5
416
100
AcDbEntity
  8
0
100
AcDbSpline
 62
7
  6
CONTINUOUS
 70
0
 71
3
 72
9
 73
5
 74
0
 42
0.0000001
 43
0.0000001
 44
0.0000000001
 40
0.0
 40
0.0
 40
0.0
 40
0.0
 40
0.2595764728
 40
1.0
 40
1.0
 40
1.0
 40
1.0
 10
9.9785958351
 20
7.5822873728
 30
0.0
 10
9.9775903576
 20
7.5821005192
 30
0.0
 10
9.9737282851
 20
7.5813231529
 30
0.0
 10
9.9699126713
 20
7.5802940525
 30
0.0
 10
9.9671544624
 20
7.5793442684
 30
0.0
  0
SPLINE
  5
417
100
AcDbEntity
  8
0
100
AcDbSpline
 62
7
  6
CONTINUOUS
 70
0
 71
3
 72
9
 73
5
 74
0
 42
0.0000001
 43
0.0000001
 44
0.0000000001
 40
0.0
 40
0.0
 40
0.0
 40
0.0
 40
0.2574168092
 40
1.0
 40
1.0
 40
1.0
 40
1.0
 10
9.9671544624
 20
7.5793442684
 30
0.0
 10
9.9663208856
 20
7.5790572278
 30
0.0
 10
9.9631066032
 20
7.5778754638
 30
0.0
 10
9.9599936219
 20
7.5764053144
 30
0.0
 10
9.957794725
 20
7.5751274659
 30
0.0
  0
SPLINE
  5
418
100
AcDbEntity
  8
0
100
AcDbSpline
 62
7
  6
CONTINUOUS
 70
0
 71
3
 72
14
 73
10
 74
0
 42
0.0000001
 43
0.0000001
 44
0.0000000001
 40
0.0
 40
0.0
 40
0.0
 40
0.0
 40
0.2915074644
 40
0.4276768357
 40
0.5568628735
 40
0.678862205
 40
0.7935093546
 40
0.9006102659
 40
1.0
 40
1.0
 40
1.0
 40
1.0
 10
9.8833712052
 20
7.5106318452
 30
0.0
 10
9.8895389754
 20
7.519176722
 30
0.0
 10
9.8989966155
 20
7.5314300325
 30
0.0
 10
9.91220057
 20
7.546631521
 30
0.0
 10
9.9218150978
 20
7.5568188535
 30
0.0
 10
9.9313225619
 20
7.5660191554
 30
0.0
 10
9.9406824356
 20
7.5742027874
 30
0.0
 10
9.9498493662
 20
7.5813372301
 30
0.0
 10
9.9560351245
 20
7.5855295256
 30
0.0
 10
9.95908795
 20
7.5874243283
 30
0.0
  0
SPLINE
  5
419
100
AcDbEntity
  8
0
100
AcDbSpline
 62
7
  6
CONTINUOUS
 70
0
 71
3
 72
14
 73
10
 74
0
 42
0.0000001
 43
0.0000001
 44
0.0000000001
 40
0.0
 40
0.0
 40
0.0
 40
0.0
 40
0.0970954458
 40
0.2026259525
 40
0.3164069201
 40
0.4382078458
 40
0.5678333339
 40
0.7050394267
 40
1.0
 40
1.0
 40
1.0
 40
1.0
 10
9.957794725
 20
7.5751274659
 30
0.0
 10
9.9547568678
 20
7.5733620711
 30
0.0
 10
9.9485881075
 20
7.5693800429
 30
0.0
 10
9.9394513689
 20
7.5624661257
 30
0.0
 10
9.9300957511
 20
7.5544023189
 30
0.0
 10
9.9205751072
 20
7.5452281083
 30
0.0
 10
9.9109376661
 20
7.5349787535
 30
0.0
 10
9.8976818138
 20
7.519559191
 30
0.0
 10
9.8882290579
 20
7.5070750053
 30
0.0
 10
9.8820796417
 20
7.4983507817
 30
0.0
  0
LINE
  5
41A
100
AcDbEntity
  8
0
100
AcDbLine
 62
7
  6
CONTINUOUS
 10
9.9267864141
 20
7.5107877702
 11
10.0502682334
 21
7.5106351788
  0
LINE
  5
41B
100
AcDbEntity
  8
0
100
AcDbLine
 62
7
  6
CONTINUOUS
 10
10.0477052854
 20
7.4983531813
 11
9.9242117939
 21
7.4984402565
  0
SPLINE
  5
41C
100
AcDbEntity
  8
0
100
AcDbSpline
 62
7
  6
CONTINUOUS
 70
0
 71
3
 72
11
 73
7
 74
0
 42
0.0000001
 43
0.0000001
 44
0.0000000001
 40
0.0
 40
0.0
 40
0.0
 40
0.0
 40
0.2230042285
 40
0.4603655269
 40
0.7180369513
 40
1.0
 40
1.0
 40
1.0
 40
1.0
 10
10.1125264708
 20
7.5875058306
 30
0.0
 10
10.1142484574
 20
7.588896313
 30
0.0
 10
10.118105893
 20
7.5914039212
 30
0.0
 10
10.1246737919
 20
7.5942321768
 30
0.0
 10
10.1321113007
 20
7.5963317185
 30
0.0
 10
10.1373892537
 20
7.5972803956
 30
0.0
 10
10.1401584745
 20
7.597683851
 30
0.0
  0
SPLINE
  5
41D
100
AcDbEntity
  8
0
100
AcDbSpline
 62
7
  6
CONTINUOUS
 70
0
 71
3
 72
11
 73
7
 74
0
 42
0.0000001
 43
0.0000001
 44
0.0000000001
 40
0.0
 40
0.0
 40
0.0
 40
0.0
 40
0.2837265422
 40
0.5417669644
 40
0.7783885745
 40
1.0
 40
1.0
 40
1.0
 40
1.0
 10
10.1373014578
 20
7.5839926633
 30
0.0
 10
10.1345678857
 20
7.5837119997
 30
0.0
 10
10.1293614114
 20
7.5830126704
 30
0.0
 10
10.1220051025
 20
7.581290073
 30
0.0
 10
10.1154994846
 20
7.5788092634
 30
0.0
 10
10.1116673219
 20
7.576503708
 30
0.0
 10
10.1099593479
 20
7.575203851
 30
0.0
  0
SPLINE
  5
41E
100
AcDbEntity
  8
0
100
AcDbSpline
 62
7
  6
CONTINUOUS
 70
0
 71
3
 72
14
 73
10
 74
0
 42
0.0000001
 43
0.0000001
 44
0.0000000001
 40
0.0
 40
0.0
 40
0.0
 40
0.0
 40
0.3026404429
 40
0.4417708548
 40
0.5720879982
 40
0.6933177223
 40
0.8052209071
 40
0.9075281905
 40
1.0
 40
1.0
 40
1.0
 40
1.0
 10
10.0502681967
 20
7.5106349783
 30
0.0
 10
10.0556039183
 20
7.5191130613
 30
0.0
 10
10.0636872003
 20
7.5313099347
 30
0.0
 10
10.074846579
 20
7.5466113712
 30
0.0
 10
10.08280523
 20
7.5568069782
 30
0.0
 10
10.090554057
 20
7.566013146
 30
0.0
 10
10.098060588
 20
7.5741996794
 30
0.0
 10
10.1052884612
 20
7.5813336789
 30
0.0
 10
10.1101451022
 20
7.5855829056
 30
0.0
 10
10.1125264708
 20
7.5875058306
 30
0.0
  0
SPLINE
  5
41F
100
AcDbEntity
  8
0
100
AcDbSpline
 62
7
  6
CONTINUOUS
 70
0
 71
3
 72
14
 73
10
 74
0
 42
0.0000001
 43
0.0000001
 44
0.0000000001
 40
0.0
 40
0.0
 40
0.0
 40
0.0
 40
0.0895096059
 40
0.1898012229
 40
0.3005990194
 40
0.4215804584
 40
0.5524623801
 40
0.6929167834
 40
1.0
 40
1.0
 40
1.0
 40
1.0
 10
10.1099593479
 20
7.575203851
 30
0.0
 10
10.1076003267
 20
7.5734085132
 30
0.0
 10
10.1027772698
 20
7.5693645752
 30
0.0
 10
10.0956038912
 20
7.5624532595
 30
0.0
 10
10.0881192061
 20
7.5543883003
 30
0.0
 10
10.0803666703
 20
7.5452094899
 30
0.0
 10
10.0723850955
 20
7.5349526851
 30
0.0
 10
10.0611576489
 20
7.5194273419
 30
0.0
 10
10.0530507322
 20
7.5070055033
 30
0.0
 10
10.0477052854
 20
7.4983531813
 30
0.0
  0
LINE
  5
420
100
AcDbEntity
  8
0
100
AcDbLine
 62
7
  6
CONTINUOUS
 10
10.1117049864
 20
7.5107648695
 11
10.2225628534
 21
7.5106320109
  0
LINE
  5
421
100
AcDbEntity
  8
0
100
AcDbLine
 62
7
  6
CONTINUOUS
 10
10.2187692691
 20
7.4983507817
 11
10.1078956913
 21
7.4984275925
  0
SPLINE
  5
422
100
AcDbEntity
  8
0
100
AcDbSpline
 62
7
  6
CONTINUOUS
 70
0
 71
3
 72
11
 73
7
 74
0
 42
0.0000001
 43
0.0000001
 44
0.0000000001
 40
0.0
 40
0.0
 40
0.0
 40
0.0
 40
0.2216495853
 40
0.4552919558
 40
0.7121873492
 40
1.0
 40
1.0
 40
1.0
 40
1.0
 10
10.2703911314
 20
7.5874243283
 30
0.0
 10
10.2715639071
 20
7.5888111792
 30
0.0
 10
10.274348069
 20
7.5913595054
 30
0.0
 10
10.2794656558
 20
7.5942417354
 30
0.0
 10
10.2855084585
 20
7.5963550331
 30
0.0
 10
10.2898826114
 20
7.5972877414
 30
0.0
 10
10.2922072381
 20
7.5976854607
 30
0.0
  0
SPLINE
  5
423
100
AcDbEntity
  8
0
100
AcDbSpline
 62
7
  6
CONTINUOUS
 70
0
 71
3
 72
9
 73
5
 74
0
 42
0.0000001
 43
0.0000001
 44
0.0000000001
 40
0.0
 40
0.0
 40
0.0
 40
0.0
 40
0.5210962363
 40
1.0
 40
1.0
 40
1.0
 40
1.0
 10
10.2879778583
 20
7.5839934142
 30
0.0
 10
10.2864046751
 20
7.5838024096
 30
0.0
 10
10.2833944582
 20
7.5833552442
 30
0.0
 10
10.2804239155
 20
7.5826825561
 30
0.0
 10
10.2790217984
 20
7.5822885605
 30
0.0
  0
SPLINE
  5
424
100
AcDbEntity
  8
0
100
AcDbSpline
 62
7
  6
CONTINUOUS
 70
0
 71
3
 72
11
 73
7
 74
0
 42
0.0000001
 43
0.0000001
 44
0.0000000001
 40
0.0
 40
0.0
 40
0.0
 40
0.0
 40
0.2709526607
 40
0.5240085876
 40
0.7647812735
 40
1.0
 40
1.0
 40
1.0
 40
1.0
 10
10.2790217984
 20
7.5822885605
 30
0.0
 10
10.2777579802
 20
7.581933427
 30
0.0
 10
10.275342767
 20
7.5811327048
 30
0.0
 10
10.2719830232
 20
7.5795440759
 30
0.0
 10
10.2690338626
 20
7.5775747024
 30
0.0
 10
10.2673478525
 20
7.575981009
 30
0.0
 10
10.2665927145
 20
7.5751274659
 30
0.0
  0
SPLINE
  5
425
100
AcDbEntity
  8
0
100
AcDbSpline
 62
7
  6
CONTINUOUS
 70
0
 71
3
 72
14
 73
10
 74
0
 42
0.0000001
 43
0.0000001
 44
0.0000000001
 40
0.0
 40
0.0
 40
0.0
 40
0.0
 40
0.3143647935
 40
0.4565993523
 40
0.5881063601
 40
0.7085432908
 40
0.8175867606
 40
0.9148634128
 40
1.0
 40
1.0
 40
1.0
 40
1.0
 10
10.2225628058
 20
7.5106318452
 30
0.0
 10
10.2270003153
 20
7.5190255839
 30
0.0
 10
10.233607552
 20
7.5311335804
 30
0.0
 10
10.2425273351
 20
7.5464946128
 30
0.0
 10
10.2487080765
 20
7.5566706589
 30
0.0
 10
10.254580139
 20
7.5658581613
 30
0.0
 10
10.2601200204
 20
7.5740272578
 30
0.0
 10
10.2653015713
 20
7.581145438
 30
0.0
 10
10.2687307949
 20
7.5854609187
 30
0.0
 10
10.2703911314
 20
7.5874243283
 30
0.0
  0
SPLINE
  5
426
100
AcDbEntity
  8
0
100
AcDbSpline
 62
7
  6
CONTINUOUS
 70
0
 71
3
 72
14
 73
10
 74
0
 42
0.0000001
 43
0.0000001
 44
0.0000000001
 40
0.0
 40
0.0
 40
0.0
 40
0.0
 40
0.0814349442
 40
0.1762232774
 40
0.2839154507
 40
0.4040579206
 40
0.536265105
 40
0.6801273746
 40
1.0
 40
1.0
 40
1.0
 40
1.0
 10
10.2665927145
 20
7.5751274659
 30
0.0
 10
10.2649627718
 20
7.5732851189
 30
0.0
 10
10.2615858721
 20
7.569165264
 30
0.0
 10
10.2564808412
 20
7.5622714962
 30
0.0
 10
10.2509790098
 20
7.5542254188
 30
0.0
 10
10.2451120105
 20
7.5450665361
 30
0.0
 10
10.2389081832
 20
7.5348305073
 30
0.0
 10
10.2299057945
 20
7.519240763
 30
0.0
 10
10.2232446971
 20
7.5069140528
 30
0.0
 10
10.2187692691
 20
7.4983507817
 30
0.0
  0
LINE
  5
427
100
AcDbEntity
  8
0
100
AcDbLine
 62
7
  6
CONTINUOUS
 10
10.2633563105
 20
7.5107877702
 11
10.3775611031
 21
7.5106351788
  0
LINE
  5
428
100
AcDbEntity
  8
0
100
AcDbLine
 62
7
  6
CONTINUOUS
 10
10.3725962413
 20
7.4983531812
 11
10.2583668377
 21
7.4984402565
  0
SPLINE
  5
429
100
AcDbEntity
  8
0
100
AcDbSpline
 62
7
  6
CONTINUOUS
 70
0
 71
3
 72
13
 73
9
 74
0
 42
0.0000001
 43
0.0000001
 44
0.0000000001
 40
0.0
 40
0.0
 40
0.0
 40
0.0
 40
0.1166140126
 40
0.2303531067
 40
0.3441060502
 40
0.4606874948
 40
0.711876976
 40
1.0
 40
1.0
 40
1.0
 40
1.0
 10
10.41023083
 20
7.5875058306
 30
0.0
 10
10.4105242921
 20
7.5881731094
 30
0.0
 10
10.4111951669
 20
7.5894538424
 30
0.0
 10
10.4124682058
 20
7.5911972222
 30
0.0
 10
10.4139854212
 20
7.5927326098
 30
0.0
 10
10.4163883913
 20
7.5945600781
 30
0.0
 10
10.4201041173
 20
7.5963785282
 30
0.0
 10
10.4233617675
 20
7.5972919461
 30
0.0
 10
10.4251196806
 20
7.597683851
 30
0.0
  0
SPLINE
  5
42A
100
AcDbEntity
  8
0
100
AcDbSpline
 62
7
  6
CONTINUOUS
 70
0
 71
3
 72
13
 73
9
 74
0
 42
0.0000001
 43
0.0000001
 44
0.0000000001
 40
0.0
 40
0.0
 40
0.0
 40
0.0
 40
0.2930472586
 40
0.5443246857
 40
0.6596896756
 40
0.7718555038
 40
0.8841447248
 40
1.0
 40
1.0
 40
1.0
 40
1.0
 10
10.419585164
 20
7.5839926633
 30
0.0
 10
10.4178900157
 20
7.5837214073
 30
0.0
 10
10.4147605733
 20
7.5830582231
 30
0.0
 10
10.411154652
 20
7.5815651889
 30
0.0
 10
10.408834149
 20
7.5799720764
 30
0.0
 10
10.4073788309
 20
7.5786012378
 30
0.0
 10
10.4061641017
 20
7.5770096305
 30
0.0
 10
10.40553247
 20
7.5758245229
 30
0.0
 10
10.405257886
 20
7.575203851
 30
0.0
  0
SPLINE
  5
42B
100
AcDbEntity
  8
0
100
AcDbSpline
 62
7
  6
CONTINUOUS
 70
0
 71
3
 72
11
 73
7
 74
0
 42
0.0000001
 43
0.0000001
 44
0.0000000001
 40
0.0
 40
0.0
 40
0.0
 40
0.0
 40
0.3247765594
 40
0.6022834857
 40
0.8285031848
 40
1.0
 40
1.0
 40
1.0
 40
1.0
 10
10.3775610267
 20
7.5106349783
 30
0.0
 10
10.3810537685
 20
7.5189756021
 30
0.0
 10
10.387545596
 20
7.5344367637
 30
0.0
 10
10.396528745
 20
7.5556829024
 30
0.0
 10
10.4039099511
 20
7.5729728133
 30
0.0
 10
10.4083086023
 20
7.5831350393
 30
0.0
 10
10.41023083
 20
7.5875058306
 30
0.0
  0
SPLINE
  5
42C
100
AcDbEntity
  8
0
100
AcDbSpline
 62
7
  6
CONTINUOUS
 70
0
 71
3
 72
11
 73
7
 74
0
 42
0.0000001
 43
0.0000001
 44
0.0000000001
 40
0.0
 40
0.0
 40
0.0
 40
0.0
 40
0.1642026062
 40
0.3885064569
 40
0.668739407
 40
1.0
 40
1.0
 40
1.0
 40
1.0
 10
10.405257886
 20
7.575203851
 30
0.0
 10
10.4034087598
 20
7.5710240715
 30
0.0
 10
10.3991068177
 20
7.5611023857
 30
0.0
 10
10.3917959441
 20
7.543983997
 30
0.0
 10
10.3827396596
 20
7.5225548073
 30
0.0
 10
10.3761549068
 20
7.5068593295
 30
0.0
 10
10.3725962413
 20
7.4983531813
 30
0.0
  0
LINE
  5
42D
100
AcDbEntity
  8
0
100
AcDbLine
 62
7
  6
CONTINUOUS
 10
10.4332641026
 20
7.5107648695
 11
10.5319062241
 21
7.510632011
  0
LINE
  5
42E
100
AcDbEntity
  8
0
100
AcDbLine
 62
7
  6
CONTINUOUS
 10
10.5258489974
 20
7.4983507817
 11
10.4271806769
 21
7.4984275925
  0
LINE
  5
42F
100
AcDbEntity
  8
0
100
AcDbLine
 62
7
  6
CONTINUOUS
 10
10.4510404784
 20
7.5862483789
 11
10.450066389
 21
7.5775108756
  0
SPLINE
  5
430
100
AcDbEntity
  8
0
100
AcDbSpline
 62
7
  6
CONTINUOUS
 70
0
 71
3
 72
12
 73
8
 74
0
 42
0.0000001
 43
0.0000001
 44
0.0000000001
 40
0.0
 40
0.0
 40
0.0
 40
0.0
 40
0.0908027774
 40
0.1919597984
 40
0.4242269471
 40
0.6946255628
 40
1.0
 40
1.0
 40
1.0
 40
1.0
 10
10.450066389
 20
7.5775108756
 30
0.0
 10
10.4497633083
 20
7.575448047
 30
0.0
 10
10.4490378782
 20
7.5710994656
 30
0.0
 10
10.4471556471
 20
7.5615411587
 30
0.0
 10
10.4439784388
 20
7.5480408456
 30
0.0
 10
10.4391291286
 20
7.530129711
 30
0.0
 10
10.4353414957
 20
7.5174616277
 30
0.0
 10
10.4332639851
 20
7.510764585
 30
0.0
  0
SPLINE
  5
431
100
AcDbEntity
  8
0
100
AcDbSpline
 62
7
  6
CONTINUOUS
 70
0
 71
3
 72
14
 73
10
 74
0
 42
0.0000001
 43
0.0000001
 44
0.0000000001
 40
0.0
 40
0.0
 40
0.0
 40
0.0
 40
0.3296774222
 40
0.4762314106
 40
0.6095465385
 40
0.7290882963
 40
0.8343578917
 40
0.9248249566
 40
1.0
 40
1.0
 40
1.0
 40
1.0
 10
10.4271875032
 20
7.4984443215
 30
0.0
 10
10.4297599355
 20
7.5065989594
 30
0.0
 10
10.4333273102
 20
7.5184274075
 30
0.0
 10
10.4374782111
 20
7.5336832509
 30
0.0
 10
10.4399883735
 20
7.5437349363
 30
0.0
 10
10.442010171
 20
7.5528020279
 30
0.0
 10
10.44353523
 20
7.560837903
 30
0.0
 10
10.444556082
 20
7.5677919052
 30
0.0
 10
10.4449350581
 20
7.572076221
 30
0.0
 10
10.4450115426
 20
7.5740245168
 30
0.0
  0
SPLINE
  5
432
100
AcDbEntity
  8
0
100
AcDbSpline
 62
7
  6
CONTINUOUS
 70
0
 71
3
 72
11
 73
7
 74
0
 42
0.0000001
 43
0.0000001
 44
0.0000000001
 40
0.0
 40
0.0
 40
0.0
 40
0.0
 40
0.2670731512
 40
0.5232574058
 40
0.7677943969
 40
1.0
 40
1.0
 40
1.0
 40
1.0
 10
9.6915827837
 20
7.5106437059
 30
0.0
 10
9.6960249268
 20
7.5160699223
 30
0.0
 10
9.70498774
 20
7.526492674
 30
0.0
 10
9.7189477713
 20
7.5410515572
 30
0.0
 10
9.7330349241
 20
7.5541771233
 30
0.0
 10
9.7426914395
 20
7.5621588429
 30
0.0
 10
9.747526769
 20
7.5658728484
 30
0.0
  0
LINE
  5
433
100
AcDbEntity
  8
0
100
AcDbLine
 62
9
  6
CONTINUOUS
 10
10.1871464402
 20
10.4935802245
 11
9.320902854
 21
10.493579911
  0
LINE
  5
434
100
AcDbEntity
  8
0
100
AcDbLine
 62
7
  6
CONTINUOUS
 10
10.5504225915
 20
7.5839934142
 11
10.5480950438
 21
7.5833138696
  0
SPLINE
  5
435
100
AcDbEntity
  8
0
100
AcDbSpline
 62
7
  6
CONTINUOUS
 70
0
 71
3
 72
9
 73
5
 74
0
 42
0.0000001
 43
0.0000001
 44
0.0000000001
 40
0.0
 40
0.0
 40
0.0
 40
0.0
 40
0.5137791316
 40
1.0
 40
1.0
 40
1.0
 40
1.0
 10
9.747526769
 20
7.5658728484
 30
0.0
 10
9.7515552469
 20
7.5689671129
 30
0.0
 10
9.75956745
 20
7.5747719067
 30
0.0
 10
9.7679538488
 20
7.5800257036
 30
0.0
 10
9.7721183517
 20
7.5824269924
 30
0.0
  0
LINE
  5
436
100
AcDbEntity
  8
0
100
AcDbLine
 62
7
  6
CONTINUOUS
 10
10.5675147401
 20
7.5107877703
 11
10.6652665988
 21
7.5106351788
  0
LINE
  5
437
100
AcDbEntity
  8
0
100
AcDbLine
 62
7
  6
CONTINUOUS
 10
10.6582117838
 20
7.4983531813
 11
10.5604239215
 21
7.4984402565
  0
SPLINE
  5
438
100
AcDbEntity
  8
0
100
AcDbSpline
 62
7
  6
CONTINUOUS
 70
0
 71
3
 72
14
 73
10
 74
0
 42
0.0000001
 43
0.0000001
 44
0.0000000001
 40
0.0
 40
0.0
 40
0.0
 40
0.0
 40
0.0893574696
 40
0.1891398792
 40
0.2993077092
 40
0.419742336
 40
0.5503045168
 40
0.6907995511
 40
1.0
 40
1.0
 40
1.0
 40
1.0
 10
10.5723468671
 20
7.5804886469
 30
0.0
 10
10.5727158823
 20
7.5784303359
 30
0.0
 10
10.5732866764
 20
7.574035062
 30
0.0
 10
10.5736894642
 20
7.5670380889
 30
0.0
 10
10.5736842626
 20
7.5593027209
 30
0.0
 10
10.5732694294
 20
7.5508582992
 30
0.0
 10
10.5724449462
 20
7.5417315485
 30
0.0
 10
10.5707435714
 20
7.5282573986
 30
0.0
 10
10.5689280233
 20
7.5178838871
 30
0.0
 10
10.5675145705
 20
7.5107874262
 30
0.0
  0
SPLINE
  5
439
100
AcDbEntity
  8
0
100
AcDbSpline
 62
7
  6
CONTINUOUS
 70
0
 71
3
 72
14
 73
10
 74
0
 42
0.0000001
 43
0.0000001
 44
0.0000000001
 40
0.0
 40
0.0
 40
0.0
 40
0.0
 40
0.3138100499
 40
0.455597315
 40
0.5866818811
 40
0.7068160151
 40
0.8158212889
 40
0.9135573178
 40
1.0
 40
1.0
 40
1.0
 40
1.0
 10
10.5604330256
 20
7.4984589004
 30
0.0
 10
10.561951884
 20
7.5056923205
 30
0.0
 10
10.5639008725
 20
7.5162531601
 30
0.0
 10
10.5657219547
 20
7.5299531028
 30
0.0
 10
10.5665950935
 20
7.5391709435
 30
0.0
 10
10.5670224822
 20
7.547647676
 30
0.0
 10
10.5670036163
 20
7.5553511104
 30
0.0
 10
10.5665403162
 20
7.5622460513
 30
0.0
 10
10.5658971853
 20
7.5665440005
 30
0.0
 10
10.5654819069
 20
7.5685371817
 30
0.0
  0
SPLINE
  5
43A
100
AcDbEntity
  8
0
100
AcDbSpline
 62
7
  6
CONTINUOUS
 70
0
 71
3
 72
20
 73
16
 74
0
 42
0.0000001
 43
0.0000001
 44
0.0000000001
 40
0.0
 40
0.0
 40
0.0
 40
0.0
 40
0.0442923
 40
0.0853431177
 40
0.1251151067
 40
0.1657622802
 40
0.2092168192
 40
0.2569162814
 40
0.3097577797
 40
0.3681816899
 40
0.4322730816
 40
0.5018458177
 40
0.655497702
 40
0.8240208406
 40
1.0
 40
1.0
 40
1.0
 40
1.0
 10
9.3469301839
 20
10.4155229713
 30
0.0
 10
9.3477085691
 20
10.4162405032
 30
0.0
 10
9.3493416918
 20
10.4174919265
 30
0.0
 10
9.3520973419
 20
10.4187286973
 30
0.0
 10
9.354997546
 20
10.4191975107
 30
0.0
 10
9.3579739097
 20
10.4188888521
 30
0.0
 10
9.3609662737
 20
10.4178261282
 30
0.0
 10
9.3639308801
 20
10.4160408169
 30
0.0
 10
9.3668280185
 20
10.4135604658
 30
0.0
 10
9.3696131022
 20
10.4104134053
 30
0.0
 10
9.3722363141
 20
10.4066340323
 30
0.0
 10
9.3755548614
 20
10.4006105452
 30
0.0
 10
9.3788856599
 20
10.3918041437
 30
0.0
 10
9.381299975
 20
10.3801026882
 30
0.0
 10
9.3817539441
 20
10.3718448333
 30
0.0
 10
9.3816767598
 20
10.3676393932
 30
0.0
  0
SPLINE
  5
43B
100
AcDbEntity
  8
0
100
AcDbSpline
 62
9
  6
CONTINUOUS
 70
0
 71
3
 72
21
 73
17
 74
0
 42
0.0000001
 43
0.0000001
 44
0.0000000001
 40
0.0
 40
0.0
 40
0.0
 40
0.0
 40
0.0374268384
 40
0.0736802775
 40
0.1107508925
 40
0.1504695249
 40
0.1942343133
 40
0.2429329163
 40
0.2970861984
 40
0.3568712162
 40
0.4221804071
 40
0.4927744595
 40
0.5682937422
 40
0.6482660448
 40
0.8193230707
 40
1.0
 40
1.0
 40
1.0
 40
1.0
 10
9.3362124884
 20
10.4025923898
 30
0.0
 10
9.3357895552
 20
10.4019173234
 30
0.0
 10
9.3350993599
 20
10.4004889098
 30
0.0
 10
9.3346434488
 20
10.3981497945
 30
0.0
 10
9.3348012394
 20
10.3957240658
 30
0.0
 10
9.3355603673
 20
10.3932526508
 30
0.0
 10
9.3368944592
 20
10.3907598302
 30
0.0
 10
9.3387803435
 20
10.3882609123
 30
0.0
 10
9.3412019775
 20
10.3857769592
 30
0.0
 10
9.3441347511
 20
10.3833283669
 30
0.0
 10
9.3475484868
 20
10.3809348082
 30
0.0
 10
9.3514120744
 20
10.3786211689
 30
0.0
 10
9.355689188
 20
10.3764100113
 30
0.0
 10
9.3620317857
 20
10.3735603499
 30
0.0
 10
9.3706884804
 20
10.3704380387
 30
0.0
 10
9.3779268119
 20
10.3684918045
 30
0.0
 10
9.3816767598
 20
10.3676393932
 30
0.0
  0
LINE
  5
43C
100
AcDbEntity
  8
0
100
AcDbLine
 62
7
  6
CONTINUOUS
 10
10.7117358205
 20
7.5107648697
 11
10.7919641492
 21
7.5106320109
  0
LINE
  5
43D
100
AcDbEntity
  8
0
100
AcDbLine
 62
7
  6
CONTINUOUS
 10
10.784023878
 20
7.4983507817
 11
10.7037605083
 21
7.4984275925
  0
SPLINE
  5
43E
100
AcDbEntity
  8
0
100
AcDbSpline
 62
7
  6
CONTINUOUS
 70
0
 71
3
 72
15
 73
11
 74
0
 42
0.0000001
 43
0.0000001
 44
0.0000000001
 40
0.0
 40
0.0
 40
0.0
 40
0.0
 40
0.0909187522
 40
0.1906151256
 40
0.2998709993
 40
0.4191710317
 40
0.5488319516
 40
0.6889924212
 40
0.8395006811
 40
1.0
 40
1.0
 40
1.0
 40
1.0
 10
10.7004598447
 20
7.5862483789
 30
0.0
 10
10.7017689807
 20
7.584296224
 30
0.0
 10
10.7041809772
 20
7.5799758171
 30
0.0
 10
10.7070641097
 20
7.5727623695
 30
0.0
 10
10.7093634668
 20
7.564579427
 30
0.0
 10
10.7110689353
 20
7.55546679
 30
0.0
 10
10.7121739413
 20
7.5454598029
 30
0.0
 10
10.7126699719
 20
7.5345980603
 30
0.0
 10
10.7125510712
 20
7.5229297187
 30
0.0
 10
10.7120721449
 20
7.5149002287
 30
0.0
 10
10.7117356555
 20
7.510764585
 30
0.0
  0
SPLINE
  5
43F
100
AcDbEntity
  8
0
100
AcDbSpline
 62
7
  6
CONTINUOUS
 70
0
 71
3
 72
15
 73
11
 74
0
 42
0.0000001
 43
0.0000001
 44
0.0000000001
 40
0.0
 40
0.0
 40
0.0
 40
0.0
 40
0.1633697781
 40
0.3159754023
 40
0.4573846165
 40
0.5873985358
 40
0.7061583223
 40
0.8140358455
 40
0.9116402928
 40
1.0
 40
1.0
 40
1.0
 40
1.0
 10
10.7037701446
 20
7.4984443215
 30
0.0
 10
10.7041819896
 20
7.5026659233
 30
0.0
 10
10.7047930465
 20
7.5108508528
 30
0.0
 10
10.7050591779
 20
7.5227289803
 30
0.0
 10
10.7046544099
 20
7.5337382159
 30
0.0
 10
10.7035863918
 20
7.5438216814
 30
0.0
 10
10.7018639795
 20
7.5529321596
 30
0.0
 10
10.6994933277
 20
7.5610274627
 30
0.0
 10
10.696485049
 20
7.5680601723
 30
0.0
 10
10.693939529
 20
7.5721940315
 30
0.0
 10
10.6925566609
 20
7.5740245168
 30
0.0
  0
SPLINE
  5
440
100
AcDbEntity
  8
0
100
AcDbSpline
 62
7
  6
CONTINUOUS
 70
0
 71
3
 72
14
 73
10
 74
0
 42
0.0000001
 43
0.0000001
 44
0.0000000001
 40
0.0
 40
0.0
 40
0.0
 40
0.0
 40
0.3584743704
 40
0.5060513964
 40
0.6336785189
 40
0.7430283459
 40
0.836947154
 40
0.9202434934
 40
1.0
 40
1.0
 40
1.0
 40
1.0
 10
10.6925566609
 20
7.5740245168
 30
0.0
 10
10.6919705707
 20
7.5748003172
 30
0.0
 10
10.6911697545
 20
7.5759186153
 30
0.0
 10
10.6903070068
 20
7.5774067627
 30
0.0
 10
10.6898637417
 20
7.5783529529
 30
0.0
 10
10.689584787
 20
7.5792092476
 30
0.0
 10
10.6894765373
 20
7.5799847021
 30
0.0
 10
10.6895536264
 20
7.5806864658
 30
0.0
 10
10.6897382569
 20
7.5810977455
 30
0.0
 10
10.6898557721
 20
7.5812793689
 30
0.0
  0
SPLINE
  5
441
100
AcDbEntity
  8
0
100
AcDbSpline
 62
7
  6
CONTINUOUS
 70
0
 71
3
 72
9
 73
5
 74
0
 42
0.0000001
 43
0.0000001
 44
0.0000000001
 40
0.0
 40
0.0
 40
0.0
 40
0.0
 40
0.4849529538
 40
1.0
 40
1.0
 40
1.0
 40
1.0
 10
9.7721183517
 20
7.5704053517
 30
0.0
 10
9.7679495433
 20
7.5681075179
 30
0.0
 10
9.7595527314
 20
7.563002051
 30
0.0
 10
9.7515503237
 20
7.5573037538
 30
0.0
 10
9.7475264025
 20
7.5542432703
 30
0.0
  0
LINE
  5
442
100
AcDbEntity
  8
0
100
AcDbLine
 62
7
  6
CONTINUOUS
 10
10.8201503102
 20
7.5107877705
 11
10.8953071261
 21
7.5106351787
  0
LINE
  5
443
100
AcDbEntity
  8
0
100
AcDbLine
 62
7
  6
CONTINUOUS
 10
10.8866056379
 20
7.4983531813
 11
10.8114036881
 21
7.4984402565
  0
SPLINE
  5
444
100
AcDbEntity
  8
0
100
AcDbSpline
 62
7
  6
CONTINUOUS
 70
0
 71
3
 72
12
 73
8
 74
0
 42
0.0000001
 43
0.0000001
 44
0.0000000001
 40
0.0
 40
0.0
 40
0.0
 40
0.0
 40
0.2105456829
 40
0.3248412742
 40
0.4457023925
 40
0.7083745708
 40
1.0
 40
1.0
 40
1.0
 40
1.0
 10
10.8000325911
 20
7.5804886469
 30
0.0
 10
10.8032095099
 20
7.5764126451
 30
0.0
 10
10.8073473247
 20
7.5695073442
 30
0.0
 10
10.8116372656
 20
7.5594379355
 30
0.0
 10
10.8154682003
 20
7.5478191926
 30
0.0
 10
10.8188150176
 20
7.5315325387
 30
0.0
 10
10.8199191312
 20
7.5179416447
 30
0.0
 10
10.8201500885
 20
7.5107874262
 30
0.0
  0
SPLINE
  5
445
100
AcDbEntity
  8
0
100
AcDbSpline
 62
7
  6
CONTINUOUS
 70
0
 71
3
 72
13
 73
9
 74
0
 42
0.0000001
 43
0.0000001
 44
0.0000000001
 40
0.0
 40
0.0
 40
0.0
 40
0.0
 40
0.2950024043
 40
0.4308173383
 40
0.5588047056
 40
0.6792550082
 40
0.7926056881
 40
1.0
 40
1.0
 40
1.0
 40
1.0
 10
10.811415633
 20
7.4984589004
 30
0.0
 10
10.8113357407
 20
7.5057482458
 30
0.0
 10
10.810670718
 20
7.5164077151
 30
0.0
 10
10.8084385456
 20
7.5300439214
 30
0.0
 10
10.806226306
 20
7.5392870521
 30
0.0
 10
10.8034397171
 20
7.5477961355
 30
0.0
 10
10.7991092887
 20
7.5578077429
 30
0.0
 10
10.7948542096
 20
7.5646068431
 30
0.0
 10
10.7915652738
 20
7.5685371817
 30
0.0
  0
SPLINE
  5
446
100
AcDbEntity
  8
0
100
AcDbSpline
 62
7
  6
CONTINUOUS
 70
0
 71
3
 72
16
 73
12
 74
0
 42
0.0000001
 43
0.0000001
 44
0.0000000001
 40
0.0
 40
0.0
 40
0.0
 40
0.0
 40
0.2108612002
 40
0.3953298171
 40
0.5535098348
 40
0.6856983243
 40
0.7926900637
 40
0.8765726341
 40
0.9421361118
 40
0.9711836917
 40
1.0
 40
1.0
 40
1.0
 40
1.0
 10
10.7915652738
 20
7.5685371817
 30
0.0
 10
10.7908517674
 20
7.5693898349
 30
0.0
 10
10.7895171831
 20
7.5709910591
 30
0.0
 10
10.7876778605
 20
7.5732571617
 30
0.0
 10
10.786151031
 20
7.5752420519
 30
0.0
 10
10.7849509175
 20
7.576960675
 30
0.0
 10
10.7840904354
 20
7.5784348753
 30
0.0
 10
10.7835773746
 20
7.5796920781
 30
0.0
 10
10.7834663352
 20
7.580651497
 30
0.0
 10
10.7836243716
 20
7.5812896436
 30
0.0
 10
10.7837721412
 20
7.5815608155
 30
0.0
 10
10.7838600901
 20
7.5816847128
 30
0.0
  0
SPLINE
  5
447
100
AcDbEntity
  8
0
100
AcDbSpline
 62
7
  6
CONTINUOUS
 70
0
 71
3
 72
11
 73
7
 74
0
 42
0.0000001
 43
0.0000001
 44
0.0000000001
 40
0.0
 40
0.0
 40
0.0
 40
0.0
 40
0.2307766196
 40
0.4750134448
 40
0.7318120956
 40
1.0
 40
1.0
 40
1.0
 40
1.0
 10
9.7475264025
 20
7.5542432703
 30
0.0
 10
9.742673443
 20
7.550552243
 30
0.0
 10
9.7329706832
 20
7.5425734127
 30
0.0
 10
9.7188709025
 20
7.5293263413
 30
0.0
 10
9.7049250269
 20
7.5145277599
 30
0.0
 10
9.6959959667
 20
7.5039031339
 30
0.0
 10
9.6915827837
 20
7.4983598015
 30
0.0
  0
LINE
  5
448
100
AcDbEntity
  8
0
100
AcDbLine
 62
7
  6
CONTINUOUS
 10
10.929622738
 20
7.5107648697
 11
10.9863962329
 21
7.5106320109
  0
LINE
  5
449
100
AcDbEntity
  8
0
100
AcDbLine
 62
7
  6
CONTINUOUS
 10
10.9770718336
 20
7.4983507817
 11
10.9202566574
 21
7.4984275925
  0
SPLINE
  5
44A
100
AcDbEntity
  8
0
100
AcDbSpline
 62
7
  6
CONTINUOUS
 70
0
 71
3
 72
14
 73
10
 74
0
 42
0.0000001
 43
0.0000001
 44
0.0000000001
 40
0.0
 40
0.0
 40
0.0
 40
0.0
 40
0.1095410826
 40
0.2219711123
 40
0.3381900594
 40
0.458997113
 40
0.5851320252
 40
0.7171936549
 40
1.0
 40
1.0
 40
1.0
 40
1.0
 10
10.8900029216
 20
7.5862483789
 30
0.0
 10
10.8925782732
 20
7.5843628025
 30
0.0
 10
10.897553834
 20
7.5801989701
 30
0.0
 10
10.9043012266
 20
7.5729875916
 30
0.0
 10
10.9103799304
 20
7.5647924568
 30
0.0
 10
10.9157584369
 20
7.5556585032
 30
0.0
 10
10.9204140214
 20
7.5456256622
 30
0.0
 10
10.9257440332
 20
7.530773649
 30
0.0
 10
10.9283794356
 20
7.5189107733
 30
0.0
 10
10.9296225357
 20
7.510764585
 30
0.0
  0
SPLINE
  5
44B
100
AcDbEntity
  8
0
100
AcDbSpline
 62
7
  6
CONTINUOUS
 70
0
 71
3
 72
14
 73
10
 74
0
 42
0.0000001
 43
0.0000001
 44
0.0000000001
 40
0.0
 40
0.0
 40
0.0
 40
0.0
 40
0.2855741291
 40
0.4181519195
 40
0.5442498667
 40
0.6645584494
 40
0.7799536681
 40
0.8914000584
 40
1.0
 40
1.0
 40
1.0
 40
1.0
 10
10.9202684982
 20
7.4984443215
 30
0.0
 10
10.9192189148
 20
7.506743191
 30
0.0
 10
10.9168075465
 20
7.5188267611
 30
0.0
 10
10.9116069083
 20
7.533915959
 30
0.0
 10
10.906983908
 20
7.5440304595
 30
0.0
 10
10.9015706532
 20
7.5531664507
 30
0.0
 10
10.8953923957
 20
7.5612747966
 30
0.0
 10
10.8884858545
 20
7.5683004859
 30
0.0
 10
10.8833703738
 20
7.5722621795
 30
0.0
 10
10.880722076
 20
7.5740245168
 30
0.0
  0
LINE
  5
44C
100
AcDbEntity
  8
0
100
AcDbLine
 62
7
  6
CONTINUOUS
 10
10.880722076
 20
7.5740245168
 11
10.8723331043
 21
7.5794557608
  0
LINE
  5
44D
100
AcDbEntity
  8
0
100
AcDbLine
 62
7
  6
CONTINUOUS
 10
9.5765827572
 20
7.5107915715
 11
9.6915827786
 21
7.5106438576
  0
LINE
  5
44E
100
AcDbEntity
  8
0
100
AcDbLine
 62
9
  6
CONTINUOUS
 10
9.320902825
 20
10.096202761
 11
10.1871487157
 21
10.0962028682
  0
LINE
  5
44F
100
AcDbEntity
  8
0
100
AcDbLine
 62
7
  6
CONTINUOUS
 10
11.0031919835
 20
7.5976443521
 11
11.0051593794
 21
7.5970175426
  0
LINE
  5
450
100
AcDbEntity
  8
0
100
AcDbLine
 62
7
  6
CONTINUOUS
 10
11.0051593794
 20
7.5970175426
 11
11.0054322422
 21
7.5969452815
  0
LINE
  5
451
100
AcDbEntity
  8
0
100
AcDbLine
 62
7
  6
CONTINUOUS
 10
11.0054322422
 20
7.5969452815
 11
11.0140348484
 21
7.5945339623
  0
SPLINE
  5
452
100
AcDbEntity
  8
0
100
AcDbSpline
 62
9
  6
CONTINUOUS
 70
0
 71
3
 72
13
 73
9
 74
0
 42
0.0000001
 43
0.0000001
 44
0.0000000001
 40
0.0
 40
0.0
 40
0.0
 40
0.0
 40
0.246070486
 40
0.3746474926
 40
0.5043196001
 40
0.633329113
 40
0.7600482156
 40
1.0
 40
1.0
 40
1.0
 40
1.0
 10
9.3209024728
 20
10.0962033637
 30
0.0
 10
9.3225983519
 20
10.0898344912
 30
0.0
 10
9.3267130138
 20
10.0804479695
 30
0.0
 10
9.3349629958
 20
10.0696976447
 30
0.0
 10
9.3425635895
 20
10.0625629254
 30
0.0
 10
9.351245769
 20
10.0568811231
 30
0.0
 10
9.3634421722
 20
10.0515254302
 30
0.0
 10
9.3733602704
 20
10.0498917866
 30
0.0
 10
9.3797871784
 20
10.049891804
 30
0.0
  0
LINE
  5
453
100
AcDbEntity
  8
0
100
AcDbLine
 62
7
  6
CONTINUOUS
 10
11.0053889987
 20
7.5107877705
 11
11.0532283928
 21
7.5106351787
  0
LINE
  5
454
100
AcDbEntity
  8
0
100
AcDbLine
 62
7
  6
CONTINUOUS
 10
11.0434269777
 20
7.4983531813
 11
10.9955361554
 21
7.4984402565
  0
SPLINE
  5
455
100
AcDbEntity
  8
0
100
AcDbSpline
 62
7
  6
CONTINUOUS
 70
0
 71
3
 72
11
 73
7
 74
0
 42
0.0000001
 43
0.0000001
 44
0.0000000001
 40
0.0
 40
0.0
 40
0.0
 40
0.0
 40
0.2337169996
 40
0.4759037447
 40
0.7303973212
 40
1.0
 40
1.0
 40
1.0
 40
1.0
 10
10.9615855038
 20
7.5804886469
 30
0.0
 10
10.9668039485
 20
7.5765667331
 30
0.0
 10
10.976661637
 20
7.5675095596
 30
0.0
 10
10.9889732582
 20
7.551117101
 30
0.0
 10
10.9988150865
 20
7.5320098266
 30
0.0
 10
11.0034821862
 20
7.5180722959
 30
0.0
 10
11.0053887388
 20
7.5107874262
 30
0.0
  0
SPLINE
  5
456
100
AcDbEntity
  8
0
100
AcDbSpline
 62
7
  6
CONTINUOUS
 70
0
 71
3
 72
9
 73
5
 74
0
 42
0.0000001
 43
0.0000001
 44
0.0000000001
 40
0.0
 40
0.0
 40
0.0
 40
0.0
 40
0.5112250014
 40
1.0
 40
1.0
 40
1.0
 40
1.0
 10
10.9915190827
 20
7.5127148188
 30
0.0
 10
10.989801078
 20
7.5178042717
 30
0.0
 10
10.9858783164
 20
7.5275813422
 30
0.0
 10
10.9807716147
 20
7.5368025867
 30
0.0
 10
10.9779825982
 20
7.5411149988
 30
0.0
  0
LINE
  5
457
100
AcDbEntity
  8
0
100
AcDbLine
 62
7
  6
CONTINUOUS
 10
9.6915827837
 20
7.4983598015
 11
9.5765846484
 21
7.4984439272
  0
LINE
  5
458
100
AcDbEntity
  8
0
100
AcDbLine
 62
9
  6
CONTINUOUS
 10
9.2759444436
 20
10.4528017885
 11
9.3106402226
 21
10.4528023972
  0
SPLINE
  5
459
100
AcDbEntity
  8
0
100
AcDbSpline
 62
7
  6
CONTINUOUS
 70
0
 71
3
 72
16
 73
12
 74
0
 42
0.0000001
 43
0.0000001
 44
0.0000000001
 40
0.0
 40
0.0
 40
0.0
 40
0.0
 40
0.0852313993
 40
0.1240560713
 40
0.1625064188
 40
0.2449984155
 40
0.3448286013
 40
0.4684497279
 40
0.6185941361
 40
0.7959420181
 40
1.0
 40
1.0
 40
1.0
 40
1.0
 10
9.3118866676
 20
10.4183970516
 30
0.0
 10
9.3122033864
 20
10.4186500708
 30
0.0
 10
9.3127263145
 20
10.4189610624
 30
0.0
 10
9.3134890282
 20
10.419118506
 30
0.0
 10
9.3142555131
 20
10.4190992198
 30
0.0
 10
9.3152615337
 20
10.418704407
 30
0.0
 10
9.3163790567
 20
10.4177487542
 30
0.0
 10
9.317470204
 20
10.4163364561
 30
0.0
 10
9.3185405138
 20
10.4144718042
 30
0.0
 10
9.3195895968
 20
10.4121688229
 30
0.0
 10
9.3202258658
 20
10.4104686475
 30
0.0
 10
9.3205429693
 20
10.4095513766
 30
0.0
  0
LINE
  5
45A
100
AcDbEntity
  8
0
100
AcDbLine
 62
9
  6
CONTINUOUS
 10
9.3106398126
 20
10.1369806634
 11
9.7474510606
 21
10.1369808001
  0
LINE
  5
45B
100
AcDbEntity
  8
0
100
AcDbLine
 62
7
  6
CONTINUOUS
 10
11.0928629512
 20
7.4983507817
 11
11.0630658749
 21
7.4984275925
  0
SPLINE
  5
45C
100
AcDbEntity
  8
0
100
AcDbSpline
 62
7
  6
CONTINUOUS
 70
0
 71
3
 72
11
 73
7
 74
0
 42
0.0000001
 43
0.0000001
 44
0.0000000001
 40
0.0
 40
0.0
 40
0.0
 40
0.0
 40
0.243782246
 40
0.4894099162
 40
0.7403674812
 40
1.0
 40
1.0
 40
1.0
 40
1.0
 10
11.0077600204
 20
7.5862483789
 30
0.0
 10
11.0145010923
 20
7.5828355292
 30
0.0
 10
11.0274425841
 20
7.5747394247
 30
0.0
 10
11.0445094522
 20
7.5592300003
 30
0.0
 10
11.0589406378
 20
7.5406223948
 30
0.0
 10
11.0664843686
 20
7.5266204533
 30
0.0
 10
11.0697495406
 20
7.5192656383
 30
0.0
  0
SPLINE
  5
45D
100
AcDbEntity
  8
0
100
AcDbSpline
 62
7
  6
CONTINUOUS
 70
0
 71
3
 72
9
 73
5
 74
0
 42
0.0000001
 43
0.0000001
 44
0.0000000001
 40
0.0
 40
0.0
 40
0.0
 40
0.0
 40
0.5060469787
 40
1.0
 40
1.0
 40
1.0
 40
1.0
 10
11.0572742895
 20
7.5128903824
 30
0.0
 10
11.0551887603
 20
7.5173764154
 30
0.0
 10
11.0506067921
 20
7.5260353562
 30
0.0
 10
11.0451137136
 20
7.5341493961
 30
0.0
 10
11.0421843739
 20
7.5379882855
 30
0.0
  0
SPLINE
  5
45E
100
AcDbEntity
  8
0
100
AcDbSpline
 62
9
  6
CONTINUOUS
 70
0
 71
3
 72
19
 73
15
 74
0
 42
0.0000001
 43
0.0000001
 44
0.0000000001
 40
0.0
 40
0.0
 40
0.0
 40
0.0
 40
0.0457337756
 40
0.090031546
 40
0.1340169279
 40
0.1788272184
 40
0.2255242406
 40
0.2750332064
 40
0.3280614925
 40
0.385094448
 40
0.5122273949
 40
0.6576600538
 40
0.8208759947
 40
1.0
 40
1.0
 40
1.0
 40
1.0
 10
9.2952778841
 20
10.3981235358
 30
0.0
 10
9.2949885476
 20
10.3975634273
 30
0.0
 10
9.294502487
 20
10.3964143105
 30
0.0
 10
9.2940846583
 20
10.3946051611
 30
0.0
 10
9.2939981198
 20
10.392762576
 30
0.0
 10
9.2942416071
 20
10.3909014943
 30
0.0
 10
9.2948119187
 20
10.389034568
 30
0.0
 10
9.2957054397
 20
10.3871739931
 30
0.0
 10
9.2969127731
 20
10.3853287731
 30
0.0
 10
9.2990046077
 20
10.3828083336
 30
0.0
 10
9.3024170568
 20
10.3797707459
 30
0.0
 10
9.3074468938
 20
10.3764601269
 30
0.0
 10
9.3134561509
 20
10.3734176088
 30
0.0
 10
9.3178518886
 20
10.3716832436
 30
0.0
 10
9.3201810977
 20
10.3708637409
 30
0.0
  0
SPLINE
  5
45F
100
AcDbEntity
  8
0
100
AcDbSpline
 62
7
  6
CONTINUOUS
 70
0
 71
3
 72
18
 73
14
 74
0
 42
0.0000001
 43
0.0000001
 44
0.0000000001
 40
0.0
 40
0.0
 40
0.0
 40
0.0
 40
0.0273893839
 40
0.0519788102
 40
0.0767975273
 40
0.1047932001
 40
0.1380693435
 40
0.1778711549
 40
0.2794527671
 40
0.4122839392
 40
0.5769273039
 40
0.7730903226
 40
1.0
 40
1.0
 40
1.0
 40
1.0
 10
9.2926250016
 20
10.4189323361
 30
0.0
 10
9.2926915173
 20
10.4189840668
 30
0.0
 10
9.2928300218
 20
10.4190691267
 30
0.0
 10
9.2930663131
 20
10.419119642
 30
0.0
 10
9.2933060136
 20
10.4190769832
 30
0.0
 10
9.2935411054
 20
10.4189479517
 30
0.0
 10
9.2937739691
 20
10.4187391686
 30
0.0
 10
9.2941129443
 20
10.4183202471
 30
0.0
 10
9.2945243537
 20
10.4175782736
 30
0.0
 10
9.2949929029
 20
10.4164426278
 30
0.0
 10
9.2954641722
 20
10.4149975521
 30
0.0
 10
9.2959336893
 20
10.4132509741
 30
0.0
 10
9.2962216019
 20
10.4119812785
 30
0.0
 10
9.2963660147
 20
10.4112982877
 30
0.0
  0
LINE
  5
460
100
AcDbEntity
  8
0
100
AcDbLine
 62
7
  6
CONTINUOUS
 10
9.2963660147
 20
10.4112982877
 11
9.2978756187
 21
10.4019808286
  0
LINE
  5
461
100
AcDbEntity
  8
0
100
AcDbLine
 62
7
  6
CONTINUOUS
 10
11.1249516175
 20
7.4983854791
 11
11.1232149326
 21
7.4984275925
  0
SPLINE
  5
462
100
AcDbEntity
  8
0
100
AcDbSpline
 62
9
  6
CONTINUOUS
 70
0
 71
3
 72
15
 73
11
 74
0
 42
0.0000001
 43
0.0000001
 44
0.0000000001
 40
0.0
 40
0.0
 40
0.0
 40
0.0
 40
0.1244729347
 40
0.2491176924
 40
0.3738689862
 40
0.4987532898
 40
0.6238232266
 40
0.7490637676
 40
0.8744576327
 40
1.0
 40
1.0
 40
1.0
 40
1.0
 10
9.7872844931
 20
10.1381570669
 30
0.0
 10
9.7886800347
 20
10.1429310831
 30
0.0
 10
9.7912666637
 20
10.1525472268
 30
0.0
 10
9.7945534261
 20
10.1671245964
 30
0.0
 10
9.7972596533
 20
10.1818372628
 30
0.0
 10
9.7994598265
 20
10.1966498741
 30
0.0
 10
9.8012772394
 20
10.2115327871
 30
0.0
 10
9.8028339225
 20
10.2264653175
 30
0.0
 10
9.8041292033
 20
10.241441823
 30
0.0
 10
9.8048090078
 20
10.2514465982
 30
0.0
 10
9.8051015078
 20
10.256454605
 30
0.0
  0
SPLINE
  5
463
100
AcDbEntity
  8
0
100
AcDbSpline
 62
9
  6
CONTINUOUS
 70
0
 71
3
 72
15
 73
11
 74
0
 42
0.0000001
 43
0.0000001
 44
0.0000000001
 40
0.0
 40
0.0
 40
0.0
 40
0.0
 40
0.1054224132
 40
0.2076640809
 40
0.3121196443
 40
0.423816141
 40
0.546516782
 40
0.682719333
 40
0.8337354778
 40
1.0
 40
1.0
 40
1.0
 40
1.0
 10
9.273991321
 20
10.3953520277
 30
0.0
 10
9.2736082807
 20
10.3945111838
 30
0.0
 10
9.2730338737
 20
10.392762223
 30
0.0
 10
9.2728622847
 20
10.3900019233
 30
0.0
 10
9.2734176058
 20
10.3872369949
 30
0.0
 10
9.274674452
 20
10.3845210634
 30
0.0
 10
9.2765932107
 20
10.3818795943
 30
0.0
 10
9.2791487881
 20
10.3793368931
 30
0.0
 10
9.2823088587
 20
10.3769122543
 30
0.0
 10
9.2846849202
 20
10.3754579039
 30
0.0
 10
9.2859589458
 20
10.3747505234
 30
0.0
  0
LINE
  5
464
100
AcDbEntity
  8
0
100
AcDbLine
 62
7
  6
CONTINUOUS
 10
9.2861600711
 20
10.4191046678
 11
9.2862787363
 21
10.4164301844
  0
LINE
  5
465
100
AcDbEntity
  8
0
100
AcDbLine
 62
7
  6
CONTINUOUS
 10
9.286372041
 20
10.4141835984
 11
9.2864220609
 21
10.4129294497
  0
LINE
  5
466
100
AcDbEntity
  8
0
100
AcDbLine
 62
7
  6
CONTINUOUS
 10
11.1115915776
 20
7.5107877705
 11
11.1291076247
 21
7.5106351787
  0
LINE
  5
467
100
AcDbEntity
  8
0
100
AcDbLine
 62
7
  6
CONTINUOUS
 10
11.1188221419
 20
7.4983531813
 11
11.1012516036
 21
7.4984402565
  0
SPLINE
  5
468
100
AcDbEntity
  8
0
100
AcDbSpline
 62
7
  6
CONTINUOUS
 70
0
 71
3
 72
11
 73
7
 74
0
 42
0.0000001
 43
0.0000001
 44
0.0000000001
 40
0.0
 40
0.0
 40
0.0
 40
0.0
 40
0.2475662125
 40
0.4953624694
 40
0.7454734531
 40
1.0
 40
1.0
 40
1.0
 40
1.0
 10
11.0468546416
 20
7.5804886469
 30
0.0
 10
11.0535065663
 20
7.5767893241
 30
0.0
 10
11.066279586
 20
7.5683709067
 30
0.0
 10
11.0833701342
 20
7.5529750368
 30
0.0
 10
11.0981092094
 20
7.5350379554
 30
0.0
 10
11.1061282064
 20
7.5216809386
 30
0.0
 10
11.1096692068
 20
7.5147025589
 30
0.0
  0
SPLINE
  5
469
100
AcDbEntity
  8
0
100
AcDbSpline
 62
9
  6
CONTINUOUS
 70
0
 71
3
 72
11
 73
7
 74
0
 42
0.0000001
 43
0.0000001
 44
0.0000000001
 40
0.0
 40
0.0
 40
0.0
 40
0.0
 40
0.247707566
 40
0.4880448475
 40
0.7347160683
 40
1.0
 40
1.0
 40
1.0
 40
1.0
 10
9.2660567108
 20
10.3924207129
 30
0.0
 10
9.2657023211
 20
10.3915265674
 30
0.0
 10
9.2652007021
 20
10.3896747444
 30
0.0
 10
9.2652122871
 20
10.3867875087
 30
0.0
 10
9.2660061392
 20
10.383944053
 30
0.0
 10
9.2669860131
 20
10.3821936179
 30
0.0
 10
9.2675716155
 20
10.3813462118
 30
0.0
  0
SPLINE
  5
46A
100
AcDbEntity
  8
0
100
AcDbSpline
 62
9
  6
CONTINUOUS
 70
0
 71
3
 72
13
 73
9
 74
0
 42
0.0000001
 43
0.0000001
 44
0.0000000001
 40
0.0
 40
0.0
 40
0.0
 40
0.0
 40
0.1197670364
 40
0.2437636253
 40
0.4976310489
 40
0.7528549755
 40
0.8783584941
 40
1.0
 40
1.0
 40
1.0
 40
1.0
 10
9.3205429751
 20
10.1673918129
 30
0.0
 10
9.3195158181
 20
10.1665304169
 30
0.0
 10
9.3175538967
 20
10.1646179508
 30
0.0
 10
9.3141199234
 20
10.1602183256
 30
0.0
 10
9.3109089846
 20
10.1537845262
 30
0.0
 10
9.3097177899
 20
10.1466785703
 30
0.0
 10
9.3098809373
 20
10.1410475269
 30
0.0
 10
9.3103253336
 20
10.1383061116
 30
0.0
 10
9.31063958
 20
10.1369813492
 30
0.0
  0
LINE
  5
46B
100
AcDbEntity
  8
0
100
AcDbLine
 62
7
  6
CONTINUOUS
 10
11.133546625
 20
7.5107648697
 11
11.1349256373
 21
7.5107077081
  0
LINE
  5
46C
100
AcDbEntity
  8
0
100
AcDbLine
 62
7
  6
CONTINUOUS
 10
11.1349256373
 20
7.5107077081
 11
11.1352415576
 21
7.5106724621
  0
SPLINE
  5
46D
100
AcDbEntity
  8
0
100
AcDbSpline
 62
7
  6
CONTINUOUS
 70
0
 71
3
 72
12
 73
8
 74
0
 42
0.0000001
 43
0.0000001
 44
0.0000000001
 40
0.0
 40
0.0
 40
0.0
 40
0.0
 40
0.1086717076
 40
0.2224058166
 40
0.4641919568
 40
0.7241630312
 40
1.0
 40
1.0
 40
1.0
 40
1.0
 10
9.6357848269
 20
7.5751274659
 30
0.0
 10
9.6315502849
 20
7.5733981839
 30
0.0
 10
9.6230271287
 20
7.5694998058
 30
0.0
 10
9.6058864985
 20
7.5600952835
 30
0.0
 10
9.5844888785
 20
7.5453582977
 30
0.0
 10
9.5597996219
 20
7.5237838745
 30
0.0
 10
9.5444177078
 20
7.5072283603
 30
0.0
 10
9.5369355629
 20
7.4983507817
 30
0.0
  0
SPLINE
  5
46E
100
AcDbEntity
  8
0
100
AcDbSpline
 62
7
  6
CONTINUOUS
 70
0
 71
3
 72
11
 73
7
 74
0
 42
0.0000001
 43
0.0000001
 44
0.0000000001
 40
0.0
 40
0.0
 40
0.0
 40
0.0
 40
0.2739269975
 40
0.533045532
 40
0.7754486519
 40
1.0
 40
1.0
 40
1.0
 40
1.0
 10
9.5356439995
 20
7.5106318452
 30
0.0
 10
9.543198662
 20
7.519319406
 30
0.0
 10
9.5586718081
 20
7.5355741154
 30
0.0
 10
9.5833535824
 20
7.5569411835
 30
0.0
 10
9.6084558505
 20
7.5743967392
 30
0.0
 10
9.6258514824
 20
7.5836272089
 30
0.0
 10
9.6344916019
 20
7.5874243283
 30
0.0
  0
SPLINE
  5
46F
100
AcDbEntity
  8
0
100
AcDbSpline
 62
7
  6
CONTINUOUS
 70
0
 71
3
 72
9
 73
5
 74
0
 42
0.0000001
 43
0.0000001
 44
0.0000000001
 40
0.0
 40
0.0
 40
0.0
 40
0.0
 40
0.2557699535
 40
1.0
 40
1.0
 40
1.0
 40
1.0
 10
9.648697469
 20
7.5793442691
 30
0.0
 10
9.6475752174
 20
7.5790563812
 30
0.0
 10
9.6432046271
 20
7.5778664009
 30
0.0
 10
9.6389058309
 20
7.5764020066
 30
0.0
 10
9.6357848269
 20
7.5751274659
 30
0.0
  0
SPLINE
  5
470
100
AcDbEntity
  8
0
100
AcDbSpline
 62
7
  6
CONTINUOUS
 70
0
 71
3
 72
10
 73
6
 74
0
 42
0.0000001
 43
0.0000001
 44
0.0000000001
 40
0.0
 40
0.0
 40
0.0
 40
0.0
 40
0.4761996698
 40
0.7320278785
 40
1.0
 40
1.0
 40
1.0
 40
1.0
 10
9.6344916019
 20
7.5874243283
 30
0.0
 10
9.6410647642
 20
7.5903130709
 30
0.0
 10
9.6517118638
 20
7.5935412021
 30
0.0
 10
9.6665348318
 20
7.5962930995
 30
0.0
 10
9.6743776998
 20
7.5972730494
 30
0.0
 10
9.6783969591
 20
7.5976854607
 30
0.0
  0
LINE
  5
471
100
AcDbEntity
  8
0
100
AcDbLine
 62
7
  6
CONTINUOUS
 10
9.5369355629
 20
7.4983507817
 11
9.4228804189
 21
7.4984275925
  0
LINE
  5
472
100
AcDbEntity
  8
0
100
AcDbLine
 62
7
  6
CONTINUOUS
 10
9.4215813283
 20
7.5107648695
 11
9.5356439783
 21
7.510632011
  0
SPLINE
  5
473
100
AcDbEntity
  8
0
100
AcDbSpline
 62
7
  6
CONTINUOUS
 70
0
 71
3
 72
11
 73
7
 74
0
 42
0.0000001
 43
0.0000001
 44
0.0000000001
 40
0.0
 40
0.0
 40
0.0
 40
0.0
 40
0.2295838881
 40
0.4738253567
 40
0.7313441478
 40
1.0
 40
1.0
 40
1.0
 40
1.0
 10
9.47102896
 20
7.575203851
 30
0.0
 10
9.4613976222
 20
7.5717140522
 30
0.0
 10
9.442070853
 20
7.5629349924
 30
0.0
 10
9.4143213329
 20
7.5456144305
 30
0.0
 10
9.3874815571
 20
7.5240162971
 30
0.0
 10
9.3709089319
 20
7.5073071894
 30
0.0
 10
9.3629386339
 20
7.4983531813
 30
0.0
  0
SPLINE
  5
474
100
AcDbEntity
  8
0
100
AcDbSpline
 62
7
  6
CONTINUOUS
 70
0
 71
3
 72
11
 73
7
 74
0
 42
0.0000001
 43
0.0000001
 44
0.0000000001
 40
0.0
 40
0.0
 40
0.0
 40
0.0
 40
0.2672694979
 40
0.5241044384
 40
0.7687361298
 40
1.0
 40
1.0
 40
1.0
 40
1.0
 10
9.3603757226
 20
7.5106349783
 30
0.0
 10
9.3684442029
 20
7.5193940471
 30
0.0
 10
9.3851390365
 20
7.5357912461
 30
0.0
 10
9.4119751919
 20
7.557178647
 30
0.0
 10
9.4396438615
 20
7.5746352969
 30
0.0
 10
9.4588651066
 20
7.5837525882
 30
0.0
 10
9.4684618371
 20
7.5875058306
 30
0.0
  0
SPLINE
  5
475
100
AcDbEntity
  8
0
100
AcDbSpline
 62
7
  6
CONTINUOUS
 70
0
 71
3
 72
11
 73
7
 74
0
 42
0.0000001
 43
0.0000001
 44
0.0000000001
 40
0.0
 40
0.0
 40
0.0
 40
0.0
 40
0.2510054878
 40
0.5002720589
 40
0.7494677329
 40
1.0
 40
1.0
 40
1.0
 40
1.0
 10
11.0593829972
 20
7.580341038
 30
0.0
 10
11.066904304
 20
7.5765755335
 30
0.0
 10
11.0813968467
 20
7.5680219806
 30
0.0
 10
11.1010818036
 20
7.5522942471
 30
0.0
 10
11.1183196507
 20
7.5339374767
 30
0.0
 10
11.1279573395
 20
7.5201593251
 30
0.0
 10
11.1322618597
 20
7.5129514356
 30
0.0
  0
SPLINE
  5
476
100
AcDbEntity
  8
0
100
AcDbSpline
 62
7
  6
CONTINUOUS
 70
0
 71
3
 72
9
 73
5
 74
0
 42
0.0000001
 43
0.0000001
 44
0.0000000001
 40
0.0
 40
0.0
 40
0.0
 40
0.0
 40
0.512695731
 40
1.0
 40
1.0
 40
1.0
 40
1.0
 10
9.5013809638
 20
7.5822907541
 30
0.0
 10
9.4960951129
 20
7.5815747517
 30
0.0
 10
9.4858311862
 20
7.5797892962
 30
0.0
 10
9.4757956498
 20
7.5769310034
 30
0.0
 10
9.47102896
 20
7.575203851
 30
0.0
  0
SPLINE
  5
477
100
AcDbEntity
  8
0
100
AcDbSpline
 62
7
  6
CONTINUOUS
 70
0
 71
3
 72
9
 73
5
 74
0
 42
0.0000001
 43
0.0000001
 44
0.0000000001
 40
0.0
 40
0.0
 40
0.0
 40
0.0
 40
0.4874826969
 40
1.0
 40
1.0
 40
1.0
 40
1.0
 10
9.4684618371
 20
7.5875058306
 30
0.0
 10
9.4731915228
 20
7.5893555916
 30
0.0
 10
9.4831553897
 20
7.5924944603
 30
0.0
 10
9.493373942
 20
7.5945918807
 30
0.0
 10
9.4986406993
 20
7.5954693053
 30
0.0
  0
LINE
  5
478
100
AcDbEntity
  8
0
100
AcDbLine
 62
7
  6
CONTINUOUS
 10
9.4986406993
 20
7.5954693053
 11
9.5114745776
 21
7.5972419115
  0
SPLINE
  5
479
100
AcDbEntity
  8
0
100
AcDbSpline
 62
9
  6
CONTINUOUS
 70
0
 71
3
 72
9
 73
5
 74
0
 42
0.0000001
 43
0.0000001
 44
0.0000000001
 40
0.0
 40
0.0
 40
0.0
 40
0.0
 40
0.5237772909
 40
1.0
 40
1.0
 40
1.0
 40
1.0
 10
9.2887029291
 20
10.182308347
 30
0.0
 10
9.2866427038
 20
10.1830521078
 30
0.0
 10
9.2827639571
 20
10.1846304283
 30
0.0
 10
9.2790531037
 20
10.1865800619
 30
0.0
 10
9.2773535307
 20
10.1876181009
 30
0.0
  0
SPLINE
  5
47A
100
AcDbEntity
  8
0
100
AcDbSpline
 62
9
  6
CONTINUOUS
 70
0
 71
3
 72
10
 73
6
 74
0
 42
0.0000001
 43
0.0000001
 44
0.0000000001
 40
0.0
 40
0.0
 40
0.0
 40
0.0
 40
0.2826799409
 40
0.5430843309
 40
1.0
 40
1.0
 40
1.0
 40
1.0
 10
9.2773535307
 20
10.1876181009
 30
0.0
 10
9.2763555913
 20
10.1882276069
 30
0.0
 10
9.2744810703
 20
10.1894738989
 30
0.0
 10
9.2712624458
 20
10.1920725629
 30
0.0
 10
9.269240675
 20
10.1943054652
 30
0.0
 10
9.2682200728
 20
10.1958963346
 30
0.0
  0
LINE
  5
47B
100
AcDbEntity
  8
0
100
AcDbLine
 62
9
  6
CONTINUOUS
 10
9.2682200728
 20
10.1958963346
 11
9.2668136924
 21
10.1986799163
  0
LINE
  5
47C
100
AcDbEntity
  8
0
100
AcDbLine
 62
7
  6
CONTINUOUS
 10
9.3629386339
 20
7.4983531813
 11
9.2442901531
 21
7.4984402565
  0
LINE
  5
47D
100
AcDbEntity
  8
0
100
AcDbLine
 62
7
  6
CONTINUOUS
 10
9.2417116482
 20
7.5107877703
 11
9.3603756758
 21
7.5106351788
  0
SPLINE
  5
47E
100
AcDbEntity
  8
0
100
AcDbSpline
 62
7
  6
CONTINUOUS
 70
0
 71
3
 72
10
 73
6
 74
0
 42
0.0000001
 43
0.0000001
 44
0.0000000001
 40
0.0
 40
0.0
 40
0.0
 40
0.0
 40
0.2390370173
 40
0.4859927797
 40
1.0
 40
1.0
 40
1.0
 40
1.0
 10
9.316574568
 20
7.5736839466
 30
0.0
 10
9.3090450171
 20
7.571025617
 30
0.0
 10
9.2940106211
 20
7.5648102367
 30
0.0
 10
9.2644689449
 20
7.5491469779
 30
0.0
 10
9.243710346
 20
7.5341722862
 30
0.0
 10
9.2306694385
 20
7.5230027596
 30
0.0
  0
SPLINE
  5
47F
100
AcDbEntity
  8
0
100
AcDbSpline
 62
7
  6
CONTINUOUS
 70
0
 71
3
 72
11
 73
7
 74
0
 42
0.0000001
 43
0.0000001
 44
0.0000000001
 40
0.0
 40
0.0
 40
0.0
 40
0.0
 40
0.2617325248
 40
0.5166421176
 40
0.7631196588
 40
1.0
 40
1.0
 40
1.0
 40
1.0
 10
9.2012301677
 20
7.5106318452
 30
0.0
 10
9.2097046784
 20
7.5194343212
 30
0.0
 10
9.227392744
 20
7.5359142785
 30
0.0
 10
9.2560008294
 20
7.557263492
 30
0.0
 10
9.2858246517
 20
7.574681845
 30
0.0
 10
9.3065846344
 20
7.5837010647
 30
0.0
 10
9.3169976695
 20
7.5874243283
 30
0.0
  0
SPLINE
  5
480
100
AcDbEntity
  8
0
100
AcDbSpline
 62
9
  6
CONTINUOUS
 70
0
 71
3
 72
14
 73
10
 74
0
 42
0.0000001
 43
0.0000001
 44
0.0000000001
 40
0.0
 40
0.0
 40
0.0
 40
0.0
 40
0.1632172211
 40
0.317213392
 40
0.4604056266
 40
0.5917437342
 40
0.7109280592
 40
0.8181108203
 40
1.0
 40
1.0
 40
1.0
 40
1.0
 10
9.3058100693
 20
10.1820457178
 30
0.0
 10
9.3040039929
 20
10.1826382658
 30
0.0
 10
9.3005253223
 20
10.1838894949
 30
0.0
 10
9.2956013692
 20
10.1860211552
 30
0.0
 10
9.2911723757
 20
10.1883330574
 30
0.0
 10
9.2872994199
 20
10.1907972483
 30
0.0
 10
9.2840208118
 20
10.1933879593
 30
0.0
 10
9.2806864328
 20
10.1967743288
 30
0.0
 10
9.2788468437
 20
10.1997261147
 30
0.0
 10
9.2782145901
 20
10.2017478024
 30
0.0
  0
SPLINE
  5
481
100
AcDbEntity
  8
0
100
AcDbSpline
 62
7
  6
CONTINUOUS
 70
0
 71
3
 72
10
 73
6
 74
0
 42
0.0000001
 43
0.0000001
 44
0.0000000001
 40
0.0
 40
0.0
 40
0.0
 40
0.0
 40
0.4857244776
 40
0.739612881
 40
1.0
 40
1.0
 40
1.0
 40
1.0
 10
9.3169976695
 20
7.5874243283
 30
0.0
 10
9.3249641149
 20
7.5902727942
 30
0.0
 10
9.3375053617
 20
7.5934906377
 30
0.0
 10
9.3546997288
 20
7.596274275
 30
0.0
 10
9.3636068197
 20
7.5972684871
 30
0.0
 10
9.3681230503
 20
7.5976854607
 30
0.0
  0
SPLINE
  5
482
100
AcDbEntity
  8
0
100
AcDbSpline
 62
7
  6
CONTINUOUS
 70
0
 71
3
 72
11
 73
7
 74
0
 42
0.0000001
 43
0.0000001
 44
0.0000000001
 40
0.0
 40
0.0
 40
0.0
 40
0.0
 40
0.2053465011
 40
0.4446322263
 40
0.7117671231
 40
1.0
 40
1.0
 40
1.0
 40
1.0
 10
9.3205429693
 20
10.4095513766
 30
0.0
 10
9.3211844026
 20
10.4076959314
 30
0.0
 10
9.3223687192
 20
10.4036075086
 30
0.0
 10
9.3238137123
 20
10.3969540514
 30
0.0
 10
9.3249769308
 20
10.3894420696
 30
0.0
 10
9.3254980318
 20
10.3841552671
 30
0.0
 10
9.3256999769
 20
10.3814070623
 30
0.0
  0
LINE
  5
483
100
AcDbEntity
  8
0
100
AcDbLine
 62
9
  6
CONTINUOUS
 10
9.7475249662
 20
10.4223917995
 11
9.7474832692
 21
10.4036939826
  0
LINE
  5
484
100
AcDbEntity
  8
0
100
AcDbLine
 62
9
  6
CONTINUOUS
 10
9.310639653
 20
10.4528022705
 11
9.7475265816
 21
10.4528023148
  0
LINE
  5
485
100
AcDbEntity
  8
0
100
AcDbLine
 62
7
  6
CONTINUOUS
 10
9.2050237045
 20
7.4983507817
 11
9.1001921611
 21
7.4984275926
  0
SPLINE
  5
486
100
AcDbEntity
  8
0
100
AcDbSpline
 62
7
  6
CONTINUOUS
 70
0
 71
3
 72
23
 73
19
 74
0
 42
0.0000001
 43
0.0000001
 44
0.0000000001
 40
0.0
 40
0.0
 40
0.0
 40
0.0
 40
0.0039379379
 40
0.0079568457
 40
0.0131223565
 40
0.0199803471
 40
0.0287628048
 40
0.0395698277
 40
0.0673702146
 40
0.103429704
 40
0.1476400114
 40
0.1998449309
 40
0.2598683899
 40
0.3275254841
 40
0.4026288468
 40
0.5744724237
 40
0.7740364026
 40
1.0
 40
1.0
 40
1.0
 40
1.0
 10
10.9822096088
 20
7.5974816959
 30
0.0
 10
10.9821978487
 20
7.5974675643
 30
0.0
 10
10.9821796971
 20
7.5974323044
 30
0.0
 10
10.9821905469
 20
7.5973688704
 30
0.0
 10
10.9822329397
 20
7.597305875
 30
0.0
 10
10.9823030266
 20
7.5972381259
 30
0.0
 10
10.982402376
 20
7.5971644142
 30
0.0
 10
10.9825903418
 20
7.597047453
 30
0.0
 10
10.9829011292
 20
7.596888581
 30
0.0
 10
10.9833612407
 20
7.5966815085
 30
0.0
 10
10.983932622
 20
7.5964445626
 30
0.0
 10
10.9846119225
 20
7.5961762692
 30
0.0
 10
10.9853960103
 20
7.5958753952
 30
0.0
 10
10.9862815239
 20
7.5955404965
 30
0.0
 10
10.9876561216
 20
7.5950230205
 30
0.0
 10
10.9896055972
 20
7.5942846652
 30
0.0
 10
10.9922039845
 20
7.5932713595
 30
0.0
 10
10.9940444395
 20
7.5925231101
 30
0.0
 10
10.9950183183
 20
7.592117563
 30
0.0
  0
SPLINE
  5
487
100
AcDbEntity
  8
0
100
AcDbSpline
 62
9
  6
CONTINUOUS
 70
0
 71
3
 72
13
 73
9
 74
0
 42
0.0000001
 43
0.0000001
 44
0.0000000001
 40
0.0
 40
0.0
 40
0.0
 40
0.0
 40
0.1216381483
 40
0.2471391149
 40
0.5023607758
 40
0.7562304419
 40
0.8802295666
 40
1.0
 40
1.0
 40
1.0
 40
1.0
 10
9.3106396478
 20
10.4528022489
 30
0.0
 10
9.3103254133
 20
10.4514775351
 30
0.0
 10
9.3098810231
 20
10.4487362127
 30
0.0
 10
9.3097178336
 20
10.4431053144
 30
0.0
 10
9.3109089292
 20
10.4359994419
 30
0.0
 10
9.3141197532
 20
10.429565628
 30
0.0
 10
9.3175536816
 20
10.4251659158
 30
0.0
 10
9.3195156068
 20
10.4232533932
 30
0.0
 10
9.320542773
 20
10.422391968
 30
0.0
  0
LINE
  5
488
100
AcDbEntity
  8
0
100
AcDbLine
 62
7
  6
CONTINUOUS
 10
9.0963797938
 20
7.5107648695
 11
9.201230113
 21
7.510632011
  0
SPLINE
  5
489
100
AcDbEntity
  8
0
100
AcDbSpline
 62
7
  6
CONTINUOUS
 70
0
 71
3
 72
11
 73
7
 74
0
 42
0.0000001
 43
0.0000001
 44
0.0000000001
 40
0.0
 40
0.0
 40
0.0
 40
0.0
 40
0.2406579274
 40
0.4885485049
 40
0.7422582813
 40
1.0
 40
1.0
 40
1.0
 40
1.0
 10
9.1675434562
 20
7.575203851
 30
0.0
 10
9.1564138665
 20
7.5717723044
 30
0.0
 10
9.134295804
 20
7.5631798102
 30
0.0
 10
9.1026958815
 20
7.545905585
 30
0.0
 10
9.072833741
 20
7.5243322842
 30
0.0
 10
9.0546609047
 20
7.5074148172
 30
0.0
 10
9.0460893454
 20
7.4983531813
 30
0.0
  0
SPLINE
  5
48A
100
AcDbEntity
  8
0
100
AcDbSpline
 62
7
  6
CONTINUOUS
 70
0
 71
3
 72
11
 73
7
 74
0
 42
0.0000001
 43
0.0000001
 44
0.0000000001
 40
0.0
 40
0.0
 40
0.0
 40
0.0
 40
0.2572039343
 40
0.5105506053
 40
0.7585452221
 40
1.0
 40
1.0
 40
1.0
 40
1.0
 10
9.04112456
 20
7.5106349783
 30
0.0
 10
9.0498414107
 20
7.5194932711
 30
0.0
 10
9.0681896541
 20
7.5360802557
 30
0.0
 10
9.0980657869
 20
7.5574454777
 30
0.0
 10
9.1295361444
 20
7.5748633768
 30
0.0
 10
9.1515045371
 20
7.5838097287
 30
0.0
 10
9.1625705122
 20
7.5875058306
 30
0.0
  0
SPLINE
  5
48B
100
AcDbEntity
  8
0
100
AcDbSpline
 62
7
  6
CONTINUOUS
 70
0
 71
3
 72
9
 73
5
 74
0
 42
0.0000001
 43
0.0000001
 44
0.0000000001
 40
0.0
 40
0.0
 40
0.0
 40
0.0
 40
0.2539488203
 40
1.0
 40
1.0
 40
1.0
 40
1.0
 10
9.1910280148
 20
7.5806801847
 30
0.0
 10
9.1890144635
 20
7.580340045
 30
0.0
 10
9.1811049534
 20
7.5788919296
 30
0.0
 10
9.1732763623
 20
7.5769714574
 30
0.0
 10
9.1675434562
 20
7.575203851
 30
0.0
  0
SPLINE
  5
48C
100
AcDbEntity
  8
0
100
AcDbSpline
 62
7
  6
CONTINUOUS
 70
0
 71
3
 72
9
 73
5
 74
0
 42
0.0000001
 43
0.0000001
 44
0.0000000001
 40
0.0
 40
0.0
 40
0.0
 40
0.0
 40
0.4928572697
 40
1.0
 40
1.0
 40
1.0
 40
1.0
 10
9.1625705122
 20
7.5875058306
 30
0.0
 10
9.1680586932
 20
7.5893389159
 30
0.0
 10
9.179401259
 20
7.5924516359
 30
0.0
 10
9.1909580545
 20
7.5945813576
 30
0.0
 10
9.1968454022
 20
7.5954693053
 30
0.0
  0
SPLINE
  5
48D
100
AcDbEntity
  8
0
100
AcDbSpline
 62
7
  6
CONTINUOUS
 70
0
 71
3
 72
9
 73
5
 74
0
 42
0.0000001
 43
0.0000001
 44
0.0000000001
 40
0.0
 40
0.0
 40
0.0
 40
0.0
 40
0.2481484735
 40
1.0
 40
1.0
 40
1.0
 40
1.0
 10
9.1968454022
 20
7.5954693053
 30
0.0
 10
9.1983739667
 20
7.595699848
 30
0.0
 10
9.2045417229
 20
7.5965765145
 30
0.0
 10
9.2107364725
 20
7.5972581265
 30
0.0
 10
9.2154007778
 20
7.597683851
 30
0.0
  0
SPLINE
  5
48E
100
AcDbEntity
  8
0
100
AcDbSpline
 62
7
  6
CONTINUOUS
 70
0
 71
3
 72
16
 73
12
 74
0
 42
0.0000001
 43
0.0000001
 44
0.0000000001
 40
0.0
 40
0.0
 40
0.0
 40
0.0
 40
0.0261009413
 40
0.0512181649
 40
0.1085463483
 40
0.1871854072
 40
0.2925356469
 40
0.4262898402
 40
0.5888551453
 40
0.7801659514
 40
1.0
 40
1.0
 40
1.0
 40
1.0
 10
10.939135696
 20
7.5969102125
 30
0.0
 10
10.9391036146
 20
7.5968701986
 30
0.0
 10
10.9390505466
 20
7.5967824428
 30
0.0
 10
10.9390072841
 20
7.5965691175
 30
0.0
 10
10.9391071242
 20
7.5962528372
 30
0.0
 10
10.9393927304
 20
7.5958721905
 30
0.0
 10
10.9398398074
 20
7.5954337929
 30
0.0
 10
10.9404515874
 20
7.5949344994
 30
0.0
 10
10.9412240738
 20
7.5943671506
 30
0.0
 10
10.9421531794
 20
7.5937285805
 30
0.0
 10
10.9428271461
 20
7.5932830752
 30
0.0
 10
10.9431885607
 20
7.5930464976
 30
0.0
  0
LINE
  5
48F
100
AcDbEntity
  8
0
100
AcDbLine
 62
7
  6
CONTINUOUS
 10
10.9431885607
 20
7.5930464976
 11
10.9487438038
 21
7.5894565339
  0
SPLINE
  5
490
100
AcDbEntity
  8
0
100
AcDbSpline
 62
7
  6
CONTINUOUS
 70
0
 71
3
 72
9
 73
5
 74
0
 42
0.0000001
 43
0.0000001
 44
0.0000000001
 40
0.0
 40
0.0
 40
0.0
 40
0.0
 40
0.4533273694
 40
1.0
 40
1.0
 40
1.0
 40
1.0
 10
10.9487438038
 20
7.5894565339
 30
0.0
 10
10.9507262577
 20
7.5881629509
 30
0.0
 10
10.9550660189
 20
7.5852577581
 30
0.0
 10
10.959303526
 20
7.5822036638
 30
0.0
 10
10.9615855038
 20
7.5804886469
 30
0.0
  0
LINE
  5
491
100
AcDbEntity
  8
0
100
AcDbLine
 62
7
  6
CONTINUOUS
 10
9.0460893454
 20
7.4983531813
 11
8.9412455333
 21
7.4984402565
  0
LINE
  5
492
100
AcDbEntity
  8
0
100
AcDbLine
 62
7
  6
CONTINUOUS
 10
8.9362525458
 20
7.5107877702
 11
9.0411244745
 21
7.5106351788
  0
SPLINE
  5
493
100
AcDbEntity
  8
0
100
AcDbSpline
 62
7
  6
CONTINUOUS
 70
0
 71
3
 72
11
 73
7
 74
0
 42
0.0000001
 43
0.0000001
 44
0.0000000001
 40
0.0
 40
0.0
 40
0.0
 40
0.0
 40
0.2535070677
 40
0.5055274499
 40
0.7547382595
 40
1.0
 40
1.0
 40
1.0
 40
1.0
 10
8.901142161
 20
7.5106318452
 30
0.0
 10
8.9099866215
 20
7.5195172191
 30
0.0
 10
8.9287447038
 20
7.5361543509
 30
0.0
 10
8.9594768844
 20
7.5574820707
 30
0.0
 10
8.9921379192
 20
7.5748650575
 30
0.0
 10
9.0149974578
 20
7.5837461618
 30
0.0
 10
9.0265554641
 20
7.5874243283
 30
0.0
  0
SPLINE
  5
494
100
AcDbEntity
  8
0
100
AcDbSpline
 62
7
  6
CONTINUOUS
 70
0
 71
3
 72
9
 73
5
 74
0
 42
0.0000001
 43
0.0000001
 44
0.0000000001
 40
0.0
 40
0.0
 40
0.0
 40
0.0
 40
0.4944012976
 40
1.0
 40
1.0
 40
1.0
 40
1.0
 10
9.0265554641
 20
7.5874243283
 30
0.0
 10
9.035375305
 20
7.5902311136
 30
0.0
 10
9.0536607433
 20
7.5945342908
 30
0.0
 10
9.0722604332
 20
7.596846342
 30
0.0
 10
9.0816884729
 20
7.5976854607
 30
0.0
  0
SPLINE
  5
495
100
AcDbEntity
  8
0
100
AcDbSpline
 62
7
  6
CONTINUOUS
 70
0
 71
3
 72
11
 73
7
 74
0
 42
0.0000001
 43
0.0000001
 44
0.0000000001
 40
0.0
 40
0.0
 40
0.0
 40
0.0
 40
0.2198174369
 40
0.4588239398
 40
0.718894706
 40
1.0
 40
1.0
 40
1.0
 40
1.0
 10
9.7721183517
 20
7.5824269924
 30
0.0
 10
9.7763737565
 20
7.584880696
 30
0.0
 10
9.7858256429
 20
7.5890307799
 30
0.0
 10
9.8013894158
 20
7.5931606059
 30
0.0
 10
9.8186459652
 20
7.5958012112
 30
0.0
 10
9.8307061381
 20
7.596782896
 30
0.0
 10
9.8369769032
 20
7.5971535128
 30
0.0
  0
SPLINE
  5
496
100
AcDbEntity
  8
0
100
AcDbSpline
 62
7
  6
CONTINUOUS
 70
0
 71
3
 72
9
 73
5
 74
0
 42
0.0000001
 43
0.0000001
 44
0.0000000001
 40
0.0
 40
0.0
 40
0.0
 40
0.0
 40
0.4998038691
 40
1.0
 40
1.0
 40
1.0
 40
1.0
 10
9.7068501598
 20
10.3597730776
 30
0.0
 10
9.7127314577
 20
10.3678433191
 30
0.0
 10
9.7254300647
 20
10.3833306943
 30
0.0
 10
9.7398556272
 20
10.3972368633
 30
0.0
 10
9.7474832692
 20
10.4036939621
 30
0.0
  0
LINE
  5
497
100
AcDbEntity
  8
0
100
AcDbLine
 62
7
  6
CONTINUOUS
 10
8.9071993091
 20
7.4983507817
 11
8.8181783177
 21
7.4984275925
  0
LINE
  5
498
100
AcDbEntity
  8
0
100
AcDbLine
 62
7
  6
CONTINUOUS
 10
8.8120922189
 20
7.5107648695
 11
8.9011420762
 21
7.510632011
  0
SPLINE
  5
499
100
AcDbEntity
  8
0
100
AcDbSpline
 62
7
  6
CONTINUOUS
 70
0
 71
3
 72
11
 73
7
 74
0
 42
0.0000001
 43
0.0000001
 44
0.0000000001
 40
0.0
 40
0.0
 40
0.0
 40
0.0
 40
0.2479799228
 40
0.497877275
 40
0.7486981551
 40
1.0
 40
1.0
 40
1.0
 40
1.0
 10
8.9005004374
 20
7.575203851
 30
0.0
 10
8.8915150897
 20
7.5726533602
 30
0.0
 10
8.8737265436
 20
7.56660016
 30
0.0
 10
8.848019768
 20
7.5549004572
 30
0.0
 10
8.8234789479
 20
7.54066688
 30
0.0
 10
8.8081157842
 20
7.5295715653
 30
0.0
 10
8.8007352412
 20
7.5236451771
 30
0.0
  0
SPLINE
  5
49A
100
AcDbEntity
  8
0
100
AcDbSpline
 62
7
  6
CONTINUOUS
 70
0
 71
3
 72
11
 73
7
 74
0
 42
0.0000001
 43
0.0000001
 44
0.0000000001
 40
0.0
 40
0.0
 40
0.0
 40
0.0
 40
0.2505424995
 40
0.5014658642
 40
0.7516382246
 40
1.0
 40
1.0
 40
1.0
 40
1.0
 10
8.7662592465
 20
7.5106349783
 30
0.0
 10
8.7750505803
 20
7.5195594846
 30
0.0
 10
8.79384805
 20
7.5362753631
 30
0.0
 10
8.8248869574
 20
7.5576245741
 30
0.0
 10
8.8581800936
 20
7.5750134988
 30
0.0
 10
8.8815672403
 20
7.5838464575
 30
0.0
 10
8.8934341406
 20
7.5875058306
 30
0.0
  0
SPLINE
  5
49B
100
AcDbEntity
  8
0
100
AcDbSpline
 62
7
  6
CONTINUOUS
 70
0
 71
3
 72
9
 73
5
 74
0
 42
0.0000001
 43
0.0000001
 44
0.0000000001
 40
0.0
 40
0.0
 40
0.0
 40
0.0
 40
0.2488608245
 40
1.0
 40
1.0
 40
1.0
 40
1.0
 10
8.8934341406
 20
7.5875058306
 30
0.0
 10
8.8948680988
 20
7.5879480175
 30
0.0
 10
8.9006505912
 20
7.5896584039
 30
0.0
 10
8.9065072367
 20
7.5911148514
 30
0.0
 10
8.9109316605
 20
7.5920836137
 30
0.0
  0
SPLINE
  5
49C
100
AcDbEntity
  8
0
100
AcDbSpline
 62
7
  6
CONTINUOUS
 70
0
 71
3
 72
9
 73
5
 74
0
 42
0.0000001
 43
0.0000001
 44
0.0000000001
 40
0.0
 40
0.0
 40
0.0
 40
0.0
 40
0.2495852679
 40
1.0
 40
1.0
 40
1.0
 40
1.0
 10
8.9109316605
 20
7.5920836137
 30
0.0
 10
8.9124778813
 20
7.5924221708
 30
0.0
 10
8.9186863919
 20
7.5937174337
 30
0.0
 10
8.9249424034
 20
7.5947809954
 30
0.0
 10
8.929651441
 20
7.5954693053
 30
0.0
  0
SPLINE
  5
49D
100
AcDbEntity
  8
0
100
AcDbSpline
 62
7
  6
CONTINUOUS
 70
0
 71
3
 72
9
 73
5
 74
0
 42
0.0000001
 43
0.0000001
 44
0.0000000001
 40
0.0
 40
0.0
 40
0.0
 40
0.0
 40
0.2504584356
 40
1.0
 40
1.0
 40
1.0
 40
1.0
 10
8.929651441
 20
7.5954693053
 30
0.0
 10
8.9312239998
 20
7.5956991628
 30
0.0
 10
8.9375098379
 20
7.5965680372
 30
0.0
 10
8.9438204008
 20
7.5972540189
 30
0.0
 10
8.9485571093
 20
7.597683851
 30
0.0
  0
SPLINE
  5
49E
100
AcDbEntity
  8
0
100
AcDbSpline
 62
7
  6
CONTINUOUS
 70
0
 71
3
 72
19
 73
15
 74
0
 42
0.0000001
 43
0.0000001
 44
0.0000000001
 40
0.0
 40
0.0
 40
0.0
 40
0.0
 40
0.1176432773
 40
0.1784309273
 40
0.2400815994
 40
0.3023527666
 40
0.3650408111
 40
0.4279960992
 40
0.491147396
 40
0.5544220491
 40
0.6178131126
 40
0.7448325384
 40
0.8722391207
 40
1.0
 40
1.0
 40
1.0
 40
1.0
 10
9.7689074018
 20
10.3994496886
 30
0.0
 10
9.771390365
 20
10.3978551308
 30
0.0
 10
9.7750213142
 20
10.3952020376
 30
0.0
 10
9.7793872955
 20
10.3910424684
 30
0.0
 10
9.7823947283
 20
10.3875051082
 30
0.0
 10
9.7849960403
 20
10.3835997697
 30
0.0
 10
9.787108094
 20
10.3793724779
 30
0.0
 10
9.788709367
 20
10.3749049151
 30
0.0
 10
9.7898254953
 20
10.3702795031
 30
0.0
 10
9.790515566
 20
10.3655629622
 30
0.0
 10
9.7909592983
 20
10.3592104844
 30
0.0
 10
9.7907818005
 20
10.351224895
 30
0.0
 10
9.7897922961
 20
10.3416838033
 30
0.0
 10
9.7887760933
 20
10.3353616197
 30
0.0
 10
9.7882043009
 20
10.3322083754
 30
0.0
  0
SPLINE
  5
49F
100
AcDbEntity
  8
0
100
AcDbSpline
 62
7
  6
CONTINUOUS
 70
0
 71
3
 72
11
 73
7
 74
0
 42
0.0000001
 43
0.0000001
 44
0.0000000001
 40
0.0
 40
0.0
 40
0.0
 40
0.0
 40
0.2510683659
 40
0.502512369
 40
0.7526875858
 40
1.0
 40
1.0
 40
1.0
 40
1.0
 10
9.7882043009
 20
10.3322083754
 30
0.0
 10
9.7870948805
 20
10.3260924791
 30
0.0
 10
9.7849839174
 20
10.3138318327
 30
0.0
 10
9.7819075485
 20
10.2954533057
 30
0.0
 10
9.7787640498
 20
10.2771803164
 30
0.0
 10
9.776514748
 20
10.2650701637
 30
0.0
 10
9.7753198711
 20
10.2590651686
 30
0.0
  0
SPLINE
  5
4A0
100
AcDbEntity
  8
0
100
AcDbSpline
 62
7
  6
CONTINUOUS
 70
0
 71
3
 72
11
 73
7
 74
0
 42
0.0000001
 43
0.0000001
 44
0.0000000001
 40
0.0
 40
0.0
 40
0.0
 40
0.0
 40
0.2575686161
 40
0.5111939292
 40
0.7594206288
 40
1.0
 40
1.0
 40
1.0
 40
1.0
 10
9.7753198711
 20
10.2590651686
 30
0.0
 10
9.7741056438
 20
10.2529635792
 30
0.0
 10
9.7712245129
 20
10.2409442732
 30
0.0
 10
9.7658065608
 20
10.2234096459
 30
0.0
 10
9.7595787529
 20
10.2065851514
 30
0.0
 10
9.7549407145
 20
10.1957219656
 30
0.0
 10
9.7525267748
 20
10.190436209
 30
0.0
  0
SPLINE
  5
4A1
100
AcDbEntity
  8
0
100
AcDbSpline
 62
7
  6
CONTINUOUS
 70
0
 71
3
 72
10
 73
6
 74
0
 42
0.0000001
 43
0.0000001
 44
0.0000000001
 40
0.0
 40
0.0
 40
0.0
 40
0.0
 40
0.4997435715
 40
0.7497377619
 40
1.0
 40
1.0
 40
1.0
 40
1.0
 10
9.5805370729
 20
10.3597772742
 30
0.0
 10
9.5865169441
 20
10.3686079467
 30
0.0
 10
9.596357016
 20
10.3813031826
 30
0.0
 10
9.6110949317
 20
10.3967532526
 30
0.0
 10
9.6190117053
 20
10.4039348032
 30
0.0
 10
9.6231062572
 20
10.4073638684
 30
0.0
  0
LINE
  5
4A2
100
AcDbEntity
  8
0
100
AcDbLine
 62
7
  6
CONTINUOUS
 10
8.7733139504
 20
7.4983531813
 11
8.6888625292
 21
7.4984402565
  0
LINE
  5
4A3
100
AcDbEntity
  8
0
100
AcDbLine
 62
7
  6
CONTINUOUS
 10
8.6817687869
 20
7.5107877703
 11
8.7662591277
 21
7.5106351788
  0
SPLINE
  5
4A4
100
AcDbEntity
  8
0
100
AcDbSpline
 62
7
  6
CONTINUOUS
 70
0
 71
3
 72
11
 73
7
 74
0
 42
0.0000001
 43
0.0000001
 44
0.0000000001
 40
0.0
 40
0.0
 40
0.0
 40
0.0
 40
0.2489718888
 40
0.4989340331
 40
0.7495309628
 40
1.0
 40
1.0
 40
1.0
 40
1.0
 10
8.6692749709
 20
7.5250534451
 30
0.0
 10
8.677144336
 20
7.5320471866
 30
0.0
 10
8.6937179964
 20
7.5451836527
 30
0.0
 10
8.7205770644
 20
7.5621172121
 30
0.0
 10
8.7491119814
 20
7.5761817516
 30
0.0
 10
8.7690209257
 20
7.5835609775
 30
0.0
 10
8.779130099
 20
7.5867202458
 30
0.0
  0
SPLINE
  5
4A5
100
AcDbEntity
  8
0
100
AcDbSpline
 62
9
  6
CONTINUOUS
 70
0
 71
3
 72
17
 73
13
 74
0
 42
0.0000001
 43
0.0000001
 44
0.0000000001
 40
0.0
 40
0.0
 40
0.0
 40
0.0
 40
0.0377994136
 40
0.0824902406
 40
0.1334631336
 40
0.1900550716
 40
0.3171726246
 40
0.4573884425
 40
0.6033487597
 40
0.7473375964
 40
0.8819877559
 40
1.0
 40
1.0
 40
1.0
 40
1.0
 10
9.6231062572
 20
10.4073638684
 30
0.0
 10
9.6240377717
 20
10.406645902
 30
0.0
 10
9.6261250062
 20
10.4051496996
 30
0.0
 10
9.6296005278
 20
10.4028758145
 30
0.0
 10
9.6336478273
 20
10.4004124227
 30
0.0
 10
9.6399829758
 20
10.3967802277
 30
0.0
 10
9.6488894785
 20
10.3920571148
 30
0.0
 10
9.6604408283
 20
10.3864027679
 30
0.0
 10
9.6726286229
 20
10.380867267
 30
0.0
 10
9.6848069043
 20
10.375741682
 30
0.0
 10
9.6963241566
 20
10.3713023576
 30
0.0
 10
9.7037591246
 20
10.3687390765
 30
0.0
 10
9.7072623276
 20
10.3676390872
 30
0.0
  0
SPLINE
  5
4A6
100
AcDbEntity
  8
0
100
AcDbSpline
 62
7
  6
CONTINUOUS
 70
0
 71
3
 72
12
 73
8
 74
0
 42
0.0000001
 43
0.0000001
 44
0.0000000001
 40
0.0
 40
0.0
 40
0.0
 40
0.0
 40
0.2494930971
 40
0.5045313434
 40
0.7573672793
 40
0.8805945929
 40
1.0
 40
1.0
 40
1.0
 40
1.0
 10
9.7068501182
 20
10.3597730804
 30
0.0
 10
9.7022725214
 20
10.3491942011
 30
0.0
 10
9.693326537
 20
10.3276657773
 30
0.0
 10
9.6807035648
 20
10.2950279961
 30
0.0
 10
9.6707966084
 20
10.2676020452
 30
0.0
 10
9.6634207395
 20
10.2459313281
 30
0.0
 10
9.6599692992
 20
10.2352652248
 30
0.0
 10
9.6583294695
 20
10.2299979478
 30
0.0
  0
SPLINE
  5
4A7
100
AcDbEntity
  8
0
100
AcDbSpline
 62
7
  6
CONTINUOUS
 70
0
 71
3
 72
9
 73
5
 74
0
 42
0.0000001
 43
0.0000001
 44
0.0000000001
 40
0.0
 40
0.0
 40
0.0
 40
0.0
 40
0.2517693471
 40
1.0
 40
1.0
 40
1.0
 40
1.0
 10
8.7814145377
 20
7.5874243283
 30
0.0
 10
8.7859653803
 20
7.5888073685
 30
0.0
 10
8.8042302328
 20
7.5936820157
 30
0.0
 10
8.8230143323
 20
7.5963980821
 30
0.0
 10
8.8370909648
 20
7.5976854607
 30
0.0
  0
SPLINE
  5
4A8
100
AcDbEntity
  8
0
100
AcDbSpline
 62
7
  6
CONTINUOUS
 70
0
 71
3
 72
10
 73
6
 74
0
 42
0.0000001
 43
0.0000001
 44
0.0000000001
 40
0.0
 40
0.0
 40
0.0
 40
0.0
 40
0.502476499
 40
0.752088843
 40
1.0
 40
1.0
 40
1.0
 40
1.0
 10
9.6583294695
 20
10.2299979478
 30
0.0
 10
9.6520154484
 20
10.2211884142
 30
0.0
 10
9.6417755253
 20
10.2085395682
 30
0.0
 10
9.6267291878
 20
10.1930715359
 30
0.0
 10
9.6187629881
 20
10.1858652494
 30
0.0
 10
9.6146730615
 20
10.1824201817
 30
0.0
  0
SPLINE
  5
4A9
100
AcDbEntity
  8
0
100
AcDbSpline
 62
9
  6
CONTINUOUS
 70
0
 71
3
 72
18
 73
14
 74
0
 42
0.0000001
 43
0.0000001
 44
0.0000000001
 40
0.0
 40
0.0
 40
0.0
 40
0.0
 40
0.139402129
 40
0.2901049855
 40
0.4440021793
 40
0.5932235146
 40
0.7298910722
 40
0.7912482586
 40
0.8468826118
 40
0.8961258867
 40
0.9383507389
 40
0.9730881621
 40
1.0
 40
1.0
 40
1.0
 40
1.0
 10
9.6146730615
 20
10.1824201817
 30
0.0
 10
9.6107954081
 20
10.1838030182
 30
0.0
 10
9.6027842214
 20
10.1868456267
 30
0.0
 10
9.5906733941
 20
10.1918759696
 30
0.0
 10
9.5784451244
 20
10.1973661542
 30
0.0
 10
9.5667509971
 20
10.2030208519
 30
0.0
 10
9.55766259
 20
10.2077765716
 30
0.0
 10
9.5511366625
 20
10.211455879
 30
0.0
 10
9.5469200826
 20
10.2139713748
 30
0.0
 10
9.5432571448
 20
10.2163083287
 30
0.0
 10
9.5401954783
 20
10.2184368627
 30
0.0
 10
9.5377760301
 20
10.2203242546
 30
0.0
 10
9.5364313332
 20
10.2215594803
 30
0.0
 10
9.5358942858
 20
10.2221453399
 30
0.0
  0
SPLINE
  5
4AA
100
AcDbEntity
  8
0
100
AcDbSpline
 62
7
  6
CONTINUOUS
 70
0
 71
3
 72
10
 73
6
 74
0
 42
0.0000001
 43
0.0000001
 44
0.0000000001
 40
0.0
 40
0.0
 40
0.0
 40
0.0
 40
0.5032106179
 40
0.7522560328
 40
1.0
 40
1.0
 40
1.0
 40
1.0
 10
9.4688204332
 20
10.3597861999
 30
0.0
 10
9.4737834936
 20
10.3685490205
 30
0.0
 10
9.4820404326
 20
10.3812097989
 30
0.0
 10
9.4947070371
 20
10.3967202312
 30
0.0
 10
9.5015779849
 20
10.4039251811
 30
0.0
 10
9.5051505589
 20
10.4073630882
 30
0.0
  0
SPLINE
  5
4AB
100
AcDbEntity
  8
0
100
AcDbSpline
 62
9
  6
CONTINUOUS
 70
0
 71
3
 72
18
 73
14
 74
0
 42
0.0000001
 43
0.0000001
 44
0.0000000001
 40
0.0
 40
0.0
 40
0.0
 40
0.0
 40
0.0265324945
 40
0.0596462192
 40
0.0996576054
 40
0.1464788068
 40
0.1997536854
 40
0.2590053538
 40
0.3926595777
 40
0.5411377775
 40
0.6970147774
 40
0.852692777
 40
1.0
 40
1.0
 40
1.0
 40
1.0
 10
9.5051505589
 20
10.4073630882
 30
0.0
 10
9.5053965659
 20
10.4066333405
 30
0.0
 10
9.5062165627
 20
10.4050857802
 30
0.0
 10
9.5080090104
 20
10.4028071044
 30
0.0
 10
9.5104798067
 20
10.4003446091
 30
0.0
 10
9.5136016769
 20
10.3977334247
 30
0.0
 10
9.5173367827
 20
10.3950012644
 30
0.0
 10
9.523319325
 20
10.3910897237
 30
0.0
 10
9.531960477
 20
10.3862193789
 30
0.0
 10
9.5434197916
 20
10.3806990446
 30
0.0
 10
9.5557602157
 20
10.3755819344
 30
0.0
 10
9.5683249721
 20
10.3711477052
 30
0.0
 10
9.5767752197
 20
10.3686887043
 30
0.0
 10
9.5809198108
 20
10.3676386103
 30
0.0
  0
SPLINE
  5
4AC
100
AcDbEntity
  8
0
100
AcDbSpline
 62
7
  6
CONTINUOUS
 70
0
 71
3
 72
15
 73
11
 74
0
 42
0.0000001
 43
0.0000001
 44
0.0000000001
 40
0.0
 40
0.0
 40
0.0
 40
0.0
 40
0.1274460088
 40
0.2559237678
 40
0.3844443231
 40
0.512217263
 40
0.6385080941
 40
0.762546164
 40
0.8834367094
 40
1.0
 40
1.0
 40
1.0
 40
1.0
 10
9.5805370211
 20
10.3597772769
 30
0.0
 10
9.5778552906
 20
10.3545829248
 30
0.0
 10
9.5727043931
 20
10.3440300097
 30
0.0
 10
9.5655838692
 20
10.3278936756
 30
0.0
 10
9.5590358584
 20
10.3115005371
 30
0.0
 10
9.5530853058
 20
10.2949880672
 30
0.0
 10
9.5477627974
 20
10.2784784596
 30
0.0
 10
9.54311164
 20
10.2620945994
 30
0.0
 10
9.5392014487
 20
10.2459769946
 30
0.0
 10
9.5371156801
 20
10.2352805656
 30
0.0
 10
9.5362568772
 20
10.2300033987
 30
0.0
  0
LINE
  5
4AD
100
AcDbEntity
  8
0
100
AcDbLine
 62
7
  6
CONTINUOUS
 10
8.6621757789
 20
7.4983507817
 11
8.5945588558
 21
7.4984275925
  0
LINE
  5
4AE
100
AcDbEntity
  8
0
100
AcDbLine
 62
7
  6
CONTINUOUS
 10
8.5865814374
 20
7.5107648695
 11
8.6542355027
 21
7.510632011
  0
SPLINE
  5
4AF
100
AcDbEntity
  8
0
100
AcDbSpline
 62
7
  6
CONTINUOUS
 70
0
 71
3
 72
9
 73
5
 74
0
 42
0.0000001
 43
0.0000001
 44
0.0000000001
 40
0.0
 40
0.0
 40
0.0
 40
0.0
 40
0.5024869078
 40
1.0
 40
1.0
 40
1.0
 40
1.0
 10
8.6480902939
 20
7.561227874
 30
0.0
 10
8.6357279246
 20
7.55566832
 30
0.0
 10
8.6119136503
 20
7.5427521719
 30
0.0
 10
8.5903805176
 20
7.5262853794
 30
0.0
 10
8.5804312896
 20
7.5172781445
 30
0.0
  0
SPLINE
  5
4B0
100
AcDbEntity
  8
0
100
AcDbSpline
 62
7
  6
CONTINUOUS
 70
0
 71
3
 72
10
 73
6
 74
0
 42
0.0000001
 43
0.0000001
 44
0.0000000001
 40
0.0
 40
0.0
 40
0.0
 40
0.0
 40
0.5081339541
 40
0.7565390617
 40
1.0
 40
1.0
 40
1.0
 40
1.0
 10
9.5362568772
 20
10.2300033987
 30
0.0
 10
9.5306501341
 20
10.2212714973
 30
0.0
 10
9.5216099698
 20
10.2086931866
 30
0.0
 10
9.5083557789
 20
10.1931479755
 30
0.0
 10
9.5013975005
 20
10.1858923249
 30
0.0
 10
9.4978387643
 20
10.1824202738
 30
0.0
  0
SPLINE
  5
4B1
100
AcDbEntity
  8
0
100
AcDbSpline
 62
9
  6
CONTINUOUS
 70
0
 71
3
 72
20
 73
16
 74
0
 42
0.0000001
 43
0.0000001
 44
0.0000000001
 40
0.0
 40
0.0
 40
0.0
 40
0.0
 40
0.1640279543
 40
0.3302525298
 40
0.490794841
 40
0.6386810211
 40
0.7057905146
 40
0.7673825655
 40
0.8228549584
 40
0.8716981815
 40
0.9136474444
 40
0.9486446403
 40
0.9636338599
 40
0.9770763659
 40
1.0
 40
1.0
 40
1.0
 40
1.0
 10
9.4978387643
 20
10.1824202738
 30
0.0
 10
9.4937654628
 20
10.1836857917
 30
0.0
 10
9.4856353551
 20
10.1864668477
 30
0.0
 10
9.4737804018
 20
10.1912082437
 30
0.0
 10
9.4625713453
 20
10.1963892142
 30
0.0
 10
9.4539514497
 20
10.2009952846
 30
0.0
 10
9.4478075257
 20
10.2047379359
 30
0.0
 10
9.4438268787
 20
10.2074040535
 30
0.0
 10
9.440368282
 20
10.2099867193
 30
0.0
 10
9.4374721072
 20
10.2124578546
 30
0.0
 10
9.4351696829
 20
10.2147873876
 30
0.0
 10
9.4336921062
 20
10.2166789754
 30
0.0
 10
9.4328663755
 20
10.2181111985
 30
0.0
 10
9.4323314031
 20
10.2193345659
 30
0.0
 10
9.4321232083
 20
10.2202814621
 30
0.0
 10
9.4321247761
 20
10.2208775634
 30
0.0
  0
SPLINE
  5
4B2
100
AcDbEntity
  8
0
100
AcDbSpline
 62
7
  6
CONTINUOUS
 70
0
 71
3
 72
12
 73
8
 74
0
 42
0.0000001
 43
0.0000001
 44
0.0000000001
 40
0.0
 40
0.0
 40
0.0
 40
0.0
 40
0.2466656744
 40
0.4959006343
 40
0.621359706
 40
0.7473127111
 40
1.0
 40
1.0
 40
1.0
 40
1.0
 10
8.5530505806
 20
7.5106349783
 30
0.0
 10
8.5613259431
 20
7.5195887995
 30
0.0
 10
8.5793143696
 20
7.536379828
 30
0.0
 10
8.6044833254
 20
7.5541405222
 30
0.0
 10
8.6260096591
 20
7.5663787169
 30
0.0
 10
8.6484248339
 20
7.5772878536
 30
0.0
 10
8.6660140226
 20
7.5838715853
 30
0.0
 10
8.6779635503
 20
7.5875058306
 30
0.0
  0
SPLINE
  5
4B3
100
AcDbEntity
  8
0
100
AcDbSpline
 62
9
  6
CONTINUOUS
 70
0
 71
3
 72
14
 73
10
 74
0
 42
0.0000001
 43
0.0000001
 44
0.0000000001
 40
0.0
 40
0.0
 40
0.0
 40
0.0
 40
0.1033657976
 40
0.2054968831
 40
0.3109022183
 40
0.4236595335
 40
0.5470720989
 40
0.6834549025
 40
1.0
 40
1.0
 40
1.0
 40
1.0
 10
9.4083752727
 20
10.4073631626
 30
0.0
 10
9.4081068635
 20
10.4069519701
 30
0.0
 10
9.4076579022
 20
10.4060743114
 30
0.0
 10
9.4073011522
 20
10.4046281451
 30
0.0
 10
9.4072756239
 20
10.4030948912
 30
0.0
 10
9.4075779698
 20
10.4014909667
 30
0.0
 10
9.4082030502
 20
10.3998273683
 30
0.0
 10
9.4095197082
 20
10.397419415
 30
0.0
 10
9.4108792441
 20
10.3957282047
 30
0.0
 10
9.4118987223
 20
10.3946227854
 30
0.0
  0
SPLINE
  5
4B4
100
AcDbEntity
  8
0
100
AcDbSpline
 62
9
  6
CONTINUOUS
 70
0
 71
3
 72
15
 73
11
 74
0
 42
0.0000001
 43
0.0000001
 44
0.0000000001
 40
0.0
 40
0.0
 40
0.0
 40
0.0
 40
0.0883478292
 40
0.191315141
 40
0.3075147264
 40
0.4347580465
 40
0.5705392082
 40
0.7121284179
 40
0.8565135001
 40
1.0
 40
1.0
 40
1.0
 40
1.0
 10
9.4118987223
 20
10.3946227854
 30
0.0
 10
9.4131766705
 20
10.3932371071
 30
0.0
 10
9.4162041822
 20
10.390476107
 30
0.0
 10
9.4215227407
 20
10.3866195692
 30
0.0
 10
9.4278682595
 20
10.3828141863
 30
0.0
 10
9.4350864177
 20
10.3791462428
 30
0.0
 10
9.4430111314
 20
10.3757098016
 30
0.0
 10
9.451454176
 20
10.372584433
 30
0.0
 10
9.4602050407
 20
10.3698544151
 30
0.0
 10
9.4661560378
 20
10.3683212973
 30
0.0
 10
9.4691401706
 20
10.3676375719
 30
0.0
  0
SPLINE
  5
4B5
100
AcDbEntity
  8
0
100
AcDbSpline
 62
7
  6
CONTINUOUS
 70
0
 71
3
 72
9
 73
5
 74
0
 42
0.0000001
 43
0.0000001
 44
0.0000000001
 40
0.0
 40
0.0
 40
0.0
 40
0.0
 40
0.2507950794
 40
1.0
 40
1.0
 40
1.0
 40
1.0
 10
8.6779635503
 20
7.5875058306
 30
0.0
 10
8.6794138217
 20
7.5879469059
 30
0.0
 10
8.6852150392
 20
7.5896444069
 30
0.0
 10
8.6910842895
 20
7.5911071042
 30
0.0
 10
8.6955061077
 20
7.5920836137
 30
0.0
  0
SPLINE
  5
4B6
100
AcDbEntity
  8
0
100
AcDbSpline
 62
7
  6
CONTINUOUS
 70
0
 71
3
 72
9
 73
5
 74
0
 42
0.0000001
 43
0.0000001
 44
0.0000000001
 40
0.0
 40
0.0
 40
0.0
 40
0.0
 40
0.2517837065
 40
1.0
 40
1.0
 40
1.0
 40
1.0
 10
8.6955061077
 20
7.5920836137
 30
0.0
 10
8.6970348163
 20
7.592421212
 30
0.0
 10
8.7031187631
 20
7.5937054783
 30
0.0
 10
8.7092474756
 20
7.5947747106
 30
0.0
 10
8.7138475949
 20
7.5954693053
 30
0.0
  0
SPLINE
  5
4B7
100
AcDbEntity
  8
0
100
AcDbSpline
 62
7
  6
CONTINUOUS
 70
0
 71
3
 72
13
 73
9
 74
0
 42
0.0000001
 43
0.0000001
 44
0.0000000001
 40
0.0
 40
0.0
 40
0.0
 40
0.0
 40
0.1283274182
 40
0.2564557627
 40
0.5103977769
 40
0.7591270967
 40
0.8807423885
 40
1.0
 40
1.0
 40
1.0
 40
1.0
 10
9.4688203758
 20
10.3597862026
 30
0.0
 10
9.4664705312
 20
10.3555505416
 30
0.0
 10
9.4620177473
 20
10.3469487668
 30
0.0
 10
9.4540403821
 20
10.3294059515
 30
0.0
 10
9.4457213026
 20
10.3070590544
 30
0.0
 10
9.4394915834
 20
10.2842969268
 30
0.0
 10
9.4358930046
 20
10.2661641702
 30
0.0
 10
9.4345777456
 20
10.257162449
 30
0.0
 10
9.4340547172
 20
10.2526914645
 30
0.0
  0
SPLINE
  5
4B8
100
AcDbEntity
  8
0
100
AcDbSpline
 62
7
  6
CONTINUOUS
 70
0
 71
3
 72
10
 73
6
 74
0
 42
0.0000001
 43
0.0000001
 44
0.0000000001
 40
0.0
 40
0.0
 40
0.0
 40
0.0
 40
0.514890712
 40
0.7617287071
 40
1.0
 40
1.0
 40
1.0
 40
1.0
 10
9.4287590495
 20
10.2226292444
 30
0.0
 10
9.4248393606
 20
10.2154047048
 30
0.0
 10
9.4186523558
 20
10.2049185507
 30
0.0
 10
9.4097427312
 20
10.1916695585
 30
0.0
 10
9.4051525397
 20
10.1854285479
 30
0.0
 10
9.4028248718
 20
10.1824203366
 30
0.0
  0
SPLINE
  5
4B9
100
AcDbEntity
  8
0
100
AcDbSpline
 62
9
  6
CONTINUOUS
 70
0
 71
3
 72
18
 73
14
 74
0
 42
0.0000001
 43
0.0000001
 44
0.0000000001
 40
0.0
 40
0.0
 40
0.0
 40
0.0
 40
0.1683129777
 40
0.3318182557
 40
0.4854170445
 40
0.6252302643
 40
0.6889338624
 40
0.7480088137
 40
0.8021679935
 40
0.8512867977
 40
0.8953621211
 40
0.934539295
 40
1.0
 40
1.0
 40
1.0
 40
1.0
 10
9.4028248718
 20
10.1824203366
 30
0.0
 10
9.3994765285
 20
10.1834192613
 30
0.0
 10
9.3929314657
 20
10.1855820427
 30
0.0
 10
9.3835613249
 20
10.1893075938
 30
0.0
 10
9.3749897905
 20
10.1933870228
 30
0.0
 10
9.3685467964
 20
10.1970752426
 30
0.0
 10
9.3640251568
 20
10.20012434
 30
0.0
 10
9.3610957264
 20
10.2023439659
 30
0.0
 10
9.3585459123
 20
10.2045528519
 30
0.0
 10
9.3563943848
 20
10.2067314085
 30
0.0
 10
9.3546535715
 20
10.208867996
 30
0.0
 10
9.3530022382
 20
10.2114738554
 30
0.0
 10
9.3522367737
 20
10.2135839677
 30
0.0
 10
9.3521148274
 20
10.2149374482
 30
0.0
  0
LINE
  5
4BA
100
AcDbEntity
  8
0
100
AcDbLine
 62
7
  6
CONTINUOUS
 10
8.5617519299
 20
7.4983531812
 11
8.5029992931
 21
7.4984402565
  0
SPLINE
  5
4BB
100
AcDbEntity
  8
0
100
AcDbSpline
 62
7
  6
CONTINUOUS
 70
0
 71
3
 72
11
 73
7
 74
0
 42
0.0000001
 43
0.0000001
 44
0.0000000001
 40
0.0
 40
0.0
 40
0.0
 40
0.0
 40
0.2813685587
 40
0.5411392685
 40
0.779971821
 40
1.0
 40
1.0
 40
1.0
 40
1.0
 10
9.833986078
 20
7.5834708202
 30
0.0
 10
9.8280176163
 20
7.5831722529
 30
0.0
 10
9.8165468775
 20
7.5823747055
 30
0.0
 10
9.800115684
 20
7.5801109044
 30
0.0
 10
9.7852653036
 20
7.5764392203
 30
0.0
 10
9.7762109526
 20
7.5726611898
 30
0.0
 10
9.7721183517
 20
7.5704053614
 30
0.0
  0
SPLINE
  5
4BC
100
AcDbEntity
  8
0
100
AcDbSpline
 62
7
  6
CONTINUOUS
 70
0
 71
3
 72
11
 73
7
 74
0
 42
0.0000001
 43
0.0000001
 44
0.0000000001
 40
0.0
 40
0.0
 40
0.0
 40
0.0
 40
0.2465537228
 40
0.4953921838
 40
0.7466065039
 40
1.0
 40
1.0
 40
1.0
 40
1.0
 10
8.4850715148
 20
7.5203919751
 30
0.0
 10
8.4921962121
 20
7.5276541396
 30
0.0
 10
8.5074626364
 20
7.5413411039
 30
0.0
 10
8.5327667706
 20
7.5590325927
 30
0.0
 10
8.5601887214
 20
7.5738182686
 30
0.0
 10
8.5795501645
 20
7.5816130401
 30
0.0
 10
8.5894490475
 20
7.5849797336
 30
0.0
  0
SPLINE
  5
4BD
100
AcDbEntity
  8
0
100
AcDbSpline
 62
7
  6
CONTINUOUS
 70
0
 71
3
 72
9
 73
5
 74
0
 42
0.0000001
 43
0.0000001
 44
0.0000000001
 40
0.0
 40
0.0
 40
0.0
 40
0.0
 40
0.5193328589
 40
1.0
 40
1.0
 40
1.0
 40
1.0
 10
9.3502875912
 20
10.2123633318
 30
0.0
 10
9.3483188452
 20
10.2071122478
 30
0.0
 10
9.3443676966
 20
10.1970603822
 30
0.0
 10
9.3400881499
 20
10.1871432347
 30
0.0
 10
9.3379358468
 20
10.182420024
 30
0.0
  0
SPLINE
  5
4BE
100
AcDbEntity
  8
0
100
AcDbSpline
 62
7
  6
CONTINUOUS
 70
0
 71
3
 72
9
 73
5
 74
0
 42
0.0000001
 43
0.0000001
 44
0.0000000001
 40
0.0
 40
0.0
 40
0.0
 40
0.0
 40
0.5125704006
 40
1.0
 40
1.0
 40
1.0
 40
1.0
 10
8.5969779963
 20
7.5874243283
 30
0.0
 10
8.6057556782
 20
7.5901403247
 30
0.0
 10
8.6232272808
 20
7.5943558178
 30
0.0
 10
8.6410057178
 20
7.5968113625
 30
0.0
 10
8.6496994869
 20
7.5976854607
 30
0.0
  0
SPLINE
  5
4BF
100
AcDbEntity
  8
0
100
AcDbSpline
 62
9
  6
CONTINUOUS
 70
0
 71
3
 72
15
 73
11
 74
0
 42
0.0000001
 43
0.0000001
 44
0.0000000001
 40
0.0
 40
0.0
 40
0.0
 40
0.0
 40
0.1666705833
 40
0.3248477207
 40
0.4717560762
 40
0.6055925788
 40
0.7252278113
 40
0.8302182828
 40
0.9210777876
 40
1.0
 40
1.0
 40
1.0
 40
1.0
 10
9.3379358468
 20
10.182420024
 30
0.0
 10
9.3355432921
 20
10.1831694814
 30
0.0
 10
9.3309208001
 20
10.1847649074
 30
0.0
 10
9.3243661103
 20
10.1874978816
 30
0.0
 10
9.3184651957
 20
10.1904747395
 30
0.0
 10
9.3133288411
 20
10.1936365437
 30
0.0
 10
9.3090442417
 20
10.1969297703
 30
0.0
 10
9.3056796331
 20
10.2003023892
 30
0.0
 10
9.3032925968
 20
10.2037073215
 30
0.0
 10
9.3023461619
 20
10.2061203103
 30
0.0
 10
9.3020952344
 20
10.2072806997
 30
0.0
  0
LINE
  5
4C0
100
AcDbEntity
  8
0
100
AcDbLine
 62
9
  6
CONTINUOUS
 10
9.7474832755
 20
10.1860159377
 11
9.7475249662
 21
10.1673918083
  0
SPLINE
  5
4C1
100
AcDbEntity
  8
0
100
AcDbSpline
 62
7
  6
CONTINUOUS
 70
0
 71
3
 72
16
 73
12
 74
0
 42
0.0000001
 43
0.0000001
 44
0.0000000001
 40
0.0
 40
0.0
 40
0.0
 40
0.0
 40
0.1914325074
 40
0.3603059157
 40
0.5058017243
 40
0.6287753761
 40
0.7321840184
 40
0.8218465856
 40
0.8645636708
 40
0.907616806
 40
1.0
 40
1.0
 40
1.0
 40
1.0
 10
9.3379358468
 20
10.182420024
 30
0.0
 10
9.3373965923
 20
10.1812366348
 30
0.0
 10
9.3362967592
 20
10.1790460356
 30
0.0
 10
9.3344715266
 20
10.1761279005
 30
0.0
 10
9.3326072965
 20
10.1738032151
 30
0.0
 10
9.3307297908
 20
10.1720927566
 30
0.0
 10
9.3288522517
 20
10.1710057227
 30
0.0
 10
9.3272527722
 20
10.1706539109
 30
0.0
 10
9.3260571635
 20
10.1707459706
 30
0.0
 10
9.3248844559
 20
10.1710702722
 30
0.0
 10
9.3240833981
 20
10.1715669442
 30
0.0
 10
9.3235983415
 20
10.1719651757
 30
0.0
  0
SPLINE
  5
4C2
100
AcDbEntity
  8
0
100
AcDbSpline
 62
7
  6
CONTINUOUS
 70
0
 71
3
 72
15
 73
11
 74
0
 42
0.0000001
 43
0.0000001
 44
0.0000000001
 40
0.0
 40
0.0
 40
0.0
 40
0.0
 40
0.1518466655
 40
0.2910871769
 40
0.4185814079
 40
0.5365944435
 40
0.6487805825
 40
0.7600067741
 40
0.8755352033
 40
1.0
 40
1.0
 40
1.0
 40
1.0
 10
9.4028248718
 20
10.1824203366
 30
0.0
 10
9.4016072189
 20
10.180846677
 30
0.0
 10
9.3990634261
 20
10.1779821844
 30
0.0
 10
9.3947945832
 20
10.1744967726
 30
0.0
 10
9.390337731
 20
10.1720682522
 30
0.0
 10
9.3857949969
 20
10.170752425
 30
0.0
 10
9.3812735859
 20
10.1705990118
 30
0.0
 10
9.3768999617
 20
10.1716306629
 30
0.0
 10
9.3727988064
 20
10.1738157099
 30
0.0
 10
9.3704102365
 20
10.1759020366
 30
0.0
 10
9.3692842052
 20
10.1770818782
 30
0.0
  0
LINE
  5
4C3
100
AcDbEntity
  8
0
100
AcDbLine
 62
7
  6
CONTINUOUS
 10
8.4853488434
 20
7.4983507817
 11
8.4433846086
 21
7.4984275926
  0
SPLINE
  5
4C4
100
AcDbEntity
  8
0
100
AcDbSpline
 62
7
  6
CONTINUOUS
 70
0
 71
3
 72
19
 73
15
 74
0
 42
0.0000001
 43
0.0000001
 44
0.0000000001
 40
0.0
 40
0.0
 40
0.0
 40
0.0
 40
0.1324461061
 40
0.2582518146
 40
0.3191045952
 40
0.3788294712
 40
0.4377621322
 40
0.4963019337
 40
0.5548925576
 40
0.6139968475
 40
0.6740677843
 40
0.7355169473
 40
0.8636065682
 40
1.0
 40
1.0
 40
1.0
 40
1.0
 10
9.4978387643
 20
10.1824202738
 30
0.0
 10
9.4955054755
 20
10.18014382
 30
0.0
 10
9.4904740625
 20
10.1761644801
 30
0.0
 10
9.4833001093
 20
10.172780482
 30
0.0
 10
9.4774187408
 20
10.1712461995
 30
0.0
 10
9.473024474
 20
10.1706789079
 30
0.0
 10
9.4686505888
 20
10.1706889329
 30
0.0
 10
9.4643441414
 20
10.1712767616
 30
0.0
 10
9.4601513882
 20
10.1724382817
 30
0.0
 10
9.4561167965
 20
10.1741637501
 30
0.0
 10
9.4522824569
 20
10.1764383411
 30
0.0
 10
9.4474257557
 20
10.1802241608
 30
0.0
 10
9.4420586935
 20
10.1862882277
 30
0.0
 10
9.4388652618
 20
10.1920178715
 30
0.0
 10
9.4375072841
 20
10.1950879238
 30
0.0
  0
SPLINE
  5
4C5
100
AcDbEntity
  8
0
100
AcDbSpline
 62
7
  6
CONTINUOUS
 70
0
 71
3
 72
21
 73
17
 74
0
 42
0.0000001
 43
0.0000001
 44
0.0000000001
 40
0.0
 40
0.0
 40
0.0
 40
0.0
 40
0.0635653788
 40
0.126513424
 40
0.1887908704
 40
0.2504460522
 40
0.3115523822
 40
0.3722553256
 40
0.4327546147
 40
0.4932902149
 40
0.5541238602
 40
0.6155092959
 40
0.6776604242
 40
0.7407135998
 40
0.8691924509
 40
1.0
 40
1.0
 40
1.0
 40
1.0
 10
9.6146730615
 20
10.1824201817
 30
0.0
 10
9.6128545577
 20
10.1808884015
 30
0.0
 10
9.6090141639
 20
10.1780915442
 30
0.0
 10
9.6027584937
 20
10.1747673042
 30
0.0
 10
9.5961628015
 20
10.1723813507
 30
0.0
 10
9.5893632863
 20
10.1709677272
 30
0.0
 10
9.5824896027
 20
10.1705471679
 30
0.0
 10
9.5756703448
 20
10.1711259447
 30
0.0
 10
9.5690308532
 20
10.1726976074
 30
0.0
 10
9.5626940479
 20
10.1752412267
 30
0.0
 10
9.5567796987
 20
10.1787201119
 30
0.0
 10
9.5514031166
 20
10.1830793641
 30
0.0
 10
9.5466726117
 20
10.1882462641
 30
0.0
 10
9.5413313401
 20
10.1961243152
 30
0.0
 10
9.5367889885
 20
10.2074724044
 30
0.0
 10
9.5357525711
 20
10.2172545252
 30
0.0
 10
9.5358942858
 20
10.2221453399
 30
0.0
  0
SPLINE
  5
4C6
100
AcDbEntity
  8
0
100
AcDbSpline
 62
7
  6
CONTINUOUS
 70
0
 71
3
 72
23
 73
19
 74
0
 42
0.0000001
 43
0.0000001
 44
0.0000000001
 40
0.0
 40
0.0
 40
0.0
 40
0.0
 40
0.0627558002
 40
0.1255087244
 40
0.1882027806
 40
0.2508345075
 40
0.3133741653
 40
0.3758139472
 40
0.4381579866
 40
0.5004223556
 40
0.5626378224
 40
0.6248468706
 40
0.6871008366
 40
0.7494484548
 40
0.8119252882
 40
0.8745300584
 40
0.937246617
 40
1.0
 40
1.0
 40
1.0
 40
1.0
 10
9.7431193101
 20
10.1824192039
 30
0.0
 10
9.7412029999
 20
10.1808801988
 30
0.0
 10
9.7371451183
 20
10.178071969
 30
0.0
 10
9.7305389196
 20
10.1747524173
 30
0.0
 10
9.7235433278
 20
10.1723725446
 30
0.0
 10
9.7162986406
 20
10.1709650397
 30
0.0
 10
9.7089402349
 20
10.1705488794
 30
0.0
 10
9.7016041496
 20
10.1711287568
 30
0.0
 10
9.6944249648
 20
10.1726974372
 30
0.0
 10
9.6875368551
 20
10.1752340865
 30
0.0
 10
9.6810731412
 20
10.1787030979
 30
0.0
 10
9.6751650427
 20
10.1830521221
 30
0.0
 10
9.6699396834
 20
10.188209962
 30
0.0
 10
9.6655167723
 20
10.1940846631
 30
0.0
 10
9.6620053994
 20
10.2005619466
 30
0.0
 10
9.6594965248
 20
10.2075058912
 30
0.0
 10
9.658060701
 20
10.2147579099
 30
0.0
 10
9.657845439
 20
10.2196895653
 30
0.0
 10
9.6579249549
 20
10.2221459842
 30
0.0
  0
SPLINE
  5
4C7
100
AcDbEntity
  8
0
100
AcDbSpline
 62
7
  6
CONTINUOUS
 70
0
 71
3
 72
9
 73
5
 74
0
 42
0.0000001
 43
0.0000001
 44
0.0000000001
 40
0.0
 40
0.0
 40
0.0
 40
0.0
 40
0.4970224225
 40
1.0
 40
1.0
 40
1.0
 40
1.0
 10
8.423686337
 20
7.520870568
 30
0.0
 10
8.432418159
 20
7.5304157022
 30
0.0
 10
8.4517261214
 20
7.5480870065
 30
0.0
 10
8.4736735324
 20
7.5623099578
 30
0.0
 10
8.4851813109
 20
7.5685517305
 30
0.0
  0
SPLINE
  5
4C8
100
AcDbEntity
  8
0
100
AcDbSpline
 62
7
  6
CONTINUOUS
 70
0
 71
3
 72
9
 73
5
 74
0
 42
0.0000001
 43
0.0000001
 44
0.0000000001
 40
0.0
 40
0.0
 40
0.0
 40
0.0
 40
0.259972698
 40
1.0
 40
1.0
 40
1.0
 40
1.0
 10
8.5461828825
 20
7.5920836137
 30
0.0
 10
8.5489980294
 20
7.5927531274
 30
0.0
 10
8.5598736924
 20
7.5951300003
 30
0.0
 10
8.5709009587
 20
7.5967850439
 30
0.0
 10
8.5790887598
 20
7.597683851
 30
0.0
  0
SPLINE
  5
4C9
100
AcDbEntity
  8
0
100
AcDbSpline
 62
9
  6
CONTINUOUS
 70
0
 71
3
 72
10
 73
6
 74
0
 42
0.0000001
 43
0.0000001
 44
0.0000000001
 40
0.0
 40
0.0
 40
0.0
 40
0.0
 40
0.2453644554
 40
0.499813757
 40
1.0
 40
1.0
 40
1.0
 40
1.0
 10
9.775319829
 20
10.2590651243
 30
0.0
 10
9.7777417169
 20
10.2587230306
 30
0.0
 10
9.7826870875
 20
10.2581089613
 30
0.0
 10
9.7926088335
 20
10.257139022
 30
0.0
 10
9.8001193844
 20
10.2566550697
 30
0.0
 10
9.8051014981
 20
10.2564548799
 30
0.0
  0
LINE
  5
4CA
100
AcDbEntity
  8
0
100
AcDbLine
 62
7
  6
CONTINUOUS
 10
9.7872844952
 20
10.1381566296
 11
9.7525267748
 21
10.167391804
  0
SPLINE
  5
4CB
100
AcDbEntity
  8
0
100
AcDbSpline
 62
7
  6
CONTINUOUS
 70
0
 71
3
 72
20
 73
16
 74
0
 42
0.0000001
 43
0.0000001
 44
0.0000000001
 40
0.0
 40
0.0
 40
0.0
 40
0.0
 40
0.0591017207
 40
0.115168824
 40
0.1689782592
 40
0.2215828843
 40
0.2740991987
 40
0.3276015746
 40
0.3829920425
 40
0.440930243
 40
0.5018179358
 40
0.5658137789
 40
0.7024447348
 40
0.8486968323
 40
1.0
 40
1.0
 40
1.0
 40
1.0
 10
9.4083752727
 20
10.4073631626
 30
0.0
 10
9.4095615119
 20
10.4088586378
 30
0.0
 10
9.4120908726
 20
10.4116106396
 30
0.0
 10
9.416423688
 20
10.414973664
 30
0.0
 10
9.4211169738
 20
10.4173921171
 30
0.0
 10
9.4260820991
 20
10.4188213155
 30
0.0
 10
9.4312220601
 20
10.4192369583
 30
0.0
 10
9.436432341
 20
10.4186376484
 30
0.0
 10
9.4416081545
 20
10.4170398674
 30
0.0
 10
9.446644413
 20
10.4144742099
 30
0.0
 10
9.451435033
 20
10.4109824223
 30
0.0
 10
9.4574757939
 20
10.4050429869
 30
0.0
 10
9.4637278711
 20
10.395572923
 30
0.0
 10
9.4683590776
 20
10.3822009002
 30
0.0
 10
9.4692652369
 20
10.3725226501
 30
0.0
 10
9.4691401706
 20
10.3676375719
 30
0.0
  0
SPLINE
  5
4CC
100
AcDbEntity
  8
0
100
AcDbSpline
 62
7
  6
CONTINUOUS
 70
0
 71
3
 72
21
 73
17
 74
0
 42
0.0000001
 43
0.0000001
 44
0.0000000001
 40
0.0
 40
0.0
 40
0.0
 40
0.0
 40
0.0603750102
 40
0.1197773907
 40
0.1785627914
 40
0.237169111
 40
0.2959878832
 40
0.3553683493
 40
0.4155809047
 40
0.4768052003
 40
0.6022581764
 40
0.7319209865
 40
0.7982144264
 40
0.8651350343
 40
0.9324817378
 40
1.0
 40
1.0
 40
1.0
 40
1.0
 10
9.5051505589
 20
10.4073630882
 30
0.0
 10
9.5067339093
 20
10.4088867547
 30
0.0
 10
9.5101065624
 20
10.4116802931
 30
0.0
 10
9.5157126363
 20
10.4150178127
 30
0.0
 10
9.5217150769
 20
10.4174104367
 30
0.0
 10
9.5279980991
 20
10.4188231436
 30
0.0
 10
9.534445976
 20
10.4192369275
 30
0.0
 10
9.5409379577
 20
10.4186491741
 30
0.0
 10
9.5473525686
 20
10.4170692428
 30
0.0
 10
9.5556924311
 20
10.4136504372
 30
0.0
 10
9.5652834519
 20
10.4069806284
 30
0.0
 10
9.5727401726
 20
10.3977535829
 30
0.0
 10
9.5770813425
 20
10.3891977952
 30
0.0
 10
9.579439022
 20
10.3822618139
 30
0.0
 10
9.580791711
 20
10.3750191998
 30
0.0
 10
9.5809949208
 20
10.3700948447
 30
0.0
 10
9.5809198108
 20
10.3676386103
 30
0.0
  0
SPLINE
  5
4CD
100
AcDbEntity
  8
0
100
AcDbSpline
 62
7
  6
CONTINUOUS
 70
0
 71
3
 72
21
 73
17
 74
0
 42
0.0000001
 43
0.0000001
 44
0.0000000001
 40
0.0
 40
0.0
 40
0.0
 40
0.0
 40
0.0617119453
 40
0.1233286771
 40
0.1849254566
 40
0.2466187932
 40
0.3084740256
 40
0.3705427615
 40
0.495092389
 40
0.6204603131
 40
0.6835280868
 40
0.7467054978
 40
0.8099677113
 40
0.8732837272
 40
0.9366419455
 40
1.0
 40
1.0
 40
1.0
 40
1.0
 10
9.6231062572
 20
10.4073638684
 30
0.0
 10
9.6249415389
 20
10.4089008622
 30
0.0
 10
9.6288389491
 20
10.4117093592
 30
0.0
 10
9.6352220148
 20
10.4150337803
 30
0.0
 10
9.6420133653
 20
10.4174163284
 30
0.0
 10
9.6490796056
 20
10.4188242296
 30
0.0
 10
9.6562920279
 20
10.4192382793
 30
0.0
 10
9.6659248632
 20
10.4184623445
 30
0.0
 10
9.6776910513
 20
10.4150010075
 30
0.0
 10
9.6881011058
 20
10.4084282569
 30
0.0
 10
9.6950896698
 20
10.4015739804
 30
0.0
 10
9.6995572874
 20
10.3957017862
 30
0.0
 10
9.7031144275
 20
10.3892266197
 30
0.0
 10
9.7056627823
 20
10.3822828297
 30
0.0
 10
9.707123788
 20
10.3750292346
 30
0.0
 10
9.7073431313
 20
10.3700954817
 30
0.0
 10
9.7072623276
 20
10.3676390872
 30
0.0
  0
LINE
  5
4CE
100
AcDbEntity
  8
0
100
AcDbLine
 62
7
  6
CONTINUOUS
 10
8.424696504
 20
7.4983531813
 11
8.3953342958
 21
7.4984402565
  0
SPLINE
  5
4CF
100
AcDbEntity
  8
0
100
AcDbSpline
 62
7
  6
CONTINUOUS
 70
0
 71
3
 72
9
 73
5
 74
0
 42
0.0000001
 43
0.0000001
 44
0.0000000001
 40
0.0
 40
0.0
 40
0.0
 40
0.0
 40
0.4684555849
 40
1.0
 40
1.0
 40
1.0
 40
1.0
 10
9.7525267748
 20
10.4078043651
 30
0.0
 10
9.7551777363
 20
10.4066944534
 30
0.0
 10
9.7607756064
 20
10.4041777431
 30
0.0
 10
9.7661635156
 20
10.4012118109
 30
0.0
 10
9.7689074018
 20
10.3994496886
 30
0.0
  0
SPLINE
  5
4D0
100
AcDbEntity
  8
0
100
AcDbSpline
 62
7
  6
CONTINUOUS
 70
0
 71
3
 72
11
 73
7
 74
0
 42
0.0000001
 43
0.0000001
 44
0.0000000001
 40
0.0
 40
0.0
 40
0.0
 40
0.0
 40
0.2478092222
 40
0.4965992319
 40
0.7470421875
 40
1.0
 40
1.0
 40
1.0
 40
1.0
 10
8.3809025627
 20
7.5148902165
 30
0.0
 10
8.3862183912
 20
7.5217766329
 30
0.0
 10
8.3977991759
 20
7.5348848157
 30
0.0
 10
8.4175567512
 20
7.5522285519
 30
0.0
 10
8.4394301879
 20
7.5671314976
 30
0.0
 10
8.4551469476
 20
7.5753131972
 30
0.0
 10
8.4632445207
 20
7.5789583988
 30
0.0
  0
LINE
  5
4D1
100
AcDbEntity
  8
0
100
AcDbLine
 62
7
  6
CONTINUOUS
 10
9.7525267748
 20
10.422391804
 11
9.7872815654
 21
10.4516263632
  0
SPLINE
  5
4D2
100
AcDbEntity
  8
0
100
AcDbSpline
 62
7
  6
CONTINUOUS
 70
0
 71
3
 72
9
 73
5
 74
0
 42
0.0000001
 43
0.0000001
 44
0.0000000001
 40
0.0
 40
0.0
 40
0.0
 40
0.0
 40
0.5239280541
 40
1.0
 40
1.0
 40
1.0
 40
1.0
 10
8.484834666
 20
7.5874243283
 30
0.0
 10
8.4925734237
 20
7.5900298303
 30
0.0
 10
8.5076521522
 20
7.5941247119
 30
0.0
 10
8.5230496488
 20
7.5966709444
 30
0.0
 10
8.5304136166
 20
7.5975790189
 30
0.0
  0
SPLINE
  5
4D3
100
AcDbEntity
  8
0
100
AcDbSpline
 62
7
  6
CONTINUOUS
 70
0
 71
3
 72
18
 73
14
 74
0
 42
0.0000001
 43
0.0000001
 44
0.0000000001
 40
0.0
 40
0.0
 40
0.0
 40
0.0
 40
0.0200382081
 40
0.040487151
 40
0.0645750073
 40
0.0942484646
 40
0.1304766887
 40
0.1737154517
 40
0.2818854007
 40
0.4192078662
 40
0.5852434574
 40
0.7791497521
 40
1.0
 40
1.0
 40
1.0
 40
1.0
 10
10.8785452805
 20
7.596518008
 30
0.0
 10
10.8784812929
 20
7.5964335541
 30
0.0
 10
10.878382383
 20
7.5962347584
 30
0.0
 10
10.8783810978
 20
7.595883923
 30
0.0
 10
10.8785136092
 20
7.5955095324
 30
0.0
 10
10.8787637122
 20
7.5951024065
 30
0.0
 10
10.8791289802
 20
7.5946541966
 30
0.0
 10
10.8798206196
 20
7.5939417537
 30
0.0
 10
10.8809785301
 20
7.5929435079
 30
0.0
 10
10.8826938917
 20
7.5916046601
 30
0.0
 10
10.8848050681
 20
7.5900368554
 30
0.0
 10
10.8872874774
 20
7.5882288574
 30
0.0
 10
10.889060676
 20
7.586938256
 30
0.0
 10
10.8900029216
 20
7.5862483789
 30
0.0
  0
SPLINE
  5
4D4
100
AcDbEntity
  8
0
100
AcDbSpline
 62
9
  6
CONTINUOUS
 70
0
 71
3
 72
15
 73
11
 74
0
 42
0.0000001
 43
0.0000001
 44
0.0000000001
 40
0.0
 40
0.0
 40
0.0
 40
0.0
 40
0.1255422441
 40
0.2509361342
 40
0.37617692
 40
0.5012470275
 40
0.6261312463
 40
0.7508824079
 40
0.875527152
 40
1.0
 40
1.0
 40
1.0
 40
1.0
 10
9.8051007218
 20
10.3333293462
 30
0.0
 10
9.8048083296
 20
10.3383373332
 30
0.0
 10
9.8041283785
 20
10.3483420564
 30
0.0
 10
9.8028324058
 20
10.3633184443
 30
0.0
 10
9.8012753529
 20
10.3782508871
 30
0.0
 10
9.7994580425
 20
10.3931337604
 30
0.0
 10
9.7972577266
 20
10.4079462927
 30
0.0
 10
9.7945503868
 20
10.4226586913
 30
0.0
 10
9.7912624213
 20
10.4372357061
 30
0.0
 10
9.7886763156
 20
10.446851907
 30
0.0
 10
9.7872816453
 20
10.4516261523
 30
0.0
  0
SPLINE
  5
4D5
100
AcDbEntity
  8
0
100
AcDbSpline
 62
9
  6
CONTINUOUS
 70
0
 71
3
 72
13
 73
9
 74
0
 42
0.0000001
 43
0.0000001
 44
0.0000000001
 40
0.0
 40
0.0
 40
0.0
 40
0.0
 40
0.2460711522
 40
0.3746483291
 40
0.5043204646
 40
0.6333298672
 40
0.7600487532
 40
1.0
 40
1.0
 40
1.0
 40
1.0
 10
9.3209029277
 20
10.4935801879
 30
0.0
 10
9.3225987792
 20
10.4999490432
 30
0.0
 10
9.3267133727
 20
10.509335545
 30
0.0
 10
9.3349632424
 20
10.5200858775
 30
0.0
 10
9.3425637372
 20
10.5272206094
 30
0.0
 10
9.3512458144
 20
10.5329024345
 30
0.0
 10
9.3634420851
 20
10.5382581636
 30
0.0
 10
9.3733600975
 20
10.5398918388
 30
0.0
 10
9.3797869505
 20
10.5398918382
 30
0.0
  0
LINE
  5
4D6
100
AcDbEntity
  8
0
100
AcDbLine
 62
7
  6
CONTINUOUS
 10
8.3878291893
 20
7.4983507817
 11
8.3741544099
 21
7.4984275925
  0
SPLINE
  5
4D7
100
AcDbEntity
  8
0
100
AcDbSpline
 62
7
  6
CONTINUOUS
 70
0
 71
3
 72
16
 73
12
 74
0
 42
0.0000001
 43
0.0000001
 44
0.0000000001
 40
0.0
 40
0.0
 40
0.0
 40
0.0
 40
0.0329271596
 40
0.0658888076
 40
0.1375464853
 40
0.2245815068
 40
0.3321017992
 40
0.4626240652
 40
0.6172093817
 40
0.7962846096
 40
1.0
 40
1.0
 40
1.0
 40
1.0
 10
10.7931057504
 20
7.5947347517
 30
0.0
 10
10.7930007391
 20
7.5945867471
 30
0.0
 10
10.7928195924
 20
7.5942684768
 30
0.0
 10
10.7925900466
 20
7.5935403821
 30
0.0
 10
10.792594278
 20
7.5924609508
 30
0.0
 10
10.7930000472
 20
7.5910415302
 30
0.0
 10
10.7937611285
 20
7.5894146021
 30
0.0
 10
10.794866195
 20
7.5875518596
 30
0.0
 10
10.7963020839
 20
7.5854334202
 30
0.0
 10
10.7980552412
 20
7.5830458847
 30
0.0
 10
10.7993423829
 20
7.5813741873
 30
0.0
 10
10.8000325911
 20
7.5804886469
 30
0.0
  0
LINE
  5
4D8
100
AcDbEntity
  8
0
100
AcDbLine
 62
7
  6
CONTINUOUS
 10
8.3639854472
 20
7.5107648695
 11
8.3777065466
 21
7.510632011
  0
SPLINE
  5
4D9
100
AcDbEntity
  8
0
100
AcDbSpline
 62
7
  6
CONTINUOUS
 70
0
 71
3
 72
11
 73
7
 74
0
 42
0.0000001
 43
0.0000001
 44
0.0000000001
 40
0.0
 40
0.0
 40
0.0
 40
0.0
 40
0.2489014129
 40
0.4975148519
 40
0.7474940571
 40
1.0
 40
1.0
 40
1.0
 40
1.0
 10
8.3695644147
 20
7.5236384312
 30
0.0
 10
8.3749374266
 20
7.5306526978
 30
0.0
 10
8.3867100477
 20
7.5439138597
 30
0.0
 10
8.4070183736
 20
7.5611214849
 30
0.0
 10
8.429605043
 20
7.5754395954
 30
0.0
 10
8.4458669587
 20
7.5829174106
 30
0.0
 10
8.4542375251
 20
7.586123708
 30
0.0
  0
SPLINE
  5
4DA
100
AcDbEntity
  8
0
100
AcDbSpline
 62
7
  6
CONTINUOUS
 70
0
 71
3
 72
9
 73
5
 74
0
 42
0.0000001
 43
0.0000001
 44
0.0000000001
 40
0.0
 40
0.0
 40
0.0
 40
0.0
 40
0.2676199195
 40
1.0
 40
1.0
 40
1.0
 40
1.0
 10
8.4723445123
 20
7.5920836137
 30
0.0
 10
8.4747446533
 20
7.5927471606
 30
0.0
 10
8.4837592031
 20
7.5950586354
 30
0.0
 10
8.4929282314
 20
7.5967534165
 30
0.0
 10
8.499679134
 20
7.597683851
 30
0.0
  0
SPLINE
  5
4DB
100
AcDbEntity
  8
0
100
AcDbSpline
 62
9
  6
CONTINUOUS
 70
0
 71
3
 72
10
 73
6
 74
0
 42
0.0000001
 43
0.0000001
 44
0.0000000001
 40
0.0
 40
0.0
 40
0.0
 40
0.0
 40
0.4823425228
 40
0.7362293877
 40
1.0
 40
1.0
 40
1.0
 40
1.0
 10
9.9906169364
 20
10.6198792282
 30
0.0
 10
9.987028755
 20
10.6215712078
 30
0.0
 10
9.9815153354
 20
10.6240764285
 30
0.0
 10
9.9739839314
 20
10.627381359
 30
0.0
 10
9.9700664522
 20
10.6290492037
 30
0.0
 10
9.968063119
 20
10.6298816908
 30
0.0
  0
SPLINE
  5
4DC
100
AcDbEntity
  8
0
100
AcDbSpline
 62
9
  6
CONTINUOUS
 70
0
 71
3
 72
15
 73
11
 74
0
 42
0.0000001
 43
0.0000001
 44
0.0000000001
 40
0.0
 40
0.0
 40
0.0
 40
0.0
 40
0.1934323202
 40
0.3596871872
 40
0.5002481953
 40
0.6178386172
 40
0.7173416541
 40
0.8069400345
 40
0.8976186439
 40
1.0
 40
1.0
 40
1.0
 40
1.0
 10
9.5271242875
 20
10.6298629299
 30
0.0
 10
9.5263093515
 20
10.6294736963
 30
0.0
 10
9.524815085
 20
10.6287033451
 30
0.0
 10
9.5228362202
 20
10.62745565
 30
0.0
 10
9.5212918717
 20
10.6262039613
 30
0.0
 10
9.5201815591
 20
10.6249422193
 30
0.0
 10
9.5195140355
 20
10.6236524334
 30
0.0
 10
9.5193321792
 20
10.6223281541
 30
0.0
 10
9.5196639006
 20
10.6210214958
 30
0.0
 10
9.5201590592
 20
10.6202527604
 30
0.0
 10
9.5204579521
 20
10.6198797239
 30
0.0
  0
SPLINE
  5
4DD
100
AcDbEntity
  8
0
100
AcDbSpline
 62
7
  6
CONTINUOUS
 70
0
 71
3
 72
14
 73
10
 74
0
 42
0.0000001
 43
0.0000001
 44
0.0000000001
 40
0.0
 40
0.0
 40
0.0
 40
0.0
 40
0.0873935781
 40
0.1772104708
 40
0.2753409938
 40
0.3861805039
 40
0.5125848443
 40
0.6563603505
 40
1.0
 40
1.0
 40
1.0
 40
1.0
 10
10.6982455357
 20
7.5942552631
 30
0.0
 10
10.6981073587
 20
7.5940416631
 30
0.0
 10
10.6978819763
 20
7.5935697344
 30
0.0
 10
10.6977372156
 20
7.5927733282
 30
0.0
 10
10.6977783711
 20
7.5918986793
 30
0.0
 10
10.6979937619
 20
7.5909428227
 30
0.0
 10
10.6983760005
 20
7.5898992191
 30
0.0
 10
10.6991496438
 20
7.5882865457
 30
0.0
 10
10.6999027047
 20
7.5870791738
 30
0.0
 10
10.7004598447
 20
7.5862483789
 30
0.0
  0
ENDSEC
  0
SECTION
  2
OBJECTS
  0
DICTIONARY
  5
C
100
AcDbDictionary
280
0
281
1
  3
ACAD_GROUP
350
D
  3
ACAD_MLINESTYLE
350
17
  3
ACAD_LAYOUT
350
1A
  3
ACAD_PLOTSETTINGS
350
19
  3
ACAD_PLOTSTYLENAME
350
E
  0
DICTIONARY
  5
D
102
{ACAD_REACTORS
330
C
102
}
100
AcDbDictionary
280
0
281
1
  0
ACDBDICTIONARYWDFLT
  5
E
102
{ACAD_REACTORS
330
C
102
}
100
AcDbDictionary
281
1
  3
Normal
350
F
100
AcDbDictionaryWithDefault
340
F
  0
DICTIONARY
  5
17
102
{ACAD_REACTORS
330
C
102
}
100
AcDbDictionary
280
0
281
1
  3
Standard
350
18
  0
DICTIONARY
  5
19
102
{ACAD_REACTORS
330
C
102
}
100
AcDbDictionary
281
1
  0
DICTIONARY
  5
1A
102
{ACAD_REACTORS
330
C
102
}
100
AcDbDictionary
281
1
  3
Model
350
4DE
  3
Layout1
350
4DF
  0
ACDBPLACEHOLDER
  5
F
102
{ACAD_REACTORS
330
E
102
}
  0
MLINESTYLE
  5
18
102
{ACAD_REACTORS
330
17
102
}
100
AcDbMlineStyle
  2
STANDARD
 70
0
  3

 62
256
 51
90.0
 52
90.0
 71
2
 49
0.5
 62
256
  6
BYLAYER
 49
-0.5
 62
256
  6
BYLAYER
  0
LAYOUT
  5
4DE
102
{ACAD_REACTORS
330
1A
102
}
100
AcDbPlotSettings
  1

  2
none_device
  4
ANSI_C_(22.00_x_17.00_Inches)
  6

 40
0.0
 41
0.0
 42
0.0
 43
0.0
 44
558.8
 45
431.8
 46
0.0
 47
0.0
 48
0.0
 49
0.0
140
0.0
141
0.0
142
1.0
143
1.0
 70
1024
 72
0
 73
0
 74
0
  7

 75
0
147
1.0
148
0.0
149
0.0
100
AcDbLayout
  1
Model
 70
0
 71
0
 10
0.0
 20
0.0
 11
22.0
 21
17.0
 12
0.0
 22
0.0
 32
0.0
 14
0.0
 24
0.0
 34
0.0
 15
0.0
 25
0.0
 35
0.0
146
0.0
 13
0.0
 23
0.0
 33
0.0
 16
1.0
 26
0.0
 36
0.0
 17
0.0
 27
1.0
 37
0.0
 76
0
330
202
345
0
346
0
  0
LAYOUT
  5
4DF
102
{ACAD_REACTORS
330
1A
102
}
100
AcDbPlotSettings
  1

  2
none_device
  4
ANSI_C_(22.00_x_17.00_Inches)
  6

 40
0.0
 41
0.0
 42
0.0
 43
0.0
 44
558.8
 45
431.8
 46
0.0
 47
0.0
 48
0.0
 49
0.0
140
0.0
141
0.0
142
1.0
143
1.0
 70
0
 72
0
 73
0
 74
0
  7

 75
0
147
1.0
148
0.0
149
0.0
100
AcDbLayout
  1
Layout1
 70
0
 71
1
 10
0.0
 20
0.0
 11
22.0
 21
17.0
 12
0.0
 22
0.0
 32
0.0
 14
0.0
 24
0.0
 34
0.0
 15
0.0
 25
0.0
 35
0.0
146
0.0
 13
0.0
 23
0.0
 33
0.0
 16
1.0
 26
0.0
 36
0.0
 17
0.0
 27
1.0
 37
0.0
 76
0
330
203
345
0
346
0
  0
ENDSEC
  0
EOF
