  0
SECTION
  2
HEADER
  9
$ACADVER
  1
AC1021
  9
$DWGCODEPAGE
  3
ANSI_1252
  9
$EXTMAX
 10
11.6929133858
 20
8.2677165354
 30
0.0
  9
$EXTMIN
 10
0.0
 20
0.0
 30
0.0
  9
$LIMMIN
 10
0.0
 20
0.0
  9
$LIMMAX
 10
11.6929133858
 20
8.2677165354
  9
$VIEWCTR
 10
5.8464566929
 20
4.1338582677
  9
$VIEWSIZE
 40
8.2677165354
  9
$CLAYER
  8
0
  9
$LTSCALE
 40
0.6431102362
  9
$CELTYPE
  6
BYLAYER
  9
$DIMSCALE
 40
1.0
  9
$DIMASZ
 40
0.1
  9
$DIMEXO
 40
0.0730807087
  9
$DIMDLI
 40
0.4443307087
  9
$DIMEXE
 40
0.2104724409
  9
$DIMCEN
 40
0.1052362205
  9
$DIMLFAC
 40
1.0
  9
$DIMBLK
  1
_FILLED
  9
$DIMTXT
 40
0.08
  9
$DIMTOL
 70
1
  9
$DIMLIM
 70
0
  9
$DIMTFAC
 40
1.0
  9
$DIMTP
 40
0.001
  9
$DIMTM
 40
0.001
  9
$PDMODE
 70
3
  9
$PDSIZE
 40
0.06
  9
$HANDSEED
  5
346
  9
$TILEMODE
 70
1
  9
$MEASUREMENT
 70
0
  9
$INSUNITS
 70
1
  0
ENDSEC
  0
SECTION
  2
CLASSES
  0
CLASS
  1
ACDBDICTIONARYWDFLT
  2
AcDbDictionaryWithDefault
  3
AutoCAD 2000
 90
0
 91
1
280
0
281
0
  0
CLASS
  1
ACDBPLACEHOLDER
  2
AcDbPlaceHolder
  3
AutoCAD 2000
 90
0
 91
1
280
0
281
0
  0
CLASS
  1
LAYOUT
  2
AcDbLayout
  3
AutoCAD 2000
 90
0
 91
0
280
0
281
0
  0
ENDSEC
  0
SECTION
  2
TABLES
  0
TABLE
  2
VPORT
  5
8
100
AcDbSymbolTable
 70
2
  0
VPORT
  5
1F4
100
AcDbSymbolTableRecord
100
AcDbViewportTableRecord
  2
*ACTIVE
 70
0
 10
0.0
 20
0.0
 11
1.0
 21
1.0
 12
5.8464566929
 22
4.1338582677
 13
0.0
 23
0.0
 14
1.0
 24
1.0
 15
0.0
 25
0.0
 16
0.0
 26
0.0
 36
1.0
 17
0.0
 27
0.0
 37
0.0
 40
8.2677165354
 41
1.4142857143
 42
50.0
 43
0.0
 44
0.0
 50
0.0
 51
0.0
 71
0
 72
100
 73
1
 74
1
 75
0
 76
0
 77
0
 78
0
  0
ENDTAB
  0
TABLE
  2
LTYPE
  5
5
100
AcDbSymbolTable
 70
6
  0
LTYPE
  5
14
100
AcDbSymbolTableRecord
100
AcDbLinetypeTableRecord
  2
BYBLOCK
 70
0
  3

 72
65
 73
0
 40
0.0
  0
LTYPE
  5
15
100
AcDbSymbolTableRecord
100
AcDbLinetypeTableRecord
  2
BYLAYER
 70
0
  3

 72
65
 73
0
 40
0.0
  0
LTYPE
  5
16
100
AcDbSymbolTableRecord
100
AcDbLinetypeTableRecord
  2
CONTINUOUS
 70
64
  3
Solid line
 72
65
 73
0
 40
0.0
  0
LTYPE
  5
1F5
100
AcDbSymbolTableRecord
100
AcDbLinetypeTableRecord
  2
CENTER
 70
64
  3
____ _ ____ _ ____ _ ____ _ ____ _ ____ _ ____
 72
65
 73
4
 40
0.6
 49
0.375
 74
0
 49
-0.075
 74
0
 49
0.075
 74
0
 49
-0.075
 74
0
  0
LTYPE
  5
1F6
100
AcDbSymbolTableRecord
100
AcDbLinetypeTableRecord
  2
HIDDEN
 70
64
  3
- - - - - - - - - - - - - - - - - - - -
 72
65
 73
2
 40
0.2
 49
0.1
 74
0
 49
-0.1
 74
0
  0
LTYPE
  5
1F7
100
AcDbSymbolTableRecord
100
AcDbLinetypeTableRecord
  2
PHANTOM
 70
64
  3
_____ _ _ _____ _ _ _____ _ _ _____
 72
65
 73
6
 40
0.8
 49
0.45
 74
0
 49
-0.05
 74
0
 49
0.1
 74
0
 49
-0.05
 74
0
 49
0.1
 74
0
 49
-0.05
 74
0
  0
LTYPE
  5
1F8
100
AcDbSymbolTableRecord
100
AcDbLinetypeTableRecord
  2
DOT
 70
64
  3
. . . . . . . . . . . . . . . . . . . .
 72
65
 73
2
 40
0.2
 49
0.1
 74
0
 49
-0.1
 74
0
  0
LTYPE
  5
1F9
100
AcDbSymbolTableRecord
100
AcDbLinetypeTableRecord
  2
DASHED
 70
64
  3
- - - - - - - - - - - - - - - - - - - -
 72
65
 73
2
 40
0.2
 49
0.1
 74
0
 49
-0.1
 74
0
  0
ENDTAB
  0
TABLE
  2
LAYER
  5
2
100
AcDbSymbolTable
 70
36
  0
LAYER
  5
10
100
AcDbSymbolTableRecord
100
AcDbLayerTableRecord
  2
0
 70
0
 62
7
  6
CONTINUOUS
370
-3
390
F
  0
LAYER
  5
1FA
100
AcDbSymbolTableRecord
100
AcDbLayerTableRecord
  2
DEFAULT_1
 70
0
 62
7
  6
CENTER
370
-3
390
F
  0
LAYER
  5
1FB
100
AcDbSymbolTableRecord
100
AcDbLayerTableRecord
  2
DEFAULT_2
 70
0
 62
8
  6
HIDDEN
370
-3
390
F
  0
LAYER
  5
1FC
100
AcDbSymbolTableRecord
100
AcDbLayerTableRecord
  2
DEFAULT_3
 70
0
 62
7
  6
PHANTOM
370
-3
390
F
  0
LAYER
  5
1FD
100
AcDbSymbolTableRecord
100
AcDbLayerTableRecord
  2
DEFAULT_COORDINATE_SYSTEM
 70
0
 62
7
  6
CONTINUOUS
370
-3
390
F
  0
LAYER
  5
1FE
100
AcDbSymbolTableRecord
100
AcDbLayerTableRecord
  2
DEFAULT_DATUM_AXES
 70
0
 62
7
  6
CONTINUOUS
370
-3
390
F
  0
LAYER
  5
1FF
100
AcDbSymbolTableRecord
100
AcDbLayerTableRecord
  2
DEFAULT_DATUM_CURVES
 70
0
 62
7
  6
CONTINUOUS
370
-3
390
F
  0
LAYER
  5
200
100
AcDbSymbolTableRecord
100
AcDbLayerTableRecord
  2
DEFAULT_DATUM_PLANES
 70
0
 62
7
  6
CONTINUOUS
370
-3
390
F
  0
ENDTAB
  0
TABLE
  2
STYLE
  5
3
100
AcDbSymbolTable
 70
1
  0
STYLE
  5
11
100
AcDbSymbolTableRecord
100
AcDbTextStyleTableRecord
  2
STANDARD
 70
0
 40
0.0
 41
0.8
 50
0.0
 71
0
 42
0.2
  3
txt
  4

  0
STYLE
  5
201
100
AcDbSymbolTableRecord
100
AcDbTextStyleTableRecord
  2
TEXTSTYLE_1
 70
0
 40
0.0
 41
0.8
 50
0.0
 71
0
 42
0.2
  3
gdt
  4

  0
ENDTAB
  0
TABLE
  2
VIEW
  5
6
100
AcDbSymbolTable
 70
0
  0
ENDTAB
  0
TABLE
  2
UCS
  5
7
100
AcDbSymbolTable
 70
0
  0
ENDTAB
  0
TABLE
  2
APPID
  5
9
100
AcDbSymbolTable
 70
1
  0
APPID
  5
202
100
AcDbSymbolTableRecord
100
AcDbRegAppTableRecord
  2
ACAD
 70
0
  0
ENDTAB
  0
TABLE
  2
BLOCK_RECORD
  5
1
100
AcDbSymbolTable
 70
0
  0
BLOCK_RECORD
  5
203
100
AcDbSymbolTableRecord
100
AcDbBlockTableRecord
  2
*Model_Space
  0
BLOCK_RECORD
  5
204
100
AcDbSymbolTableRecord
100
AcDbBlockTableRecord
  2
*Paper_Space
  0
ENDTAB
  0
TABLE
  2
DIMSTYLE
  5
A
100
AcDbSymbolTable
 70
1
100
AcDbDimStyleTable
 71
0
  0
DIMSTYLE
105
205
100
AcDbSymbolTableRecord
100
AcDbDimStyleTableRecord
  2
STANDARD
 70
0
  3

  4

 40
1.0
 41
0.1
 42
0.0625
 43
0.38
 44
0.18
 45
0.0
 46
0.0
 47
0.001
 48
0.001
140
0.08
141
0.09
142
0.0
143
25.4
144
1.0
145
0.0
146
1.0
147
0.09
 71
1.0
 72
0.0
 73
1
 74
1
 75
0
 76
0
 77
0
 78
4
170
0
171
2
172
0
173
0
174
0
175
0
176
0
177
0
178
0
270
2
271
3
272
3
273
2
274
2
275
0
280
0
281
0
282
0
283
1
284
4
285
0
286
0
287
3
288
0
340
11
  0
ENDTAB
  0
ENDSEC
  0
SECTION
  2
BLOCKS
  0
BLOCK
  5
20
100
AcDbEntity
  8
0
100
AcDbBlockBegin
  2
*Model_Space
 70
0
 10
0.0
 20
0.0
 30
0.0
  3
*Model_Space
  1

  0
ENDBLK
  5
21
100
AcDbEntity
  8
0
100
AcDbBlockEnd
  0
BLOCK
  5
1C
100
AcDbEntity
  8
0
100
AcDbBlockBegin
  2
*Paper_Space
 70
0
 10
0.0
 20
0.0
 30
0.0
  3
*Paper_Space
  1

  0
ENDBLK
  5
1D
100
AcDbEntity
  8
0
100
AcDbBlockEnd
  0
ENDSEC
  0
SECTION
  2
ENTITIES
  0
LINE
  5
206
100
AcDbEntity
  8
0
100
AcDbLine
 62
9
  6
CONTINUOUS
 10
3.5843639809
 20
3.8560912523
 11
3.5843639809
 21
4.6463805654
  0
LINE
  5
207
100
AcDbEntity
  8
0
100
AcDbLine
 62
6
  6
CONTINUOUS
 10
3.6081732742
 20
3.7967289476
 11
3.6081732742
 21
4.7057428701
  0
LINE
  5
208
100
AcDbEntity
  8
0
100
AcDbLine
 62
6
  6
CONTINUOUS
 10
3.6272539221
 20
3.7380017566
 11
3.6272539221
 21
4.7644700611
  0
LINE
  5
209
100
AcDbEntity
  8
0
100
AcDbLine
 62
6
  6
CONTINUOUS
 10
3.6468891771
 20
3.7237359088
 11
3.6468891771
 21
4.7787359088
  0
LINE
  5
20A
100
AcDbEntity
  8
0
100
AcDbLine
 62
6
  6
CONTINUOUS
 10
3.6081732742
 20
4.7057458649
 11
3.6272539221
 21
4.7644700611
  0
LINE
  5
20B
100
AcDbEntity
  8
0
100
AcDbLine
 62
6
  6
CONTINUOUS
 10
3.6081732742
 20
3.7967259527
 11
3.6272539221
 21
3.7380017566
  0
LINE
  5
20C
100
AcDbEntity
  8
0
100
AcDbLine
 62
6
  6
CONTINUOUS
 10
3.7181732742
 20
3.7237359088
 11
3.7181732742
 21
4.7787359088
  0
LINE
  5
20D
100
AcDbEntity
  8
0
100
AcDbLine
 62
6
  6
CONTINUOUS
 10
3.7336732742
 20
3.7505826963
 11
3.7336732742
 21
4.7518891213
  0
LINE
  5
20E
100
AcDbEntity
  8
0
100
AcDbLine
 62
6
  6
CONTINUOUS
 10
3.7491732742
 20
3.7237359088
 11
3.7491732742
 21
4.7787359088
  0
LINE
  5
20F
100
AcDbEntity
  8
0
100
AcDbLine
 62
6
  6
CONTINUOUS
 10
3.7336732742
 20
4.7518891213
 11
3.7491732742
 21
4.7787359088
  0
LINE
  5
210
100
AcDbEntity
  8
0
100
AcDbLine
 62
6
  6
CONTINUOUS
 10
3.7336732742
 20
3.7505826963
 11
3.7491732742
 21
3.7237359088
  0
LINE
  5
211
100
AcDbEntity
  8
0
100
AcDbLine
 62
6
  6
CONTINUOUS
 10
3.8291732742
 20
3.6937359088
 11
3.8291732742
 21
4.8087359088
  0
LINE
  5
212
100
AcDbEntity
  8
0
100
AcDbLine
 62
6
  6
CONTINUOUS
 10
3.8381732742
 20
4.6111574862
 11
3.8381732742
 21
4.6008890549
  0
LINE
  5
213
100
AcDbEntity
  8
0
100
AcDbLine
 62
6
  6
CONTINUOUS
 10
3.8381732742
 20
3.9016654605
 11
3.8381732742
 21
3.8913143311
  0
LINE
  5
214
100
AcDbEntity
  8
0
100
AcDbLine
 62
6
  6
CONTINUOUS
 10
3.6272539221
 20
4.7644700611
 11
3.6468891771
 21
4.7787359088
  0
LINE
  5
215
100
AcDbEntity
  8
0
100
AcDbLine
 62
6
  6
CONTINUOUS
 10
3.6272539221
 20
3.7380017566
 11
3.6468891771
 21
3.7237359088
  0
LINE
  5
216
100
AcDbEntity
  8
0
100
AcDbLine
 62
6
  6
CONTINUOUS
 10
4.2301732742
 20
4.6111574862
 11
4.2301732742
 21
4.600888643
  0
LINE
  5
217
100
AcDbEntity
  8
0
100
AcDbLine
 62
6
  6
CONTINUOUS
 10
4.2301732742
 20
3.9016701538
 11
4.2301732742
 21
3.8913143311
  0
LINE
  5
218
100
AcDbEntity
  8
0
100
AcDbLine
 62
6
  6
CONTINUOUS
 10
4.2391732742
 20
3.6937359088
 11
4.2391732742
 21
4.8087359088
  0
LINE
  5
219
100
AcDbEntity
  8
0
100
AcDbLine
 62
6
  6
CONTINUOUS
 10
4.3181732742
 20
3.7237359088
 11
4.3181732742
 21
4.7787359088
  0
LINE
  5
21A
100
AcDbEntity
  8
0
100
AcDbLine
 62
6
  6
CONTINUOUS
 10
3.7181732742
 20
3.7237359088
 11
3.7336732742
 21
3.7505826963
  0
LINE
  5
21B
100
AcDbEntity
  8
0
100
AcDbLine
 62
6
  6
CONTINUOUS
 10
4.1553346926
 20
4.8337831489
 11
4.1955849418
 21
4.862802528
  0
LINE
  5
21C
100
AcDbEntity
  8
0
100
AcDbLine
 62
9
  6
CONTINUOUS
 10
4.1553320525
 20
4.8337812455
 11
4.1553346926
 21
4.8337831489
  0
LINE
  5
21D
100
AcDbEntity
  8
0
100
AcDbLine
 62
9
  6
CONTINUOUS
 10
6.4950735694
 20
2.8732831529
 11
7.5778871522
 21
2.8732831529
  0
LINE
  5
21E
100
AcDbEntity
  8
0
100
AcDbLine
 62
6
  6
CONTINUOUS
 10
4.1553346926
 20
3.6686886688
 11
4.1955849418
 21
3.6396692897
  0
LINE
  5
21F
100
AcDbEntity
  8
0
100
AcDbLine
 62
6
  6
CONTINUOUS
 10
3.7181732742
 20
4.7787359088
 11
3.7336732742
 21
4.7518891213
  0
LINE
  5
220
100
AcDbEntity
  8
0
100
AcDbLine
 62
6
  6
CONTINUOUS
 10
4.3691732742
 20
3.8807359088
 11
4.3691732742
 21
4.6217359088
  0
LINE
  5
221
100
AcDbEntity
  8
0
100
AcDbLine
 62
6
  6
CONTINUOUS
 10
4.3181732742
 20
3.7237359088
 11
4.3691732742
 21
3.8807359088
  0
LINE
  5
222
100
AcDbEntity
  8
0
100
AcDbLine
 62
6
  6
CONTINUOUS
 10
6.3507455364
 20
3.2276138616
 11
6.3149803608
 21
3.2276138616
  0
LINE
  5
223
100
AcDbEntity
  8
0
100
AcDbLine
 62
6
  6
CONTINUOUS
 10
4.3181732742
 20
4.7787359088
 11
4.3691732742
 21
4.6217359088
  0
LINE
  5
224
100
AcDbEntity
  8
0
100
AcDbLine
 62
7
  6
CONTINUOUS
 10
4.7281732742
 20
3.9077359088
 11
4.7281732742
 21
4.5947359088
  0
LINE
  5
225
100
AcDbEntity
  8
0
100
AcDbLine
 62
9
  6
CONTINUOUS
 10
4.7431732742
 20
3.8523870239
 11
4.7431732742
 21
4.6500847938
  0
LINE
  5
226
100
AcDbEntity
  8
0
100
AcDbLine
 62
9
  6
CONTINUOUS
 10
4.7715740313
 20
3.8214961813
 11
4.7715740313
 21
4.6809756364
  0
LINE
  5
227
100
AcDbEntity
  8
0
100
AcDbLine
 62
6
  6
CONTINUOUS
 10
5.0775568354
 20
4.7917359088
 11
5.1834744626
 21
4.865869903
  0
LINE
  5
228
100
AcDbEntity
  8
0
100
AcDbLine
 62
6
  6
CONTINUOUS
 10
5.9931732742
 20
3.5947359088
 11
5.6419656561
 21
3.5947359088
  0
LINE
  5
229
100
AcDbEntity
  8
0
100
AcDbLine
 62
6
  6
CONTINUOUS
 10
5.0775568354
 20
3.7107359088
 11
5.1834744626
 21
3.6366019146
  0
LINE
  5
22A
100
AcDbEntity
  8
0
100
AcDbLine
 62
9
  6
CONTINUOUS
 10
5.0775568354
 20
3.7107359088
 11
5.0775568354
 21
4.7917359088
  0
LINE
  5
22B
100
AcDbEntity
  8
0
100
AcDbLine
 62
6
  6
CONTINUOUS
 10
3.9130118557
 20
3.6686886688
 11
3.8727616066
 21
3.6396692897
  0
LINE
  5
22C
100
AcDbEntity
  8
0
100
AcDbLine
 62
6
  6
CONTINUOUS
 10
3.6468891771
 20
3.7237359088
 11
3.7181732742
 21
3.7237359088
  0
LINE
  5
22D
100
AcDbEntity
  8
0
100
AcDbLine
 62
6
  6
CONTINUOUS
 10
6.4002472593
 20
3.6182590384
 11
5.9931732742
 21
3.6449366962
  0
LINE
  5
22E
100
AcDbEntity
  8
0
100
AcDbLine
 62
6
  6
CONTINUOUS
 10
3.9130118557
 20
4.8337831489
 11
3.8727616066
 21
4.862802528
  0
LINE
  5
22F
100
AcDbEntity
  8
0
100
AcDbLine
 62
9
  6
CONTINUOUS
 10
5.1834744626
 20
3.6366019146
 11
5.1834744626
 21
4.865869903
  0
LINE
  5
230
100
AcDbEntity
  8
0
100
AcDbLine
 62
6
  6
CONTINUOUS
 10
5.6266732742
 20
4.8923993485
 11
5.6419682911
 21
4.9077385517
  0
LINE
  5
231
100
AcDbEntity
  8
0
100
AcDbLine
 62
6
  6
CONTINUOUS
 10
4.3691732742
 20
3.9077359088
 11
4.7281732742
 21
3.9077359088
  0
LINE
  5
232
100
AcDbEntity
  8
0
100
AcDbLine
 62
6
  6
CONTINUOUS
 10
5.6266732742
 20
3.6100724692
 11
5.6419682911
 21
3.594733266
  0
LINE
  5
233
100
AcDbEntity
  8
0
100
AcDbLine
 62
9
  6
CONTINUOUS
 10
5.4116732742
 20
3.6327359088
 11
5.4116732742
 21
4.8697359088
  0
LINE
  5
234
100
AcDbEntity
  8
0
100
AcDbLine
 62
9
  6
CONTINUOUS
 10
5.6266732742
 20
3.6100724692
 11
5.6266732742
 21
4.8923993485
  0
LINE
  5
235
100
AcDbEntity
  8
0
100
AcDbLine
 62
7
  6
CONTINUOUS
 10
3.5600315405
 20
4.1662359088
 11
3.5472065411
 21
4.1662359088
  0
LINE
  5
236
100
AcDbEntity
  8
0
100
AcDbLine
 62
7
  6
CONTINUOUS
 10
3.5437396714
 20
4.1662359088
 11
3.5355369579
 21
4.1662359088
  0
LINE
  5
237
100
AcDbEntity
  8
0
100
AcDbLine
 62
7
  6
CONTINUOUS
 10
3.53749315
 20
4.1890065536
 11
3.5391935707
 21
4.1890065536
  0
LINE
  5
238
100
AcDbEntity
  8
0
100
AcDbLine
 62
7
  6
CONTINUOUS
 10
3.5392762105
 20
4.1890065536
 11
3.5401974707
 21
4.1890065536
  0
LINE
  5
239
100
AcDbEntity
  8
0
100
AcDbLine
 62
7
  6
CONTINUOUS
 10
3.5534328913
 20
4.1902359088
 11
3.5581046848
 21
4.1902359088
  0
LINE
  5
23A
100
AcDbEntity
  8
0
100
AcDbLine
 62
6
  6
CONTINUOUS
 10
5.9931732742
 20
4.2512359088
 11
5.7432306573
 21
4.2512359088
  0
LINE
  5
23B
100
AcDbEntity
  8
0
100
AcDbLine
 62
7
  6
CONTINUOUS
 10
3.5583127949
 20
4.3172359088
 11
3.5536403661
 21
4.3172359088
  0
LINE
  5
23C
100
AcDbEntity
  8
0
100
AcDbLine
 62
7
  6
CONTINUOUS
 10
3.5472864074
 20
4.3173359088
 11
3.5469672254
 21
4.3173359088
  0
LINE
  5
23D
100
AcDbEntity
  8
0
100
AcDbLine
 62
7
  6
CONTINUOUS
 10
3.5354823831
 20
4.3352359088
 11
3.5380100202
 21
4.3352359088
  0
LINE
  5
23E
100
AcDbEntity
  8
0
100
AcDbLine
 62
7
  6
CONTINUOUS
 10
3.5471515519
 20
4.3352359088
 11
3.5599760884
 21
4.3352359088
  0
LINE
  5
23F
100
AcDbEntity
  8
0
100
AcDbLine
 62
6
  6
CONTINUOUS
 10
5.9931732742
 20
3.5947359088
 11
5.9931732742
 21
4.9077359088
  0
LINE
  5
240
100
AcDbEntity
  8
0
100
AcDbLine
 62
6
  6
CONTINUOUS
 10
4.3691732742
 20
4.5947359088
 11
4.7281732742
 21
4.5947359088
  0
LINE
  5
241
100
AcDbEntity
  8
0
100
AcDbLine
 62
6
  6
CONTINUOUS
 10
6.5128511592
 20
4.9630773809
 11
6.527357148
 21
4.9951929487
  0
LINE
  5
242
100
AcDbEntity
  8
0
100
AcDbLine
 62
6
  6
CONTINUOUS
 10
6.527357148
 20
3.5072788689
 11
6.5128511592
 21
3.5393944368
  0
LINE
  5
243
100
AcDbEntity
  8
0
100
AcDbLine
 62
6
  6
CONTINUOUS
 10
6.3149803608
 20
5.5504485073
 11
6.3149803608
 21
5.2748579561
  0
LINE
  5
244
100
AcDbEntity
  8
0
100
AcDbLine
 62
6
  6
CONTINUOUS
 10
6.3149803608
 20
2.9520233104
 11
6.3149803608
 21
3.2276138616
  0
LINE
  5
245
100
AcDbEntity
  8
0
100
AcDbLine
 62
6
  6
CONTINUOUS
 10
6.4002472593
 20
4.8842127793
 11
5.9931732742
 21
4.8575351214
  0
LINE
  5
246
100
AcDbEntity
  8
0
100
AcDbLine
 62
6
  6
CONTINUOUS
 10
3.6468891771
 20
4.7787359088
 11
3.7181732742
 21
4.7787359088
  0
LINE
  5
247
100
AcDbEntity
  8
0
100
AcDbLine
 62
6
  6
CONTINUOUS
 10
5.6419656561
 20
4.9077359088
 11
5.9931732742
 21
4.9077359088
  0
LINE
  5
248
100
AcDbEntity
  8
0
100
AcDbLine
 62
6
  6
CONTINUOUS
 10
6.675166778
 20
5.5504485073
 11
6.675166778
 21
5.2748579558
  0
LINE
  5
249
100
AcDbEntity
  8
0
100
AcDbLine
 62
6
  6
CONTINUOUS
 10
6.675166778
 20
2.9520233104
 11
6.675166778
 21
3.2276138616
  0
LINE
  5
24A
100
AcDbEntity
  8
0
100
AcDbLine
 62
6
  6
CONTINUOUS
 10
6.3507461336
 20
5.2748579561
 11
6.3149803608
 21
5.2748579561
  0
LINE
  5
24B
100
AcDbEntity
  8
0
100
AcDbLine
 62
6
  6
CONTINUOUS
 10
6.4950735694
 20
5.6291886647
 11
7.5778871522
 21
5.6291886647
  0
LINE
  5
24C
100
AcDbEntity
  8
0
100
AcDbLine
 62
6
  6
CONTINUOUS
 10
7.3977939436
 20
5.5504485073
 11
7.3977939436
 21
5.2748579558
  0
LINE
  5
24D
100
AcDbEntity
  8
0
100
AcDbLine
 62
6
  6
CONTINUOUS
 10
7.3977939436
 20
2.9520233104
 11
7.3977939436
 21
3.2276138626
  0
LINE
  5
24E
100
AcDbEntity
  8
0
100
AcDbLine
 62
6
  6
CONTINUOUS
 10
7.7579803608
 20
5.5504485073
 11
7.7579803608
 21
5.2748579563
  0
LINE
  5
24F
100
AcDbEntity
  8
0
100
AcDbLine
 62
6
  6
CONTINUOUS
 10
7.7579803608
 20
2.9520233104
 11
7.7579803608
 21
3.2276138612
  0
ARC
  5
250
100
AcDbEntity
  8
0
100
AcDbCircle
 62
6
  6
CONTINUOUS
 10
4.0341732742
 20
2.7710970199
 40
0.9451388889
100
AcDbArc
 50
77.4730187713
 51
80.8771536127
  0
ARC
  5
251
100
AcDbEntity
  8
0
100
AcDbCircle
 62
6
  6
CONTINUOUS
 10
4.0341732742
 20
2.7710970199
 40
0.9451388889
100
AcDbArc
 50
99.1225460975
 51
102.5269812287
  0
ARC
  5
252
100
AcDbEntity
  8
0
100
AcDbCircle
 62
6
  6
CONTINUOUS
 10
4.0341732742
 20
3.4157892469
 40
0.276
100
AcDbArc
 50
125.7906197366
 51
54.2093738727
  0
ARC
  5
253
100
AcDbEntity
  8
0
100
AcDbCircle
 62
9
  6
CONTINUOUS
 10
4.034157106
 20
3.4862562435
 40
0.2687890148
100
AcDbArc
 50
83.2958083718
 51
96.7068328015
  0
ARC
  5
254
100
AcDbEntity
  8
0
100
AcDbCircle
 62
9
  6
CONTINUOUS
 10
4.0347350609
 20
3.491514856
 40
0.263502676
100
AcDbArc
 50
82.7182397868
 51
83.2801255284
  0
ARC
  5
255
100
AcDbEntity
  8
0
100
AcDbCircle
 62
9
  6
CONTINUOUS
 10
4.0336111975
 20
3.4915171633
 40
0.2635003506
100
AcDbArc
 50
96.7225420057
 51
97.2802085799
  0
ARC
  5
256
100
AcDbEntity
  8
0
100
AcDbCircle
 62
9
  6
CONTINUOUS
 10
4.0357265875
 20
3.4982548968
 40
0.2566913524
100
AcDbArc
 50
76.069818169
 51
82.7470867419
  0
ARC
  5
257
100
AcDbEntity
  8
0
100
AcDbCircle
 62
9
  6
CONTINUOUS
 10
4.0326195006
 20
3.4982580582
 40
0.2566881618
100
AcDbArc
 50
97.2513065542
 51
103.9341249196
  0
ARC
  5
258
100
AcDbEntity
  8
0
100
AcDbCircle
 62
9
  6
CONTINUOUS
 10
4.0379963814
 20
3.5080702285
 40
0.2466183146
100
AcDbArc
 50
75.2520595049
 51
76.0326697812
  0
ARC
  5
259
100
AcDbEntity
  8
0
100
AcDbCircle
 62
9
  6
CONTINUOUS
 10
4.0303499105
 20
3.508071096
 40
0.2466174108
100
AcDbArc
 50
103.9713521248
 51
104.7426567144
  0
ARC
  5
25A
100
AcDbEntity
  8
0
100
AcDbCircle
 62
6
  6
CONTINUOUS
 10
4.2664655083
 20
3.5209566179
 40
1.36
100
AcDbArc
 50
108.7559867836
 51
112.3561036556
  0
ARC
  5
25B
100
AcDbEntity
  8
0
100
AcDbCircle
 62
6
  6
CONTINUOUS
 10
3.7960914587
 20
3.522937128
 40
1.36
100
AcDbArc
 50
67.4255442891
 51
70.9862257999
  0
ARC
  5
25C
100
AcDbEntity
  8
0
100
AcDbCircle
 62
7
  6
CONTINUOUS
 10
4.176128425
 20
4.2249975996
 40
0.6424989134
100
AcDbArc
 50
182.6120863083
 51
183.1117850843
  0
ARC
  5
25D
100
AcDbEntity
  8
0
100
AcDbCircle
 62
7
  6
CONTINUOUS
 10
4.0073137178
 20
4.2159059031
 40
0.4734395914
100
AcDbArc
 50
183.1221541156
 51
183.7110251837
  0
ARC
  5
25E
100
AcDbEntity
  8
0
100
AcDbCircle
 62
7
  6
CONTINUOUS
 10
3.8210383823
 20
4.2465467865
 40
0.2747139821
100
AcDbArc
 50
184.0309015842
 51
185.2528281994
  0
ARC
  5
25F
100
AcDbEntity
  8
0
100
AcDbCircle
 62
7
  6
CONTINUOUS
 10
3.7999457785
 20
4.1551558596
 40
0.2630115856
100
AcDbArc
 50
164.1529916801
 51
164.6104273632
  0
ARC
  5
260
100
AcDbEntity
  8
0
100
AcDbCircle
 62
7
  6
CONTINUOUS
 10
3.7885321079
 20
4.2320327886
 40
0.2435575315
100
AcDbArc
 50
187.0385601953
 51
188.5334981669
  0
ARC
  5
261
100
AcDbEntity
  8
0
100
AcDbCircle
 62
9
  6
CONTINUOUS
 10
4.0270827774
 20
3.5195973077
 40
0.2346393543
100
AcDbArc
 50
104.6873711581
 51
111.8587541752
  0
ARC
  5
262
100
AcDbEntity
  8
0
100
AcDbCircle
 62
9
  6
CONTINUOUS
 10
4.041266224
 20
3.5196040671
 40
0.2346321715
100
AcDbArc
 50
68.1420268971
 51
75.307242746
  0
ARC
  5
263
100
AcDbEntity
  8
0
100
AcDbCircle
 62
9
  6
CONTINUOUS
 10
4.0221015282
 20
3.5326997181
 40
0.2206244781
100
AcDbArc
 50
111.9250204381
 51
112.4715213833
  0
ARC
  5
264
100
AcDbEntity
  8
0
100
AcDbCircle
 62
9
  6
CONTINUOUS
 10
4.046247643
 20
3.5327062164
 40
0.2206174704
100
AcDbArc
 50
67.5223893333
 51
68.0758743244
  0
ARC
  5
265
100
AcDbEntity
  8
0
100
AcDbCircle
 62
7
  6
CONTINUOUS
 10
3.7518456258
 20
4.2266810856
 40
0.207480681
100
AcDbArc
 50
188.5329414999
 51
189.6758963047
  0
ARC
  5
266
100
AcDbEntity
  8
0
100
AcDbCircle
 62
9
  6
CONTINUOUS
 10
3.9366757302
 20
3.8913011412
 40
0.0985020441
100
AcDbArc
 50
170.7731646907
 51
179.9923278291
  0
ARC
  5
267
100
AcDbEntity
  8
0
100
AcDbCircle
 62
9
  6
CONTINUOUS
 10
4.1316925947
 20
3.891301918
 40
0.0984802675
100
AcDbArc
 50
0.0074956075
 51
8.8408876972
  0
ARC
  5
268
100
AcDbEntity
  8
0
100
AcDbCircle
 62
6
  6
CONTINUOUS
 10
3.6133736212
 20
3.8637359088
 40
0.03
100
AcDbArc
 50
194.7630312681
 51
260.0138853066
  0
ARC
  5
269
100
AcDbEntity
  8
0
100
AcDbCircle
 62
7
  6
CONTINUOUS
 10
3.531697333
 20
4.1932438739
 40
0.014680932
100
AcDbArc
 50
348.1769843274
 51
348.6827703043
  0
ARC
  5
26A
100
AcDbEntity
  8
0
100
AcDbCircle
 62
6
  6
CONTINUOUS
 10
4.7191699456
 20
3.1986970067
 40
0.625
100
AcDbArc
 50
55.0110095298
 51
85.1903004751
  0
ARC
  5
26B
100
AcDbEntity
  8
0
100
AcDbCircle
 62
6
  6
CONTINUOUS
 10
5.5052122987
 20
3.4889613752
 40
0.1715245336
100
AcDbArc
 50
44.9173576842
 51
123.0478355064
  0
ARC
  5
26C
100
AcDbEntity
  8
0
100
AcDbCircle
 62
7
  6
CONTINUOUS
 10
5.0374723167
 20
4.2214024373
 40
1.4947510032
100
AcDbArc
 50
180.6869411416
 51
182.1150862246
  0
ARC
  5
26D
100
AcDbEntity
  8
0
100
AcDbCircle
 62
7
  6
CONTINUOUS
 10
5.0373933044
 20
4.2214006173
 40
1.4946719747
100
AcDbArc
 50
180.0446471772
 51
180.6869076911
  0
ARC
  5
26E
100
AcDbEntity
  8
0
100
AcDbCircle
 62
7
  6
CONTINUOUS
 10
4.9875292853
 20
4.2509852527
 40
1.4533529212
100
AcDbArc
 50
179.9901183405
 51
181.2606544347
  0
ARC
  5
26F
100
AcDbEntity
  8
0
100
AcDbCircle
 62
7
  6
CONTINUOUS
 10
4.9688918518
 20
4.205505695
 40
1.4267687662
100
AcDbArc
 50
174.7831251553
 51
175.5093457061
  0
ARC
  5
270
100
AcDbEntity
  8
0
100
AcDbCircle
 62
7
  6
CONTINUOUS
 10
4.9687031337
 20
4.2055266682
 40
1.4255734073
100
AcDbArc
 50
175.5568254798
 51
175.8166809705
  0
ARC
  5
271
100
AcDbEntity
  8
0
100
AcDbCircle
 62
7
  6
CONTINUOUS
 10
4.6709388576
 20
4.1732140439
 40
1.1304324599
100
AcDbArc
 50
177.3533213279
 51
177.6134340346
  0
ARC
  5
272
100
AcDbEntity
  8
0
100
AcDbCircle
 62
7
  6
CONTINUOUS
 10
4.6705600732
 20
4.1732290145
 40
1.1300533806
100
AcDbArc
 50
177.6133926891
 51
178.4664023336
  0
ARC
  5
273
100
AcDbEntity
  8
0
100
AcDbCircle
 62
7
  6
CONTINUOUS
 10
4.6708293038
 20
4.1732290147
 40
1.1293178564
100
AcDbArc
 50
177.6139443797
 51
178.4654032741
  0
ARC
  5
274
100
AcDbEntity
  8
0
100
AcDbCircle
 62
7
  6
CONTINUOUS
 10
4.5537042714
 20
4.2125457383
 40
1.0185874253
100
AcDbArc
 50
180.8692467517
 51
181.1787132873
  0
ARC
  5
275
100
AcDbEntity
  8
0
100
AcDbCircle
 62
7
  6
CONTINUOUS
 10
4.5405052733
 20
4.2404963187
 40
1.0062044542
100
AcDbArc
 50
181.3062236603
 51
182.5477763189
  0
ARC
  5
276
100
AcDbEntity
  8
0
100
AcDbCircle
 62
6
  6
CONTINUOUS
 10
5.3004376774
 20
3.8037110299
 40
0.2039751211
100
AcDbArc
 50
235.0110095298
 51
303.0478355064
  0
ARC
  5
277
100
AcDbEntity
  8
0
100
AcDbCircle
 62
7
  6
CONTINUOUS
 10
4.5730246464
 20
4.2511603258
 40
0.0821757129
100
AcDbArc
 50
20.4338690658
 51
33.3183489951
  0
ARC
  5
278
100
AcDbEntity
  8
0
100
AcDbCircle
 62
6
  6
CONTINUOUS
 10
4.7741732742
 20
3.8523870203
 40
0.031
100
AcDbArc
 50
179.999995562
 51
265.1903000361
  0
ARC
  5
279
100
AcDbEntity
  8
0
100
AcDbCircle
 62
6
  6
CONTINUOUS
 10
3.7960914587
 20
4.9795346897
 40
1.36
100
AcDbArc
 50
289.0137742001
 51
292.5744557109
  0
ARC
  5
27A
100
AcDbEntity
  8
0
100
AcDbCircle
 62
7
  6
CONTINUOUS
 10
2.9250864971
 20
4.2547918586
 40
0.6416087515
100
AcDbArc
 50
357.1644784007
 51
2.6467119605
  0
ARC
  5
27B
100
AcDbEntity
  8
0
100
AcDbCircle
 62
7
  6
CONTINUOUS
 10
4.0141067298
 20
4.2860750071
 40
0.4802501112
100
AcDbArc
 50
176.2796278533
 51
177.1766390568
  0
ARC
  5
27C
100
AcDbEntity
  8
0
100
AcDbCircle
 62
7
  6
CONTINUOUS
 10
3.9667844487
 20
4.3056022079
 40
0.4325697043
100
AcDbArc
 50
190.7081747653
 51
191.3818568723
  0
ARC
  5
27D
100
AcDbEntity
  8
0
100
AcDbCircle
 62
7
  6
CONTINUOUS
 10
3.6816024678
 20
4.3330485841
 40
0.146811112
100
AcDbArc
 50
202.8612077223
 51
203.4609700793
  0
ARC
  5
27E
100
AcDbEntity
  8
0
100
AcDbCircle
 62
6
  6
CONTINUOUS
 10
3.9441165151
 20
4.8906961555
 40
0.1059432409
100
AcDbArc
 50
179.0828561769
 51
179.9999294719
  0
ARC
  5
27F
100
AcDbEntity
  8
0
100
AcDbCircle
 62
6
  6
CONTINUOUS
 10
4.1242307002
 20
4.8906961624
 40
0.105942574
100
AcDbArc
 50
0.0000667804
 51
0.8960298535
  0
ARC
  5
280
100
AcDbEntity
  8
0
100
AcDbCircle
 62
9
  6
CONTINUOUS
 10
4.1317335496
 20
4.6111713581
 40
0.0984397256
100
AcDbArc
 50
351.9279389205
 51
359.9919259979
  0
ARC
  5
281
100
AcDbEntity
  8
0
100
AcDbCircle
 62
9
  6
CONTINUOUS
 10
3.9366035996
 20
4.6111706947
 40
0.0984303264
100
AcDbArc
 50
180.0076886086
 51
188.0826951813
  0
ARC
  5
282
100
AcDbEntity
  8
0
100
AcDbCircle
 62
6
  6
CONTINUOUS
 10
3.6133736212
 20
4.6387359088
 40
0.03
100
AcDbArc
 50
99.9861146934
 51
165.2369687319
  0
ARC
  5
283
100
AcDbEntity
  8
0
100
AcDbCircle
 62
7
  6
CONTINUOUS
 10
3.5317233136
 20
4.3142380094
 40
0.0148556144
100
AcDbArc
 50
11.1541584235
 51
11.6423814828
  0
ARC
  5
284
100
AcDbEntity
  8
0
100
AcDbCircle
 62
6
  6
CONTINUOUS
 10
4.0341732742
 20
5.7313747977
 40
0.9451388889
100
AcDbArc
 50
279.1231077298
 51
282.5269812287
  0
ARC
  5
285
100
AcDbEntity
  8
0
100
AcDbCircle
 62
6
  6
CONTINUOUS
 10
4.0341732742
 20
5.7313747977
 40
0.9451388889
100
AcDbArc
 50
257.4730187713
 51
260.8777117496
  0
ARC
  5
286
100
AcDbEntity
  8
0
100
AcDbCircle
 62
6
  6
CONTINUOUS
 10
4.0341732742
 20
5.0866825727
 40
0.276
100
AcDbArc
 50
305.7906204957
 51
234.2093491955
  0
ARC
  5
287
100
AcDbEntity
  8
0
100
AcDbCircle
 62
9
  6
CONTINUOUS
 10
3.9871388353
 20
5.0217390534
 40
0.1958131449
100
AcDbArc
 50
229.6643111389
 51
234.259712514
  0
ARC
  5
288
100
AcDbEntity
  8
0
100
AcDbCircle
 62
7
  6
CONTINUOUS
 10
4.5698976104
 20
4.289625751
 40
1.0347835296
100
AcDbArc
 50
178.8236831051
 51
179.1339935715
  0
ARC
  5
289
100
AcDbEntity
  8
0
100
AcDbCircle
 62
7
  6
CONTINUOUS
 10
4.5731728808
 20
4.2512363799
 40
0.0820102559
100
AcDbArc
 50
244.5354619547
 51
20.4202343975
  0
ARC
  5
28A
100
AcDbEntity
  8
0
100
AcDbCircle
 62
6
  6
CONTINUOUS
 10
4.2664655083
 20
4.9815151997
 40
1.36
100
AcDbArc
 50
247.6438963444
 51
251.2440132164
  0
ARC
  5
28B
100
AcDbEntity
  8
0
100
AcDbCircle
 62
6
  6
CONTINUOUS
 10
4.7741732742
 20
4.6500847973
 40
0.031
100
AcDbArc
 50
94.8096999639
 51
180.000004438
  0
ARC
  5
28C
100
AcDbEntity
  8
0
100
AcDbCircle
 62
6
  6
CONTINUOUS
 10
5.0838432896
 20
4.2512359088
 40
1.5506700155
100
AcDbArc
 50
183.1423093317
 51
194.7630312681
  0
ARC
  5
28D
100
AcDbEntity
  8
0
100
AcDbCircle
 62
6
  6
CONTINUOUS
 10
5.0838432896
 20
4.2512359088
 40
1.5506700155
100
AcDbArc
 50
177.5605752481
 51
182.2545204889
  0
ARC
  5
28E
100
AcDbEntity
  8
0
100
AcDbCircle
 62
6
  6
CONTINUOUS
 10
5.0838432896
 20
4.2512359088
 40
1.5506700155
100
AcDbArc
 50
165.2369687319
 51
176.8946954693
  0
ARC
  5
28F
100
AcDbEntity
  8
0
100
AcDbCircle
 62
7
  6
CONTINUOUS
 10
5.0838432896
 20
4.2512359088
 40
1.550637771
100
AcDbArc
 50
182.2545204889
 51
183.1423093317
  0
ARC
  5
290
100
AcDbEntity
  8
0
100
AcDbCircle
 62
7
  6
CONTINUOUS
 10
5.0838432896
 20
4.2512359088
 40
1.550637771
100
AcDbArc
 50
176.8946954693
 51
177.5605752481
  0
ARC
  5
291
100
AcDbEntity
  8
0
100
AcDbCircle
 62
7
  6
CONTINUOUS
 10
5.0838432896
 20
4.2512359088
 40
1.5503500401
100
AcDbArc
 50
178.6239946244
 51
181.1911755502
  0
ARC
  5
292
100
AcDbEntity
  8
0
100
AcDbCircle
 62
7
  6
CONTINUOUS
 10
5.0838432896
 20
4.2512359088
 40
1.5496377502
100
AcDbArc
 50
176.8926895707
 51
177.5590000722
  0
ARC
  5
293
100
AcDbEntity
  8
0
100
AcDbCircle
 62
7
  6
CONTINUOUS
 10
5.0838432896
 20
4.2512359088
 40
1.5496377502
100
AcDbArc
 50
182.2559761406
 51
183.1443391817
  0
ARC
  5
294
100
AcDbEntity
  8
0
100
AcDbCircle
 62
7
  6
CONTINUOUS
 10
5.0838432896
 20
4.2512359088
 40
1.5493498336
100
AcDbArc
 50
178.6231061521
 51
181.1919446428
  0
ARC
  5
295
100
AcDbEntity
  8
0
100
AcDbCircle
 62
7
  6
CONTINUOUS
 10
5.0838432896
 20
4.2512359088
 40
1.5492001959
100
AcDbArc
 50
178.6229731319
 51
181.1920597897
  0
ARC
  5
296
100
AcDbEntity
  8
0
100
AcDbCircle
 62
7
  6
CONTINUOUS
 10
5.0838432896
 20
4.2512359088
 40
1.5481138514
100
AcDbArc
 50
176.889627857
 51
177.5565957966
  0
ARC
  5
297
100
AcDbEntity
  8
0
100
AcDbCircle
 62
7
  6
CONTINUOUS
 10
5.0838432896
 20
4.2512359088
 40
1.5389858664
100
AcDbArc
 50
182.2715987345
 51
183.1661244052
  0
ARC
  5
298
100
AcDbEntity
  8
0
100
AcDbCircle
 62
7
  6
CONTINUOUS
 10
5.0838432896
 20
4.2512359088
 40
1.5389858664
100
AcDbArc
 50
176.871161409
 51
177.5420946835
  0
ARC
  5
299
100
AcDbEntity
  8
0
100
AcDbCircle
 62
7
  6
CONTINUOUS
 10
5.0838432896
 20
4.2512359088
 40
1.5379782693
100
AcDbArc
 50
176.8691095275
 51
177.5404834123
  0
ARC
  5
29A
100
AcDbEntity
  8
0
100
AcDbCircle
 62
7
  6
CONTINUOUS
 10
5.0838432896
 20
4.2512359088
 40
1.5379782693
100
AcDbArc
 50
182.2730877396
 51
183.1682007883
  0
ARC
  5
29B
100
AcDbEntity
  8
0
100
AcDbCircle
 62
7
  6
CONTINUOUS
 10
5.0838432896
 20
4.2512359088
 40
1.5377182762
100
AcDbArc
 50
178.1413005927
 51
181.6723095547
  0
ARC
  5
29C
100
AcDbEntity
  8
0
100
AcDbCircle
 62
7
  6
CONTINUOUS
 10
5.0838432896
 20
4.2512359088
 40
1.536709848
100
AcDbArc
 50
178.1400804383
 51
181.6734072789
  0
ARC
  5
29D
100
AcDbEntity
  8
0
100
AcDbCircle
 62
7
  6
CONTINUOUS
 10
5.0838432896
 20
4.2512359088
 40
1.5325626806
100
AcDbArc
 50
177.7562904206
 51
182.0566497773
  0
ARC
  5
29E
100
AcDbEntity
  8
0
100
AcDbCircle
 62
7
  6
CONTINUOUS
 10
4.9687657368
 20
4.2516188965
 40
1.4345892447
100
AcDbArc
 50
178.5488618782
 51
180.0152960648
  0
ARC
  5
29F
100
AcDbEntity
  8
0
100
AcDbCircle
 62
6
  6
CONTINUOUS
 10
5.3004376774
 20
4.6987607878
 40
0.2039751211
100
AcDbArc
 50
56.9521644936
 51
124.9889904702
  0
ARC
  5
2A0
100
AcDbEntity
  8
0
100
AcDbCircle
 62
6
  6
CONTINUOUS
 10
4.7191699456
 20
5.3037748109
 40
0.625
100
AcDbArc
 50
274.8096995249
 51
304.9889904702
  0
ARC
  5
2A1
100
AcDbEntity
  8
0
100
AcDbCircle
 62
6
  6
CONTINUOUS
 10
5.5052122987
 20
5.0135104425
 40
0.1715245336
100
AcDbArc
 50
236.9521644936
 51
315.0826423158
  0
ARC
  5
2A2
100
AcDbEntity
  8
0
100
AcDbCircle
 62
7
  6
CONTINUOUS
 10
6.8247618406
 20
4.2433958926
 40
3.2910662038
100
AcDbArc
 50
179.3775716739
 51
179.5224702505
  0
ARC
  5
2A3
100
AcDbEntity
  8
0
100
AcDbCircle
 62
6
  6
CONTINUOUS
 10
7.9860359714
 20
3.5485400032
 40
0.3937040188
100
AcDbArc
 50
161.034261494
 51
234.6017120723
  0
ARC
  5
2A4
100
AcDbEntity
  8
0
100
AcDbCircle
 62
6
  6
CONTINUOUS
 10
6.4950735694
 20
3.1186063617
 40
0.2453232088
100
AcDbArc
 50
222.7682824634
 51
270.0
  0
ARC
  5
2A5
100
AcDbEntity
  8
0
100
AcDbCircle
 62
6
  6
CONTINUOUS
 10
7.5778871522
 20
3.1186063617
 40
0.2453232088
100
AcDbArc
 50
270.0
 51
317.2317175366
  0
ARC
  5
2A6
100
AcDbEntity
  8
0
100
AcDbCircle
 62
6
  6
CONTINUOUS
 10
6.3487743458
 20
3.4244642553
 40
0.1968503937
100
AcDbArc
 50
270.5739324355
 51
24.878677975
  0
ARC
  5
2A7
100
AcDbEntity
  8
0
100
AcDbCircle
 62
6
  6
CONTINUOUS
 10
6.391584369
 20
3.4860690442
 40
0.1324737481
100
AcDbArc
 50
23.7368282559
 51
86.2505609208
  0
ARC
  5
2A8
100
AcDbEntity
  8
0
100
AcDbCircle
 62
7
  6
CONTINUOUS
 10
6.9569890463
 20
4.2603342716
 40
3.4232992814
100
AcDbArc
 50
180.4746135632
 51
180.6194424153
  0
ARC
  5
2A9
100
AcDbEntity
  8
0
100
AcDbCircle
 62
6
  6
CONTINUOUS
 10
5.9413223106
 20
4.2512359088
 40
1.7683863967
100
AcDbArc
 50
341.0338967765
 51
18.966103226
  0
ARC
  5
2AA
100
AcDbEntity
  8
0
100
AcDbCircle
 62
6
  6
CONTINUOUS
 10
6.4950735694
 20
5.383865456
 40
0.2453232088
100
AcDbArc
 50
90.0
 51
137.2317175366
  0
ARC
  5
2AB
100
AcDbEntity
  8
0
100
AcDbCircle
 62
6
  6
CONTINUOUS
 10
6.3487743458
 20
5.0780075624
 40
0.1968503937
100
AcDbArc
 50
335.121322025
 51
89.4278630877
  0
ARC
  5
2AC
100
AcDbEntity
  8
0
100
AcDbCircle
 62
6
  6
CONTINUOUS
 10
6.3915843426
 20
5.0164028044
 40
0.1324737572
100
AcDbArc
 50
273.7494496062
 51
336.2631641031
  0
ARC
  5
2AD
100
AcDbEntity
  8
0
100
AcDbCircle
 62
6
  6
CONTINUOUS
 10
8.131638411
 20
4.2512359088
 40
1.7683863967
100
AcDbArc
 50
155.121322025
 51
156.2631069996
  0
ARC
  5
2AE
100
AcDbEntity
  8
0
100
AcDbCircle
 62
6
  6
CONTINUOUS
 10
7.9860319858
 20
4.953933095
 40
0.3937007874
100
AcDbArc
 50
125.3971019652
 51
198.9661032464
  0
ARC
  5
2AF
100
AcDbEntity
  8
0
100
AcDbCircle
 62
6
  6
CONTINUOUS
 10
7.5778871522
 20
5.383865456
 40
0.2453232088
100
AcDbArc
 50
42.7682824634
 51
90.0
  0
SPLINE
  5
2B0
100
AcDbEntity
  8
0
100
AcDbSpline
 62
6
  6
CONTINUOUS
 70
0
 71
3
 72
22
 73
18
 74
16
 42
0.0000001
 43
0.0000001
 44
0.0000000001
 12
0.0
 22
0.1513305133
 32
0.0
 13
-0.1328600215
 23
0.0724509416
 33
0.0
 40
0.0
 40
0.0
 40
0.0
 40
0.0
 40
0.0594025853
 40
0.1188719069
 40
0.178501711
 40
0.2383603516
 40
0.2985267484
 40
0.3590800556
 40
0.4200957289
 40
0.4816487476
 40
0.5438085195
 40
0.6066380464
 40
0.6701933654
 40
0.7345198026
 40
0.7996519782
 40
0.8656125386
 40
1.0
 40
1.0
 40
1.0
 40
1.0
 10
4.2301732742
 20
4.6111574862
 30
0.0
 10
4.2301732742
 20
4.6141539608
 30
0.0
 10
4.2299354569
 20
4.6201529854
 30
0.0
 10
4.2288680903
 20
4.629102667
 30
0.0
 10
4.2270990619
 20
4.637964334
 30
0.0
 10
4.2246409044
 20
4.6466962018
 30
0.0
 10
4.2215117898
 20
4.6552600053
 30
0.0
 10
4.2177326776
 20
4.6636211855
 30
0.0
 10
4.2133267844
 20
4.6717489315
 30
0.0
 10
4.2083194744
 20
4.6796163397
 30
0.0
 10
4.2027366258
 20
4.6871997583
 30
0.0
 10
4.1966047622
 20
4.69447857
 30
0.0
 10
4.1899506189
 20
4.7014347594
 30
0.0
 10
4.1828009455
 20
4.7080520508
 30
0.0
 10
4.1751821017
 20
4.7143162681
 30
0.0
 10
4.1643702927
 20
4.7222268844
 30
0.0
 10
4.1557304467
 20
4.7275177171
 30
0.0
 10
4.149778873
 20
4.7307632165
 30
0.0
 11
4.2301732742
 21
4.6111574862
 31
0.0
 11
4.2298174762
 21
4.620139866
 31
0.0
 11
4.2287530752
 21
4.6290762223
 31
0.0
 11
4.2269883189
 21
4.6379257851
 31
0.0
 11
4.224536284
 21
4.6466460396
 31
0.0
 11
4.2214145513
 21
4.655199169
 31
0.0
 11
4.2176438062
 21
4.6635509574
 31
0.0
 11
4.2132471798
 21
4.6716705517
 31
0.0
 11
4.2082495042
 21
4.6795311921
 31
0.0
 11
4.2026764802
 21
4.6871092425
 31
0.0
 11
4.196554369
 21
4.6943840129
 31
0.0
 11
4.1899095801
 21
4.7013374289
 31
0.0
 11
4.1827686263
 21
4.7079531901
 31
0.0
 11
4.1751581463
 21
4.7142166478
 31
0.0
 11
4.1671049204
 21
4.7201143415
 31
0.0
 11
4.149778873
 21
4.7307632165
 31
0.0
  0
SPLINE
  5
2B1
100
AcDbEntity
  8
0
100
AcDbSpline
 62
6
  6
CONTINUOUS
 70
0
 71
3
 72
22
 73
18
 74
16
 42
0.0000001
 43
0.0000001
 44
0.0000000001
 12
-0.1328526523
 22
-0.0724520524
 32
0.0
 13
0.0
 23
-0.1513245754
 33
0.0
 40
0.0
 40
0.0
 40
0.0
 40
0.0
 40
0.1343865735
 40
0.2003467222
 40
0.2654784419
 40
0.329804647
 40
0.3933597601
 40
0.4561891481
 40
0.5183489536
 40
0.5799019808
 40
0.6409177598
 40
0.7014712185
 40
0.7616378443
 40
0.8214967582
 40
0.881126904
 40
0.9405969299
 40
1.0
 40
1.0
 40
1.0
 40
1.0
 10
3.9185624614
 20
4.7307603677
 30
0.0
 10
3.9126112572
 20
4.72751484
 30
0.0
 10
3.9039719525
 20
4.7222240121
 30
0.0
 10
3.8931608529
 20
4.7143134672
 30
0.0
 10
3.885542501
 20
4.7080493484
 30
0.0
 10
3.878393311
 20
4.701432164
 30
0.0
 10
3.8717395987
 20
4.6944761266
 30
0.0
 10
3.865608133
 20
4.6871974881
 30
0.0
 10
3.8600256643
 20
4.6796142556
 30
0.0
 10
3.8550186705
 20
4.6717470717
 30
0.0
 10
3.8506130726
 20
4.6636195631
 30
0.0
 10
3.8468342116
 20
4.6552586384
 30
0.0
 10
3.8437052945
 20
4.6466951089
 30
0.0
 10
3.8412473008
 20
4.6379635211
 30
0.0
 10
3.8394783745
 20
4.629102128
 30
0.0
 10
3.838411081
 20
4.6201527164
 30
0.0
 10
3.8381732742
 20
4.6141538677
 30
0.0
 10
3.8381732742
 20
4.6111574862
 30
0.0
 11
3.9185624614
 21
4.7307603677
 31
0.0
 11
3.9012375078
 21
4.7201114935
 31
0.0
 11
3.8931848046
 21
4.7142138544
 31
0.0
 11
3.8855748314
 21
4.7079504981
 31
0.0
 11
3.8784343466
 21
4.7013348444
 31
0.0
 11
3.8717899924
 21
4.6943815781
 31
0.0
 11
3.8656682842
 21
4.6871069836
 31
0.0
 11
3.860095626
 21
4.6795291161
 31
0.0
 11
3.8550982759
 21
4.6716687003
 31
0.0
 11
3.8507019396
 21
4.6635493428
 31
0.0
 11
3.8469314439
 21
4.6551978111
 31
0.0
 11
3.843809911
 21
4.6466449522
 31
0.0
 11
3.8413580355
 21
4.6379249791
 31
0.0
 11
3.8395933882
 21
4.6290757029
 31
0.0
 11
3.8385290515
 21
4.6201395873
 31
0.0
 11
3.8381732742
 21
4.6111574862
 31
0.0
  0
LINE
  5
2B2
100
AcDbEntity
  8
0
100
AcDbLine
 62
7
  6
CONTINUOUS
 10
3.5339411754
 20
4.2254186651
 11
3.5340138913
 21
4.2189373633
  0
LINE
  5
2B3
100
AcDbEntity
  8
0
100
AcDbLine
 62
7
  6
CONTINUOUS
 10
3.5340138913
 20
4.2189373633
 11
3.5340228315
 21
4.2181831318
  0
LINE
  5
2B4
100
AcDbEntity
  8
0
100
AcDbLine
 62
7
  6
CONTINUOUS
 10
3.5340228315
 20
4.2181831318
 11
3.5342904046
 21
4.1962334379
  0
LINE
  5
2B5
100
AcDbEntity
  8
0
100
AcDbLine
 62
7
  6
CONTINUOUS
 10
3.546813768
 20
4.2010643149
 11
3.5476576628
 21
4.1953763108
  0
LINE
  5
2B6
100
AcDbEntity
  8
0
100
AcDbLine
 62
7
  6
CONTINUOUS
 10
3.535340438
 20
4.1936751034
 11
3.5353576507
 21
4.1907465701
  0
SPLINE
  5
2B7
100
AcDbEntity
  8
0
100
AcDbSpline
 62
7
  6
CONTINUOUS
 70
0
 71
3
 72
8
 73
4
 74
2
 42
0.0000001
 43
0.0000001
 44
0.0000000001
 12
0.0000004738
 22
-0.0000837383
 32
0.0
 13
0.0000004738
 23
-0.0000837383
 33
0.0
 40
0.0
 40
0.0
 40
0.0
 40
0.0
 40
1.0
 40
1.0
 40
1.0
 40
1.0
 10
3.5353576507
 20
4.1907465701
 30
0.0
 10
3.5353578086
 20
4.1907186573
 30
0.0
 10
3.5353579666
 20
4.1906907446
 30
0.0
 10
3.5353581245
 20
4.1906628318
 30
0.0
 11
3.5353576507
 21
4.1907465701
 31
0.0
 11
3.5353581245
 21
4.1906628318
 31
0.0
  0
LINE
  5
2B8
100
AcDbEntity
  8
0
100
AcDbLine
 62
7
  6
CONTINUOUS
 10
3.5353581245
 20
4.1906628318
 11
3.5353609665
 21
4.1901560486
  0
LINE
  5
2B9
100
AcDbEntity
  8
0
100
AcDbLine
 62
7
  6
CONTINUOUS
 10
3.5353609665
 20
4.1901560486
 11
3.5353659095
 21
4.1892537989
  0
LINE
  5
2BA
100
AcDbEntity
  8
0
100
AcDbLine
 62
7
  6
CONTINUOUS
 10
3.5353659095
 20
4.1892537989
 11
3.5354150038
 21
4.178117975
  0
LINE
  5
2BB
100
AcDbEntity
  8
0
100
AcDbLine
 62
7
  6
CONTINUOUS
 10
3.5338898308
 20
4.2791474358
 11
3.5339883641
 21
4.2875640498
  0
LINE
  5
2BC
100
AcDbEntity
  8
0
100
AcDbLine
 62
7
  6
CONTINUOUS
 10
3.5339883641
 20
4.2875640498
 11
3.5340005056
 21
4.2885301207
  0
LINE
  5
2BD
100
AcDbEntity
  8
0
100
AcDbLine
 62
7
  6
CONTINUOUS
 10
3.5340005056
 20
4.2885301207
 11
3.5340732145
 21
4.2941164684
  0
LINE
  5
2BE
100
AcDbEntity
  8
0
100
AcDbLine
 62
7
  6
CONTINUOUS
 10
3.5469672254
 20
4.3173359088
 11
3.5468101337
 21
4.3171026828
  0
LINE
  5
2BF
100
AcDbEntity
  8
0
100
AcDbLine
 62
7
  6
CONTINUOUS
 10
3.5468101337
 20
4.3171026828
 11
3.5466576528
 21
4.3164351715
  0
LINE
  5
2C0
100
AcDbEntity
  8
0
100
AcDbLine
 62
7
  6
CONTINUOUS
 10
3.5466576528
 20
4.3164351715
 11
3.5465370437
 21
4.3154664141
  0
LINE
  5
2C1
100
AcDbEntity
  8
0
100
AcDbLine
 62
7
  6
CONTINUOUS
 10
3.5353323841
 20
4.1915924001
 11
3.5353528674
 21
4.1907830431
  0
SPLINE
  5
2C2
100
AcDbEntity
  8
0
100
AcDbSpline
 62
6
  6
CONTINUOUS
 70
0
 71
3
 72
13
 73
9
 74
7
 42
0.0000001
 43
0.0000001
 44
0.0000000001
 12
0.0
 22
0.053816859
 32
0.0
 13
0.0204798777
 23
0.0497677498
 33
0.0
 40
0.0
 40
0.0
 40
0.0
 40
0.0
 40
0.2323573625
 40
0.353103764
 40
0.476826237
 40
0.6034682729
 40
0.7329559802
 40
1.0
 40
1.0
 40
1.0
 40
1.0
 10
3.8291732742
 20
3.8570238783
 30
0.0
 10
3.8291732742
 20
3.8611921261
 30
0.0
 10
3.8295620288
 20
3.8675322449
 30
0.0
 10
3.8307576466
 20
3.8760041134
 30
0.0
 10
3.8320220548
 20
3.8825434171
 30
0.0
 10
3.8336391524
 20
3.8891655599
 30
0.0
 10
3.8362818053
 20
3.8981734711
 30
0.0
 10
3.8387333983
 20
3.9048627481
 30
0.0
 10
3.8405564079
 20
3.9092928081
 30
0.0
 11
3.8291732742
 21
3.8570238783
 31
0.0
 11
3.8298999616
 21
3.8695074889
 31
0.0
 11
3.8308038372
 21
3.8759425109
 31
0.0
 11
3.8320640817
 21
3.8824805132
 31
0.0
 11
3.8336767574
 21
3.8891024463
 31
0.0
 11
3.8356348217
 21
3.8957903213
 31
0.0
 11
3.8405564079
 21
3.9092928081
 31
0.0
  0
SPLINE
  5
2C3
100
AcDbEntity
  8
0
100
AcDbSpline
 62
6
  6
CONTINUOUS
 70
0
 71
3
 72
47
 73
43
 74
41
 42
0.0000001
 43
0.0000001
 44
0.0000000001
 12
0.1908301346
 22
0.4637325746
 32
0.0
 13
0.1908348952
 23
-0.4637306155
 33
0.0
 40
0.0
 40
0.0
 40
0.0
 40
0.0
 40
0.028020814
 40
0.0568854137
 40
0.0864726125
 40
0.11667206
 40
0.1473807585
 40
0.1785041635
 40
0.2099640561
 40
0.2416920399
 40
0.2736274951
 40
0.3057274766
 40
0.3218289791
 40
0.3379557108
 40
0.3541045124
 40
0.3702742658
 40
0.3864619502
 40
0.4026624556
 40
0.4188724197
 40
0.4350906216
 40
0.4675397186
 40
0.4999994556
 40
0.5324591802
 40
0.5649082678
 40
0.5811264905
 40
0.5973365006
 40
0.6135370667
 40
0.6297248169
 40
0.645894631
 40
0.6620434801
 40
0.6781702502
 40
0.6942717869
 40
0.7263718319
 40
0.7583073076
 40
0.7900353149
 40
0.8214952676
 40
0.8526187439
 40
0.8833275106
 40
0.9135270389
 40
0.9431143191
 40
0.9719790377
 40
1.0
 40
1.0
 40
1.0
 40
1.0
 10
3.8405564079
 20
3.9092928081
 30
0.0
 10
3.8423388131
 20
3.9136241962
 30
0.0
 10
3.8462952541
 20
3.922281581
 30
0.0
 10
3.8532131266
 20
3.9349847331
 30
0.0
 10
3.8611534762
 20
3.9475087864
 30
0.0
 10
3.8700605202
 20
3.9597474181
 30
0.0
 10
3.8798808479
 20
3.9716015025
 30
0.0
 10
3.8905668592
 20
3.9829727967
 30
0.0
 10
3.9020762505
 20
3.9937613104
 30
0.0
 10
3.9143659353
 20
4.0038683114
 30
0.0
 10
3.927396077
 20
4.0131871745
 30
0.0
 10
3.9388253023
 20
4.0201978561
 30
0.0
 10
3.948291273
 20
4.0253029682
 30
0.0
 10
3.9555516418
 20
4.0288682182
 30
0.0
 10
3.9629566621
 20
4.0321507071
 30
0.0
 10
3.9704979089
 20
4.0351350415
 30
0.0
 10
3.97816443
 20
4.0378076767
 30
0.0
 10
3.9859433164
 20
4.0401566222
 30
0.0
 10
3.99382148
 20
4.0421692802
 30
0.0
 10
4.004439761
 20
4.0443872327
 30
0.0
 10
4.0178913415
 20
4.0462571541
 30
0.0
 10
4.0341720665
 20
4.047018449
 30
0.0
 10
4.0504528006
 20
4.046257385
 30
0.0
 10
4.0639044074
 20
4.044387648
 30
0.0
 10
4.0745227228
 20
4.042169813
 30
0.0
 10
4.0824009323
 20
4.0401572488
 30
0.0
 10
4.0901798764
 20
4.0378083945
 30
0.0
 10
4.0978464615
 20
4.0351358479
 30
0.0
 10
4.1053877728
 20
4.0321515973
 30
0.0
 10
4.112792853
 20
4.0288691827
 30
0.0
 10
4.1200532778
 20
4.0253040008
 30
0.0
 10
4.1295193197
 20
4.0201989729
 30
0.0
 10
4.1409486315
 20
4.0131883944
 30
0.0
 10
4.153978879
 20
4.003869648
 30
0.0
 10
4.166268666
 20
3.9937627434
 30
0.0
 10
4.1777781699
 20
3.9829743122
 30
0.0
 10
4.1884643052
 20
3.9716030884
 30
0.0
 10
4.1982847531
 20
3.9597490558
 30
0.0
 10
4.2071919266
 20
3.9475104708
 30
0.0
 10
4.215132414
 20
3.9349864492
 30
0.0
 10
4.2220504278
 20
3.9222833079
 30
0.0
 10
4.2260069732
 20
3.9136259219
 30
0.0
 10
4.2277894323
 20
3.9092945292
 30
0.0
 11
3.8405564079
 21
3.9092928081
 31
0.0
 11
3.8463808005
 21
3.9220802031
 31
0.0
 11
3.8532916944
 21
3.9347983245
 31
0.0
 11
3.8612283239
 21
3.9473339586
 31
0.0
 11
3.8701343872
 21
3.9595821792
 31
0.0
 11
3.8799561304
 21
3.9714426187
 31
0.0
 11
3.8906442858
 21
3.9828157488
 31
0.0
 11
3.9021557005
 21
3.9936031275
 31
0.0
 11
3.9144477386
 21
4.0037049015
 31
0.0
 11
3.9274780937
 21
4.0130146441
 31
0.0
 11
3.9412038619
 21
4.0214238088
 31
0.0
 11
3.9483111121
 21
4.0252554084
 31
0.0
 11
3.9555706856
 21
4.0288187238
 31
0.0
 11
3.9629745714
 21
4.0320990015
 31
0.0
 11
3.9705146301
 21
4.0350815399
 31
0.0
 11
3.9781800555
 21
4.0377527146
 31
0.0
 11
3.9859575211
 21
4.0400999191
 31
0.0
 11
3.9938336016
 21
4.0421105868
 31
0.0
 11
4.0017948704
 21
4.0437721538
 31
0.0
 11
4.0179122613
 21
4.0460098397
 31
0.0
 11
4.0341720703
 21
4.0467646948
 31
0.0
 11
4.0504318838
 21
4.0460100691
 31
0.0
 11
4.0665492996
 21
4.0437725976
 31
0.0
 11
4.0745105982
 21
4.0421111221
 31
0.0
 11
4.082386726
 21
4.0401005463
 31
0.0
 11
4.0901642508
 21
4.0377534324
 31
0.0
 11
4.0978297416
 21
4.0350823452
 31
0.0
 11
4.1053698655
 21
4.032099889
 31
0.0
 11
4.1127738106
 21
4.0288196863
 31
0.0
 11
4.1200334394
 21
4.0252564397
 31
0.0
 11
4.1271407434
 21
4.0214249039
 31
0.0
 11
4.1408666221
 21
4.0130158586
 31
0.0
 11
4.1538970751
 21
4.0037062354
 31
0.0
 11
4.1661892125
 21
3.9936045636
 31
0.0
 11
4.1777007435
 21
3.982817265
 31
0.0
 11
4.1883890226
 21
3.9714442022
 31
0.0
 11
4.198210887
 21
3.9595838186
 31
0.0
 11
4.2071170806
 21
3.9473356425
 31
0.0
 11
4.215053844
 21
3.934800045
 31
0.0
 11
4.2219648826
 21
3.9220819343
 31
0.0
 11
4.2277894323
 21
3.9092945292
 31
0.0
  0
SPLINE
  5
2C4
100
AcDbEntity
  8
0
100
AcDbSpline
 62
6
  6
CONTINUOUS
 70
0
 71
3
 72
13
 73
9
 74
7
 42
0.0000001
 43
0.0000001
 44
0.0000000001
 12
0.0204810967
 22
-0.0497692603
 32
0.0
 13
0.0
 23
-0.0538187197
 33
0.0
 40
0.0
 40
0.0
 40
0.0
 40
0.0
 40
0.2670450713
 40
0.39653306
 40
0.5231751184
 40
0.646897326
 40
0.767643316
 40
1.0
 40
1.0
 40
1.0
 40
1.0
 10
4.2277894323
 20
3.9092945292
 30
0.0
 10
4.2296125577
 20
3.9048643173
 30
0.0
 10
4.2320643
 20
3.8981748064
 30
0.0
 10
4.2347071174
 20
3.8891665799
 30
0.0
 10
4.236324323
 20
3.8825442202
 30
0.0
 10
4.2375888185
 20
3.8760047105
 30
0.0
 10
4.2387845049
 20
3.8675325771
 30
0.0
 10
4.2391732742
 20
3.8611922581
 30
0.0
 10
4.2391732742
 20
3.8570238783
 30
0.0
 11
4.2277894323
 21
3.9092945292
 31
0.0
 11
4.2327113266
 21
3.8957915656
 31
0.0
 11
4.2346695133
 21
3.8891034596
 31
0.0
 11
4.2362822953
 21
3.8824813086
 31
0.0
 11
4.2375426235
 21
3.8759431026
 31
0.0
 11
4.2384465517
 21
3.8695078834
 31
0.0
 11
4.2391732742
 21
3.8570238783
 31
0.0
  0
SPLINE
  5
2C5
100
AcDbEntity
  8
0
100
AcDbSpline
 62
7
  6
CONTINUOUS
 70
0
 71
3
 72
29
 73
25
 74
23
 42
0.0000001
 43
0.0000001
 44
0.0000000001
 12
-0.2231542535
 22
0.0
 32
0.0
 13
-0.0563446672
 23
-0.2159238276
 33
0.0
 40
0.0
 40
0.0
 40
0.0
 40
0.0
 40
0.070994419
 40
0.1417887676
 40
0.212036947
 40
0.281485989
 40
0.3499216662
 40
0.3836984798
 40
0.4171438005
 40
0.4502333709
 40
0.4829457
 40
0.5152631375
 40
0.5471697136
 40
0.5786512097
 40
0.6096960414
 40
0.6402968607
 40
0.6704488496
 40
0.7001495176
 40
0.7293993847
 40
0.7865566898
 40
0.8420204187
 40
0.8959344976
 40
0.9485067635
 40
1.0
 40
1.0
 40
1.0
 40
1.0
 10
4.0341732742
 20
3.7317349585
 30
0.0
 10
4.028892372
 20
3.7317349585
 30
0.0
 10
4.0183426333
 20
3.7314103532
 30
0.0
 10
4.0026275396
 20
3.729960575
 30
0.0
 10
3.9871458751
 20
3.7275521785
 30
0.0
 10
3.9720191665
 20
3.7242069575
 30
0.0
 10
3.9597473355
 20
3.7206416706
 30
0.0
 10
3.9502103554
 20
3.7173394896
 30
0.0
 10
3.9432455949
 20
3.71465777
 30
0.0
 10
3.9364518371
 20
3.7117649392
 30
0.0
 10
3.9298421044
 20
3.7086658865
 30
0.0
 10
3.9234284292
 20
3.7053672401
 30
0.0
 10
3.9172226821
 20
3.7018752946
 30
0.0
 10
3.9112366503
 20
3.6981963843
 30
0.0
 10
3.905482072
 20
3.694336674
 30
0.0
 10
3.899969295
 20
3.6903040257
 30
0.0
 10
3.8947084574
 20
3.6861062665
 30
0.0
 10
3.8897093896
 20
3.6817510266
 30
0.0
 10
3.8834557434
 20
3.6757908935
 30
0.0
 10
3.8763207254
 20
3.667992358
 30
0.0
 10
3.8688770135
 20
3.6580649141
 30
0.0
 10
3.8626768789
 20
3.6477092207
 30
0.0
 10
3.8577662951
 20
3.6370074547
 30
0.0
 10
3.8553609622
 20
3.6296276534
 30
0.0
 10
3.8543938391
 20
3.6259214478
 30
0.0
 11
4.0341732742
 21
3.7317349585
 31
0.0
 11
4.0183380463
 21
3.7312482251
 31
0.0
 11
4.0026071315
 21
3.7297932273
 31
0.0
 11
3.9871178992
 21
3.7273794536
 31
0.0
 11
3.9719871286
 21
3.7240263789
 31
0.0
 11
3.9573240038
 21
3.7197581271
 31
0.0
 11
3.9502018256
 21
3.7172908262
 31
0.0
 11
3.9432373421
 21
3.7146076774
 31
0.0
 11
3.9364441287
 21
3.711713396
 31
0.0
 11
3.9298352566
 21
3.7086131891
 31
0.0
 11
3.9234227383
 21
3.7053132971
 31
0.0
 11
3.9172184522
 21
3.7018200909
 31
0.0
 11
3.9112342769
 21
3.6981399415
 31
0.0
 11
3.9054818251
 21
3.6942794337
 31
0.0
 11
3.8999715169
 21
3.6902461115
 31
0.0
 11
3.8947134387
 21
3.6860477874
 31
0.0
 11
3.8897176765
 21
3.6816922741
 31
0.0
 11
3.8849941884
 21
3.6771874521
 31
0.0
 11
3.8763978471
 21
3.6677645925
 31
0.0
 11
3.868988121
 21
3.6578506997
 31
0.0
 11
3.8628220607
 21
3.6475197551
 31
0.0
 11
3.8579444282
 21
3.6368500753
 31
0.0
 11
3.8543938391
 21
3.6259214478
 31
0.0
  0
SPLINE
  5
2C6
100
AcDbEntity
  8
0
100
AcDbSpline
 62
7
  6
CONTINUOUS
 70
0
 71
3
 72
29
 73
25
 74
23
 42
0.0000001
 43
0.0000001
 44
0.0000000001
 12
0.2232119543
 22
0.0
 32
0.0
 13
0.0562294027
 23
-0.2160134968
 33
0.0
 40
0.0
 40
0.0
 40
0.0
 40
0.0
 40
0.0709985222
 40
0.1417967839
 40
0.2120484844
 40
0.2815005399
 40
0.3499385835
 40
0.3837162963
 40
0.4171623051
 40
0.4502523414
 40
0.4829649164
 40
0.5152823778
 40
0.5471887517
 40
0.5786698196
 40
0.6097140089
 40
0.6403139862
 40
0.6704649426
 40
0.7001644017
 40
0.7294129096
 40
0.7865671711
 40
0.8420276439
 40
0.8959386277
 40
0.9485083329
 40
1.0
 40
1.0
 40
1.0
 40
1.0
 10
4.0341732742
 20
3.7317349585
 30
0.0
 10
4.0394558471
 20
3.7317349585
 30
0.0
 10
4.0500089121
 20
3.7314101486
 30
0.0
 10
4.0657288884
 20
3.729959458
 30
0.0
 10
4.0812152119
 20
3.7275495501
 30
0.0
 10
4.0963462493
 20
3.7242022501
 30
0.0
 10
4.1086213746
 20
3.720634756
 30
0.0
 10
4.1181607281
 20
3.717330551
 30
0.0
 10
4.1251270957
 20
3.7146472064
 30
0.0
 10
4.1319223012
 20
3.7117526328
 30
0.0
 10
4.1385333139
 20
3.7086517321
 30
0.0
 10
4.1449480926
 20
3.70535114
 30
0.0
 10
4.1511547556
 20
3.7018571566
 30
0.0
 10
4.157141504
 20
3.6981761205
 30
0.0
 10
4.1628965926
 20
3.6943142073
 30
0.0
 10
4.1684096699
 20
3.6902792927
 30
0.0
 10
4.1736705877
 20
3.6860792089
 30
0.0
 10
4.1786695067
 20
3.681721593
 30
0.0
 10
4.1849226267
 20
3.6757582728
 30
0.0
 10
4.1920564402
 20
3.6679556804
 30
0.0
 10
4.1994977101
 20
3.6580232433
 30
0.0
 10
4.2056944131
 20
3.6476626041
 30
0.0
 10
4.2106005355
 20
3.6369560072
 30
0.0
 10
4.2130021601
 20
3.6295731906
 30
0.0
 10
4.2139672753
 20
3.6258655589
 30
0.0
 11
4.0341732742
 21
3.7317349585
 31
0.0
 11
4.0500135073
 21
3.7312479172
 31
0.0
 11
4.0657493166
 21
3.7297920006
 31
0.0
 11
4.0812432103
 21
3.7273767103
 31
0.0
 11
4.0963783112
 21
3.7240215459
 31
0.0
 11
4.1110453319
 21
3.7197506599
 31
0.0
 11
4.118169263
 21
3.7172818521
 31
0.0
 11
4.1251353523
 21
3.7145970762
 31
0.0
 11
4.1319300115
 21
3.7117010519
 31
0.0
 11
4.1385401616
 21
3.708598996
 31
0.0
 11
4.144953781
 21
3.7052971568
 31
0.0
 11
4.1511589797
 21
3.7018019113
 31
0.0
 11
4.157143868
 21
3.6981196364
 31
0.0
 11
4.1628968266
 21
3.6942569269
 31
0.0
 11
4.1684074307
 21
3.690221338
 31
0.0
 11
4.1736655844
 21
3.6860206898
 31
0.0
 11
4.1786611919
 21
3.6816628023
 31
0.0
 11
4.1833842896
 21
3.6771555655
 31
0.0
 11
4.1919791429
 21
3.6677278049
 31
0.0
 11
4.1993863921
 21
3.657808974
 31
0.0
 11
4.2055489863
 21
3.6474731438
 31
0.0
 11
4.2104221452
 21
3.6367987137
 31
0.0
 11
4.2139672753
 21
3.6258655589
 31
0.0
  0
SPLINE
  5
2C7
100
AcDbEntity
  8
0
100
AcDbSpline
 62
7
  6
CONTINUOUS
 70
0
 71
3
 72
55
 73
51
 74
49
 42
0.0000001
 43
0.0000001
 44
0.0000000001
 12
0.1093917262
 22
-0.4343765206
 32
0.0
 13
0.1091922061
 23
0.4344267183
 33
0.0
 40
0.0
 40
0.0
 40
0.0
 40
0.0
 40
0.012821149
 40
0.0257535213
 40
0.0388174145
 40
0.0520316703
 40
0.0654136951
 40
0.078978088
 40
0.0927365004
 40
0.106698871
 40
0.1208736758
 40
0.1352675346
 40
0.1498846162
 40
0.16472743
 40
0.1797971456
 40
0.1950933962
 40
0.2106133261
 40
0.2263525656
 40
0.2584605315
 40
0.2748202541
 40
0.2913694086
 40
0.3249884936
 40
0.3420400061
 40
0.3592335418
 40
0.4290955736
 40
0.5000192103
 40
0.570941816
 40
0.6408008339
 40
0.6579933345
 40
0.6750437061
 40
0.7086602193
 40
0.7252079616
 40
0.7415661946
 40
0.7736709829
 40
0.7894085618
 40
0.8049267934
 40
0.8202213168
 40
0.8352892928
 40
0.8501303714
 40
0.8647457316
 40
0.879137894
 40
0.8933110431
 40
0.9072718173
 40
0.9210287037
 40
0.9345916529
 40
0.947972332
 40
0.9611853678
 40
0.9742481801
 40
0.9871796213
 40
1.0
 40
1.0
 40
1.0
 40
1.0
 10
3.8541931186
 20
4.8773313367
 30
0.0
 10
3.8546606278
 20
4.8754749347
 30
0.0
 10
3.8557123611
 20
4.8717734244
 30
0.0
 10
3.8576232238
 20
4.8662982304
 30
0.0
 10
3.8598692398
 20
4.8608880532
 30
0.0
 10
3.8624460766
 20
4.8555529107
 30
0.0
 10
3.865349615
 20
4.8503028321
 30
0.0
 10
3.8685740416
 20
4.8451475642
 30
0.0
 10
3.8721124572
 20
4.8400965157
 30
0.0
 10
3.8759580936
 20
4.8351593427
 30
0.0
 10
3.8801042433
 20
4.8303458913
 30
0.0
 10
3.8845432601
 20
4.8256656039
 30
0.0
 10
3.8892658639
 20
4.8211266449
 30
0.0
 10
3.8942629932
 20
4.8167374886
 30
0.0
 10
3.8995255091
 20
4.812506636
 30
0.0
 10
3.905043858
 20
4.8084426617
 30
0.0
 10
3.9108070907
 20
4.8045524462
 30
0.0
 10
3.9188553844
 20
4.7995742535
 30
0.0
 10
3.9272995369
 20
4.7950118247
 30
0.0
 10
3.9360825185
 20
4.7908726586
 30
0.0
 10
3.9452160739
 20
4.7869626033
 30
0.0
 10
3.9546480866
 20
4.7835037849
 30
0.0
 10
3.9643271839
 20
4.7804997417
 30
0.0
 10
3.979319468
 20
4.7763864797
 30
0.0
 10
4.002574782
 20
4.7720227835
 30
0.0
 10
4.0342037129
 20
4.7700877761
 30
0.0
 10
4.0658317416
 20
4.7720301933
 30
0.0
 10
4.0890852614
 20
4.7763993925
 30
0.0
 10
4.1040757615
 20
4.7805162284
 30
0.0
 10
4.113753411
 20
4.7835225448
 30
0.0
 10
4.1231837925
 20
4.7869835938
 30
0.0
 10
4.1323155331
 20
4.7908958118
 30
0.0
 10
4.1410965407
 20
4.7950370375
 30
0.0
 10
4.1495385414
 20
4.7996014673
 30
0.0
 10
4.1575845077
 20
4.8045815675
 30
0.0
 10
4.1633459077
 20
4.8084731416
 30
0.0
 10
4.168862338
 20
4.8125384212
 30
0.0
 10
4.1741228551
 20
4.8167705207
 30
0.0
 10
4.1791179164
 20
4.8211608562
 30
0.0
 10
4.183838382
 20
4.8257009302
 30
0.0
 10
4.188275191
 20
4.8303822683
 30
0.0
 10
4.192419064
 20
4.8351967061
 30
0.0
 10
4.1962623732
 20
4.8401347879
 30
0.0
 10
4.1997984089
 20
4.8451866717
 30
0.0
 10
4.2030204043
 20
4.8503427008
 30
0.0
 10
4.2059214582
 20
4.8555934698
 30
0.0
 10
4.2084957768
 20
4.8609292241
 30
0.0
 10
4.2107392416
 20
4.8663399382
 30
0.0
 10
4.2126475217
 20
4.8718155938
 30
0.0
 10
4.213697496
 20
4.87551734
 30
0.0
 10
4.2141641245
 20
4.877373845
 30
0.0
 11
3.8541931186
 21
4.8773313367
 31
0.0
 11
3.8557613619
 21
4.8718065061
 31
0.0
 11
3.8576685646
 21
4.8663365466
 31
0.0
 11
3.8599105828
 21
4.8609312469
 31
0.0
 11
3.862483269
 21
4.8556003922
 31
0.0
 11
3.8653823973
 21
4.850353766
 31
0.0
 11
3.8686023887
 21
4.8452011248
 31
0.0
 11
3.8721365237
 21
4.840152202
 31
0.0
 11
3.875978047
 21
4.8352167306
 31
0.0
 11
3.8801201897
 21
4.8304044364
 31
0.0
 11
3.8845553154
 21
4.8257246007
 31
0.0
 11
3.8892744126
 21
4.8211858003
 31
0.0
 11
3.8942683485
 21
4.8167965495
 31
0.0
 11
3.8995279896
 21
4.8125653626
 31
0.0
 11
3.9050437637
 21
4.8085004809
 31
0.0
 11
3.9108047349
 21
4.8046092983
 31
0.0
 11
3.9167997034
 21
4.8008990444
 31
0.0
 11
3.9294466632
 21
4.7940500812
 31
0.0
 11
3.9360748303
 21
4.7909244866
 31
0.0
 11
3.9428890861
 21
4.7880058046
 31
0.0
 11
3.9570242773
 21
4.7828116684
 31
0.0
 11
3.9643186758
 21
4.7805464057
 31
0.0
 11
3.971745622
 21
4.7785077759
 31
0.0
 11
4.0024945605
 21
4.7726928338
 31
0.0
 11
4.0342037912
 21
4.7707372572
 31
0.0
 11
4.0659120967
 21
4.7727003201
 31
0.0
 11
4.0966582875
 21
4.7785225213
 31
0.0
 11
4.104084272
 21
4.7805629019
 31
0.0
 11
4.1113776006
 21
4.7828298858
 31
0.0
 11
4.1255103366
 21
4.788027362
 31
0.0
 11
4.1323232159
 21
4.7909476505
 31
0.0
 11
4.1389499077
 21
4.7940748084
 31
0.0
 11
4.1515936297
 21
4.8009267603
 31
0.0
 11
4.1575868482
 21
4.8046384277
 31
0.0
 11
4.1633459837
 21
4.8085309684
 31
0.0
 11
4.1688598362
 21
4.8125971527
 31
0.0
 11
4.1741174767
 21
4.8168295828
 31
0.0
 11
4.1791093419
 21
4.8212200115
 31
0.0
 11
4.1838262986
 21
4.8257599247
 31
0.0
 11
4.1882592136
 21
4.830440808
 31
0.0
 11
4.19239908
 21
4.8352540823
 31
0.0
 11
4.1962382743
 21
4.8401904598
 31
0.0
 11
4.1997700285
 21
4.845240214
 31
0.0
 11
4.2029875874
 21
4.8503936122
 31
0.0
 11
4.2058842333
 21
4.8556409208
 31
0.0
 11
4.2084544023
 21
4.860972383
 31
0.0
 11
4.2106938714
 21
4.8663782152
 31
0.0
 11
4.2125984934
 21
4.8718486322
 31
0.0
 11
4.2141641245
 21
4.877373845
 31
0.0
  0
SPLINE
  5
2C8
100
AcDbEntity
  8
0
100
AcDbSpline
 62
7
  6
CONTINUOUS
 70
0
 71
3
 72
13
 73
9
 74
7
 42
0.0000001
 43
0.0000001
 44
0.0000000001
 12
0.0009468447
 22
-0.0144971626
 32
0.0
 13
0.0023485512
 23
-0.0143369643
 33
0.0
 40
0.0
 40
0.0
 40
0.0
 40
0.0
 40
0.315451764
 40
0.5873350725
 40
0.7069081725
 40
0.815555259
 40
0.9132613286
 40
1.0
 40
1.0
 40
1.0
 40
1.0
 10
3.534866843
 20
4.1852628419
 30
0.0
 10
3.5349664043
 20
4.1837384567
 30
0.0
 10
3.5351681723
 20
4.1809012543
 30
0.0
 10
3.5354640753
 20
4.1774905156
 30
0.0
 10
3.5357129683
 20
4.1750814449
 30
0.0
 10
3.5358949979
 20
4.173513566
 30
0.0
 10
3.5360800939
 20
4.1721062775
 30
0.0
 10
3.5362131959
 20
4.1712229583
 30
0.0
 10
3.5362810993
 20
4.1708084353
 30
0.0
 11
3.534866843
 21
4.1852628419
 31
0.0
 11
3.5351958559
 21
4.1806917683
 31
0.0
 11
3.5355427664
 21
4.1767570975
 31
0.0
 11
3.535722216
 21
4.175029227
 31
0.0
 11
3.535905286
 21
4.173461449
 31
0.0
 11
3.5360916839
 21
4.1720542619
 31
0.0
 11
3.5362810993
 21
4.1708084353
 31
0.0
  0
LINE
  5
2C9
100
AcDbEntity
  8
0
100
AcDbLine
 62
7
  6
CONTINUOUS
 10
3.5344058121
 20
4.1902359088
 11
3.5338282847
 21
4.2190065536
  0
LINE
  5
2CA
100
AcDbEntity
  8
0
100
AcDbLine
 62
7
  6
CONTINUOUS
 10
3.5417122513
 20
4.2254138323
 11
3.5417473851
 21
4.2252278113
  0
LINE
  5
2CB
100
AcDbEntity
  8
0
100
AcDbLine
 62
7
  6
CONTINUOUS
 10
3.5391935707
 20
4.1890065536
 11
3.5396615618
 21
4.1896365657
  0
SPLINE
  5
2CC
100
AcDbEntity
  8
0
100
AcDbSpline
 62
7
  6
CONTINUOUS
 70
0
 71
3
 72
18
 73
14
 74
12
 42
0.0000001
 43
0.0000001
 44
0.0000000001
 12
0.0046823276
 22
0.0131098431
 32
0.0
 13
0.0003725642
 23
0.0139159395
 33
0.0
 40
0.0
 40
0.0
 40
0.0
 40
0.0
 40
0.0265059767
 40
0.0582280357
 40
0.095156927
 40
0.1372543801
 40
0.1844574344
 40
0.236655454
 40
0.3555207467
 40
0.4927483681
 40
0.6470105441
 40
0.8167831752
 40
1.0
 40
1.0
 40
1.0
 40
1.0
 10
3.5396615618
 20
4.1896365657
 30
0.0
 10
3.5397029317
 20
4.1897523954
 30
0.0
 10
3.5397821515
 20
4.1900110023
 30
0.0
 10
3.5398878194
 20
4.1904398551
 30
0.0
 10
3.539990423
 20
4.1909435348
 30
0.0
 10
3.5400895903
 20
4.1915208908
 30
0.0
 10
3.5401849583
 20
4.1921705789
 30
0.0
 10
3.5403122692
 20
4.1931754201
 30
0.0
 10
3.5404564098
 20
4.1945989198
 30
0.0
 10
3.5406041098
 20
4.1964974705
 30
0.0
 10
3.5407312638
 20
4.1986341915
 30
0.0
 10
3.5408361519
 20
4.2009857251
 30
0.0
 10
3.5408887207
 20
4.202622905
 30
0.0
 10
3.540911474
 20
4.2034727831
 30
0.0
 11
3.5396615618
 21
4.1896365657
 31
0.0
 11
3.5397720379
 21
4.1899886267
 31
0.0
 11
3.5398793403
 21
4.1904169924
 31
0.0
 11
3.539983204
 21
4.1909204753
 31
0.0
 11
3.5400833641
 21
4.1914978882
 31
0.0
 11
3.5401795586
 21
4.1921479193
 31
0.0
 11
3.54027154
 21
4.1928687189
 31
0.0
 11
3.5404418872
 21
4.1945146421
 31
0.0
 11
3.5405925345
 21
4.1964190284
 31
0.0
 11
3.540721929
 21
4.1985625989
 31
0.0
 11
3.5408286481
 21
4.2009235805
 31
0.0
 11
3.540911474
 21
4.2034727831
 31
0.0
  0
SPLINE
  5
2CD
100
AcDbEntity
  8
0
100
AcDbSpline
 62
7
  6
CONTINUOUS
 70
0
 71
3
 72
19
 73
15
 74
13
 42
0.0000001
 43
0.0000001
 44
0.0000000001
 12
0.0006104299
 22
-0.0293357859
 32
0.0
 13
0.0082952
 23
-0.0281451704
 33
0.0
 40
0.0
 40
0.0
 40
0.0
 40
0.0
 40
0.1712063594
 40
0.3376019862
 40
0.4945069752
 40
0.6375401373
 40
0.7627138917
 40
0.8175086883
 40
0.866589433
 40
0.9096373427
 40
0.9463565754
 40
0.9765255888
 40
0.9891070356
 40
1.0
 40
1.0
 40
1.0
 40
1.0
 10
3.5349783777
 20
4.2190065536
 30
0.0
 10
3.5350132142
 20
4.2173323959
 30
0.0
 10
3.5350991787
 20
4.2140314538
 30
0.0
 10
3.5352770592
 20
4.2091980024
 30
0.0
 10
3.5354979942
 20
4.2046421548
 30
0.0
 10
3.5357554746
 20
4.2004921065
 30
0.0
 10
3.5360033269
 20
4.1973424194
 30
0.0
 10
3.5362189736
 20
4.1951124965
 30
0.0
 10
3.5363777415
 20
4.1936842223
 30
0.0
 10
3.5365392936
 20
4.1924342959
 30
0.0
 10
3.5367024972
 20
4.1913714014
 30
0.0
 10
3.5368456612
 20
4.1906071391
 30
0.0
 10
3.5369633937
 20
4.1900957808
 30
0.0
 10
3.5370226681
 20
4.189873885
 30
0.0
 10
3.5370527878
 20
4.1897716902
 30
0.0
 11
3.5349783777
 21
4.2190065536
 31
0.0
 11
3.5351095271
 21
4.2139847055
 31
0.0
 11
3.535290241
 21
4.2091056479
 31
0.0
 11
3.5355153932
 21
4.2045072291
 31
0.0
 11
3.5357786231
 21
4.2003185936
 31
0.0
 11
3.536072493
 21
4.1966575035
 31
0.0
 11
3.5362283748
 21
4.1950572816
 31
0.0
 11
3.5363887895
 21
4.1936261098
 31
0.0
 11
3.5365525884
 21
4.1923736578
 31
0.0
 11
3.5367186103
 21
4.1913091052
 31
0.0
 11
3.5368857171
 21
4.1904397977
 31
0.0
 11
3.536969327
 21
4.1900802239
 31
0.0
 11
3.5370527878
 21
4.1897716902
 31
0.0
  0
LINE
  5
2CE
100
AcDbEntity
  8
0
100
AcDbLine
 62
7
  6
CONTINUOUS
 10
3.5370527878
 20
4.1897716902
 11
3.53749315
 21
4.1890065536
  0
LINE
  5
2CF
100
AcDbEntity
  8
0
100
AcDbLine
 62
7
  6
CONTINUOUS
 10
3.5460928044
 20
4.1903628728
 11
3.5463990451
 21
4.1923775898
  0
SPLINE
  5
2D0
100
AcDbEntity
  8
0
100
AcDbSpline
 62
7
  6
CONTINUOUS
 70
0
 71
3
 72
13
 73
9
 74
7
 42
0.0000001
 43
0.0000001
 44
0.0000000001
 12
0.0016250199
 22
0.0139035636
 32
0.0
 13
-0.0004085119
 23
0.0139922439
 33
0.0
 40
0.0
 40
0.0
 40
0.0
 40
0.0
 40
0.0963733209
 40
0.2037267587
 40
0.3208569591
 40
0.4463271691
 40
0.7161665105
 40
1.0
 40
1.0
 40
1.0
 40
1.0
 10
3.5463990451
 20
4.1923775898
 30
0.0
 10
3.5464512479
 20
4.192824234
 30
0.0
 10
3.5465454529
 20
4.1937703179
 30
0.0
 10
3.5466562433
 20
4.195263467
 30
0.0
 10
3.5467428615
 20
4.1968941849
 30
0.0
 10
3.5468267163
 20
4.1992838966
 30
0.0
 10
3.5468606356
 20
4.202453139
 30
0.0
 10
3.546818607
 20
4.2050366019
 30
0.0
 10
3.5467799573
 20
4.2063604243
 30
0.0
 11
3.5463990451
 21
4.1923775898
 31
0.0
 11
3.5465350364
 21
4.1937197716
 31
0.0
 11
3.5466478474
 21
4.1952182868
 31
0.0
 11
3.546736054
 21
4.1968555252
 31
0.0
 11
3.5467985642
 21
4.1986107703
 31
0.0
 11
3.5468433858
 21
4.202387771
 31
0.0
 11
3.5467799573
 21
4.2063604243
 31
0.0
  0
SPLINE
  5
2D1
100
AcDbEntity
  8
0
100
AcDbSpline
 62
7
  6
CONTINUOUS
 70
0
 71
3
 72
28
 73
24
 74
22
 42
0.0000001
 43
0.0000001
 44
0.0000000001
 12
0.0001198532
 22
-0.0851125224
 32
0.0
 13
-0.0571280065
 23
-0.063091574
 33
0.0
 40
0.0
 40
0.0
 40
0.0
 40
0.0
 40
0.0860803779
 40
0.1716506998
 40
0.2559590961
 40
0.338366662
 40
0.4182905906
 40
0.495163441
 40
0.5684340319
 40
0.6375833796
 40
0.7021611314
 40
0.7617465428
 40
0.8159934272
 40
0.8410193825
 40
0.8646022957
 40
0.8867203688
 40
0.9073554734
 40
0.926493579
 40
0.9441269689
 40
0.9602631116
 40
0.9749248125
 40
0.988150219
 40
1.0
 40
1.0
 40
1.0
 40
1.0
 10
3.5753017559
 20
4.2512359088
 30
0.0
 10
3.5753051949
 20
4.2487937361
 30
0.0
 10
3.575273476
 20
4.2439237211
 30
0.0
 10
3.5751116576
 20
4.2366634489
 30
0.0
 10
3.5748361535
 20
4.2295108443
 30
0.0
 10
3.5744498058
 20
4.222523789
 30
0.0
 10
3.5739559026
 20
4.215754976
 30
0.0
 10
3.5733586936
 20
4.2092547303
 30
0.0
 10
3.5726636674
 20
4.2030716685
 30
0.0
 10
3.5718760217
 20
4.1972514709
 30
0.0
 10
3.571003251
 20
4.1918362189
 30
0.0
 10
3.5700517375
 20
4.1868640176
 30
0.0
 10
3.5691785124
 20
4.1830213661
 30
0.0
 10
3.5684398133
 20
4.1801980702
 30
0.0
 10
3.5678857622
 20
4.1782692696
 30
0.0
 10
3.5673179603
 20
4.1764746885
 30
0.0
 10
3.5667374928
 20
4.1748171712
 30
0.0
 10
3.5661454965
 20
4.1732994822
 30
0.0
 10
3.5655429184
 20
4.171924164
 30
0.0
 10
3.564930851
 20
4.1706932832
 30
0.0
 10
3.564310322
 20
4.1696083434
 30
0.0
 10
3.563682325
 20
4.1686708602
 30
0.0
 10
3.5632353735
 20
4.1681155785
 30
0.0
 10
3.5630097221
 20
4.1678663714
 30
0.0
 11
3.5753017559
 21
4.2512359088
 31
0.0
 11
3.5752540676
 21
4.2439095387
 31
0.0
 11
3.5750910399
 21
4.2366282504
 31
0.0
 11
3.5748138511
 21
4.2294578987
 31
0.0
 11
3.5744250681
 21
4.2224547594
 31
0.0
 11
3.5739279691
 21
4.2156704127
 31
0.0
 11
3.5733267668
 21
4.2091552439
 31
0.0
 11
3.5726266427
 21
4.2029584179
 31
0.0
 11
3.571833249
 21
4.1971266587
 31
0.0
 11
3.5709532211
 21
4.1917011861
 31
0.0
 11
3.5699934695
 21
4.1867213586
 31
0.0
 11
3.5689615933
 21
4.182221049
 31
0.0
 11
3.5684210518
 21
4.1801607533
 31
0.0
 11
3.5678654545
 21
4.1782319775
 31
0.0
 11
3.5672958913
 21
4.1764376795
 31
0.0
 11
3.5667134586
 21
4.1747807582
 31
0.0
 11
3.5661192527
 21
4.1732641122
 31
0.0
 11
3.5655143691
 21
4.171890581
 31
0.0
 11
3.564899894
 21
4.1706623228
 31
0.0
 11
3.5642769077
 21
4.169581059
 31
0.0
 11
3.5636464904
 21
4.1686485038
 31
0.0
 11
3.5630097221
 21
4.1678663714
 31
0.0
  0
SPLINE
  5
2D2
100
AcDbEntity
  8
0
100
AcDbSpline
 62
7
  6
CONTINUOUS
 70
0
 71
3
 72
12
 73
8
 74
6
 42
0.0000001
 43
0.0000001
 44
0.0000000001
 12
-0.0018118676
 22
-0.0020010076
 32
0.0
 13
-0.0025944967
 23
-0.0007453069
 33
0.0
 40
0.0
 40
0.0
 40
0.0
 40
0.0
 40
0.2853175265
 40
0.4818951423
 40
0.6651894703
 40
0.8371127031
 40
1.0
 40
1.0
 40
1.0
 40
1.0
 10
3.5630097221
 20
4.1678663714
 30
0.0
 10
3.5628374029
 20
4.1676760639
 30
0.0
 10
3.5625316626
 20
4.1673671984
 30
0.0
 10
3.5620693844
 20
4.166985796
 30
0.0
 10
3.561656396
 20
4.1667084728
 30
0.0
 10
3.5612416687
 20
4.1664932729
 30
0.0
 10
3.5609577851
 20
4.1663892517
 30
0.0
 10
3.5608169149
 20
4.1663487847
 30
0.0
 11
3.5630097221
 21
4.1678663714
 31
0.0
 11
3.5624651405
 21
4.1673217352
 31
0.0
 11
3.562054712
 21
4.1669853809
 31
0.0
 11
3.5616429649
 21
4.1667110076
 31
0.0
 11
3.5612302491
 21
4.1664987604
 31
0.0
 11
3.5608169149
 21
4.1663487847
 31
0.0
  0
LINE
  5
2D3
100
AcDbEntity
  8
0
100
AcDbLine
 62
7
  6
CONTINUOUS
 10
3.5608169149
 20
4.1663487847
 11
3.5600315405
 21
4.1662359088
  0
SPLINE
  5
2D4
100
AcDbEntity
  8
0
100
AcDbSpline
 62
7
  6
CONTINUOUS
 70
0
 71
3
 72
22
 73
18
 74
16
 42
0.0000001
 43
0.0000001
 44
0.0000000001
 12
-0.0062419193
 22
0.0
 32
0.0
 13
-0.0002443718
 23
-0.0062371339
 33
0.0
 40
0.0
 40
0.0
 40
0.0
 40
0.0
 40
0.0075495252
 40
0.0158462602
 40
0.0253711331
 40
0.0364346015
 40
0.0638301235
 40
0.0988387853
 40
0.1415793765
 40
0.1918925095
 40
0.24951556
 40
0.3140222944
 40
0.3848469068
 40
0.4614013303
 40
0.6290296336
 40
0.8110376161
 40
1.0
 40
1.0
 40
1.0
 40
1.0
 10
3.5536403661
 20
4.3172359088
 30
0.0
 10
3.5536246582
 20
4.3172359088
 30
0.0
 10
3.5535915341
 20
4.3172304634
 30
0.0
 10
3.5535434471
 20
4.3172074864
 30
0.0
 10
3.5534956821
 20
4.3171704524
 30
0.0
 10
3.5534272683
 20
4.3170973316
 30
0.0
 10
3.5533442216
 20
4.3169678093
 30
0.0
 10
3.5532511017
 20
4.316769583
 30
0.0
 10
3.553158989
 20
4.3165192659
 30
0.0
 10
3.553068734
 20
4.3162189074
 30
0.0
 10
3.5529813707
 20
4.3158708075
 30
0.0
 10
3.5528977453
 20
4.3154780764
 30
0.0
 10
3.5528186264
 20
4.3150443202
 30
0.0
 10
3.5527173097
 20
4.3143967259
 30
0.0
 10
3.5526096615
 20
4.3135162689
 30
0.0
 10
3.5525131242
 20
4.3123996246
 30
0.0
 10
3.5524709552
 20
4.3116287701
 30
0.0
 10
3.5524555628
 20
4.3112359088
 30
0.0
 11
3.5536403661
 21
4.3172359088
 31
0.0
 11
3.5535937974
 21
4.3172286988
 31
0.0
 11
3.5535467085
 21
4.3172071445
 31
0.0
 11
3.5534992304
 21
4.3171713598
 31
0.0
 11
3.5534514941
 21
4.3171214583
 31
0.0
 11
3.5533557709
 21
4.3169797605
 31
0.0
 11
3.5532605717
 21
4.3167830661
 31
0.0
 11
3.5531667971
 21
4.316533307
 31
0.0
 11
3.5530752791
 21
4.3162328869
 31
0.0
 11
3.552986849
 21
4.3158842486
 31
0.0
 11
3.552902328
 21
4.3154905738
 31
0.0
 11
3.552822528
 21
4.3150557542
 31
0.0
 11
3.5527482593
 21
4.3145837145
 31
0.0
 11
3.552619188
 21
4.3135453836
 31
0.0
 11
3.5525202255
 21
4.312413623
 31
0.0
 11
3.5524555628
 21
4.3112359088
 31
0.0
  0
SPLINE
  5
2D5
100
AcDbEntity
  8
0
100
AcDbSpline
 62
7
  6
CONTINUOUS
 70
0
 71
3
 72
26
 73
22
 74
20
 42
0.0000001
 43
0.0000001
 44
0.0000000001
 12
-0.0016468476
 22
0.0346789615
 32
0.0
 13
-0.0347180426
 23
-0.0
 33
0.0
 40
0.0
 40
0.0
 40
0.0
 40
0.0
 40
0.2003648919
 40
0.3852891697
 40
0.4705348464
 40
0.5503519584
 40
0.6243353841
 40
0.6921185961
 40
0.7533767196
 40
0.8078945609
 40
0.8555222268
 40
0.8767411242
 40
0.8962450418
 40
0.9140620245
 40
0.9302367358
 40
0.9448378131
 40
0.9579717047
 40
0.9697963479
 40
0.9805317914
 40
0.9904746248
 40
1.0
 40
1.0
 40
1.0
 40
1.0
 10
3.5660084915
 20
4.2844195823
 30
0.0
 10
3.5658985013
 20
4.2867357311
 30
0.0
 10
3.565620386
 20
4.2911867254
 30
0.0
 10
3.5650932981
 20
4.2966079703
 30
0.0
 10
3.5645717055
 20
4.3006248512
 30
0.0
 10
3.5641503193
 20
4.3033592768
 30
0.0
 10
3.5636910893
 20
4.3058825089
 30
0.0
 10
3.5631972849
 20
4.3081800403
 30
0.0
 10
3.5626717696
 20
4.3102389605
 30
0.0
 10
3.5621184619
 20
4.3120480126
 30
0.0
 10
3.5616199308
 20
4.3133872353
 30
0.0
 10
3.5612039964
 20
4.3143216049
 30
0.0
 10
3.5608991929
 20
4.3149269643
 30
0.0
 10
3.5605898429
 20
4.3154636721
 30
0.0
 10
3.5602762735
 20
4.3159311105
 30
0.0
 10
3.5599586835
 20
4.3163287049
 30
0.0
 10
3.5596371534
 20
4.3166559787
 30
0.0
 10
3.5593117798
 20
4.3169126228
 30
0.0
 10
3.5589823198
 20
4.3170979372
 30
0.0
 10
3.5586490407
 20
4.3172104933
 30
0.0
 10
3.5584230291
 20
4.3172359088
 30
0.0
 10
3.5583127949
 20
4.3172359088
 30
0.0
 11
3.5660084915
 21
4.2844195823
 31
0.0
 11
3.5655677331
 21
4.2913618816
 31
0.0
 11
3.5649347896
 21
4.2977508147
 31
0.0
 11
3.5645516202
 21
4.3006854687
 31
0.0
 11
3.564127207
 21
4.3034238688
 31
0.0
 11
3.5636643498
 21
4.3059503806
 31
0.0
 11
3.5631660797
 21
4.3082503263
 31
0.0
 11
3.562635514
 21
4.3103098449
 31
0.0
 11
3.5620760723
 21
4.3121180313
 31
0.0
 11
3.5614912445
 21
4.3136646951
 31
0.0
 11
3.5611904057
 21
4.3143371468
 31
0.0
 11
3.5608845389
 21
4.314941267
 31
0.0
 11
3.5605740863
 21
4.3154762894
 31
0.0
 11
3.5602594899
 21
4.3159414478
 31
0.0
 11
3.5599411925
 21
4.3163359798
 31
0.0
 11
3.5596196843
 21
4.3166593263
 31
0.0
 11
3.5592955251
 21
4.316911228
 31
0.0
 11
3.5589692803
 21
4.3170914493
 31
0.0
 11
3.5586415151
 21
4.3171997547
 31
0.0
 11
3.5583127949
 21
4.3172359088
 31
0.0
  0
SPLINE
  5
2D6
100
AcDbEntity
  8
0
100
AcDbSpline
 62
7
  6
CONTINUOUS
 70
0
 71
3
 72
26
 73
22
 74
20
 42
0.0000001
 43
0.0000001
 44
0.0000000001
 12
0.0347390159
 22
0.0
 32
0.0
 13
0.0017617483
 23
0.0346943147
 33
0.0
 40
0.0
 40
0.0
 40
0.0
 40
0.0
 40
0.0095235153
 40
0.019470589
 40
0.0302152018
 40
0.0420525436
 40
0.0552013853
 40
0.0698186156
 40
0.0860098418
 40
0.1038431091
 40
0.1233626362
 40
0.1445961205
 40
0.192248814
 40
0.2467848257
 40
0.3080534435
 40
0.3758389216
 40
0.4498164365
 40
0.5296198151
 40
0.614844551
 40
0.7997103024
 40
1.0
 40
1.0
 40
1.0
 40
1.0
 10
3.5581046848
 20
4.1902359088
 30
0.0
 10
3.558214964
 20
4.1902359088
 30
0.0
 10
3.5584411363
 20
4.1902613584
 30
0.0
 10
3.558774757
 20
4.19037396
 30
0.0
 10
3.5591047893
 20
4.1905593215
 30
0.0
 10
3.559430972
 20
4.1908160203
 30
0.0
 10
3.5597535463
 20
4.1911433594
 30
0.0
 10
3.5600724119
 20
4.1915410279
 30
0.0
 10
3.5603874861
 20
4.1920085438
 30
0.0
 10
3.5606985658
 20
4.1925453293
 30
0.0
 10
3.5610053213
 20
4.1931507629
 30
0.0
 10
3.5614242455
 20
4.1940851722
 30
0.0
 10
3.5619270815
 20
4.195424415
 30
0.0
 10
3.5624862418
 20
4.1972335109
 30
0.0
 10
3.5630184265
 20
4.1992924106
 30
0.0
 10
3.5635196895
 20
4.201589859
 30
0.0
 10
3.5639871284
 20
4.2041129534
 30
0.0
 10
3.5644174314
 20
4.2068472053
 30
0.0
 10
3.5649521449
 20
4.2108637397
 30
0.0
 10
3.5654970184
 20
4.2162847299
 30
0.0
 10
3.5657897977
 20
4.2207359308
 30
0.0
 10
3.5659074177
 20
4.2230522354
 30
0.0
 11
3.5581046848
 21
4.1902359088
 31
0.0
 11
3.5584335396
 21
4.1902720756
 31
0.0
 11
3.5587616679
 21
4.1903804161
 31
0.0
 11
3.5590885041
 21
4.1905606912
 31
0.0
 11
3.5594134824
 21
4.1908126614
 31
0.0
 11
3.5597360373
 21
4.1911360873
 31
0.0
 11
3.5600556087
 21
4.1915307049
 31
0.0
 11
3.5603717057
 21
4.191995949
 31
0.0
 11
3.5606838833
 21
4.1925310546
 31
0.0
 11
3.5609916977
 21
4.1931352526
 31
0.0
 11
3.5612947045
 21
4.1938077742
 31
0.0
 11
3.5618845213
 21
4.1953545421
 31
0.0
 11
3.5624498026
 21
4.1971627708
 31
0.0
 11
3.5629870317
 21
4.1992222659
 31
0.0
 11
3.5634927598
 21
4.2015221194
 31
0.0
 11
3.5639638299
 21
4.2040484824
 31
0.0
 11
3.5643971675
 21
4.2067866963
 31
0.0
 11
3.5647899259
 21
4.2097211523
 31
0.0
 11
3.5654438181
 21
4.2161098303
 31
0.0
 11
3.5659074177
 21
4.2230522354
 31
0.0
  0
SPLINE
  5
2D7
100
AcDbEntity
  8
0
100
AcDbSpline
 62
7
  6
CONTINUOUS
 70
0
 71
3
 72
22
 73
18
 74
16
 42
0.0000001
 43
0.0000001
 44
0.0000000001
 12
0.0002238846
 22
-0.0062344757
 32
0.0
 13
0.0062384943
 23
-0.0
 33
0.0
 40
0.0
 40
0.0
 40
0.0
 40
0.0
 40
0.1890264563
 40
0.3710922803
 40
0.5387552496
 40
0.615318317
 40
0.6861453312
 40
0.7506473052
 40
0.8082576847
 40
0.8585507409
 40
0.9012649583
 40
0.9362424048
 40
0.9636046071
 40
0.9746526562
 40
0.9841645905
 40
0.9924527261
 40
1.0
 40
1.0
 40
1.0
 40
1.0
 10
3.5522678361
 20
4.1962359088
 30
0.0
 10
3.5522819428
 20
4.1958430819
 30
0.0
 10
3.5523215889
 20
4.1950722637
 30
0.0
 10
3.5524144636
 20
4.1939555991
 30
0.0
 10
3.5525192317
 20
4.1930750725
 30
0.0
 10
3.5526184324
 20
4.1924274183
 30
0.0
 10
3.5526961313
 20
4.1919936378
 30
0.0
 10
3.5527784695
 20
4.1916008918
 30
0.0
 10
3.5528646906
 20
4.1912527901
 30
0.0
 10
3.5529539567
 20
4.1909524435
 30
0.0
 10
3.5530452397
 20
4.1907021492
 30
0.0
 10
3.5531376931
 20
4.1905039516
 30
0.0
 10
3.5532203051
 20
4.1903744426
 30
0.0
 10
3.5532884691
 20
4.190301337
 30
0.0
 10
3.5533361051
 20
4.1902643131
 30
0.0
 10
3.553384112
 20
4.1902413452
 30
0.0
 10
3.5534171968
 20
4.1902359088
 30
0.0
 10
3.5534328913
 20
4.1902359088
 30
0.0
 11
3.5522678361
 21
4.1962359088
 31
0.0
 11
3.5523286443
 21
4.1950582372
 31
0.0
 11
3.5524239014
 21
4.1939264221
 31
0.0
 11
3.5525495749
 21
4.1928880349
 31
0.0
 11
3.5526222995
 21
4.1924159656
 31
0.0
 11
3.5527006772
 21
4.1919811187
 31
0.0
 11
3.5527839097
 21
4.1915874256
 31
0.0
 11
3.5528711971
 21
4.1912387844
 31
0.0
 11
3.5529617273
 21
4.190938376
 31
0.0
 11
3.5530546755
 21
4.1906886398
 31
0.0
 11
3.5531492156
 21
4.1904919769
 31
0.0
 11
3.553244453
 21
4.1903503154
 31
0.0
 11
3.5532920128
 21
4.1903004309
 31
0.0
 11
3.5533393595
 21
4.1902646601
 31
0.0
 11
3.5533863625
 21
4.1902431154
 31
0.0
 11
3.5534328913
 21
4.1902359088
 31
0.0
  0
SPLINE
  5
2D8
100
AcDbEntity
  8
0
100
AcDbSpline
 62
7
  6
CONTINUOUS
 70
0
 71
3
 72
11
 73
7
 74
5
 42
0.0000001
 43
0.0000001
 44
0.0000000001
 12
-0.0016317672
 22
0.0195623603
 32
0.0
 13
-0.0006261605
 23
0.019620309
 33
0.0
 40
0.0
 40
0.0
 40
0.0
 40
0.0
 40
0.2075809572
 40
0.4468424134
 40
0.7133811912
 40
1.0
 40
1.0
 40
1.0
 40
1.0
 10
3.5351418733
 20
4.1991407478
 30
0.0
 10
3.5350289654
 20
4.2004943389
 30
0.0
 10
3.5348175507
 20
4.2034107549
 30
0.0
 10
3.5345502781
 20
4.2080711779
 30
0.0
 10
3.5343155566
 20
4.2132511053
 30
0.0
 10
3.5341861109
 20
4.2168683895
 30
0.0
 10
3.5341262878
 20
4.218742906
 30
0.0
 11
3.5351418733
 21
4.1991407478
 31
0.0
 11
3.5348420357
 21
4.2032045775
 31
0.0
 11
3.5345693763
 21
4.2078934303
 31
0.0
 11
3.5343294925
 21
4.213120164
 31
0.0
 11
3.5341262878
 21
4.218742906
 31
0.0
  0
LINE
  5
2D9
100
AcDbEntity
  8
0
100
AcDbLine
 62
7
  6
CONTINUOUS
 10
3.5341262878
 20
4.218742906
 11
3.5341178618
 21
4.2190084619
  0
SPLINE
  5
2DA
100
AcDbEntity
  8
0
100
AcDbSpline
 62
7
  6
CONTINUOUS
 70
0
 71
3
 72
10
 73
6
 74
4
 42
0.0000001
 43
0.0000001
 44
0.0000000001
 12
-0.0010162691
 22
0.0322158367
 32
0.0
 13
0.0
 23
0.0322318622
 33
0.0
 40
0.0
 40
0.0
 40
0.0
 40
0.0
 40
0.2429654745
 40
0.4929860271
 40
1.0
 40
1.0
 40
1.0
 40
1.0
 10
3.5341178618
 20
4.2190084619
 30
0.0
 10
3.5340355557
 20
4.2216175739
 30
0.0
 10
3.53389668
 20
4.2269124725
 30
0.0
 10
3.5337074277
 20
4.2376548392
 30
0.0
 10
3.5336562664
 20
4.245788574
 30
0.0
 10
3.5336562664
 20
4.2512359088
 30
0.0
 11
3.5341178618
 21
4.2190084619
 31
0.0
 11
3.5339097379
 21
4.2268369255
 31
0.0
 11
3.533766111
 21
4.2348942735
 31
0.0
 11
3.5336562664
 21
4.2512359088
 31
0.0
  0
SPLINE
  5
2DB
100
AcDbEntity
  8
0
100
AcDbSpline
 62
7
  6
CONTINUOUS
 70
0
 71
3
 72
11
 73
7
 74
5
 42
0.0000001
 43
0.0000001
 44
0.0000000001
 12
0.0
 22
0.037321488
 32
0.0
 13
0.0014666646
 23
0.0372926583
 33
0.0
 40
0.0
 40
0.0
 40
0.0
 40
0.0
 40
0.2566098039
 40
0.5117682759
 40
0.7619698977
 40
1.0
 40
1.0
 40
1.0
 40
1.0
 10
3.5336562664
 20
4.2512359088
 30
0.0
 10
3.5336562664
 20
4.2544282621
 30
0.0
 10
3.5336799826
 20
4.2607949427
 30
0.0
 10
3.5337925263
 20
4.2702736759
 30
0.0
 10
3.5339872106
 20
4.2795199009
 30
0.0
 10
3.5341810293
 20
4.2855908471
 30
0.0
 10
3.5342973994
 20
4.2885497722
 30
0.0
 11
3.5336562664
 21
4.2512359088
 31
0.0
 11
3.5336930917
 21
4.2608128977
 31
0.0
 11
3.5338079691
 21
4.2703350987
 31
0.0
 11
3.5340077199
 21
4.2796708588
 31
0.0
 11
3.5342973994
 21
4.2885497722
 31
0.0
  0
LINE
  5
2DC
100
AcDbEntity
  8
0
100
AcDbLine
 62
7
  6
CONTINUOUS
 10
3.5342973994
 20
4.2885497722
 11
3.5351518142
 21
4.3034496876
  0
LINE
  5
2DD
100
AcDbEntity
  8
0
100
AcDbLine
 62
7
  6
CONTINUOUS
 10
3.5599760884
 20
4.3352359088
 11
3.5607688307
 21
4.3351209425
  0
SPLINE
  5
2DE
100
AcDbEntity
  8
0
100
AcDbSpline
 62
7
  6
CONTINUOUS
 70
0
 71
3
 72
10
 73
6
 74
4
 42
0.0000001
 43
0.0000001
 44
0.0000000001
 12
0.002497234
 22
-0.0007238201
 32
0.0
 13
0.0017662336
 23
-0.0019080126
 33
0.0
 40
0.0
 40
0.0
 40
0.0
 40
0.0
 40
0.2201950654
 40
0.5834821984
 40
1.0
 40
1.0
 40
1.0
 40
1.0
 10
3.5607688307
 20
4.3351209425
 30
0.0
 10
3.5609521235
 20
4.3350678153
 30
0.0
 10
3.5614252933
 20
4.3348814905
 30
0.0
 10
3.562157066
 20
4.3344048445
 30
0.0
 10
3.5626490365
 20
4.33393696
 30
0.0
 10
3.562894259
 20
4.3336720529
 30
0.0
 11
3.5607688307
 21
4.3351209425
 31
0.0
 11
3.5613026754
 21
4.3349141121
 31
0.0
 11
3.5621010393
 21
4.3344093394
 31
0.0
 11
3.562894259
 21
4.3336720529
 31
0.0
  0
SPLINE
  5
2DF
100
AcDbEntity
  8
0
100
AcDbSpline
 62
7
  6
CONTINUOUS
 70
0
 71
3
 72
28
 73
24
 74
22
 42
0.0000001
 43
0.0000001
 44
0.0000000001
 12
0.057205519
 22
-0.0617975183
 32
0.0
 13
0.0001185829
 23
-0.0842103949
 33
0.0
 40
0.0
 40
0.0
 40
0.0
 40
0.0
 40
0.0117826538
 40
0.0249324938
 40
0.0395128569
 40
0.0555639462
 40
0.0731101589
 40
0.0921599756
 40
0.1127069298
 40
0.1347382278
 40
0.158236873
 40
0.1831819178
 40
0.2372795484
 40
0.2967394707
 40
0.36122199
 40
0.4303138183
 40
0.5035722648
 40
0.5804847575
 40
0.6605081261
 40
0.7430818676
 40
0.8276297324
 40
0.9135179715
 40
1.0
 40
1.0
 40
1.0
 40
1.0
 10
3.562894259
 20
4.3336720529
 30
0.0
 10
3.5631189367
 20
4.33342934
 30
0.0
 10
3.5635641559
 20
4.3328875038
 30
0.0
 10
3.5641899996
 20
4.3319705607
 30
0.0
 10
3.5648086474
 20
4.3309076451
 30
0.0
 10
3.5654191301
 20
4.3297002141
 30
0.0
 10
3.5660204387
 20
4.3283497151
 30
0.0
 10
3.5666115149
 20
4.3268581597
 30
0.0
 10
3.5671914186
 20
4.3252280116
 30
0.0
 10
3.5677590284
 20
4.3234619408
 30
0.0
 10
3.5683132713
 20
4.3215626983
 30
0.0
 10
3.5690529067
 20
4.318780763
 30
0.0
 10
3.5699283952
 20
4.3149917033
 30
0.0
 10
3.5708841051
 20
4.310085527
 30
0.0
 10
3.5717628959
 20
4.3047380624
 30
0.0
 10
3.5725583983
 20
4.2989864374
 30
0.0
 10
3.5732631413
 20
4.2928717001
 30
0.0
 10
3.5738719508
 20
4.2864384428
 30
0.0
 10
3.5743792596
 20
4.2797341653
 30
0.0
 10
3.5747808018
 20
4.2728080586
 30
0.0
 10
3.5750731699
 20
4.265711728
 30
0.0
 10
3.5752534247
 20
4.2585019583
 30
0.0
 10
3.5752983375
 20
4.2536634707
 30
0.0
 10
3.5753017559
 20
4.2512359088
 30
0.0
 11
3.562894259
 21
4.3336720529
 31
0.0
 11
3.5635285053
 21
4.3329090077
 31
0.0
 11
3.5641566873
 21
4.3319970752
 31
0.0
 11
3.5647777402
 21
4.3309379087
 31
0.0
 11
3.5653905992
 21
4.3297331617
 31
0.0
 11
3.5659941992
 21
4.3283844976
 31
0.0
 11
3.5665874682
 21
4.3268940376
 31
0.0
 11
3.5671693248
 21
4.3252645367
 31
0.0
 11
3.5677386868
 21
4.3234987963
 31
0.0
 11
3.5682944719
 21
4.3215996176
 31
0.0
 11
3.568835606
 21
4.3195698793
 31
0.0
 11
3.5698699355
 21
4.3151332658
 31
0.0
 11
3.5708338835
 21
4.3102197803
 31
0.0
 11
3.5717199227
 21
4.3048624524
 31
0.0
 11
3.5725211802
 21
4.299099633
 31
0.0
 11
3.573231048
 21
4.2929714817
 31
0.0
 11
3.5738438718
 21
4.2865237011
 31
0.0
 11
3.5743544258
 21
4.2798042634
 31
0.0
 11
3.5747584529
 21
4.2728624367
 31
0.0
 11
3.5750525814
 21
4.2657486986
 31
0.0
 11
3.5752341331
 21
4.2585182879
 31
0.0
 11
3.5753017559
 21
4.2512359088
 31
0.0
  0
SPLINE
  5
2E0
100
AcDbEntity
  8
0
100
AcDbSpline
 62
7
  6
CONTINUOUS
 70
0
 71
3
 72
13
 73
9
 74
7
 42
0.0000001
 43
0.0000001
 44
0.0000000001
 12
0.0004535402
 22
0.0139758052
 32
0.0
 13
-0.0015739305
 23
0.0138943
 33
0.0
 40
0.0
 40
0.0
 40
0.0
 40
0.0
 40
0.2837376294
 40
0.5535302909
 40
0.6790032763
 40
0.7961563582
 40
0.9035559019
 40
1.0
 40
1.0
 40
1.0
 40
1.0
 10
3.5469340754
 20
4.3011113933
 30
0.0
 10
3.5469769708
 20
4.3024332139
 30
0.0
 10
3.5470273904
 20
4.3050130838
 30
0.0
 10
3.5470039989
 20
4.308178362
 30
0.0
 10
3.5469282434
 20
4.3105656748
 30
0.0
 10
3.5468472181
 20
4.3121952574
 30
0.0
 10
3.5467416196
 20
4.3136878223
 30
0.0
 10
3.5466507685
 20
4.3146337541
 30
0.0
 10
3.5466001697
 20
4.3150804285
 30
0.0
 11
3.5469340754
 21
4.3011113933
 31
0.0
 11
3.5470104021
 21
4.3050782084
 31
0.0
 11
3.5469781465
 21
4.3088506251
 31
0.0
 11
3.5469215859
 21
4.3106042223
 31
0.0
 11
3.5468390018
 21
4.3122403099
 31
0.0
 11
3.5467314109
 21
4.3137382362
 31
0.0
 11
3.5466001697
 21
4.3150804285
 31
0.0
  0
LINE
  5
2E1
100
AcDbEntity
  8
0
100
AcDbLine
 62
7
  6
CONTINUOUS
 10
3.5466001697
 20
4.3150804285
 11
3.5462983091
 21
4.3171118197
  0
SPLINE
  5
2E2
100
AcDbEntity
  8
0
100
AcDbSpline
 62
7
  6
CONTINUOUS
 70
0
 71
3
 72
18
 73
14
 74
12
 42
0.0000001
 43
0.0000001
 44
0.0000000001
 12
-0.0066691161
 22
-0.0280879195
 32
0.0
 13
-0.0006937562
 23
-0.0288604753
 33
0.0
 40
0.0
 40
0.0
 40
0.0
 40
0.0
 40
0.0273508373
 40
0.0608601159
 40
0.1003165177
 40
0.1454841531
 40
0.1960713034
 40
0.2517691674
 40
0.3771130436
 40
0.5183561542
 40
0.671887239
 40
0.8338378871
 40
1.0
 40
1.0
 40
1.0
 40
1.0
 10
3.5371369514
 20
4.3172359088
 30
0.0
 10
3.5370761494
 20
4.3169798328
 30
0.0
 10
3.5369589777
 20
4.3164057498
 30
0.0
 10
3.5367996025
 20
4.3154535621
 30
0.0
 10
3.536640551
 20
4.3143278476
 30
0.0
 10
3.5364833073
 20
4.3130361991
 30
0.0
 10
3.5363288884
 20
4.3115869375
 30
0.0
 10
3.5361199367
 20
4.3093677593
 30
0.0
 10
3.5358779216
 20
4.3062757009
 30
0.0
 10
3.5356236653
 20
4.3022408229
 30
0.0
 10
3.5354025665
 20
4.297851247
 30
0.0
 10
3.5352205796
 20
4.2932199116
 30
0.0
 10
3.5351289193
 20
4.2900637699
 30
0.0
 10
3.535090494
 20
4.2884652641
 30
0.0
 11
3.5371369514
 21
4.3172359088
 31
0.0
 11
3.5369749709
 21
4.316463116
 31
0.0
 11
3.5368127804
 21
4.3155094364
 31
0.0
 11
3.5366516149
 21
4.3143818362
 31
0.0
 11
3.5364926644
 21
4.3130876246
 31
0.0
 11
3.536336928
 21
4.3116355612
 31
0.0
 11
3.5361853544
 21
4.3100347901
 31
0.0
 11
3.5358984496
 21
4.3064276532
 31
0.0
 11
3.5356392982
 21
4.302358376
 31
0.0
 11
3.5354145811
 21
4.2979318162
 31
0.0
 11
3.5352300438
 21
4.2932601366
 31
0.0
 11
3.535090494
 21
4.2884652641
 31
0.0
  0
LINE
  5
2E3
100
AcDbEntity
  8
0
100
AcDbLine
 62
7
  6
CONTINUOUS
 10
3.5339403178
 20
4.2884652641
 11
3.5346107387
 21
4.3172359088
  0
SPLINE
  5
2E4
100
AcDbEntity
  8
0
100
AcDbSpline
 62
7
  6
CONTINUOUS
 70
0
 71
3
 72
13
 73
9
 74
7
 42
0.0000001
 43
0.0000001
 44
0.0000000001
 12
-0.0023269169
 22
-0.0141883331
 32
0.0
 13
-0.0009425961
 23
-0.0143469457
 33
0.0
 40
0.0
 40
0.0
 40
0.0
 40
0.0
 40
0.0868888842
 40
0.1847056406
 40
0.2934192887
 40
0.4130132703
 40
0.6847677351
 40
1.0
 40
1.0
 40
1.0
 40
1.0
 10
3.5362825819
 20
4.3316738219
 30
0.0
 10
3.5362151875
 20
4.3312628858
 30
0.0
 10
3.5360830636
 20
4.3303874933
 30
0.0
 10
3.5358992418
 20
4.3289932532
 30
0.0
 10
3.5357184349
 20
4.3274407019
 30
0.0
 10
3.5354712274
 20
4.3250568249
 30
0.0
 10
3.5351770974
 20
4.3216830301
 30
0.0
 10
3.5349764081
 20
4.3188769002
 30
0.0
 10
3.5348773625
 20
4.3173693601
 30
0.0
 11
3.5362825819
 21
4.3316738219
 31
0.0
 11
3.5360945118
 21
4.3304387817
 31
0.0
 11
3.5359094074
 21
4.329044619
 31
0.0
 11
3.535727576
 21
4.3274921598
 31
0.0
 11
3.5355493021
 21
4.3257819187
 31
0.0
 11
3.5352045533
 21
4.3218899054
 31
0.0
 11
3.5348773625
 21
4.3173693601
 31
0.0
  0
LINE
  5
2E5
100
AcDbEntity
  8
0
100
AcDbLine
 62
7
  6
CONTINUOUS
 10
3.5348773625
 20
4.3173693601
 11
3.5348686929
 21
4.3172370556
  0
LINE
  5
2E6
100
AcDbEntity
  8
0
100
AcDbLine
 62
7
  6
CONTINUOUS
 10
3.5465030971
 20
4.3172166731
 11
3.5464050812
 21
4.3159615623
  0
LINE
  5
2E7
100
AcDbEntity
  8
0
100
AcDbLine
 62
7
  6
CONTINUOUS
 10
3.5472818178
 20
4.3172359088
 11
3.5476081724
 21
4.3150869316
  0
SPLINE
  5
2E8
100
AcDbEntity
  8
0
100
AcDbSpline
 62
7
  6
CONTINUOUS
 70
0
 71
3
 72
13
 73
9
 74
7
 42
0.0000001
 43
0.0000001
 44
0.0000000001
 12
0.0015780572
 22
-0.0139004365
 32
0.0
 13
-0.0004540508
 23
-0.0139823545
 33
0.0
 40
0.0
 40
0.0
 40
0.0
 40
0.0
 40
0.096399662
 40
0.2037703674
 40
0.3209116409
 40
0.4463853236
 40
0.7162088197
 40
1.0
 40
1.0
 40
1.0
 40
1.0
 10
3.5476081724
 20
4.3150869316
 30
0.0
 10
3.5476588804
 20
4.3146402658
 30
0.0
 10
3.5477499306
 20
4.3136942477
 30
0.0
 10
3.5478557586
 20
4.3122013924
 30
0.0
 10
3.5479369786
 20
4.3105712389
 30
0.0
 10
3.5480129446
 20
4.3081827189
 30
0.0
 10
3.5480364479
 20
4.3050155577
 30
0.0
 10
3.5479859866
 20
4.302434083
 30
0.0
 10
3.5479430348
 20
4.3011113933
 30
0.0
 11
3.5476081724
 21
4.3150869316
 31
0.0
 11
3.5477396902
 21
4.3137447551
 31
0.0
 11
3.5478475194
 21
4.3122465438
 31
0.0
 11
3.547930304
 21
4.3106098619
 31
0.0
 11
3.5479870198
 21
4.3088554362
 31
0.0
 11
3.5480194262
 21
4.3050808188
 31
0.0
 11
3.5479430348
 21
4.3011113933
 31
0.0
  0
SPLINE
  5
2E9
100
AcDbEntity
  8
0
100
AcDbSpline
 62
7
  6
CONTINUOUS
 70
0
 71
3
 72
13
 73
9
 74
7
 42
0.0000001
 43
0.0000001
 44
0.0000000001
 12
0.0004081553
 22
-0.0139708518
 32
0.0
 13
-0.0016159563
 23
-0.0138830823
 33
0.0
 40
0.0
 40
0.0
 40
0.0
 40
0.0
 40
0.283676251
 40
0.5534276656
 40
0.6788967029
 40
0.7960629552
 40
0.9034970671
 40
1.0
 40
1.0
 40
1.0
 40
1.0
 10
3.5477888154
 20
4.2063604243
 30
0.0
 10
3.5478274101
 20
4.205039358
 30
0.0
 10
3.547869452
 20
4.2024609881
 30
0.0
 10
3.5478358442
 20
4.1992977365
 30
0.0
 10
3.5477524506
 20
4.196911913
 30
0.0
 10
3.5476662386
 20
4.1952831344
 30
0.0
 10
3.5475559219
 20
4.1937910946
 30
0.0
 10
3.5474621159
 20
4.1928454483
 30
0.0
 10
3.5474101344
 20
4.1923988622
 30
0.0
 11
3.5477888154
 21
4.2063604243
 31
0.0
 11
3.5478522657
 21
4.2023960423
 31
0.0
 11
3.5478078505
 21
4.1986260389
 31
0.0
 11
3.5477456807
 21
4.1968734841
 31
0.0
 11
3.5476578957
 21
4.1952382279
 31
0.0
 11
3.5475455775
 21
4.193740848
 31
0.0
 11
3.5474101344
 21
4.1923988622
 31
0.0
  0
LINE
  5
2EA
100
AcDbEntity
  8
0
100
AcDbLine
 62
7
  6
CONTINUOUS
 10
3.5474101344
 20
4.1923988622
 11
3.5470752015
 21
4.1902359088
  0
LINE
  5
2EB
100
AcDbEntity
  8
0
100
AcDbLine
 62
7
  6
CONTINUOUS
 10
3.5423328244
 20
4.2221734688
 11
3.542311621
 21
4.2201190436
  0
LINE
  5
2EC
100
AcDbEntity
  8
0
100
AcDbLine
 62
7
  6
CONTINUOUS
 10
3.5345622923
 20
4.2175589535
 11
3.5345288179
 21
4.2190103473
  0
LINE
  5
2ED
100
AcDbEntity
  8
0
100
AcDbLine
 62
7
  6
CONTINUOUS
 10
3.5346378022
 20
4.2879490212
 11
3.534651952
 21
4.2884862575
  0
LINE
  5
2EE
100
AcDbEntity
  8
0
100
AcDbLine
 62
7
  6
CONTINUOUS
 10
3.534651952
 20
4.2884862575
 11
3.5354373941
 21
4.3096705159
  0
LINE
  5
2EF
100
AcDbEntity
  8
0
100
AcDbLine
 62
7
  6
CONTINUOUS
 10
3.5356116672
 20
4.3172359088
 11
3.5349408131
 21
4.2884652641
  0
SPLINE
  5
2F0
100
AcDbEntity
  8
0
100
AcDbSpline
 62
7
  6
CONTINUOUS
 70
0
 71
3
 72
18
 73
14
 74
12
 42
0.0000001
 43
0.0000001
 44
0.0000000001
 12
-0.0003727918
 22
-0.0139153685
 32
0.0
 13
-0.0046825669
 23
-0.013109158
 33
0.0
 40
0.0
 40
0.0
 40
0.0
 40
0.0
 40
0.1832020061
 40
0.3529626722
 40
0.5072173347
 40
0.6444422056
 40
0.7633090956
 40
0.8155096846
 40
0.8627166112
 40
0.904819267
 40
0.9417546971
 40
0.9734846797
 40
1.0
 40
1.0
 40
1.0
 40
1.0
 10
3.5419164926
 20
4.2034727831
 30
0.0
 10
3.5418937272
 20
4.2026230086
 30
0.0
 10
3.5418411315
 20
4.2009860203
 30
0.0
 10
3.5417361921
 20
4.1986347438
 30
0.0
 10
3.541608977
 20
4.1964982168
 30
0.0
 10
3.5414612074
 20
4.1945997892
 30
0.0
 10
3.5413169996
 20
4.1931763479
 30
0.0
 10
3.5411896308
 20
4.1921715177
 30
0.0
 10
3.5410942183
 20
4.1915218085
 30
0.0
 10
3.5409950047
 20
4.190944411
 30
0.0
 10
3.5408923527
 20
4.1904406693
 30
0.0
 10
3.5407866341
 20
4.1900117336
 30
0.0
 10
3.5407073796
 20
4.1897530652
 30
0.0
 10
3.540665993
 20
4.1896372007
 30
0.0
 11
3.5419164926
 21
4.2034727831
 31
0.0
 11
3.5418336248
 21
4.2009238917
 31
0.0
 11
3.5417268543
 21
4.1985631752
 31
0.0
 11
3.5415973984
 21
4.1964198005
 31
0.0
 11
3.5414466806
 21
4.1945155359
 31
0.0
 11
3.5412762541
 21
4.192869666
 31
0.0
 11
3.5411842302
 21
4.1921488655
 31
0.0
 11
3.5410879912
 21
4.1914988134
 31
0.0
 11
3.540987785
 21
4.1909213592
 31
0.0
 11
3.5408838733
 21
4.1904178145
 31
0.0
 11
3.540776521
 21
4.1899893661
 31
0.0
 11
3.540665993
 21
4.1896372007
 31
0.0
  0
LINE
  5
2F1
100
AcDbEntity
  8
0
100
AcDbLine
 62
7
  6
CONTINUOUS
 10
3.540665993
 20
4.1896372007
 11
3.5401974707
 21
4.1890065536
  0
LINE
  5
2F2
100
AcDbEntity
  8
0
100
AcDbLine
 62
7
  6
CONTINUOUS
 10
3.542490575
 20
4.2202453298
 11
3.5425285312
 21
4.2211475827
  0
LINE
  5
2F3
100
AcDbEntity
  8
0
100
AcDbLine
 62
7
  6
CONTINUOUS
 10
3.5348287076
 20
4.2190065536
 11
3.5354066081
 21
4.1902359088
  0
LINE
  5
2F4
100
AcDbEntity
  8
0
100
AcDbLine
 62
7
  6
CONTINUOUS
 10
3.5469280117
 20
4.2745995167
 11
3.5470863908
 21
4.2742359088
  0
LINE
  5
2F5
100
AcDbEntity
  8
0
100
AcDbLine
 62
7
  6
CONTINUOUS
 10
3.5470039648
 20
4.2272359088
 11
3.5469301383
 21
4.2269763299
  0
SPLINE
  5
2F6
100
AcDbEntity
  8
0
100
AcDbSpline
 62
6
  6
CONTINUOUS
 70
0
 71
3
 72
42
 73
38
 74
36
 42
0.0000001
 43
0.0000001
 44
0.0000000001
 12
-0.0215755456
 22
-0.0239019181
 32
0.0
 13
0.0
 23
0.0321994698
 33
0.0
 40
0.0
 40
0.0
 40
0.0
 40
0.0
 40
0.0046226229
 40
0.0082637265
 40
0.0109395236
 40
0.0126658572
 40
0.0131778242
 40
0.0134581916
 40
0.0135121112
 40
0.0135176065
 40
0.0135263827
 40
0.013703572
 40
0.0147323371
 40
0.01664459
 40
0.0194217621
 40
0.0230456009
 40
0.0274981839
 40
0.0327619322
 40
0.0388196254
 40
0.0456540511
 40
0.0532464945
 40
0.0615779135
 40
0.0803824727
 40
0.1019208948
 40
0.1260506781
 40
0.1526298424
 40
0.18151445
 40
0.2125634098
 40
0.2806049566
 40
0.3557187074
 40
0.436920077
 40
0.5232505598
 40
0.6137211787
 40
0.7073514609
 40
0.8033121023
 40
0.901037583
 40
1.0
 40
1.0
 40
1.0
 40
1.0
 10
3.9150299839
 20
4.7232071496
 30
0.0
 10
3.9149967387
 20
4.7231703197
 30
0.0
 10
3.9149376697
 20
4.7231042217
 30
0.0
 10
3.9148603071
 20
4.723015656
 30
0.0
 10
3.9148045127
 20
4.7229503174
 30
0.0
 10
3.9147702351
 20
4.7229092356
 30
0.0
 10
3.9147536602
 20
4.7228889799
 30
0.0
 10
3.9147473756
 20
4.7228812173
 30
0.0
 10
3.9147455576
 20
4.7228789411
 30
0.0
 10
3.9147449104
 20
4.7228781368
 30
0.0
 10
3.9147469997
 20
4.7228807832
 30
0.0
 10
3.9147523349
 20
4.7228876261
 30
0.0
 10
3.9147763046
 20
4.7229186207
 30
0.0
 10
3.9148109635
 20
4.7229646443
 30
0.0
 10
3.9148650892
 20
4.723037782
 30
0.0
 10
3.9149328833
 20
4.7231316557
 30
0.0
 10
3.9150156124
 20
4.7232488359
 30
0.0
 10
3.9151116163
 20
4.7233881877
 30
0.0
 10
3.9152203265
 20
4.7235499574
 30
0.0
 10
3.9153407765
 20
4.7237338869
 30
0.0
 10
3.9154722416
 20
4.7239397705
 30
0.0
 10
3.9156692726
 20
4.7242561916
 30
0.0
 10
3.9159376407
 20
4.7247044807
 30
0.0
 10
3.9162796629
 20
4.7253061122
 30
0.0
 10
3.9166471754
 20
4.7259890154
 30
0.0
 10
3.9170344551
 20
4.7267505619
 30
0.0
 10
3.9174365394
 20
4.7275876362
 30
0.0
 10
3.918003118
 20
4.7288390309
 30
0.0
 10
3.9187131635
 20
4.7305695221
 30
0.0
 10
3.9195248189
 20
4.7328375169
 30
0.0
 10
3.9202902632
 20
4.7353278322
 30
0.0
 10
3.9209793498
 20
4.7380109199
 30
0.0
 10
3.9215743748
 20
4.740852854
 30
0.0
 10
3.9220560278
 20
4.7438210462
 30
0.0
 10
3.922408029
 20
4.7468858181
 30
0.0
 10
3.9226242832
 20
4.7500204311
 30
0.0
 10
3.9226732742
 20
4.7521318341
 30
0.0
 10
3.9226732742
 20
4.7531940132
 30
0.0
 11
3.9150299839
 21
4.7232071496
 31
0.0
 11
3.9149308507
 21
4.7230961192
 31
0.0
 11
3.914853764
 21
4.7230077832
 31
0.0
 11
3.9147978637
 21
4.7229422197
 31
0.0
 11
3.9147622898
 21
4.7228995066
 31
0.0
 11
3.9147518564
 21
4.7228867433
 31
0.0
 11
3.914746182
 21
4.7228797218
 31
0.0
 11
3.9147450959
 21
4.7228783674
 31
0.0
 11
3.9147449847
 21
4.7228782297
 31
0.0
 11
3.9147451592
 21
4.722878452
 31
0.0
 11
3.9147486805
 21
4.7228829411
 31
0.0
 11
3.9147689282
 21
4.7229091583
 31
0.0
 11
3.9148060717
 21
4.722958267
 31
0.0
 11
3.914859258
 21
4.7230301542
 31
0.0
 11
3.914927634
 21
4.7231247072
 31
0.0
 11
3.9150103467
 21
4.7232418131
 31
0.0
 11
3.9151065429
 21
4.7233813593
 31
0.0
 11
3.9152153695
 21
4.7235432327
 31
0.0
 11
3.9153359844
 21
4.7237272996
 31
0.0
 11
3.9154675996
 21
4.7239333198
 31
0.0
 11
3.9156094443
 21
4.72416102
 31
0.0
 11
3.9159207388
 21
4.7246803679
 31
0.0
 11
3.916263701
 21
4.7252831572
 31
0.0
 11
3.9166321765
 21
4.725967191
 31
0.0
 11
3.9170204604
 21
4.7267298765
 31
0.0
 11
3.9174234115
 21
4.727568124
 31
0.0
 11
3.9178359244
 21
4.7284788124
 31
0.0
 11
3.9186695182
 21
4.7305049347
 31
0.0
 11
3.9194860796
 21
4.7327815472
 31
0.0
 11
3.9202550448
 21
4.7352805551
 31
0.0
 11
3.9209484554
 21
4.7379724775
 31
0.0
 11
3.9215460615
 21
4.740823627
 31
0.0
 11
3.9220291463
 21
4.7437995171
 31
0.0
 11
3.9223827524
 21
4.7468690989
 31
0.0
 11
3.922599583
 21
4.7500083281
 31
0.0
 11
3.9226732742
 21
4.7531940132
 31
0.0
  0
SPLINE
  5
2F7
100
AcDbEntity
  8
0
100
AcDbSpline
 62
6
  6
CONTINUOUS
 70
0
 71
3
 72
21
 73
17
 74
15
 42
0.0000001
 43
0.0000001
 44
0.0000000001
 12
0.0
 22
-0.0315413268
 32
0.0
 13
0.0185176876
 23
-0.0255333222
 33
0.0
 40
0.0
 40
0.0
 40
0.0
 40
0.0
 40
0.1720843656
 40
0.2564415714
 40
0.3391993975
 40
0.4982215675
 40
0.5733440418
 40
0.6446746484
 40
0.7115723858
 40
0.7734113324
 40
0.8295431279
 40
0.8792949432
 40
0.9219590001
 40
0.9567911421
 40
0.9830490037
 40
1.0
 40
1.0
 40
1.0
 40
1.0
 10
4.1456732742
 20
4.7531940132
 30
0.0
 10
4.1456732742
 20
4.7513847568
 30
0.0
 10
4.1457798518
 20
4.74868703
 30
0.0
 10
4.1461287028
 20
4.7451372183
 30
0.0
 10
4.146597029
 20
4.7417396748
 30
0.0
 10
4.1472465399
 20
4.738467597
 30
0.0
 10
4.1480548522
 20
4.735358667
 30
0.0
 10
4.1487036776
 20
4.7332107679
 30
0.0
 10
4.1493927771
 20
4.7312228026
 30
0.0
 10
4.1501003954
 20
4.7294120094
 30
0.0
 10
4.1508053729
 20
4.727795159
 30
0.0
 10
4.1514864941
 20
4.7263892578
 30
0.0
 10
4.1521157055
 20
4.7252082391
 30
0.0
 10
4.1526653606
 20
4.7242656472
 30
0.0
 10
4.1531065933
 20
4.7235736639
 30
0.0
 10
4.1533643325
 20
4.7231994168
 30
0.0
 10
4.1534689636
 20
4.7230551451
 30
0.0
 11
4.1456732742
 21
4.7531940132
 31
0.0
 11
4.1458870815
 21
4.7477704567
 31
0.0
 11
4.146147701
 21
4.7451225131
 31
0.0
 11
4.1465048958
 21
4.7425367764
 31
0.0
 11
4.1474829227
 21
4.7376172831
 31
0.0
 11
4.1480801081
 21
4.7353243108
 31
0.0
 11
4.1487320006
 21
4.733170961
 31
0.0
 11
4.1494235277
 21
4.7311774532
 31
0.0
 11
4.1501344142
 21
4.7293611322
 31
0.0
 11
4.1508435557
 21
4.7277388847
 31
0.0
 11
4.1515286233
 21
4.7263270805
 31
0.0
 11
4.1521627215
 21
4.7251401615
 31
0.0
 11
4.1527178583
 21
4.7241920796
 31
0.0
 11
4.1531641772
 21
4.7234944209
 31
0.0
 11
4.1534689636
 21
4.7230551451
 31
0.0
  0
SPLINE
  5
2F8
100
AcDbEntity
  8
0
100
AcDbSpline
 62
6
  6
CONTINUOUS
 70
0
 71
3
 72
15
 73
11
 74
9
 42
0.0000001
 43
0.0000001
 44
0.0000000001
 12
-0.0075024215
 22
-0.0207698231
 32
0.0
 13
-0.0
 23
-0.0220832941
 33
0.0
 40
0.0
 40
0.0
 40
0.0
 40
0.0
 40
0.1070161222
 40
0.2214245988
 40
0.3420444846
 40
0.4676625065
 40
0.5970944665
 40
0.7294028113
 40
0.863919295
 40
1.0
 40
1.0
 40
1.0
 40
1.0
 10
4.1492991965
 20
4.7748701304
 30
0.0
 10
4.1490315698
 20
4.7741292284
 30
0.0
 10
4.1485117455
 20
4.7725837826
 30
0.0
 10
4.147813795
 20
4.7701638239
 30
0.0
 10
4.1471898444
 20
4.7675825869
 30
0.0
 10
4.1466542505
 20
4.7648687566
 30
0.0
 10
4.1462236146
 20
4.7620491587
 30
0.0
 10
4.1459095511
 20
4.7591483013
 30
0.0
 10
4.1457168735
 20
4.7561878786
 30
0.0
 10
4.1456732742
 20
4.7541957166
 30
0.0
 10
4.1456732742
 20
4.7531940132
 30
0.0
 11
4.1492991965
 21
4.7748701304
 31
0.0
 11
4.1485449843
 21
4.7726304424
 31
0.0
 11
4.1478437585
 21
4.7702031877
 31
0.0
 11
4.1472164765
 21
4.7676144173
 31
0.0
 11
4.1466791138
 21
4.7648929014
 31
0.0
 11
4.1462472394
 21
4.762067433
 31
0.0
 11
4.145931925
 21
4.7591626927
 31
0.0
 11
4.1457388257
 21
4.7561984084
 31
0.0
 11
4.1456732742
 21
4.7531940132
 31
0.0
  0
SPLINE
  5
2F9
100
AcDbEntity
  8
0
100
AcDbSpline
 62
6
  6
CONTINUOUS
 70
0
 71
3
 72
14
 73
10
 74
8
 42
0.0000001
 43
0.0000001
 44
0.0000000001
 12
0.0
 22
0.0220718676
 32
0.0
 13
-0.007500565
 23
0.0207583445
 33
0.0
 40
0.0
 40
0.0
 40
0.0
 40
0.0
 40
0.2707128442
 40
0.4029923251
 40
0.5323064051
 40
0.6578430055
 40
0.7784558899
 40
0.892920062
 40
1.0
 40
1.0
 40
1.0
 40
1.0
 10
3.9226732742
 20
4.7531940132
 30
0.0
 10
3.9226732742
 20
4.7551857259
 30
0.0
 10
3.9225443447
 20
4.7581527686
 30
0.0
 10
3.9221228243
 20
4.7620471417
 30
0.0
 10
3.9216938172
 20
4.7648638848
 30
0.0
 10
3.9211581453
 20
4.7675747027
 30
0.0
 10
3.9205336916
 20
4.7701541263
 30
0.0
 10
3.9198379741
 20
4.7725742138
 30
0.0
 10
3.9193185357
 20
4.7741198551
 30
0.0
 10
3.9190508157
 20
4.7748607892
 30
0.0
 11
3.9226732742
 21
4.7531940132
 31
0.0
 11
3.9224142309
 21
4.7591635334
 31
0.0
 11
3.9220993191
 21
4.7620661559
 31
0.0
 11
3.9216687311
 21
4.7648876927
 31
0.0
 11
3.9211315968
 21
4.7676059588
 31
0.0
 11
3.9205043748
 21
4.7701931665
 31
0.0
 11
3.9198045494
 21
4.7726207442
 31
0.0
 11
3.9190508157
 21
4.7748607892
 31
0.0
  0
SPLINE
  5
2FA
100
AcDbEntity
  8
0
100
AcDbSpline
 62
6
  6
CONTINUOUS
 70
0
 71
3
 72
51
 73
47
 74
45
 42
0.0000001
 43
0.0000001
 44
0.0000000001
 12
0.0
 22
-0.5363676027
 32
0.0
 13
-0.0
 23
0.5363676027
 33
0.0
 40
0.0
 40
0.0
 40
0.0
 40
0.0
 40
0.0135067408
 40
0.0270327568
 40
0.0406000504
 40
0.0542281788
 40
0.0679362914
 40
0.0817433
 40
0.0956672701
 40
0.1097249521
 40
0.1239320203
 40
0.1383024391
 40
0.1528487095
 40
0.1675812901
 40
0.19762796
 40
0.2284970582
 40
0.2601982792
 40
0.2927080636
 40
0.3259719561
 40
0.3599078534
 40
0.3944101567
 40
0.4293541071
 40
0.4646005577
 40
0.5000006631
 40
0.535400758
 40
0.5706471792
 40
0.6055910777
 40
0.6400933134
 40
0.6740291216
 40
0.707292914
 40
0.7398025813
 40
0.7715036804
 40
0.8023726482
 40
0.8324191898
 40
0.8471517058
 40
0.8616979153
 40
0.8760682746
 40
0.8902752881
 40
0.9043329165
 40
0.9182568418
 40
0.9320638092
 40
0.945771887
 40
0.9593999821
 40
0.9729672572
 40
0.9864932761
 40
1.0
 40
1.0
 40
1.0
 40
1.0
 10
3.8381732742
 20
4.8906962859
 30
0.0
 10
3.8381732742
 20
4.8882814265
 30
0.0
 10
3.8383387266
 20
4.8834466427
 30
0.0
 10
3.8390814485
 20
4.8762205319
 30
0.0
 10
3.8403158265
 20
4.8690397037
 30
0.0
 10
3.8420359675
 20
4.861926232
 30
0.0
 10
3.8442348632
 20
4.854901089
 30
0.0
 10
3.8469032882
 20
4.8479840054
 30
0.0
 10
3.850030868
 20
4.8411933769
 30
0.0
 10
3.8536062101
 20
4.8345463674
 30
0.0
 10
3.8576167586
 20
4.8280587226
 30
0.0
 10
3.8620496129
 20
4.8217452476
 30
0.0
 10
3.866891062
 20
4.8156192051
 30
0.0
 10
3.8739172193
 20
4.8076674426
 30
0.0
 10
3.8836742688
 20
4.7982631408
 30
0.0
 10
3.8966968034
 20
4.7879953576
 30
0.0
 10
3.9109850832
 20
4.7787426867
 30
0.0
 10
3.9264033802
 20
4.7705743355
 30
0.0
 10
3.9428096827
 20
4.7635511706
 30
0.0
 10
3.9600539595
 20
4.7577270759
 30
0.0
 10
3.9779788702
 20
4.7531477208
 30
0.0
 10
3.9964205099
 20
4.7498497801
 30
0.0
 10
4.0152097097
 20
4.7478601001
 30
0.0
 10
4.0341736295
 20
4.7471950546
 30
0.0
 10
4.0531375424
 20
4.7478601479
 30
0.0
 10
4.0719267208
 20
4.7498498744
 30
0.0
 10
4.0903683258
 20
4.7531478578
 30
0.0
 10
4.1082931885
 20
4.7577272501
 30
0.0
 10
4.1255374068
 20
4.7635513744
 30
0.0
 10
4.1419436411
 20
4.7705745591
 30
0.0
 10
4.1573618645
 20
4.7787429197
 30
0.0
 10
4.1716500673
 20
4.7879955876
 30
0.0
 10
4.1846725261
 20
4.7982633566
 30
0.0
 10
4.1944295158
 20
4.8076676368
 30
0.0
 10
4.2014556301
 20
4.8156193767
 30
0.0
 10
4.2062970483
 20
4.8217454013
 30
0.0
 10
4.2107298792
 20
4.8280588546
 30
0.0
 10
4.2147404007
 20
4.8345464806
 30
0.0
 10
4.2183157285
 20
4.8411934668
 30
0.0
 10
4.2214432877
 20
4.8479840773
 30
0.0
 10
4.2241117054
 20
4.8549011405
 30
0.0
 10
4.2263105883
 20
4.861926267
 30
0.0
 10
4.2280307278
 20
4.869039723
 30
0.0
 10
4.229265101
 20
4.8762205433
 30
0.0
 10
4.2300078215
 20
4.8834466483
 30
0.0
 10
4.2301732742
 20
4.8882814296
 30
0.0
 10
4.2301732742
 20
4.8906962859
 30
0.0
 11
3.8381732742
 21
4.8906962859
 31
0.0
 11
3.83842076
 21
4.8834559362
 31
0.0
 11
3.8391618549
 21
4.8762389704
 31
0.0
 11
3.8403934502
 21
4.8690668906
 31
0.0
 11
3.8421099976
 21
4.8619616121
 31
0.0
 11
3.8443043533
 21
4.8549441093
 31
0.0
 11
3.8469675862
 21
4.8480339301
 31
0.0
 11
3.8500894799
 21
4.8412493684
 31
0.0
 11
3.8536587146
 21
4.8346075728
 31
0.0
 11
3.8576630318
 21
4.8281242818
 31
0.0
 11
3.862089549
 21
4.8218142467
 31
0.0
 11
3.8669247206
 21
4.8156909607
 31
0.0
 11
3.8721546236
 21
4.8097671978
 31
0.0
 11
3.8837405154
 21
4.7985647646
 31
0.0
 11
3.8967270674
 21
4.788293941
 31
0.0
 11
3.910987232
 21
4.7790328942
 31
0.0
 11
3.9263863543
 21
4.7708522583
 31
0.0
 11
3.9427816997
 21
4.7638153562
 31
0.0
 11
3.9600223409
 21
4.7579777783
 31
0.0
 11
3.9779496952
 21
4.7533865959
 31
0.0
 11
3.9963984312
 21
4.7500795127
 31
0.0
 11
4.0151978807
 21
4.7480840747
 31
0.0
 11
4.0341736311
 21
4.7474170656
 31
0.0
 11
4.0531493742
 21
4.7480841227
 31
0.0
 11
4.0719488029
 21
4.7500796074
 31
0.0
 11
4.090397503
 21
4.7533867332
 31
0.0
 11
4.1083248103
 21
4.7579779532
 31
0.0
 11
4.1255653912
 21
4.76381556
 31
0.0
 11
4.1419606695
 21
4.7708524823
 31
0.0
 11
4.1573597164
 21
4.7790331265
 31
0.0
 11
4.1716198047
 21
4.7882941707
 31
0.0
 11
4.1846062798
 21
4.7985649787
 31
0.0
 11
4.196192101
 21
4.809767386
 31
0.0
 11
4.2014219711
 21
4.8156911316
 31
0.0
 11
4.2062571131
 21
4.8218143994
 31
0.0
 11
4.2106836048
 21
4.8281244134
 31
0.0
 11
4.2146878979
 21
4.8346076848
 31
0.0
 11
4.2182571146
 21
4.8412494574
 31
0.0
 11
4.2213789914
 21
4.8480340004
 31
0.0
 11
4.2240422139
 21
4.85494416
 31
0.0
 11
4.2262365598
 21
4.8619616463
 31
0.0
 11
4.2279531028
 21
4.8690669075
 31
0.0
 11
4.2291846946
 21
4.8762389778
 31
0.0
 11
4.2299257886
 21
4.8834559453
 31
0.0
 11
4.2301732742
 21
4.8906962859
 31
0.0
  0
SPLINE
  5
2FB
100
AcDbEntity
  8
0
100
AcDbSpline
 62
6
  6
CONTINUOUS
 70
0
 71
3
 72
22
 73
18
 74
16
 42
0.0000001
 43
0.0000001
 44
0.0000000001
 12
-0.0
 22
-0.151308951
 32
0.0
 13
0.1328333576
 23
-0.072454798
 33
0.0
 40
0.0
 40
0.0
 40
0.0
 40
0.0
 40
0.0594032372
 40
0.1188733479
 40
0.1785038114
 40
0.2383630379
 40
0.2985299622
 40
0.3590837115
 40
0.4200997118
 40
0.481652908
 40
0.5438127633
 40
0.6066421713
 40
0.6701972236
 40
0.7345232719
 40
0.7996548997
 40
0.865614751
 40
1.0
 40
1.0
 40
1.0
 40
1.0
 10
3.8381732742
 20
3.8913143314
 30
0.0
 10
3.8381732742
 20
3.8883182509
 30
0.0
 10
3.8384110285
 20
3.8823200091
 30
0.0
 10
3.8394781169
 20
3.8733714831
 30
0.0
 10
3.8412466881
 20
3.8645109356
 30
0.0
 10
3.84370421
 20
3.8557801407
 30
0.0
 10
3.8468325326
 20
3.8472173495
 30
0.0
 10
3.8506106886
 20
3.8388571022
 30
0.0
 10
3.855015484
 20
3.8307302067
 30
0.0
 10
3.8600215704
 20
3.8228635616
 30
0.0
 10
3.8656030597
 20
3.8152808012
 30
0.0
 10
3.8717334619
 20
3.8080025526
 30
0.0
 10
3.8783860405
 20
3.8010468204
 30
0.0
 10
3.8855340522
 20
3.7944298677
 30
0.0
 10
3.8931511624
 20
3.7881658868
 30
0.0
 10
3.9039605128
 20
3.7802554408
 30
0.0
 10
3.9125984545
 20
3.7749645516
 30
0.0
 10
3.9185487358
 20
3.7717189329
 30
0.0
 11
3.8381732742
 21
3.8913143314
 31
0.0
 11
3.8385289782
 21
3.8823331311
 31
0.0
 11
3.8395931039
 21
3.8733979131
 31
0.0
 11
3.8413574039
 21
3.8645494686
 31
0.0
 11
3.8438088077
 21
3.8558302854
 31
0.0
 11
3.8469297491
 21
3.8472781632
 31
0.0
 11
3.8506995443
 21
3.8389273051
 31
0.0
 11
3.8550950781
 21
3.8308085591
 31
0.0
 11
3.8600915291
 21
3.8229486811
 31
0.0
 11
3.8656632045
 21
3.815371287
 31
0.0
 11
3.8717838541
 21
3.8080970807
 31
0.0
 11
3.8784270796
 21
3.8011441221
 31
0.0
 11
3.8855663785
 21
3.7945287022
 31
0.0
 11
3.8931751247
 21
3.7882654784
 31
0.0
 11
3.90122654
 21
3.7823679012
 31
0.0
 11
3.9185487358
 21
3.7717189329
 31
0.0
  0
SPLINE
  5
2FC
100
AcDbEntity
  8
0
100
AcDbSpline
 62
6
  6
CONTINUOUS
 70
0
 71
3
 72
22
 73
18
 74
16
 42
0.0000001
 43
0.0000001
 44
0.0000000001
 12
0.1328748232
 22
0.0724488179
 32
0.0
 13
-0.0
 23
0.1513424919
 33
0.0
 40
0.0
 40
0.0
 40
0.0
 40
0.0
 40
0.1343878779
 40
0.2003487754
 40
0.2654812098
 40
0.3298078496
 40
0.3933632333
 40
0.456192731
 40
0.51835245
 40
0.5799053078
 40
0.6409207987
 40
0.7014738872
 40
0.761640077
 40
0.8214985122
 40
0.8811281185
 40
0.940597469
 40
1.0
 40
1.0
 40
1.0
 40
1.0
 10
4.1497683493
 20
3.7717028661
 30
0.0
 10
4.1557206044
 20
3.7749482804
 30
0.0
 10
4.1643614773
 20
3.7802390483
 30
0.0
 10
4.1751746147
 20
3.7881497317
 30
0.0
 10
4.1827944309
 20
3.7944140599
 30
0.0
 10
4.1899450181
 20
3.8010315393
 30
0.0
 10
4.1966000352
 20
3.8079879641
 30
0.0
 10
4.2027327171
 20
3.8152670716
 30
0.0
 10
4.2083163143
 20
3.8228508501
 30
0.0
 10
4.2133243224
 20
3.8307186661
 30
0.0
 10
4.2177308319
 20
3.8388468794
 30
0.0
 10
4.2215104872
 20
3.8472085784
 30
0.0
 10
4.224640062
 20
3.8557729495
 30
0.0
 10
4.2270985846
 20
3.8645054296
 30
0.0
 10
4.2288678902
 20
3.8733677529
 30
0.0
 10
4.2299354153
 20
3.8823181241
 30
0.0
 10
4.2301732742
 20
3.8883176224
 30
0.0
 10
4.2301732742
 20
3.8913143314
 30
0.0
 11
4.1497683493
 21
3.7717028661
 31
0.0
 11
4.1670964372
 21
3.7823516158
 31
0.0
 11
4.1751506652
 21
3.7882493648
 31
0.0
 11
4.1827621115
 21
3.7945129376
 31
0.0
 11
4.1899039846
 21
3.8011288854
 31
0.0
 11
4.1965496422
 21
3.8080825378
 31
0.0
 11
4.202672566
 21
3.8153576023
 31
0.0
 11
4.2082463431
 21
3.8229360131
 31
0.0
 11
4.2132447084
 21
3.8307970599
 31
0.0
 11
4.2176419516
 21
3.83891712
 31
0.0
 11
4.2214132364
 21
3.8472694242
 31
0.0
 11
4.2245354267
 21
3.8558231205
 31
0.0
 11
4.2269878271
 21
3.8645439847
 31
0.0
 11
4.2287528536
 21
3.8733941915
 31
0.0
 11
4.2298174188
 21
3.88233125
 31
0.0
 11
4.2301732742
 21
3.8913143314
 31
0.0
  0
SPLINE
  5
2FD
100
AcDbEntity
  8
0
100
AcDbSpline
 62
6
  6
CONTINUOUS
 70
0
 71
3
 72
45
 73
41
 74
39
 42
0.0000001
 43
0.0000001
 44
0.0000000001
 12
0.0349420977
 22
0.0411992133
 32
0.0
 13
0.0184180343
 23
-0.0507848538
 33
0.0
 40
0.0
 40
0.0
 40
0.0
 40
0.0
 40
0.0015518256
 40
0.0019647795
 40
0.0026623991
 40
0.00341761
 40
0.0044383912
 40
0.0057207827
 40
0.0072608765
 40
0.0110987762
 40
0.0159219449
 40
0.0217000449
 40
0.0284000605
 40
0.0359889226
 40
0.0444342277
 40
0.0537042908
 40
0.0745944347
 40
0.0984112491
 40
0.1249077708
 40
0.1538458792
 40
0.1849963805
 40
0.2181355232
 40
0.2530454206
 40
0.2895162578
 40
0.3273479408
 40
0.3663444096
 40
0.4063132455
 40
0.4470676966
 40
0.4884276477
 40
0.5302142081
 40
0.5722495584
 40
0.6143582184
 40
0.656366131
 40
0.698097045
 40
0.739372974
 40
0.7800154403
 40
0.8198435538
 40
0.8586690506
 40
0.9325256591
 40
1.0
 40
1.0
 40
1.0
 40
1.0
 10
4.1535334043
 20
3.7795115395
 30
0.0
 10
4.153551479
 20
3.7795328508
 30
0.0
 10
4.1535675019
 20
3.779551446
 30
0.0
 10
4.153611743
 20
3.7796062778
 30
0.0
 10
4.1535727254
 20
3.779556588
 30
0.0
 10
4.1535524153
 20
3.7795293894
 30
0.0
 10
4.1535168968
 20
3.7794820979
 30
0.0
 10
4.1534768411
 20
3.7794275407
 30
0.0
 10
4.153406097
 20
3.7793298211
 30
0.0
 10
4.1533006125
 20
3.7791799711
 30
0.0
 10
4.1531543088
 20
3.7789647848
 30
0.0
 10
4.1529835722
 20
3.7787042506
 30
0.0
 10
4.1527903879
 20
3.7783988318
 30
0.0
 10
4.1525771193
 20
3.7780493813
 30
0.0
 10
4.1523460199
 20
3.7776566502
 30
0.0
 10
4.152003236
 20
3.7770518306
 30
0.0
 10
4.1515460972
 20
3.7761938413
 30
0.0
 10
4.1509804132
 20
3.775042962
 30
0.0
 10
4.1503923678
 20
3.7737423718
 30
0.0
 10
4.149797432
 20
3.7723008737
 30
0.0
 10
4.1492086143
 20
3.7707284344
 30
0.0
 10
4.148636544
 20
3.7690358843
 30
0.0
 10
4.1480923144
 20
3.7672338159
 30
0.0
 10
4.1475870695
 20
3.7653328419
 30
0.0
 10
4.1471277996
 20
3.7633446438
 30
0.0
 10
4.1467211
 20
3.7612807805
 30
0.0
 10
4.1463735998
 20
3.7591527553
 30
0.0
 10
4.1460920654
 20
3.7569720739
 30
0.0
 10
4.1458789897
 20
3.7547507702
 30
0.0
 10
4.1457366649
 20
3.7525007006
 30
0.0
 10
4.1456672796
 20
3.7502336957
 30
0.0
 10
4.1456735763
 20
3.7479616429
 30
0.0
 10
4.1457546448
 20
3.7456965316
 30
0.0
 10
4.1459081669
 20
3.7434502164
 30
0.0
 10
4.1461320531
 20
3.7412345247
 30
0.0
 10
4.1464245508
 20
3.7390614077
 30
0.0
 10
4.1467820814
 20
3.7369427657
 30
0.0
 10
4.1473270687
 20
3.7342507194
 30
0.0
 10
4.1481219057
 20
3.7311029701
 30
0.0
 10
4.1489084837
 20
3.7286803608
 30
0.0
 10
4.1493227319
 20
3.727538136
 30
0.0
 11
4.1535334043
 21
3.7795115395
 31
0.0
 11
4.153587161
 21
3.779575867
 31
0.0
 11
4.15360125
 21
3.7795931633
 31
0.0
 11
4.1535781845
 21
3.7795633598
 31
0.0
 11
4.153553503
 21
3.7795308748
 31
0.0
 11
4.1535204739
 21
3.7794867165
 31
0.0
 11
4.1534794109
 21
3.7794309214
 31
0.0
 11
4.1534306275
 21
3.7793635261
 31
0.0
 11
4.1533111544
 21
3.7791940812
 31
0.0
 11
4.1531645638
 21
3.7789786744
 31
0.0
 11
4.1529933161
 21
3.7787177018
 31
0.0
 11
4.1527997177
 21
3.7784118851
 31
0.0
 11
4.1525860448
 21
3.7780620098
 31
0.0
 11
4.1523545737
 21
3.7776688618
 31
0.0
 11
4.1521075806
 21
3.7772332267
 31
0.0
 11
4.1515760036
 21
3.7762377481
 31
0.0
 11
4.151007617
 21
3.7750834823
 31
0.0
 11
4.1504174359
 21
3.7737794339
 31
0.0
 11
4.149820371
 21
3.7723346639
 31
0.0
 11
4.1492294613
 21
3.7707590263
 31
0.0
 11
4.1486557919
 21
3.7690632031
 31
0.0
 11
4.1481103564
 21
3.7672579148
 31
0.0
 11
4.1476036164
 21
3.7653539864
 31
0.0
 11
4.1471431677
 21
3.7633628058
 31
0.0
 11
4.1467356458
 21
3.7612959495
 31
0.0
 11
4.1463876854
 21
3.7591649941
 31
0.0
 11
4.146105322
 21
3.7569815584
 31
0.0
 11
4.1458917134
 21
3.754757465
 31
0.0
 11
4.1457491541
 21
3.7525045972
 31
0.0
 11
4.1456799384
 21
3.7502348385
 31
0.0
 11
4.1456861082
 21
3.7479600727
 31
0.0
 11
4.145767127
 21
3.7456921879
 31
0.0
 11
4.145920949
 21
3.7434430741
 31
0.0
 11
4.1461455093
 21
3.7412246219
 31
0.0
 11
4.1464387103
 21
3.7390487192
 31
0.0
 11
4.1467967119
 21
3.7369271368
 31
0.0
 11
4.1472131037
 21
3.7348714721
 31
0.0
 11
4.1481945872
 21
3.7310042292
 31
0.0
 11
4.1493227319
 21
3.727538136
 31
0.0
  0
SPLINE
  5
2FE
100
AcDbEntity
  8
0
100
AcDbSpline
 62
6
  6
CONTINUOUS
 70
0
 71
3
 72
29
 73
25
 74
23
 42
0.0000001
 43
0.0000001
 44
0.0000000001
 12
0.0045134358
 22
0.2699154892
 32
0.0
 13
-0.2699532226
 23
0.0
 33
0.0
 40
0.0
 40
0.0
 40
0.0
 40
0.0
 40
0.0270365755
 40
0.0541046622
 40
0.0812454126
 40
0.108499748
 40
0.1359073857
 40
0.1635069663
 40
0.1913353107
 40
0.2194271594
 40
0.247814786
 40
0.2765272357
 40
0.3055904587
 40
0.3350263916
 40
0.3950646295
 40
0.4567581021
 40
0.5201309768
 40
0.5851391443
 40
0.6516748824
 40
0.7195735411
 40
0.7886218549
 40
0.8585675169
 40
0.9291272057
 40
1.0
 40
1.0
 40
1.0
 40
1.0
 10
4.2301584678
 20
3.6100044104
 30
0.0
 10
4.2301991437
 20
3.6124369405
 30
0.0
 10
4.2301125855
 20
3.6173093009
 30
0.0
 10
4.2294802366
 20
3.6245982089
 30
0.0
 10
4.2283475439
 20
3.6318464032
 30
0.0
 10
4.2267203156
 20
3.6390309395
 30
0.0
 10
4.2246051389
 20
3.6461302161
 30
0.0
 10
4.2220113317
 20
3.6531238559
 30
0.0
 10
4.2189489955
 20
3.6599926541
 30
0.0
 10
4.2154298235
 20
3.6667188737
 30
0.0
 10
4.2114663258
 20
3.6732860915
 30
0.0
 10
4.207071724
 20
3.6796790192
 30
0.0
 10
4.2022598591
 20
3.685883848
 30
0.0
 10
4.1952620495
 20
3.693940075
 30
0.0
 10
4.1855192219
 20
3.7034716242
 30
0.0
 10
4.1724840517
 20
3.7138816978
 30
0.0
 10
4.158155718
 20
3.7232654842
 30
0.0
 10
4.1426726733
 20
3.7315517858
 30
0.0
 10
4.1261798178
 20
3.7386780172
 30
0.0
 10
4.1088302842
 20
3.7445887318
 30
0.0
 10
4.0907848472
 20
3.7492369666
 30
0.0
 10
4.0722107265
 20
3.7525848838
 30
0.0
 10
4.053282073
 20
3.7546049414
 30
0.0
 10
4.0405507206
 20
3.7550547523
 30
0.0
 10
4.0341732742
 20
3.7550547523
 30
0.0
 11
4.2301584678
 21
3.6100044104
 31
0.0
 11
4.2300290961
 21
3.6173018744
 31
0.0
 11
4.2293980692
 21
3.6245816936
 31
0.0
 11
4.2282680368
 21
3.6318207573
 31
0.0
 11
4.2266442677
 21
3.6389967342
 31
0.0
 11
4.2245336021
 21
3.6460880696
 31
0.0
 11
4.2219449257
 21
3.6530744944
 31
0.0
 11
4.2188883625
 21
3.6599369169
 31
0.0
 11
4.2153753484
 21
3.6666576296
 31
0.0
 11
4.2114182278
 21
3.673220239
 31
0.0
 11
4.2070300923
 21
3.6796094919
 31
0.0
 11
4.2022246883
 21
3.6858113681
 31
0.0
 11
4.1970161972
 21
3.6918126764
 31
0.0
 11
4.1854491228
 21
3.7031654891
 31
0.0
 11
4.1724513054
 21
3.7135781821
 31
0.0
 11
4.1581522513
 21
3.7229702454
 31
0.0
 11
4.1426892614
 21
3.731268987
 31
0.0
 11
4.1262079527
 21
3.738409244
 31
0.0
 11
4.1088623814
 21
3.7443337968
 31
0.0
 11
4.0908145678
 21
3.7489941745
 31
0.0
 11
4.0722333893
 21
3.752351536
 31
0.0
 11
4.0532936227
 21
3.7543774954
 31
0.0
 11
4.0341732742
 21
3.7550547523
 31
0.0
  0
SPLINE
  5
2FF
100
AcDbEntity
  8
0
100
AcDbSpline
 62
6
  6
CONTINUOUS
 70
0
 71
3
 72
34
 73
30
 74
28
 42
0.0000001
 43
0.0000001
 44
0.0000000001
 12
0.0182735483
 22
0.0506205289
 32
0.0
 13
-0.033004044
 23
0.0425099235
 33
0.0
 40
0.0
 40
0.0
 40
0.0
 40
0.0
 40
0.0647155675
 40
0.1353156793
 40
0.1723864524
 40
0.2104076527
 40
0.2492135597
 40
0.2886446103
 40
0.3285439976
 40
0.3687553847
 40
0.4091238503
 40
0.4494966663
 40
0.4897208775
 40
0.5296415018
 40
0.5691024338
 40
0.6079473269
 40
0.6460166757
 40
0.6831447565
 40
0.7538870234
 40
0.8187851611
 40
0.8485812256
 40
0.8763449552
 40
0.9249595925
 40
0.9453951058
 40
0.9629537735
 40
0.9774162548
 40
0.9885636946
 40
0.9961673657
 40
1.0
 40
1.0
 40
1.0
 40
1.0
 10
3.9190489987
 20
3.7276068405
 30
0.0
 10
3.919443193
 20
3.7286988193
 30
0.0
 10
3.9201935084
 20
3.7310093578
 30
0.0
 10
3.9209609583
 20
3.7340072999
 30
0.0
 10
3.9214926998
 20
3.73656659
 30
0.0
 10
3.9218460218
 20
3.7385794157
 30
0.0
 10
3.9221412008
 20
3.7406443622
 30
0.0
 10
3.9223744975
 20
3.7427511143
 30
0.0
 10
3.9225442503
 20
3.7448892232
 30
0.0
 10
3.9226483746
 20
3.7470483746
 30
0.0
 10
3.92268482
 20
3.7492182391
 30
0.0
 10
3.9226518628
 20
3.7513883868
 30
0.0
 10
3.9225515173
 20
3.7535484046
 30
0.0
 10
3.9223854993
 20
3.7556879575
 30
0.0
 10
3.9221557446
 20
3.7577967275
 30
0.0
 10
3.9218636474
 20
3.7598642332
 30
0.0
 10
3.9215132381
 20
3.7618802002
 30
0.0
 10
3.9209848985
 20
3.7644447181
 30
0.0
 10
3.9202213796
 20
3.7674508005
 30
0.0
 10
3.9193085401
 20
3.770276946
 30
0.0
 10
3.9185349968
 20
3.772333405
 30
0.0
 10
3.917808946
 20
3.7740945331
 30
0.0
 10
3.9170736341
 20
3.7756694822
 30
0.0
 10
3.9163492659
 20
3.7770442163
 30
0.0
 10
3.9158844691
 20
3.7778626489
 30
0.0
 10
3.9154807287
 20
3.778523632
 30
0.0
 10
3.9151550271
 20
3.7790226693
 30
0.0
 10
3.914923755
 20
3.7793553703
 30
0.0
 10
3.9148017878
 20
3.7795203909
 30
0.0
 10
3.9147596237
 20
3.7795746992
 30
0.0
 11
3.9190489987
 21
3.7276068405
 31
0.0
 11
3.9201270497
 21
3.7309186478
 31
0.0
 11
3.9210730943
 21
3.7345985321
 31
0.0
 11
3.9214792082
 21
3.7365518299
 31
0.0
 11
3.9218329921
 21
3.738567233
 31
0.0
 11
3.9221287541
 21
3.7406346347
 31
0.0
 11
3.9223626994
 21
3.7427437941
 31
0.0
 11
3.9225327628
 21
3.7448843481
 31
0.0
 11
3.9226369428
 21
3.7470459293
 31
0.0
 11
3.9226732382
 21
3.7492181699
 31
0.0
 11
3.9226404936
 21
3.7513907011
 31
0.0
 11
3.9225400515
 21
3.7535531501
 31
0.0
 11
3.9223737131
 21
3.7556951432
 31
0.0
 11
3.9221432798
 21
3.7578063069
 31
0.0
 11
3.9218506623
 21
3.759876275
 31
0.0
 11
3.9214997914
 21
3.7618948174
 31
0.0
 11
3.9210963793
 21
3.7638518242
 31
0.0
 11
3.9201550252
 21
3.7675408074
 31
0.0
 11
3.9190793156
 21
3.7708637049
 31
0.0
 11
3.9185141157
 21
3.772364356
 31
0.0
 11
3.9179438924
 21
3.773745454
 31
0.0
 11
3.9168333048
 21
3.7761143787
 31
0.0
 11
3.9163197432
 21
3.7770869033
 31
0.0
 11
3.9158522974
 21
3.7779081598
 31
0.0
 11
3.9154460194
 21
3.7785720503
 31
0.0
 11
3.9151173973
 21
3.7790739716
 31
0.0
 11
3.9148829923
 21
3.7794093963
 31
0.0
 11
3.9147596237
 21
3.7795746992
 31
0.0
  0
SPLINE
  5
300
100
AcDbEntity
  8
0
100
AcDbSpline
 62
6
  6
CONTINUOUS
 70
0
 71
3
 72
29
 73
25
 74
23
 42
0.0000001
 43
0.0000001
 44
0.0000000001
 12
-0.2697837731
 22
0.0
 32
0.0
 13
0.0040796346
 23
-0.2697529255
 33
0.0
 40
0.0
 40
0.0
 40
0.0
 40
0.0
 40
0.0708660559
 40
0.1414194597
 40
0.2113597315
 40
0.2804039442
 40
0.3483000946
 40
0.4148351031
 40
0.4798443683
 40
0.5432200509
 40
0.6049177571
 40
0.664961195
 40
0.6943998871
 40
0.7234658543
 40
0.7521809797
 40
0.7805710712
 40
0.8086651302
 40
0.8364952616
 40
0.8640961972
 40
0.8915045796
 40
0.9187590348
 40
0.9458991362
 40
0.972965779
 40
1.0
 40
1.0
 40
1.0
 40
1.0
 10
4.0341732742
 20
3.7550547523
 30
0.0
 10
4.0278004369
 20
3.7550547523
 30
0.0
 10
4.0150782543
 20
3.7546055897
 30
0.0
 10
3.9961629969
 20
3.7525884389
 30
0.0
 10
3.9776015193
 20
3.7492453145
 30
0.0
 10
3.9595676047
 20
3.744603683
 30
0.0
 10
3.9422281262
 20
3.738701279
 30
0.0
 10
3.9257435331
 20
3.7315849381
 30
0.0
 10
3.9102666565
 20
3.7233099593
 30
0.0
 10
3.8959421162
 20
3.7139387626
 30
0.0
 10
3.8829081014
 20
3.7035423523
 30
0.0
 10
3.8731638436
 20
3.6940230248
 30
0.0
 10
3.8661632667
 20
3.6859768183
 30
0.0
 10
3.8613485056
 20
3.6797795582
 30
0.0
 10
3.8569502003
 20
3.6733942423
 30
0.0
 10
3.852982111
 20
3.6668346645
 30
0.0
 10
3.8494575157
 20
3.6601160224
 30
0.0
 10
3.8463888251
 20
3.6532547171
 30
0.0
 10
3.8437878219
 20
3.6462683856
 30
0.0
 10
3.841664517
 20
3.6391761937
 30
0.0
 10
3.8400283199
 20
3.6319984281
 30
0.0
 10
3.8388857969
 20
3.62475663
 30
0.0
 10
3.8382427898
 20
3.6174736758
 30
0.0
 10
3.8381486264
 20
3.6126048643
 30
0.0
 10
3.8381853897
 20
3.6101740109
 30
0.0
 11
4.0341732742
 21
3.7550547523
 31
0.0
 11
4.0150667269
 21
3.7543784751
 31
0.0
 11
3.9961403774
 21
3.7523554392
 31
0.0
 11
3.9775718502
 21
3.7490028968
 31
0.0
 11
3.9595355502
 21
3.7443491548
 31
0.0
 11
3.9422000027
 21
3.7384329458
 31
0.0
 11
3.9257268995
 21
3.7313026075
 31
0.0
 11
3.9102699922
 21
3.7230152034
 31
0.0
 11
3.8959746194
 21
3.7136357197
 31
0.0
 11
3.8829778238
 21
3.7032366496
 31
0.0
 11
3.8714088725
 21
3.6918982762
 31
0.0
 11
3.8661982869
 21
3.685904408
 31
0.0
 11
3.8613899792
 21
3.679710079
 31
0.0
 11
3.8569981143
 21
3.6733284184
 31
0.0
 11
3.8530364052
 21
3.666773421
 31
0.0
 11
3.8495179432
 21
3.6600602596
 31
0.0
 11
3.8464550407
 21
3.6532053006
 31
0.0
 11
3.8438591518
 21
3.6462261521
 31
0.0
 11
3.8417403791
 21
3.6391418724
 31
0.0
 11
3.8401076446
 21
3.6319726333
 31
0.0
 11
3.8389677995
 21
3.6247399411
 31
0.0
 11
3.838326142
 21
3.6174660467
 31
0.0
 11
3.8381853897
 21
3.6101740109
 31
0.0
  0
SPLINE
  5
301
100
AcDbEntity
  8
0
100
AcDbSpline
 62
7
  6
CONTINUOUS
 70
0
 71
3
 72
11
 73
7
 74
5
 42
0.0000001
 43
0.0000001
 44
0.0000000001
 12
0.0070911052
 22
-0.0279344108
 32
0.0
 13
0.0138442638
 23
-0.0252774888
 33
0.0
 40
0.0
 40
0.0
 40
0.0
 40
0.0
 40
0.2459543448
 40
0.4943035454
 40
0.7455104863
 40
1.0
 40
1.0
 40
1.0
 40
1.0
 10
3.8324031854
 20
3.8844282131
 30
0.0
 10
3.8329845481
 20
3.8821380165
 30
0.0
 10
3.8343058788
 20
3.8775727095
 30
0.0
 10
3.8367396369
 20
3.8708319539
 30
0.0
 10
3.8396266116
 20
3.8641831633
 30
0.0
 10
3.8418338722
 20
3.8598514738
 30
0.0
 10
3.8430082789
 20
3.8577071885
 30
0.0
 11
3.8324031854
 21
3.8844282131
 31
0.0
 11
3.8343718579
 21
3.8776185747
 31
0.0
 11
3.8367999532
 21
3.870885487
 31
0.0
 11
3.8396809485
 21
3.8642435167
 31
0.0
 11
3.8430082789
 21
3.8577071885
 31
0.0
  0
SPLINE
  5
302
100
AcDbEntity
  8
0
100
AcDbSpline
 62
7
  6
CONTINUOUS
 70
0
 71
3
 72
11
 73
7
 74
5
 42
0.0000001
 43
0.0000001
 44
0.0000000001
 12
0.0138428182
 22
0.0252737181
 32
0.0
 13
0.0070917684
 23
0.027930114
 33
0.0
 40
0.0
 40
0.0
 40
0.0
 40
0.0
 40
0.2544891955
 40
0.50569613
 40
0.7540454896
 40
1.0
 40
1.0
 40
1.0
 40
1.0
 10
4.2253371547
 20
3.8577051532
 30
0.0
 10
4.2265114373
 20
3.859849116
 30
0.0
 10
4.2287184909
 20
3.8641801486
 30
0.0
 10
4.2316052837
 20
3.8708279177
 30
0.0
 10
4.2340389956
 20
3.8775676337
 30
0.0
 10
4.2353603892
 20
3.8821322374
 30
0.0
 10
4.2359418067
 20
3.8844220833
 30
0.0
 11
4.2253371547
 21
3.8577051532
 31
0.0
 11
4.2286641727
 21
3.8642404874
 31
0.0
 11
4.2315449885
 21
3.8708814397
 31
0.0
 11
4.2339730399
 21
3.8776134917
 31
0.0
 11
4.2359418067
 21
3.8844220833
 31
0.0
  0
SPLINE
  5
303
100
AcDbEntity
  8
0
100
AcDbSpline
 62
6
  6
CONTINUOUS
 70
0
 71
3
 72
13
 73
9
 74
7
 42
0.0000001
 43
0.0000001
 44
0.0000000001
 12
0.0
 22
-0.0538026799
 32
0.0
 13
-0.0204701994
 23
-0.0497563996
 33
0.0
 40
0.0
 40
0.0
 40
0.0
 40
0.0
 40
0.2323533152
 40
0.3530962483
 40
0.4768166107
 40
0.6034591793
 40
0.7329493903
 40
1.0
 40
1.0
 40
1.0
 40
1.0
 10
4.2391732742
 20
4.6454479393
 30
0.0
 10
4.2391732742
 20
4.6412808623
 30
0.0
 10
4.2387847953
 20
4.6349425489
 30
0.0
 10
4.237589827
 20
4.6264730387
 30
0.0
 10
4.2363260244
 20
4.6199354982
 30
0.0
 10
4.2347096617
 20
4.6133150089
 30
0.0
 10
4.2320682033
 20
4.6043091465
 30
0.0
 10
4.2296177263
 20
4.5976212912
 30
0.0
 10
4.2277955332
 20
4.5931921322
 30
0.0
 11
4.2391732742
 21
4.6454479393
 31
0.0
 11
4.2384470353
 21
4.632967821
 31
0.0
 11
4.2375436541
 21
4.6265346468
 31
0.0
 11
4.2362840253
 21
4.6199984281
 31
0.0
 11
4.2346720867
 21
4.6133781341
 31
0.0
 11
4.2327149044
 21
4.6066917735
 31
0.0
 11
4.2277955332
 21
4.5931921322
 31
0.0
  0
SPLINE
  5
304
100
AcDbEntity
  8
0
100
AcDbSpline
 62
6
  6
CONTINUOUS
 70
0
 71
3
 72
49
 73
45
 74
43
 42
0.0000001
 43
0.0000001
 44
0.0000000001
 12
-0.1908036147
 22
-0.4637815558
 32
0.0
 13
-0.190802113
 23
0.4637821736
 33
0.0
 40
0.0
 40
0.0
 40
0.0
 40
0.0
 40
0.0280214022
 40
0.0568868358
 40
0.0864750492
 40
0.1166747135
 40
0.1473833128
 40
0.1785059116
 40
0.2099647571
 40
0.2258011758
 40
0.2416967498
 40
0.2736320815
 40
0.3057310761
 40
0.3218320908
 40
0.3379583336
 40
0.3541065749
 40
0.3702756585
 40
0.3864627584
 40
0.4026628216
 40
0.418872507
 40
0.4350906132
 40
0.4675399515
 40
0.500000186
 40
0.53246039
 40
0.564909682
 40
0.5811277781
 40
0.5973374637
 40
0.6135375321
 40
0.6297246371
 40
0.6458937218
 40
0.6620419608
 40
0.6781681996
 40
0.6942692104
 40
0.7263682045
 40
0.7583035507
 40
0.7741991355
 40
0.7900355661
 40
0.8214944283
 40
0.8526170195
 40
0.8833255776
 40
0.9135251808
 40
0.9431133221
 40
0.9719786801
 40
1.0
 40
1.0
 40
1.0
 40
1.0
 10
4.2277955332
 20
4.5931921322
 30
0.0
 10
4.2260133383
 20
4.5888601957
 30
0.0
 10
4.2220571265
 20
4.580201701
 30
0.0
 10
4.2151392082
 20
4.5674969522
 30
0.0
 10
4.2071987458
 20
4.5549713241
 30
0.0
 10
4.1982915167
 20
4.5427312929
 30
0.0
 10
4.1884707857
 20
4.530876196
 30
0.0
 10
4.1777848865
 20
4.5195041186
 30
0.0
 10
4.1682140076
 20
4.5105322141
 30
0.0
 10
4.1601645745
 20
4.5036892923
 30
0.0
 10
4.1518310684
 20
4.4970664427
 30
0.0
 10
4.1409541157
 20
4.4892870234
 30
0.0
 10
4.1295246657
 20
4.4822758707
 30
0.0
 10
4.1200583499
 20
4.4771704321
 30
0.0
 10
4.1127977505
 20
4.4736049612
 30
0.0
 10
4.1053925246
 20
4.4703222406
 30
0.0
 10
4.0978511077
 20
4.4673376147
 30
0.0
 10
4.0901843592
 20
4.464664758
 30
0.0
 10
4.082405159
 20
4.4623156317
 30
0.0
 10
4.0745265831
 20
4.4603028294
 30
0.0
 10
4.0639075759
 20
4.4580847365
 30
0.0
 10
4.0504549485
 20
4.4562146522
 30
0.0
 10
4.0341728704
 20
4.4554533001
 30
0.0
 10
4.0178908025
 20
4.4562147141
 30
0.0
 10
4.0044381989
 20
4.4580848662
 30
0.0
 10
3.9938192117
 20
4.4603030085
 30
0.0
 10
3.9859406452
 20
4.462315844
 30
0.0
 10
3.9781614524
 20
4.464665001
 30
0.0
 10
3.970494712
 20
4.4673378866
 30
0.0
 10
3.9629533056
 20
4.4703225408
 30
0.0
 10
3.9555480928
 20
4.4736052888
 30
0.0
 10
3.9482875082
 20
4.477170786
 30
0.0
 10
3.9388212125
 20
4.4822762589
 30
0.0
 10
3.9273917862
 20
4.4892874533
 30
0.0
 10
3.9165148559
 20
4.4970669109
 30
0.0
 10
3.9081813664
 20
4.5036897915
 30
0.0
 10
3.9001319508
 20
4.510532744
 30
0.0
 10
3.8905610981
 20
4.5195046815
 30
0.0
 10
3.8798752385
 20
4.5308767887
 30
0.0
 10
3.8700545584
 20
4.5427319039
 30
0.0
 10
3.8611473844
 20
4.5549719391
 30
0.0
 10
3.8532069808
 20
4.5674975632
 30
0.0
 10
3.8462891231
 20
4.5802023012
 30
0.0
 10
3.8423329512
 20
4.588860785
 30
0.0
 10
3.8405507755
 20
4.5931927146
 30
0.0
 11
4.2277955332
 21
4.5931921322
 31
0.0
 11
4.2219715342
 21
4.5804031499
 31
0.0
 11
4.2150606371
 21
4.5676833977
 31
0.0
 11
4.2071237961
 21
4.5551460625
 31
0.0
 11
4.1982175521
 21
4.5428965243
 31
0.0
 11
4.1883954896
 21
4.5310350101
 31
0.0
 11
4.1777072445
 21
4.5196610155
 31
0.0
 11
4.1661956971
 21
4.5088729266
 31
0.0
 11
4.1601443806
 21
4.5037294225
 31
0.0
 11
4.1539031199
 21
4.4987703075
 31
0.0
 11
4.140872135
 21
4.489459619
 31
0.0
 11
4.127146
 21
4.481049837
 31
0.0
 11
4.1200385142
 21
4.4772179954
 31
0.0
 11
4.1127786958
 21
4.473654447
 31
0.0
 11
4.1053746023
 21
4.4703739283
 31
0.0
 11
4.0978343938
 21
4.4673911342
 31
0.0
 11
4.0901687526
 21
4.4647197377
 31
0.0
 11
4.0823909775
 21
4.4623723519
 31
0.0
 11
4.0745144889
 21
4.4603615406
 31
0.0
 11
4.0665527086
 21
4.4586998645
 31
0.0
 11
4.0504340677
 21
4.4564619951
 31
0.0
 11
4.0341728657
 21
4.4557071229
 31
0.0
 11
4.0179116821
 21
4.4564620606
 31
0.0
 11
4.0017930751
 21
4.4587000054
 31
0.0
 11
3.9938313077
 21
4.4603617184
 31
0.0
 11
3.9859548276
 21
4.4623725634
 31
0.0
 11
3.9781770592
 21
4.4647199804
 31
0.0
 11
3.9705114255
 21
4.4673914062
 31
0.0
 11
3.9629712277
 21
4.4703742287
 31
0.0
 11
3.9555671475
 21
4.4736547746
 31
0.0
 11
3.9483073441
 21
4.4772183491
 31
0.0
 11
3.9411998741
 21
4.481050216
 31
0.0
 11
3.9274737693
 21
4.4894600466
 31
0.0
 11
3.9144428094
 21
4.4987707828
 31
0.0
 11
3.9082015606
 21
4.5037299216
 31
0.0
 11
3.9021502564
 21
4.5088734493
 31
0.0
 11
3.8906387377
 21
4.519661581
 31
0.0
 11
3.8799505315
 21
4.5310356069
 31
0.0
 11
3.8701285208
 21
4.5428971373
 31
0.0
 11
3.8612223335
 21
4.5551466788
 31
0.0
 11
3.8532855521
 21
4.5676840089
 31
0.0
 11
3.8463747152
 21
4.5804037506
 31
0.0
 11
3.8405507755
 21
4.5931927146
 31
0.0
  0
SPLINE
  5
305
100
AcDbEntity
  8
0
100
AcDbSpline
 62
6
  6
CONTINUOUS
 70
0
 71
3
 72
13
 73
9
 74
7
 42
0.0000001
 43
0.0000001
 44
0.0000000001
 12
-0.0204697986
 22
0.0497558835
 32
0.0
 13
-0.0
 23
0.0538020501
 33
0.0
 40
0.0
 40
0.0
 40
0.0
 40
0.0
 40
0.2670499218
 40
0.396539923
 40
0.523182462
 40
0.6469030133
 40
0.7676462481
 40
1.0
 40
1.0
 40
1.0
 40
1.0
 10
3.8405507755
 20
4.5931927146
 30
0.0
 10
3.8387286228
 20
4.5976218162
 30
0.0
 10
3.8362781966
 20
4.604309584
 30
0.0
 10
3.8336367954
 20
4.6133153314
 30
0.0
 10
3.8320204714
 20
4.6199357471
 30
0.0
 10
3.8307567001
 20
4.6264732226
 30
0.0
 10
3.8295617521
 20
4.634942651
 30
0.0
 10
3.8291732742
 20
4.6412809032
 30
0.0
 10
3.8291732742
 20
4.6454479393
 30
0.0
 11
3.8405507755
 21
4.5931927146
 31
0.0
 11
3.835631511
 21
4.6066921764
 31
0.0
 11
3.8336743715
 21
4.6133784527
 31
0.0
 11
3.8320624708
 21
4.6199986722
 31
0.0
 11
3.8308028711
 21
4.6265348275
 31
0.0
 11
3.8298995055
 21
4.6329679435
 31
0.0
 11
3.8291732742
 21
4.6454479393
 31
0.0
  0
SPLINE
  5
306
100
AcDbEntity
  8
0
100
AcDbSpline
 62
7
  6
CONTINUOUS
 70
0
 71
3
 72
11
 73
7
 74
5
 42
0.0000001
 43
0.0000001
 44
0.0000000001
 12
0.0070877552
 22
0.0278976033
 32
0.0
 13
0.0138236773
 23
0.0252471482
 33
0.0
 40
0.0
 40
0.0
 40
0.0
 40
0.0
 40
0.2459588129
 40
0.4943102845
 40
0.7455160949
 40
1.0
 40
1.0
 40
1.0
 40
1.0
 10
3.832408511
 20
4.6180645753
 30
0.0
 10
3.8329896097
 20
4.6203517958
 30
0.0
 10
3.8343100048
 20
4.6249111639
 30
0.0
 10
3.8367411874
 20
4.631643244
 30
0.0
 10
3.8396244324
 20
4.6382835868
 30
0.0
 10
3.8418284967
 20
4.6426099123
 30
0.0
 10
3.8430011312
 20
4.6447515766
 30
0.0
 11
3.832408511
 21
4.6180645753
 31
0.0
 11
3.8343758063
 21
4.6248654008
 31
0.0
 11
3.8368013475
 21
4.631589843
 31
0.0
 11
3.8396786358
 21
4.6382233914
 31
0.0
 11
3.8430011312
 21
4.6447515766
 31
0.0
  0
SPLINE
  5
307
100
AcDbEntity
  8
0
100
AcDbSpline
 62
7
  6
CONTINUOUS
 70
0
 71
3
 72
11
 73
7
 74
5
 42
0.0000001
 43
0.0000001
 44
0.0000000001
 12
0.0138439537
 22
-0.0252684187
 32
0.0
 13
0.0070957682
 23
-0.0279248655
 33
0.0
 40
0.0
 40
0.0
 40
0.0
 40
0.0
 40
0.2544898258
 40
0.5056971325
 40
0.7540463648
 40
1.0
 40
1.0
 40
1.0
 40
1.0
 10
4.2253298876
 20
4.6447799304
 30
0.0
 10
4.2265042694
 20
4.6426364119
 30
0.0
 10
4.2287115735
 20
4.6383062746
 30
0.0
 10
4.2315989115
 20
4.6316598602
 30
0.0
 10
4.2340333374
 20
4.6249214955
 30
0.0
 10
4.2353553289
 20
4.620357781
 30
0.0
 10
4.2359370722
 20
4.6180683736
 30
0.0
 11
4.2253298876
 21
4.6447799304
 31
0.0
 11
4.2286572875
 21
4.6382459418
 31
0.0
 11
4.2315386506
 21
4.6316063386
 31
0.0
 11
4.2339674181
 21
4.624875632
 31
0.0
 11
4.2359370722
 21
4.6180683736
 31
0.0
  0
LINE
  5
308
100
AcDbEntity
  8
0
100
AcDbLine
 62
7
  6
CONTINUOUS
 10
3.5353528662
 20
4.3116887489
 11
3.5353321567
 21
4.3108689882
  0
LINE
  5
309
100
AcDbEntity
  8
0
100
AcDbLine
 62
7
  6
CONTINUOUS
 10
3.5354157059
 20
4.3245259028
 11
3.5353873068
 21
4.3175229222
  0
LINE
  5
30A
100
AcDbEntity
  8
0
100
AcDbLine
 62
7
  6
CONTINUOUS
 10
3.5353873068
 20
4.3175229222
 11
3.5353658925
 21
4.3132166745
  0
LINE
  5
30B
100
AcDbEntity
  8
0
100
AcDbLine
 62
7
  6
CONTINUOUS
 10
3.5353658925
 20
4.3132166745
 11
3.5353581032
 21
4.3118084343
  0
SPLINE
  5
30C
100
AcDbEntity
  8
0
100
AcDbSpline
 62
7
  6
CONTINUOUS
 70
0
 71
3
 72
8
 73
4
 74
2
 42
0.0000001
 43
0.0000001
 44
0.0000000001
 12
-0.0000004697
 22
-0.0000829202
 32
0.0
 13
-0.0000004697
 23
-0.0000829202
 33
0.0
 40
0.0
 40
0.0
 40
0.0
 40
0.0
 40
1.0
 40
1.0
 40
1.0
 40
1.0
 10
3.5353581032
 20
4.3118084343
 30
0.0
 10
3.5353579466
 20
4.3117807942
 30
0.0
 10
3.5353577901
 20
4.3117531542
 30
0.0
 10
3.5353576335
 20
4.3117255141
 30
0.0
 11
3.5353581032
 21
4.3118084343
 31
0.0
 11
3.5353576335
 21
4.3117255141
 31
0.0
  0
LINE
  5
30D
100
AcDbEntity
  8
0
100
AcDbLine
 62
7
  6
CONTINUOUS
 10
3.5353576335
 20
4.3117255141
 11
3.5353330863
 21
4.3076023506
  0
LINE
  5
30E
100
AcDbEntity
  8
0
100
AcDbLine
 62
7
  6
CONTINUOUS
 10
3.5342164055
 20
4.3001365095
 11
3.5340747542
 21
4.288569804
  0
LINE
  5
30F
100
AcDbEntity
  8
0
100
AcDbLine
 62
7
  6
CONTINUOUS
 10
3.5340747542
 20
4.288569804
 11
3.534048884
 21
4.2864540382
  0
LINE
  5
310
100
AcDbEntity
  8
0
100
AcDbLine
 62
7
  6
CONTINUOUS
 10
3.534048884
 20
4.2864540382
 11
3.5340229133
 21
4.2842953953
  0
LINE
  5
311
100
AcDbEntity
  8
0
100
AcDbLine
 62
7
  6
CONTINUOUS
 10
3.5340229133
 20
4.2842953953
 11
3.5339365178
 21
4.2766081196
  0
LINE
  5
312
100
AcDbEntity
  8
0
100
AcDbLine
 62
7
  6
CONTINUOUS
 10
3.5341274637
 20
4.2043540915
 11
3.5339397269
 21
4.2189090757
  0
LINE
  5
313
100
AcDbEntity
  8
0
100
AcDbLine
 62
7
  6
CONTINUOUS
 10
3.5339397269
 20
4.2189090757
 11
3.5338898281
 21
4.2233246439
  0
SPLINE
  5
314
100
AcDbEntity
  8
0
100
AcDbSpline
 62
9
  6
CONTINUOUS
 70
0
 71
3
 72
22
 73
18
 74
16
 42
0.0000001
 43
0.0000001
 44
0.0000000001
 12
-0.0
 22
0.1311293899
 32
0.0
 13
0.1142962185
 23
0.064275122
 33
0.0
 40
0.0
 40
0.0
 40
0.0
 40
0.0
 40
0.0565439291
 40
0.1132735395
 40
0.1703539735
 40
0.2279553502
 40
0.2862327207
 40
0.345327271
 40
0.4053647479
 40
0.4664550167
 40
0.5286883434
 40
0.5921379924
 40
0.7228199736
 40
0.7901619194
 40
0.8588201177
 40
0.9287766802
 40
1.0
 40
1.0
 40
1.0
 40
1.0
 10
3.8474953382
 20
4.6268269963
 30
0.0
 10
3.8474953382
 20
4.62929852
 30
0.0
 10
3.8476923968
 20
4.6342519225
 30
0.0
 10
3.8485775527
 20
4.6416526721
 30
0.0
 10
3.8500496604
 20
4.6490068432
 30
0.0
 10
3.8521040855
 20
4.6562900049
 30
0.0
 10
3.8547335941
 20
4.66347942
 30
0.0
 10
3.8579303238
 20
4.6705518804
 30
0.0
 10
3.8616831529
 20
4.6774854287
 30
0.0
 10
3.8659808031
 20
4.6842576818
 30
0.0
 10
3.8708089302
 20
4.6908483605
 30
0.0
 10
3.8780031082
 20
4.6994476015
 30
0.0
 10
3.886147043
 20
4.7075123298
 30
0.0
 10
3.8950989852
 20
4.7149844806
 30
0.0
 10
3.902319942
 20
4.7203684036
 30
0.0
 10
3.9099560174
 20
4.725456228
 30
0.0
 10
3.9152621107
 20
4.7286127813
 30
0.0
 10
3.9179756294
 20
4.7301387438
 30
0.0
 11
3.8474953382
 21
4.6268269963
 31
0.0
 11
3.8477896303
 21
4.6342357246
 31
0.0
 11
3.8486716516
 21
4.6416221687
 31
0.0
 11
3.8501386555
 21
4.648961921
 31
0.0
 11
3.8521862479
 21
4.6562323199
 31
0.0
 11
3.8548078572
 21
4.6634104418
 31
0.0
 11
3.8579955396
 21
4.670473457
 31
0.0
 11
3.8617390425
 21
4.6773991512
 31
0.0
 11
3.8660270047
 21
4.6841656252
 31
0.0
 11
3.8708456533
 21
4.6907516949
 31
0.0
 11
3.8761803739
 21
4.6971364462
 31
0.0
 11
3.8883286865
 21
4.7092223682
 31
0.0
 11
3.8951045763
 21
4.7148849819
 31
0.0
 11
3.9023196427
 21
4.7202700319
 31
0.0
 11
3.909951295
 21
4.7253600655
 31
0.0
 11
3.9179756294
 21
4.7301387438
 31
0.0
  0
SPLINE
  5
315
100
AcDbEntity
  8
0
100
AcDbSpline
 62
9
  6
CONTINUOUS
 70
0
 71
3
 72
22
 73
18
 74
16
 42
0.0000001
 43
0.0000001
 44
0.0000000001
 12
0.1142936755
 22
-0.0642740007
 32
0.0
 13
0.0
 23
-0.1311266236
 33
0.0
 40
0.0
 40
0.0
 40
0.0
 40
0.0
 40
0.0712245161
 40
0.141180308
 40
0.2098366194
 40
0.2771751552
 40
0.3431940845
 40
0.4079109669
 40
0.5335273895
 40
0.5946178233
 40
0.654656624
 40
0.7137525019
 40
0.7720319342
 40
0.8296362678
 40
0.886719937
 40
0.9434511193
 40
1.0
 40
1.0
 40
1.0
 40
1.0
 10
4.1503725546
 20
4.7301378842
 30
0.0
 10
4.1530860585
 20
4.7286119226
 30
0.0
 10
4.1583920025
 20
4.7254553768
 30
0.0
 10
4.1660278003
 20
4.720367414
 30
0.0
 10
4.1732482728
 20
4.7149842653
 30
0.0
 10
4.1800301533
 20
4.7093229352
 30
0.0
 10
4.1863520335
 20
4.7033999869
 30
0.0
 10
4.1940629991
 20
4.6952641518
 30
0.0
 10
4.200880698
 20
4.6865986906
 30
0.0
 10
4.206662532
 20
4.6774864637
 30
0.0
 10
4.2104159158
 20
4.670552951
 30
0.0
 10
4.2136123923
 20
4.6634804059
 30
0.0
 10
4.2162423082
 20
4.6562910001
 30
0.0
 10
4.2182966279
 20
4.6490075973
 30
0.0
 10
4.2197689207
 20
4.641653284
 30
0.0
 10
4.2206541625
 20
4.6342522684
 30
0.0
 10
4.2208512101
 20
4.6292986842
 30
0.0
 10
4.2208512101
 20
4.6268269963
 30
0.0
 11
4.1503725546
 21
4.7301378842
 31
0.0
 11
4.1583967996
 21
4.7253591342
 31
0.0
 11
4.1660281302
 21
4.7202691491
 31
0.0
 11
4.1732429025
 21
4.7148844363
 31
0.0
 11
4.1800181914
 21
4.7092220913
 31
0.0
 11
4.1863323438
 21
4.7032999004
 31
0.0
 11
4.1921659618
 21
4.6971368735
 31
0.0
 11
4.2023190557
 21
4.6841665157
 31
0.0
 11
4.2066068738
 21
4.6774001248
 31
0.0
 11
4.2103505598
 21
4.670474521
 31
0.0
 11
4.2135382228
 21
4.6634114855
 31
0.0
 11
4.2161600443
 21
4.6562333249
 31
0.0
 11
4.2182076783
 21
4.6489627005
 31
0.0
 11
4.2196748156
 21
4.6416227032
 31
0.0
 11
4.2205569003
 21
4.6342362171
 31
0.0
 11
4.2208512101
 21
4.6268269963
 31
0.0
  0
SPLINE
  5
316
100
AcDbEntity
  8
0
100
AcDbSpline
 62
9
  6
CONTINUOUS
 70
0
 71
3
 72
29
 73
25
 74
23
 42
0.0000001
 43
0.0000001
 44
0.0000000001
 12
-0.2323587498
 22
-0.1490376347
 32
0.0
 13
-0.2327855924
 23
0.1483700548
 33
0.0
 40
0.0
 40
0.0
 40
0.0
 40
0.0
 40
0.058228834
 40
0.1180464609
 40
0.1485124197
 40
0.1793168876
 40
0.210435832
 40
0.2418437336
 40
0.2735124544
 40
0.3054124258
 40
0.3697747332
 40
0.4346839909
 40
0.4998727381
 40
0.5650661825
 40
0.629989523
 40
0.6943750024
 40
0.7262897995
 40
0.757975289
 40
0.789401708
 40
0.8205407586
 40
0.8513667306
 40
0.8818553434
 40
0.9417209825
 40
1.0
 40
1.0
 40
1.0
 40
1.0
 10
4.1658607834
 20
4.5085066392
 30
0.0
 10
4.1613507903
 20
4.5056138766
 30
0.0
 10
4.1519546504
 20
4.5001362103
 30
0.0
 10
4.1396293088
 20
4.4942023486
 30
0.0
 10
4.129332602
 20
4.4899396382
 30
0.0
 10
4.1213617556
 20
4.4869779843
 30
0.0
 10
4.1132072616
 20
4.4842781902
 30
0.0
 10
4.1048859763
 20
4.4818465959
 30
0.0
 10
4.0964156468
 20
4.479687494
 30
0.0
 10
4.0849142116
 20
4.477170558
 30
0.0
 10
4.0702724726
 20
4.4747379506
 30
0.0
 10
4.0524537202
 20
4.4729729202
 30
0.0
 10
4.0344811278
 20
4.4723706252
 30
0.0
 10
4.0165059515
 20
4.4729330616
 30
0.0
 10
3.9986794535
 20
4.474658532
 30
0.0
 10
3.9840275027
 20
4.4770585974
 30
0.0
 10
3.9725153318
 20
4.4795498832
 30
0.0
 10
3.9640354664
 20
4.4816901343
 30
0.0
 10
3.9557034905
 20
4.4841032165
 30
0.0
 10
3.9475371837
 20
4.4867848406
 30
0.0
 10
3.9395534325
 20
4.4897286515
 30
0.0
 10
3.9292380572
 20
4.4939683363
 30
0.0
 10
3.916887117
 20
4.4998744536
 30
0.0
 10
3.9074678705
 20
4.5053302576
 30
0.0
 10
3.9029456986
 20
4.5082125446
 30
0.0
 11
4.1658607834
 21
4.5085066392
 31
0.0
 11
4.1519835996
 21
4.5003951177
 31
0.0
 11
4.1371123915
 21
4.4932179232
 31
0.0
 11
4.1293426082
 21
4.4899992309
 31
0.0
 11
4.1213720769
 21
4.4870360175
 31
0.0
 11
4.1132175
 21
4.4843347566
 31
0.0
 11
4.1048958364
 21
4.4819015177
 31
0.0
 11
4.0964249098
 21
4.4797410093
 31
0.0
 11
4.087822726
 21
4.477857653
 31
0.0
 11
4.070296969
 21
4.4749390118
 31
0.0
 11
4.0524664485
 21
4.4731695228
 31
0.0
 11
4.0344813452
 21
4.472565021
 31
0.0
 11
4.0164936453
 21
4.4731295459
 31
0.0
 11
3.9986553286
 21
4.4748593841
 31
0.0
 11
3.9811166479
 21
4.4777390792
 31
0.0
 11
3.9725061114
 21
4.4796033091
 31
0.0
 11
3.9640256249
 21
4.4817449669
 31
0.0
 11
3.9556932456
 21
4.4841596834
 31
0.0
 11
3.9475268265
 21
4.4868427642
 31
0.0
 11
3.9395433603
 21
4.4897881441
 31
0.0
 11
3.9317596133
 21
4.4929893969
 31
0.0
 11
3.916857513
 21
4.5001329422
 31
0.0
 11
3.9029456986
 21
4.5082125446
 31
0.0
  0
SPLINE
  5
317
100
AcDbEntity
  8
0
100
AcDbSpline
 62
9
  6
CONTINUOUS
 70
0
 71
3
 72
61
 73
57
 74
55
 42
0.0000001
 43
0.0000001
 44
0.0000000001
 12
0.0
 22
-0.5041801868
 32
0.0
 13
-0.0
 23
0.5041801868
 33
0.0
 40
0.0
 40
0.0
 40
0.0
 40
0.0
 40
0.0128459574
 40
0.0257248412
 40
0.0386646569
 40
0.0516953563
 40
0.0648451229
 40
0.0781396999
 40
0.0916028294
 40
0.1052558132
 40
0.1331919954
 40
0.1620782181
 40
0.1919852154
 40
0.2073361361
 40
0.2229480676
 40
0.2388178276
 40
0.254940237
 40
0.2713074517
 40
0.2879100049
 40
0.3217687297
 40
0.3564136824
 40
0.3739939479
 40
0.3917198275
 40
0.4095721948
 40
0.4275313566
 40
0.4455766888
 40
0.4636870733
 40
0.5000118217
 40
0.5363364313
 40
0.5544466884
 40
0.5724918517
 40
0.5904507928
 40
0.6083029106
 40
0.6260284725
 40
0.6436082625
 40
0.6782516582
 40
0.7121076931
 40
0.7287084374
 40
0.7450735148
 40
0.7611933521
 40
0.7770602447
 40
0.8080079381
 40
0.823093352
 40
0.8379188023
 40
0.8524887871
 40
0.8668106773
 40
0.8808949613
 40
0.8947546587
 40
0.9084058947
 40
0.9218673312
 40
0.9351604005
 40
0.9483088418
 40
0.9613385153
 40
0.9742771393
 40
0.9871546061
 40
1.0
 40
1.0
 40
1.0
 40
1.0
 10
4.2208512101
 20
4.6268269963
 30
0.0
 10
4.2208512101
 20
4.6246681039
 30
0.0
 10
4.2207009428
 20
4.6203432933
 30
0.0
 10
4.2200258713
 20
4.6138755294
 30
0.0
 10
4.2189023958
 20
4.6074386392
 30
0.0
 10
4.2173333891
 20
4.6010489307
 30
0.0
 10
4.2153227539
 20
4.5947216657
 30
0.0
 10
4.2128755194
 20
4.5884722321
 30
0.0
 10
4.2099973071
 20
4.5823156959
 30
0.0
 10
4.2055623898
 20
4.574190107
 30
0.0
 10
4.1989442679
 20
4.5643310828
 30
0.0
 10
4.1894824992
 20
4.5532073345
 30
0.0
 10
4.1804334409
 20
4.5446065527
 30
0.0
 10
4.1725177766
 20
4.5381216943
 30
0.0
 10
4.1661957425
 20
4.5334282517
 30
0.0
 10
4.1595560841
 20
4.5289601323
 30
0.0
 10
4.1526143074
 20
4.5247284405
 30
0.0
 10
4.1453876937
 20
4.5207424048
 30
0.0
 10
4.1353309065
 20
4.515736002
 30
0.0
 10
4.1221412923
 20
4.510160993
 30
0.0
 10
4.1084038003
 20
4.5055773684
 30
0.0
 10
4.0970595029
 20
4.5024851639
 30
0.0
 10
4.0883576651
 20
4.5004533319
 30
0.0
 10
4.0795256171
 20
4.4987257356
 30
0.0
 10
4.0705843569
 20
4.4973072119
 30
0.0
 10
4.0615554677
 20
4.4962002077
 30
0.0
 10
4.0494183386
 20
4.4951421097
 30
0.0
 10
4.0341612914
 20
4.4946146613
 30
0.0
 10
4.0189043134
 20
4.4951435102
 30
0.0
 10
4.0067673557
 20
4.496202723
 30
0.0
 10
3.9977386475
 20
4.49731049
 30
0.0
 10
3.9887976284
 20
4.498729856
 30
0.0
 10
3.9799658849
 20
4.5004583153
 30
0.0
 10
3.9712644
 20
4.5024908863
 30
0.0
 10
3.9599207807
 20
4.5055840787
 30
0.0
 10
3.9461845015
 20
4.5101688416
 30
0.0
 10
3.9329964064
 20
4.5157448024
 30
0.0
 10
3.9229411153
 20
4.5207517506
 30
0.0
 10
3.9157158584
 20
4.5247378459
 30
0.0
 10
3.9087754434
 20
4.5289697815
 30
0.0
 10
3.8999991391
 20
4.5348771021
 30
0.0
 10
3.8917730978
 20
4.5412763473
 30
0.0
 10
3.8841902216
 20
4.5481452127
 30
0.0
 10
3.8789113866
 20
4.5534432529
 30
0.0
 10
3.8740064373
 20
4.5589180833
 30
0.0
 10
3.8694872869
 20
4.5645569868
 30
0.0
 10
3.8653643201
 20
4.5703460036
 30
0.0
 10
3.8616480803
 20
4.5762717553
 30
0.0
 10
3.8583470583
 20
4.582319685
 30
0.0
 10
3.8554697195
 20
4.5884755363
 30
0.0
 10
3.853022787
 20
4.5947243105
 30
0.0
 10
3.8510125925
 20
4.601051026
 30
0.0
 10
3.8494438264
 20
4.6074401806
 30
0.0
 10
3.8483205821
 20
4.6138764884
 30
0.0
 10
3.8476455428
 20
4.6203437186
 30
0.0
 10
3.8474953382
 20
4.6246681986
 30
0.0
 10
3.8474953382
 20
4.6268269963
 30
0.0
 11
4.2208512101
 21
4.6268269963
 31
0.0
 11
4.2206266064
 21
4.6203542148
 31
0.0
 11
4.2199533192
 21
4.6138959376
 31
0.0
 11
4.2188328887
 21
4.6074688703
 31
0.0
 11
4.2172679431
 21
4.6010881582
 31
0.0
 11
4.2152622014
 21
4.5947689863
 31
0.0
 11
4.2128204531
 21
4.5885266927
 31
0.0
 11
4.2099484352
 21
4.5823763815
 31
0.0
 11
4.2066531906
 21
4.5763328052
 31
0.0
 11
4.1988248769
 21
4.5646237891
 31
0.0
 11
4.1894100479
 21
4.5535122165
 31
0.0
 11
4.1784989012
 21
4.5431050792
 31
0.0
 11
4.1725140482
 21
4.5381975943
 31
0.0
 11
4.1661958283
 21
4.53350331
 31
0.0
 11
4.1595592908
 21
4.529033873
 31
0.0
 11
4.1526201712
 21
4.5248003464
 31
0.0
 11
4.1453956737
 21
4.5208125452
 31
0.0
 11
4.1379031916
 21
4.5170801239
 31
0.0
 11
4.1221860878
 21
4.510417676
 31
0.0
 11
4.1056209997
 21
4.5048765226
 31
0.0
 11
4.0970698001
 21
4.5025439761
 31
0.0
 11
4.0883671228
 21
4.5005107416
 31
0.0
 11
4.0795338966
 21
4.4987819578
 31
0.0
 11
4.0705912478
 21
4.4973621749
 31
0.0
 11
4.0615608537
 21
4.4962542997
 31
0.0
 11
4.0524644873
 21
4.4954609535
 31
0.0
 11
4.0341612776
 21
4.4948260418
 31
0.0
 11
4.0158581964
 21
4.4954626353
 31
0.0
 11
4.0067619663
 21
4.4962568056
 31
0.0
 11
3.9977317549
 21
4.4973654699
 31
0.0
 11
3.988789351
 21
4.4987860858
 31
0.0
 11
3.9799564178
 21
4.5005157113
 31
0.0
 11
3.9712540846
 21
4.5025497145
 31
0.0
 11
3.9627033397
 21
4.5048830167
 31
0.0
 11
3.9461395532
 21
4.5104255864
 31
0.0
 11
3.9304243825
 21
4.5170891196
 31
0.0
 11
3.9229330904
 21
4.520821884
 31
0.0
 11
3.915709909
 21
4.5248098397
 31
0.0
 11
3.9087723482
 21
4.5290434312
 31
0.0
 11
3.9021374541
 21
4.5335127205
 31
0.0
 11
3.8898376865
 21
4.5431135537
 31
0.0
 11
3.884202885
 21
4.5482220467
 31
0.0
 11
3.8789295182
 21
4.5535194723
 31
0.0
 11
3.874030344
 21
4.558993073
 31
0.0
 11
3.8695172265
 21
4.564629731
 31
0.0
 11
3.8654006601
 21
4.5704157766
 31
0.0
 11
3.8616907324
 21
4.5763373958
 31
0.0
 11
3.8583960735
 21
4.5823802878
 31
0.0
 11
3.8555247091
 21
4.588529962
 31
0.0
 11
3.8530833797
 21
4.5947716032
 31
0.0
 11
3.8510780223
 21
4.6010901961
 31
0.0
 11
3.8495133265
 21
4.6074704369
 31
0.0
 11
3.8483930968
 21
4.6138969293
 31
0.0
 11
3.8477199001
 21
4.6203544976
 31
0.0
 11
3.8474953382
 21
4.6268269963
 31
0.0
  0
SPLINE
  5
318
100
AcDbEntity
  8
0
100
AcDbSpline
 62
6
  6
CONTINUOUS
 70
0
 71
3
 72
58
 73
54
 74
52
 42
0.0000001
 43
0.0000001
 44
0.0000000001
 12
-0.2674545766
 22
0.2891455792
 32
0.0
 13
-0.2674545766
 23
-0.2891455792
 33
0.0
 40
0.0
 40
0.0
 40
0.0
 40
0.0
 40
0.0187426142
 40
0.0370430152
 40
0.0549373621
 40
0.072458705
 40
0.0896368269
 40
0.1064991389
 40
0.1230768079
 40
0.1394011951
 40
0.1555009243
 40
0.1714017902
 40
0.187126734
 40
0.2026964436
 40
0.2334414504
 40
0.2637698226
 40
0.2937822127
 40
0.3235608488
 40
0.3383838397
 40
0.3531708649
 40
0.3826578342
 40
0.3973681407
 40
0.4120610831
 40
0.4267399414
 40
0.4414076604
 40
0.4560668566
 40
0.4707198408
 40
0.4853687611
 40
0.5000156989
 40
0.5146626718
 40
0.5293116399
 40
0.5439646219
 40
0.5586238144
 40
0.5732916017
 40
0.5879705595
 40
0.6173729354
 40
0.6321043715
 40
0.6468612287
 40
0.6764698397
 40
0.7062481193
 40
0.7362590332
 40
0.7665846402
 40
0.7973285552
 40
0.8286168072
 40
0.8606081865
 40
0.8769298737
 40
0.8935048326
 40
0.9103646935
 40
0.9275412971
 40
0.9450620885
 40
0.9629564946
 40
0.9812572016
 40
1.0
 40
1.0
 40
1.0
 40
1.0
 10
6.675166778
 20
5.5504485073
 30
0.0
 10
6.6734958453
 20
5.5522549553
 30
0.0
 10
6.6701208692
 20
5.5557589638
 30
0.0
 10
6.6649086274
 20
5.5607473709
 30
0.0
 10
6.6596199659
 20
5.5654157962
 30
0.0
 10
6.6542647712
 20
5.569777793
 30
0.0
 10
6.6488526396
 20
5.5738470755
 30
0.0
 10
6.6433924635
 20
5.5776382138
 30
0.0
 10
6.6378900657
 20
5.5811639997
 30
0.0
 10
6.6323500323
 20
5.5844374849
 30
0.0
 10
6.6267767225
 20
5.5874721037
 30
0.0
 10
6.6211744366
 20
5.5902811641
 30
0.0
 10
6.6155474848
 20
5.5928784068
 30
0.0
 10
6.6080488096
 20
5.5960616339
 30
0.0
 10
6.5986138477
 20
5.5995773696
 30
0.0
 10
6.5871908873
 20
5.603134395
 30
0.0
 10
6.5757307963
 20
5.6060945081
 30
0.0
 10
6.5661425881
 20
5.6081176052
 30
0.0
 10
6.5584680299
 20
5.6094974412
 30
0.0
 10
6.5508065727
 20
5.6107259014
 30
0.0
 10
6.5431277728
 20
5.6117438542
 30
0.0
 10
6.535440095
 20
5.6125705982
 30
0.0
 10
6.5296764551
 20
5.6130994898
 30
0.0
 10
6.5239110702
 20
5.6135404516
 30
0.0
 10
6.5181442665
 20
5.6138965135
 30
0.0
 10
6.5123764093
 20
5.6141707306
 30
0.0
 10
6.5066078084
 20
5.6143657886
 30
0.0
 10
6.5008386945
 20
5.614482134
 30
0.0
 10
6.4950693269
 20
5.6145204455
 30
0.0
 10
6.4892999624
 20
5.614481331
 30
0.0
 10
6.4835308336
 20
5.6143654486
 30
0.0
 10
6.4777622013
 20
5.6141710228
 30
0.0
 10
6.4719943609
 20
5.6138962648
 30
0.0
 10
6.4662275766
 20
5.6135393171
 30
0.0
 10
6.4585365645
 20
5.6129514126
 30
0.0
 10
6.450851205
 20
5.612188303
 30
0.0
 10
6.4431781384
 20
5.6112341844
 30
0.0
 10
6.4354957142
 20
5.6101450715
 30
0.0
 10
6.4258957773
 20
5.6085172678
 30
0.0
 10
6.4144086226
 20
5.6060910502
 30
0.0
 10
6.4029483607
 20
5.6031337595
 30
0.0
 10
6.3915269818
 20
5.5995734547
 30
0.0
 10
6.3801576199
 20
5.5953385378
 30
0.0
 10
6.3688621865
 20
5.5903394151
 30
0.0
 10
6.359591271
 20
5.5854963725
 30
0.0
 10
6.3522552392
 20
5.5811620621
 30
0.0
 10
6.3467534214
 20
5.5776371803
 30
0.0
 10
6.3412938561
 20
5.5738467206
 30
0.0
 10
6.335882188
 20
5.5697778005
 30
0.0
 10
6.3305272148
 20
5.5654159514
 30
0.0
 10
6.3252386009
 20
5.5607475085
 30
0.0
 10
6.3200263277
 20
5.5557590305
 30
0.0
 10
6.3166513099
 20
5.552254973
 30
0.0
 10
6.3149803608
 20
5.5504485073
 30
0.0
 11
6.675166778
 21
5.5504485073
 31
0.0
 11
6.6700448615
 21
5.555764841
 31
0.0
 11
6.6648369799
 21
5.5607482249
 31
0.0
 11
6.6595528086
 21
5.5654123031
 31
0.0
 11
6.6542020232
 21
5.5697707198
 31
0.0
 11
6.6487942995
 21
5.5738371195
 31
0.0
 11
6.6433388096
 21
5.577625119
 31
0.0
 11
6.6378412729
 21
5.581148148
 31
0.0
 11
6.63230596
 21
5.5844195577
 31
0.0
 11
6.6267371366
 21
5.5874526988
 31
0.0
 11
6.6211390684
 21
5.5902609223
 31
0.0
 11
6.6155159973
 21
5.5928575403
 31
0.0
 11
6.609871343
 21
5.5952545331
 31
0.0
 11
6.5985268641
 21
5.5994909233
 31
0.0
 11
6.5871244804
 21
5.6030521508
 31
0.0
 11
6.5756809069
 21
5.6060158283
 31
0.0
 11
6.5642063736
 21
5.6084459698
 31
0.0
 11
6.5584602946
 21
5.6094801203
 31
0.0
 11
6.5527096291
 21
5.6104029014
 31
0.0
 11
6.5411970335
 21
5.6119355379
 31
0.0
 11
6.5354363173
 21
5.6125558223
 31
0.0
 11
6.5296733931
 21
5.613085069
 31
0.0
 11
6.5239086381
 21
5.6135264543
 31
0.0
 11
6.5181424083
 21
5.6138829654
 31
0.0
 11
6.5123750594
 21
5.6141575879
 31
0.0
 11
6.5066069214
 21
5.6143526921
 31
0.0
 11
6.5008382604
 21
5.6144691342
 31
0.0
 11
6.4950693331
 21
5.6145075417
 31
0.0
 11
6.4893003959
 21
5.6144685422
 31
0.0
 11
6.4835317104
 21
5.61435238
 31
0.0
 11
6.4777635594
 21
5.6141576846
 31
0.0
 11
6.4719962312
 21
5.61388266
 31
0.0
 11
6.4662300139
 21
5.6135255103
 31
0.0
 11
6.4604652107
 21
5.6130842416
 31
0.0
 11
6.4489415545
 21
5.6119347471
 31
0.0
 11
6.4431836316
 21
5.6112182015
 31
0.0
 11
6.4374289495
 21
5.6104014742
 31
0.0
 11
6.4259322499
 21
5.6084444538
 31
0.0
 11
6.4144581039
 21
5.6060131617
 31
0.0
 11
6.4030148804
 21
5.6030504522
 31
0.0
 11
6.3916140353
 21
5.5994879519
 31
0.0
 11
6.38026984
 21
5.5952520315
 31
0.0
 11
6.3690033892
 21
5.5902581053
 31
0.0
 11
6.357838509
 21
5.584416849
 31
0.0
 11
6.3523039721
 21
5.5811462164
 31
0.0
 11
6.3468071317
 21
5.5776240792
 31
0.0
 11
6.3413523096
 21
5.5738368107
 31
0.0
 11
6.3359450389
 21
5.5697708036
 31
0.0
 11
6.3305944347
 21
5.5654125084
 31
0.0
 11
6.3253102709
 21
5.5607483865
 31
0.0
 11
6.3201023216
 21
5.555764899
 31
0.0
 11
6.3149803608
 21
5.5504485073
 31
0.0
  0
SPLINE
  5
319
100
AcDbEntity
  8
0
100
AcDbSpline
 62
6
  6
CONTINUOUS
 70
0
 71
3
 72
33
 73
29
 74
27
 42
0.0000001
 43
0.0000001
 44
0.0000000001
 12
-0.6514928653
 22
0.3527151708
 32
0.0
 13
-0.6514928653
 23
-0.3527151708
 33
0.0
 40
0.0
 40
0.0
 40
0.0
 40
0.0
 40
0.0624972341
 40
0.124995493
 40
0.1874939234
 40
0.2499917691
 40
0.2812429802
 40
0.3124944102
 40
0.3437453154
 40
0.3749966107
 40
0.4062474108
 40
0.4374982305
 40
0.453123801
 40
0.4687492857
 40
0.4999998879
 40
0.5312505562
 40
0.5625014571
 40
0.5937521903
 40
0.6093776965
 40
0.6250034162
 40
0.640629241
 40
0.6562549654
 40
0.6875059114
 40
0.7500044864
 40
0.8125028175
 40
0.8750017234
 40
0.9375014419
 40
1.0
 40
1.0
 40
1.0
 40
1.0
 10
7.3977939436
 20
5.5504485073
 30
0.0
 10
7.3842217762
 20
5.5577964148
 30
0.0
 10
7.3560452898
 20
5.5706308903
 30
0.0
 10
7.3120198886
 20
5.5851708547
 30
0.0
 10
7.2669352816
 20
5.5959111625
 30
0.0
 10
7.2288654703
 20
5.6023343061
 30
0.0
 10
7.1982474622
 20
5.6062766203
 30
0.0
 10
7.1752202739
 20
5.6086994395
 30
0.0
 10
7.1521489502
 20
5.6106507053
 30
0.0
 10
7.1290458831
 20
5.6121753552
 30
0.0
 10
7.1059212129
 20
5.6133213165
 30
0.0
 10
7.0866384134
 20
5.613982259
 30
0.0
 10
7.0712078988
 20
5.6143471617
 30
0.0
 10
7.055775313
 20
5.6146072538
 30
0.0
 10
7.0364818445
 20
5.6147368597
 30
0.0
 10
7.0133297643
 20
5.6145803591
 30
0.0
 10
6.9901817749
 20
5.6141150606
 30
0.0
 10
6.9708989907
 20
5.6134534688
 30
0.0
 10
6.9554802402
 20
5.6127480378
 30
0.0
 10
6.9439205021
 20
5.6121283835
 30
0.0
 10
6.9323661995
 20
5.6114135283
 30
0.0
 10
6.916969481
 20
5.6103256951
 30
0.0
 10
6.890054378
 20
5.6080492354
 30
0.0
 10
6.8517100051
 20
5.6036189538
 30
0.0
 10
6.8060281736
 20
5.5959116966
 30
0.0
 10
6.7609424711
 20
5.585171414
 30
0.0
 10
6.7169164249
 20
5.570631227
 30
0.0
 10
6.6887392329
 20
5.5577965705
 30
0.0
 10
6.675166778
 20
5.5504485073
 30
0.0
 11
7.3977939436
 21
5.5504485073
 31
0.0
 11
7.3557521071
 21
5.5698454976
 31
0.0
 11
7.3118434185
 21
5.5845375574
 31
0.0
 11
7.2668353785
 21
5.5954057522
 31
0.0
 11
7.2211983587
 21
5.6032200744
 31
0.0
 11
7.198237032
 21
5.6061876108
 31
0.0
 11
7.1752127924
 21
5.6086208592
 31
0.0
 11
7.1521437298
 21
5.6105795974
 31
0.0
 11
7.129042157
 21
5.6121122476
 31
0.0
 11
7.1059187578
 21
5.613262512
 31
0.0
 11
7.0827804853
 21
5.6140598289
 31
0.0
 11
7.071207612
 21
5.6143340609
 31
0.0
 11
7.0596331985
 21
5.6145291979
 31
0.0
 11
7.0364818772
 21
5.6146848552
 31
0.0
 11
7.0133305089
 21
5.6145288936
 31
0.0
 11
6.9901831858
 21
5.6140602912
 31
0.0
 11
6.9670449961
 21
5.6132624343
 31
0.0
 11
6.9554810376
 21
5.6127329448
 31
0.0
 11
6.9439214429
 21
5.6121125187
 31
0.0
 11
6.9323672857
 21
5.6113966889
 31
0.0
 11
6.9208199016
 21
5.6105798919
 31
0.0
 11
6.8977508179
 21
5.6086210455
 31
0.0
 11
6.8517651154
 21
5.6032204521
 31
0.0
 11
6.8061277134
 21
5.5954062315
 31
0.0
 11
6.7611192833
 21
5.584538151
 31
0.0
 11
6.7172095433
 21
5.5698458258
 31
0.0
 11
6.675166778
 21
5.5504485073
 31
0.0
  0
SPLINE
  5
31A
100
AcDbEntity
  8
0
100
AcDbSpline
 62
6
  6
CONTINUOUS
 70
0
 71
3
 72
59
 73
55
 74
53
 42
0.0000001
 43
0.0000001
 44
0.0000000001
 12
-0.2674550245
 22
0.2891460635
 32
0.0
 13
-0.2674550245
 23
-0.2891460635
 33
0.0
 40
0.0
 40
0.0
 40
0.0
 40
0.0
 40
0.0187427289
 40
0.037043414
 40
0.0549378702
 40
0.0724588119
 40
0.0896356969
 40
0.1064958583
 40
0.1230709438
 40
0.1393926225
 40
0.1713837838
 40
0.2026718152
 40
0.233415561
 40
0.2637410556
 40
0.2937518042
 40
0.3086665219
 40
0.3235315816
 40
0.3531400382
 40
0.3678968207
 40
0.3826281838
 40
0.4120304139
 40
0.4267092985
 40
0.4413770133
 40
0.4560361343
 40
0.4706890453
 40
0.4853379419
 40
0.499984842
 40
0.5146317074
 40
0.5292805559
 40
0.5439334676
 40
0.5585925881
 40
0.5732602319
 40
0.5879390188
 40
0.6026318933
 40
0.6173421307
 40
0.6468289663
 40
0.6616159286
 40
0.6764388503
 40
0.7062173409
 40
0.7362296488
 40
0.7665578944
 40
0.7973027011
 40
0.8128723104
 40
0.8285971399
 40
0.8444978695
 40
0.8605975136
 40
0.8769219369
 40
0.8934998231
 40
0.9103625724
 40
0.9275410735
 40
0.9450626273
 40
0.9629570577
 40
0.9812574517
 40
1.0
 40
1.0
 40
1.0
 40
1.0
 10
7.7579803608
 20
5.5504485073
 30
0.0
 10
7.7563094151
 20
5.5522549693
 30
0.0
 10
7.7529344039
 20
5.5557590277
 30
0.0
 10
7.7477221351
 20
5.56074752
 30
0.0
 10
7.7424334994
 20
5.5654159915
 30
0.0
 10
7.7370784643
 20
5.5697778837
 30
0.0
 10
7.7316666869
 20
5.5738468379
 30
0.0
 10
7.7262070167
 20
5.5776373284
 30
0.0
 10
7.7207051556
 20
5.5811622635
 30
0.0
 10
7.7133691448
 20
5.5854966128
 30
0.0
 10
7.7040982229
 20
5.590339562
 30
0.0
 10
7.6928028367
 20
5.5953386213
 30
0.0
 10
7.681433507
 20
5.5995735662
 30
0.0
 10
7.670012214
 20
5.6031337273
 30
0.0
 10
7.660442036
 20
5.6056035019
 30
0.0
 10
7.6527792931
 20
5.6073101075
 30
0.0
 10
7.6451341335
 20
5.6088447645
 30
0.0
 10
7.6374648917
 20
5.6101450852
 30
0.0
 10
7.6297825314
 20
5.6112341878
 30
0.0
 10
7.6221094794
 20
5.6121882925
 30
0.0
 10
7.6144241505
 20
5.6129514112
 30
0.0
 10
7.6067331632
 20
5.6135393168
 30
0.0
 10
7.6009663975
 20
5.6138962583
 30
0.0
 10
7.5951985753
 20
5.6141710103
 30
0.0
 10
7.5894299615
 20
5.6143654336
 30
0.0
 10
7.5836608516
 20
5.6144813322
 30
0.0
 10
7.5778915059
 20
5.6145204518
 30
0.0
 10
7.5721221572
 20
5.6144821249
 30
0.0
 10
7.5663530624
 20
5.6143657678
 30
0.0
 10
7.5605844802
 20
5.614170729
 30
0.0
 10
7.5548166411
 20
5.6138965435
 30
0.0
 10
7.549049858
 20
5.6135404608
 30
0.0
 10
7.5432844933
 20
5.6130994798
 30
0.0
 10
7.5375208695
 20
5.6125706093
 30
0.0
 10
7.529833207
 20
5.6117439308
 30
0.0
 10
7.5221544362
 20
5.6107259197
 30
0.0
 10
7.5144929992
 20
5.6094974778
 30
0.0
 10
7.5068184473
 20
5.608117736
 30
0.0
 10
7.4972302799
 20
5.6060945484
 30
0.0
 10
7.4857702074
 20
5.6031344845
 30
0.0
 10
7.4743472496
 20
5.5995775535
 30
0.0
 10
7.4649123603
 20
5.596061735
 30
0.0
 10
7.4574137008
 20
5.5928785808
 30
0.0
 10
7.4517867193
 20
5.5902814869
 30
0.0
 10
7.4461844535
 20
5.5874724583
 30
0.0
 10
7.4406111699
 20
5.5844378197
 30
0.0
 10
7.4350711329
 20
5.5811642755
 30
0.0
 10
7.4295686679
 20
5.5776384079
 30
0.0
 10
7.4241083349
 20
5.5738472392
 30
0.0
 10
7.4186960538
 20
5.5697779113
 30
0.0
 10
7.4133407746
 20
5.5654158591
 30
0.0
 10
7.4080520818
 20
5.5607473941
 30
0.0
 10
7.4028398429
 20
5.5557589644
 30
0.0
 10
7.3994648732
 20
5.5522549519
 30
0.0
 10
7.3977939436
 20
5.5504485073
 30
0.0
 11
7.7579803608
 21
5.5504485073
 31
0.0
 11
7.752858415
 21
5.5557648927
 31
0.0
 11
7.7476504712
 21
5.5607483909
 31
0.0
 11
7.7423662878
 21
5.5654125383
 31
0.0
 11
7.7370156231
 21
5.5697708712
 31
0.0
 11
7.7316082354
 21
5.573836926
 31
0.0
 11
7.7261532923
 21
5.5776242472
 31
0.0
 11
7.7206564082
 21
5.581146429
 31
0.0
 11
7.7151218758
 21
5.5844170837
 31
0.0
 11
7.7039570272
 21
5.5902582607
 31
0.0
 11
7.6926906223
 21
5.5952521269
 31
0.0
 11
7.6813464706
 21
5.5994880317
 31
0.0
 11
7.6699456403
 21
5.6030504976
 31
0.0
 11
7.6585024641
 21
5.6060132094
 31
0.0
 11
7.6527686556
 21
5.6072913416
 31
0.0
 11
7.6470283532
 21
5.6084444638
 31
0.0
 11
7.6355316964
 21
5.6104014901
 31
0.0
 11
7.6297770324
 21
5.6112182044
 31
0.0
 11
7.6240191277
 21
5.6119347419
 31
0.0
 11
7.6124955099
 21
5.6130842399
 31
0.0
 11
7.6067307259
 21
5.6135255088
 31
0.0
 11
7.6009645273
 21
5.6138826536
 31
0.0
 11
7.5951972173
 21
5.6141576728
 31
0.0
 11
7.5894290847
 21
5.6143523681
 31
0.0
 11
7.5836604179
 21
5.6144685416
 31
0.0
 11
7.5778914998
 21
5.6145075447
 31
0.0
 11
7.5721225914
 21
5.6144691257
 31
0.0
 11
7.5663539491
 21
5.6143526764
 31
0.0
 11
7.5605858295
 21
5.6141575884
 31
0.0
 11
7.5548184998
 21
5.6138829867
 31
0.0
 11
7.5490522907
 21
5.6135264637
 31
0.0
 11
7.5432875552
 21
5.6130850657
 31
0.0
 11
7.5375246464
 21
5.612555838
 31
0.0
 11
7.5317639441
 21
5.6119355878
 31
0.0
 11
7.5202513848
 21
5.6104029308
 31
0.0
 11
7.5145007318
 21
5.6094801661
 31
0.0
 11
7.508754662
 21
5.608446063
 31
0.0
 11
7.4972801724
 21
5.6060158969
 31
0.0
 11
7.4858366051
 21
5.6030522456
 31
0.0
 11
7.4744342361
 21
5.5994910712
 31
0.0
 11
7.4630898263
 21
5.5952546634
 31
0.0
 11
7.4574451791
 21
5.5928577284
 31
0.0
 11
7.4518220937
 21
5.5902612242
 31
0.0
 11
7.4462240493
 21
5.5874530496
 31
0.0
 11
7.4406552577
 21
5.5844198979
 31
0.0
 11
7.435119945
 21
5.5811484388
 31
0.0
 11
7.4296223373
 21
5.5776253417
 31
0.0
 11
7.4241666704
 21
5.5738372756
 31
0.0
 11
7.4187587894
 21
5.5697708178
 31
0.0
 11
7.4134079217
 21
5.5654123524
 31
0.0
 11
7.4081237218
 21
5.560748239
 31
0.0
 11
7.4029158443
 21
5.5557648374
 31
0.0
 11
7.3977939436
 21
5.5504485073
 31
0.0
  0
SPLINE
  5
31B
100
AcDbEntity
  8
0
100
AcDbSpline
 62
9
  6
CONTINUOUS
 70
0
 71
3
 72
49
 73
45
 74
43
 42
0.0000001
 43
0.0000001
 44
0.0000000001
 12
0.086330728
 22
-0.046935213
 32
0.0
 13
0.094641056
 23
0.0264382194
 33
0.0
 40
0.0
 40
0.0
 40
0.0
 40
0.0
 40
0.000003915
 40
0.0000156565
 40
0.0000352243
 40
0.0000626188
 40
0.0001408877
 40
0.0002504643
 40
0.0003913495
 40
0.0005635448
 40
0.0007670515
 40
0.0010018711
 40
0.0015654564
 40
0.0022543165
 40
0.0030684696
 40
0.0040079365
 40
0.0050727402
 40
0.0062629066
 40
0.0090194211
 40
0.012277493
 40
0.0160370119
 40
0.020297886
 40
0.0250600443
 40
0.0303234345
 40
0.0360878858
 40
0.0423530274
 40
0.0491184801
 40
0.0641488282
 40
0.0811756092
 40
0.1001936482
 40
0.1211973351
 40
0.1441800185
 40
0.1691334882
 40
0.1960492437
 40
0.2249171699
 40
0.2557262025
 40
0.3231193004
 40
0.3981207352
 40
0.4806069876
 40
0.5704400459
 40
0.6674677474
 40
0.7715231979
 40
0.8824325734
 40
1.0
 40
1.0
 40
1.0
 40
1.0
 10
6.527357148
 20
3.5072788689
 30
0.0
 10
6.5273572607
 20
3.5072788077
 30
0.0
 10
6.5273577476
 20
3.5072792751
 30
0.0
 10
6.5273587988
 20
3.5072794599
 30
0.0
 10
6.5273605808
 20
3.5072803477
 30
0.0
 10
6.5273643627
 20
3.5072818356
 30
0.0
 10
6.5273708768
 20
3.507284607
 30
0.0
 10
6.5273808239
 20
3.5072886933
 30
0.0
 10
6.5273936225
 20
3.5072939851
 30
0.0
 10
6.5274092726
 20
3.5073004131
 30
0.0
 10
6.5274277785
 20
3.5073079934
 30
0.0
 10
6.5274581637
 20
3.5073203912
 30
0.0
 10
6.5275033056
 20
3.5073387049
 30
0.0
 10
6.527566096
 20
3.5073639922
 30
0.0
 10
6.527640383
 20
3.5073936897
 30
0.0
 10
6.5277261915
 20
3.5074277388
 30
0.0
 10
6.5278235464
 20
3.5074660816
 30
0.0
 10
6.5279764317
 20
3.5075258433
 30
0.0
 10
6.5281965739
 20
3.5076108695
 30
0.0
 10
6.5284957738
 20
3.5077247799
 30
0.0
 10
6.5288416158
 20
3.5078546585
 30
0.0
 10
6.5292342172
 20
3.5080001464
 30
0.0
 10
6.5296736935
 20
3.5081608899
 30
0.0
 10
6.5301601588
 20
3.5083365246
 30
0.0
 10
6.530693701
 20
3.5085267239
 30
0.0
 10
6.531274369
 20
3.5087312352
 30
0.0
 10
6.5321424146
 20
3.5090333983
 30
0.0
 10
6.5333456341
 20
3.5094448911
 30
0.0
 10
6.5349321406
 20
3.5099757608
 30
0.0
 10
6.5367077136
 20
3.5105580821
 30
0.0
 10
6.5386722201
 20
3.5111902272
 30
0.0
 10
6.5408253434
 20
3.5118707958
 30
0.0
 10
6.5431665418
 20
3.5125987826
 30
0.0
 10
6.5456952091
 20
3.5133730104
 30
0.0
 10
6.5484105136
 20
3.5141927202
 30
0.0
 10
6.5523993377
 20
3.5153813765
 30
0.0
 10
6.5578443497
 20
3.5169745043
 30
0.0
 10
6.564924369
 20
3.5190068931
 30
0.0
 10
6.5727195582
 20
3.5212115799
 30
0.0
 10
6.5812156648
 20
3.5235888277
 30
0.0
 10
6.5903966368
 20
3.5261402846
 30
0.0
 10
6.6002448672
 20
3.5288689592
 30
0.0
 10
6.6107409687
 20
3.5317789974
 30
0.0
 10
6.6179505588
 20
3.5337859607
 30
0.0
 10
6.6216594606
 20
3.5348220519
 30
0.0
 11
6.527357148
 21
3.5072788689
 31
0.0
 11
6.527357503
 21
3.5072790174
 31
0.0
 11
6.5273585675
 21
3.5072794623
 31
0.0
 11
6.527360342
 21
3.5072802029
 31
0.0
 11
6.5273628268
 21
3.5072812382
 31
0.0
 11
6.5273699291
 21
3.5072841893
 31
0.0
 11
6.5273798776
 21
3.5072883084
 31
0.0
 11
6.5273926753
 21
3.5072935882
 31
0.0
 11
6.5274083253
 21
3.5073000214
 31
0.0
 11
6.5274268308
 21
3.5073076007
 31
0.0
 11
6.5274481949
 21
3.5073163188
 31
0.0
 11
6.5274995111
 21
3.5073371427
 31
0.0
 11
6.527562299
 21
3.5073624346
 31
0.0
 11
6.5276365834
 21
3.5073921366
 31
0.0
 11
6.5277223891
 21
3.5074261903
 31
0.0
 11
6.5278197412
 21
3.5074645376
 31
0.0
 11
6.5279286644
 21
3.5075071204
 31
0.0
 11
6.5281813199
 21
3.5076047646
 31
0.0
 11
6.5284805031
 21
3.5077187261
 31
0.0
 11
6.5288263302
 21
3.5078486492
 31
0.0
 11
6.5292189173
 21
3.5079941788
 31
0.0
 11
6.5296583801
 21
3.50815496
 31
0.0
 11
6.5301448341
 21
3.5083306384
 31
0.0
 11
6.5306783682
 21
3.5085208924
 31
0.0
 11
6.5312590312
 21
3.5087254508
 31
0.0
 11
6.5318868687
 21
3.5089440466
 31
0.0
 11
6.5332842483
 21
3.5094222827
 31
0.0
 11
6.5348707843
 21
3.5099535645
 31
0.0
 11
6.5366464235
 21
3.51053624
 31
0.0
 11
6.5386110302
 21
3.5111687522
 31
0.0
 11
6.5407642969
 21
3.5118497291
 31
0.0
 11
6.5431056703
 21
3.5125780628
 31
0.0
 11
6.5456345539
 21
3.5133526899
 31
0.0
 11
6.5483501145
 21
3.5141727822
 31
0.0
 11
6.5512513842
 21
3.5150376458
 31
0.0
 11
6.5576066449
 21
3.5168994072
 31
0.0
 11
6.5646899753
 21
3.5189348424
 31
0.0
 11
6.5724889771
 21
3.5211426013
 31
0.0
 11
6.5809893898
 21
3.5235229291
 31
0.0
 11
6.5901751667
 21
3.5260775033
 31
0.0
 11
6.6000284466
 21
3.5288092762
 31
0.0
 11
6.6105303208
 21
3.5317225061
 31
0.0
 11
6.6216594606
 21
3.5348220519
 31
0.0
  0
SPLINE
  5
31C
100
AcDbEntity
  8
0
100
AcDbSpline
 62
9
  6
CONTINUOUS
 70
0
 71
3
 72
61
 73
57
 74
55
 42
0.0000001
 43
0.0000001
 44
0.0000000001
 12
0.1752024456
 22
0.8402750829
 32
0.0
 13
0.4827665624
 23
0.7097144212
 33
0.0
 40
0.0
 40
0.0
 40
0.0
 40
0.0
 40
0.0000017486
 40
0.0000068397
 40
0.0000152717
 40
0.0000270427
 40
0.0000421509
 40
0.0000605943
 40
0.0001074796
 40
0.0001676837
 40
0.0002411917
 40
0.0003279887
 40
0.0004280598
 40
0.00054139
 40
0.0006679645
 40
0.0009607867
 40
0.001306407
 40
0.0017047063
 40
0.0021555652
 40
0.0026588645
 40
0.003214485
 40
0.0038223073
 40
0.0051940805
 40
0.00677323
 40
0.0085587983
 40
0.0105493338
 40
0.0127423815
 40
0.0151353647
 40
0.0177257071
 40
0.0205108322
 40
0.0266551251
 40
0.0335476332
 40
0.0411668142
 40
0.0494877886
 40
0.0584849318
 40
0.0681326205
 40
0.0784052334
 40
0.0892775189
 40
0.1007251406
 40
0.1252496077
 40
0.1517854238
 40
0.1801545504
 40
0.2101996294
 40
0.2417651466
 40
0.2747114286
 40
0.3089204883
 40
0.344275899
 40
0.3806670184
 40
0.4180039307
 40
0.495174151
 40
0.575147437
 40
0.6573867443
 40
0.7414043576
 40
0.8267888905
 40
0.9131312336
 40
1.0
 40
1.0
 40
1.0
 40
1.0
 10
6.5128511592
 20
3.5393944368
 30
0.0
 10
6.5128512613
 20
3.5393949266
 30
0.0
 10
6.5128526882
 20
3.5393964296
 30
0.0
 10
6.5128546979
 20
3.539400243
 30
0.0
 10
6.5128588269
 20
3.5394062424
 30
0.0
 10
6.5128642294
 20
3.5394147578
 30
0.0
 10
6.512871317
 20
3.5394256258
 30
0.0
 10
6.5128838257
 20
3.5394449396
 30
0.0
 10
6.512903395
 20
3.5394750599
 30
0.0
 10
6.5129315401
 20
3.5395183925
 30
0.0
 10
6.5129659229
 20
3.5395712919
 30
0.0
 10
6.5130065282
 20
3.5396337506
 30
0.0
 10
6.5130533526
 20
3.5397057561
 30
0.0
 10
6.5131063887
 20
3.539787298
 30
0.0
 10
6.5131895039
 20
3.5399150639
 30
0.0
 10
6.5133088799
 20
3.5400985284
 30
0.0
 10
6.5134706833
 20
3.5403471399
 30
0.0
 10
6.5136571777
 20
3.5406336317
 30
0.0
 10
6.5138683109
 20
3.5409579154
 30
0.0
 10
6.5141040307
 20
3.541319903
 30
0.0
 10
6.514364285
 20
3.5417195063
 30
0.0
 10
6.514760188
 20
3.5423273008
 30
0.0
 10
6.5153160109
 20
3.5431804221
 30
0.0
 10
6.5160559156
 20
3.5443157907
 30
0.0
 10
6.5168926237
 20
3.5455993868
 30
0.0
 10
6.5178254195
 20
3.5470300154
 30
0.0
 10
6.5188533909
 20
3.5486060571
 30
0.0
 10
6.51997544
 20
3.5503256288
 30
0.0
 10
6.5211904535
 20
3.5521868163
 30
0.0
 10
6.5229928136
 20
3.5549463428
 30
0.0
 10
6.5254697091
 20
3.5587355092
 30
0.0
 10
6.5287060078
 20
3.5636806488
 30
0.0
 10
6.5322864634
 20
3.5691448512
 30
0.0
 10
6.5362005209
 20
3.5751103853
 30
0.0
 10
6.5404369904
 20
3.5815585387
 30
0.0
 10
6.5449845603
 20
3.5884704239
 30
0.0
 10
6.5498319935
 20
3.5958272307
 30
0.0
 10
6.5549681883
 20
3.6036104993
 30
0.0
 10
6.5623578763
 20
3.6147921879
 30
0.0
 10
6.5722336857
 20
3.6297026868
 30
0.0
 10
6.5848082127
 20
3.6486328625
 30
0.0
 10
6.5982828558
 20
3.6688613577
 30
0.0
 10
6.6125802387
 20
3.6902709039
 30
0.0
 10
6.6276297779
 20
3.7127529005
 30
0.0
 10
6.643366019
 20
3.736208868
 30
0.0
 10
6.6597281183
 20
3.7605507071
 30
0.0
 10
6.6766601694
 20
3.7856970156
 30
0.0
 10
6.6941106363
 20
3.8115731359
 30
0.0
 10
6.7182727132
 20
3.8473532335
 30
0.0
 10
6.7494508585
 20
3.8934418565
 30
0.0
 10
6.787872793
 20
3.9501409493
 30
0.0
 10
6.8274274437
 20
4.0084390429
 30
0.0
 10
6.8678753481
 20
4.0680020342
 30
0.0
 10
6.9090027905
 20
4.1285225971
 30
0.0
 10
6.9506042323
 20
4.1897073385
 30
0.0
 10
6.9784761549
 20
4.2306852263
 30
0.0
 10
6.9924552668
 20
4.2512358984
 30
0.0
 11
6.5128511592
 21
3.5393944368
 31
0.0
 11
6.5128519564
 21
3.5393957084
 31
0.0
 11
6.5128543189
 21
3.5393993848
 31
0.0
 11
6.5128582458
 21
3.5394054644
 31
0.0
 11
6.5128637362
 21
3.539413946
 31
0.0
 11
6.5128707895
 21
3.5394248282
 31
0.0
 11
6.5128794047
 21
3.5394381095
 31
0.0
 11
6.5129013178
 21
3.5394718642
 31
0.0
 11
6.5129294689
 21
3.5395151992
 31
0.0
 11
6.5129638516
 21
3.5395681033
 31
0.0
 11
6.5130044593
 21
3.5396305657
 31
0.0
 11
6.5130512855
 21
3.5397025751
 31
0.0
 11
6.5131043236
 21
3.5397841207
 31
0.0
 11
6.5131635672
 21
3.5398751915
 31
0.0
 11
6.5133006445
 21
3.5400858642
 31
0.0
 11
6.5134624653
 21
3.5403345052
 31
0.0
 11
6.5136489772
 21
3.5406210262
 31
0.0
 11
6.5138601282
 21
3.5409453391
 31
0.0
 11
6.5140958659
 21
3.5413073558
 31
0.0
 11
6.5143561381
 21
3.5417069881
 31
0.0
 11
6.5146408927
 21
3.5421441478
 31
0.0
 11
6.5152836401
 21
3.5431306968
 31
0.0
 11
6.5160236902
 21
3.5442662977
 31
0.0
 11
6.5168606238
 21
3.5455502425
 31
0.0
 11
6.5177938098
 21
3.5469814553
 31
0.0
 11
6.5188221865
 21
3.5485581127
 31
0.0
 11
6.5199446402
 21
3.5502783007
 31
0.0
 11
6.5211600569
 21
3.5521401052
 31
0.0
 11
6.5224673228
 21
3.5541416123
 31
0.0
 11
6.5253529474
 21
3.5585560783
 31
0.0
 11
6.5285926033
 21
3.5635063866
 31
0.0
 11
6.5321769342
 21
3.5689765598
 31
0.0
 11
6.536094989
 21
3.5749482394
 31
0.0
 11
6.5403354601
 21
3.5814025351
 31
0.0
 11
6.5448870397
 21
3.5883205564
 31
0.0
 11
6.5497384206
 21
3.5956834135
 31
0.0
 11
6.554878378
 21
3.6034725408
 31
0.0
 11
6.5602958934
 21
3.6116701767
 31
0.0
 11
6.5719196495
 21
3.6292204212
 31
0.0
 11
6.5845219269
 21
3.6481933095
 31
0.0
 11
6.598020837
 21
3.6684597292
 31
0.0
 11
6.6123425009
 21
3.6899065584
 31
0.0
 11
6.6274137672
 21
3.7124220944
 31
0.0
 11
6.643168159
 21
3.735906531
 31
0.0
 11
6.659548338
 21
3.7602763506
 31
0.0
 11
6.6764976265
 21
3.7854492128
 31
0.0
 11
6.6939619944
 21
3.8113469854
 31
0.0
 11
6.7118968932
 21
3.8379066047
 31
0.0
 11
6.7490086496
 21
3.8927727242
 31
0.0
 11
6.7875144804
 21
3.9496005727
 31
0.0
 11
6.8271456525
 21
4.0080153743
 31
0.0
 11
6.8676588984
 21
4.06767627
 31
0.0
 11
6.9088513041
 21
4.1282942075
 31
0.0
 11
6.9505212026
 21
4.1895816569
 31
0.0
 11
6.9924552668
 21
4.2512358984
 31
0.0
  0
SPLINE
  5
31D
100
AcDbEntity
  8
0
100
AcDbSpline
 62
9
  6
CONTINUOUS
 70
0
 71
3
 72
49
 73
45
 74
43
 42
0.0000001
 43
0.0000001
 44
0.0000000001
 12
0.0864191581
 22
0.0467718084
 32
0.0
 13
0.094636857
 23
-0.026452567
 33
0.0
 40
0.0
 40
0.0
 40
0.0
 40
0.0
 40
0.0000039151
 40
0.0000156566
 40
0.0000352248
 40
0.0000626195
 40
0.0001408894
 40
0.0002504674
 40
0.0003913545
 40
0.000563552
 40
0.0007670615
 40
0.0010018844
 40
0.0015654777
 40
0.0022543479
 40
0.0030685134
 40
0.004007995
 40
0.005072816
 40
0.0062630021
 40
0.009019564
 40
0.0122776939
 40
0.0160372819
 40
0.0202982361
 40
0.0250604856
 40
0.0303239782
 40
0.0360885427
 40
0.0423538081
 40
0.0491193946
 40
0.0641500394
 40
0.0811771518
 40
0.1001955512
 40
0.1211996219
 40
0.1441827055
 40
0.1691365846
 40
0.1960527511
 40
0.2249210813
 40
0.2557305027
 40
0.3231242961
 40
0.3981262528
 40
0.4806127719
 40
0.5704457545
 40
0.6674729446
 40
0.7715273482
 40
0.882435031
 40
1.0
 40
1.0
 40
1.0
 40
1.0
 10
6.527357148
 20
4.9951929487
 30
0.0
 10
6.5273572608
 20
4.9951930098
 30
0.0
 10
6.5273577475
 20
4.9951925431
 30
0.0
 10
6.5273587991
 20
4.9951923581
 30
0.0
 10
6.5273605812
 20
4.9951914711
 30
0.0
 10
6.5273643637
 20
4.9951899841
 30
0.0
 10
6.5273708787
 20
4.9951872148
 30
0.0
 10
6.5273808271
 20
4.9951831313
 30
0.0
 10
6.5273936274
 20
4.9951778433
 30
0.0
 10
6.5274092796
 20
4.9951714198
 30
0.0
 10
6.5274277879
 20
4.9951638448
 30
0.0
 10
6.527458177
 20
4.9951514556
 30
0.0
 10
6.5275033248
 20
4.9951331546
 30
0.0
 10
6.5275661231
 20
4.9951078846
 30
0.0
 10
6.5276404193
 20
4.9950782072
 30
0.0
 10
6.5277262382
 20
4.9950441809
 30
0.0
 10
6.5278236047
 20
4.9950058635
 30
0.0
 10
6.5279765079
 20
4.9949461409
 30
0.0
 10
6.5281966751
 20
4.9948611695
 30
0.0
 10
6.5284959078
 20
4.9947473309
 30
0.0
 10
6.5288417863
 20
4.994617532
 30
0.0
 10
6.5292344276
 20
4.9944721314
 30
0.0
 10
6.5296739469
 20
4.994311482
 30
0.0
 10
6.530160458
 20
4.9941359475
 30
0.0
 10
6.5306940485
 20
4.9939458537
 30
0.0
 10
6.5312747671
 20
4.9937414527
 30
0.0
 10
6.5321428851
 20
4.993439448
 30
0.0
 10
6.5333461989
 20
4.993028161
 30
0.0
 10
6.5349328193
 20
4.99249754
 30
0.0
 10
6.536708509
 20
4.9919154729
 30
0.0
 10
6.538673133
 20
4.9912835831
 30
0.0
 10
6.5408263725
 20
4.9906032667
 30
0.0
 10
6.5431676842
 20
4.9898755251
 30
0.0
 10
6.5456964599
 20
4.9891015314
 30
0.0
 10
6.5484118661
 20
4.9882820405
 30
0.0
 10
6.5524008151
 20
4.98709366
 30
0.0
 10
6.5578459524
 20
4.9855008116
 30
0.0
 10
6.5649260651
 20
4.9834686226
 30
0.0
 10
6.5727212739
 20
4.9812639755
 30
0.0
 10
6.5812173081
 20
4.9788865695
 30
0.0
 10
6.5903980955
 20
4.976334715
 30
0.0
 10
6.600246006
 20
4.9736053559
 30
0.0
 10
6.6107416256
 20
4.9706942926
 30
0.0
 10
6.6179508009
 20
4.9686863975
 30
0.0
 10
6.6216594606
 20
4.9676497658
 30
0.0
 11
6.527357148
 21
4.9951929487
 31
0.0
 11
6.527357503
 21
4.9951928004
 31
0.0
 11
6.5273585677
 21
4.9951923558
 31
0.0
 11
6.5273603424
 21
4.9951916157
 31
0.0
 11
6.5273628276
 21
4.9951905811
 31
0.0
 11
6.5273699309
 21
4.9951876321
 31
0.0
 11
6.5273798807
 21
4.995183516
 31
0.0
 11
6.5273926801
 21
4.9951782399
 31
0.0
 11
6.5274083322
 21
4.9951718113
 31
0.0
 11
6.5274268401
 21
4.9951642373
 31
0.0
 11
6.5274482069
 21
4.9951555252
 31
0.0
 11
6.5274995298
 21
4.9951347157
 31
0.0
 11
6.5275623255
 21
4.995109441
 31
0.0
 11
6.5276366191
 21
4.9950797592
 31
0.0
 11
6.5277224353
 21
4.9950457283
 31
0.0
 11
6.527819799
 21
4.9950074064
 31
0.0
 11
6.5279287349
 21
4.9949648516
 31
0.0
 11
6.5281814192
 21
4.9948672703
 31
0.0
 11
6.5284806351
 21
4.9947533806
 31
0.0
 11
6.5288264988
 21
4.9946235374
 31
0.0
 11
6.5292191259
 21
4.9944780951
 31
0.0
 11
6.5296586317
 21
4.994317408
 31
0.0
 11
6.5301451315
 21
4.9941418299
 31
0.0
 11
6.5306787139
 21
4.9939516815
 31
0.0
 11
6.5312594276
 21
4.9937472335
 31
0.0
 11
6.5318873175
 21
4.9935287523
 31
0.0
 11
6.533284807
 21
4.9930507558
 31
0.0
 11
6.5348714575
 21
4.9925197231
 31
0.0
 11
6.5366472138
 21
4.9919373023
 31
0.0
 11
6.5386119384
 21
4.9913050458
 31
0.0
 11
6.5407653219
 21
4.9906243216
 31
0.0
 11
6.543106809
 21
4.9898962335
 31
0.0
 11
6.5456358016
 21
4.9891218409
 31
0.0
 11
6.5483514644
 21
4.988301968
 31
0.0
 11
6.5512528277
 21
4.9874373046
 31
0.0
 11
6.5576082426
 21
4.9855758703
 31
0.0
 11
6.56469167
 21
4.9835406367
 31
0.0
 11
6.572490695
 21
4.9813329187
 31
0.0
 11
6.5809910387
 21
4.9789524333
 31
0.0
 11
6.5901766343
 21
4.9763974609
 31
0.0
 11
6.6000295975
 21
4.9736650019
 31
0.0
 11
6.6105309928
 21
4.9707507438
 31
0.0
 11
6.6216594606
 21
4.9676497658
 31
0.0
  0
SPLINE
  5
31E
100
AcDbEntity
  8
0
100
AcDbSpline
 62
9
  6
CONTINUOUS
 70
0
 71
3
 72
67
 73
63
 74
61
 42
0.0000001
 43
0.0000001
 44
0.0000000001
 12
0.8591288362
 22
0.1157116946
 32
0.0
 13
0.5822802021
 23
0.6422159467
 33
0.0
 40
0.0
 40
0.0
 40
0.0
 40
0.0
 40
0.0000017699
 40
0.0000039083
 40
0.0000068823
 40
0.0000153364
 40
0.0000271303
 40
0.0000422625
 40
0.0000607311
 40
0.0000825345
 40
0.0001076708
 40
0.0001679353
 40
0.0002415106
 40
0.0003283826
 40
0.0004285371
 40
0.0005419603
 40
0.0006686378
 40
0.0009616999
 40
0.0013076108
 40
0.0017062577
 40
0.002157528
 40
0.0026613089
 40
0.0032174878
 40
0.0038259519
 40
0.0051992852
 40
0.0067804072
 40
0.0085684158
 40
0.0105620356
 40
0.0127589449
 40
0.0151566396
 40
0.0177526161
 40
0.0205443704
 40
0.023529399
 40
0.0267051982
 40
0.0336190942
 40
0.0412652869
 40
0.0496193554
 40
0.0586557629
 40
0.0683489737
 40
0.0786734546
 40
0.0896038085
 40
0.1011151432
 40
0.1131826863
 40
0.1257816672
 40
0.1524750368
 40
0.1810099359
 40
0.2112222944
 40
0.2429502917
 40
0.276046658
 40
0.3103885545
 40
0.3458554902
 40
0.3823322138
 40
0.4197263718
 40
0.4579518693
 40
0.4969227159
 40
0.5365609306
 40
0.5768018864
 40
0.6588386358
 40
0.7425623364
 40
0.8275861645
 40
0.9135300982
 40
1.0
 40
1.0
 40
1.0
 40
1.0
 10
6.4002472593
 20
3.6182590384
 30
0.0
 10
6.4002477661
 20
3.6182591066
 30
0.0
 10
6.4002483942
 20
3.6182603043
 30
0.0
 10
6.4002499085
 20
3.6182614872
 30
0.0
 10
6.4002526449
 20
3.6182643593
 30
0.0
 10
6.4002574391
 20
3.6182690071
 30
0.0
 10
6.400264651
 20
3.6182762764
 30
0.0
 10
6.4002739233
 20
3.6182855459
 30
0.0
 10
6.4002852192
 20
3.6182968943
 30
0.0
 10
6.4002985508
 20
3.6183102909
 30
0.0
 10
6.4003203896
 20
3.6183322618
 30
0.0
 10
6.4003527585
 20
3.6183648584
 30
0.0
 10
6.4003976777
 20
3.6184101334
 30
0.0
 10
6.400450699
 20
3.6184636071
 30
0.0
 10
6.4005118133
 20
3.6185252715
 30
0.0
 10
6.400581012
 20
3.6185951181
 30
0.0
 10
6.4006894268
 20
3.6187045799
 30
0.0
 10
6.4008450871
 20
3.6188618018
 30
0.0
 10
6.4010560042
 20
3.6190749067
 30
0.0
 10
6.4012990477
 20
3.6193205362
 30
0.0
 10
6.4015741476
 20
3.6195986225
 30
0.0
 10
6.4018812337
 20
3.6199090974
 30
0.0
 10
6.4022202358
 20
3.620251893
 30
0.0
 10
6.4027358844
 20
3.6207733821
 30
0.0
 10
6.4034597059
 20
3.6215055381
 30
0.0
 10
6.4044230599
 20
3.6224801783
 30
0.0
 10
6.405512321
 20
3.6235823886
 30
0.0
 10
6.4067265543
 20
3.624811265
 30
0.0
 10
6.4080644277
 20
3.6261656453
 30
0.0
 10
6.409524368
 20
3.6276441064
 30
0.0
 10
6.4111047622
 20
3.6292451905
 30
0.0
 10
6.412803998
 20
3.6309674392
 30
0.0
 10
6.4146204627
 20
3.6328093946
 30
0.0
 10
6.4172726103
 20
3.6355001463
 30
0.0
 10
6.4208687238
 20
3.6391516637
 30
0.0
 10
6.4255119986
 20
3.643872035
 30
0.0
 10
6.4305820374
 20
3.6490329294
 30
0.0
 10
6.4360627131
 20
3.654619605
 30
0.0
 10
6.4419376725
 20
3.6606170895
 30
0.0
 10
6.448190588
 20
3.6670104395
 30
0.0
 10
6.4548052638
 20
3.6737848401
 30
0.0
 10
6.4617657636
 20
3.6809255278
 30
0.0
 10
6.4690562687
 20
3.6884178749
 30
0.0
 10
6.4793966347
 20
3.6990637161
 30
0.0
 10
6.4930322566
 20
3.7131424504
 30
0.0
 10
6.5101740047
 20
3.7309107593
 30
0.0
 10
6.5282889171
 20
3.7497616243
 30
0.0
 10
6.5472770917
 20
3.769601282
 30
0.0
 10
6.5670479146
 20
3.7903435345
 30
0.0
 10
6.5875213835
 20
3.811908549
 30
0.0
 10
6.6086235052
 20
3.8342235396
 30
0.0
 10
6.6302863899
 20
3.8572220564
 30
0.0
 10
6.6524514114
 20
3.8808425701
 30
0.0
 10
6.6750658729
 20
3.9050295928
 30
0.0
 10
6.6980797284
 20
3.9297308482
 30
0.0
 10
6.7214478895
 20
3.9548979229
 30
0.0
 10
6.7532295173
 20
3.9892345639
 30
0.0
 10
6.7935668287
 20
4.0330104262
 30
0.0
 10
6.8425346988
 20
4.0864299276
 30
0.0
 10
6.8921470106
 20
4.140790036
 30
0.0
 10
6.9421954354
 20
4.1958262844
 30
0.0
 10
6.9756710025
 20
4.2327251255
 30
0.0
 10
6.9924542398
 20
4.2512359088
 30
0.0
 11
6.4002472593
 21
3.6182590384
 31
0.0
 11
6.4002483825
 21
3.6182600835
 31
0.0
 11
6.4002497083
 21
3.6182613792
 31
0.0
 11
6.4002515432
 21
3.6182631902
 31
0.0
 11
6.4002567403
 21
3.6182683574
 31
0.0
 11
6.4002639727
 21
3.618275584
 31
0.0
 11
6.4002732392
 21
3.6182848689
 31
0.0
 11
6.4002845388
 21
3.6182962111
 31
0.0
 11
6.4002978703
 21
3.6183096096
 31
0.0
 11
6.4003132328
 21
3.6183250632
 31
0.0
 11
6.4003500459
 21
3.6183621316
 31
0.0
 11
6.4003949695
 21
3.6184074079
 31
0.0
 11
6.4004479946
 21
3.6184608835
 31
0.0
 11
6.4005091126
 21
3.61852255
 31
0.0
 11
6.4005783148
 21
3.6185923988
 31
0.0
 11
6.4006555922
 21
3.6186704215
 31
0.0
 11
6.4008343381
 21
3.6188509542
 31
0.0
 11
6.4010452801
 21
3.6190640801
 31
0.0
 11
6.4012883483
 21
3.6193097312
 31
0.0
 11
6.4015634725
 21
3.6195878392
 31
0.0
 11
6.4018705825
 21
3.6198983362
 31
0.0
 11
6.4022096084
 21
3.620241154
 31
0.0
 11
6.40258048
 21
3.6206162246
 31
0.0
 11
6.4034174798
 21
3.6214628518
 31
0.0
 11
6.4043810213
 21
3.6224376732
 31
0.0
 11
6.4054705433
 21
3.6235401437
 31
0.0
 11
6.4066852396
 21
3.6247695058
 31
0.0
 11
6.408023617
 21
3.6261244053
 31
0.0
 11
6.4094840625
 21
3.6276033843
 31
0.0
 11
6.4110649632
 21
3.629204985
 31
0.0
 11
6.4127647063
 21
3.6309277495
 31
0.0
 11
6.414581679
 21
3.63277022
 31
0.0
 11
6.4165142683
 21
3.6347309385
 31
0.0
 11
6.4207198456
 21
3.6390012883
 31
0.0
 11
6.4253680692
 21
3.6437266897
 31
0.0
 11
6.4304432838
 21
3.6488928429
 31
0.0
 11
6.435929134
 21
3.6544847779
 31
0.0
 11
6.4418092644
 21
3.6604875242
 31
0.0
 11
6.4480673194
 21
3.6668861114
 31
0.0
 11
6.4546870438
 21
3.673665634
 31
0.0
 11
6.4616525581
 21
3.6808114284
 31
0.0
 11
6.4689480708
 21
3.688308888
 31
0.0
 11
6.4765577902
 21
3.696143406
 31
0.0
 11
6.4926567949
 21
3.7127652837
 31
0.0
 11
6.509831804
 21
3.7305673594
 31
0.0
 11
6.5279792491
 21
3.7494517885
 31
0.0
 11
6.5469970501
 21
3.7693219698
 31
0.0
 11
6.566792839
 21
3.7900894357
 31
0.0
 11
6.5872905761
 21
3.811679393
 31
0.0
 11
6.6084157859
 21
3.8340183588
 31
0.0
 11
6.6300974843
 21
3.8570357885
 31
0.0
 11
6.6522799727
 21
3.8806740027
 31
0.0
 11
6.6749117354
 21
3.9048788423
 31
0.0
 11
6.697941331
 21
3.9295962078
 31
0.0
 11
6.7213228066
 21
3.9547763817
 31
0.0
 11
6.7450193639
 21
3.9803769559
 31
0.0
 11
6.7932140968
 21
4.0326725305
 31
0.0
 11
6.8422615151
 21
4.0861706574
 31
0.0
 11
6.8919515473
 21
4.140608436
 31
0.0
 11
6.9420824017
 21
4.1957236282
 31
0.0
 11
6.9924542398
 21
4.2512359088
 31
0.0
  0
SPLINE
  5
31F
100
AcDbEntity
  8
0
100
AcDbSpline
 62
6
  6
CONTINUOUS
 70
0
 71
3
 72
55
 73
51
 74
49
 42
0.0000001
 43
0.0000001
 44
0.0000000001
 12
0.2674561626
 22
-0.2891472939
 32
0.0
 13
0.2674561626
 23
0.2891472939
 33
0.0
 40
0.0
 40
0.0
 40
0.0
 40
0.0
 40
0.0187422668
 40
0.0370424715
 40
0.0549365779
 40
0.0724574489
 40
0.0896346902
 40
0.1064955951
 40
0.1230714775
 40
0.139393902
 40
0.1554916619
 40
0.1713906884
 40
0.2026789886
 40
0.2181119479
 40
0.2334260622
 40
0.2486361615
 40
0.2637552848
 40
0.2937662855
 40
0.3235444776
 40
0.3531527511
 40
0.3826395856
 40
0.4120417364
 40
0.4413871569
 40
0.4560461606
 40
0.4706989642
 40
0.4999936928
 40
0.529288465
 40
0.5585994592
 40
0.5879447826
 40
0.6026375239
 40
0.6173475781
 40
0.6468340182
 40
0.6616208007
 40
0.6764435152
 40
0.7062215858
 40
0.7362337215
 40
0.7665617245
 40
0.797306301
 40
0.8128759527
 40
0.8286009699
 40
0.844501941
 40
0.8606017558
 40
0.8769261588
 40
0.8935037174
 40
0.910365733
 40
0.9275434205
 40
0.9450642573
 40
0.9629580575
 40
0.9812579059
 40
1.0
 40
1.0
 40
1.0
 40
1.0
 10
6.3149803608
 20
2.9520233104
 30
0.0
 10
6.3166512724
 20
2.9502168852
 30
0.0
 10
6.3200262099
 20
2.946712899
 30
0.0
 10
6.325238376
 20
2.9417245003
 30
0.0
 10
6.3305269455
 20
2.9370560876
 30
0.0
 10
6.3358819953
 20
2.9326941787
 30
0.0
 10
6.3412938951
 20
2.9286251213
 30
0.0
 10
6.346753761
 20
2.9248344048
 30
0.0
 10
6.3522557474
 20
2.9213091518
 30
0.0
 10
6.3577952265
 20
2.9180361662
 30
0.0
 10
6.3633679421
 20
2.9150018375
 30
0.0
 10
6.3707962029
 20
2.9112765736
 30
0.0
 10
6.3783201881
 20
2.9079466435
 30
0.0
 10
6.3859102266
 20
2.9049899881
 30
0.0
 10
6.391593794
 20
2.9029616028
 30
0.0
 10
6.3972912974
 20
2.9011019249
 30
0.0
 10
6.4048840943
 20
2.8988386755
 30
0.0
 10
6.4144105954
 20
2.8963789487
 30
0.0
 10
6.4258982195
 20
2.8939552074
 30
0.0
 10
6.4374048235
 20
2.8920019242
 30
0.0
 10
6.448925481
 20
2.8904757537
 30
0.0
 10
6.4604549697
 20
2.8893293593
 30
0.0
 10
6.4700713775
 20
2.8886667616
 30
0.0
 10
6.4777641515
 20
2.8883014011
 30
0.0
 10
6.4854545476
 20
2.8880413567
 30
0.0
 10
6.4950711024
 20
2.8879118522
 30
0.0
 10
6.5066120527
 20
2.8880679603
 30
0.0
 10
6.5181513742
 20
2.8885338209
 30
0.0
 10
6.5277602051
 20
2.8891968069
 30
0.0
 10
6.5354414183
 20
2.8899013133
 30
0.0
 10
6.5431290608
 20
2.890727758
 30
0.0
 10
6.5508077013
 20
2.8917462176
 30
0.0
 10
6.5584690755
 20
2.8929745913
 30
0.0
 10
6.5661436116
 20
2.8943540211
 30
0.0
 10
6.5757316255
 20
2.8963776573
 30
0.0
 10
6.5871916312
 20
2.8993376907
 30
0.0
 10
6.5986146428
 20
2.9028943582
 30
0.0
 10
6.6080494235
 20
2.9064104428
 30
0.0
 10
6.6155480702
 20
2.90959371
 30
0.0
 10
6.6211751357
 20
2.9121908321
 30
0.0
 10
6.6267774955
 20
2.9149999085
 30
0.0
 10
6.6323508463
 20
2.9180345882
 30
0.0
 10
6.6378908716
 20
2.9213081608
 30
0.0
 10
6.6433932067
 20
2.9248340214
 30
0.0
 10
6.6488532643
 20
2.9286252054
 30
0.0
 10
6.6542652611
 20
2.9326944625
 30
0.0
 10
6.659620322
 20
2.9370563787
 30
0.0
 10
6.6649088562
 20
2.9417246926
 30
0.0
 10
6.6701209808
 20
2.9467129764
 30
0.0
 10
6.6734958818
 20
2.9502169018
 30
0.0
 10
6.675166778
 20
2.9520233104
 30
0.0
 11
6.3149803608
 21
2.9520233104
 31
0.0
 11
6.3201022001
 21
2.9467070315
 31
0.0
 11
6.3253100272
 21
2.9417236407
 31
0.0
 11
6.3305941288
 21
2.9370595635
 31
0.0
 11
6.3359447916
 21
2.9327012259
 31
0.0
 11
6.3413523023
 21
2.9286350533
 31
0.0
 11
6.3468074603
 21
2.9248474785
 31
0.0
 11
6.3523045475
 21
2.9213249804
 31
0.0
 11
6.3578392945
 21
2.9180540576
 31
0.0
 11
6.3634074365
 21
2.9150212085
 31
0.0
 11
6.3690047089
 21
2.9122129317
 31
0.0
 11
6.380271295
 21
2.9072190835
 31
0.0
 11
6.3859349985
 21
2.9050116247
 31
0.0
 11
6.3916155368
 21
2.9029830788
 31
0.0
 11
6.3973103309
 21
2.9011228985
 31
0.0
 11
6.4030170026
 21
2.8994209043
 31
0.0
 11
6.4144601638
 21
2.896457538
 31
0.0
 11
6.4259345595
 21
2.8940272551
 31
0.0
 11
6.4374310635
 21
2.8920694656
 31
0.0
 11
6.4489437089
 21
2.8905370843
 31
0.0
 11
6.4604672849
 21
2.8893869858
 31
0.0
 11
6.4719981833
 21
2.8885889456
 31
0.0
 11
6.4777654988
 21
2.8883144969
 31
0.0
 11
6.4835335989
 21
2.8881193639
 31
0.0
 11
6.4950710645
 21
2.8879637644
 31
0.0
 11
6.5066085457
 21
2.8881194885
 31
0.0
 11
6.5181439385
 21
2.8885884473
 31
0.0
 11
6.5296747634
 21
2.8893869971
 31
0.0
 11
6.5354376559
 21
2.8899160974
 31
0.0
 11
6.5411983245
 21
2.8905362168
 31
0.0
 11
6.5527107403
 21
2.8920691459
 31
0.0
 11
6.5584613526
 21
2.8929918734
 31
0.0
 11
6.5642073915
 21
2.894025828
 31
0.0
 11
6.5756817183
 21
2.8964562051
 31
0.0
 11
6.587125258
 21
2.899419893
 31
0.0
 11
6.5985276213
 21
2.9029809358
 31
0.0
 11
6.6098719241
 21
2.9072175183
 31
0.0
 11
6.6155165805
 21
2.9096145408
 31
0.0
 11
6.6211397539
 21
2.9122110938
 31
0.0
 11
6.6267379074
 21
2.9150193225
 31
0.0
 11
6.6323067779
 21
2.9180525263
 31
0.0
 11
6.637842091
 21
2.9213240228
 31
0.0
 11
6.6433395723
 21
2.9248471295
 31
0.0
 11
6.6487949434
 21
2.9286351644
 31
0.0
 11
6.654202525
 21
2.9327015351
 31
0.0
 11
6.6595531716
 21
2.9370598714
 31
0.0
 11
6.6648372107
 21
2.941723837
 31
0.0
 11
6.6700449703
 21
2.9467070955
 31
0.0
 11
6.675166778
 21
2.9520233104
 31
0.0
  0
SPLINE
  5
320
100
AcDbEntity
  8
0
100
AcDbSpline
 62
9
  6
CONTINUOUS
 70
0
 71
3
 72
74
 73
70
 74
68
 42
0.0000001
 43
0.0000001
 44
0.0000000001
 12
0.9659613983
 22
-0.2700034286
 32
0.0
 13
-0.7066766766
 23
0.7117523142
 33
0.0
 40
0.0
 40
0.0
 40
0.0
 40
0.0
 40
0.0260234281
 40
0.0547389881
 40
0.0859752863
 40
0.119540928
 40
0.1552255482
 40
0.1928017
 40
0.2320272921
 40
0.2726482902
 40
0.3144014366
 40
0.3570168233
 40
0.4002202263
 40
0.4437351641
 40
0.487284684
 40
0.5305929126
 40
0.5733864232
 40
0.6153955881
 40
0.6563565139
 40
0.6960130655
 40
0.7341185238
 40
0.7704369755
 40
0.8047444733
 40
0.8368300091
 40
0.8664963754
 40
0.8803647116
 40
0.8935609563
 40
0.9060646889
 40
0.9178565042
 40
0.9289180344
 40
0.9392319793
 40
0.9487821432
 40
0.9575534634
 40
0.9655320437
 40
0.9727051979
 40
0.9759861156
 40
0.9790614842
 40
0.9819300737
 40
0.9845907394
 40
0.987042415
 40
0.989284122
 40
0.9913149694
 40
0.9931341475
 40
0.9947409389
 40
0.9954644899
 40
0.9961347148
 40
0.9967515469
 40
0.9973149303
 40
0.9978248104
 40
0.998281137
 40
0.9986838705
 40
0.9990329726
 40
0.9993284101
 40
0.9994559981
 40
0.9995701627
 40
0.9996709017
 40
0.9997582129
 40
0.9998320941
 40
0.999892544
 40
0.9999177317
 40
0.9999395609
 40
0.9999580316
 40
0.9999731436
 40
0.9999848965
 40
0.9999932904
 40
0.9999962276
 40
0.9999983249
 40
0.9999995824
 40
1.0
 40
1.0
 40
1.0
 40
1.0
 10
6.6216594606
 20
4.9676497658
 30
0.0
 10
6.6300386696
 20
4.9653076275
 30
0.0
 10
6.6477214553
 20
4.960585546
 30
0.0
 10
6.6756343125
 20
4.9537167295
 30
0.0
 10
6.7061229883
 20
4.9467832491
 30
0.0
 10
6.7389971297
 20
4.9398523985
 30
0.0
 10
6.7740452691
 20
4.9329766337
 30
0.0
 10
6.8110371445
 20
4.9261953485
 30
0.0
 10
6.8497269284
 20
4.9195371805
 30
0.0
 10
6.8898564212
 20
4.9130225129
 30
0.0
 10
6.9311581555
 20
4.9066658675
 30
0.0
 10
6.9733582223
 20
4.9004780533
 30
0.0
 10
7.0161787699
 20
4.8944680093
 30
0.0
 10
7.0593401626
 20
4.8886443277
 30
0.0
 10
7.1025628224
 20
4.8830164432
 30
0.0
 10
7.1455688061
 20
4.8775955318
 30
0.0
 10
7.1880831849
 20
4.8723948915
 30
0.0
 10
7.2298355897
 20
4.8674305366
 30
0.0
 10
7.2705611688
 20
4.8627146954
 30
0.0
 10
7.3100024371
 20
4.8582552825
 30
0.0
 10
7.3479111902
 20
4.8540576978
 30
0.0
 10
7.384050031
 20
4.8501259799
 30
0.0
 10
7.4181936494
 20
4.8464639101
 30
0.0
 10
7.4501298901
 20
4.8430758575
 30
0.0
 10
7.4752730258
 20
4.8404292513
 30
0.0
 10
7.494136416
 20
4.8384513299
 30
0.0
 10
7.5072933983
 20
4.8370743954
 30
0.0
 10
7.5197600958
 20
4.8357714978
 30
0.0
 10
7.5315170784
 20
4.8345438959
 30
0.0
 10
7.5425459733
 20
4.8333929317
 30
0.0
 10
7.5528294937
 20
4.8323200128
 30
0.0
 10
7.5623514685
 20
4.8313265919
 30
0.0
 10
7.5710968725
 20
4.8304141374
 30
0.0
 10
7.5790518586
 20
4.8295841029
 30
0.0
 10
7.5851811576
 20
4.8289445888
 30
0.0
 10
7.5896800303
 20
4.8284752782
 30
0.0
 10
7.5927475355
 20
4.828155347
 30
0.0
 10
7.5956087998
 20
4.827857009
 30
0.0
 10
7.5982626803
 20
4.8275803967
 30
0.0
 10
7.6007081174
 20
4.8273256312
 30
0.0
 10
7.6029441356
 20
4.8270928201
 30
0.0
 10
7.6049698439
 20
4.8268820564
 30
0.0
 10
7.6067844376
 20
4.8266934181
 30
0.0
 10
7.6081643215
 20
4.8265501124
 30
0.0
 10
7.6091621412
 20
4.8264465771
 30
0.0
 10
7.6098307606
 20
4.8263772428
 30
0.0
 10
7.6104461212
 20
4.8263134734
 30
0.0
 10
7.6110081636
 20
4.8262552694
 30
0.0
 10
7.6115168337
 20
4.826202631
 30
0.0
 10
7.6119720829
 20
4.8261555574
 30
0.0
 10
7.6123738679
 20
4.8261140461
 30
0.0
 10
7.6127221511
 20
4.8260780941
 30
0.0
 10
7.6129789339
 20
4.8260516128
 30
0.0
 10
7.613157586
 20
4.8260332023
 30
0.0
 10
7.6132714883
 20
4.8260214697
 30
0.0
 10
7.6133719961
 20
4.8260111212
 30
0.0
 10
7.6134591073
 20
4.8260021556
 30
0.0
 10
7.6135328193
 20
4.8259945719
 30
0.0
 10
7.6135858722
 20
4.8259891156
 30
0.0
 10
7.6136216116
 20
4.8259854422
 30
0.0
 10
7.6136433947
 20
4.8259832025
 30
0.0
 10
7.6136618138
 20
4.8259813141
 30
0.0
 10
7.6136769186
 20
4.8259797533
 30
0.0
 10
7.6136885756
 20
4.8259785832
 30
0.0
 10
7.6136963971
 20
4.8259777285
 30
0.0
 10
7.6137006698
 20
4.8259773632
 30
0.0
 10
7.6137030804
 20
4.8259769996
 30
0.0
 10
7.6137037745
 20
4.8259771369
 30
0.0
 10
7.6137049111
 20
4.8259768075
 30
0.0
 10
7.6137048127
 20
4.8259769065
 30
0.0
 11
6.6216594606
 21
4.9676497658
 31
0.0
 11
6.6468718753
 21
4.960896623
 31
0.0
 11
6.6748346271
 21
4.9539972311
 31
0.0
 11
6.7053805657
 21
4.9470337635
 31
0.0
 11
6.7383191237
 21
4.940073536
 31
0.0
 11
6.7734380973
 21
4.9331692712
 31
0.0
 11
6.8105063871
 21
4.926360655
 31
0.0
 11
6.8492772052
 21
4.9196765775
 31
0.0
 11
6.8894913821
 21
4.9131375978
 31
0.0
 11
6.930880524
 21
4.9067583375
 31
0.0
 11
6.9731698768
 21
4.9005496438
 31
0.0
 11
7.016080841
 21
4.894520451
 31
0.0
 11
7.0593331312
 21
4.8886793184
 31
0.0
 11
7.1026466074
 21
4.8830356398
 31
0.0
 11
7.145742829
 21
4.8776005137
 31
0.0
 11
7.1883463925
 21
4.8723872614
 31
0.0
 11
7.2301861312
 21
4.8674107859
 31
0.0
 11
7.270996495
 21
4.862683168
 31
0.0
 11
7.3105194627
 21
4.8582125239
 31
0.0
 11
7.3485063679
 21
4.8540043347
 31
0.0
 11
7.3847194273
 21
4.8500627135
 31
0.0
 11
7.4189330043
 21
4.846391488
 31
0.0
 11
7.4509346539
 21
4.8429950627
 31
0.0
 11
7.4805260303
 21
4.8398790445
 31
0.0
 11
7.4943599398
 21
4.8384283667
 31
0.0
 11
7.5075237012
 21
4.8370506177
 31
0.0
 11
7.5199968423
 21
4.8357469598
 31
0.0
 11
7.5317599254
 21
4.8345186519
 31
0.0
 11
7.5427945677
 21
4.8333670366
 31
0.0
 11
7.5530834701
 21
4.8322935225
 31
0.0
 11
7.5626104519
 21
4.8312995624
 31
0.0
 11
7.5713604766
 21
4.8303866248
 31
0.0
 11
7.5793196826
 21
4.8295561636
 31
0.0
 11
7.5864754229
 21
4.8288095812
 31
0.0
 11
7.5897483816
 21
4.8284681595
 31
0.0
 11
7.5928162964
 21
4.8281481908
 31
0.0
 11
7.5956779419
 21
4.8278498188
 31
0.0
 11
7.5983321776
 21
4.8275731758
 31
0.0
 11
7.6007779408
 21
4.8273183831
 31
0.0
 11
7.603014256
 21
4.8270855483
 31
0.0
 11
7.6050402343
 21
4.8268747641
 31
0.0
 11
7.6068550675
 21
4.8266861087
 31
0.0
 11
7.6084580383
 21
4.8265196428
 31
0.0
 11
7.6091798753
 21
4.826444745
 31
0.0
 11
7.6098485169
 21
4.8263754094
 31
0.0
 11
7.6104638963
 21
4.826311639
 31
0.0
 11
7.6110259569
 21
4.8262534342
 31
0.0
 11
7.6115346438
 21
4.8262007951
 31
0.0
 11
7.6119899064
 21
4.8261537212
 31
0.0
 11
7.6123917042
 21
4.8261122098
 31
0.0
 11
7.6127399986
 21
4.826076258
 31
0.0
 11
7.6130347553
 21
4.8260458612
 31
0.0
 11
7.6131620503
 21
4.8260327433
 31
0.0
 11
7.6132759533
 21
4.8260210106
 31
0.0
 11
7.6133764619
 21
4.8260106621
 31
0.0
 11
7.6134635737
 21
4.8260016965
 31
0.0
 11
7.6135372866
 21
4.8259941128
 31
0.0
 11
7.6135975989
 21
4.8259879104
 31
0.0
 11
7.6136227294
 21
4.8259853271
 31
0.0
 11
7.6136445092
 21
4.825983089
 31
0.0
 11
7.6136629381
 21
4.8259811961
 31
0.0
 11
7.6136780159
 21
4.8259796482
 31
0.0
 11
7.6136897425
 21
4.8259784454
 31
0.0
 11
7.6136981176
 21
4.8259775875
 31
0.0
 11
7.6137010483
 21
4.8259772879
 31
0.0
 11
7.6137031411
 21
4.8259770746
 31
0.0
 11
7.6137043959
 21
4.8259769475
 31
0.0
 11
7.6137048127
 21
4.8259769065
 31
0.0
  0
SPLINE
  5
321
100
AcDbEntity
  8
0
100
AcDbSpline
 62
9
  6
CONTINUOUS
 70
0
 71
3
 72
33
 73
29
 74
27
 42
0.0000001
 43
0.0000001
 44
0.0000000001
 12
0.277466328
 22
-0.2000412057
 32
0.0
 13
0.277466328
 23
0.2000412057
 33
0.0
 40
0.0
 40
0.0
 40
0.0
 40
0.0
 40
0.0576188158
 40
0.0871180683
 40
0.117050617
 40
0.1473957364
 40
0.1781305707
 40
0.2092289068
 40
0.2406610857
 40
0.2723958099
 40
0.3044002769
 40
0.3366389852
 40
0.3690749133
 40
0.4343761159
 40
0.5
 40
0.5656238841
 40
0.6309250867
 40
0.6633610148
 40
0.6955997231
 40
0.7276041901
 40
0.7593389143
 40
0.7907710932
 40
0.8218694293
 40
0.8526042636
 40
0.882949383
 40
0.9128819317
 40
0.9423811842
 40
1.0
 40
1.0
 40
1.0
 40
1.0
 10
3.8727620113
 20
4.8628028087
 30
0.0
 10
3.8780911051
 20
4.8589607629
 30
0.0
 10
3.8864318566
 20
4.8535330008
 30
0.0
 10
3.8980750434
 20
4.847004563
 30
0.0
 10
3.9072128719
 20
4.8423837645
 30
0.0
 10
3.916662866
 20
4.8380892718
 30
0.0
 10
3.9264027813
 20
4.8341324111
 30
0.0
 10
3.9364083889
 20
4.8305228531
 30
0.0
 10
3.9466546698
 20
4.8272684272
 30
0.0
 10
3.9571165647
 20
4.8243775197
 30
0.0
 10
3.9677685642
 20
4.8218583846
 30
0.0
 10
3.9785842595
 20
4.8197159776
 30
0.0
 10
3.9932188067
 20
4.8173633107
 30
0.0
 10
4.0117586085
 20
4.8154001395
 30
0.0
 10
4.0341732742
 20
4.8146127303
 30
0.0
 10
4.0565879399
 20
4.8154001395
 30
0.0
 10
4.0751277416
 20
4.8173633107
 30
0.0
 10
4.0897622889
 20
4.8197159776
 30
0.0
 10
4.1005779841
 20
4.8218583846
 30
0.0
 10
4.1112299836
 20
4.8243775197
 30
0.0
 10
4.1216918785
 20
4.8272684272
 30
0.0
 10
4.1319381594
 20
4.8305228531
 30
0.0
 10
4.141943767
 20
4.8341324111
 30
0.0
 10
4.1516836823
 20
4.8380892718
 30
0.0
 10
4.1611336764
 20
4.8423837645
 30
0.0
 10
4.170271505
 20
4.847004563
 30
0.0
 10
4.1819146918
 20
4.8535330008
 30
0.0
 10
4.1902554433
 20
4.8589607629
 30
0.0
 10
4.195584537
 20
4.8628028087
 30
0.0
 11
3.8727620113
 21
4.8628028087
 31
0.0
 11
3.8892662127
 21
4.8520298639
 31
0.0
 11
3.8980658002
 21
4.8470917597
 31
0.0
 11
3.9072013217
 21
4.8424686767
 31
0.0
 11
3.9166500208
 21
4.8381718772
 31
0.0
 11
3.9263890785
 21
4.8342125474
 31
0.0
 11
3.9363944616
 21
4.8306003894
 31
0.0
 11
3.9466410324
 21
4.8273437555
 31
0.0
 11
3.957103613
 21
4.8244509489
 31
0.0
 11
3.9677567291
 21
4.8219296962
 31
0.0
 11
3.9785738029
 21
4.8197855798
 31
0.0
 11
3.9895280004
 21
4.8180236834
 31
0.0
 11
4.0117399456
 21
4.8156649433
 31
0.0
 11
4.0341732742
 21
4.814875631
 31
0.0
 11
4.0566066028
 21
4.8156649433
 31
0.0
 11
4.078818548
 21
4.8180236834
 31
0.0
 11
4.0897727455
 21
4.8197855798
 31
0.0
 11
4.1005898193
 21
4.8219296962
 31
0.0
 11
4.1112429353
 21
4.8244509489
 31
0.0
 11
4.121705516
 21
4.8273437555
 31
0.0
 11
4.1319520868
 21
4.8306003894
 31
0.0
 11
4.1419574698
 21
4.8342125474
 31
0.0
 11
4.1516965276
 21
4.8381718772
 31
0.0
 11
4.1611452266
 21
4.8424686767
 31
0.0
 11
4.1702807482
 21
4.8470917597
 31
0.0
 11
4.1790803356
 21
4.8520298639
 31
0.0
 11
4.195584537
 21
4.8628028087
 31
0.0
  0
SPLINE
  5
322
100
AcDbEntity
  8
0
100
AcDbSpline
 62
9
  6
CONTINUOUS
 70
0
 71
3
 72
15
 73
11
 74
9
 42
0.0000001
 43
0.0000001
 44
0.0000000001
 12
0.1171242174
 22
0.0766399541
 32
0.0
 13
0.1399705857
 23
0.0
 33
0.0
 40
0.0
 40
0.0
 40
0.0
 40
0.0
 40
0.2357361668
 40
0.2966659476
 40
0.3582875629
 40
0.4833862992
 40
0.6106158501
 40
0.7394860712
 40
0.8694650258
 40
1.0
 40
1.0
 40
1.0
 40
1.0
 10
3.9010532511
 20
3.9930369025
 30
0.0
 10
3.9102567224
 20
3.9990591722
 30
0.0
 10
3.9225329675
 20
4.0056338345
 30
0.0
 10
3.9379427927
 20
4.0121106888
 30
0.0
 10
3.9487578991
 20
4.0161866554
 30
0.0
 10
3.9627420962
 20
4.0205910726
 30
0.0
 10
3.9800541406
 20
4.0247281223
 30
0.0
 10
3.9978332965
 20
4.0277084775
 30
0.0
 10
4.0159243116
 20
4.0295068069
 30
0.0
 10
4.0280829219
 20
4.0299072605
 30
0.0
 10
4.0341732742
 20
4.0299072605
 30
0.0
 11
3.9010532511
 21
3.9930369025
 31
0.0
 11
3.9300717148
 21
4.0087427395
 31
0.0
 11
3.9379330684
 21
4.0120491477
 31
0.0
 11
3.946003526
 21
4.015092505
 31
0.0
 11
3.9627012668
 21
4.0203641814
 31
0.0
 11
3.9800198185
 21
4.0245122762
 31
0.0
 11
3.9978085431
 21
4.027500951
 31
0.0
 11
4.0159121653
 21
4.0293044191
 31
0.0
 11
4.0341732742
 21
4.0299072605
 31
0.0
  0
SPLINE
  5
323
100
AcDbEntity
  8
0
100
AcDbSpline
 62
9
  6
CONTINUOUS
 70
0
 71
3
 72
74
 73
70
 74
68
 42
0.0000001
 43
0.0000001
 44
0.0000000001
 12
0.9660003599
 22
0.2698556453
 32
0.0
 13
-0.7042759386
 23
-0.7141247509
 33
0.0
 40
0.0
 40
0.0
 40
0.0
 40
0.0
 40
0.0260235368
 40
0.0547389526
 40
0.0859749009
 40
0.1195400604
 40
0.1552241606
 40
0.1927998123
 40
0.232024963
 40
0.272645562
 40
0.3143983272
 40
0.3570132922
 40
0.4002161956
 40
0.4437305125
 40
0.4872792976
 40
0.530586702
 40
0.5733793885
 40
0.6153878067
 40
0.6563480762
 40
0.6960040302
 40
0.7341089274
 40
0.7704268464
 40
0.8047338631
 40
0.8368190268
 40
0.8664852184
 40
0.8803535718
 40
0.893549921
 40
0.9060538603
 40
0.9178459919
 40
0.9289079552
 40
0.9392224571
 40
0.9487732992
 40
0.9575454098
 40
0.9655248835
 40
0.9726990143
 40
0.9759804408
 40
0.9790563303
 40
0.9819254449
 40
0.9845866351
 40
0.9870388322
 40
0.9892810482
 40
0.9913123878
 40
0.9931320365
 40
0.9947392671
 40
0.9954630252
 40
0.996133446
 40
0.9967504641
 40
0.9973140221
 40
0.9978240633
 40
0.998280538
 40
0.9986834055
 40
0.9990326257
 40
0.9993281655
 40
0.9994557987
 40
0.9995700043
 40
0.9996707799
 40
0.9997581231
 40
0.9998320318
 40
0.9998925042
 40
0.9999177014
 40
0.9999395389
 40
0.9999580166
 40
0.9999731342
 40
0.9999848915
 40
0.9999932884
 40
0.9999962266
 40
0.9999983246
 40
0.9999995824
 40
1.0
 40
1.0
 40
1.0
 40
1.0
 10
6.6216594606
 20
3.5348220519
 30
0.0
 10
6.6300390426
 20
3.537162918
 30
0.0
 10
6.6477223122
 20
3.5418829449
 30
0.0
 10
6.6756354083
 20
3.5487499535
 30
0.0
 10
6.7061239128
 20
3.5556823812
 30
0.0
 10
6.7389976688
 20
3.5626125003
 30
0.0
 10
6.7740453805
 20
3.5694874263
 30
0.0
 10
6.8110369128
 20
3.5762674175
 30
0.0
 10
6.8497264954
 20
3.582923608
 30
0.0
 10
6.8898559313
 20
3.5894355204
 30
0.0
 10
6.9311577047
 20
3.595788663
 30
0.0
 10
6.9733578375
 20
3.6019723721
 30
0.0
 10
7.0161783928
 20
3.6079779553
 30
0.0
 10
7.0593396661
 20
3.613797148
 30
0.0
 10
7.1025620283
 20
3.6194209092
 30
0.0
 10
7.1455675312
 20
3.624838476
 30
0.0
 10
7.1880812589
 20
3.6300370384
 30
0.0
 10
7.2298328862
 20
3.6350008173
 30
0.0
 10
7.2705576851
 20
3.6397167795
 30
0.0
 10
7.309998205
 20
3.6441766167
 30
0.0
 10
7.3479062488
 20
3.6483746925
 30
0.0
 10
7.3840444228
 20
3.6523069169
 30
0.0
 10
7.4181874331
 20
3.655969589
 30
0.0
 10
7.4501231633
 20
3.6593585129
 30
0.0
 10
7.4752659427
 20
3.6620062691
 30
0.0
 10
7.4941291352
 20
3.6639854979
 30
0.0
 10
7.5072860757
 20
3.6653636005
 30
0.0
 10
7.5197528104
 20
3.6666678905
 30
0.0
 10
7.5315099171
 20
3.6678971243
 30
0.0
 10
7.5425390301
 20
3.669049966
 30
0.0
 10
7.5528228667
 20
3.6701250036
 30
0.0
 10
7.5623452557
 20
3.6711207711
 30
0.0
 10
7.5710911676
 20
3.6720357745
 30
0.0
 10
7.5790467465
 20
3.6728685207
 30
0.0
 10
7.5851765789
 20
3.6735104494
 30
0.0
 10
7.5896759097
 20
3.6739817326
 30
0.0
 10
7.5927437803
 20
3.6743031024
 30
0.0
 10
7.5956054165
 20
3.6746028704
 30
0.0
 10
7.5982596718
 20
3.6748808921
 30
0.0
 10
7.6007054822
 20
3.6751370353
 30
0.0
 10
7.6029418681
 20
3.675371179
 30
0.0
 10
7.6049679335
 20
3.6755832171
 30
0.0
 10
7.606782869
 20
3.6757730583
 30
0.0
 10
7.6081630251
 20
3.6759173246
 30
0.0
 10
7.6091610506
 20
3.676021581
 30
0.0
 10
7.6098298149
 20
3.67609141
 30
0.0
 10
7.6104453127
 20
3.6761556454
 30
0.0
 10
7.6110074839
 20
3.6762142846
 30
0.0
 10
7.6115162737
 20
3.6762673255
 30
0.0
 10
7.6119716327
 20
3.676314767
 30
0.0
 10
7.6123735169
 20
3.6763566098
 30
0.0
 10
7.6127218881
 20
3.6763928546
 30
0.0
 10
7.6129787368
 20
3.6764195561
 30
0.0
 10
7.6131574358
 20
3.6764381223
 30
0.0
 10
7.6132713687
 20
3.6764499553
 30
0.0
 10
7.6133719038
 20
3.6764603932
 30
0.0
 10
7.613459039
 20
3.6764694372
 30
0.0
 10
7.6135327715
 20
3.6764770878
 30
0.0
 10
7.6135858392
 20
3.6764825928
 30
0.0
 10
7.6136215888
 20
3.676486299
 30
0.0
 10
7.613643378
 20
3.6764885589
 30
0.0
 10
7.6136618023
 20
3.6764904643
 30
0.0
 10
7.6136769114
 20
3.6764920391
 30
0.0
 10
7.6136885717
 20
3.67649322
 30
0.0
 10
7.6136963951
 20
3.676494082
 30
0.0
 10
7.6137006692
 20
3.676494451
 30
0.0
 10
7.6137030799
 20
3.6764948169
 30
0.0
 10
7.6137037749
 20
3.6764946798
 30
0.0
 10
7.6137049107
 20
3.6764950105
 30
0.0
 10
7.6137048127
 20
3.6764949111
 30
0.0
 11
6.6216594606
 21
3.5348220519
 31
0.0
 11
6.6468727302
 21
3.5415721978
 31
0.0
 11
6.6748357424
 21
3.5484696606
 31
0.0
 11
6.7053815143
 21
3.555431964
 31
0.0
 11
6.7383196744
 21
3.5623913704
 31
0.0
 11
6.7734382114
 21
3.5692947363
 31
0.0
 11
6.8105061491
 21
3.5761020256
 31
0.0
 11
6.8492767707
 21
3.5827841177
 31
0.0
 11
6.8894908959
 21
3.5893203517
 31
0.0
 11
6.9308800919
 21
3.5956961335
 31
0.0
 11
6.9731695178
 21
3.6019007567
 31
0.0
 11
7.0160804983
 21
3.6079255326
 31
0.0
 11
7.0593326605
 21
3.6137622274
 31
0.0
 11
7.1026458246
 21
3.6194018378
 31
0.0
 11
7.1457415276
 21
3.6248336901
 31
0.0
 11
7.1883444109
 21
3.6300449037
 31
0.0
 11
7.2301833837
 21
3.6350206776
 31
0.0
 11
7.2709929847
 21
3.6397483598
 31
0.0
 11
7.3105152152
 21
3.6442193948
 31
0.0
 11
7.3485014141
 21
3.6484280698
 31
0.0
 11
7.3847137971
 21
3.6523702137
 31
0.0
 11
7.4189267429
 21
3.6560420764
 31
0.0
 11
7.4509278467
 21
3.6594394237
 31
0.0
 11
7.4805188297
 21
3.6625568675
 31
0.0
 11
7.4943526232
 21
3.6640085173
 31
0.0
 11
7.5075163368
 21
3.6653874445
 31
0.0
 11
7.5199895113
 21
3.6666925065
 31
0.0
 11
7.531752715
 21
3.6679224583
 31
0.0
 11
7.5427875717
 21
3.6690759634
 31
0.0
 11
7.5530767898
 21
3.6701516094
 31
0.0
 11
7.5626041873
 21
3.6711479299
 31
0.0
 11
7.5713547215
 21
3.6720634299
 31
0.0
 11
7.5793145256
 21
3.6728966168
 31
0.0
 11
7.5864709381
 21
3.6736460352
 31
0.0
 11
7.5897442521
 21
3.6739888958
 31
0.0
 11
7.5928125348
 21
3.674310305
 31
0.0
 11
7.5956745536
 21
3.6746101086
 31
0.0
 11
7.5983291648
 21
3.6748881628
 31
0.0
 11
7.6007753043
 21
3.6751443348
 31
0.0
 11
7.6030119885
 21
3.6753785039
 31
0.0
 11
7.6050383254
 21
3.6755905641
 31
0.0
 11
7.6068535034
 21
3.675780424
 31
0.0
 11
7.6084567969
 21
3.6759480078
 31
0.0
 11
7.6091787868
 21
3.6760234278
 31
0.0
 11
7.6098475731
 21
3.6760932582
 31
0.0
 11
7.61046309
 21
3.6761574948
 31
0.0
 11
7.6110252801
 21
3.6762161351
 31
0.0
 11
7.6115340866
 21
3.6762691767
 31
0.0
 11
7.6119894592
 21
3.6763166187
 31
0.0
 11
7.6123913568
 21
3.6763584618
 31
0.0
 11
7.6127397391
 21
3.6763947066
 31
0.0
 11
7.6130345722
 21
3.6764253564
 31
0.0
 11
7.6131619011
 21
3.6764385854
 31
0.0
 11
7.6132758347
 21
3.6764504184
 31
0.0
 11
7.6133763707
 21
3.6764608564
 31
0.0
 11
7.6134635065
 21
3.6764699004
 31
0.0
 11
7.6135372399
 21
3.6764775511
 31
0.0
 11
7.6135975693
 21
3.6764838087
 31
0.0
 11
7.6136227069
 21
3.6764864151
 31
0.0
 11
7.6136444928
 21
3.6764886734
 31
0.0
 11
7.6136629269
 21
3.6764905834
 31
0.0
 11
7.613678009
 21
3.6764921452
 31
0.0
 11
7.6136897388
 21
3.6764933589
 31
0.0
 11
7.6136981162
 21
3.6764942244
 31
0.0
 11
7.6137010476
 21
3.6764945266
 31
0.0
 11
7.6137031409
 21
3.6764947418
 31
0.0
 11
7.6137043959
 21
3.67649487
 31
0.0
 11
7.6137048127
 21
3.6764949111
 31
0.0
  0
SPLINE
  5
324
100
AcDbEntity
  8
0
100
AcDbSpline
 62
6
  6
CONTINUOUS
 70
0
 71
3
 72
14
 73
10
 74
8
 42
0.0000001
 43
0.0000001
 44
0.0000000001
 12
-0.1340157034
 22
-0.023988026
 32
0.0
 13
-0.1361386335
 23
-0.001380808
 33
0.0
 40
0.0
 40
0.0
 40
0.0
 40
0.0
 40
0.2511548832
 40
0.3767939957
 40
0.5022117996
 40
0.6272583627
 40
0.7518641881
 40
0.876064384
 40
1.0
 40
1.0
 40
1.0
 40
1.0
 10
6.675166778
 20
5.2748579558
 30
0.0
 10
6.6639472119
 20
5.2728497192
 30
0.0
 10
6.6471795187
 20
5.2694874904
 30
0.0
 10
6.6248235524
 20
5.26505569
 30
0.0
 10
6.6080398815
 20
5.2619464612
 30
0.0
 10
6.591233305
 20
5.259236821
 30
0.0
 10
6.5743984744
 20
5.2570968854
 30
0.0
 10
6.5575374014
 20
5.2556712184
 30
0.0
 10
6.5462781424
 20
5.2552664416
 30
0.0
 10
6.5406540006
 20
5.2552093978
 30
0.0
 11
6.675166778
 21
5.2748579558
 31
0.0
 11
6.6415915931
 21
5.2683840028
 31
0.0
 11
6.6248067767
 21
5.265088797
 31
0.0
 11
6.6080117588
 21
5.2620088691
 31
0.0
 11
6.5911996816
 21
5.2593276091
 31
0.0
 11
6.5743674397
 21
5.2572130819
 31
0.0
 11
6.5575167231
 21
5.2558065708
 31
0.0
 11
6.5406540006
 21
5.2552093978
 31
0.0
  0
SPLINE
  5
325
100
AcDbEntity
  8
0
100
AcDbSpline
 62
6
  6
CONTINUOUS
 70
0
 71
3
 72
45
 73
41
 74
39
 42
0.0000001
 43
0.0000001
 44
0.0000000001
 12
-0.7082427571
 22
-0.1979664121
 32
0.0
 13
-0.7324533584
 23
0.0656550149
 33
0.0
 40
0.0
 40
0.0
 40
0.0
 40
0.0
 40
0.0312457439
 40
0.062491577
 40
0.0937376702
 40
0.1249837325
 40
0.1562300288
 40
0.1874776448
 40
0.2187250651
 40
0.2499741815
 40
0.3124699722
 40
0.3280970291
 40
0.3437249797
 40
0.3593529512
 40
0.3749805897
 40
0.3906080944
 40
0.4062361667
 40
0.4218650014
 40
0.4374942092
 40
0.4531233793
 40
0.4687520983
 40
0.4843799944
 40
0.500007459
 40
0.5156352206
 40
0.5312634036
 40
0.5468915209
 40
0.5625185179
 40
0.5937683381
 40
0.6250186859
 40
0.6562674423
 40
0.6875137484
 40
0.7187604804
 40
0.7500069232
 40
0.7812526833
 40
0.8124980357
 40
0.8437435663
 40
0.874990559
 40
0.9062442568
 40
0.9375037969
 40
1.0
 40
1.0
 40
1.0
 40
1.0
 10
7.3977939436
 20
5.2748579558
 30
0.0
 10
7.3904174197
 20
5.2727960865
 30
0.0
 10
7.3756723231
 20
5.2686438486
 30
0.0
 10
7.3535616351
 20
5.2623907115
 30
0.0
 10
7.3314411822
 20
5.256171775
 30
0.0
 10
7.3092924002
 20
5.2500536748
 30
0.0
 10
7.2870956101
 20
5.2441098239
 30
0.0
 10
7.264833672
 20
5.2384126702
 30
0.0
 10
7.2424878811
 20
5.2330474273
 30
0.0
 10
7.2125660925
 20
5.2264518823
 30
0.0
 10
7.1861888997
 20
5.2215644695
 30
0.0
 10
7.1634494809
 20
5.2182356257
 30
0.0
 10
7.1520527033
 20
5.2167518051
 30
0.0
 10
7.1406327976
 20
5.215456735
 30
0.0
 10
7.129192318
 20
5.2143587164
 30
0.0
 10
7.1177339389
 20
5.2134656938
 30
0.0
 10
7.1062605502
 20
5.2127867627
 30
0.0
 10
7.0947759708
 20
5.2123246045
 30
0.0
 10
7.0832844627
 20
5.2120785835
 30
0.0
 10
7.0717903891
 20
5.2120489515
 30
0.0
 10
7.0602981068
 20
5.2122354352
 30
0.0
 10
7.0488118211
 20
5.2126389927
 30
0.0
 10
7.0373352596
 20
5.2132551159
 30
0.0
 10
7.0258713495
 20
5.2140737488
 30
0.0
 10
7.0144228068
 20
5.2150860428
 30
0.0
 10
7.0029922882
 20
5.2162827364
 30
0.0
 10
6.987779578
 20
5.2181124412
 30
0.0
 10
6.9688170957
 20
5.2208133427
 30
0.0
 10
6.9461496774
 20
5.2246053269
 30
0.0
 10
6.9235623192
 20
5.2288404032
 30
0.0
 10
6.9010416935
 20
5.2334097209
 30
0.0
 10
6.8785687416
 20
5.2382035556
 30
0.0
 10
6.8561209708
 20
5.2431124487
 30
0.0
 10
6.8336768986
 20
5.2480365614
 30
0.0
 10
6.811214696
 20
5.2528768029
 30
0.0
 10
6.7887136477
 20
5.2575360054
 30
0.0
 10
6.7661560252
 20
5.2619251574
 30
0.0
 10
6.7435266607
 20
5.2659528885
 30
0.0
 10
6.7132555223
 20
5.2707207922
 30
0.0
 10
6.6904252959
 20
5.2734902261
 30
0.0
 10
6.675166778
 20
5.2748579558
 30
0.0
 11
7.3977939436
 21
5.2748579558
 31
0.0
 11
7.3756735156
 21
5.2686397279
 31
0.0
 11
7.3535600815
 21
5.2623964324
 31
0.0
 11
7.3314364716
 21
5.2561885841
 31
0.0
 11
7.3092845143
 21
5.2500827475
 31
0.0
 11
7.2870851187
 21
5.2441510362
 31
0.0
 11
7.2648197619
 21
5.2384680047
 31
0.0
 11
7.2424723648
 21
5.2331172859
 31
0.0
 11
7.2200276549
 21
5.2281848758
 31
0.0
 11
7.1748164865
 21
5.2199289763
 31
0.0
 11
7.163445493
 21
5.2182658005
 31
0.0
 11
7.1520488773
 21
5.2167832674
 31
0.0
 11
7.1406292693
 21
5.2154895666
 31
0.0
 11
7.1291893062
 21
5.2143928796
 31
0.0
 11
7.1177316249
 21
5.2135013882
 31
0.0
 11
7.1062589412
 21
5.2128229043
 31
0.0
 11
7.0947749523
 21
5.2123606319
 31
0.0
 11
7.0832840211
 21
5.2121146485
 31
0.0
 11
7.0717905235
 21
5.2120849722
 31
0.0
 11
7.060298835
 21
5.2122716211
 31
0.0
 11
7.048813297
 21
5.2126744263
 31
0.0
 11
7.0373374525
 21
5.2132888619
 31
0.0
 11
7.0258740403
 21
5.2141060154
 31
0.0
 11
7.0144257638
 21
5.2151167811
 31
0.0
 11
7.0029953265
 21
5.2163120533
 31
0.0
 11
6.9915854216
 21
5.2176827126
 31
0.0
 11
6.9688316685
 21
5.2209051624
 31
0.0
 11
6.9461624955
 21
5.22467927
 31
0.0
 11
6.9235727067
 21
5.2288962529
 31
0.0
 11
6.9010496487
 21
5.2334471379
 31
0.0
 11
6.8785728474
 21
5.2382227518
 31
0.0
 11
6.8561213687
 21
5.2431150331
 31
0.0
 11
6.8336737428
 21
5.2480226121
 31
0.0
 11
6.8112083138
 21
5.2528466106
 31
0.0
 11
6.7887049046
 21
5.2574908608
 31
0.0
 11
6.766146247
 21
5.2618645162
 31
0.0
 11
6.7435156131
 21
5.2658773633
 31
0.0
 11
6.720805366
 21
5.2694397665
 31
0.0
 11
6.675166778
 21
5.2748579558
 31
0.0
  0
SPLINE
  5
326
100
AcDbEntity
  8
0
100
AcDbSpline
 62
6
  6
CONTINUOUS
 70
0
 71
3
 72
46
 73
42
 74
40
 42
0.0000001
 43
0.0000001
 44
0.0000000001
 12
-0.3353810189
 22
-0.2383271521
 32
0.0
 13
-0.359262119
 23
0.200526779
 33
0.0
 40
0.0
 40
0.0
 40
0.0
 40
0.0
 40
0.0659567592
 40
0.1321909366
 40
0.1652242273
 40
0.1980860279
 40
0.2306845104
 40
0.2629206069
 40
0.2947009591
 40
0.3259358659
 40
0.3565623254
 40
0.3716374046
 40
0.3865536941
 40
0.4013168721
 40
0.4159361231
 40
0.4304255738
 40
0.4448047519
 40
0.4590978759
 40
0.4733317887
 40
0.4875355714
 40
0.5017403915
 40
0.5159773328
 40
0.5302745987
 40
0.5446572298
 40
0.5591471534
 40
0.5737618119
 40
0.588512998
 40
0.603407295
 40
0.6184477974
 40
0.6489596868
 40
0.6800068977
 40
0.7115140723
 40
0.7433834372
 40
0.7755148312
 40
0.8078043902
 40
0.8401568348
 40
0.872480308
 40
0.9046952793
 40
0.9367286909
 40
0.9685155013
 40
1.0
 40
1.0
 40
1.0
 40
1.0
 10
7.7579803608
 20
5.2748579561
 30
0.0
 10
7.7506068124
 20
5.2696181939
 30
0.0
 10
7.7359625819
 20
5.2589287919
 30
0.0
 10
7.7177825018
 20
5.2454032014
 30
0.0
 10
7.7031639741
 20
5.2346945582
 30
0.0
 10
7.6921810104
 20
5.2268300699
 30
0.0
 10
7.6811560693
 20
5.2192143541
 30
0.0
 10
7.6700705348
 20
5.2119529577
 30
0.0
 10
7.6589109879
 20
5.2051561333
 30
0.0
 10
7.6476608597
 20
5.1989524169
 30
0.0
 10
7.6381517421
 20
5.1943627768
 30
0.0
 10
7.6304903657
 20
5.1911311889
 30
0.0
 10
7.6247491506
 20
5.1889560427
 30
0.0
 10
7.6189842393
 20
5.1870332094
 30
0.0
 10
7.6131977312
 20
5.1853771032
 30
0.0
 10
7.6073918166
 20
5.1840023315
 30
0.0
 10
7.6015687028
 20
5.1829247607
 30
0.0
 10
7.5957325492
 20
5.1821522949
 30
0.0
 10
7.5898877473
 20
5.1816894806
 30
0.0
 10
7.5840384906
 20
5.1815415376
 30
0.0
 10
7.5781895016
 20
5.181713893
 30
0.0
 10
7.5723454596
 20
5.1821993222
 30
0.0
 10
7.566510364
 20
5.1829898721
 30
0.0
 10
7.5606882706
 20
5.184078241
 30
0.0
 10
7.5548831
 20
5.1854551258
 30
0.0
 10
7.5490967392
 20
5.1871031266
 30
0.0
 10
7.543330911
 20
5.1890058639
 30
0.0
 10
7.5375871917
 20
5.1911471176
 30
0.0
 10
7.5299235346
 20
5.1943118153
 30
0.0
 10
7.5204072667
 20
5.1987763588
 30
0.0
 10
7.5091304599
 20
5.2047628833
 30
0.0
 10
7.4979292119
 20
5.2112659258
 30
0.0
 10
7.4867857644
 20
5.2181523692
 30
0.0
 10
7.475685072
 20
5.225306386
 30
0.0
 10
7.4646079974
 20
5.2326172219
 30
0.0
 10
7.4535409701
 20
5.2399906777
 30
0.0
 10
7.4424663312
 20
5.2473342904
 30
0.0
 10
7.4313732166
 20
5.2545705154
 30
0.0
 10
7.4202476911
 20
5.2616208735
 30
0.0
 10
7.4090809312
 20
5.2684154631
 30
0.0
 10
7.4015643395
 20
5.2727534607
 30
0.0
 10
7.3977939436
 20
5.2748579558
 30
0.0
 11
7.7579803608
 21
5.2748579561
 31
0.0
 11
7.7360179346
 21
5.2589183592
 31
0.0
 11
7.7141025659
 21
5.242721341
 31
0.0
 11
7.7031305712
 21
5.2347005143
 31
0.0
 11
7.6921295489
 21
5.2268403036
 31
0.0
 11
7.6810841913
 21
5.2192319124
 31
0.0
 11
7.6699789664
 21
5.2119804121
 31
0.0
 11
7.6587993023
 21
5.2051990693
 31
0.0
 11
7.6475332415
 21
5.1990161105
 31
0.0
 11
7.6361723524
 21
5.1935652666
 31
0.0
 11
7.6304559441
 21
5.1911584071
 31
0.0
 11
7.6247156034
 21
5.1889875508
 31
0.0
 11
7.6189524657
 21
5.1870689271
 31
0.0
 11
7.6131687835
 21
5.1854172548
 31
0.0
 11
7.6073668604
 21
5.1840471843
 31
0.0
 11
7.6015491071
 21
5.1829728185
 31
0.0
 11
7.5957190475
 21
5.1822025952
 31
0.0
 11
7.5898808638
 21
5.1817416016
 31
0.0
 11
7.5840387467
 21
5.1815948813
 31
0.0
 11
7.5781968566
 21
5.1817656686
 31
0.0
 11
7.5723592133
 21
5.1822488051
 31
0.0
 11
7.566529796
 21
5.1830367003
 31
0.0
 11
7.5607125809
 21
5.1841217512
 31
0.0
 11
7.5549109379
 21
5.1854938533
 31
0.0
 11
7.5491268946
 21
5.1871373605
 31
0.0
 11
7.543362298
 21
5.1890358825
 31
0.0
 11
7.5376189634
 21
5.1911729963
 31
0.0
 11
7.5318977175
 21
5.1935312517
 31
0.0
 11
7.5205201136
 21
5.1988365213
 31
0.0
 11
7.5092253674
 21
5.2048033388
 31
0.0
 11
7.4980027501
 21
5.2112916144
 31
0.0
 11
7.4868384278
 21
5.2181682771
 31
0.0
 11
7.4757164399
 21
5.2253146614
 31
0.0
 11
7.4646205239
 21
5.2326204735
 31
0.0
 11
7.4535349703
 21
5.2399888435
 31
0.0
 11
7.4424447193
 21
5.2473285655
 31
0.0
 11
7.4313365408
 21
5.254559621
 31
0.0
 11
7.4201978895
 21
5.2616048749
 31
0.0
 11
7.4090194739
 21
5.2683933961
 31
0.0
 11
7.3977939436
 21
5.2748579558
 31
0.0
  0
SPLINE
  5
327
100
AcDbEntity
  8
0
100
AcDbSpline
 62
9
  6
CONTINUOUS
 70
0
 71
3
 72
24
 73
20
 74
18
 42
0.0000001
 43
0.0000001
 44
0.0000000001
 12
0.1326152018
 22
0.2991611874
 32
0.0
 13
-0.2884634201
 23
0.1545091034
 33
0.0
 40
0.0
 40
0.0
 40
0.0
 40
0.0
 40
0.0648816527
 40
0.0974746124
 40
0.1301198243
 40
0.1954438937
 40
0.2607196787
 40
0.3258152604
 40
0.3905801174
 40
0.4548694067
 40
0.5185612504
 40
0.5815526952
 40
0.6437666608
 40
0.7051502387
 40
0.7656786379
 40
0.8253600699
 40
0.8842607637
 40
0.9424637085
 40
1.0
 40
1.0
 40
1.0
 40
1.0
 10
6.6216594606
 20
4.9676497658
 30
0.0
 10
6.6245275584
 20
4.9741197899
 30
0.0
 10
6.6284146234
 20
4.984034823
 30
0.0
 10
6.6327409923
 20
4.9975558664
 30
0.0
 10
6.6364999748
 20
5.0112965261
 30
0.0
 10
6.6400926542
 20
5.0287607632
 30
0.0
 10
6.6426075514
 20
5.0499838047
 30
0.0
 10
6.6432994137
 20
5.0712839814
 30
0.0
 10
6.6421697244
 20
5.092457946
 30
0.0
 10
6.6392186469
 20
5.1133016809
 30
0.0
 10
6.6344831225
 20
5.1336159419
 30
0.0
 10
6.6279994472
 20
5.1532042569
 30
0.0
 10
6.6198368866
 20
5.1718813251
 30
0.0
 10
6.6100640298
 20
5.1894631169
 30
0.0
 10
6.598783331
 20
5.2057845934
 30
0.0
 10
6.5860937352
 20
5.2206841218
 30
0.0
 10
6.5721180017
 20
5.2340228126
 30
0.0
 10
6.5569910044
 20
5.2456582386
 30
0.0
 10
6.5461864013
 20
5.2522461052
 30
0.0
 10
6.5406540294
 20
5.2552093988
 30
0.0
 11
6.6216594606
 21
4.9676497658
 31
0.0
 11
6.6294159538
 21
4.9874139148
 31
0.0
 11
6.6326666572
 21
4.9975720932
 31
0.0
 11
6.6354853428
 21
5.007876253
 31
0.0
 11
6.6397945261
 21
5.0288138822
 31
0.0
 11
6.6423057341
 21
5.0500264243
 31
0.0
 11
6.6429950266
 21
5.0713169673
 31
0.0
 11
6.6418584487
 21
5.0924799415
 31
0.0
 11
6.6389031464
 21
5.1133091827
 31
0.0
 11
6.6341606833
 21
5.1336048053
 31
0.0
 11
6.6276741535
 21
5.1531707637
 31
0.0
 11
6.6195083567
 21
5.1718200932
 31
0.0
 11
6.6097391276
 21
5.1893714299
 31
0.0
 11
6.5984647339
 21
5.2056567324
 31
0.0
 11
6.5857919037
 21
5.2205167378
 31
0.0
 11
6.5718387733
 21
5.2338139747
 31
0.0
 11
6.5567361392
 21
5.2454185884
 31
0.0
 11
6.5406540294
 21
5.2552093988
 31
0.0
  0
SPLINE
  5
328
100
AcDbEntity
  8
0
100
AcDbSpline
 62
6
  6
CONTINUOUS
 70
0
 71
3
 72
27
 73
23
 74
21
 42
0.0000001
 43
0.0000001
 44
0.0000000001
 12
-0.1911679973
 22
-0.001941964
 32
0.0
 13
-0.1911778607
 23
0.0
 33
0.0
 40
0.0
 40
0.0
 40
0.0
 40
0.0
 40
0.0621896301
 40
0.1244034088
 40
0.1555305601
 40
0.1866762113
 40
0.2178438713
 40
0.2490363841
 40
0.2802559549
 40
0.3115039607
 40
0.3740844167
 40
0.4054150265
 40
0.4367691805
 40
0.4995329197
 40
0.5623393719
 40
0.6251438193
 40
0.6879000412
 40
0.7505646779
 40
0.813106944
 40
0.8755136456
 40
0.9377987877
 40
1.0
 40
1.0
 40
1.0
 40
1.0
 10
6.5406540006
 20
5.2552093978
 30
0.0
 10
6.5366911116
 20
5.2551691411
 30
0.0
 10
6.5287622751
 20
5.2551980636
 30
0.0
 10
6.518854485
 20
5.255508885
 30
0.0
 10
6.5109320798
 20
5.2559234232
 30
0.0
 10
6.504990251
 20
5.2563157568
 30
0.0
 10
6.4990499199
 20
5.256785912
 30
0.0
 10
6.4931112496
 20
5.2573307084
 30
0.0
 10
6.4871744479
 20
5.2579471332
 30
0.0
 10
6.4792578938
 20
5.2588593616
 30
0.0
 10
6.4713487592
 20
5.2598931879
 30
0.0
 10
6.4634465813
 20
5.2610240463
 30
0.0
 10
6.4555409323
 20
5.2622118758
 30
0.0
 10
6.4456644119
 20
5.2637803776
 30
0.0
 10
6.4338197554
 20
5.265731927
 30
0.0
 10
6.4219751374
 20
5.2676808449
 30
0.0
 10
6.4101269641
 20
5.2695519469
 30
0.0
 10
6.3982717015
 20
5.2712668148
 30
0.0
 10
6.3864066213
 20
5.2727456459
 30
0.0
 10
6.3745297992
 20
5.273907324
 30
0.0
 10
6.3626418365
 20
5.27467008
 30
0.0
 10
6.3547079696
 20
5.2748579561
 30
0.0
 10
6.3507441381
 20
5.2748579561
 30
0.0
 11
6.5406540006
 21
5.2552093978
 31
0.0
 11
6.5287648
 21
5.2552529598
 31
0.0
 11
6.5168767614
 21
5.2556262245
 31
0.0
 11
6.5109340534
 21
5.2559368787
 31
0.0
 11
6.5049925918
 21
5.2563285748
 31
0.0
 11
6.499052557
 21
5.2567981502
 31
0.0
 11
6.4931141264
 21
5.2573423953
 31
0.0
 11
6.4871774762
 21
5.2579580787
 31
0.0
 11
6.4812426933
 21
5.2586408338
 31
0.0
 11
6.4693785474
 21
5.2601833261
 31
0.0
 11
6.4634490765
 21
5.2610307388
 31
0.0
 11
6.4575211812
 21
5.2619199696
 31
0.0
 11
6.4456689796
 21
5.2637913906
 31
0.0
 11
6.4338195569
 21
5.2657315221
 31
0.0
 11
6.4219700233
 21
5.2676686015
 31
0.0
 11
6.4101172577
 21
5.2695271923
 31
0.0
 11
6.3982586569
 21
5.2712290066
 31
0.0
 11
6.3863920719
 21
5.2726941875
 31
0.0
 11
6.374516611
 21
5.2738417635
 31
0.0
 11
6.3626326194
 21
5.2745902688
 31
0.0
 11
6.3507441381
 21
5.2748579561
 31
0.0
  0
SPLINE
  5
329
100
AcDbEntity
  8
0
100
AcDbSpline
 62
9
  6
CONTINUOUS
 70
0
 71
3
 72
67
 73
63
 74
61
 42
0.0000001
 43
0.0000001
 44
0.0000000001
 12
-0.5822788143
 22
0.6422173022
 32
0.0
 13
-0.8587994497
 23
0.1181320683
 33
0.0
 40
0.0
 40
0.0
 40
0.0
 40
0.0
 40
0.0864698544
 40
0.1724136957
 40
0.2574374872
 40
0.34116122
 40
0.4231980008
 40
0.463438956
 40
0.5030771748
 40
0.5420480334
 40
0.5802735342
 40
0.6176676944
 40
0.654144429
 40
0.6896113718
 40
0.723953264
 40
0.7570496289
 40
0.78877763
 40
0.8189899804
 40
0.84752488
 40
0.8742182683
 40
0.8868172567
 40
0.8988848059
 40
0.9103961459
 40
0.9213265047
 40
0.93165099
 40
0.9413442042
 40
0.950380614
 40
0.9587346839
 40
0.9663808771
 40
0.9732947765
 40
0.9764705789
 40
0.9794556109
 40
0.9822473685
 40
0.9848433474
 40
0.9872410435
 40
0.9894379524
 40
0.9914315696
 40
0.9932195747
 40
0.9948006947
 40
0.9961740275
 40
0.996782492
 40
0.9973386715
 40
0.9978424533
 40
0.9982937248
 40
0.9986923731
 40
0.9990382857
 40
0.9993313497
 40
0.9994580283
 40
0.9995714525
 40
0.9996716083
 40
0.9997584815
 40
0.999832058
 40
0.9998923238
 40
0.9999174607
 40
0.9999392647
 40
0.9999577341
 40
0.9999728669
 40
0.9999846615
 40
0.9999931162
 40
0.9999960906
 40
0.9999982294
 40
1.0
 40
1.0
 40
1.0
 40
1.0
 10
6.9924543468
 20
4.2512359088
 30
0.0
 10
6.9756711587
 20
4.269746721
 30
0.0
 10
6.9421956172
 20
4.3066455365
 30
0.0
 10
6.8921471238
 20
4.361681662
 30
0.0
 10
6.8425348005
 20
4.4160417302
 30
0.0
 10
6.7935669463
 20
4.4694612649
 30
0.0
 10
6.7532296241
 20
4.5132371487
 30
0.0
 10
6.7214479851
 20
4.5475737985
 30
0.0
 10
6.6980798162
 20
4.5727408759
 30
0.0
 10
6.6750659524
 20
4.5974421351
 30
0.0
 10
6.6524514863
 20
4.6216291642
 30
0.0
 10
6.6302864614
 20
4.6452496849
 30
0.0
 10
6.6086235714
 20
4.6682482084
 30
0.0
 10
6.5875214451
 20
4.6905632037
 30
0.0
 10
6.5670479748
 20
4.7121282207
 30
0.0
 10
6.5472771505
 20
4.7328704745
 30
0.0
 10
6.5282889746
 20
4.7527101319
 30
0.0
 10
6.5101740625
 20
4.7715609986
 30
0.0
 10
6.4930323114
 20
4.789329312
 30
0.0
 10
6.4793966823
 20
4.8034080522
 30
0.0
 10
6.4690563089
 20
4.814053901
 30
0.0
 10
6.4617657995
 20
4.8215462528
 30
0.0
 10
6.454805296
 20
4.8286869445
 30
0.0
 10
6.4481906166
 20
4.8354613487
 30
0.0
 10
6.4419376981
 20
4.8418547018
 30
0.0
 10
6.4360627361
 20
4.8478521889
 30
0.0
 10
6.4305820585
 20
4.8534388665
 30
0.0
 10
6.4255120185
 20
4.8585997622
 30
0.0
 10
6.4208687423
 20
4.863320135
 30
0.0
 10
6.417272627
 20
4.8669716541
 30
0.0
 10
6.4146204771
 20
4.869662408
 30
0.0
 10
6.4128040103
 20
4.8715043656
 30
0.0
 10
6.4111047725
 20
4.8732266164
 30
0.0
 10
6.4095243767
 20
4.8748277021
 30
0.0
 10
6.4080644357
 20
4.8763061641
 30
0.0
 10
6.4067265628
 20
4.8776605444
 30
0.0
 10
6.405512331
 20
4.8788894199
 30
0.0
 10
6.4044230719
 20
4.879991629
 30
0.0
 10
6.4034597193
 20
4.8809662683
 30
0.0
 10
6.4027358983
 20
4.8816984241
 30
0.0
 10
6.4022202496
 20
4.8822199135
 30
0.0
 10
6.4018812471
 20
4.8825627095
 30
0.0
 10
6.4015741605
 20
4.882873185
 30
0.0
 10
6.4012990598
 20
4.8831512719
 30
0.0
 10
6.4010560153
 20
4.8833969023
 30
0.0
 10
6.4008450971
 20
4.8836100082
 30
0.0
 10
6.4006894357
 20
4.883767231
 30
0.0
 10
6.4005810199
 20
4.8838766935
 30
0.0
 10
6.4005118205
 20
4.8839465407
 30
0.0
 10
6.4004507054
 20
4.8840082057
 30
0.0
 10
6.4003976833
 20
4.8840616801
 30
0.0
 10
6.4003527633
 20
4.8841069558
 30
0.0
 10
6.4003203936
 20
4.8841395529
 30
0.0
 10
6.4002985541
 20
4.8841615242
 30
0.0
 10
6.4002852221
 20
4.8841749212
 30
0.0
 10
6.4002739257
 20
4.8841862699
 30
0.0
 10
6.400264653
 20
4.8841955399
 30
0.0
 10
6.4002574405
 20
4.8842028093
 30
0.0
 10
6.400252646
 20
4.8842074579
 30
0.0
 10
6.4002499092
 20
4.8842103295
 30
0.0
 10
6.4002483948
 20
4.8842115139
 30
0.0
 10
6.4002477661
 20
4.8842127096
 30
0.0
 10
6.4002472593
 20
4.8842127793
 30
0.0
 11
6.9924543468
 21
4.2512359088
 31
0.0
 11
6.9420825578
 21
4.3067481869
 31
0.0
 11
6.8919516831
 21
4.3618632608
 31
0.0
 11
6.8422616387
 21
4.4163009936
 31
0.0
 11
6.793214211
 21
4.4697991579
 31
0.0
 11
6.7450194628
 21
4.5220947635
 31
0.0
 11
6.7213229029
 21
4.5476953384
 31
0.0
 11
6.6979414203
 21
4.5728755147
 31
0.0
 11
6.6749118137
 21
4.597592888
 31
0.0
 11
6.6522800477
 21
4.621797732
 31
0.0
 11
6.6300975574
 21
4.6454359508
 31
0.0
 11
6.6084158512
 21
4.66845339
 31
0.0
 11
6.5872906355
 21
4.6907923622
 31
0.0
 11
6.5667928997
 21
4.7123823188
 31
0.0
 11
6.5469971097
 21
4.7331497855
 31
0.0
 11
6.5279793046
 21
4.7530199704
 31
0.0
 11
6.5098318635
 21
4.7719043968
 31
0.0
 11
6.4926568532
 21
4.7897064746
 31
0.0
 11
6.4765578353
 21
4.806328365
 31
0.0
 11
6.4689481108
 21
4.8141628882
 31
0.0
 11
6.4616525939
 21
4.8216603523
 31
0.0
 11
6.4546870758
 21
4.8288061507
 31
0.0
 11
6.4480673479
 21
4.8355856769
 31
0.0
 11
6.4418092897
 21
4.8419842674
 31
0.0
 11
6.4359291568
 21
4.8479870163
 31
0.0
 11
6.4304433047
 21
4.8535789532
 31
0.0
 11
6.4253680889
 21
4.8587451077
 31
0.0
 11
6.4207198647
 21
4.8634705097
 31
0.0
 11
6.4165142849
 21
4.867740862
 31
0.0
 11
6.4145816935
 21
4.8697015826
 31
0.0
 11
6.4127647185
 21
4.8715440553
 31
0.0
 11
6.4110649733
 21
4.873266822
 31
0.0
 11
6.4094840709
 21
4.8748684245
 31
0.0
 11
6.4080236247
 21
4.8763474046
 31
0.0
 11
6.4066852477
 21
4.8777023041
 31
0.0
 11
6.4054705532
 21
4.878931665
 31
0.0
 11
6.4043810336
 21
4.8800341338
 31
0.0
 11
6.4034174935
 21
4.8810089543
 31
0.0
 11
6.402580494
 21
4.8818555815
 31
0.0
 11
6.4022096222
 21
4.8822306523
 31
0.0
 11
6.401870596
 21
4.8825734706
 31
0.0
 11
6.4015634854
 21
4.8828839682
 31
0.0
 11
6.4012883604
 21
4.8831620769
 31
0.0
 11
6.4010452913
 21
4.8834077288
 31
0.0
 11
6.4008343481
 21
4.8836208557
 31
0.0
 11
6.4006556009
 21
4.8838013895
 31
0.0
 11
6.4005783227
 21
4.8838794128
 31
0.0
 11
6.4005091198
 21
4.8839492622
 31
0.0
 11
6.400448001
 21
4.8840109293
 31
0.0
 11
6.4003949751
 21
4.8840644056
 31
0.0
 11
6.4003500507
 21
4.8841096825
 31
0.0
 11
6.4003132366
 21
4.8841467516
 31
0.0
 11
6.4002978737
 21
4.8841622056
 31
0.0
 11
6.4002845417
 21
4.8841756044
 31
0.0
 11
6.4002732416
 21
4.8841869469
 31
0.0
 11
6.4002639747
 21
4.8841962322
 31
0.0
 11
6.4002567418
 21
4.8842034592
 31
0.0
 11
6.4002515443
 21
4.8842086267
 31
0.0
 11
6.400249709
 21
4.8842104379
 31
0.0
 11
6.400248383
 21
4.8842117338
 31
0.0
 11
6.4002472593
 21
4.8842127793
 31
0.0
  0
SPLINE
  5
32A
100
AcDbEntity
  8
0
100
AcDbSpline
 62
6
  6
CONTINUOUS
 70
0
 71
3
 72
14
 73
10
 74
8
 42
0.0000001
 43
0.0000001
 44
0.0000000001
 12
0.1361411282
 22
-0.0013883884
 32
0.0
 13
0.1340191056
 23
-0.0239836142
 33
0.0
 40
0.0
 40
0.0
 40
0.0
 40
0.0
 40
0.1239359338
 40
0.2481364978
 40
0.3727425859
 40
0.4977892396
 40
0.6232069632
 40
0.7488458575
 40
1.0
 40
1.0
 40
1.0
 40
1.0
 10
6.5406512198
 20
3.2472624484
 30
0.0
 10
6.546275479
 20
3.2472050914
 30
0.0
 10
6.5575349582
 20
3.2467997773
 30
0.0
 10
6.5743963523
 20
3.2453736622
 30
0.0
 10
6.591231514
 20
3.2432335557
 30
0.0
 10
6.6080384342
 20
3.24052396
 30
0.0
 10
6.624822458
 20
3.237414922
 30
0.0
 10
6.6471788932
 20
3.232983519
 30
0.0
 10
6.6639469601
 20
3.229621723
 30
0.0
 10
6.675166778
 20
3.2276138616
 30
0.0
 11
6.5406512198
 21
3.2472624484
 31
0.0
 11
6.5575142765
 21
3.2466644851
 31
0.0
 11
6.5743653252
 21
3.2452575116
 31
0.0
 11
6.5911979032
 21
3.243142802
 31
0.0
 11
6.6080103237
 21
3.2404615744
 31
0.0
 11
6.6248056922
 21
3.2373818307
 31
0.0
 11
6.6415908655
 21
3.2340869197
 31
0.0
 11
6.675166778
 21
3.2276138616
 31
0.0
  0
SPLINE
  5
32B
100
AcDbEntity
  8
0
100
AcDbSpline
 62
9
  6
CONTINUOUS
 70
0
 71
3
 72
24
 73
20
 74
18
 42
0.0000001
 43
0.0000001
 44
0.0000000001
 12
0.2884596103
 22
0.154512081
 32
0.0
 13
-0.1326023175
 23
0.2991647629
 33
0.0
 40
0.0
 40
0.0
 40
0.0
 40
0.0
 40
0.0575352016
 40
0.1157373326
 40
0.1746374852
 40
0.2343186306
 40
0.2948469705
 40
0.356230682
 40
0.4184449349
 40
0.4814367776
 40
0.5451290849
 40
0.6094188579
 40
0.6741841744
 40
0.7392801489
 40
0.8045562205
 40
0.8698804341
 40
0.9025256541
 40
0.9351185749
 40
1.0
 40
1.0
 40
1.0
 40
1.0
 10
6.5406512399
 20
3.2472624477
 30
0.0
 10
6.5461834339
 20
3.2502257423
 30
0.0
 10
6.556987703
 20
3.2568136118
 30
0.0
 10
6.5721142419
 20
3.2684490078
 30
0.0
 10
6.5860896036
 20
3.2817876592
 30
0.0
 10
6.5987789208
 20
3.2966871417
 30
0.0
 10
6.6100594392
 20
3.3130085678
 30
0.0
 10
6.619832217
 20
3.3305903084
 30
0.0
 10
6.6279948031
 20
3.3492673274
 30
0.0
 10
6.6344786086
 20
3.3688555987
 30
0.0
 10
6.6392143683
 20
3.389169825
 30
0.0
 10
6.6421657837
 20
3.4100135374
 30
0.0
 10
6.6432959114
 20
3.4311874953
 30
0.0
 10
6.642604583
 20
3.452487684
 30
0.0
 10
6.6400903103
 20
3.4737107592
 30
0.0
 10
6.6364982194
 20
3.4911750556
 30
0.0
 10
6.6327397441
 20
3.5049157785
 30
0.0
 10
6.6284139109
 20
3.5184368745
 30
0.0
 10
6.6245272697
 20
3.5283519731
 30
0.0
 10
6.6216594606
 20
3.5348220519
 30
0.0
 11
6.5406512399
 21
3.2472624477
 31
0.0
 11
6.5567328153
 21
3.2570532339
 31
0.0
 11
6.5718349957
 21
3.2686578147
 31
0.0
 11
6.5857877606
 21
3.2819550117
 31
0.0
 11
6.5984603187
 21
3.2968149726
 31
0.0
 11
6.6097345381
 21
3.3131002284
 31
0.0
 11
6.6195036937
 21
3.330651519
 31
0.0
 11
6.62766952
 21
3.3493008056
 31
0.0
 11
6.6341561831
 21
3.3688667274
 31
0.0
 11
6.638898883
 21
3.3891623227
 31
0.0
 11
6.6418545237
 21
3.409991549
 31
0.0
 11
6.642991539
 21
3.4311545237
 31
0.0
 11
6.6423027786
 21
3.4524450853
 31
0.0
 11
6.6397921923
 21
3.4736576671
 31
0.0
 11
6.635483714
 21
3.4945953594
 31
0.0
 11
6.6326654101
 21
3.5048995602
 31
0.0
 11
6.6294151062
 21
3.5150577864
 31
0.0
 11
6.6216594606
 21
3.5348220519
 31
0.0
  0
SPLINE
  5
32C
100
AcDbEntity
  8
0
100
AcDbSpline
 62
6
  6
CONTINUOUS
 70
0
 71
3
 72
47
 73
43
 74
41
 42
0.0000001
 43
0.0000001
 44
0.0000000001
 12
0.3592784773
 22
0.2004659807
 32
0.0
 13
0.3353696125
 23
-0.2383167151
 33
0.0
 40
0.0
 40
0.0
 40
0.0
 40
0.0
 40
0.0314834952
 40
0.0632693355
 40
0.0953018231
 40
0.1275159258
 40
0.1598385606
 40
0.1921902484
 40
0.2244791447
 40
0.2566099868
 40
0.2884789421
 40
0.3199859058
 40
0.3510330708
 40
0.3815452503
 40
0.3965859949
 40
0.4114805259
 40
0.4262320631
 40
0.4408471814
 40
0.4553375969
 40
0.4697206654
 40
0.4840184019
 40
0.4982558691
 40
0.5124611623
 40
0.5266652216
 40
0.5408993438
 40
0.5551926561
 40
0.5695719078
 40
0.5840612229
 40
0.598680235
 40
0.6134431492
 40
0.6283591649
 40
0.6434338703
 40
0.6586692875
 40
0.674062985
 40
0.7052971711
 40
0.7370768958
 40
0.7693125563
 40
0.8019109029
 40
0.8347727349
 40
0.8678063409
 40
0.9340416527
 40
1.0
 40
1.0
 40
1.0
 40
1.0
 10
7.3977939436
 20
3.2276138626
 30
0.0
 10
7.401564391
 20
3.2297176525
 30
0.0
 10
7.4090810881
 20
3.2340542803
 30
0.0
 10
7.4202480001
 20
3.2408469182
 30
0.0
 10
7.4313736967
 20
3.2478953817
 30
0.0
 10
7.442466947
 20
3.2551298346
 30
0.0
 10
7.4535417333
 20
3.262471717
 30
0.0
 10
7.4646088903
 20
3.269843525
 30
0.0
 10
7.4756860723
 20
3.2771528085
 30
0.0
 10
7.4867868693
 20
3.2843053416
 30
0.0
 10
7.4979303837
 20
3.2911904403
 30
0.0
 10
7.5091316753
 20
3.2976922602
 30
0.0
 10
7.520408482
 20
3.3036777761
 30
0.0
 10
7.5299247193
 20
3.3081416088
 30
0.0
 10
7.5375882998
 20
3.3113059519
 30
0.0
 10
7.54333195
 20
3.3134470614
 30
0.0
 10
7.5490977558
 20
3.3153496024
 30
0.0
 10
7.5548840929
 20
3.3169975103
 30
0.0
 10
7.5606891841
 20
3.3183745672
 30
0.0
 10
7.5665111745
 20
3.3194633405
 30
0.0
 10
7.5723462446
 20
3.3202539431
 30
0.0
 10
7.5781902462
 20
3.3207395438
 30
0.0
 10
7.584039159
 20
3.3209127132
 30
0.0
 10
7.5898883579
 20
3.3207656736
 30
0.0
 10
7.5957330736
 20
3.3203032898
 30
0.0
 10
7.6015691298
 20
3.3195313392
 30
0.0
 10
7.6073922414
 20
3.3184549043
 30
0.0
 10
7.6131981324
 20
3.3170811542
 30
0.0
 10
7.6189845586
 20
3.3154258973
 30
0.0
 10
7.6247494086
 20
3.3135039141
 30
0.0
 10
7.6304905992
 20
3.3113297866
 30
0.0
 10
7.6362069026
 20
3.3089196607
 30
0.0
 10
7.6418984506
 20
3.3062917898
 30
0.0
 10
7.6494905822
 20
3.3025029521
 30
0.0
 10
7.6589115096
 20
3.297309311
 30
0.0
 10
7.6700708947
 20
3.290514193
 30
0.0
 10
7.6811565627
 20
3.2832540492
 30
0.0
 10
7.6921814979
 20
3.2756393712
 30
0.0
 10
7.7031644911
 20
3.2677757278
 30
0.0
 10
7.7177829713
 20
3.2570678212
 30
0.0
 10
7.735962938
 20
3.2435427955
 30
0.0
 10
7.7506068857
 20
3.2328535205
 30
0.0
 10
7.7579803608
 20
3.2276138616
 30
0.0
 11
7.3977939436
 21
3.2276138626
 31
0.0
 11
7.4090196226
 21
3.2340763683
 31
0.0
 11
7.4201981918
 21
3.240862928
 31
0.0
 11
7.4313370047
 21
3.2479062954
 31
0.0
 11
7.4424453297
 21
3.2551355647
 31
0.0
 11
7.4535357171
 21
3.2624735568
 31
0.0
 11
7.4646213973
 21
3.2698402771
 31
0.0
 11
7.4757174211
 21
3.2771445286
 31
0.0
 11
7.4868395022
 21
3.2842894357
 31
0.0
 11
7.4980038856
 21
3.2911647452
 31
0.0
 11
7.5092265421
 21
3.2976518137
 31
0.0
 11
7.5205212699
 21
3.3036176058
 31
0.0
 11
7.5318988557
 21
3.3089220888
 31
0.0
 11
7.5376200644
 21
3.3112800904
 31
0.0
 11
7.5433633241
 21
3.3134170261
 31
0.0
 11
7.5491278903
 21
3.3153153787
 31
0.0
 11
7.5549119144
 21
3.3169588252
 31
0.0
 11
7.5607134964
 21
3.3183310982
 31
0.0
 11
7.5665306133
 21
3.3194164535
 31
0.0
 11
7.572359987
 21
3.3202044792
 31
0.0
 11
7.5781976067
 21
3.3206878762
 31
0.0
 11
7.5840394523
 21
3.3208593845
 31
0.0
 11
7.5898814855
 21
3.3207134725
 31
0.0
 11
7.5957195778
 21
3.3202530018
 31
0.0
 11
7.6015495735
 21
3.3194833785
 31
0.0
 11
7.6073673193
 21
3.3184100205
 31
0.0
 11
7.6131691962
 21
3.3170409644
 31
0.0
 11
7.6189527946
 21
3.3153901739
 31
0.0
 11
7.6247158714
 21
3.313472428
 31
0.0
 11
7.6304562167
 21
3.3113025496
 31
0.0
 11
7.6361726244
 21
3.3088966815
 31
0.0
 11
7.6418650472
 21
3.3062724909
 31
0.0
 11
7.6475335025
 21
3.3034477297
 31
0.0
 11
7.6587996116
 21
3.2972664715
 31
0.0
 11
7.669979341
 21
3.2904866743
 31
0.0
 11
7.6810846139
 21
3.2832364804
 31
0.0
 11
7.6921300094
 21
3.2756291246
 31
0.0
 11
7.7031310294
 21
3.2677697559
 31
0.0
 11
7.7141029857
 21
3.2597495156
 31
0.0
 11
7.7360181836
 21
3.2435531909
 31
0.0
 11
7.7579803608
 21
3.2276138616
 31
0.0
  0
SPLINE
  5
32D
100
AcDbEntity
  8
0
100
AcDbSpline
 62
6
  6
CONTINUOUS
 70
0
 71
3
 72
43
 73
39
 74
37
 42
0.0000001
 43
0.0000001
 44
0.0000000001
 12
0.7324472347
 22
0.0656403934
 32
0.0
 13
0.7082535211
 23
-0.1979003858
 33
0.0
 40
0.0
 40
0.0
 40
0.0
 40
0.0
 40
0.0624962545
 40
0.0937557447
 40
0.1250093343
 40
0.1562563138
 40
0.1875018745
 40
0.249992956
 40
0.2812394417
 40
0.3124861626
 40
0.3437324886
 40
0.3749813648
 40
0.4062317176
 40
0.4374815975
 40
0.453108686
 40
0.46873687
 40
0.4843650997
 40
0.4999928977
 40
0.5156203994
 40
0.5312483434
 40
0.5468771148
 40
0.5625063382
 40
0.5781355975
 40
0.5937644787
 40
0.6093925882
 40
0.625020113
 40
0.6406477603
 40
0.6562757376
 40
0.6875297921
 40
0.7500256112
 40
0.7812747517
 40
0.8125221944
 40
0.843769837
 40
0.8750161629
 40
0.9062622495
 40
0.9375083688
 40
0.9687542291
 40
1.0
 40
1.0
 40
1.0
 40
1.0
 10
6.675166778
 20
3.2276138616
 30
0.0
 10
6.6904251809
 20
3.2289812879
 30
0.0
 10
6.7132552309
 20
3.2317502529
 30
0.0
 10
6.7435261369
 20
3.2365174737
 30
0.0
 10
6.766155325
 20
3.2405446475
 30
0.0
 10
6.7887127998
 20
3.2449331824
 30
0.0
 10
6.8187140766
 20
3.2511444674
 30
0.0
 10
6.8486377325
 20
3.2577184363
 30
0.0
 10
6.8785677097
 20
3.2642624767
 30
0.0
 10
6.9010406762
 20
3.2690552719
 30
0.0
 10
6.9235613335
 20
3.2736234094
 30
0.0
 10
6.946148725
 20
3.277857251
 30
0.0
 10
6.9688161577
 20
3.2816480205
 30
0.0
 10
6.9877786474
 20
3.2843477865
 30
0.0
 10
7.0029913745
 20
3.2861765029
 30
0.0
 10
7.0144218934
 20
3.2873725605
 30
0.0
 10
7.0258704088
 20
3.2883842634
 30
0.0
 10
7.037334272
 20
3.2892023396
 30
0.0
 10
7.0488107766
 20
3.2898179213
 30
0.0
 10
7.0602969996
 20
3.2902209217
 30
0.0
 10
7.0717892111
 20
3.2904069233
 30
0.0
 10
7.0832832059
 20
3.2903768855
 30
0.0
 10
7.094774628
 20
3.2901305462
 30
0.0
 10
7.1062591149
 20
3.2896681628
 30
0.0
 10
7.1177324065
 20
3.2889891184
 30
0.0
 10
7.1291906792
 20
3.288096044
 30
0.0
 10
7.1406310591
 20
3.2869980244
 30
0.0
 10
7.1558570004
 20
3.285271509
 30
0.0
 10
7.1824190176
 20
3.2815894068
 30
0.0
 10
7.2125638402
 20
3.2760049895
 30
0.0
 10
7.2424859212
 20
3.2694113436
 30
0.0
 10
7.2648318443
 20
3.2640477147
 30
0.0
 10
7.2870940175
 20
3.2583523008
 30
0.0
 10
7.3092910734
 20
3.2524102718
 30
0.0
 10
7.3314401611
 20
3.246294072
 30
0.0
 10
7.3535609366
 20
3.2400770683
 30
0.0
 10
7.3756719682
 20
3.2338259241
 30
0.0
 10
7.3904173012
 20
3.229675046
 30
0.0
 10
7.3977939436
 20
3.2276138626
 30
0.0
 11
6.675166778
 21
3.2276138616
 31
0.0
 11
6.72080505
 21
3.2330311081
 31
0.0
 11
6.7435151068
 21
3.2365929942
 31
0.0
 11
6.7661455254
 21
3.2406052738
 31
0.0
 11
6.7887040585
 21
3.2449783052
 31
0.0
 11
6.8112073912
 21
3.2496218907
 31
0.0
 11
6.8561203769
 21
3.2593518699
 31
0.0
 11
6.8785718481
 21
3.2642432471
 31
0.0
 11
6.9010486237
 21
3.2690178292
 31
0.0
 11
6.9235716966
 21
3.2735675459
 31
0.0
 11
6.9461615661
 21
3.2777833159
 31
0.0
 11
6.9688307162
 21
3.2815561742
 31
0.0
 11
6.9915844732
 21
3.2847772585
 31
0.0
 11
7.0029944151
 21
3.286147204
 31
0.0
 11
7.0144248529
 21
3.2873418304
 31
0.0
 11
7.0258731
 21
3.2883520028
 31
0.0
 11
7.037336463
 21
3.2891685961
 31
0.0
 11
7.0488122482
 21
3.289782485
 31
0.0
 11
7.0602977246
 21
3.2901847482
 31
0.0
 11
7.0717893438
 21
3.2903709153
 31
0.0
 11
7.0832827638
 21
3.2903408351
 31
0.0
 11
7.0947736103
 21
3.2900945343
 31
0.0
 11
7.1062575087
 21
3.2896320396
 31
0.0
 11
7.1177300967
 21
3.2889534339
 31
0.0
 11
7.1291876725
 21
3.288061889
 31
0.0
 11
7.1406275274
 21
3.2869652174
 31
0.0
 11
7.1520470342
 21
3.2856716139
 31
0.0
 11
7.1748145014
 21
3.2825263969
 31
0.0
 11
7.22002559
 21
3.274272521
 31
0.0
 11
7.24247039
 21
3.2693415167
 31
0.0
 11
7.2648179501
 21
3.2639924015
 31
0.0
 11
7.2870835304
 21
3.2583111024
 31
0.0
 11
7.3092831954
 21
3.2523812118
 31
0.0
 11
7.331435453
 21
3.2462772684
 31
0.0
 11
7.3535593861
 21
3.2400713575
 31
0.0
 11
7.3756731626
 21
3.2338300526
 31
0.0
 11
7.3977939436
 21
3.2276138626
 31
0.0
  0
SPLINE
  5
32E
100
AcDbEntity
  8
0
100
AcDbSpline
 62
6
  6
CONTINUOUS
 70
0
 71
3
 72
37
 73
33
 74
31
 42
0.0000001
 43
0.0000001
 44
0.0000000001
 12
-0.3467815126
 22
-0.6023784151
 32
0.0
 13
0.346781097
 23
-0.6023786544
 33
0.0
 40
0.0
 40
0.0
 40
0.0
 40
0.0
 40
0.063522096
 40
0.0951753122
 40
0.1267513876
 40
0.1582470927
 40
0.1896603444
 40
0.2209933725
 40
0.2522468321
 40
0.2834212304
 40
0.3145222026
 40
0.3765133249
 40
0.4074328151
 40
0.4383115517
 40
0.4537402218
 40
0.4691636352
 40
0.5000001418
 40
0.5308366492
 40
0.5462600628
 40
0.5616887311
 40
0.5925674612
 40
0.623486946
 40
0.6854780468
 40
0.7165790136
 40
0.7477534056
 40
0.7790068539
 40
0.8103398704
 40
0.8417531152
 40
0.8732488121
 40
0.904824858
 40
0.936478015
 40
1.0
 40
1.0
 40
1.0
 40
1.0
 10
5.743230657
 20
4.2512359088
 30
0.0
 10
5.7358878942
 20
4.238481129
 30
0.0
 10
5.7252446432
 20
4.219159324
 30
0.0
 10
5.7119323016
 20
4.1929809008
 30
0.0
 10
5.7024472977
 20
4.173187115
 30
0.0
 10
5.6934899072
 20
4.1532097384
 30
0.0
 10
5.6851023296
 20
4.1330470447
 30
0.0
 10
5.6773273552
 20
4.1126999022
 30
0.0
 10
5.6702084523
 20
4.0921722995
 30
0.0
 10
5.6637896131
 20
4.0714703509
 30
0.0
 10
5.6562356087
 20
4.0436835344
 30
0.0
 10
5.6502392904
 20
4.0155486496
 30
0.0
 10
5.645976161
 20
3.9871802667
 30
0.0
 10
5.6440535652
 20
3.9693851889
 30
0.0
 10
5.6429719959
 20
3.9551228816
 30
0.0
 10
5.6421988567
 20
3.9408502667
 30
0.0
 10
5.6418123111
 20
3.9229861485
 30
0.0
 10
5.6421988471
 20
3.9051220304
 30
0.0
 10
5.642971962
 20
3.8908494144
 30
0.0
 10
5.6440535137
 20
3.8765871076
 30
0.0
 10
5.6459760989
 20
3.8587920318
 30
0.0
 10
5.6502391996
 20
3.8304236523
 30
0.0
 10
5.6562355079
 20
3.8022887732
 30
0.0
 10
5.6637894679
 20
3.7745019531
 30
0.0
 10
5.6702082576
 20
3.7537999947
 30
0.0
 10
5.6773271371
 20
3.7332723904
 30
0.0
 10
5.6851021638
 20
3.7129252744
 30
0.0
 10
5.693489834
 20
3.6927626261
 30
0.0
 10
5.7024472204
 20
3.672785261
 30
0.0
 10
5.7119319766
 20
3.6529913839
 30
0.0
 10
5.7252436741
 20
3.6268126882
 30
0.0
 10
5.7358864771
 20
3.6074906714
 30
0.0
 10
5.7432292183
 20
3.5947359088
 30
0.0
 11
5.743230657
 21
4.2512359088
 31
0.0
 11
5.7219691362
 21
4.2125402644
 31
0.0
 11
5.7120017683
 21
4.192926512
 31
0.0
 11
5.7025235042
 21
4.1731312151
 31
0.0
 11
5.6935735758
 21
4.1531526995
 31
0.0
 11
5.6851940747
 21
4.1329903508
 31
0.0
 11
5.677427231
 21
4.1126438375
 31
0.0
 11
5.6703166163
 21
4.0921173244
 31
0.0
 11
5.6639069338
 21
4.0714187721
 31
0.0
 11
5.6582425966
 21
4.0505568389
 31
0.0
 11
5.6493124005
 21
4.0084044699
 31
0.0
 11
5.6461223897
 21
3.9871514457
 31
0.0
 11
5.6438207784
 21
3.9658124425
 31
0.0
 11
5.6430103879
 21
3.9551191575
 31
0.0
 11
5.6424306936
 21
3.9444145473
 31
0.0
 11
5.6419669171
 21
3.9229861487
 31
0.0
 11
5.6424306765
 21
3.9015577492
 31
0.0
 11
5.6430103548
 21
3.890853138
 31
0.0
 11
5.643820732
 21
3.8801598532
 31
0.0
 11
5.6461223261
 21
3.8588208527
 31
0.0
 11
5.6493123187
 21
3.8375678297
 31
0.0
 11
5.6582424815
 21
3.7954154688
 31
0.0
 11
5.663906786
 21
3.7745535306
 31
0.0
 11
5.6703164264
 21
3.7538549699
 31
0.0
 11
5.6774270255
 21
3.7333284597
 31
0.0
 11
5.685193915
 21
3.7129819725
 31
0.0
 11
5.6935734868
 21
3.6928196584
 31
0.0
 11
5.7025233894
 21
3.6728411375
 31
0.0
 11
5.7120014086
 21
3.6530457461
 31
0.0
 11
5.7219683333
 21
3.6334318147
 31
0.0
 11
5.7432292183
 21
3.5947359088
 31
0.0
  0
SPLINE
  5
32F
100
AcDbEntity
  8
0
100
AcDbSpline
 62
6
  6
CONTINUOUS
 70
0
 71
3
 72
37
 73
33
 74
31
 42
0.0000001
 43
0.0000001
 44
0.0000000001
 12
-0.3467810975
 22
-0.6023786541
 32
0.0
 13
0.3467815126
 23
-0.6023784151
 33
0.0
 40
0.0
 40
0.0
 40
0.0
 40
0.0
 40
0.0635219839
 40
0.0951751423
 40
0.1267511935
 40
0.1582468986
 40
0.1896601505
 40
0.2209931719
 40
0.2522466303
 40
0.2834210304
 40
0.3145220017
 40
0.3765131203
 40
0.4074326075
 40
0.4383113446
 40
0.4537400151
 40
0.4691634283
 40
0.4999999344
 40
0.5308364422
 40
0.546259856
 40
0.561688524
 40
0.5925672536
 40
0.6234867415
 40
0.6854778459
 40
0.7165788137
 40
0.7477532038
 40
0.7790066533
 40
0.8103396766
 40
0.8417529211
 40
0.8732486179
 40
0.9048246881
 40
0.9364779029
 40
1.0
 40
1.0
 40
1.0
 40
1.0
 10
5.743229218
 20
4.9077359088
 30
0.0
 10
5.7358864769
 20
4.8949811464
 30
0.0
 10
5.7252436736
 20
4.8756591298
 30
0.0
 10
5.7119319757
 20
4.8494804329
 30
0.0
 10
5.7024472185
 20
4.8296865525
 30
0.0
 10
5.6934898302
 20
4.8097091829
 30
0.0
 10
5.6851021582
 20
4.7895465303
 30
0.0
 10
5.6773271305
 20
4.7691994092
 30
0.0
 10
5.6702082514
 20
4.748671799
 30
0.0
 10
5.6637894591
 20
4.727969836
 30
0.0
 10
5.6562354978
 20
4.7001830088
 30
0.0
 10
5.6502391931
 20
4.6720481233
 30
0.0
 10
5.645976088
 20
4.6436797379
 30
0.0
 10
5.6440535164
 20
4.625884658
 30
0.0
 10
5.6429719624
 20
4.6116223494
 30
0.0
 10
5.6421988346
 20
4.597349734
 30
0.0
 10
5.6418123111
 20
4.5794856153
 30
0.0
 10
5.6421988692
 20
4.5616214977
 30
0.0
 10
5.6429719955
 20
4.5473488823
 30
0.0
 10
5.6440535625
 20
4.5330865767
 30
0.0
 10
5.6459761719
 20
4.5152915031
 30
0.0
 10
5.650239297
 20
4.4869231261
 30
0.0
 10
5.6562356188
 20
4.4587882476
 30
0.0
 10
5.6637896218
 20
4.4310014382
 30
0.0
 10
5.6702084584
 20
4.4102994943
 30
0.0
 10
5.6773273619
 20
4.3897718974
 30
0.0
 10
5.6851023354
 20
4.3694247601
 30
0.0
 10
5.6934899112
 20
4.3492620707
 30
0.0
 10
5.7024472997
 20
4.3292846985
 30
0.0
 10
5.7119323024
 20
4.3094909159
 30
0.0
 10
5.7252446435
 20
4.283312494
 30
0.0
 10
5.7358878943
 20
4.2639906889
 30
0.0
 10
5.7432306573
 20
4.2512359088
 30
0.0
 11
5.743229218
 21
4.9077359088
 31
0.0
 11
5.7219683333
 21
4.8690400037
 31
0.0
 11
5.7120014081
 21
4.8494260715
 31
0.0
 11
5.7025233877
 21
4.8296306766
 31
0.0
 11
5.6935734829
 21
4.8096521504
 31
0.0
 11
5.6851939094
 21
4.7894898316
 31
0.0
 11
5.6774270196
 21
4.769143341
 31
0.0
 11
5.6703164196
 21
4.7486168237
 31
0.0
 11
5.6639067772
 21
4.7279182576
 31
0.0
 11
5.6582424724
 21
4.7070563163
 31
0.0
 11
5.6493123101
 21
4.6649039426
 31
0.0
 11
5.6461223186
 21
4.6436509178
 31
0.0
 11
5.643820733
 21
4.6223119114
 31
0.0
 11
5.6430103539
 21
4.6116186253
 31
0.0
 11
5.6424306692
 21
4.6009140147
 31
0.0
 11
5.6419669171
 21
4.5794856159
 31
0.0
 11
5.6424307009
 21
4.5580572166
 31
0.0
 11
5.6430103888
 21
4.5473526058
 31
0.0
 11
5.6438207773
 21
4.5366593221
 31
0.0
 11
5.6461223972
 21
4.5153203248
 31
0.0
 11
5.6493124091
 21
4.4940673024
 31
0.0
 11
5.6582426057
 21
4.4519149462
 31
0.0
 11
5.6639069425
 21
4.431053016
 31
0.0
 11
5.670316623
 21
4.4103544691
 31
0.0
 11
5.677427237
 21
4.3898279632
 31
0.0
 11
5.6851940805
 21
4.3694814534
 31
0.0
 11
5.6935735798
 21
4.3493191093
 31
0.0
 11
5.7025235059
 21
4.329340599
 31
0.0
 11
5.7120017687
 21
4.3095453055
 31
0.0
 11
5.7219691362
 21
4.2899315541
 31
0.0
 11
5.7432306573
 21
4.2512359088
 31
0.0
  0
SPLINE
  5
330
100
AcDbEntity
  8
0
100
AcDbSpline
 62
6
  6
CONTINUOUS
 70
0
 71
3
 72
24
 73
20
 74
18
 42
0.0000001
 43
0.0000001
 44
0.0000000001
 12
0.1911751505
 22
0.0
 32
0.0
 13
0.1911651775
 23
-0.0019527122
 33
0.0
 40
0.0
 40
0.0
 40
0.0
 40
0.0
 40
0.0622014008
 40
0.1244868528
 40
0.1868938551
 40
0.2494364218
 40
0.374855213
 40
0.5004667522
 40
0.563230782
 40
0.6259154336
 40
0.6572200085
 40
0.6884967445
 40
0.7197448445
 40
0.7509644955
 40
0.8133235245
 40
0.8444692041
 40
0.8755963819
 40
0.9378102235
 40
1.0
 40
1.0
 40
1.0
 40
1.0
 10
6.3507435556
 20
3.2276138616
 30
0.0
 10
6.354707343
 20
3.2276138616
 30
0.0
 10
6.3626411285
 20
3.2278017462
 30
0.0
 10
6.3745289738
 20
3.228564556
 30
0.0
 10
6.3864056637
 20
3.2297262951
 30
0.0
 10
6.4022393044
 20
3.231700048
 30
0.0
 10
6.4219895409
 20
3.234755461
 30
0.0
 10
6.4417099636
 20
3.2380647462
 30
0.0
 10
6.4575109697
 20
3.2405743539
 30
0.0
 10
6.4673936936
 20
3.2420307713
 30
0.0
 10
6.4753047925
 20
3.2430973846
 30
0.0
 10
6.481237595
 20
3.2438422058
 30
0.0
 10
6.4871723233
 20
3.2445260602
 30
0.0
 10
6.4950844879
 20
3.2453477307
 30
0.0
 10
6.5030045212
 20
3.2460264295
 30
0.0
 10
6.5109296482
 20
3.2465495352
 30
0.0
 10
6.5188519661
 20
3.2469639558
 30
0.0
 10
6.5287596385
 20
3.2472744252
 30
0.0
 10
6.5366883799
 20
3.247302928
 30
0.0
 10
6.5406512198
 20
3.2472624484
 30
0.0
 11
6.3507435556
 21
3.2276138616
 31
0.0
 11
6.362631904
 21
3.2278815638
 31
0.0
 11
6.3745157827
 21
3.2286301176
 31
0.0
 11
6.3863911234
 21
3.229777778
 31
0.0
 11
6.3982575796
 21
3.2312430872
 31
0.0
 11
6.4219686618
 21
3.2348038475
 31
0.0
 11
6.4456673298
 21
3.2386814709
 31
0.0
 11
6.4575193963
 21
3.2405530124
 31
0.0
 11
6.4693766106
 21
3.2422898714
 31
0.0
 11
6.475307729
 21
3.2430885901
 31
0.0
 11
6.4812406233
 21
3.2438323706
 31
0.0
 11
6.4871753383
 21
3.2445151323
 31
0.0
 11
6.4931119129
 21
3.2451308732
 31
0.0
 11
6.5049902371
 21
3.2461445287
 31
0.0
 11
6.5109316285
 21
3.246536089
 31
0.0
 11
6.5168742629
 21
3.246846632
 31
0.0
 11
6.5287621575
 21
3.2472194943
 31
0.0
 11
6.5406512198
 21
3.2472624484
 31
0.0
  0
SPLINE
  5
331
100
AcDbEntity
  8
0
100
AcDbSpline
 62
9
  6
CONTINUOUS
 70
0
 71
3
 72
61
 73
57
 74
55
 42
0.0000001
 43
0.0000001
 44
0.0000000001
 12
-0.4827671221
 22
0.7097140614
 32
0.0
 13
-0.1752698443
 23
0.8402610458
 33
0.0
 40
0.0
 40
0.0
 40
0.0
 40
0.0
 40
0.0868687189
 40
0.1732109678
 40
0.2585954641
 40
0.342613113
 40
0.4248524547
 40
0.5048257454
 40
0.5819959814
 40
0.619332897
 40
0.6557240265
 40
0.6910794448
 40
0.7252885011
 40
0.7582347812
 40
0.7898003018
 40
0.819845373
 40
0.8482144988
 40
0.8747503327
 40
0.8992748125
 40
0.9107224391
 40
0.9215947292
 40
0.9318673464
 40
0.941515038
 40
0.9505121831
 40
0.9588331586
 40
0.9664523401
 40
0.9733448512
 40
0.9794891504
 40
0.9822742787
 40
0.9848646237
 40
0.9872576083
 40
0.9894506557
 40
0.9914411888
 40
0.9932267536
 40
0.994805901
 40
0.9961776735
 40
0.996785496
 40
0.997341117
 40
0.9978444171
 40
0.9982952771
 40
0.9986935777
 40
0.9990391997
 40
0.9993320237
 40
0.9994585992
 40
0.9995719304
 40
0.9996720026
 40
0.9997588007
 40
0.9998323099
 40
0.9998925152
 40
0.9999394017
 40
0.9999578458
 40
0.9999729546
 40
0.9999847263
 40
0.9999931589
 40
0.9999982507
 40
1.0
 40
1.0
 40
1.0
 40
1.0
 10
6.9924552668
 20
4.2512358984
 30
0.0
 10
6.9784761463
 20
4.2717865488
 30
0.0
 10
6.9506042413
 20
4.3127644007
 30
0.0
 10
6.9090028548
 20
4.3739491198
 30
0.0
 10
6.8678754355
 20
4.4344696672
 30
0.0
 10
6.8274275193
 20
4.4940326639
 30
0.0
 10
6.7878728532
 20
4.5523307746
 30
0.0
 10
6.7494509122
 20
4.6090298836
 30
0.0
 10
6.7182727622
 20
4.6551185129
 30
0.0
 10
6.6941106795
 20
4.6908986177
 30
0.0
 10
6.6766602088
 20
4.7167747434
 30
0.0
 10
6.659728155
 20
4.7419210558
 30
0.0
 10
6.6433660549
 20
4.7662628958
 30
0.0
 10
6.6276298139
 20
4.7897188635
 30
0.0
 10
6.612580276
 20
4.8122008595
 30
0.0
 10
6.5982828924
 20
4.8336104041
 30
0.0
 10
6.584808247
 20
4.8538389014
 30
0.0
 10
6.5722337165
 20
4.8727690855
 30
0.0
 10
6.5623579011
 20
4.887679593
 30
0.0
 10
6.5549682093
 20
4.898861287
 30
0.0
 10
6.5498320121
 20
4.906644559
 30
0.0
 10
6.544984577
 20
4.9140013689
 30
0.0
 10
6.5404370054
 20
4.9209132562
 30
0.0
 10
6.5362005346
 20
4.927361411
 30
0.0
 10
6.5322864763
 20
4.9333269459
 30
0.0
 10
6.52870602
 20
4.9387911496
 30
0.0
 10
6.52546972
 20
4.9437362919
 30
0.0
 10
6.5229928229
 20
4.9475254617
 30
0.0
 10
6.521190461
 20
4.9502849912
 30
0.0
 10
6.5199754465
 20
4.9521461805
 30
0.0
 10
6.5188533967
 20
4.9538657531
 30
0.0
 10
6.5178254253
 20
4.9554417943
 30
0.0
 10
6.5168926299
 20
4.9568724212
 30
0.0
 10
6.5160559225
 20
4.958156015
 30
0.0
 10
6.5153160182
 20
4.9592913817
 30
0.0
 10
6.5147601952
 20
4.9601445021
 30
0.0
 10
6.5143642919
 20
4.9607522964
 30
0.0
 10
6.5141040371
 20
4.9611518999
 30
0.0
 10
6.5138683168
 20
4.961513888
 30
0.0
 10
6.513657183
 20
4.9618381725
 30
0.0
 10
6.513470688
 20
4.9621246652
 30
0.0
 10
6.5133088839
 20
4.9623732779
 30
0.0
 10
6.5131895073
 20
4.9625567435
 30
0.0
 10
6.5131063916
 20
4.9626845105
 30
0.0
 10
6.5130533552
 20
4.9627660532
 30
0.0
 10
6.5130065304
 20
4.9628380596
 30
0.0
 10
6.5129659247
 20
4.9629005192
 30
0.0
 10
6.5129315416
 20
4.9629534196
 30
0.0
 10
6.5129033961
 20
4.9629967532
 30
0.0
 10
6.5128838266
 20
4.9630268743
 30
0.0
 10
6.5128713177
 20
4.963046189
 30
0.0
 10
6.5128642299
 20
4.9630570575
 30
0.0
 10
6.5128588272
 20
4.9630655734
 30
0.0
 10
6.5128546983
 20
4.9630715735
 30
0.0
 10
6.512852688
 20
4.9630753873
 30
0.0
 10
6.5128512614
 20
4.9630768909
 30
0.0
 10
6.5128511592
 20
4.9630773809
 30
0.0
 11
6.9924552668
 21
4.2512358984
 31
0.0
 11
6.9505212098
 21
4.3128900973
 31
0.0
 11
6.9088513746
 21
4.3741774937
 31
0.0
 11
6.867658995
 21
4.4347954127
 31
0.0
 11
6.8271457283
 21
4.494456333
 31
0.0
 11
6.7875145368
 21
4.5528711589
 31
0.0
 11
6.7490087045
 21
4.6096990128
 31
0.0
 11
6.7118969399
 21
4.6645651446
 31
0.0
 11
6.6939620387
 21
4.6911247666
 31
0.0
 11
6.6764976654
 21
4.7170225467
 31
0.0
 11
6.6595483729
 21
4.7421954149
 31
0.0
 11
6.6431681951
 21
4.7665652326
 31
0.0
 11
6.6274138041
 21
4.7900496684
 31
0.0
 11
6.612342536
 21
4.8125652074
 31
0.0
 11
6.5980208748
 21
4.8340120309
 31
0.0
 11
6.5845219646
 21
4.8542784503
 31
0.0
 11
6.5719196793
 21
4.8732513521
 31
0.0
 11
6.5602959168
 21
4.8908016061
 31
0.0
 11
6.5548783989
 21
4.8989992456
 31
0.0
 11
6.5497384391
 21
4.9067883763
 31
0.0
 11
6.5448870562
 21
4.9141512367
 31
0.0
 11
6.5403354749
 21
4.9210692601
 31
0.0
 11
6.5360950026
 21
4.9275235571
 31
0.0
 11
6.5321769471
 21
4.9334952375
 31
0.0
 11
6.5285926159
 21
4.9389654112
 31
0.0
 11
6.5253529589
 21
4.943915722
 31
0.0
 11
6.5224673317
 21
4.9483301929
 31
0.0
 11
6.5211600643
 21
4.9503317024
 31
0.0
 11
6.5199446464
 21
4.9521935089
 31
0.0
 11
6.518822192
 21
4.9539136978
 31
0.0
 11
6.5177938152
 21
4.9554903549
 31
0.0
 11
6.5168606298
 21
4.9569215658
 31
0.0
 11
6.5160236973
 21
4.9582055076
 31
0.0
 11
6.5152836475
 21
4.9593411066
 31
0.0
 11
6.5146409
 21
4.9603276548
 31
0.0
 11
6.514356145
 21
4.9607648145
 31
0.0
 11
6.5140958724
 21
4.9611644471
 31
0.0
 11
6.5138601341
 21
4.9615264642
 31
0.0
 11
6.5136489826
 21
4.9618507779
 31
0.0
 11
6.51346247
 21
4.9621372999
 31
0.0
 11
6.5133006485
 21
4.9623859421
 31
0.0
 11
6.5131635705
 21
4.9625966162
 31
0.0
 11
6.5131043266
 21
4.9626876877
 31
0.0
 11
6.5130512881
 21
4.9627692342
 31
0.0
 11
6.5130044615
 21
4.9628412445
 31
0.0
 11
6.5129638535
 21
4.9629037078
 31
0.0
 11
6.5129294705
 21
4.9629566129
 31
0.0
 11
6.512901319
 21
4.9629999489
 31
0.0
 11
6.5128794056
 21
4.9630337047
 31
0.0
 11
6.5128707902
 21
4.9630469866
 31
0.0
 11
6.5128637368
 21
4.9630578693
 31
0.0
 11
6.5128582462
 21
4.9630663514
 31
0.0
 11
6.5128543192
 21
4.9630724317
 31
0.0
 11
6.5128519566
 21
4.9630761086
 31
0.0
 11
6.5128511592
 21
4.9630773809
 31
0.0
  0
SPLINE
  5
332
100
AcDbEntity
  8
0
100
AcDbSpline
 62
6
  6
CONTINUOUS
 70
0
 71
3
 72
26
 73
22
 74
20
 42
0.0000001
 43
0.0000001
 44
0.0000000001
 12
-0.0
 22
0.1394873472
 32
0.0
 13
0.1359984262
 23
0.0310023885
 33
0.0
 40
0.0
 40
0.0
 40
0.0
 40
0.0
 40
0.0639989061
 40
0.1258824933
 40
0.1561166211
 40
0.1859215302
 40
0.2444559686
 40
0.3020158941
 40
0.330601033
 40
0.3591353557
 40
0.3876887909
 40
0.4163284108
 40
0.4740940551
 40
0.5328987735
 40
0.5931522354
 40
0.655203256
 40
0.7193185505
 40
0.7857161338
 40
0.8545639125
 40
0.925972009
 40
1.0
 40
1.0
 40
1.0
 40
1.0
 10
3.8291732742
 20
4.6454479393
 30
0.0
 10
3.8291732742
 20
4.6484236186
 30
0.0
 10
3.8294302634
 20
4.6542803787
 30
0.0
 10
3.8304362988
 20
4.6614814737
 30
0.0
 10
3.8316464477
 20
4.6670220597
 30
0.0
 10
3.8331019416
 20
4.6723418506
 30
0.0
 10
3.8354084673
 20
4.6787360335
 30
0.0
 10
3.8383689735
 20
4.6847923479
 30
0.0
 10
3.8410955723
 20
4.6893771667
 30
0.0
 10
3.8433150959
 20
4.6926873422
 30
0.0
 10
3.8457094179
 20
4.6958764281
 30
0.0
 10
3.8491387713
 20
4.6999790199
 30
0.0
 10
3.8538620448
 20
4.7048205886
 30
0.0
 10
3.8601510489
 20
4.7101337821
 30
0.0
 10
3.8670482031
 20
4.7149825129
 30
0.0
 10
3.8745241877
 20
4.719385314
 30
0.0
 10
3.882553727
 20
4.7233621224
 30
0.0
 10
3.8911135507
 20
4.7269338357
 30
0.0
 10
3.9001824265
 20
4.7301225945
 30
0.0
 10
3.9097397011
 20
4.7329505086
 30
0.0
 10
3.9163049211
 20
4.7345800651
 30
0.0
 10
3.9196608178
 20
4.7353450799
 30
0.0
 11
3.8291732742
 21
4.6454479393
 31
0.0
 11
3.8295778308
 21
4.6543658054
 31
0.0
 11
3.8307849838
 21
4.6629129579
 31
0.0
 11
3.8316864792
 21
4.6670327567
 31
0.0
 11
3.832784823
 21
4.6710424549
 31
0.0
 11
3.8355612112
 21
4.6787207261
 31
0.0
 11
3.8390893012
 21
4.6859329044
 31
0.0
 11
3.8411272666
 21
4.6893599995
 31
0.0
 11
3.843343447
 21
4.692666108
 31
0.0
 11
3.8457341198
 21
4.6958516568
 31
0.0
 11
3.8482955005
 21
4.698917317
 31
0.0
 11
3.8539152477
 21
4.704691655
 31
0.0
 11
3.8601726085
 21
4.7099951138
 31
0.0
 11
3.8670397118
 21
4.7148407427
 31
0.0
 11
3.8744900831
 21
4.7192460513
 31
0.0
 11
3.8824975635
 21
4.7232288113
 31
0.0
 11
3.8910392533
 21
4.7268089218
 31
0.0
 11
3.9000942841
 21
4.7300076082
 31
0.0
 11
3.9096418057
 21
4.7328460776
 31
0.0
 11
3.9196608178
 21
4.7353450799
 31
0.0
  0
SPLINE
  5
333
100
AcDbEntity
  8
0
100
AcDbSpline
 62
6
  6
CONTINUOUS
 70
0
 71
3
 72
26
 73
22
 74
20
 42
0.0000001
 43
0.0000001
 44
0.0000000001
 12
0.1358887299
 22
-0.031030963
 32
0.0
 13
0.0000000001
 23
-0.1393867554
 33
0.0
 40
0.0
 40
0.0
 40
0.0
 40
0.0
 40
0.0740127177
 40
0.1454071358
 40
0.2142431484
 40
0.2806311571
 40
0.3447393079
 40
0.406785709
 40
0.4670372228
 40
0.5258427439
 40
0.5836117302
 40
0.6122538955
 40
0.6408104157
 40
0.6693483143
 40
0.6979374392
 40
0.7555062564
 40
0.8140504226
 40
0.8438603509
 40
0.8740994446
 40
0.9359925144
 40
1.0
 40
1.0
 40
1.0
 40
1.0
 10
4.1487838444
 20
4.7353226944
 30
0.0
 10
4.1521363425
 20
4.7345571325
 30
0.0
 10
4.1586948935
 20
4.7329265339
 30
0.0
 10
4.1682422992
 20
4.7300972598
 30
0.0
 10
4.1773017132
 20
4.7269073892
 30
0.0
 10
4.1858525139
 20
4.7233348535
 30
0.0
 10
4.193873495
 20
4.7193575566
 30
0.0
 10
4.2013414156
 20
4.7149546483
 30
0.0
 10
4.2082310316
 20
4.7101062363
 30
0.0
 10
4.2145130587
 20
4.7047938336
 30
0.0
 10
4.2192309688
 20
4.6999534247
 30
0.0
 10
4.2226564003
 20
4.6958520398
 30
0.0
 10
4.2250479905
 20
4.6926639664
 30
0.0
 10
4.2272649633
 20
4.6893549478
 30
0.0
 10
4.2299884231
 20
4.6847718515
 30
0.0
 10
4.2329454794
 20
4.6787181099
 30
0.0
 10
4.2352492756
 20
4.6723270023
 30
0.0
 10
4.2367030357
 20
4.6670099137
 30
0.0
 10
4.237911741
 20
4.6614722758
 30
0.0
 10
4.2389165815
 20
4.6542752428
 30
0.0
 10
4.2391732742
 20
4.6484218713
 30
0.0
 10
4.2391732742
 20
4.6454479394
 30
0.0
 11
4.1487838444
 21
4.7353226944
 31
0.0
 11
4.1587925979
 21
4.7328221326
 31
0.0
 11
4.1683302375
 21
4.7299823236
 31
0.0
 11
4.1773757995
 21
4.7267825515
 31
0.0
 11
4.185908467
 21
4.7232016483
 31
0.0
 11
4.1939074032
 21
4.7192184304
 31
0.0
 11
4.2013497303
 21
4.7148130478
 31
0.0
 11
4.2082093286
 21
4.7099677685
 31
0.0
 11
4.2144597683
 21
4.7046651208
 31
0.0
 11
4.2200732181
 21
4.6988921135
 31
0.0
 11
4.2226316997
 21
4.6958273234
 31
0.0
 11
4.2250196489
 21
4.6926427844
 31
0.0
 11
4.2272332879
 21
4.6893378282
 31
0.0
 11
4.2292689021
 21
4.6859120342
 31
0.0
 11
4.2327928898
 21
4.6787029155
 31
0.0
 11
4.2355660135
 21
4.6710282834
 31
0.0
 11
4.236663054
 21
4.6670206115
 31
0.0
 11
4.2375634779
 21
4.6629029829
 31
0.0
 11
4.2387691974
 21
4.6543605799
 31
0.0
 11
4.2391732742
 21
4.6454479394
 31
0.0
  0
SPLINE
  5
334
100
AcDbEntity
  8
0
100
AcDbSpline
 62
6
  6
CONTINUOUS
 70
0
 71
3
 72
26
 73
22
 74
20
 42
0.0000001
 43
0.0000001
 44
0.0000000001
 12
0.0
 22
-0.1394663803
 32
0.0
 13
-0.1359756224
 23
-0.0310080854
 33
0.0
 40
0.0
 40
0.0
 40
0.0
 40
0.0
 40
0.0640018612
 40
0.125888928
 40
0.156124712
 40
0.1859309228
 40
0.244466074
 40
0.3020250118
 40
0.3306093596
 40
0.3591432415
 40
0.3876965419
 40
0.4163360193
 40
0.4741002971
 40
0.5329025415
 40
0.5931552498
 40
0.6552055711
 40
0.7193199465
 40
0.7857182932
 40
0.8545668413
 40
0.9259740288
 40
1.0
 40
1.0
 40
1.0
 40
1.0
 10
4.2391732742
 20
3.8570238783
 30
0.0
 10
4.2391732742
 20
3.854048509
 30
0.0
 10
4.2389162918
 20
3.8481923309
 30
0.0
 10
4.2379104244
 20
3.8409919416
 30
0.0
 10
4.2367005715
 20
3.8354518588
 30
0.0
 10
4.2352455134
 20
3.830132632
 30
0.0
 10
4.2329396533
 20
3.8237392455
 30
0.0
 10
4.2299799458
 20
3.8176837226
 30
0.0
 10
4.2272540351
 20
3.8130995483
 30
0.0
 10
4.2250351168
 20
3.8097897672
 30
0.0
 10
4.2226414803
 20
3.8066009595
 30
0.0
 10
4.2192131444
 20
3.8024986666
 30
0.0
 10
4.2144912804
 20
3.7976573962
 30
0.0
 10
4.2082038522
 20
3.7923445855
 30
0.0
 10
4.2013084624
 20
3.7874958784
 30
0.0
 10
4.1938342258
 20
3.7830928898
 30
0.0
 10
4.1858063382
 20
3.7791158653
 30
0.0
 10
4.1772481263
 20
3.7755438351
 30
0.0
 10
4.1681808954
 20
3.7723546657
 30
0.0
 10
4.158625414
 20
3.7695263209
 30
0.0
 10
4.1520614419
 20
3.7678965178
 30
0.0
 10
4.1487061994
 20
3.7671313832
 30
0.0
 11
4.2391732742
 21
3.8570238783
 31
0.0
 11
4.2387687606
 21
3.848106941
 31
0.0
 11
4.2375618281
 21
3.8395605776
 31
0.0
 11
4.2366605524
 21
3.8354411432
 31
0.0
 11
4.2355625122
 21
3.8314318216
 31
0.0
 11
4.2327869039
 21
3.8237544677
 31
0.0
 11
4.229259786
 21
3.8165433107
 31
0.0
 11
4.2272223663
 21
3.8131167168
 31
0.0
 11
4.2250067899
 21
3.8098109977
 31
0.0
 11
4.2226167871
 21
3.8066257181
 31
0.0
 11
4.2200561369
 21
3.8035602561
 31
0.0
 11
4.2144380098
 21
3.7977862973
 31
0.0
 11
4.2081823733
 21
3.7924832448
 31
0.0
 11
4.201316939
 21
3.7876376243
 31
0.0
 11
4.1938682893
 21
3.783232152
 31
0.0
 11
4.1858625482
 21
3.7792492015
 31
0.0
 11
4.1773223994
 21
3.7756687406
 31
0.0
 11
4.1682689371
 21
3.7724696261
 31
0.0
 11
4.1587232306
 21
3.7696307502
 31
0.0
 11
4.1487061994
 21
3.7671313832
 31
0.0
  0
SPLINE
  5
335
100
AcDbEntity
  8
0
100
AcDbSpline
 62
6
  6
CONTINUOUS
 70
0
 71
3
 72
26
 73
22
 74
20
 42
0.0000001
 43
0.0000001
 44
0.0000000001
 12
-0.1359932467
 22
0.0310034839
 32
0.0
 13
0.0
 23
0.1394825407
 33
0.0
 40
0.0
 40
0.0
 40
0.0
 40
0.0
 40
0.0740284392
 40
0.1454378588
 40
0.2142883872
 40
0.280688363
 40
0.344803916
 40
0.4068550074
 40
0.4671080585
 40
0.5259101504
 40
0.5836739261
 40
0.6123130367
 40
0.640865882
 40
0.6693992129
 40
0.6979829346
 40
0.7555405289
 40
0.8140740898
 40
0.8438793549
 40
0.8741141994
 40
0.9359995733
 40
1.0
 40
1.0
 40
1.0
 40
1.0
 10
3.9196561105
 20
3.7671277889
 30
0.0
 10
3.9163003213
 20
3.7678928354
 30
0.0
 10
3.9097352754
 20
3.7695224711
 30
0.0
 10
3.9001782027
 20
3.7723506011
 30
0.0
 10
3.8911094428
 20
3.7755395968
 30
0.0
 10
3.8825497724
 20
3.7791114992
 30
0.0
 10
3.8745205039
 20
3.7830884486
 30
0.0
 10
3.8670449707
 20
3.7874914265
 30
0.0
 10
3.8601483718
 20
3.7923401896
 30
0.0
 10
3.8538598191
 20
3.797653126
 30
0.0
 10
3.8491370969
 20
3.8024945897
 30
0.0
 10
3.8457081324
 20
3.8065970847
 30
0.0
 10
3.8433140572
 20
3.8097860612
 30
0.0
 10
3.8410947279
 20
3.8130960315
 30
0.0
 10
3.838368311
 20
3.817680488
 30
0.0
 10
3.8354080642
 20
3.8237364356
 30
0.0
 10
3.8331017743
 20
3.830130314
 30
0.0
 10
3.8316464279
 20
3.8354499572
 30
0.0
 10
3.8304363431
 20
3.8409904923
 30
0.0
 10
3.8294302966
 20
3.848191519
 30
0.0
 10
3.8291732742
 20
3.8540482309
 30
0.0
 10
3.8291732742
 20
3.8570238783
 30
0.0
 11
3.9196561105
 21
3.7671277889
 31
0.0
 11
3.9096374292
 21
3.7696269055
 31
0.0
 11
3.9000901308
 21
3.7724655688
 31
0.0
 11
3.8910351358
 21
3.7756645145
 31
0.0
 11
3.882493526
 21
3.7792448536
 31
0.0
 11
3.8744864092
 21
3.7832277336
 31
0.0
 11
3.867036466
 21
3.7876331996
 31
0.0
 11
3.8601698248
 21
3.7924788816
 31
0.0
 11
3.853913079
 21
3.7977820622
 31
0.0
 11
3.8482939419
 21
3.8035562429
 31
0.0
 11
3.8457328257
 21
3.8066218521
 31
0.0
 11
3.8433423848
 21
3.8098073005
 31
0.0
 11
3.8411263995
 21
3.8131132081
 31
0.0
 11
3.8390886029
 21
3.8165400137
 31
0.0
 11
3.8355608345
 21
3.8237516794
 31
0.0
 11
3.8327847079
 21
3.8314296158
 31
0.0
 11
3.8316864561
 21
3.8354392422
 31
0.0
 11
3.8307850089
 21
3.8395590051
 31
0.0
 11
3.829577857
 21
3.8481061091
 31
0.0
 11
3.8291732742
 21
3.8570238783
 31
0.0
  0
SPLINE
  5
336
100
AcDbEntity
  8
0
100
AcDbSpline
 62
9
  6
CONTINUOUS
 70
0
 71
3
 72
27
 73
23
 74
21
 42
0.0000001
 43
0.0000001
 44
0.0000000001
 12
0.2082339059
 22
-0.1501131292
 32
0.0
 13
0.2082360485
 23
0.1501101569
 33
0.0
 40
0.0
 40
0.0
 40
0.0
 40
0.0
 40
0.0576321663
 40
0.0871372236
 40
0.1170763814
 40
0.1474286795
 40
0.1781700759
 40
0.2407021531
 40
0.3690355176
 40
0.4016381957
 40
0.4343611647
 40
0.4999993193
 40
0.5656374986
 40
0.598360498
 40
0.6309632185
 40
0.7592968662
 40
0.8218291459
 40
0.8525706562
 40
0.8829230758
 40
0.9128623621
 40
0.9423675534
 40
1.0
 40
1.0
 40
1.0
 40
1.0
 10
3.913012873
 20
4.8337826482
 30
0.0
 10
3.9170131967
 20
4.8308988666
 30
0.0
 10
3.923274322
 20
4.8268252776
 30
0.0
 10
3.9320134445
 20
4.821923935
 30
0.0
 10
3.9388726827
 20
4.8184557702
 30
0.0
 10
3.9459663331
 20
4.8152327567
 30
0.0
 10
3.9557692043
 20
4.8112497274
 30
0.0
 10
3.9737469882
 20
4.8051693539
 30
0.0
 10
3.9925252282
 20
4.8011306054
 30
0.0
 10
4.0089703461
 20
4.7990885854
 30
0.0
 10
4.0201355421
 20
4.7981026398
 30
0.0
 10
4.034171999
 20
4.797611197
 30
0.0
 10
4.0482084636
 20
4.7981024908
 30
0.0
 10
4.0593736785
 20
4.7990883174
 30
0.0
 10
4.0758188486
 20
4.8011301641
 30
0.0
 10
4.0945971767
 20
4.8051687153
 30
0.0
 10
4.1125750802
 20
4.8112488945
 30
0.0
 10
4.1223780344
 20
4.815231819
 30
0.0
 10
4.1294717532
 20
4.8184547573
 30
0.0
 10
4.1363310651
 20
4.8219228489
 30
0.0
 10
4.1450702927
 20
4.8268240989
 30
0.0
 10
4.1513315036
 20
4.8308976211
 30
0.0
 10
4.1553318879
 20
4.8337813597
 30
0.0
 11
3.913012873
 21
4.8337826482
 31
0.0
 11
3.9254017431
 21
4.8256965508
 31
0.0
 11
3.9320065502
 21
4.8219895868
 31
0.0
 11
3.9388639839
 21
4.8185195619
 31
0.0
 11
3.9459566817
 21
4.8152945837
 31
0.0
 11
3.953266912
 21
4.8123224117
 31
0.0
 11
3.9684684207
 21
4.8071666404
 31
0.0
 11
4.0006603358
 21
4.8001709062
 31
0.0
 11
4.0089656009
 21
4.7991389285
 31
0.0
 11
4.0173330298
 21
4.7983997723
 31
0.0
 11
4.0341719979
 21
4.7978078595
 31
0.0
 11
4.0510109786
 21
4.7983995932
 31
0.0
 11
4.0593784232
 21
4.7991386604
 31
0.0
 11
4.0676837103
 21
4.8001705498
 31
0.0
 11
4.0998757741
 21
4.8071659417
 31
0.0
 11
4.1150773926
 21
4.8123215511
 31
0.0
 11
4.122387686
 21
4.8152936454
 31
0.0
 11
4.1294804523
 21
4.8185185483
 31
0.0
 11
4.13633796
 21
4.8219885002
 31
0.0
 11
4.142942846
 21
4.8256953939
 31
0.0
 11
4.1553318879
 21
4.8337813597
 31
0.0
  0
SPLINE
  5
337
100
AcDbEntity
  8
0
100
AcDbSpline
 62
6
  6
CONTINUOUS
 70
0
 71
3
 72
38
 73
34
 74
32
 42
0.0000001
 43
0.0000001
 44
0.0000000001
 12
0.6515416269
 22
-0.3527415701
 32
0.0
 13
0.6515416269
 23
0.3527415701
 33
0.0
 40
0.0
 40
0.0
 40
0.0
 40
0.0
 40
0.0624856747
 40
0.1249725419
 40
0.1874594477
 40
0.2499456949
 40
0.2811910579
 40
0.3124365984
 40
0.3436816196
 40
0.37492697
 40
0.4061718351
 40
0.4374167911
 40
0.4530394029
 40
0.4686619228
 40
0.499906705
 40
0.531151734
 40
0.5623971067
 40
0.5936424283
 40
0.6248882751
 40
0.6561352099
 40
0.6873822379
 40
0.7186313523
 40
0.749884687
 40
0.7811373547
 40
0.8123902066
 40
0.843649587
 40
0.874910179
 40
0.8905421846
 40
0.9061774344
 40
0.9218193367
 40
0.9374663337
 40
0.96874847
 40
1.0
 40
1.0
 40
1.0
 40
1.0
 10
6.675166778
 20
2.9520233104
 30
0.0
 10
6.6887374507
 20
2.9446762121
 30
0.0
 10
6.7169107597
 20
2.9318429317
 30
0.0
 10
6.7609311129
 20
2.9173038273
 30
0.0
 10
6.8060105672
 20
2.9065637569
 30
0.0
 10
6.8440760205
 20
2.9001404474
 30
0.0
 10
6.8746905138
 20
2.8961978789
 30
0.0
 10
6.8977150394
 20
2.8937747764
 30
0.0
 10
6.9207836954
 20
2.8918233388
 30
0.0
 10
6.9438840687
 20
2.8902981916
 30
0.0
 10
6.9670060762
 20
2.889151964
 30
0.0
 10
6.9862866699
 20
2.8884909886
 30
0.0
 10
7.0017154103
 20
2.8881253637
 30
0.0
 10
7.0171462416
 20
2.8878646612
 30
0.0
 10
7.036437596
 20
2.8877351458
 30
0.0
 10
7.0595872048
 20
2.8878910979
 30
0.0
 10
7.0827328871
 20
2.8883548843
 30
0.0
 10
7.1058699324
 20
2.8891483861
 30
0.0
 10
7.1289927185
 20
2.8902936642
 30
0.0
 10
7.1520944122
 20
2.8918155178
 30
0.0
 10
7.1751651007
 20
2.8937649975
 30
0.0
 10
7.1981925217
 20
2.8961903961
 30
0.0
 10
7.2211603543
 20
2.8991419053
 30
0.0
 10
7.2440442256
 20
2.9026968339
 30
0.0
 10
7.2668144355
 20
2.9069314945
 30
0.0
 10
7.289434726
 20
2.9119179211
 30
0.0
 10
7.3081176673
 20
2.9167862999
 30
0.0
 10
7.3229285164
 20
2.9211609599
 30
0.0
 10
7.3339622953
 20
2.9246954761
 30
0.0
 10
7.3449115695
 20
2.9284955041
 30
0.0
 10
7.3593778011
 20
2.9339330256
 30
0.0
 10
7.3771690459
 20
2.9414619683
 30
0.0
 10
7.3910067194
 20
2.9483487391
 30
0.0
 10
7.3977939436
 20
2.9520233104
 30
0.0
 11
6.675166778
 21
2.9520233104
 31
0.0
 11
6.7172038587
 21
2.9326281834
 31
0.0
 11
6.7611075988
 21
2.9179370118
 31
0.0
 11
6.8061104855
 21
2.9070690886
 31
0.0
 11
6.8517422746
 21
2.8992546021
 31
0.0
 11
6.8747009546
 21
2.8962868712
 31
0.0
 11
6.8977225226
 21
2.893853375
 31
0.0
 11
6.9207889283
 21
2.8918943912
 31
0.0
 11
6.9438877967
 21
2.8903613379
 31
0.0
 11
6.967008515
 21
2.8892108072
 31
0.0
 11
6.9901441637
 21
2.8884131799
 31
0.0
 11
7.0017156998
 21
2.8881384785
 31
0.0
 11
7.0132887759
 21
2.8879429269
 31
0.0
 11
7.0364375163
 21
2.8877870408
 31
0.0
 11
7.0595864433
 21
2.8879424023
 31
0.0
 11
7.0827314266
 21
2.8884098363
 31
0.0
 11
7.105867362
 21
2.889207007
 31
0.0
 11
7.1289888647
 21
2.8903564074
 31
0.0
 11
7.1520890876
 21
2.8918867766
 31
0.0
 11
7.1751571144
 21
2.893844242
 31
0.0
 11
7.1981813244
 21
2.8962779345
 31
0.0
 11
7.2211463712
 21
2.8992424789
 31
0.0
 11
7.2440249926
 21
2.9028100687
 31
0.0
 11
7.2667875494
 21
2.9070564022
 31
0.0
 11
7.2894005919
 21
2.9120603675
 31
0.0
 11
7.3118081624
 21
2.9179196956
 31
0.0
 11
7.322914836
 21
2.9212028155
 31
0.0
 11
7.3339460676
 21
2.9247390119
 31
0.0
 11
7.3448936238
 21
2.9285413779
 31
0.0
 11
7.3557440613
 21
2.9326233485
 31
0.0
 11
7.3770777022
 21
2.9416812931
 31
0.0
 11
7.3977939436
 21
2.9520233104
 31
0.0
  0
SPLINE
  5
338
100
AcDbEntity
  8
0
100
AcDbSpline
 62
6
  6
CONTINUOUS
 70
0
 71
3
 72
32
 73
28
 74
26
 42
0.0000001
 43
0.0000001
 44
0.0000000001
 12
-0.239353355
 22
0.0
 32
0.0
 13
-0.0400303523
 23
-0.2359822015
 33
0.0
 40
0.0
 40
0.0
 40
0.0
 40
0.0
 40
0.0715742361
 40
0.1429105694
 40
0.2136422916
 40
0.2835058003
 40
0.3522628182
 40
0.4196782266
 40
0.4528223091
 40
0.4855581816
 40
0.5497187309
 40
0.5811268093
 40
0.612068964
 40
0.6425383482
 40
0.6725313447
 40
0.7020497537
 40
0.7310992954
 40
0.7596888687
 40
0.7878315404
 40
0.815546264
 40
0.8428559132
 40
0.8697869464
 40
0.8963703747
 40
0.9226424216
 40
0.9486424873
 40
0.9744130121
 40
1.0
 40
1.0
 40
1.0
 40
1.0
 10
4.0341732742
 20
3.7361728875
 30
0.0
 10
4.028462763
 20
3.7361728875
 30
0.0
 10
4.0170573878
 20
3.7358063908
 30
0.0
 10
4.0000796156
 20
3.7341681429
 30
0.0
 10
3.9833784803
 20
3.73144823
 30
0.0
 10
3.9670946601
 20
3.7276729148
 30
0.0
 10
3.9513598282
 20
3.7228707142
 30
0.0
 10
3.9387381149
 20
3.7180200108
 30
0.0
 10
3.9290377516
 20
3.7136549953
 30
0.0
 10
3.9197426119
 20
3.7090416051
 30
0.0
 10
3.9108404641
 20
3.703961242
 30
0.0
 10
3.9023996926
 20
3.6984221736
 30
0.0
 10
3.8963835124
 20
3.6940997615
 30
0.0
 10
3.8906501953
 20
3.6895890587
 30
0.0
 10
3.8852120797
 20
3.6848984172
 30
0.0
 10
3.8800800639
 20
3.680037882
 30
0.0
 10
3.8752642439
 20
3.6750177582
 30
0.0
 10
3.8707747102
 20
3.6698481503
 30
0.0
 10
3.8666216184
 20
3.6645389608
 30
0.0
 10
3.8628129018
 20
3.6591016116
 30
0.0
 10
3.8593560539
 20
3.6535474241
 30
0.0
 10
3.856258617
 20
3.6478875698
 30
0.0
 10
3.8535280034
 20
3.642133247
 30
0.0
 10
3.8511689543
 20
3.6362968233
 30
0.0
 10
3.8491861071
 20
3.6303902756
 30
0.0
 10
3.8475843022
 20
3.6244259199
 30
0.0
 10
3.8467707292
 20
3.6204066967
 30
0.0
 10
3.8464293105
 20
3.6183940055
 30
0.0
 11
4.0341732742
 21
3.7361728875
 31
0.0
 11
4.0170505735
 21
3.7356228312
 31
0.0
 11
4.000055347
 21
3.7339784701
 31
0.0
 11
3.9833464447
 21
3.7312520708
 31
0.0
 11
3.9670583324
 21
3.7274672509
 31
0.0
 11
3.9513207041
 21
3.7226540148
 31
0.0
 11
3.936263426
 21
3.7168529601
 31
0.0
 11
3.9290296326
 21
3.713596112
 31
0.0
 11
3.9220119893
 21
3.7101108837
 31
0.0
 11
3.9086827162
 21
3.7024840075
 31
0.0
 11
3.9023987294
 21
3.6983577192
 31
0.0
 11
3.8963854712
 21
3.6940343907
 31
0.0
 11
3.8906554493
 21
3.6895228545
 31
0.0
 11
3.8852209976
 21
3.6848320454
 31
0.0
 11
3.8800929845
 21
3.6799717602
 31
0.0
 11
3.8752815433
 21
3.6749522277
 31
0.0
 11
3.8707968021
 21
3.6697836799
 31
0.0
 11
3.8666485527
 21
3.6644764866
 31
0.0
 11
3.8628448332
 21
3.6590417348
 31
0.0
 11
3.8593931107
 21
3.6534907452
 31
0.0
 11
3.8563008518
 21
3.6478348387
 31
0.0
 11
3.8535749436
 21
3.6420854853
 31
0.0
 11
3.8512203543
 21
3.6362546484
 31
0.0
 11
3.8492416557
 21
3.6303543936
 31
0.0
 11
3.8476434144
 21
3.6243967871
 31
0.0
 11
3.8464293105
 21
3.6183940055
 31
0.0
  0
SPLINE
  5
339
100
AcDbEntity
  8
0
100
AcDbSpline
 62
6
  6
CONTINUOUS
 70
0
 71
3
 72
32
 73
28
 74
26
 42
0.0000001
 43
0.0000001
 44
0.0000000001
 12
0.2393978773
 22
0.0
 32
0.0
 13
0.0399289766
 23
-0.2360445307
 33
0.0
 40
0.0
 40
0.0
 40
0.0
 40
0.0
 40
0.0715772211
 40
0.1429163841
 40
0.2136506371
 40
0.2835162779
 40
0.3522749114
 40
0.4196913152
 40
0.4528356521
 40
0.48557161
 40
0.5497318048
 40
0.5811394629
 40
0.61208104
 40
0.6425496967
 40
0.6725418323
 40
0.7020592715
 40
0.7311077516
 40
0.7596961928
 40
0.7878376961
 40
0.8155512521
 40
0.8428597646
 40
0.8697897275
 40
0.8963722009
 40
0.9226434515
 40
0.9486429177
 40
0.9744130829
 40
1.0
 40
1.0
 40
1.0
 40
1.0
 10
4.0341732742
 20
3.7361728875
 30
0.0
 10
4.0398850858
 20
3.7361728875
 30
0.0
 10
4.0512930482
 20
3.7358062248
 30
0.0
 10
4.0682746109
 20
3.7341672339
 30
0.0
 10
4.0849793478
 20
3.7314460954
 30
0.0
 10
4.1012664892
 20
3.7276690909
 30
0.0
 10
4.1170042765
 20
3.7228647698
 30
0.0
 10
4.1296281194
 20
3.7180119382
 30
0.0
 10
4.1393299198
 20
3.7136450316
 30
0.0
 10
4.1486262448
 20
3.7090296879
 30
0.0
 10
4.1575293155
 20
3.7039471897
 30
0.0
 10
4.1659707001
 20
3.6984058268
 30
0.0
 10
4.1719871493
 20
3.6940816609
 30
0.0
 10
4.1777205555
 20
3.6895691537
 30
0.0
 10
4.1831585735
 20
3.684876664
 30
0.0
 10
4.1882903065
 20
3.6800142514
 30
0.0
 10
4.1931056512
 20
3.6749922257
 30
0.0
 10
4.1975945096
 20
3.6698206972
 30
0.0
 10
4.2017467241
 20
3.6645095785
 30
0.0
 10
4.2055543664
 20
3.659070305
 30
0.0
 10
4.2090099369
 20
3.6535142036
 30
0.0
 10
4.2121058858
 20
3.6478524519
 30
0.0
 10
4.2148348075
 20
3.6420962617
 30
0.0
 10
4.2171919665
 20
3.6362580111
 30
0.0
 10
4.2191727216
 20
3.6303496839
 30
0.0
 10
4.220772225
 20
3.6243836036
 30
0.0
 10
4.2215841255
 20
3.6203632973
 30
0.0
 10
4.2219246787
 20
3.61835008
 30
0.0
 11
4.0341732742
 21
3.7361728875
 31
0.0
 11
4.0512998701
 21
3.7356225807
 31
0.0
 11
4.0682988958
 21
3.7339774721
 31
0.0
 11
4.0850114017
 21
3.7312498411
 31
0.0
 11
4.1013028371
 21
3.7274633247
 31
0.0
 11
4.1170434191
 21
3.7226479569
 31
0.0
 11
4.1321031929
 21
3.7168443687
 31
0.0
 11
4.1393380395
 21
3.7135861171
 31
0.0
 11
4.1463565948
 21
3.7100994025
 31
0.0
 11
4.1596872297
 21
3.7024693257
 31
0.0
 11
4.1659716536
 21
3.698341339
 31
0.0
 11
4.171985177
 21
3.6940162565
 31
0.0
 11
4.1777152837
 21
3.6895029168
 31
0.0
 11
4.1831496342
 21
3.6848102625
 31
0.0
 11
4.18827736
 21
3.6799481013
 31
0.0
 11
4.1930883208
 21
3.6749266692
 31
0.0
 11
4.1975723821
 21
3.6697562053
 31
0.0
 11
4.2017197508
 21
3.6644470886
 31
0.0
 11
4.2055223916
 21
3.6590104173
 31
0.0
 11
4.2089728323
 21
3.6534575197
 31
0.0
 11
4.2120636013
 21
3.6477997246
 31
0.0
 11
4.2147878167
 21
3.6420485121
 31
0.0
 11
4.2171405147
 21
3.6362158562
 31
0.0
 11
4.2191171203
 21
3.6303138305
 31
0.0
 11
4.2207130644
 21
3.6243545094
 31
0.0
 11
4.2219246787
 21
3.61835008
 31
0.0
  0
SPLINE
  5
33A
100
AcDbEntity
  8
0
100
AcDbSpline
 62
9
  6
CONTINUOUS
 70
0
 71
3
 72
20
 73
16
 74
14
 42
0.0000001
 43
0.0000001
 44
0.0000000001
 12
-0.1710292635
 22
0.0
 32
0.0
 13
-0.1387332881
 23
-0.1000204166
 33
0.0
 40
0.0
 40
0.0
 40
0.0
 40
0.0
 40
0.1312061618
 40
0.2618584079
 40
0.3267349919
 40
0.3912071453
 40
0.4552086829
 40
0.5186747856
 40
0.5815394638
 40
0.6437380402
 40
0.7052092271
 40
0.7658998304
 40
0.8257646141
 40
0.8847626363
 40
1.0
 40
1.0
 40
1.0
 40
1.0
 10
4.0341732742
 20
3.6875961867
 30
0.0
 10
4.0266932431
 20
3.6875961867
 30
0.0
 10
4.0117598947
 20
3.6870708473
 30
0.0
 10
3.9932199855
 20
3.6851089363
 30
0.0
 10
3.978582526
 20
3.6827559908
 30
0.0
 10
3.9677673314
 20
3.6806134742
 30
0.0
 10
3.9571162989
 20
3.6780941973
 30
0.0
 10
3.9466550247
 20
3.6752032932
 30
0.0
 10
3.9364087989
 20
3.6719489115
 30
0.0
 10
3.9264029458
 20
3.6683394089
 30
0.0
 10
3.9166627873
 20
3.6643825714
 30
0.0
 10
3.9072127056
 20
3.6600880537
 30
0.0
 10
3.8980749157
 20
3.6554672333
 30
0.0
 10
3.8864318163
 20
3.6489387661
 30
0.0
 10
3.8780910952
 20
3.6435110402
 30
0.0
 10
3.8727620091
 20
3.6396690105
 30
0.0
 11
4.0341732742
 21
3.6875961867
 31
0.0
 11
4.011747067
 21
3.686806874
 31
0.0
 11
3.9895265509
 21
3.6844481321
 31
0.0
 11
3.9785715352
 21
3.6826862343
 31
0.0
 11
3.9677553799
 21
3.6805421164
 31
0.0
 11
3.9571035646
 21
3.6780208627
 31
0.0
 11
3.9466415783
 21
3.6751280556
 31
0.0
 11
3.9363949509
 21
3.6718714207
 31
0.0
 11
3.9263892231
 21
3.6682592598
 31
0.0
 11
3.9166498881
 21
3.6642999241
 31
0.0
 11
3.9072011244
 21
3.6600031172
 31
0.0
 11
3.8980656655
 21
3.6553800303
 31
0.0
 11
3.8892661709
 21
3.6504419305
 31
0.0
 11
3.8727620091
 21
3.6396690105
 31
0.0
  0
SPLINE
  5
33B
100
AcDbEntity
  8
0
100
AcDbSpline
 62
9
  6
CONTINUOUS
 70
0
 71
3
 72
20
 73
16
 74
14
 42
0.0000001
 43
0.0000001
 44
0.0000000001
 12
-0.1283817176
 22
0.0
 32
0.0
 13
-0.10413484
 23
-0.0750852883
 33
0.0
 40
0.0
 40
0.0
 40
0.0
 40
0.0
 40
0.1311946712
 40
0.2618541994
 40
0.3267348087
 40
0.3912081844
 40
0.5186493308
 40
0.5815114846
 40
0.6437090379
 40
0.705181156
 40
0.7658719653
 40
0.825735946
 40
0.8847337256
 40
0.9428306844
 40
1.0
 40
1.0
 40
1.0
 40
1.0
 10
4.0341732742
 20
3.704664326
 30
0.0
 10
4.0285589418
 20
3.704664326
 30
0.0
 10
4.0173495186
 20
3.7042696954
 30
0.0
 10
4.0034327508
 20
3.702797392
 30
0.0
 10
3.9924445469
 20
3.7010311005
 30
0.0
 10
3.9816630183
 20
3.6988951494
 30
0.0
 10
3.9710882874
 20
3.6961909158
 30
0.0
 10
3.9607879479
 20
3.6929188494
 30
0.0
 10
3.9532772264
 20
3.6902091602
 30
0.0
 10
3.9459657231
 20
3.6872394505
 30
0.0
 10
3.9388719523
 20
3.6840158672
 30
0.0
 10
3.9320131843
 20
3.6805471039
 30
0.0
 10
3.9254058942
 20
3.6768421046
 30
0.0
 10
3.9190667348
 20
3.6729096847
 30
0.0
 10
3.9149965784
 20
3.6701193304
 30
0.0
 10
3.9130121392
 20
3.6686884722
 30
0.0
 11
4.0341732742
 21
3.704664326
 31
0.0
 11
4.017340704
 21
3.7040717572
 31
0.0
 11
4.0006601013
 21
3.7023013182
 31
0.0
 11
3.9924362923
 21
3.7009787184
 31
0.0
 11
3.9843170928
 21
3.6993691583
 31
0.0
 11
3.9684686952
 21
3.6953053766
 31
0.0
 11
3.9607775265
 21
3.6928606896
 31
0.0
 11
3.9532669843
 21
3.6901491514
 31
0.0
 11
3.9459560108
 21
3.6871773354
 31
0.0
 11
3.9388633106
 21
3.6839520471
 31
0.0
 11
3.932006061
 21
3.6804815823
 31
0.0
 11
3.9254008343
 21
3.676774827
 31
0.0
 11
3.9190642004
 21
3.6728406693
 31
0.0
 11
3.9130121392
 21
3.6686884722
 31
0.0
  0
SPLINE
  5
33C
100
AcDbEntity
  8
0
100
AcDbSpline
 62
9
  6
CONTINUOUS
 70
0
 71
3
 72
20
 73
16
 74
14
 42
0.0000001
 43
0.0000001
 44
0.0000000001
 12
0.1710292635
 22
0.0
 32
0.0
 13
0.1387332881
 23
-0.1000204166
 33
0.0
 40
0.0
 40
0.0
 40
0.0
 40
0.0
 40
0.1312061618
 40
0.2618584079
 40
0.3267349919
 40
0.3912071453
 40
0.4552086829
 40
0.5186747856
 40
0.5815394638
 40
0.6437380402
 40
0.7052092271
 40
0.7658998304
 40
0.8257646141
 40
0.8847626363
 40
1.0
 40
1.0
 40
1.0
 40
1.0
 10
4.0341732742
 20
3.6875961867
 30
0.0
 10
4.0416533052
 20
3.6875961867
 30
0.0
 10
4.0565866537
 20
3.6870708473
 30
0.0
 10
4.0751265629
 20
3.6851089363
 30
0.0
 10
4.0897640223
 20
3.6827559908
 30
0.0
 10
4.100579217
 20
3.6806134742
 30
0.0
 10
4.1112302495
 20
3.6780941973
 30
0.0
 10
4.1216915237
 20
3.6752032932
 30
0.0
 10
4.1319377494
 20
3.6719489115
 30
0.0
 10
4.1419436025
 20
3.6683394089
 30
0.0
 10
4.151683761
 20
3.6643825714
 30
0.0
 10
4.1611338427
 20
3.6600880537
 30
0.0
 10
4.1702716326
 20
3.6554672333
 30
0.0
 10
4.1819147321
 20
3.6489387661
 30
0.0
 10
4.1902554531
 20
3.6435110402
 30
0.0
 10
4.1955845393
 20
3.6396690105
 30
0.0
 11
4.0341732742
 21
3.6875961867
 31
0.0
 11
4.0565994814
 21
3.686806874
 31
0.0
 11
4.0788199975
 21
3.6844481321
 31
0.0
 11
4.0897750132
 21
3.6826862343
 31
0.0
 11
4.1005911685
 21
3.6805421164
 31
0.0
 11
4.1112429838
 21
3.6780208627
 31
0.0
 11
4.1217049701
 21
3.6751280556
 31
0.0
 11
4.1319515975
 21
3.6718714207
 31
0.0
 11
4.1419573252
 21
3.6682592598
 31
0.0
 11
4.1516966603
 21
3.6642999241
 31
0.0
 11
4.161145424
 21
3.6600031172
 31
0.0
 11
4.1702808828
 21
3.6553800303
 31
0.0
 11
4.1790803775
 21
3.6504419305
 31
0.0
 11
4.1955845393
 21
3.6396690105
 31
0.0
  0
SPLINE
  5
33D
100
AcDbEntity
  8
0
100
AcDbSpline
 62
9
  6
CONTINUOUS
 70
0
 71
3
 72
20
 73
16
 74
14
 42
0.0000001
 43
0.0000001
 44
0.0000000001
 12
0.1283817176
 22
0.0
 32
0.0
 13
0.10413484
 23
-0.0750852883
 33
0.0
 40
0.0
 40
0.0
 40
0.0
 40
0.0
 40
0.1311946712
 40
0.2618541994
 40
0.3267348087
 40
0.3912081844
 40
0.5186493308
 40
0.5815114846
 40
0.6437090379
 40
0.705181156
 40
0.7658719653
 40
0.825735946
 40
0.8847337256
 40
0.9428306844
 40
1.0
 40
1.0
 40
1.0
 40
1.0
 10
4.0341732742
 20
3.704664326
 30
0.0
 10
4.0397876066
 20
3.704664326
 30
0.0
 10
4.0509970298
 20
3.7042696954
 30
0.0
 10
4.0649137976
 20
3.702797392
 30
0.0
 10
4.0759020015
 20
3.7010311005
 30
0.0
 10
4.08668353
 20
3.6988951494
 30
0.0
 10
4.0972582609
 20
3.6961909158
 30
0.0
 10
4.1075586004
 20
3.6929188494
 30
0.0
 10
4.115069322
 20
3.6902091602
 30
0.0
 10
4.1223808252
 20
3.6872394505
 30
0.0
 10
4.129474596
 20
3.6840158672
 30
0.0
 10
4.1363333641
 20
3.6805471039
 30
0.0
 10
4.1429406541
 20
3.6768421046
 30
0.0
 10
4.1492798136
 20
3.6729096847
 30
0.0
 10
4.15334997
 20
3.6701193304
 30
0.0
 10
4.1553344091
 20
3.6686884722
 30
0.0
 11
4.0341732742
 21
3.704664326
 31
0.0
 11
4.0510058443
 21
3.7040717572
 31
0.0
 11
4.067686447
 21
3.7023013182
 31
0.0
 11
4.075910256
 21
3.7009787184
 31
0.0
 11
4.0840294556
 21
3.6993691583
 31
0.0
 11
4.0998778532
 21
3.6953053766
 31
0.0
 11
4.1075690218
 21
3.6928606896
 31
0.0
 11
4.115079564
 21
3.6901491514
 31
0.0
 11
4.1223905376
 21
3.6871773354
 31
0.0
 11
4.1294832377
 21
3.6839520471
 31
0.0
 11
4.1363404873
 21
3.6804815823
 31
0.0
 11
4.1429457141
 21
3.676774827
 31
0.0
 11
4.1492823479
 21
3.6728406693
 31
0.0
 11
4.1553344091
 21
3.6686884722
 31
0.0
  0
SPLINE
  5
33E
100
AcDbEntity
  8
0
100
AcDbSpline
 62
9
  6
CONTINUOUS
 70
0
 71
3
 72
16
 73
12
 74
10
 42
0.0000001
 43
0.0000001
 44
0.0000000001
 12
0.1404630452
 22
0.0
 32
0.0
 13
0.1173458509
 23
-0.0771998598
 33
0.0
 40
0.0
 40
0.0
 40
0.0
 40
0.0
 40
0.1305416065
 40
0.2605244087
 40
0.3893924504
 40
0.5166103902
 40
0.6416846314
 40
0.7641754005
 40
0.8243431629
 40
0.8837301533
 40
1.0
 40
1.0
 40
1.0
 40
1.0
 10
4.0341732742
 20
4.0299072605
 30
0.0
 10
4.0402853647
 20
4.0299072605
 30
0.0
 10
4.052487265
 20
4.0295039569
 30
0.0
 10
4.0706417967
 20
4.0276927903
 30
0.0
 10
4.0884812381
 20
4.0246912955
 30
0.0
 10
4.1058493426
 20
4.020524907
 30
0.0
 10
4.1225944927
 20
4.0152293898
 30
0.0
 10
4.1359894276
 20
4.009880966
 30
0.0
 10
4.1462545292
 20
4.0050723662
 30
0.0
 10
4.1560621404
 20
3.9999961126
 30
0.0
 10
4.1631345011
 20
3.9957734653
 30
0.0
 10
4.1676824291
 20
3.99278146
 30
0.0
 11
4.0341732742
 21
4.0299072605
 31
0.0
 11
4.0524994909
 21
4.0293001079
 31
0.0
 11
4.0706666969
 21
4.027483747
 31
0.0
 11
4.0885158838
 21
4.0244737833
 31
0.0
 11
4.1058901343
 21
4.0202962765
 31
0.0
 11
4.1226371405
 21
4.0149874861
 31
0.0
 11
4.1386103754
 21
4.0085935463
 31
0.0
 11
4.146262775
 21
4.0050066187
 31
0.0
 11
4.1536698354
 21
4.0011700787
 31
0.0
 11
4.1676824291
 21
3.99278146
 31
0.0
  0
SPLINE
  5
33F
100
AcDbEntity
  8
0
100
AcDbSpline
 62
9
  6
CONTINUOUS
 70
0
 71
3
 72
45
 73
41
 74
39
 42
0.0000001
 43
0.0000001
 44
0.0000000001
 12
0.3836681364
 22
0.0
 32
0.0
 13
-0.3348763452
 23
-0.1872406801
 33
0.0
 40
0.0
 40
0.0
 40
0.0
 40
0.0
 40
0.0749539409
 40
0.112171616
 40
0.1490640493
 40
0.1855289066
 40
0.2214716619
 40
0.2568067974
 40
0.2914587157
 40
0.3253635439
 40
0.342021974
 40
0.3584761752
 40
0.3907512535
 40
0.422177352
 40
0.4527594025
 40
0.4825228067
 40
0.5115165878
 40
0.5398112951
 40
0.5675017048
 40
0.5947021899
 40
0.6215470555
 40
0.6348866183
 40
0.6481934483
 40
0.6614872298
 40
0.6747876601
 40
0.688114448
 40
0.701487195
 40
0.7149248962
 40
0.7284458207
 40
0.7420675523
 40
0.7558068875
 40
0.7836896672
 40
0.797868494
 40
0.8122188131
 40
0.8414650936
 40
0.8714990028
 40
0.9023618267
 40
0.9340710877
 40
0.9666248991
 40
1.0
 40
1.0
 40
1.0
 40
1.0
 10
4.0341732742
 20
4.0076460557
 30
0.0
 10
4.0437590871
 20
4.0076460557
 30
0.0
 10
4.0581214925
 20
4.0068652635
 30
0.0
 10
4.0770127807
 20
4.0042577872
 30
0.0
 10
4.0908991604
 20
4.0015416638
 30
0.0
 10
4.1044491667
 20
3.9980768619
 30
0.0
 10
4.1175832279
 20
3.9938831728
 30
0.0
 10
4.1302235558
 20
3.9889856182
 30
0.0
 10
4.1422945595
 20
3.9834123068
 30
0.0
 10
4.1518764265
 20
3.9782015042
 30
0.0
 10
4.1591848065
 20
3.9737211658
 30
0.0
 10
4.1661573773
 20
3.9691019792
 30
0.0
 10
4.1743946715
 20
3.9629833371
 30
0.0
 10
4.1835086766
 20
3.9550703105
 30
0.0
 10
4.1917356408
 20
3.9466810607
 30
0.0
 10
4.1990237291
 20
3.9378630916
 30
0.0
 10
4.2053310177
 20
3.9286700672
 30
0.0
 10
4.2106154594
 20
3.9191541833
 30
0.0
 10
4.2148473383
 20
3.9093737515
 30
0.0
 10
4.2179959781
 20
3.8993866238
 30
0.0
 10
4.2197067708
 20
3.8909218753
 30
0.0
 10
4.2205120764
 20
3.8841256441
 30
0.0
 10
4.2208361192
 20
3.8790253577
 30
0.0
 10
4.2208813576
 20
3.8739201331
 30
0.0
 10
4.2206477992
 20
3.8688174601
 30
0.0
 10
4.2201353223
 20
3.8637250801
 30
0.0
 10
4.2193443169
 20
3.8586507363
 30
0.0
 10
4.2182767406
 20
3.8536019556
 30
0.0
 10
4.216934359
 20
3.8485863119
 30
0.0
 10
4.2153188813
 20
3.8436111524
 30
0.0
 10
4.2127915434
 20
3.8370109455
 30
0.0
 10
4.2097322124
 20
3.8305481132
 30
0.0
 10
4.2061804561
 20
3.824266121
 30
0.0
 10
4.202241033
 20
3.8180120329
 30
0.0
 10
4.1966695349
 20
3.810403242
 30
0.0
 10
4.1890599224
 20
3.8017250032
 30
0.0
 10
4.1805280743
 20
3.7934921058
 30
0.0
 10
4.171127307
 20
3.7857513371
 30
0.0
 10
4.1609132368
 20
3.7785500232
 30
0.0
 10
4.153688833
 20
3.7741873
 30
0.0
 10
4.1499633224
 20
3.7721042411
 30
0.0
 11
4.0341732742
 21
4.0076460557
 31
0.0
 11
4.062887773
 21
4.0060751184
 31
0.0
 11
4.0770325185
 21
4.0041199315
 31
0.0
 11
4.0909229358
 21
4.0013987565
 31
0.0
 11
4.104475903
 21
3.9979276642
 31
0.0
 11
4.1176106335
 21
3.9937270173
 31
0.0
 11
4.1302490778
 21
3.9888218117
 31
0.0
 11
4.1423157709
 21
3.9832408075
 31
0.0
 11
4.1537385663
 21
3.9770172177
 31
0.0
 11
4.1591868171
 21
3.9736757522
 31
0.0
 11
4.1644488406
 21
3.9701879907
 31
0.0
 11
4.1743821617
 21
3.9627943571
 31
0.0
 11
4.1834784586
 21
3.9548802382
 31
0.0
 11
4.1916839809
 21
3.946493278
 31
0.0
 11
4.1989489641
 21
3.9376830713
 31
0.0
 11
4.2052309833
 21
3.9285026907
 31
0.0
 11
4.2104912669
 21
3.9190065165
 31
0.0
 11
4.21469974
 21
3.9092516922
 31
0.0
 11
4.2178298789
 21
3.8992962173
 31
0.0
 11
4.2198643333
 21
3.8891996289
 31
0.0
 11
4.2204662127
 21
3.8841171778
 31
0.0
 11
4.2207897651
 21
3.8790220339
 31
0.0
 11
4.2208349379
 21
3.8739218336
 31
0.0
 11
4.2206017043
 21
3.8688242151
 31
0.0
 11
4.2200900422
 21
3.8637368166
 31
0.0
 11
4.2193004893
 21
3.858667235
 31
0.0
 11
4.2182346726
 21
3.8536229878
 31
0.0
 11
4.2168943447
 21
3.8486115834
 31
0.0
 11
4.2152812579
 21
3.84364053
 31
0.0
 11
4.2133974214
 21
3.8387172953
 31
0.0
 11
4.2088305129
 21
3.8290433684
 31
0.0
 11
4.2061544409
 21
3.8243071412
 31
0.0
 11
4.2032213679
 21
3.8196476908
 31
0.0
 11
4.1966028987
 21
3.8105865817
 31
0.0
 11
4.1890156402
 21
3.801913965
 31
0.0
 11
4.1805041588
 21
3.7936819598
 31
0.0
 11
4.1711202249
 21
3.7859392678
 31
0.0
 11
4.1609193089
 21
3.7787324711
 31
0.0
 11
4.1499633224
 21
3.7721042411
 31
0.0
  0
SPLINE
  5
340
100
AcDbEntity
  8
0
100
AcDbSpline
 62
9
  6
CONTINUOUS
 70
0
 71
3
 72
44
 73
40
 74
38
 42
0.0000001
 43
0.0000001
 44
0.0000000001
 12
-0.3351225348
 22
0.1870753976
 32
0.0
 13
0.3838024462
 23
0.0
 33
0.0
 40
0.0
 40
0.0
 40
0.0
 40
0.0
 40
0.0333897657
 40
0.0659574624
 40
0.0976788128
 40
0.1285521413
 40
0.1585948184
 40
0.1878483872
 40
0.2163753288
 40
0.2442627487
 40
0.2580039517
 40
0.2716273163
 40
0.2851496387
 40
0.2985884754
 40
0.3119620911
 40
0.3252895032
 40
0.3385903191
 40
0.3518842437
 40
0.3651909931
 40
0.3785302895
 40
0.4053740992
 40
0.4325730228
 40
0.460261495
 40
0.4885538289
 40
0.5175447736
 40
0.5473046688
 40
0.577882453
 40
0.6093032459
 40
0.6415720383
 40
0.6580225969
 40
0.6746773697
 40
0.7085752263
 40
0.7432204643
 40
0.7785497208
 40
0.8144874276
 40
0.8509478042
 40
0.8878363533
 40
0.9250512195
 40
1.0
 40
1.0
 40
1.0
 40
1.0
 10
3.9185032348
 20
3.7720371737
 30
0.0
 10
3.9147733472
 20
3.7741193083
 30
0.0
 10
3.9075402073
 20
3.7784803299
 30
0.0
 10
3.897313001
 20
3.7856796304
 30
0.0
 10
3.8878999481
 20
3.7934195693
 30
0.0
 10
3.8793562283
 20
3.8016517782
 30
0.0
 10
3.8717354246
 20
3.8103305751
 30
0.0
 10
3.8650815502
 20
3.8194030677
 30
0.0
 10
3.8594379523
 20
3.828816869
 30
0.0
 10
3.8555851174
 20
3.8369411106
 30
0.0
 10
3.8530517738
 20
3.843542971
 30
0.0
 10
3.8514320653
 20
3.8485193034
 30
0.0
 10
3.850085526
 20
3.8535362759
 30
0.0
 10
3.8490139712
 20
3.8585865049
 30
0.0
 10
3.8482192234
 20
3.8636624276
 30
0.0
 10
3.8477032473
 20
3.8687564974
 30
0.0
 10
3.8474662826
 20
3.8738609515
 30
0.0
 10
3.8475083106
 20
3.8789680502
 30
0.0
 10
3.8478293741
 20
3.8840702955
 30
0.0
 10
3.848631111
 20
3.8908691813
 30
0.0
 10
3.8503377012
 20
3.8993374994
 30
0.0
 10
3.8534824544
 20
3.9093291084
 30
0.0
 10
3.8577112161
 20
3.9191141492
 30
0.0
 10
3.8629934235
 20
3.9286346083
 30
0.0
 10
3.8692992565
 20
3.9378320266
 30
0.0
 10
3.8765864795
 20
3.9466541637
 30
0.0
 10
3.8848131422
 20
3.9550471362
 30
0.0
 10
3.8939270582
 20
3.9629636337
 30
0.0
 10
3.90216466
 20
3.9690846188
 30
0.0
 10
3.9091373236
 20
3.9737058183
 30
0.0
 10
3.916446052
 20
3.9781878451
 30
0.0
 10
3.9260286819
 20
3.9834006003
 30
0.0
 10
3.9381009191
 20
3.9889763794
 30
0.0
 10
3.9507430584
 20
3.9938761856
 30
0.0
 10
3.9638795349
 20
3.9980717013
 30
0.0
 10
3.9774323413
 20
4.0015383871
 30
0.0
 10
3.9913220339
 20
4.0042559724
 30
0.0
 10
4.0102183493
 20
4.0068647776
 30
0.0
 10
4.0245847657
 20
4.0076460557
 30
0.0
 10
4.0341732742
 20
4.0076460557
 30
0.0
 11
3.9185032348
 21
3.7720371737
 31
0.0
 11
3.9075339169
 21
3.7786628948
 31
0.0
 11
3.8973198568
 21
3.7858678943
 31
0.0
 11
3.8879235805
 21
3.7936096052
 31
0.0
 11
3.8794002782
 21
3.8018411456
 31
0.0
 11
3.8718019471
 21
3.8105139024
 31
0.0
 11
3.8651729289
 21
3.8195756309
 31
0.0
 11
3.8595539097
 21
3.8289724853
 31
0.0
 11
3.8549776329
 21
3.8386480971
 31
0.0
 11
3.8530894029
 21
3.8435723926
 31
0.0
 11
3.851472064
 21
3.8485446473
 31
0.0
 11
3.8501276001
 21
3.8535573794
 31
0.0
 11
3.8490578198
 21
3.8586030779
 31
0.0
 11
3.8482645318
 21
3.8636742317
 31
0.0
 11
3.8477493509
 21
3.868763315
 31
0.0
 11
3.8475127332
 21
3.873862714
 31
0.0
 11
3.8475547061
 21
3.8789647821
 31
0.0
 11
3.8478752965
 21
3.884061873
 31
0.0
 11
3.848474478
 21
3.8891463439
 31
0.0
 11
3.8505040414
 21
3.8992471809
 31
0.0
 11
3.8536302362
 21
3.9092070959
 31
0.0
 11
3.857835617
 21
3.9189664938
 31
0.0
 11
3.8630936525
 21
3.9284672155
 31
0.0
 11
3.8693742016
 21
3.9376520008
 31
0.0
 11
3.8766383278
 21
3.9464663493
 31
0.0
 11
3.8848435199
 21
3.9548570876
 31
0.0
 11
3.8939397599
 21
3.9627745996
 31
0.0
 11
3.9038732838
 21
3.97017118
 31
0.0
 11
3.909135345
 21
3.973660354
 31
0.0
 11
3.9145837977
 21
3.9770030848
 31
0.0
 11
3.9260074329
 21
3.9832290584
 31
0.0
 11
3.9380753251
 21
3.988812449
 31
0.0
 11
3.9507155742
 21
3.9937198846
 31
0.0
 11
3.9638527206
 21
3.9979224641
 31
0.0
 11
3.9774085035
 21
4.0013953705
 31
0.0
 11
3.9913021657
 21
4.0041180016
 31
0.0
 11
4.0054507255
 21
4.0060742275
 31
0.0
 11
4.0341732742
 21
4.0076460557
 31
0.0
  0
SPLINE
  5
341
100
AcDbEntity
  8
0
100
AcDbSpline
 62
6
  6
CONTINUOUS
 70
0
 71
3
 72
57
 73
53
 74
51
 42
0.0000001
 43
0.0000001
 44
0.0000000001
 12
0.0799696995
 22
-0.4719448415
 32
0.0
 13
0.0802717194
 23
0.4718935657
 33
0.0
 40
0.0
 40
0.0
 40
0.0
 40
0.0
 40
0.0127984654
 40
0.0256862939
 40
0.0386860696
 40
0.0518202894
 40
0.0651098747
 40
0.0785738804
 40
0.092227764
 40
0.1060844366
 40
0.1201550464
 40
0.1344488845
 40
0.1489725251
 40
0.1637304895
 40
0.1787256991
 40
0.1939590984
 40
0.2094288971
 40
0.22513169
 40
0.2572096129
 40
0.2735763238
 40
0.2901469628
 40
0.3238512146
 40
0.358227738
 40
0.3931610175
 40
0.42852241
 40
0.4641746365
 40
0.4999738781
 40
0.5357734911
 40
0.5714268308
 40
0.606790048
 40
0.6417258332
 40
0.6761054785
 40
0.7098134092
 40
0.7263860631
 40
0.7427548908
 40
0.7748373125
 40
0.7905424454
 40
0.8060146251
 40
0.8212504329
 40
0.8362480571
 40
0.851008414
 40
0.8655344101
 40
0.8798305488
 40
0.8939033787
 40
0.9077621667
 40
0.9214180442
 40
0.9348839033
 40
0.9481751653
 40
0.9613108576
 40
0.9743118859
 40
0.9872007318
 40
1.0
 40
1.0
 40
1.0
 40
1.0
 10
3.8464275501
 20
4.8840913773
 30
0.0
 10
3.8467687132
 20
4.8820779874
 30
0.0
 10
3.8475815978
 20
4.8780577008
 30
0.0
 10
3.8491824521
 20
4.8720923395
 30
0.0
 10
3.8511644168
 20
4.866185877
 30
0.0
 10
3.853522535
 20
4.8603502836
 30
0.0
 10
3.8562521622
 20
4.8545969643
 30
0.0
 10
3.8593484319
 20
4.8489378402
 30
0.0
 10
3.8628040248
 20
4.8433840206
 30
0.0
 10
3.8666114309
 20
4.8379467986
 30
0.0
 10
3.8707631689
 20
4.8326376452
 30
0.0
 10
3.8752513455
 20
4.8274681036
 30
0.0
 10
3.8800657704
 20
4.8224480695
 30
0.0
 10
3.8851963483
 20
4.8175876063
 30
0.0
 10
3.8906329778
 20
4.8128969691
 30
0.0
 10
3.8963647683
 20
4.8083861731
 30
0.0
 10
3.9023794115
 20
4.8040635813
 30
0.0
 10
3.9108181449
 20
4.7985241512
 30
0.0
 10
3.9197182963
 20
4.7934433332
 30
0.0
 10
3.9290114203
 20
4.7888293525
 30
0.0
 10
3.938709574
 20
4.7844636636
 30
0.0
 10
3.9513285895
 20
4.7796117053
 30
0.0
 10
3.9670610084
 20
4.7748077813
 30
0.0
 10
3.9833425281
 20
4.7710311919
 30
0.0
 10
4.0000388509
 20
4.768309213
 30
0.0
 10
4.0170143103
 20
4.7666675124
 30
0.0
 10
4.0341298426
 20
4.7661156567
 30
0.0
 10
4.0512457303
 20
4.7666619614
 30
0.0
 10
4.0682222512
 20
4.7682981515
 30
0.0
 10
4.0849203334
 20
4.7710147186
 30
0.0
 10
4.1012042973
 20
4.774786017
 30
0.0
 10
4.1169398211
 20
4.7795848419
 30
0.0
 10
4.1295619241
 20
4.7844326745
 30
0.0
 10
4.1392628703
 20
4.7887951923
 30
0.0
 10
4.1485590184
 20
4.7934061753
 30
0.0
 10
4.1574624649
 20
4.7984840903
 30
0.0
 10
4.1659047672
 20
4.804020761
 30
0.0
 10
4.1719222128
 20
4.8083413997
 30
0.0
 10
4.1776569317
 20
4.8128503299
 30
0.0
 10
4.1830966118
 20
4.8175391908
 30
0.0
 10
4.1882303421
 20
4.8223979853
 30
0.0
 10
4.1930480222
 20
4.8274164526
 30
0.0
 10
4.1975395581
 20
4.8325845274
 30
0.0
 10
4.2016947498
 20
4.8378923213
 30
0.0
 10
4.2055056831
 20
4.8433283036
 30
0.0
 10
4.2089648793
 20
4.8488809985
 30
0.0
 10
4.212064831
 20
4.8545391099
 30
0.0
 10
4.2147982012
 20
4.8602915341
 30
0.0
 10
4.2171601086
 20
4.8661263514
 30
0.0
 10
4.2191459088
 20
4.872032154
 30
0.0
 10
4.2207506538
 20
4.8779969765
 30
0.0
 10
4.2215661601
 20
4.8820170282
 30
0.0
 10
4.2219086332
 20
4.8840303256
 30
0.0
 11
3.8464275501
 21
4.8840913773
 31
0.0
 11
3.8476408432
 21
4.8780864543
 31
0.0
 11
3.8492381982
 21
4.8721277986
 31
0.0
 11
3.8512159398
 21
4.8662278257
 31
0.0
 11
3.8535695025
 21
4.8603979942
 31
0.0
 11
3.8562943156
 21
4.8546497568
 31
0.0
 11
3.8593854154
 21
4.8489945703
 31
0.0
 11
3.8628359213
 21
4.8434439094
 31
0.0
 11
3.8666383703
 21
4.8380092547
 31
0.0
 11
3.8707852989
 21
4.8327020863
 31
0.0
 11
3.8752686756
 21
4.8275336087
 31
0.0
 11
3.8800787108
 21
4.8225141721
 31
0.0
 11
3.8852052752
 21
4.8176539615
 31
0.0
 11
3.8906382345
 21
4.8129631594
 31
0.0
 11
3.8963667307
 21
4.8084515355
 31
0.0
 11
3.9023784509
 21
4.8041280307
 31
0.0
 11
3.9086609078
 21
4.8000014865
 31
0.0
 11
3.9219871993
 21
4.7923738948
 31
0.0
 11
3.9290033306
 21
4.7888882104
 31
0.0
 11
3.9362355229
 21
4.7856308338
 31
0.0
 11
3.9512892891
 21
4.7798284954
 31
0.0
 11
3.9670241996
 21
4.7750136785
 31
0.0
 11
3.9833113892
 21
4.771226987
 31
0.0
 11
4.0000165371
 21
4.7684984385
 31
0.0
 11
4.0170026272
 21
4.7668516587
 31
0.0
 11
4.034129813
 21
4.7662989337
 31
0.0
 11
4.0512573554
 21
4.7668460918
 31
0.0
 11
4.0682445155
 21
4.7684873489
 31
0.0
 11
4.0849514341
 21
4.7712104688
 31
0.0
 11
4.1012410855
 21
4.7749918635
 31
0.0
 11
4.1169791222
 21
4.7798015679
 31
0.0
 11
4.1320366618
 21
4.7855990097
 31
0.0
 11
4.13927097
 21
4.7888540354
 31
0.0
 11
4.146289364
 21
4.7923374416
 31
0.0
 11
4.159620617
 21
4.7999606976
 31
0.0
 11
4.1659057542
 21
4.8040852
 31
0.0
 11
4.1719202812
 21
4.8084067527
 31
0.0
 11
4.1776517109
 21
4.8129165142
 31
0.0
 11
4.1830877234
 21
4.8176055474
 31
0.0
 11
4.1882174444
 21
4.8224640919
 31
0.0
 11
4.1930307388
 21
4.8274819657
 31
0.0
 11
4.1975174774
 21
4.8326489836
 31
0.0
 11
4.2016678593
 21
4.837954801
 31
0.0
 11
4.2054738375
 21
4.8433882211
 31
0.0
 11
4.2089279483
 21
4.8489377637
 31
0.0
 11
4.2120227284
 21
4.8545919484
 31
0.0
 11
4.2147512813
 21
4.8603393
 31
0.0
 11
4.21710863
 21
4.866168362
 31
0.0
 11
4.2190902039
 21
4.8720676814
 31
0.0
 11
4.2206914369
 21
4.8780258004
 31
0.0
 11
4.2219086332
 21
4.8840303256
 31
0.0
  0
SPLINE
  5
342
100
AcDbEntity
  8
0
100
AcDbSpline
 62
9
  6
CONTINUOUS
 70
0
 71
3
 72
19
 73
15
 74
13
 42
0.0000001
 43
0.0000001
 44
0.0000000001
 12
0.1825217195
 22
-0.0754932196
 32
0.0
 13
0.1825115101
 23
0.0755178984
 33
0.0
 40
0.0
 40
0.0
 40
0.0
 40
0.0
 40
0.0602128896
 40
0.1213162326
 40
0.2457194044
 40
0.3722904402
 40
0.4360782974
 40
0.5000053087
 40
0.5639321449
 40
0.6277194761
 40
0.754288435
 40
0.8786882459
 40
0.93978948
 40
1.0
 40
1.0
 40
1.0
 40
1.0
 10
3.9377806698
 20
4.765896772
 30
0.0
 10
3.9414440565
 20
4.7643815504
 30
0.0
 10
3.9489092078
 20
4.7615280195
 30
0.0
 10
3.9643053153
 20
4.7565407297
 30
0.0
 10
3.9843125338
 20
4.7517057659
 30
0.0
 10
4.0048643322
 20
4.7487964635
 30
0.0
 10
4.0215702727
 20
4.7476228751
 30
0.0
 10
4.0341891621
 20
4.7473279241
 30
0.0
 10
4.0468079821
 20
4.7476243604
 30
0.0
 10
4.0635136016
 20
4.7487999068
 30
0.0
 10
4.0840646646
 20
4.751711613
 30
0.0
 10
4.1040708041
 20
4.7565489385
 30
0.0
 10
4.1194657799
 20
4.7615380488
 30
0.0
 10
4.1269302776
 20
4.7643924651
 30
0.0
 10
4.1305933152
 20
4.7659081224
 30
0.0
 11
3.9377806698
 21
4.765896772
 31
0.0
 11
3.9488879643
 21
4.7616453371
 31
0.0
 11
3.9603683545
 21
4.7579221919
 31
0.0
 11
3.9842465235
 21
4.752124752
 31
0.0
 11
4.008997671
 21
4.7486056194
 31
0.0
 11
4.0215658709
 21
4.7477215212
 31
0.0
 11
4.0341891678
 21
4.7474265603
 31
0.0
 11
4.0468123953
 21
4.7477230079
 31
0.0
 11
4.059380387
 21
4.7486085843
 31
0.0
 11
4.0841307056
 21
4.7521306318
 31
0.0
 11
4.1080075085
 21
4.7579308837
 31
0.0
 11
4.1194870228
 21
4.761655379
 31
0.0
 11
4.1305933152
 21
4.7659081224
 31
0.0
  0
SPLINE
  5
343
100
AcDbEntity
  8
0
100
AcDbSpline
 62
6
  6
CONTINUOUS
 70
0
 71
3
 72
53
 73
49
 74
47
 42
0.0000001
 43
0.0000001
 44
0.0000000001
 12
0.2674541143
 22
-0.2891450794
 32
0.0
 13
0.2674541143
 23
0.2891450794
 33
0.0
 40
0.0
 40
0.0
 40
0.0
 40
0.0
 40
0.0187422059
 40
0.0370422238
 40
0.0549363093
 40
0.0724576104
 40
0.0896360092
 40
0.1064988506
 40
0.1230769882
 40
0.139401758
 40
0.1555017911
 40
0.1714029121
 40
0.1871280998
 40
0.2026979045
 40
0.2334426513
 40
0.263770877
 40
0.2937834036
 40
0.3235616644
 40
0.3383844501
 40
0.3531713247
 40
0.3826579248
 40
0.4120599499
 40
0.4414054264
 40
0.4707165367
 40
0.5000114599
 40
0.5293063225
 40
0.5439591935
 40
0.5586182766
 40
0.6173593421
 40
0.6468463423
 40
0.6764547453
 40
0.7062330723
 40
0.7362441606
 40
0.7513632842
 40
0.7665734005
 40
0.7818875705
 40
0.7973205945
 40
0.8286089628
 40
0.8445079846
 40
0.8606057253
 40
0.8769281233
 40
0.8935039813
 40
0.9103648774
 40
0.9275421527
 40
0.9450630992
 40
0.9629573074
 40
0.981257625
 40
1.0
 40
1.0
 40
1.0
 40
1.0
 10
7.3977939436
 20
2.9520233104
 30
0.0
 10
7.399464837
 20
2.9502169049
 30
0.0
 10
7.4028397318
 20
2.9467129741
 30
0.0
 10
7.4080518574
 20
2.9417246636
 30
0.0
 10
7.4133404375
 20
2.9370563007
 30
0.0
 10
7.4186956164
 20
2.9326943088
 30
0.0
 10
7.4241078218
 20
2.9286249769
 30
0.0
 10
7.4295681022
 20
2.9248337176
 30
0.0
 10
7.4350705536
 20
2.9213077022
 30
0.0
 10
7.4406106246
 20
2.9180340027
 30
0.0
 10
7.4461839967
 20
2.9149992611
 30
0.0
 10
7.4517863954
 20
2.9121902062
 30
0.0
 10
7.4574135906
 20
2.9095933282
 30
0.0
 10
7.4649122916
 20
2.9064101923
 30
0.0
 10
7.4743469876
 20
2.9028939021
 30
0.0
 10
7.4857700555
 20
2.8993373432
 30
0.0
 10
7.4972301392
 20
2.896377587
 30
0.0
 10
7.506818102
 20
2.8943536451
 30
0.0
 10
7.5144926485
 20
2.8929743663
 30
0.0
 10
7.5221540609
 20
2.8917462038
 30
0.0
 10
7.5317451253
 20
2.8904739873
 30
0.0
 10
7.5432747008
 20
2.8893300064
 30
0.0
 10
7.5548102303
 20
2.8885336837
 30
0.0
 10
7.5663495675
 20
2.8880678988
 30
0.0
 10
7.5778904768
 20
2.8879120098
 30
0.0
 10
7.5875069877
 20
2.8880412234
 30
0.0
 10
7.5951974052
 20
2.8883014567
 30
0.0
 10
7.6067449778
 20
2.8888501116
 30
0.0
 10
7.6202171296
 20
2.8899701137
 30
0.0
 10
7.6355564897
 20
2.8920020103
 30
0.0
 10
7.6470631925
 20
2.8939552754
 30
0.0
 10
7.6585506953
 20
2.8963792051
 30
0.0
 10
7.6680771977
 20
2.8988387711
 30
0.0
 10
7.6756699302
 20
2.901102074
 30
0.0
 10
7.6813673767
 20
2.9029618084
 30
0.0
 10
7.6870509175
 20
2.9049901826
 30
0.0
 10
7.6946409305
 20
2.9079468003
 30
0.0
 10
7.702164862
 20
2.9112767416
 30
0.0
 10
7.7095930437
 20
2.9150020335
 30
0.0
 10
7.7151657087
 20
2.9180363387
 30
0.0
 10
7.7207051415
 20
2.9213092877
 30
0.0
 10
7.7262070868
 20
2.9248344976
 30
0.0
 10
7.7316669143
 20
2.9286251805
 30
0.0
 10
7.7370787821
 20
2.9326942162
 30
0.0
 10
7.7424338103
 20
2.9370561118
 30
0.0
 10
7.7477223656
 20
2.9417245166
 30
0.0
 10
7.7529345209
 20
2.9467129081
 30
0.0
 10
7.7563094524
 20
2.9502168886
 30
0.0
 10
7.7579803608
 20
2.9520233104
 30
0.0
 11
7.3977939436
 21
2.9520233104
 31
0.0
 11
7.4029157358
 21
2.9467070979
 31
0.0
 11
7.4081234928
 21
2.9417238201
 31
0.0
 11
7.4134075725
 21
2.9370598122
 31
0.0
 11
7.4187583326
 21
2.9327014094
 31
0.0
 11
7.4241661309
 21
2.928634947
 31
0.0
 11
7.4296217518
 21
2.9248467906
 31
0.0
 11
7.4351193568
 21
2.9213235469
 31
0.0
 11
7.4406547135
 21
2.9180519371
 31
0.0
 11
7.4462235993
 21
2.9150186829
 31
0.0
 11
7.4518217913
 21
2.9122105064
 31
0.0
 11
7.4574450698
 21
2.909614134
 31
0.0
 11
7.4630897804
 21
2.9072172052
 31
0.0
 11
7.4744340256
 21
2.9029805417
 31
0.0
 11
7.4858364106
 21
2.899419581
 31
0.0
 11
7.4972800491
 21
2.8964560215
 31
0.0
 11
7.5087543346
 21
2.8940255216
 31
0.0
 11
7.5145003726
 21
2.8929916565
 31
0.0
 11
7.520250997
 21
2.8920690568
 31
0.0
 11
7.5317633765
 21
2.8905360517
 31
0.0
 11
7.5432869169
 21
2.8893869889
 31
0.0
 11
7.5548177098
 21
2.8885883864
 31
0.0
 11
7.5663530609
 21
2.888119451
 31
0.0
 11
7.5778905145
 21
2.8879638273
 31
0.0
 11
7.589427946
 21
2.8881193129
 31
0.0
 11
7.5951960251
 21
2.8883145453
 31
0.0
 11
7.6009633243
 21
2.888589066
 31
0.0
 11
7.6240177273
 21
2.8905372061
 31
0.0
 11
7.6355303501
 21
2.8920695784
 31
0.0
 11
7.647026817
 21
2.8940273575
 31
0.0
 11
7.6585011556
 21
2.8964577327
 31
0.0
 11
7.6699442766
 21
2.8994210309
 31
0.0
 11
7.6756508935
 21
2.9011230496
 31
0.0
 11
7.681345633
 21
2.902983271
 31
0.0
 11
7.6870261458
 21
2.905011816
 31
0.0
 11
7.6926898339
 21
2.9072192564
 31
0.0
 11
7.7039563429
 21
2.9122131118
 31
0.0
 11
7.7095535545
 21
2.9150213987
 31
0.0
 11
7.715121643
 21
2.9180542288
 31
0.0
 11
7.7206563421
 21
2.9213251152
 31
0.0
 11
7.7261533855
 21
2.9248475713
 31
0.0
 11
7.7316085022
 21
2.9286351102
 31
0.0
 11
7.7370159817
 21
2.9327012603
 31
0.0
 11
7.7423666248
 21
2.9370595856
 31
0.0
 11
7.7476507139
 21
2.941723656
 31
0.0
 11
7.7528585317
 21
2.946707041
 31
0.0
 11
7.7579803608
 21
2.9520233104
 31
0.0
  0
ENDSEC
  0
SECTION
  2
OBJECTS
  0
DICTIONARY
  5
C
100
AcDbDictionary
280
0
281
1
  3
ACAD_GROUP
350
D
  3
ACAD_MLINESTYLE
350
17
  3
ACAD_LAYOUT
350
1A
  3
ACAD_PLOTSETTINGS
350
19
  3
ACAD_PLOTSTYLENAME
350
E
  0
DICTIONARY
  5
D
102
{ACAD_REACTORS
330
C
102
}
100
AcDbDictionary
280
0
281
1
  0
ACDBDICTIONARYWDFLT
  5
E
102
{ACAD_REACTORS
330
C
102
}
100
AcDbDictionary
281
1
  3
Normal
350
F
100
AcDbDictionaryWithDefault
340
F
  0
DICTIONARY
  5
17
102
{ACAD_REACTORS
330
C
102
}
100
AcDbDictionary
280
0
281
1
  3
Standard
350
18
  0
DICTIONARY
  5
19
102
{ACAD_REACTORS
330
C
102
}
100
AcDbDictionary
281
1
  0
DICTIONARY
  5
1A
102
{ACAD_REACTORS
330
C
102
}
100
AcDbDictionary
281
1
  3
Model
350
344
  3
Layout1
350
345
  0
ACDBPLACEHOLDER
  5
F
102
{ACAD_REACTORS
330
E
102
}
  0
MLINESTYLE
  5
18
102
{ACAD_REACTORS
330
17
102
}
100
AcDbMlineStyle
  2
STANDARD
 70
0
  3

 62
256
 51
90.0
 52
90.0
 71
2
 49
0.5
 62
256
  6
BYLAYER
 49
-0.5
 62
256
  6
BYLAYER
  0
LAYOUT
  5
344
102
{ACAD_REACTORS
330
1A
102
}
100
AcDbPlotSettings
  1

  2
none_device
  4
ISO_A4_(297.00_x_210.00_MM)
  6

 40
0.0
 41
0.0
 42
0.0
 43
0.0
 44
297.0
 45
210.0
 46
0.0
 47
0.0
 48
0.0
 49
0.0
140
0.0
141
0.0
142
1.0
143
1.0
 70
1024
 72
0
 73
0
 74
0
  7

 75
0
147
1.0
148
0.0
149
0.0
100
AcDbLayout
  1
Model
 70
0
 71
0
 10
0.0
 20
0.0
 11
11.6929133858
 21
8.2677165354
 12
0.0
 22
0.0
 32
0.0
 14
0.0
 24
0.0
 34
0.0
 15
0.0
 25
0.0
 35
0.0
146
0.0
 13
0.0
 23
0.0
 33
0.0
 16
1.0
 26
0.0
 36
0.0
 17
0.0
 27
1.0
 37
0.0
 76
0
330
203
345
0
346
0
  0
LAYOUT
  5
345
102
{ACAD_REACTORS
330
1A
102
}
100
AcDbPlotSettings
  1

  2
none_device
  4
ISO_A4_(297.00_x_210.00_MM)
  6

 40
0.0
 41
0.0
 42
0.0
 43
0.0
 44
297.0
 45
210.0
 46
0.0
 47
0.0
 48
0.0
 49
0.0
140
0.0
141
0.0
142
1.0
143
1.0
 70
0
 72
0
 73
0
 74
0
  7

 75
0
147
1.0
148
0.0
149
0.0
100
AcDbLayout
  1
Layout1
 70
0
 71
1
 10
0.0
 20
0.0
 11
11.6929133858
 21
8.2677165354
 12
0.0
 22
0.0
 32
0.0
 14
0.0
 24
0.0
 34
0.0
 15
0.0
 25
0.0
 35
0.0
146
0.0
 13
0.0
 23
0.0
 33
0.0
 16
1.0
 26
0.0
 36
0.0
 17
0.0
 27
1.0
 37
0.0
 76
0
330
204
345
0
346
0
  0
ENDSEC
  0
EOF
