999
DXF file: 3-196_Front.dxf
999
Pro/ENGINEER 2023134 by Parametric Technology Corporation
  0
SECTION
  2
HEADER
  9
$ACADVER
  1
AC1032
  9
$DWGCODEPAGE
  3
ANSI_1252
  9
$EXTMAX
 10
11.0
 20
8.5
 30
0.0
  9
$EXTMIN
 10
0.0
 20
0.0
 30
0.0
  9
$LIMMIN
 10
0.0
 20
0.0
  9
$LIMMAX
 10
11.0
 20
8.5
  9
$VIEWCTR
 10
5.5
 20
4.25
  9
$VIEWSIZE
 40
8.5
  9
$CLAYER
  8
0
  9
$LTSCALE
 40
0.605
  9
$CELTYPE
  6
BYLAYER
  9
$DIMSCALE
 40
1.0
  9
$DIMASZ
 40
0.1
  9
$DIMEXO
 40
0.0625
  9
$DIMDLI
 40
0.418
  9
$DIMEXE
 40
0.125
  9
$DIMCEN
 40
0.099
  9
$DIMLFAC
 40
1.0
  9
$DIMBLK
  1
_FILLED
  9
$DIMALT
 70
1
  9
$DIMALTD
 70
2
  9
$DIMALTTD
 70
2
  9
$DIMALTF
 40
25.4
  9
$DIMTXT
 40
0.08
  9
$DIMTOL
 70
1
  9
$DIMLIM
 70
0
  9
$DIMTFAC
 40
1.0
  9
$DIMTP
 40
0.001
  9
$DIMTM
 40
0.001
  9
$DIMGAP
 40
0.09
  9
$DIMDSEP
 70
46
  9
$AUNITS
 70
0
  9
$PDMODE
 70
3
  9
$PDSIZE
 40
0.3125
  9
$HANDSEED
  5
3BD
  9
$TILEMODE
 70
1
  9
$MEASUREMENT
 70
0
  9
$INSUNITS
 70
1
  0
ENDSEC
  0
SECTION
  2
CLASSES
  0
CLASS
  1
ACDBDICTIONARYWDFLT
  2
AcDbDictionaryWithDefault
  3
AutoCAD 2000
 90
0
 91
1
280
0
281
0
  0
CLASS
  1
ACDBPLACEHOLDER
  2
AcDbPlaceHolder
  3
AutoCAD 2000
 90
0
 91
1
280
0
281
0
  0
CLASS
  1
LAYOUT
  2
AcDbLayout
  3
AutoCAD 2000
 90
0
 91
0
280
0
281
0
  0
ENDSEC
  0
SECTION
  2
TABLES
  0
TABLE
  2
VPORT
  5
8
100
AcDbSymbolTable
 70
2
  0
VPORT
  5
1F4
100
AcDbSymbolTableRecord
100
AcDbViewportTableRecord
  2
*ACTIVE
 70
0
 10
0.0
 20
0.0
 11
1.0
 21
1.0
 12
5.5
 22
4.25
 13
0.0
 23
0.0
 14
1.0
 24
1.0
 15
0.0
 25
0.0
 16
0.0
 26
0.0
 36
1.0
 17
0.0
 27
0.0
 37
0.0
 40
8.5
 41
1.2941176471
 42
50.0
 43
0.0
 44
0.0
 50
0.0
 51
0.0
 71
0
 72
100
 73
1
 74
1
 75
0
 76
0
 77
0
 78
0
  0
ENDTAB
  0
TABLE
  2
LTYPE
  5
5
100
AcDbSymbolTable
 70
6
  0
LTYPE
  5
14
100
AcDbSymbolTableRecord
100
AcDbLinetypeTableRecord
  2
BYBLOCK
 70
0
  3

 72
65
 73
0
 40
0.0
  0
LTYPE
  5
15
100
AcDbSymbolTableRecord
100
AcDbLinetypeTableRecord
  2
BYLAYER
 70
0
  3

 72
65
 73
0
 40
0.0
  0
LTYPE
  5
16
100
AcDbSymbolTableRecord
100
AcDbLinetypeTableRecord
  2
CONTINUOUS
 70
64
  3
Solid line
 72
65
 73
0
 40
0.0
  0
LTYPE
  5
1F5
100
AcDbSymbolTableRecord
100
AcDbLinetypeTableRecord
  2
CENTER
 70
64
  3
____ _ ____ _ ____ _ ____ _ ____ _ ____ _ ____
 72
65
 73
4
 40
0.6
 49
0.375
 74
0
 49
-0.075
 74
0
 49
0.075
 74
0
 49
-0.075
 74
0
  0
LTYPE
  5
1F6
100
AcDbSymbolTableRecord
100
AcDbLinetypeTableRecord
  2
HIDDEN
 70
64
  3
- - - - - - - - - - - - - - - - - - - -
 72
65
 73
2
 40
0.2
 49
0.1
 74
0
 49
-0.1
 74
0
  0
LTYPE
  5
1F7
100
AcDbSymbolTableRecord
100
AcDbLinetypeTableRecord
  2
PHANTOM
 70
64
  3
_____ _ _ _____ _ _ _____ _ _ _____
 72
65
 73
6
 40
0.8
 49
0.45
 74
0
 49
-0.05
 74
0
 49
0.1
 74
0
 49
-0.05
 74
0
 49
0.1
 74
0
 49
-0.05
 74
0
  0
LTYPE
  5
1F8
100
AcDbSymbolTableRecord
100
AcDbLinetypeTableRecord
  2
DOT
 70
64
  3
. . . . . . . . . . . . . . . . . . . .
 72
65
 73
2
 40
0.2
 49
0.1
 74
0
 49
-0.1
 74
0
  0
LTYPE
  5
1F9
100
AcDbSymbolTableRecord
100
AcDbLinetypeTableRecord
  2
DASHED
 70
64
  3
- - - - - - - - - - - - - - - - - - - -
 72
65
 73
2
 40
0.2
 49
0.1
 74
0
 49
-0.1
 74
0
  0
ENDTAB
  0
TABLE
  2
LAYER
  5
2
100
AcDbSymbolTable
 70
36
  0
LAYER
  5
10
100
AcDbSymbolTableRecord
100
AcDbLayerTableRecord
  2
0
 70
0
 62
7
  6
CONTINUOUS
370
-3
390
F
  0
LAYER
  5
1FA
100
AcDbSymbolTableRecord
100
AcDbLayerTableRecord
  2
DEFAULT_1
 70
0
 62
7
  6
CENTER
370
-3
390
F
  0
LAYER
  5
1FB
100
AcDbSymbolTableRecord
100
AcDbLayerTableRecord
  2
DEFAULT_2
 70
0
 62
8
  6
HIDDEN
370
-3
390
F
  0
LAYER
  5
1FC
100
AcDbSymbolTableRecord
100
AcDbLayerTableRecord
  2
DEFAULT_3
 70
0
 62
7
  6
PHANTOM
370
-3
390
F
  0
LAYER
  5
1FD
100
AcDbSymbolTableRecord
100
AcDbLayerTableRecord
  2
DEFAULT_COORDINATE_SYSTEM
 70
0
 62
7
  6
CONTINUOUS
370
-3
390
F
  0
LAYER
  5
1FE
100
AcDbSymbolTableRecord
100
AcDbLayerTableRecord
  2
DEFAULT_DATUM_AXES
 70
0
 62
7
  6
CONTINUOUS
370
-3
390
F
  0
LAYER
  5
1FF
100
AcDbSymbolTableRecord
100
AcDbLayerTableRecord
  2
DEFAULT_DATUM_CURVES
 70
0
 62
7
  6
CONTINUOUS
370
-3
390
F
  0
LAYER
  5
200
100
AcDbSymbolTableRecord
100
AcDbLayerTableRecord
  2
DEFAULT_DATUM_PLANES
 70
0
 62
7
  6
CONTINUOUS
370
-3
390
F
  0
ENDTAB
  0
TABLE
  2
STYLE
  5
3
100
AcDbSymbolTable
 70
1
  0
STYLE
  5
11
100
AcDbSymbolTableRecord
100
AcDbTextStyleTableRecord
  2
STANDARD
 70
0
 40
0.0
 41
0.8
 50
0.0
 71
0
 42
0.2
  3
txt
  4

  0
STYLE
  5
201
100
AcDbSymbolTableRecord
100
AcDbTextStyleTableRecord
  2
TEXTSTYLE_1
 70
0
 40
0.0
 41
0.8
 50
0.0
 71
0
 42
0.2
  3
gdt
  4

  0
ENDTAB
  0
TABLE
  2
VIEW
  5
6
100
AcDbSymbolTable
 70
0
  0
ENDTAB
  0
TABLE
  2
UCS
  5
7
100
AcDbSymbolTable
 70
0
  0
ENDTAB
  0
TABLE
  2
APPID
  5
9
100
AcDbSymbolTable
 70
1
  0
APPID
  5
202
100
AcDbSymbolTableRecord
100
AcDbRegAppTableRecord
  2
ACAD
 70
0
  0
ENDTAB
  0
TABLE
  2
BLOCK_RECORD
  5
1
100
AcDbSymbolTable
 70
0
  0
BLOCK_RECORD
  5
203
100
AcDbSymbolTableRecord
100
AcDbBlockTableRecord
  2
*Model_Space
  0
BLOCK_RECORD
  5
204
100
AcDbSymbolTableRecord
100
AcDbBlockTableRecord
  2
*Paper_Space
  0
BLOCK_RECORD
  5
205
100
AcDbSymbolTableRecord
100
AcDbBlockTableRecord
  2
_FILLED
  0
ENDTAB
  0
TABLE
  2
DIMSTYLE
  5
A
100
AcDbSymbolTable
 70
1
100
AcDbDimStyleTable
 71
0
  0
DIMSTYLE
105
206
100
AcDbSymbolTableRecord
100
AcDbDimStyleTableRecord
  2
STANDARD
 70
0
  3

  4

 40
1.0
 41
0.1
 42
0.0625
 43
0.38
 44
0.125
 45
0.0
 46
0.0
 47
0.001
 48
0.001
140
0.08
141
0.09
142
0.0
143
25.4
144
1.0
145
0.0
146
1.0
147
0.09
 71
1
 72
0
 73
1
 74
1
 75
0
 76
0
 77
0
 78
4
 79
1
170
1
171
2
172
0
173
0
174
0
175
0
176
0
177
0
178
0
270
2
179
3
271
3
272
3
273
2
274
2
275
0
280
0
281
0
282
0
283
1
284
4
285
0
286
0
287
3
288
0
340
11
278
46
341
205
342
205
343
205
344
205
  0
ENDTAB
  0
ENDSEC
  0
SECTION
  2
BLOCKS
  0
BLOCK
  5
20
100
AcDbEntity
  8
0
100
AcDbBlockBegin
  2
*Model_Space
 70
0
 10
0.0
 20
0.0
 30
0.0
  3
*Model_Space
  1

  0
ENDBLK
  5
21
100
AcDbEntity
  8
0
100
AcDbBlockEnd
  0
BLOCK
  5
1C
100
AcDbEntity
  8
0
100
AcDbBlockBegin
  2
*Paper_Space
 70
0
 10
0.0
 20
0.0
 30
0.0
  3
*Paper_Space
  1

  0
ENDBLK
  5
1D
100
AcDbEntity
  8
0
100
AcDbBlockEnd
  0
BLOCK
  5
207
100
AcDbEntity
  8
0
100
AcDbBlockBegin
  2
_FILLED
 70
64
 10
0.0
 20
0.0
  3
_FILLED
  1

  0
SOLID
  5
208
100
AcDbEntity
  8
0
  6
BYBLOCK
 62
0
100
AcDbTrace
 10
0.0
 20
0.0
 11
-1.0
 21
0.2
 12
-1.0
 22
-0.2
 13
-1.0
 23
-0.2
  0
ENDBLK
  5
209
100
AcDbEntity
  8
0
  6
BYBLOCK
 62
0
100
AcDbBlockEnd
  0
ENDSEC
  0
SECTION
  2
ENTITIES
  0
MTEXT
  5
20A
100
AcDbEntity
  8
0
100
AcDbMText
 62
2
  6
CONTINUOUS
  7
STANDARD
 71
2
 72
1
 10
5.5736607143
 20
2.3333447787
 30
0.0
 11
1.0
 21
0.0
 31
0.0
 73
2
 44
0.9
  1
SCALE 0.500
 40
0.08
 41
0.704
  0
LINE
  5
20B
100
AcDbEntity
  8
0
100
AcDbLine
 62
7
  6
CONTINUOUS
 10
0.0
 20
0.0
 11
0.0
 21
8.5
  0
LINE
  5
20C
100
AcDbEntity
  8
0
100
AcDbLine
 62
7
  6
CONTINUOUS
 10
0.0
 20
0.0
 11
11.0
 21
0.0
  0
LINE
  5
20D
100
AcDbEntity
  8
0
100
AcDbLine
 62
7
  6
CONTINUOUS
 10
0.0
 20
8.5
 11
11.0
 21
8.5
  0
LINE
  5
20E
100
AcDbEntity
  8
0
100
AcDbLine
 62
7
  6
CONTINUOUS
 10
11.0
 20
0.0
 11
11.0
 21
8.5
  0
LINE
  5
20F
100
AcDbEntity
  8
0
100
AcDbLine
 62
7
  6
CONTINUOUS
 10
3.8157521108
 20
2.9794772523
 11
3.8149858503
 21
2.9800383047
  0
LINE
  5
210
100
AcDbEntity
  8
0
100
AcDbLine
 62
7
  6
CONTINUOUS
 10
3.8237123403
 20
2.9713118147
 11
3.8187123403
 21
2.9763118147
  0
LINE
  5
211
100
AcDbEntity
  8
0
100
AcDbLine
 62
7
  6
CONTINUOUS
 10
3.8149858503
 20
2.9800383047
 11
3.7966658737
 21
2.9983582813
  0
LINE
  5
212
100
AcDbEntity
  8
0
100
AcDbLine
 62
7
  6
CONTINUOUS
 10
3.7939001952
 20
3.0278035251
 11
3.7937123403
 21
3.0280205714
  0
LINE
  5
213
100
AcDbEntity
  8
0
100
AcDbLine
 62
7
  6
CONTINUOUS
 10
3.7939001952
 20
3.0635035251
 11
3.7937123403
 21
3.0637205714
  0
LINE
  5
214
100
AcDbEntity
  8
0
100
AcDbLine
 62
7
  6
CONTINUOUS
 10
3.7937123403
 20
3.0994205714
 11
3.7939001952
 21
3.0992035251
  0
LINE
  5
215
100
AcDbEntity
  8
0
100
AcDbLine
 62
7
  6
CONTINUOUS
 10
3.8186602859
 20
2.9777967333
 11
3.8157521108
 21
2.9794772523
  0
LINE
  5
216
100
AcDbEntity
  8
0
100
AcDbLine
 62
7
  6
CONTINUOUS
 10
3.8186602855
 20
3.0134967315
 11
3.7939001952
 21
3.0278035251
  0
LINE
  5
217
100
AcDbEntity
  8
0
100
AcDbLine
 62
7
  6
CONTINUOUS
 10
3.8186602855
 20
3.0491967315
 11
3.7939001952
 21
3.0635035251
  0
LINE
  5
218
100
AcDbEntity
  8
0
100
AcDbLine
 62
7
  6
CONTINUOUS
 10
3.8186602855
 20
3.0848967315
 11
3.7939001952
 21
3.0992035251
  0
LINE
  5
219
100
AcDbEntity
  8
0
100
AcDbLine
 62
7
  6
CONTINUOUS
 10
4.2837643951
 20
2.9933268981
 11
4.2943892097
 21
2.9871874131
  0
LINE
  5
21A
100
AcDbEntity
  8
0
100
AcDbLine
 62
7
  6
CONTINUOUS
 10
4.2837643951
 20
3.029026898
 11
4.3085244852
 21
3.0147201044
  0
LINE
  5
21B
100
AcDbEntity
  8
0
100
AcDbLine
 62
7
  6
CONTINUOUS
 10
4.2837643951
 20
3.064726898
 11
4.3085244852
 21
3.0504201044
  0
LINE
  5
21C
100
AcDbEntity
  8
0
100
AcDbLine
 62
7
  6
CONTINUOUS
 10
4.3087123403
 20
3.014503058
 11
4.3085244852
 21
3.0147201044
  0
LINE
  5
21D
100
AcDbEntity
  8
0
100
AcDbLine
 62
7
  6
CONTINUOUS
 10
4.3087123403
 20
3.050203058
 11
4.3085244852
 21
3.0504201044
  0
LINE
  5
21E
100
AcDbEntity
  8
0
100
AcDbLine
 62
7
  6
CONTINUOUS
 10
3.7862123403
 20
4.9443020204
 11
3.7862123403
 21
3.1588118147
  0
LINE
  5
21F
100
AcDbEntity
  8
0
100
AcDbLine
 62
7
  6
CONTINUOUS
 10
3.7937123403
 20
3.0280205714
 11
3.7937123403
 21
3.032353058
  0
LINE
  5
220
100
AcDbEntity
  8
0
100
AcDbLine
 62
7
  6
CONTINUOUS
 10
3.7937123403
 20
3.0637205714
 11
3.7937123403
 21
3.068053058
  0
LINE
  5
221
100
AcDbEntity
  8
0
100
AcDbLine
 62
7
  6
CONTINUOUS
 10
3.7937123403
 20
3.0994205714
 11
3.7937123403
 21
3.103753058
  0
LINE
  5
222
100
AcDbEntity
  8
0
100
AcDbLine
 62
7
  6
CONTINUOUS
 10
3.8187123403
 20
2.9763118147
 11
3.8187123403
 21
2.9778868147
  0
LINE
  5
223
100
AcDbEntity
  8
0
100
AcDbLine
 62
7
  6
CONTINUOUS
 10
3.8187123403
 20
3.0110868147
 11
3.8187123403
 21
3.0135868147
  0
LINE
  5
224
100
AcDbEntity
  8
0
100
AcDbLine
 62
7
  6
CONTINUOUS
 10
3.8187123403
 20
3.0467868147
 11
3.8187123403
 21
3.0492868147
  0
LINE
  5
225
100
AcDbEntity
  8
0
100
AcDbLine
 62
7
  6
CONTINUOUS
 10
3.8187123403
 20
3.0824868147
 11
3.8187123403
 21
3.0849868147
  0
LINE
  5
226
100
AcDbEntity
  8
0
100
AcDbLine
 62
7
  6
CONTINUOUS
 10
3.8187123403
 20
3.1181868147
 11
3.8187123403
 21
3.1188902473
  0
LINE
  5
227
100
AcDbEntity
  8
0
100
AcDbLine
 62
7
  6
CONTINUOUS
 10
3.8224623403
 20
3.1438118147
 11
3.8224623403
 21
3.1288118147
  0
LINE
  5
228
100
AcDbEntity
  8
0
100
AcDbLine
 62
7
  6
CONTINUOUS
 10
4.2837643951
 20
3.100426898
 11
4.3085244852
 21
3.0861201044
  0
LINE
  5
229
100
AcDbEntity
  8
0
100
AcDbLine
 62
7
  6
CONTINUOUS
 10
4.3087123403
 20
3.085903058
 11
4.3085244852
 21
3.0861201044
  0
LINE
  5
22A
100
AcDbEntity
  8
0
100
AcDbLine
 62
7
  6
CONTINUOUS
 10
7.2787123403
 20
2.9713118147
 11
6.8237123403
 21
2.9713118147
  0
LINE
  5
22B
100
AcDbEntity
  8
0
100
AcDbLine
 62
7
  6
CONTINUOUS
 10
4.2787123403
 20
2.9713118147
 11
3.8237123403
 21
2.9713118147
  0
LINE
  5
22C
100
AcDbEntity
  8
0
100
AcDbLine
 62
7
  6
CONTINUOUS
 10
6.8217865983
 20
2.9763118147
 11
6.8187123403
 21
2.9763118147
  0
LINE
  5
22D
100
AcDbEntity
  8
0
100
AcDbLine
 62
7
  6
CONTINUOUS
 10
3.8217865983
 20
2.9763118147
 11
3.8187123403
 21
2.9763118147
  0
LINE
  5
22E
100
AcDbEntity
  8
0
100
AcDbLine
 62
7
  6
CONTINUOUS
 10
4.2943892097
 20
2.9871874131
 11
4.2944423603
 21
2.9870418347
  0
LINE
  5
22F
100
AcDbEntity
  8
0
100
AcDbLine
 62
7
  6
CONTINUOUS
 10
4.2887190701
 20
5.3804840295
 11
4.288543436
 21
5.3800251366
  0
LINE
  5
230
100
AcDbEntity
  8
0
100
AcDbLine
 62
7
  6
CONTINUOUS
 10
4.2887190701
 20
5.3804840295
 11
4.2885216492
 21
5.3800334997
  0
LINE
  5
231
100
AcDbEntity
  8
0
100
AcDbLine
 62
7
  6
CONTINUOUS
 10
3.8242365661
 20
3.1138118147
 11
4.3029139815
 21
3.1138118147
  0
LINE
  5
232
100
AcDbEntity
  8
0
100
AcDbLine
 62
7
  6
CONTINUOUS
 10
6.8242365661
 20
3.1138118147
 11
7.3029139815
 21
3.1138118147
  0
LINE
  5
233
100
AcDbEntity
  8
0
100
AcDbLine
 62
7
  6
CONTINUOUS
 10
6.8204918749
 20
3.1188902473
 11
6.8187123403
 21
3.1188902473
  0
LINE
  5
234
100
AcDbEntity
  8
0
100
AcDbLine
 62
7
  6
CONTINUOUS
 10
3.8204918749
 20
3.1188902473
 11
3.8187123403
 21
3.1188902473
  0
LINE
  5
235
100
AcDbEntity
  8
0
100
AcDbLine
 62
7
  6
CONTINUOUS
 10
3.8224623403
 20
3.1288118147
 11
4.2799623403
 21
3.1288118147
  0
LINE
  5
236
100
AcDbEntity
  8
0
100
AcDbLine
 62
7
  6
CONTINUOUS
 10
6.8224623403
 20
3.1288118147
 11
7.2799623403
 21
3.1288118147
  0
LINE
  5
237
100
AcDbEntity
  8
0
100
AcDbLine
 62
7
  6
CONTINUOUS
 10
3.8224623403
 20
3.1438118147
 11
4.2799623403
 21
3.1438118147
  0
LINE
  5
238
100
AcDbEntity
  8
0
100
AcDbLine
 62
7
  6
CONTINUOUS
 10
6.8224623403
 20
3.1438118147
 11
7.2799623403
 21
3.1438118147
  0
LINE
  5
239
100
AcDbEntity
  8
0
100
AcDbLine
 62
7
  6
CONTINUOUS
 10
4.2799623403
 20
3.1438118147
 11
4.2799623403
 21
3.1288118147
  0
LINE
  5
23A
100
AcDbEntity
  8
0
100
AcDbLine
 62
7
  6
CONTINUOUS
 10
4.2837123403
 20
3.1028368147
 11
4.2837123403
 21
3.1003368147
  0
LINE
  5
23B
100
AcDbEntity
  8
0
100
AcDbLine
 62
7
  6
CONTINUOUS
 10
4.2837123403
 20
3.0671368147
 11
4.2837123403
 21
3.0646368147
  0
LINE
  5
23C
100
AcDbEntity
  8
0
100
AcDbLine
 62
7
  6
CONTINUOUS
 10
4.2837123403
 20
3.0314368147
 11
4.2837123403
 21
3.0289368147
  0
LINE
  5
23D
100
AcDbEntity
  8
0
100
AcDbLine
 62
7
  6
CONTINUOUS
 10
4.2837123403
 20
2.9957368147
 11
4.2837123403
 21
2.9932368147
  0
LINE
  5
23E
100
AcDbEntity
  8
0
100
AcDbLine
 62
7
  6
CONTINUOUS
 10
4.3087123403
 20
3.0101705714
 11
4.3087123403
 21
3.014503058
  0
LINE
  5
23F
100
AcDbEntity
  8
0
100
AcDbLine
 62
7
  6
CONTINUOUS
 10
4.3087123403
 20
3.0458705714
 11
4.3087123403
 21
3.050203058
  0
LINE
  5
240
100
AcDbEntity
  8
0
100
AcDbLine
 62
7
  6
CONTINUOUS
 10
4.3087123403
 20
3.0815705714
 11
4.3087123403
 21
3.085903058
  0
LINE
  5
241
100
AcDbEntity
  8
0
100
AcDbLine
 62
7
  6
CONTINUOUS
 10
4.3162123403
 20
4.9443020204
 11
4.3162123403
 21
3.1588118147
  0
LINE
  5
242
100
AcDbEntity
  8
0
100
AcDbLine
 62
7
  6
CONTINUOUS
 10
7.3162123403
 20
3.1588118147
 11
6.7862123403
 21
3.1588118147
  0
LINE
  5
243
100
AcDbEntity
  8
0
100
AcDbLine
 62
7
  6
CONTINUOUS
 10
4.3162123403
 20
3.1588118147
 11
3.7862123403
 21
3.1588118147
  0
LINE
  5
244
100
AcDbEntity
  8
0
100
AcDbLine
 62
7
  6
CONTINUOUS
 10
3.7966658737
 20
2.9983582813
 11
3.7967166796
 21
2.9984974026
  0
LINE
  5
245
100
AcDbEntity
  8
0
100
AcDbLine
 62
7
  6
CONTINUOUS
 10
7.3162123403
 20
3.7213118147
 11
6.7862123403
 21
3.7213118147
  0
LINE
  5
246
100
AcDbEntity
  8
0
100
AcDbLine
 62
7
  6
CONTINUOUS
 10
4.3162123403
 20
3.7213118147
 11
3.7862123403
 21
3.7213118147
  0
LINE
  5
247
100
AcDbEntity
  8
0
100
AcDbLine
 62
7
  6
CONTINUOUS
 10
6.8186602859
 20
2.9777967333
 11
6.8157521108
 21
2.9794772523
  0
LINE
  5
248
100
AcDbEntity
  8
0
100
AcDbLine
 62
7
  6
CONTINUOUS
 10
6.8186602855
 20
3.0134967315
 11
6.7939001952
 21
3.0278035251
  0
LINE
  5
249
100
AcDbEntity
  8
0
100
AcDbLine
 62
7
  6
CONTINUOUS
 10
6.8186602855
 20
3.0491967315
 11
6.7939001952
 21
3.0635035251
  0
LINE
  5
24A
100
AcDbEntity
  8
0
100
AcDbLine
 62
7
  6
CONTINUOUS
 10
6.8186602855
 20
3.0848967315
 11
6.7939001952
 21
3.0992035251
  0
LINE
  5
24B
100
AcDbEntity
  8
0
100
AcDbLine
 62
7
  6
CONTINUOUS
 10
3.7937123403
 20
3.103753058
 11
3.7939001954
 21
3.1039701044
  0
LINE
  5
24C
100
AcDbEntity
  8
0
100
AcDbLine
 62
7
  6
CONTINUOUS
 10
3.7937123403
 20
3.068053058
 11
3.7939001954
 21
3.0682701044
  0
LINE
  5
24D
100
AcDbEntity
  8
0
100
AcDbLine
 62
7
  6
CONTINUOUS
 10
3.7937123403
 20
3.032353058
 11
3.7939001954
 21
3.0325701044
  0
LINE
  5
24E
100
AcDbEntity
  8
0
100
AcDbLine
 62
7
  6
CONTINUOUS
 10
7.2837643951
 20
2.9933268981
 11
7.2943892097
 21
2.9871874131
  0
LINE
  5
24F
100
AcDbEntity
  8
0
100
AcDbLine
 62
7
  6
CONTINUOUS
 10
7.2837643951
 20
3.029026898
 11
7.3085244852
 21
3.0147201044
  0
LINE
  5
250
100
AcDbEntity
  8
0
100
AcDbLine
 62
7
  6
CONTINUOUS
 10
7.2837643951
 20
3.064726898
 11
7.3085244852
 21
3.0504201044
  0
LINE
  5
251
100
AcDbEntity
  8
0
100
AcDbLine
 62
7
  6
CONTINUOUS
 10
7.2837643951
 20
3.100426898
 11
7.3085244852
 21
3.0861201044
  0
LINE
  5
252
100
AcDbEntity
  8
0
100
AcDbLine
 62
7
  6
CONTINUOUS
 10
6.8157521108
 20
2.9794772523
 11
6.8149858503
 21
2.9800383047
  0
LINE
  5
253
100
AcDbEntity
  8
0
100
AcDbLine
 62
7
  6
CONTINUOUS
 10
6.8237123403
 20
2.9713118147
 11
6.8187123403
 21
2.9763118147
  0
LINE
  5
254
100
AcDbEntity
  8
0
100
AcDbLine
 62
7
  6
CONTINUOUS
 10
6.8149858503
 20
2.9800383047
 11
6.7966658737
 21
2.9983582813
  0
LINE
  5
255
100
AcDbEntity
  8
0
100
AcDbLine
 62
7
  6
CONTINUOUS
 10
4.3085244854
 20
3.0813535251
 11
4.3087123403
 21
3.0815705714
  0
LINE
  5
256
100
AcDbEntity
  8
0
100
AcDbLine
 62
7
  6
CONTINUOUS
 10
4.3085244854
 20
3.0456535251
 11
4.3087123403
 21
3.0458705714
  0
LINE
  5
257
100
AcDbEntity
  8
0
100
AcDbLine
 62
7
  6
CONTINUOUS
 10
6.7939001952
 20
3.0278035251
 11
6.7937123403
 21
3.0280205714
  0
LINE
  5
258
100
AcDbEntity
  8
0
100
AcDbLine
 62
7
  6
CONTINUOUS
 10
6.7939001952
 20
3.0635035251
 11
6.7937123403
 21
3.0637205714
  0
LINE
  5
259
100
AcDbEntity
  8
0
100
AcDbLine
 62
7
  6
CONTINUOUS
 10
6.7937123403
 20
3.0994205714
 11
6.7939001952
 21
3.0992035251
  0
LINE
  5
25A
100
AcDbEntity
  8
0
100
AcDbLine
 62
7
  6
CONTINUOUS
 10
4.3087123403
 20
3.0101705714
 11
4.3085244854
 21
3.0099535251
  0
LINE
  5
25B
100
AcDbEntity
  8
0
100
AcDbLine
 62
7
  6
CONTINUOUS
 10
4.2787123403
 20
2.9713118147
 11
4.2944423603
 21
2.9870418347
  0
LINE
  5
25C
100
AcDbEntity
  8
0
100
AcDbLine
 62
7
  6
CONTINUOUS
 10
3.7939001954
 20
3.1039701044
 11
3.8120873721
 21
3.1144787235
  0
LINE
  5
25D
100
AcDbEntity
  8
0
100
AcDbLine
 62
7
  6
CONTINUOUS
 10
7.3087123403
 20
3.014503058
 11
7.3085244852
 21
3.0147201044
  0
LINE
  5
25E
100
AcDbEntity
  8
0
100
AcDbLine
 62
7
  6
CONTINUOUS
 10
7.3087123403
 20
3.050203058
 11
7.3085244852
 21
3.0504201044
  0
LINE
  5
25F
100
AcDbEntity
  8
0
100
AcDbLine
 62
7
  6
CONTINUOUS
 10
3.7939001954
 20
3.0682701044
 11
3.8189203349
 21
3.0827271681
  0
LINE
  5
260
100
AcDbEntity
  8
0
100
AcDbLine
 62
7
  6
CONTINUOUS
 10
3.7939001954
 20
3.0325701044
 11
3.8189203349
 21
3.0470271681
  0
LINE
  5
261
100
AcDbEntity
  8
0
100
AcDbLine
 62
7
  6
CONTINUOUS
 10
3.7967166796
 20
2.9984974026
 11
3.8189203348
 21
3.011327168
  0
LINE
  5
262
100
AcDbEntity
  8
0
100
AcDbLine
 62
7
  6
CONTINUOUS
 10
7.3087123403
 20
3.085903058
 11
7.3085244852
 21
3.0861201044
  0
LINE
  5
263
100
AcDbEntity
  8
0
100
AcDbLine
 62
7
  6
CONTINUOUS
 10
4.3029138654
 20
3.1138118147
 11
4.2835043459
 21
3.1025964614
  0
LINE
  5
264
100
AcDbEntity
  8
0
100
AcDbLine
 62
7
  6
CONTINUOUS
 10
4.3085244854
 20
3.0813535251
 11
4.2835043459
 21
3.0668964614
  0
LINE
  5
265
100
AcDbEntity
  8
0
100
AcDbLine
 62
7
  6
CONTINUOUS
 10
4.3085244854
 20
3.0456535251
 11
4.2835043459
 21
3.0311964614
  0
LINE
  5
266
100
AcDbEntity
  8
0
100
AcDbLine
 62
7
  6
CONTINUOUS
 10
4.3085244854
 20
3.0099535251
 11
4.2835043459
 21
2.9954964614
  0
LINE
  5
267
100
AcDbEntity
  8
0
100
AcDbLine
 62
7
  6
CONTINUOUS
 10
3.8189203349
 20
3.1184271681
 11
3.8204918749
 21
3.1188902473
  0
LINE
  5
268
100
AcDbEntity
  8
0
100
AcDbLine
 62
7
  6
CONTINUOUS
 10
6.7862123403
 20
4.9443171096
 11
6.7862123403
 21
3.1588118147
  0
LINE
  5
269
100
AcDbEntity
  8
0
100
AcDbLine
 62
7
  6
CONTINUOUS
 10
7.2943892097
 20
2.9871874131
 11
7.2944423603
 21
2.9870418347
  0
LINE
  5
26A
100
AcDbEntity
  8
0
100
AcDbLine
 62
7
  6
CONTINUOUS
 10
6.7937123403
 20
3.0280205714
 11
6.7937123403
 21
3.032353058
  0
LINE
  5
26B
100
AcDbEntity
  8
0
100
AcDbLine
 62
7
  6
CONTINUOUS
 10
6.7937123403
 20
3.0637205714
 11
6.7937123403
 21
3.068053058
  0
LINE
  5
26C
100
AcDbEntity
  8
0
100
AcDbLine
 62
7
  6
CONTINUOUS
 10
6.7937123403
 20
3.0994205714
 11
6.7937123403
 21
3.103753058
  0
LINE
  5
26D
100
AcDbEntity
  8
0
100
AcDbLine
 62
7
  6
CONTINUOUS
 10
6.8187123403
 20
2.9763118147
 11
6.8187123403
 21
2.9778868147
  0
LINE
  5
26E
100
AcDbEntity
  8
0
100
AcDbLine
 62
7
  6
CONTINUOUS
 10
6.8187123403
 20
3.0110868147
 11
6.8187123403
 21
3.0135868147
  0
LINE
  5
26F
100
AcDbEntity
  8
0
100
AcDbLine
 62
7
  6
CONTINUOUS
 10
6.8187123403
 20
3.0467868147
 11
6.8187123403
 21
3.0492868147
  0
LINE
  5
270
100
AcDbEntity
  8
0
100
AcDbLine
 62
7
  6
CONTINUOUS
 10
6.8187123403
 20
3.0824868147
 11
6.8187123403
 21
3.0849868147
  0
LINE
  5
271
100
AcDbEntity
  8
0
100
AcDbLine
 62
7
  6
CONTINUOUS
 10
6.8187123403
 20
3.1181868147
 11
6.8187123403
 21
3.1188902473
  0
LINE
  5
272
100
AcDbEntity
  8
0
100
AcDbLine
 62
7
  6
CONTINUOUS
 10
6.8224623403
 20
3.1438118147
 11
6.8224623403
 21
3.1288118147
  0
LINE
  5
273
100
AcDbEntity
  8
0
100
AcDbLine
 62
7
  6
CONTINUOUS
 10
7.2799623403
 20
3.1438118147
 11
7.2799623403
 21
3.1288118147
  0
LINE
  5
274
100
AcDbEntity
  8
0
100
AcDbLine
 62
7
  6
CONTINUOUS
 10
7.2837123403
 20
3.1028368147
 11
7.2837123403
 21
3.1003368147
  0
LINE
  5
275
100
AcDbEntity
  8
0
100
AcDbLine
 62
7
  6
CONTINUOUS
 10
7.2837123403
 20
3.0671368147
 11
7.2837123403
 21
3.0646368147
  0
LINE
  5
276
100
AcDbEntity
  8
0
100
AcDbLine
 62
7
  6
CONTINUOUS
 10
7.2837123403
 20
3.0314368147
 11
7.2837123403
 21
3.0289368147
  0
LINE
  5
277
100
AcDbEntity
  8
0
100
AcDbLine
 62
7
  6
CONTINUOUS
 10
7.2837123403
 20
2.9957368147
 11
7.2837123403
 21
2.9932368147
  0
LINE
  5
278
100
AcDbEntity
  8
0
100
AcDbLine
 62
7
  6
CONTINUOUS
 10
6.7966658737
 20
2.9983582813
 11
6.7967166796
 21
2.9984974026
  0
LINE
  5
279
100
AcDbEntity
  8
0
100
AcDbLine
 62
7
  6
CONTINUOUS
 10
6.8189203349
 20
3.1184271681
 11
6.8204918749
 21
3.1188902473
  0
LINE
  5
27A
100
AcDbEntity
  8
0
100
AcDbLine
 62
7
  6
CONTINUOUS
 10
7.3087123403
 20
3.0101705714
 11
7.3087123403
 21
3.014503058
  0
LINE
  5
27B
100
AcDbEntity
  8
0
100
AcDbLine
 62
7
  6
CONTINUOUS
 10
7.3087123403
 20
3.0458705714
 11
7.3087123403
 21
3.050203058
  0
LINE
  5
27C
100
AcDbEntity
  8
0
100
AcDbLine
 62
7
  6
CONTINUOUS
 10
7.3087123403
 20
3.0815705714
 11
7.3087123403
 21
3.085903058
  0
LINE
  5
27D
100
AcDbEntity
  8
0
100
AcDbLine
 62
7
  6
CONTINUOUS
 10
7.3162123403
 20
4.9443171096
 11
7.3162123403
 21
3.1588118147
  0
LINE
  5
27E
100
AcDbEntity
  8
0
100
AcDbLine
 62
7
  6
CONTINUOUS
 10
6.7937123403
 20
3.103753058
 11
6.7939001954
 21
3.1039701044
  0
LINE
  5
27F
100
AcDbEntity
  8
0
100
AcDbLine
 62
7
  6
CONTINUOUS
 10
6.7937123403
 20
3.068053058
 11
6.7939001954
 21
3.0682701044
  0
LINE
  5
280
100
AcDbEntity
  8
0
100
AcDbLine
 62
7
  6
CONTINUOUS
 10
6.7937123403
 20
3.032353058
 11
6.7939001954
 21
3.0325701044
  0
LINE
  5
281
100
AcDbEntity
  8
0
100
AcDbLine
 62
7
  6
CONTINUOUS
 10
6.7939001954
 20
3.1039701044
 11
6.8120873721
 21
3.1144787235
  0
LINE
  5
282
100
AcDbEntity
  8
0
100
AcDbLine
 62
7
  6
CONTINUOUS
 10
6.7939001954
 20
3.0682701044
 11
6.8189203349
 21
3.0827271681
  0
LINE
  5
283
100
AcDbEntity
  8
0
100
AcDbLine
 62
7
  6
CONTINUOUS
 10
6.7939001954
 20
3.0325701044
 11
6.8189203349
 21
3.0470271681
  0
LINE
  5
284
100
AcDbEntity
  8
0
100
AcDbLine
 62
7
  6
CONTINUOUS
 10
6.7967166796
 20
2.9984974026
 11
6.8189203348
 21
3.011327168
  0
LINE
  5
285
100
AcDbEntity
  8
0
100
AcDbLine
 62
7
  6
CONTINUOUS
 10
7.3029138654
 20
3.1138118147
 11
7.2835043459
 21
3.1025964614
  0
LINE
  5
286
100
AcDbEntity
  8
0
100
AcDbLine
 62
7
  6
CONTINUOUS
 10
7.3085244854
 20
3.0813535251
 11
7.3087123403
 21
3.0815705714
  0
LINE
  5
287
100
AcDbEntity
  8
0
100
AcDbLine
 62
7
  6
CONTINUOUS
 10
7.3085244854
 20
3.0813535251
 11
7.2835043459
 21
3.0668964614
  0
LINE
  5
288
100
AcDbEntity
  8
0
100
AcDbLine
 62
7
  6
CONTINUOUS
 10
7.3085244854
 20
3.0456535251
 11
7.2835043459
 21
3.0311964614
  0
LINE
  5
289
100
AcDbEntity
  8
0
100
AcDbLine
 62
7
  6
CONTINUOUS
 10
7.3085244854
 20
3.0099535251
 11
7.2835043459
 21
2.9954964614
  0
LINE
  5
28A
100
AcDbEntity
  8
0
100
AcDbLine
 62
7
  6
CONTINUOUS
 10
7.3085244854
 20
3.0456535251
 11
7.3087123403
 21
3.0458705714
  0
LINE
  5
28B
100
AcDbEntity
  8
0
100
AcDbLine
 62
7
  6
CONTINUOUS
 10
7.3087123403
 20
3.0101705714
 11
7.3085244854
 21
3.0099535251
  0
LINE
  5
28C
100
AcDbEntity
  8
0
100
AcDbLine
 62
7
  6
CONTINUOUS
 10
7.2787123403
 20
2.9713118147
 11
7.2944423603
 21
2.9870418347
  0
ARC
  5
28D
100
AcDbEntity
  8
0
100
AcDbCircle
 62
7
  6
CONTINUOUS
 10
4.2949623403
 20
3.1438118147
 40
0.015
100
AcDbArc
 50
90.0
 51
180.0
  0
ARC
  5
28E
100
AcDbEntity
  8
0
100
AcDbCircle
 62
7
  6
CONTINUOUS
 10
4.2949623403
 20
3.1288118147
 40
0.015
100
AcDbArc
 50
180.0
 51
270.0
  0
ARC
  5
28F
100
AcDbEntity
  8
0
100
AcDbCircle
 62
7
  6
CONTINUOUS
 10
3.8074623403
 20
3.1438118147
 40
0.015
100
AcDbArc
 50
0.0
 51
90.0
  0
ARC
  5
290
100
AcDbEntity
  8
0
100
AcDbCircle
 62
7
  6
CONTINUOUS
 10
3.8074623403
 20
3.1288118147
 40
0.015
100
AcDbArc
 50
318.5903778908
 51
360.0
  0
ARC
  5
291
100
AcDbEntity
  8
0
100
AcDbCircle
 62
7
  6
CONTINUOUS
 10
3.8074623403
 20
3.1288118147
 40
0.015
100
AcDbArc
 50
291.2775946104
 51
308.7224053895
  0
CIRCLE
  5
292
100
AcDbEntity
  8
0
100
AcDbCircle
 62
7
  6
CONTINUOUS
 10
4.0512123403
 20
5.4713118147
 40
0.59
  0
CIRCLE
  5
293
100
AcDbEntity
  8
0
100
AcDbCircle
 62
7
  6
CONTINUOUS
 10
4.0512123403
 20
5.4713118147
 40
0.265
  0
ARC
  5
294
100
AcDbEntity
  8
0
100
AcDbCircle
 62
7
  6
CONTINUOUS
 10
4.0510709137
 20
5.4714331315
 40
0.2648750399
100
AcDbArc
 50
188.8541533434
 51
270.0305927876
  0
ARC
  5
295
100
AcDbEntity
  8
0
100
AcDbCircle
 62
7
  6
CONTINUOUS
 10
4.0513202392
 20
5.4714658593
 40
0.2648647696
100
AcDbArc
 50
101.1217522657
 51
188.8497334742
  0
ARC
  5
296
100
AcDbEntity
  8
0
100
AcDbCircle
 62
7
  6
CONTINUOUS
 10
4.0510648107
 20
5.4712002712
 40
0.2646355549
100
AcDbArc
 50
270.0319410355
 51
344.1443880852
  0
ARC
  5
297
100
AcDbEntity
  8
0
100
AcDbCircle
 62
7
  6
CONTINUOUS
 10
4.0510709152
 20
5.4714331298
 40
0.2646046684
100
AcDbArc
 50
188.8510363546
 51
270.0306237194
  0
ARC
  5
298
100
AcDbEntity
  8
0
100
AcDbCircle
 62
7
  6
CONTINUOUS
 10
4.0510648112
 20
5.4712002702
 40
0.2643651853
100
AcDbArc
 50
270.0319735954
 51
344.144904865
  0
ARC
  5
299
100
AcDbEntity
  8
0
100
AcDbCircle
 62
7
  6
CONTINUOUS
 10
4.0513295166
 20
5.4711567451
 40
0.2643582305
100
AcDbArc
 50
344.137788414
 51
90.0253970265
  0
ARC
  5
29A
100
AcDbEntity
  8
0
100
AcDbCircle
 62
7
  6
CONTINUOUS
 10
4.0513295176
 20
5.471156746
 40
0.2640878609
100
AcDbArc
 50
344.1382985395
 51
90.0254232291
  0
ARC
  5
29B
100
AcDbEntity
  8
0
100
AcDbCircle
 62
7
  6
CONTINUOUS
 10
4.0510648185
 20
5.4712002592
 40
0.2635260983
100
AcDbArc
 50
270.0320738267
 51
344.1464489539
  0
ARC
  5
29C
100
AcDbEntity
  8
0
100
AcDbCircle
 62
7
  6
CONTINUOUS
 10
4.0510648192
 20
5.471200258
 40
0.2632557284
100
AcDbArc
 50
270.0321066075
 51
344.1469619421
  0
ARC
  5
29D
100
AcDbEntity
  8
0
100
AcDbCircle
 62
7
  6
CONTINUOUS
 10
4.0513295254
 20
5.4711567524
 40
0.2632487778
100
AcDbArc
 50
344.1398194637
 51
90.025505964
  0
ARC
  5
29E
100
AcDbEntity
  8
0
100
AcDbCircle
 62
7
  6
CONTINUOUS
 10
4.0513295261
 20
5.4711567531
 40
0.2629784083
100
AcDbArc
 50
344.140325746
 51
90.0255323514
  0
ARC
  5
29F
100
AcDbEntity
  8
0
100
AcDbCircle
 62
7
  6
CONTINUOUS
 10
4.0510648204
 20
5.4712002555
 40
0.2624166509
100
AcDbArc
 50
270.0322090064
 51
344.148508909
  0
ARC
  5
2A0
100
AcDbEntity
  8
0
100
AcDbCircle
 62
7
  6
CONTINUOUS
 10
4.0510647559
 20
5.4712002577
 40
0.2621463199
100
AcDbArc
 50
270.0322563154
 51
344.1499264157
  0
ARC
  5
2A1
100
AcDbEntity
  8
0
100
AcDbCircle
 62
7
  6
CONTINUOUS
 10
4.0513295281
 20
5.4711567551
 40
0.2621393309
100
AcDbArc
 50
344.1418520509
 51
90.0256145075
  0
ARC
  5
2A2
100
AcDbEntity
  8
0
100
AcDbCircle
 62
7
  6
CONTINUOUS
 10
4.0513766476
 20
5.4713869266
 40
0.2619005391
100
AcDbArc
 50
90.0359452937
 51
139.4881126645
  0
ARC
  5
2A3
100
AcDbEntity
  8
0
100
AcDbCircle
 62
7
  6
CONTINUOUS
 10
4.0513295491
 20
5.4711567766
 40
0.2618689705
100
AcDbArc
 50
344.1432549705
 51
90.0256455568
  0
ARC
  5
2A4
100
AcDbEntity
  8
0
100
AcDbCircle
 62
7
  6
CONTINUOUS
 10
4.0513766482
 20
5.4713869251
 40
0.2616301722
100
AcDbArc
 50
90.0359825783
 51
139.4858340394
  0
ARC
  5
2A5
100
AcDbEntity
  8
0
100
AcDbCircle
 62
7
  6
CONTINUOUS
 10
4.0510647561
 20
5.4712002573
 40
0.2613072446
100
AcDbArc
 50
270.0323598428
 51
344.150030137
  0
ARC
  5
2A6
100
AcDbEntity
  8
0
100
AcDbCircle
 62
7
  6
CONTINUOUS
 10
4.051064822
 20
5.4712002518
 40
0.261036835
100
AcDbArc
 50
270.0323788976
 51
344.1510772671
  0
ARC
  5
2A7
100
AcDbEntity
  8
0
100
AcDbCircle
 62
7
  6
CONTINUOUS
 10
4.0513295494
 20
5.4711567767
 40
0.2610298952
100
AcDbArc
 50
344.1433372361
 51
90.0257280648
  0
ARC
  5
2A8
100
AcDbEntity
  8
0
100
AcDbCircle
 62
7
  6
CONTINUOUS
 10
4.0513768537
 20
5.4713863406
 40
0.2607917004
100
AcDbArc
 50
90.0361434063
 51
139.1165562882
  0
ARC
  5
2A9
100
AcDbEntity
  8
0
100
AcDbCircle
 62
7
  6
CONTINUOUS
 10
4.0513295312
 20
5.4711567584
 40
0.2607595147
100
AcDbArc
 50
344.1443862339
 51
90.0257507429
  0
ARC
  5
2AA
100
AcDbEntity
  8
0
100
AcDbCircle
 62
7
  6
CONTINUOUS
 10
4.0512075774
 20
5.4715495817
 40
0.2605562459
100
AcDbArc
 50
139.1193318744
 51
139.4812738641
  0
ARC
  5
2AB
100
AcDbEntity
  8
0
100
AcDbCircle
 62
7
  6
CONTINUOUS
 10
4.0513768545
 20
5.4713863378
 40
0.2605213345
100
AcDbArc
 50
90.0361810985
 51
139.1153411847
  0
ARC
  5
2AC
100
AcDbEntity
  8
0
100
AcDbCircle
 62
7
  6
CONTINUOUS
 10
4.0512081506
 20
5.4715490427
 40
0.2602866634
100
AcDbArc
 50
139.1181117749
 51
139.4787422529
  0
ARC
  5
2AD
100
AcDbEntity
  8
0
100
AcDbCircle
 62
7
  6
CONTINUOUS
 10
4.0513768535
 20
5.47138634
 40
0.2596822573
100
AcDbArc
 50
90.0362977773
 51
139.1154257752
  0
ARC
  5
2AE
100
AcDbEntity
  8
0
100
AcDbCircle
 62
7
  6
CONTINUOUS
 10
4.0512079494
 20
5.4715492141
 40
0.2594473241
100
AcDbArc
 50
139.1182047322
 51
139.4711045521
  0
ARC
  5
2AF
100
AcDbEntity
  8
0
100
AcDbCircle
 62
7
  6
CONTINUOUS
 10
4.051376855
 20
5.4713863352
 40
0.2594118935
100
AcDbArc
 50
90.0363359457
 51
139.1118183161
  0
ARC
  5
2B0
100
AcDbEntity
  8
0
100
AcDbCircle
 62
7
  6
CONTINUOUS
 10
4.0512081866
 20
5.4715490313
 40
0.2591772545
100
AcDbArc
 50
139.1146012445
 51
139.4686086981
  0
ARC
  5
2B1
100
AcDbEntity
  8
0
100
AcDbCircle
 62
7
  6
CONTINUOUS
 10
4.051376854
 20
5.4713863374
 40
0.2585728163
100
AcDbArc
 50
90.0364536265
 51
139.1119031599
  0
ARC
  5
2B2
100
AcDbEntity
  8
0
100
AcDbCircle
 62
7
  6
CONTINUOUS
 10
4.0512079844
 20
5.4715492037
 40
0.2583379138
100
AcDbArc
 50
139.1146945336
 51
139.4609140446
  0
ARC
  5
2B3
100
AcDbEntity
  8
0
100
AcDbCircle
 62
7
  6
CONTINUOUS
 10
4.0513766853
 20
5.4713868259
 40
0.2583019432
100
AcDbArc
 50
90.0364544496
 51
139.4481183453
  0
ARC
  5
2B4
100
AcDbEntity
  8
0
100
AcDbCircle
 62
7
  6
CONTINUOUS
 10
4.0510381645
 20
5.4712746815
 40
0.2580560936
100
AcDbArc
 50
270.0386719715
 51
294.7424950614
  0
ARC
  5
2B5
100
AcDbEntity
  8
0
100
AcDbCircle
 62
7
  6
CONTINUOUS
 10
4.0510893984
 20
5.471180581
 40
0.2579487375
100
AcDbArc
 50
294.7409078855
 51
338.9946054184
  0
ARC
  5
2B6
100
AcDbEntity
  8
0
100
AcDbCircle
 62
7
  6
CONTINUOUS
 10
4.0510381655
 20
5.4712746774
 40
0.2577857209
100
AcDbArc
 50
270.0387123059
 51
294.742614086
  0
ARC
  5
2B7
100
AcDbEntity
  8
0
100
AcDbCircle
 62
7
  6
CONTINUOUS
 10
4.05132351
 20
5.4711501269
 40
0.2577094901
100
AcDbArc
 50
338.9822693094
 51
90.0247169158
  0
ARC
  5
2B8
100
AcDbEntity
  8
0
100
AcDbCircle
 62
7
  6
CONTINUOUS
 10
4.0510894094
 20
5.4711805705
 40
0.2576783545
100
AcDbArc
 50
294.7410238632
 51
338.9952892546
  0
ARC
  5
2B9
100
AcDbEntity
  8
0
100
AcDbCircle
 62
7
  6
CONTINUOUS
 10
4.0513766843
 20
5.4713868282
 40
0.2574628658
100
AcDbArc
 50
90.0365730189
 51
139.4482370582
  0
ARC
  5
2BA
100
AcDbEntity
  8
0
100
AcDbCircle
 62
7
  6
CONTINUOUS
 10
4.0513235114
 20
5.4711501282
 40
0.2574391198
100
AcDbArc
 50
338.9829391105
 51
90.0247431962
  0
ARC
  5
2BB
100
AcDbEntity
  8
0
100
AcDbCircle
 62
7
  6
CONTINUOUS
 10
4.0513768505
 20
5.4713863461
 40
0.2571929951
100
AcDbArc
 50
90.0366484316
 51
139.1154283462
  0
ARC
  5
2BC
100
AcDbEntity
  8
0
100
AcDbCircle
 62
7
  6
CONTINUOUS
 10
4.051299637
 20
5.471466605
 40
0.2570814413
100
AcDbArc
 50
139.447445656
 51
161.6679378579
  0
ARC
  5
2BD
100
AcDbEntity
  8
0
100
AcDbCircle
 62
7
  6
CONTINUOUS
 10
4.05120737
 20
5.4715497096
 40
0.2569573059
100
AcDbArc
 50
139.1182325812
 51
139.4481495289
  0
ARC
  5
2BE
100
AcDbEntity
  8
0
100
AcDbCircle
 62
7
  6
CONTINUOUS
 10
4.0510381669
 20
5.4712746733
 40
0.2569466418
100
AcDbArc
 50
270.0388384315
 51
294.7431544555
  0
ARC
  5
2BF
100
AcDbEntity
  8
0
100
AcDbCircle
 62
7
  6
CONTINUOUS
 10
4.0510979807
 20
5.4714701017
 40
0.2568802973
100
AcDbArc
 50
161.6545318766
 51
270.0255081665
  0
ARC
  5
2C0
100
AcDbEntity
  8
0
100
AcDbCircle
 62
7
  6
CONTINUOUS
 10
4.0510894127
 20
5.471180567
 40
0.256839275
100
AcDbArc
 50
294.7415588079
 51
338.9978709408
  0
ARC
  5
2C1
100
AcDbEntity
  8
0
100
AcDbCircle
 62
7
  6
CONTINUOUS
 10
4.0510381665
 20
5.4712746755
 40
0.2566762754
100
AcDbArc
 50
270.0388794149
 51
294.7433600303
  0
ARC
  5
2C2
100
AcDbEntity
  8
0
100
AcDbCircle
 62
7
  6
CONTINUOUS
 10
4.0513235147
 20
5.4711501314
 40
0.2566000408
100
AcDbArc
 50
338.9854813241
 51
90.0248248432
  0
ARC
  5
2C3
100
AcDbEntity
  8
0
100
AcDbCircle
 62
7
  6
CONTINUOUS
 10
4.05108941
 20
5.4711805696
 40
0.2565689099
100
AcDbArc
 50
294.7417632235
 51
338.9987209292
  0
ARC
  5
2C4
100
AcDbEntity
  8
0
100
AcDbCircle
 62
7
  6
CONTINUOUS
 10
4.0513235159
 20
5.4711501325
 40
0.2563296709
100
AcDbArc
 50
338.9863190122
 51
90.024851291
  0
ARC
  5
2C5
100
AcDbEntity
  8
0
100
AcDbCircle
 62
7
  6
CONTINUOUS
 10
4.0513620018
 20
5.4714196353
 40
0.2563187845
100
AcDbArc
 50
90.0334540082
 51
161.655837234
  0
ARC
  5
2C6
100
AcDbEntity
  8
0
100
AcDbCircle
 62
7
  6
CONTINUOUS
 10
4.0513620038
 20
5.4714196318
 40
0.2560484197
100
AcDbArc
 50
90.0334897699
 51
161.6537035682
  0
ARC
  5
2C7
100
AcDbEntity
  8
0
100
AcDbCircle
 62
7
  6
CONTINUOUS
 10
4.0510979883
 20
5.4714701101
 40
0.2560412324
100
AcDbArc
 50
161.6479647072
 51
270.0255900566
  0
ARC
  5
2C8
100
AcDbEntity
  8
0
100
AcDbCircle
 62
7
  6
CONTINUOUS
 10
4.0510381678
 20
5.4712746714
 40
0.2558371963
100
AcDbArc
 50
270.0390066348
 51
294.7438948267
  0
ARC
  5
2C9
100
AcDbEntity
  8
0
100
AcDbCircle
 62
7
  6
CONTINUOUS
 10
4.0510979908
 20
5.471470113
 40
0.2557708671
100
AcDbArc
 50
161.6458218972
 51
270.0256165343
  0
ARC
  5
2CA
100
AcDbEntity
  8
0
100
AcDbCircle
 62
7
  6
CONTINUOUS
 10
4.0510894133
 20
5.4711805661
 40
0.2557298304
100
AcDbArc
 50
294.7422925437
 51
339.0013195839
  0
ARC
  5
2CB
100
AcDbEntity
  8
0
100
AcDbCircle
 62
7
  6
CONTINUOUS
 10
4.0510381684
 20
5.4712746697
 40
0.2555668259
100
AcDbArc
 50
270.0390477847
 51
294.7440725246
  0
ARC
  5
2CC
100
AcDbEntity
  8
0
100
AcDbCircle
 62
7
  6
CONTINUOUS
 10
4.0513235192
 20
5.4711501358
 40
0.2554905918
100
AcDbArc
 50
338.9888778567
 51
90.0249336524
  0
ARC
  5
2CD
100
AcDbEntity
  8
0
100
AcDbCircle
 62
7
  6
CONTINUOUS
 10
4.0510894077
 20
5.4711805711
 40
0.2554594688
100
AcDbArc
 50
294.742469236
 51
339.0022122858
  0
ARC
  5
2CE
100
AcDbEntity
  8
0
100
AcDbCircle
 62
7
  6
CONTINUOUS
 10
4.0513235197
 20
5.4711501365
 40
0.2552202224
100
AcDbArc
 50
338.9897585919
 51
90.0249601781
  0
ARC
  5
2CF
100
AcDbEntity
  8
0
100
AcDbCircle
 62
7
  6
CONTINUOUS
 10
4.0513620085
 20
5.4714196225
 40
0.2552093547
100
AcDbArc
 50
90.0336009427
 51
161.6471117294
  0
ARC
  5
2D0
100
AcDbEntity
  8
0
100
AcDbCircle
 62
7
  6
CONTINUOUS
 10
4.0513620082
 20
5.4714196218
 40
0.254938987
100
AcDbArc
 50
90.0336365147
 51
161.6450423503
  0
ARC
  5
2D1
100
AcDbEntity
  8
0
100
AcDbCircle
 62
7
  6
CONTINUOUS
 10
4.0510979985
 20
5.4714701215
 40
0.2549318023
100
AcDbArc
 50
161.6392012284
 51
270.0256991237
  0
ARC
  5
2D2
100
AcDbEntity
  8
0
100
AcDbCircle
 62
7
  6
CONTINUOUS
 10
4.0510381697
 20
5.4712746656
 40
0.2547277468
100
AcDbArc
 50
270.0391761131
 51
294.7446086731
  0
ARC
  5
2D3
100
AcDbEntity
  8
0
100
AcDbCircle
 62
7
  6
CONTINUOUS
 10
4.051098001
 20
5.4714701241
 40
0.254661437
100
AcDbArc
 50
161.6371222024
 51
270.02572586
  0
ARC
  5
2D4
100
AcDbEntity
  8
0
100
AcDbCircle
 62
7
  6
CONTINUOUS
 10
4.051089411
 20
5.4711805676
 40
0.2546203893
100
AcDbArc
 50
294.7429998611
 51
339.0048069101
  0
ARC
  5
2D5
100
AcDbEntity
  8
0
100
AcDbCircle
 62
7
  6
CONTINUOUS
 10
4.0510378888
 20
5.4712765783
 40
0.2544592911
100
AcDbArc
 50
270.0392806789
 51
294.7448836135
  0
ARC
  5
2D6
100
AcDbEntity
  8
0
100
AcDbCircle
 62
7
  6
CONTINUOUS
 10
4.051323523
 20
5.4711501397
 40
0.2543811434
100
AcDbArc
 50
338.9923130566
 51
90.0250432575
  0
ARC
  5
2D7
100
AcDbEntity
  8
0
100
AcDbCircle
 62
7
  6
CONTINUOUS
 10
4.0510893995
 20
5.47118056
 40
0.2543500754
100
AcDbArc
 50
294.743399173
 51
338.9988730166
  0
ARC
  5
2D8
100
AcDbEntity
  8
0
100
AcDbCircle
 62
7
  6
CONTINUOUS
 10
4.0513235601
 20
5.4711503912
 40
0.2541106392
100
AcDbArc
 50
339.0970866173
 51
90.0250782961
  0
ARC
  5
2D9
100
AcDbEntity
  8
0
100
AcDbCircle
 62
7
  6
CONTINUOUS
 10
4.0513625685
 20
5.4714185544
 40
0.2541010556
100
AcDbArc
 50
90.0338737665
 51
160.9309352801
  0
ARC
  5
2DA
100
AcDbEntity
  8
0
100
AcDbCircle
 62
7
  6
CONTINUOUS
 10
4.051154399
 20
5.4715188465
 40
0.253869181
100
AcDbArc
 50
160.9369788129
 51
161.6448631294
  0
ARC
  5
2DB
100
AcDbEntity
  8
0
100
AcDbCircle
 62
7
  6
CONTINUOUS
 10
4.051362575
 20
5.4714185428
 40
0.2538306993
100
AcDbArc
 50
90.0339113265
 51
160.9244129951
  0
ARC
  5
2DC
100
AcDbEntity
  8
0
100
AcDbCircle
 62
7
  6
CONTINUOUS
 10
4.0510980087
 20
5.4714701327
 40
0.2538223723
100
AcDbArc
 50
161.6304183704
 51
270.0258091498
  0
ARC
  5
2DD
100
AcDbEntity
  8
0
100
AcDbCircle
 62
7
  6
CONTINUOUS
 10
4.0510378911
 20
5.4712765681
 40
0.253620206
100
AcDbArc
 50
270.0394101349
 51
294.7450131478
  0
ARC
  5
2DE
100
AcDbEntity
  8
0
100
AcDbCircle
 62
7
  6
CONTINUOUS
 10
4.0511543877
 20
5.4715188567
 40
0.2535987984
100
AcDbArc
 50
160.9304604232
 51
161.6426837793
  0
ARC
  5
2DF
100
AcDbEntity
  8
0
100
AcDbCircle
 62
7
  6
CONTINUOUS
 10
4.0510980112
 20
5.4714701354
 40
0.253552007
100
AcDbArc
 50
161.6282226495
 51
270.0258361189
  0
ARC
  5
2E0
100
AcDbEntity
  8
0
100
AcDbCircle
 62
7
  6
CONTINUOUS
 10
4.0510894055
 20
5.4711805531
 40
0.2535109914
100
AcDbArc
 50
294.7435227664
 51
339.0074450233
  0
ARC
  5
2E1
100
AcDbEntity
  8
0
100
AcDbCircle
 62
7
  6
CONTINUOUS
 10
4.0510381758
 20
5.4712746353
 40
0.2533479044
100
AcDbArc
 50
270.0393881043
 51
294.7454199727
  0
ARC
  5
2E2
100
AcDbEntity
  8
0
100
AcDbCircle
 62
7
  6
CONTINUOUS
 10
4.0512958483
 20
5.4711412066
 40
0.2532974801
100
AcDbArc
 50
338.9990255306
 51
73.8953768572
  0
ARC
  5
2E3
100
AcDbEntity
  8
0
100
AcDbCircle
 62
7
  6
CONTINUOUS
 10
4.0510894201
 20
5.4711805554
 40
0.2532405617
100
AcDbArc
 50
294.7438004259
 51
339.0089300819
  0
ARC
  5
2E4
100
AcDbEntity
  8
0
100
AcDbCircle
 62
7
  6
CONTINUOUS
 10
4.0513869101
 20
5.4712817226
 40
0.2531308351
100
AcDbArc
 50
73.9063570754
 51
89.6798539519
  0
ARC
  5
2E5
100
AcDbEntity
  8
0
100
AcDbCircle
 62
7
  6
CONTINUOUS
 10
4.0512961147
 20
5.4711408421
 40
0.2530274791
100
AcDbArc
 50
339.000559899
 51
73.8945283846
  0
ARC
  5
2E6
100
AcDbEntity
  8
0
100
AcDbCircle
 62
7
  6
CONTINUOUS
 10
4.0513898429
 20
5.4714731376
 40
0.2529394066
100
AcDbArc
 50
89.6802760062
 51
90.0314090602
  0
ARC
  5
2E7
100
AcDbEntity
  8
0
100
AcDbCircle
 62
7
  6
CONTINUOUS
 10
4.0512123403
 20
5.4713118147
 40
0.2528800249
100
AcDbArc
 50
73.865546219
 51
161.5966386552
  0
CIRCLE
  5
2E8
100
AcDbEntity
  8
0
100
AcDbCircle
 62
7
  6
CONTINUOUS
 10
4.0512123403
 20
5.4713118147
 40
0.2025
  0
ARC
  5
2E9
100
AcDbEntity
  8
0
100
AcDbCircle
 62
7
  6
CONTINUOUS
 10
4.0930881012
 20
7.5988112433
 40
4.4881962799
100
AcDbArc
 50
271.6621435486
 51
272.1626623099
  0
ARC
  5
2EA
100
AcDbEntity
  8
0
100
AcDbCircle
 62
7
  6
CONTINUOUS
 10
7.2949623403
 20
3.1438118147
 40
0.015
100
AcDbArc
 50
90.0
 51
180.0
  0
ARC
  5
2EB
100
AcDbEntity
  8
0
100
AcDbCircle
 62
7
  6
CONTINUOUS
 10
7.2949623403
 20
3.1288118147
 40
0.015
100
AcDbArc
 50
180.0
 51
270.0
  0
ARC
  5
2EC
100
AcDbEntity
  8
0
100
AcDbCircle
 62
7
  6
CONTINUOUS
 10
6.8074623403
 20
3.1438118147
 40
0.015
100
AcDbArc
 50
0.0
 51
90.0
  0
ARC
  5
2ED
100
AcDbEntity
  8
0
100
AcDbCircle
 62
7
  6
CONTINUOUS
 10
6.8074623403
 20
3.1288118147
 40
0.015
100
AcDbArc
 50
318.5903778908
 51
360.0
  0
ARC
  5
2EE
100
AcDbEntity
  8
0
100
AcDbCircle
 62
7
  6
CONTINUOUS
 10
6.8074623403
 20
3.1288118147
 40
0.015
100
AcDbArc
 50
291.2775946105
 51
308.7224053895
  0
CIRCLE
  5
2EF
100
AcDbEntity
  8
0
100
AcDbCircle
 62
7
  6
CONTINUOUS
 10
7.0512123403
 20
5.4713118147
 40
0.59
  0
CIRCLE
  5
2F0
100
AcDbEntity
  8
0
100
AcDbCircle
 62
7
  6
CONTINUOUS
 10
7.0512123403
 20
5.4713118147
 40
0.265
  0
ARC
  5
2F1
100
AcDbEntity
  8
0
100
AcDbCircle
 62
7
  6
CONTINUOUS
 10
7.0510709137
 20
5.4714331315
 40
0.2648750399
100
AcDbArc
 50
188.8541533434
 51
270.0305927876
  0
ARC
  5
2F2
100
AcDbEntity
  8
0
100
AcDbCircle
 62
7
  6
CONTINUOUS
 10
7.0513202392
 20
5.4714658593
 40
0.2648647696
100
AcDbArc
 50
101.1217522657
 51
188.8497334742
  0
ARC
  5
2F3
100
AcDbEntity
  8
0
100
AcDbCircle
 62
7
  6
CONTINUOUS
 10
7.0510648107
 20
5.4712002712
 40
0.2646355549
100
AcDbArc
 50
270.0319410355
 51
344.1443880852
  0
ARC
  5
2F4
100
AcDbEntity
  8
0
100
AcDbCircle
 62
7
  6
CONTINUOUS
 10
7.0510709152
 20
5.4714331298
 40
0.2646046684
100
AcDbArc
 50
188.8510363546
 51
270.0306237194
  0
ARC
  5
2F5
100
AcDbEntity
  8
0
100
AcDbCircle
 62
7
  6
CONTINUOUS
 10
7.0510648112
 20
5.4712002702
 40
0.2643651853
100
AcDbArc
 50
270.0319735954
 51
344.144904865
  0
ARC
  5
2F6
100
AcDbEntity
  8
0
100
AcDbCircle
 62
7
  6
CONTINUOUS
 10
7.0513295166
 20
5.4711567451
 40
0.2643582305
100
AcDbArc
 50
344.137788414
 51
90.0253970265
  0
ARC
  5
2F7
100
AcDbEntity
  8
0
100
AcDbCircle
 62
7
  6
CONTINUOUS
 10
7.0513295176
 20
5.471156746
 40
0.2640878609
100
AcDbArc
 50
344.1382985395
 51
90.0254232291
  0
ARC
  5
2F8
100
AcDbEntity
  8
0
100
AcDbCircle
 62
7
  6
CONTINUOUS
 10
7.0510648185
 20
5.4712002592
 40
0.2635260983
100
AcDbArc
 50
270.0320738267
 51
344.1464489539
  0
ARC
  5
2F9
100
AcDbEntity
  8
0
100
AcDbCircle
 62
7
  6
CONTINUOUS
 10
7.0510648192
 20
5.471200258
 40
0.2632557284
100
AcDbArc
 50
270.0321066075
 51
344.1469619421
  0
ARC
  5
2FA
100
AcDbEntity
  8
0
100
AcDbCircle
 62
7
  6
CONTINUOUS
 10
7.0513295254
 20
5.4711567524
 40
0.2632487778
100
AcDbArc
 50
344.1398194637
 51
90.025505964
  0
ARC
  5
2FB
100
AcDbEntity
  8
0
100
AcDbCircle
 62
7
  6
CONTINUOUS
 10
7.0513295261
 20
5.4711567531
 40
0.2629784083
100
AcDbArc
 50
344.140325746
 51
90.0255323514
  0
ARC
  5
2FC
100
AcDbEntity
  8
0
100
AcDbCircle
 62
7
  6
CONTINUOUS
 10
7.0510648204
 20
5.4712002555
 40
0.2624166509
100
AcDbArc
 50
270.0322090064
 51
344.148508909
  0
ARC
  5
2FD
100
AcDbEntity
  8
0
100
AcDbCircle
 62
7
  6
CONTINUOUS
 10
7.0510647559
 20
5.4712002577
 40
0.2621463199
100
AcDbArc
 50
270.0322563154
 51
344.1499264157
  0
ARC
  5
2FE
100
AcDbEntity
  8
0
100
AcDbCircle
 62
7
  6
CONTINUOUS
 10
7.0513295281
 20
5.4711567551
 40
0.2621393309
100
AcDbArc
 50
344.1418520509
 51
90.0256145075
  0
ARC
  5
2FF
100
AcDbEntity
  8
0
100
AcDbCircle
 62
7
  6
CONTINUOUS
 10
7.0513766476
 20
5.4713869266
 40
0.2619005391
100
AcDbArc
 50
90.0359452946
 51
139.4881126654
  0
ARC
  5
300
100
AcDbEntity
  8
0
100
AcDbCircle
 62
7
  6
CONTINUOUS
 10
7.0513295491
 20
5.4711567766
 40
0.2618689705
100
AcDbArc
 50
344.1432549705
 51
90.0256455568
  0
ARC
  5
301
100
AcDbEntity
  8
0
100
AcDbCircle
 62
7
  6
CONTINUOUS
 10
7.0513766482
 20
5.4713869251
 40
0.2616301722
100
AcDbArc
 50
90.0359825792
 51
139.4858340402
  0
ARC
  5
302
100
AcDbEntity
  8
0
100
AcDbCircle
 62
7
  6
CONTINUOUS
 10
7.0510647561
 20
5.4712002573
 40
0.2613072446
100
AcDbArc
 50
270.0323598428
 51
344.150030137
  0
ARC
  5
303
100
AcDbEntity
  8
0
100
AcDbCircle
 62
7
  6
CONTINUOUS
 10
7.051064822
 20
5.4712002518
 40
0.261036835
100
AcDbArc
 50
270.0323788976
 51
344.1510772671
  0
ARC
  5
304
100
AcDbEntity
  8
0
100
AcDbCircle
 62
7
  6
CONTINUOUS
 10
7.0513295494
 20
5.4711567767
 40
0.2610298952
100
AcDbArc
 50
344.1433372361
 51
90.0257280648
  0
ARC
  5
305
100
AcDbEntity
  8
0
100
AcDbCircle
 62
7
  6
CONTINUOUS
 10
7.0513768537
 20
5.4713863406
 40
0.2607917004
100
AcDbArc
 50
90.0361434059
 51
139.1165562878
  0
ARC
  5
306
100
AcDbEntity
  8
0
100
AcDbCircle
 62
7
  6
CONTINUOUS
 10
7.0513295312
 20
5.4711567584
 40
0.2607595147
100
AcDbArc
 50
344.1443862339
 51
90.0257507429
  0
ARC
  5
307
100
AcDbEntity
  8
0
100
AcDbCircle
 62
7
  6
CONTINUOUS
 10
7.0512075774
 20
5.4715495817
 40
0.2605562459
100
AcDbArc
 50
139.1193318744
 51
139.4812738641
  0
ARC
  5
308
100
AcDbEntity
  8
0
100
AcDbCircle
 62
7
  6
CONTINUOUS
 10
7.0513768545
 20
5.4713863378
 40
0.2605213345
100
AcDbArc
 50
90.0361810993
 51
139.1153411855
  0
ARC
  5
309
100
AcDbEntity
  8
0
100
AcDbCircle
 62
7
  6
CONTINUOUS
 10
7.0512081507
 20
5.4715490426
 40
0.2602866636
100
AcDbArc
 50
139.118111775
 51
139.4787422527
  0
ARC
  5
30A
100
AcDbEntity
  8
0
100
AcDbCircle
 62
7
  6
CONTINUOUS
 10
7.0513768535
 20
5.47138634
 40
0.2596822573
100
AcDbArc
 50
90.0362977772
 51
139.1154257752
  0
ARC
  5
30B
100
AcDbEntity
  8
0
100
AcDbCircle
 62
7
  6
CONTINUOUS
 10
7.0512079494
 20
5.4715492142
 40
0.2594473241
100
AcDbArc
 50
139.1182047322
 51
139.4711045522
  0
ARC
  5
30C
100
AcDbEntity
  8
0
100
AcDbCircle
 62
7
  6
CONTINUOUS
 10
7.051376855
 20
5.4713863352
 40
0.2594118935
100
AcDbArc
 50
90.0363359452
 51
139.1118183156
  0
ARC
  5
30D
100
AcDbEntity
  8
0
100
AcDbCircle
 62
7
  6
CONTINUOUS
 10
7.0512081865
 20
5.4715490313
 40
0.2591772544
100
AcDbArc
 50
139.1146012445
 51
139.4686086982
  0
ARC
  5
30E
100
AcDbEntity
  8
0
100
AcDbCircle
 62
7
  6
CONTINUOUS
 10
7.051376854
 20
5.4713863374
 40
0.2585728163
100
AcDbArc
 50
90.0364536269
 51
139.1119031603
  0
ARC
  5
30F
100
AcDbEntity
  8
0
100
AcDbCircle
 62
7
  6
CONTINUOUS
 10
7.0512079847
 20
5.4715492034
 40
0.2583379142
100
AcDbArc
 50
139.1146945339
 51
139.4609140443
  0
ARC
  5
310
100
AcDbEntity
  8
0
100
AcDbCircle
 62
7
  6
CONTINUOUS
 10
7.0513766853
 20
5.4713868259
 40
0.2583019432
100
AcDbArc
 50
90.0364544487
 51
139.4481183445
  0
ARC
  5
311
100
AcDbEntity
  8
0
100
AcDbCircle
 62
7
  6
CONTINUOUS
 10
7.0510381645
 20
5.4712746815
 40
0.2580560936
100
AcDbArc
 50
270.0386719715
 51
294.7424950614
  0
ARC
  5
312
100
AcDbEntity
  8
0
100
AcDbCircle
 62
7
  6
CONTINUOUS
 10
7.0510893984
 20
5.471180581
 40
0.2579487375
100
AcDbArc
 50
294.7409078855
 51
338.9946054184
  0
ARC
  5
313
100
AcDbEntity
  8
0
100
AcDbCircle
 62
7
  6
CONTINUOUS
 10
7.0510381655
 20
5.4712746774
 40
0.2577857209
100
AcDbArc
 50
270.0387123059
 51
294.742614086
  0
ARC
  5
314
100
AcDbEntity
  8
0
100
AcDbCircle
 62
7
  6
CONTINUOUS
 10
7.05132351
 20
5.4711501269
 40
0.2577094901
100
AcDbArc
 50
338.9822693094
 51
90.0247169158
  0
ARC
  5
315
100
AcDbEntity
  8
0
100
AcDbCircle
 62
7
  6
CONTINUOUS
 10
7.0510894094
 20
5.4711805705
 40
0.2576783545
100
AcDbArc
 50
294.7410238632
 51
338.9952892546
  0
ARC
  5
316
100
AcDbEntity
  8
0
100
AcDbCircle
 62
7
  6
CONTINUOUS
 10
7.0513766843
 20
5.4713868282
 40
0.2574628658
100
AcDbArc
 50
90.0365730189
 51
139.4482370582
  0
ARC
  5
317
100
AcDbEntity
  8
0
100
AcDbCircle
 62
7
  6
CONTINUOUS
 10
7.0513235114
 20
5.4711501282
 40
0.2574391198
100
AcDbArc
 50
338.9829391105
 51
90.0247431962
  0
ARC
  5
318
100
AcDbEntity
  8
0
100
AcDbCircle
 62
7
  6
CONTINUOUS
 10
7.0513768505
 20
5.4713863461
 40
0.2571929951
100
AcDbArc
 50
90.0366484311
 51
139.1154283456
  0
ARC
  5
319
100
AcDbEntity
  8
0
100
AcDbCircle
 62
7
  6
CONTINUOUS
 10
7.051299637
 20
5.471466605
 40
0.2570814413
100
AcDbArc
 50
139.447445656
 51
161.6679378579
  0
ARC
  5
31A
100
AcDbEntity
  8
0
100
AcDbCircle
 62
7
  6
CONTINUOUS
 10
7.0512073701
 20
5.4715497095
 40
0.2569573061
100
AcDbArc
 50
139.1182325814
 51
139.4481495288
  0
ARC
  5
31B
100
AcDbEntity
  8
0
100
AcDbCircle
 62
7
  6
CONTINUOUS
 10
7.0510381669
 20
5.4712746733
 40
0.2569466418
100
AcDbArc
 50
270.0388384315
 51
294.7431544555
  0
ARC
  5
31C
100
AcDbEntity
  8
0
100
AcDbCircle
 62
7
  6
CONTINUOUS
 10
7.0510979807
 20
5.4714701017
 40
0.2568802973
100
AcDbArc
 50
161.6545318766
 51
270.0255081665
  0
ARC
  5
31D
100
AcDbEntity
  8
0
100
AcDbCircle
 62
7
  6
CONTINUOUS
 10
7.0510894127
 20
5.471180567
 40
0.256839275
100
AcDbArc
 50
294.7415588079
 51
338.9978709408
  0
ARC
  5
31E
100
AcDbEntity
  8
0
100
AcDbCircle
 62
7
  6
CONTINUOUS
 10
7.0510381665
 20
5.4712746755
 40
0.2566762754
100
AcDbArc
 50
270.0388794149
 51
294.7433600303
  0
ARC
  5
31F
100
AcDbEntity
  8
0
100
AcDbCircle
 62
7
  6
CONTINUOUS
 10
7.0513235147
 20
5.4711501314
 40
0.2566000408
100
AcDbArc
 50
338.9854813241
 51
90.0248248432
  0
ARC
  5
320
100
AcDbEntity
  8
0
100
AcDbCircle
 62
7
  6
CONTINUOUS
 10
7.05108941
 20
5.4711805696
 40
0.2565689099
100
AcDbArc
 50
294.7417632235
 51
338.9987209292
  0
ARC
  5
321
100
AcDbEntity
  8
0
100
AcDbCircle
 62
7
  6
CONTINUOUS
 10
7.0513235159
 20
5.4711501325
 40
0.2563296709
100
AcDbArc
 50
338.9863190122
 51
90.024851291
  0
ARC
  5
322
100
AcDbEntity
  8
0
100
AcDbCircle
 62
7
  6
CONTINUOUS
 10
7.0513620018
 20
5.4714196353
 40
0.2563187845
100
AcDbArc
 50
90.0334540082
 51
161.655837234
  0
ARC
  5
323
100
AcDbEntity
  8
0
100
AcDbCircle
 62
7
  6
CONTINUOUS
 10
7.0513620038
 20
5.4714196318
 40
0.2560484197
100
AcDbArc
 50
90.0334897699
 51
161.6537035682
  0
ARC
  5
324
100
AcDbEntity
  8
0
100
AcDbCircle
 62
7
  6
CONTINUOUS
 10
7.0510979883
 20
5.4714701101
 40
0.2560412324
100
AcDbArc
 50
161.6479647072
 51
270.0255900566
  0
ARC
  5
325
100
AcDbEntity
  8
0
100
AcDbCircle
 62
7
  6
CONTINUOUS
 10
7.0510381678
 20
5.4712746714
 40
0.2558371963
100
AcDbArc
 50
270.0390066348
 51
294.7438948267
  0
ARC
  5
326
100
AcDbEntity
  8
0
100
AcDbCircle
 62
7
  6
CONTINUOUS
 10
7.0510979908
 20
5.471470113
 40
0.2557708671
100
AcDbArc
 50
161.6458218972
 51
270.0256165343
  0
ARC
  5
327
100
AcDbEntity
  8
0
100
AcDbCircle
 62
7
  6
CONTINUOUS
 10
7.0510894133
 20
5.4711805661
 40
0.2557298304
100
AcDbArc
 50
294.7422925437
 51
339.0013195839
  0
ARC
  5
328
100
AcDbEntity
  8
0
100
AcDbCircle
 62
7
  6
CONTINUOUS
 10
7.0510381684
 20
5.4712746697
 40
0.2555668259
100
AcDbArc
 50
270.0390477847
 51
294.7440725246
  0
ARC
  5
329
100
AcDbEntity
  8
0
100
AcDbCircle
 62
7
  6
CONTINUOUS
 10
7.0513235192
 20
5.4711501358
 40
0.2554905918
100
AcDbArc
 50
338.9888778567
 51
90.0249336524
  0
ARC
  5
32A
100
AcDbEntity
  8
0
100
AcDbCircle
 62
7
  6
CONTINUOUS
 10
7.0510894077
 20
5.4711805711
 40
0.2554594688
100
AcDbArc
 50
294.742469236
 51
339.0022122858
  0
ARC
  5
32B
100
AcDbEntity
  8
0
100
AcDbCircle
 62
7
  6
CONTINUOUS
 10
7.0513235197
 20
5.4711501365
 40
0.2552202224
100
AcDbArc
 50
338.9897585919
 51
90.0249601781
  0
ARC
  5
32C
100
AcDbEntity
  8
0
100
AcDbCircle
 62
7
  6
CONTINUOUS
 10
7.0513620085
 20
5.4714196225
 40
0.2552093547
100
AcDbArc
 50
90.0336009427
 51
161.6471117294
  0
ARC
  5
32D
100
AcDbEntity
  8
0
100
AcDbCircle
 62
7
  6
CONTINUOUS
 10
7.0513620082
 20
5.4714196218
 40
0.254938987
100
AcDbArc
 50
90.0336365147
 51
161.6450423503
  0
ARC
  5
32E
100
AcDbEntity
  8
0
100
AcDbCircle
 62
7
  6
CONTINUOUS
 10
7.0510979985
 20
5.4714701215
 40
0.2549318023
100
AcDbArc
 50
161.6392012284
 51
270.0256991237
  0
ARC
  5
32F
100
AcDbEntity
  8
0
100
AcDbCircle
 62
7
  6
CONTINUOUS
 10
7.0510381697
 20
5.4712746656
 40
0.2547277468
100
AcDbArc
 50
270.0391761131
 51
294.7446086731
  0
ARC
  5
330
100
AcDbEntity
  8
0
100
AcDbCircle
 62
7
  6
CONTINUOUS
 10
7.051098001
 20
5.4714701241
 40
0.254661437
100
AcDbArc
 50
161.6371222024
 51
270.02572586
  0
ARC
  5
331
100
AcDbEntity
  8
0
100
AcDbCircle
 62
7
  6
CONTINUOUS
 10
7.051089411
 20
5.4711805676
 40
0.2546203893
100
AcDbArc
 50
294.7429998611
 51
339.0048069101
  0
ARC
  5
332
100
AcDbEntity
  8
0
100
AcDbCircle
 62
7
  6
CONTINUOUS
 10
7.0510378888
 20
5.4712765783
 40
0.2544592911
100
AcDbArc
 50
270.0392806789
 51
294.7448836135
  0
ARC
  5
333
100
AcDbEntity
  8
0
100
AcDbCircle
 62
7
  6
CONTINUOUS
 10
7.051323523
 20
5.4711501397
 40
0.2543811434
100
AcDbArc
 50
338.9923130566
 51
90.0250432575
  0
ARC
  5
334
100
AcDbEntity
  8
0
100
AcDbCircle
 62
7
  6
CONTINUOUS
 10
7.0510893998
 20
5.4711804969
 40
0.2543500193
100
AcDbArc
 50
294.7434050667
 51
339.0105159147
  0
ARC
  5
335
100
AcDbEntity
  8
0
100
AcDbCircle
 62
7
  6
CONTINUOUS
 10
7.0513234719
 20
5.4711501004
 40
0.2541108152
100
AcDbArc
 50
338.9980105402
 51
90.0250583853
  0
ARC
  5
336
100
AcDbEntity
  8
0
100
AcDbCircle
 62
7
  6
CONTINUOUS
 10
7.0513625685
 20
5.4714185544
 40
0.2541010556
100
AcDbArc
 50
90.0338737665
 51
160.9309352801
  0
ARC
  5
337
100
AcDbEntity
  8
0
100
AcDbCircle
 62
7
  6
CONTINUOUS
 10
7.0511543989
 20
5.4715188465
 40
0.2538691809
100
AcDbArc
 50
160.9369788129
 51
161.6448631295
  0
ARC
  5
338
100
AcDbEntity
  8
0
100
AcDbCircle
 62
7
  6
CONTINUOUS
 10
7.051362575
 20
5.4714185428
 40
0.2538306993
100
AcDbArc
 50
90.0339113265
 51
160.9244129951
  0
ARC
  5
339
100
AcDbEntity
  8
0
100
AcDbCircle
 62
7
  6
CONTINUOUS
 10
7.0510980087
 20
5.4714701327
 40
0.2538223723
100
AcDbArc
 50
161.6304183704
 51
270.0258091498
  0
ARC
  5
33A
100
AcDbEntity
  8
0
100
AcDbCircle
 62
7
  6
CONTINUOUS
 10
7.0510378911
 20
5.4712765681
 40
0.253620206
100
AcDbArc
 50
270.0394101349
 51
294.7450131478
  0
ARC
  5
33B
100
AcDbEntity
  8
0
100
AcDbCircle
 62
7
  6
CONTINUOUS
 10
7.0511543877
 20
5.4715188567
 40
0.2535987984
100
AcDbArc
 50
160.9304604231
 51
161.6426837794
  0
ARC
  5
33C
100
AcDbEntity
  8
0
100
AcDbCircle
 62
7
  6
CONTINUOUS
 10
7.0510980112
 20
5.4714701354
 40
0.253552007
100
AcDbArc
 50
161.6282226495
 51
270.0258361189
  0
ARC
  5
33D
100
AcDbEntity
  8
0
100
AcDbCircle
 62
7
  6
CONTINUOUS
 10
7.0510894055
 20
5.4711805531
 40
0.2535109914
100
AcDbArc
 50
294.7435227664
 51
339.0074450233
  0
ARC
  5
33E
100
AcDbEntity
  8
0
100
AcDbCircle
 62
7
  6
CONTINUOUS
 10
7.0510381758
 20
5.4712746353
 40
0.2533479044
100
AcDbArc
 50
270.0393881043
 51
294.7454199727
  0
ARC
  5
33F
100
AcDbEntity
  8
0
100
AcDbCircle
 62
7
  6
CONTINUOUS
 10
7.0512958483
 20
5.4711412066
 40
0.2532974801
100
AcDbArc
 50
338.9990255269
 51
73.8953768609
  0
ARC
  5
340
100
AcDbEntity
  8
0
100
AcDbCircle
 62
7
  6
CONTINUOUS
 10
7.0510894201
 20
5.4711805554
 40
0.2532405617
100
AcDbArc
 50
294.7438004259
 51
339.0089300819
  0
ARC
  5
341
100
AcDbEntity
  8
0
100
AcDbCircle
 62
7
  6
CONTINUOUS
 10
7.0513869101
 20
5.4712817226
 40
0.2531308351
100
AcDbArc
 50
73.9063570754
 51
89.6798539519
  0
ARC
  5
342
100
AcDbEntity
  8
0
100
AcDbCircle
 62
7
  6
CONTINUOUS
 10
7.0512961147
 20
5.4711408421
 40
0.2530274791
100
AcDbArc
 50
339.0005598983
 51
73.8945283854
  0
ARC
  5
343
100
AcDbEntity
  8
0
100
AcDbCircle
 62
7
  6
CONTINUOUS
 10
7.0513898429
 20
5.4714731374
 40
0.2529394068
100
AcDbArc
 50
89.6802760063
 51
90.0314090602
  0
ARC
  5
344
100
AcDbEntity
  8
0
100
AcDbCircle
 62
7
  6
CONTINUOUS
 10
7.0512123403
 20
5.4713118147
 40
0.2528800249
100
AcDbArc
 50
73.865546219
 51
161.5966386552
  0
CIRCLE
  5
345
100
AcDbEntity
  8
0
100
AcDbCircle
 62
7
  6
CONTINUOUS
 10
7.0512123403
 20
5.4713118147
 40
0.2025
  0
ARC
  5
346
100
AcDbEntity
  8
0
100
AcDbCircle
 62
7
  6
CONTINUOUS
 10
7.0930881012
 20
7.5988112432
 40
4.4881962799
100
AcDbArc
 50
271.6621435486
 51
272.1626623099
  0
SPLINE
  5
347
100
AcDbEntity
  8
0
100
AcDbSpline
 62
7
  6
CONTINUOUS
 70
0
 71
3
 72
39
 73
35
 74
0
 42
0.0000001
 43
0.0000001
 44
0.0000000001
 40
0.0
 40
0.0
 40
0.0
 40
0.0
 40
0.0312493588
 40
0.0625014464
 40
0.0937510995
 40
0.1250016364
 40
0.1562519681
 40
0.1875023216
 40
0.2187526039
 40
0.2500028358
 40
0.2812531018
 40
0.3125033426
 40
0.3437534981
 40
0.3750036552
 40
0.4062538086
 40
0.4375038952
 40
0.4687539367
 40
0.5000040094
 40
0.5312540134
 40
0.5625039586
 40
0.5937538982
 40
0.6250038109
 40
0.6562536621
 40
0.6875035161
 40
0.718753305
 40
0.7500030563
 40
0.7812528085
 40
0.8125025041
 40
0.8437521866
 40
0.8750017994
 40
0.9062515891
 40
0.9375005508
 40
0.968751266
 40
1.0
 40
1.0
 40
1.0
 40
1.0
 10
3.8112652341
 20
5.551147228
 30
0.0
 10
3.8095003156
 20
5.5451063615
 30
0.0
 10
3.8064207956
 20
5.5328871837
 30
0.0
 10
3.8031872583
 20
5.5142681656
 30
0.0
 10
3.8013608502
 20
5.4954574924
 30
0.0
 10
3.8009555609
 20
5.4765632525
 30
0.0
 10
3.8019780882
 20
5.4576920206
 30
0.0
 10
3.8044265253
 20
5.4389523545
 30
0.0
 10
3.8082907633
 20
5.4204525983
 30
0.0
 10
3.8135524772
 20
5.4023007136
 30
0.0
 10
3.8201850049
 20
5.384603542
 30
0.0
 10
3.8281535028
 20
5.3674662466
 30
0.0
 10
3.8374148599
 20
5.3509915885
 30
0.0
 10
3.8479178676
 20
5.3352792565
 30
0.0
 10
3.8596034831
 20
5.3204252799
 30
0.0
 10
3.8724050643
 20
5.3065214255
 30
0.0
 10
3.8862486564
 20
5.2936545547
 30
0.0
 10
3.9010532845
 20
5.2819060184
 30
0.0
 10
3.9167312938
 20
5.2713509828
 30
0.0
 10
3.9331889011
 20
5.2620580083
 30
0.0
 10
3.950326651
 20
5.2540884674
 30
0.0
 10
3.9680399405
 20
5.2474960964
 30
0.0
 10
3.9862195867
 20
5.2423265271
 30
0.0
 10
4.004752406
 20
5.2386167706
 30
0.0
 10
4.0235219284
 20
5.2363949025
 30
0.0
 10
4.0424090775
 20
5.235679832
 30
0.0
 10
4.061292883
 20
5.2364809391
 30
0.0
 10
4.0800512391
 20
5.2387979492
 30
0.0
 10
4.0985616294
 20
5.2426207122
 30
0.0
 10
4.1167021108
 20
5.2479289911
 30
0.0
 10
4.1343515626
 20
5.254692696
 30
0.0
 10
4.1513921266
 20
5.26287175
 30
0.0
 10
4.1677059368
 20
5.272415599
 30
0.0
 10
4.1780263144
 20
5.2796505465
 30
0.0
 10
4.1830263651
 20
5.2834721841
 30
0.0
  0
SPLINE
  5
348
100
AcDbEntity
  8
0
100
AcDbSpline
 62
7
  6
CONTINUOUS
 70
0
 71
3
 72
43
 73
39
 74
0
 42
0.0000001
 43
0.0000001
 44
0.0000000001
 40
0.0
 40
0.0
 40
0.0
 40
0.0
 40
0.0312489404
 40
0.0468784497
 40
0.0625070929
 40
0.0937559808
 40
0.1250048265
 40
0.1406339721
 40
0.1562631035
 40
0.1875119178
 40
0.2187607883
 40
0.2500096315
 40
0.2812584478
 40
0.3125073091
 40
0.3437561245
 40
0.3750049575
 40
0.4062537985
 40
0.4375026007
 40
0.4687514476
 40
0.5000002608
 40
0.5312490664
 40
0.5624979108
 40
0.5937467034
 40
0.6249955214
 40
0.6562443437
 40
0.6874931304
 40
0.7187419611
 40
0.7499907528
 40
0.7812395498
 40
0.8124883805
 40
0.8437371488
 40
0.8593662643
 40
0.8749953941
 40
0.9062441836
 40
0.9374930115
 40
0.9531216385
 40
0.9687511251
 40
1.0
 40
1.0
 40
1.0
 40
1.0
 10
4.0512123403
 20
5.735506924
 30
0.0
 10
4.0425790889
 20
5.7355011541
 30
0.0
 10
4.0296164909
 20
5.7348563111
 30
0.0
 10
4.0124736281
 20
5.7327321017
 30
0.0
 10
3.9954540263
 20
5.7297704116
 30
0.0
 10
3.9744832141
 20
5.7245083726
 30
0.0
 10
3.9541285465
 20
5.717216946
 30
0.0
 10
3.9383375884
 20
5.7102115132
 30
0.0
 10
3.9229089446
 20
5.702440885
 30
0.0
 10
3.9043651865
 20
5.6913214664
 30
0.0
 10
3.8835319116
 20
5.6758659096
 30
0.0
 10
3.8643117891
 20
5.6584432386
 30
0.0
 10
3.8468912324
 20
5.6392216221
 30
0.0
 10
3.8314375879
 20
5.6183857077
 30
0.0
 10
3.8180997902
 20
5.5961359198
 30
0.0
 10
3.8070063203
 20
5.5726862912
 30
0.0
 10
3.7982640963
 20
5.5482624564
 30
0.0
 10
3.7919574397
 20
5.5230994521
 30
0.0
 10
3.7881472249
 20
5.4974395062
 30
0.0
 10
3.7868702971
 20
5.4715296555
 30
0.0
 10
3.7881391353
 20
5.4456194026
 30
0.0
 10
3.7919416723
 20
5.4199583067
 30
0.0
 10
3.7982414492
 20
5.394793561
 30
0.0
 10
3.806977946
 20
5.3703676489
 30
0.0
 10
3.8180671325
 20
5.3469159591
 30
0.0
 10
3.8314023064
 20
5.3246645509
 30
0.0
 10
3.8468551164
 20
5.3038279579
 30
0.0
 10
3.8642766472
 20
5.2846071517
 30
0.0
 10
3.8834994634
 20
5.2671873587
 30
0.0
 10
3.9043369309
 20
5.2517373462
 30
0.0
 10
3.9228851684
 20
5.2406252523
 30
0.0
 10
3.9383177163
 20
5.2328623877
 30
0.0
 10
3.954112713
 20
5.2258660804
 30
0.0
 10
3.9744725084
 20
5.2185887369
 30
0.0
 10
3.995447937
 20
5.2133447377
 30
0.0
 10
4.0124704786
 20
5.2104000087
 30
0.0
 10
4.0296156355
 20
5.2082944834
 30
0.0
 10
4.042579107
 20
5.2076656452
 30
0.0
 10
4.0512123403
 20
5.2076714273
 30
0.0
  0
LINE
  5
349
100
AcDbEntity
  8
0
100
AcDbLine
 62
7
  6
CONTINUOUS
 10
6.8168455575
 20
3.1171090271
 11
6.8178872105
 21
3.1178301617
  0
LINE
  5
34A
100
AcDbEntity
  8
0
100
AcDbLine
 62
7
  6
CONTINUOUS
 10
6.8120873717
 20
3.1144787232
 11
6.8129056428
 21
3.1148343163
  0
SPLINE
  5
34B
100
AcDbEntity
  8
0
100
AcDbSpline
 62
7
  6
CONTINUOUS
 70
0
 71
3
 72
39
 73
35
 74
0
 42
0.0000001
 43
0.0000001
 44
0.0000000001
 40
0.0
 40
0.0
 40
0.0
 40
0.0
 40
0.0312493588
 40
0.0625014464
 40
0.0937510995
 40
0.1250016364
 40
0.1562519681
 40
0.1875023216
 40
0.2187526039
 40
0.2500028358
 40
0.2812531018
 40
0.3125033426
 40
0.3437534981
 40
0.3750036552
 40
0.4062538086
 40
0.4375038952
 40
0.4687539367
 40
0.5000040094
 40
0.5312540134
 40
0.5625039586
 40
0.5937538982
 40
0.6250038109
 40
0.6562536621
 40
0.6875035161
 40
0.718753305
 40
0.7500030563
 40
0.7812528085
 40
0.8125025041
 40
0.8437521866
 40
0.8750017994
 40
0.9062515891
 40
0.9375005508
 40
0.968751266
 40
1.0
 40
1.0
 40
1.0
 40
1.0
 10
6.8112652341
 20
5.551147228
 30
0.0
 10
6.8095003156
 20
5.5451063615
 30
0.0
 10
6.8064207956
 20
5.5328871837
 30
0.0
 10
6.8031872583
 20
5.5142681656
 30
0.0
 10
6.8013608502
 20
5.4954574924
 30
0.0
 10
6.8009555609
 20
5.4765632525
 30
0.0
 10
6.8019780882
 20
5.4576920206
 30
0.0
 10
6.8044265253
 20
5.4389523545
 30
0.0
 10
6.8082907633
 20
5.4204525983
 30
0.0
 10
6.8135524772
 20
5.4023007136
 30
0.0
 10
6.8201850049
 20
5.384603542
 30
0.0
 10
6.8281535028
 20
5.3674662466
 30
0.0
 10
6.8374148599
 20
5.3509915885
 30
0.0
 10
6.8479178676
 20
5.3352792565
 30
0.0
 10
6.8596034831
 20
5.3204252799
 30
0.0
 10
6.8724050643
 20
5.3065214255
 30
0.0
 10
6.8862486564
 20
5.2936545547
 30
0.0
 10
6.9010532845
 20
5.2819060184
 30
0.0
 10
6.9167312938
 20
5.2713509828
 30
0.0
 10
6.9331889011
 20
5.2620580083
 30
0.0
 10
6.950326651
 20
5.2540884674
 30
0.0
 10
6.9680399405
 20
5.2474960964
 30
0.0
 10
6.9862195867
 20
5.2423265271
 30
0.0
 10
7.004752406
 20
5.2386167706
 30
0.0
 10
7.0235219284
 20
5.2363949025
 30
0.0
 10
7.0424090775
 20
5.235679832
 30
0.0
 10
7.061292883
 20
5.2364809391
 30
0.0
 10
7.0800512391
 20
5.2387979492
 30
0.0
 10
7.0985616294
 20
5.2426207122
 30
0.0
 10
7.1167021108
 20
5.2479289911
 30
0.0
 10
7.1343515626
 20
5.254692696
 30
0.0
 10
7.1513921266
 20
5.26287175
 30
0.0
 10
7.1677059368
 20
5.272415599
 30
0.0
 10
7.1780263144
 20
5.2796505465
 30
0.0
 10
7.1830263651
 20
5.2834721841
 30
0.0
  0
SPLINE
  5
34C
100
AcDbEntity
  8
0
100
AcDbSpline
 62
7
  6
CONTINUOUS
 70
0
 71
3
 72
43
 73
39
 74
0
 42
0.0000001
 43
0.0000001
 44
0.0000000001
 40
0.0
 40
0.0
 40
0.0
 40
0.0
 40
0.0312489404
 40
0.0468784497
 40
0.0625070929
 40
0.0937559808
 40
0.1250048265
 40
0.1406339721
 40
0.1562631035
 40
0.1875119178
 40
0.2187607883
 40
0.2500096315
 40
0.2812584478
 40
0.3125073091
 40
0.3437561245
 40
0.3750049575
 40
0.4062537985
 40
0.4375026007
 40
0.4687514476
 40
0.5000002608
 40
0.5312490664
 40
0.5624979108
 40
0.5937467034
 40
0.6249955214
 40
0.6562443437
 40
0.6874931304
 40
0.7187419611
 40
0.7499907528
 40
0.7812395498
 40
0.8124883805
 40
0.8437371488
 40
0.8593662643
 40
0.8749953941
 40
0.9062441836
 40
0.9374930115
 40
0.9531216385
 40
0.9687511251
 40
1.0
 40
1.0
 40
1.0
 40
1.0
 10
7.0512123403
 20
5.735506924
 30
0.0
 10
7.0425790889
 20
5.7355011541
 30
0.0
 10
7.0296164909
 20
5.7348563111
 30
0.0
 10
7.0124736281
 20
5.7327321017
 30
0.0
 10
6.9954540263
 20
5.7297704116
 30
0.0
 10
6.9744832141
 20
5.7245083726
 30
0.0
 10
6.9541285465
 20
5.717216946
 30
0.0
 10
6.9383375884
 20
5.7102115132
 30
0.0
 10
6.9229089446
 20
5.702440885
 30
0.0
 10
6.9043651865
 20
5.6913214664
 30
0.0
 10
6.8835319116
 20
5.6758659096
 30
0.0
 10
6.8643117891
 20
5.6584432386
 30
0.0
 10
6.8468912324
 20
5.6392216221
 30
0.0
 10
6.8314375879
 20
5.6183857077
 30
0.0
 10
6.8180997902
 20
5.5961359198
 30
0.0
 10
6.8070063203
 20
5.5726862912
 30
0.0
 10
6.7982640963
 20
5.5482624564
 30
0.0
 10
6.7919574397
 20
5.5230994521
 30
0.0
 10
6.7881472249
 20
5.4974395062
 30
0.0
 10
6.7868702971
 20
5.4715296555
 30
0.0
 10
6.7881391353
 20
5.4456194026
 30
0.0
 10
6.7919416723
 20
5.4199583067
 30
0.0
 10
6.7982414492
 20
5.394793561
 30
0.0
 10
6.806977946
 20
5.3703676489
 30
0.0
 10
6.8180671325
 20
5.3469159591
 30
0.0
 10
6.8314023064
 20
5.3246645509
 30
0.0
 10
6.8468551164
 20
5.3038279579
 30
0.0
 10
6.8642766472
 20
5.2846071517
 30
0.0
 10
6.8834994634
 20
5.2671873587
 30
0.0
 10
6.9043369309
 20
5.2517373462
 30
0.0
 10
6.9228851684
 20
5.2406252523
 30
0.0
 10
6.9383177163
 20
5.2328623877
 30
0.0
 10
6.954112713
 20
5.2258660804
 30
0.0
 10
6.9744725084
 20
5.2185887369
 30
0.0
 10
6.995447937
 20
5.2133447377
 30
0.0
 10
7.0124704786
 20
5.2104000087
 30
0.0
 10
7.0296156355
 20
5.2082944834
 30
0.0
 10
7.042579107
 20
5.2076656452
 30
0.0
 10
7.0512123403
 20
5.2076714273
 30
0.0
  0
SPLINE
  5
34D
100
AcDbEntity
  8
0
100
AcDbSpline
 62
7
  6
CONTINUOUS
 70
0
 71
3
 72
43
 73
39
 74
0
 42
0.0000001
 43
0.0000001
 44
0.0000000001
 40
0.0
 40
0.0
 40
0.0
 40
0.0
 40
0.0312489394
 40
0.0468784465
 40
0.0625070875
 40
0.0937559726
 40
0.1250048185
 40
0.1406339594
 40
0.1562630862
 40
0.1875119011
 40
0.2187607739
 40
0.2500096089
 40
0.2812584337
 40
0.3125072932
 40
0.3437561041
 40
0.3750049455
 40
0.4062537775
 40
0.4375025817
 40
0.4687514358
 40
0.5000002453
 40
0.5312490577
 40
0.5624979076
 40
0.5937467009
 40
0.6249955217
 40
0.6562443458
 40
0.6874931324
 40
0.7187419627
 40
0.7499907542
 40
0.7812395507
 40
0.8124883801
 40
0.8437371479
 40
0.8593662638
 40
0.874995394
 40
0.9062441833
 40
0.9374930112
 40
0.9531216384
 40
0.9687511252
 40
1.0
 40
1.0
 40
1.0
 40
1.0
 10
7.0512123403
 20
5.7343974802
 30
0.0
 10
7.0426153812
 20
5.7343917102
 30
0.0
 10
7.0297072775
 20
5.7337495445
 30
0.0
 10
7.0126364853
 20
5.7316342259
 30
0.0
 10
6.9956884377
 20
5.7286849509
 30
0.0
 10
6.9748057924
 20
5.7234449951
 30
0.0
 10
6.9545367033
 20
5.7161841914
 30
0.0
 10
6.9388121368
 20
5.7092081907
 30
0.0
 10
6.9234483615
 20
5.7014702131
 30
0.0
 10
6.9049825659
 20
5.6903975236
 30
0.0
 10
6.8842368775
 20
5.6750069291
 30
0.0
 10
6.8650975563
 20
5.6576574925
 30
0.0
 10
6.8477502323
 20
5.6385166787
 30
0.0
 10
6.8323615471
 20
5.6177683555
 30
0.0
 10
6.8190798125
 20
5.595612103
 30
0.0
 10
6.8080329659
 20
5.5722610575
 30
0.0
 10
6.7993274784
 20
5.5479398987
 30
0.0
 10
6.7930473186
 20
5.5228826772
 30
0.0
 10
6.7892531018
 20
5.4973306005
 30
0.0
 10
6.7879815241
 20
5.4715296663
 30
0.0
 10
6.7892450108
 20
5.4457283303
 30
0.0
 10
6.7930315462
 20
5.420175101
 30
0.0
 10
6.7993048266
 20
5.3951161354
 30
0.0
 10
6.8080045855
 20
5.3707928978
 30
0.0
 10
6.8190471475
 20
5.3474397874
 30
0.0
 10
6.8323262584
 20
5.3252819149
 30
0.0
 10
6.847714107
 20
5.3045329124
 30
0.0
 10
6.865062404
 20
5.2853929075
 30
0.0
 10
6.8842044177
 20
5.2680463493
 30
0.0
 10
6.9049542981
 20
5.2526612967
 30
0.0
 10
6.9234245725
 20
5.2415959308
 30
0.0
 10
6.9387922542
 20
5.2338657156
 30
0.0
 10
6.9545208614
 20
5.226898838
 30
0.0
 10
6.9747950803
 20
5.2196521162
 30
0.0
 10
6.9956823433
 20
5.2144301994
 30
0.0
 10
7.0126333328
 20
5.2114978849
 30
0.0
 10
7.0297064208
 20
5.2094012501
 30
0.0
 10
7.0426153989
 20
5.208775089
 30
0.0
 10
7.0512123403
 20
5.2087808712
 30
0.0
  0
SPLINE
  5
34E
100
AcDbEntity
  8
0
100
AcDbSpline
 62
7
  6
CONTINUOUS
 70
0
 71
3
 72
39
 73
35
 74
0
 42
0.0000001
 43
0.0000001
 44
0.0000000001
 40
0.0
 40
0.0
 40
0.0
 40
0.0
 40
0.0312500091
 40
0.0625000537
 40
0.0937500677
 40
0.1250000428
 40
0.1562500529
 40
0.1875000983
 40
0.2187501128
 40
0.250000086
 40
0.2812500892
 40
0.3125001288
 40
0.3437501415
 40
0.3750001118
 40
0.4062501062
 40
0.4375001353
 40
0.4687501373
 40
0.5000000991
 40
0.5312500945
 40
0.5625001222
 40
0.5937501185
 40
0.6250000749
 40
0.6562500731
 40
0.6875001063
 40
0.7187501108
 40
0.7500000693
 40
0.7812500532
 40
0.8125000942
 40
0.8437500694
 40
0.8750000621
 40
0.9062501931
 40
0.9374993726
 40
0.9687513719
 40
1.0
 40
1.0
 40
1.0
 40
1.0
 10
6.8522617022
 20
5.6415186138
 30
0.0
 10
6.8482291276
 20
5.6367985555
 30
0.0
 10
6.840497004
 20
5.627067943
 30
0.0
 10
6.8299681089
 20
5.6116872571
 30
0.0
 10
6.8205586756
 20
5.5955962202
 30
0.0
 10
6.8123172303
 20
5.5788771333
 30
0.0
 10
6.805285433
 20
5.5616142845
 30
0.0
 10
6.7994989403
 20
5.5438951363
 30
0.0
 10
6.7949870059
 20
5.5258093941
 30
0.0
 10
6.7917725731
 20
5.5074485974
 30
0.0
 10
6.7898721027
 20
5.4889056761
 30
0.0
 10
6.7892952077
 20
5.4702745422
 30
0.0
 10
6.7900447869
 20
5.4516495625
 30
0.0
 10
6.7921171476
 20
5.4331250682
 30
0.0
 10
6.7955019808
 20
5.4147949105
 30
0.0
 10
6.8001821167
 20
5.3967519538
 30
0.0
 10
6.8061338247
 20
5.3790876136
 30
0.0
 10
6.8133270533
 20
5.3618914184
 30
0.0
 10
6.8217255266
 20
5.3452505777
 30
0.0
 10
6.8312866522
 20
5.3292494212
 30
0.0
 10
6.8419619562
 20
5.3139690493
 30
0.0
 10
6.8536974244
 20
5.29948697
 30
0.0
 10
6.8664337139
 20
5.2858767125
 30
0.0
 10
6.8801062218
 20
5.2732072609
 30
0.0
 10
6.894645613
 20
5.2615428564
 30
0.0
 10
6.9099782372
 20
5.2509427307
 30
0.0
 10
6.9260264469
 20
5.241460783
 30
0.0
 10
6.9427088261
 20
5.2331450931
 30
0.0
 10
6.9599407377
 20
5.226037802
 30
0.0
 10
6.9776348785
 20
5.2201750874
 30
0.0
 10
6.9957012811
 20
5.21558701
 30
0.0
 10
7.0140490661
 20
5.2122962853
 30
0.0
 10
7.0325833373
 20
5.2103205423
 30
0.0
 10
7.0450045078
 20
5.2098861221
 30
0.0
 10
7.0512123403
 20
5.209890315
 30
0.0
  0
SPLINE
  5
34F
100
AcDbEntity
  8
0
100
AcDbSpline
 62
7
  6
CONTINUOUS
 70
0
 71
3
 72
39
 73
35
 74
0
 42
0.0000001
 43
0.0000001
 44
0.0000000001
 40
0.0
 40
0.0
 40
0.0
 40
0.0
 40
0.0312500483
 40
0.0625000709
 40
0.0937500561
 40
0.1250000607
 40
0.1562501115
 40
0.1875001091
 40
0.2187500873
 40
0.2500001116
 40
0.2812501538
 40
0.3125001325
 40
0.3437501107
 40
0.3750001462
 40
0.4062501722
 40
0.4375001416
 40
0.4687501267
 40
0.500000162
 40
0.5312501608
 40
0.5625001304
 40
0.5937501304
 40
0.6250001578
 40
0.6562501299
 40
0.6875001057
 40
0.7187501193
 40
0.7500001316
 40
0.7812500867
 40
0.8125000847
 40
0.8437500624
 40
0.8750000829
 40
0.9062502031
 40
0.9374993665
 40
0.968751366
 40
1.0
 40
1.0
 40
1.0
 40
1.0
 10
6.8531343702
 20
5.640832073
 30
0.0
 10
6.8491177735
 20
5.636132355
 30
0.0
 10
6.8414162047
 20
5.6264435609
 30
0.0
 10
6.830928633
 20
5.6111286475
 30
0.0
 10
6.821555838
 20
5.5951061053
 30
0.0
 10
6.8133461444
 20
5.5784578922
 30
0.0
 10
6.8063410801
 20
5.5612679588
 30
0.0
 10
6.8005761521
 20
5.5436234286
 30
0.0
 10
6.7960805315
 20
5.5256136192
 30
0.0
 10
6.792877054
 20
5.5073296913
 30
0.0
 10
6.7909821566
 20
5.4888642168
 30
0.0
 10
6.7904053961
 20
5.4703107443
 30
0.0
 10
6.7911497036
 20
5.4517632383
 30
0.0
 10
6.7932113822
 20
5.4333156377
 30
0.0
 10
6.7965802025
 20
5.4150614449
 30
0.0
 10
6.8012390403
 20
5.3970931587
 30
0.0
 10
6.8071643077
 20
5.3795018146
 30
0.0
 10
6.8143260543
 20
5.3623765716
 30
0.0
 10
6.8226881754
 20
5.345804322
 30
0.0
 10
6.8322082308
 20
5.3298690543
 30
0.0
 10
6.8428379833
 20
5.3146515372
 30
0.0
 10
6.8545236176
 20
5.3002289648
 30
0.0
 10
6.8672060378
 20
5.2866746017
 30
0.0
 10
6.8808208919
 20
5.2740571483
 30
0.0
 10
6.8952991562
 20
5.2624405832
 30
0.0
 10
6.9105674639
 20
5.251883902
 30
0.0
 10
6.9265484741
 20
5.2424408092
 30
0.0
 10
6.943161095
 20
5.2341591883
 30
0.0
 10
6.9603210511
 20
5.2270810083
 30
0.0
 10
6.9779413848
 20
5.2212423042
 30
0.0
 10
6.9959324818
 20
5.2166730258
 30
0.0
 10
7.0142038247
 20
5.2133957977
 30
0.0
 10
7.0326609062
 20
5.2114281769
 30
0.0
 10
7.0450303568
 20
5.2109955656
 30
0.0
 10
7.0512123403
 20
5.2109997589
 30
0.0
  0
SPLINE
  5
350
100
AcDbEntity
  8
0
100
AcDbSpline
 62
7
  6
CONTINUOUS
 70
0
 71
3
 72
39
 73
35
 74
0
 42
0.0000001
 43
0.0000001
 44
0.0000000001
 40
0.0
 40
0.0
 40
0.0
 40
0.0
 40
0.0312500027
 40
0.0625000453
 40
0.0937500682
 40
0.1250000502
 40
0.1562500511
 40
0.1875000907
 40
0.2187501085
 40
0.2500000855
 40
0.2812500864
 40
0.3125001278
 40
0.3437501527
 40
0.3750001338
 40
0.4062501216
 40
0.4375001522
 40
0.4687501784
 40
0.5000001613
 40
0.531250136
 40
0.5625001529
 40
0.59375017
 40
0.6250001454
 40
0.6562501171
 40
0.68750013
 40
0.7187501421
 40
0.7500001112
 40
0.7812500778
 40
0.812500103
 40
0.8437500749
 40
0.8750000675
 40
0.9062501963
 40
0.9374993738
 40
0.9687513709
 40
1.0
 40
1.0
 40
1.0
 40
1.0
 10
6.8540076583
 20
5.640146246
 30
0.0
 10
6.850007026
 20
5.6354668894
 30
0.0
 10
6.8423359668
 20
5.6258199353
 30
0.0
 10
6.8318896526
 20
5.6105707988
 30
0.0
 10
6.8225534141
 20
5.5946167525
 30
0.0
 10
6.8143754161
 20
5.5780394253
 30
0.0
 10
6.8073970123
 20
5.5609224166
 30
0.0
 10
6.8016535948
 20
5.5433524755
 30
0.0
 10
6.7971742099
 20
5.5254185747
 30
0.0
 10
6.7939816449
 20
5.5072115141
 30
0.0
 10
6.792092254
 20
5.4888234746
 30
0.0
 10
6.7915155945
 20
5.4703476104
 30
0.0
 10
6.7922545684
 20
5.4518775294
 30
0.0
 10
6.7943055353
 20
5.4335068113
 30
0.0
 10
6.7976582906
 20
5.4153285578
 30
0.0
 10
6.8022958203
 20
5.3974348867
 30
0.0
 10
6.8081946074
 20
5.3799164834
 30
0.0
 10
6.8153248551
 20
5.3628621739
 30
0.0
 10
6.8236505934
 20
5.3463584775
 30
0.0
 10
6.8331295862
 20
5.3304890478
 30
0.0
 10
6.8437137676
 20
5.3153343372
 30
0.0
 10
6.8553495625
 20
5.3009712503
 30
0.0
 10
6.8679781099
 20
5.2874727386
 30
0.0
 10
6.8815353359
 20
5.2749072358
 30
0.0
 10
6.8959524765
 20
5.2633384707
 30
0.0
 10
6.9111564736
 20
5.2528252141
 30
0.0
 10
6.927070302
 20
5.243420943
 30
0.0
 10
6.9436132034
 20
5.2351733571
 30
0.0
 10
6.960701227
 20
5.2281242631
 30
0.0
 10
6.9782477711
 20
5.2223095564
 30
0.0
 10
6.996163588
 20
5.2177590619
 30
0.0
 10
7.014358526
 20
5.2144953171
 30
0.0
 10
7.0327384504
 20
5.2125358122
 30
0.0
 10
7.045056198
 20
5.2121050091
 30
0.0
 10
7.0512123403
 20
5.2121092028
 30
0.0
  0
SPLINE
  5
351
100
AcDbEntity
  8
0
100
AcDbSpline
 62
7
  6
CONTINUOUS
 70
0
 71
3
 72
39
 73
35
 74
0
 42
0.0000001
 43
0.0000001
 44
0.0000000001
 40
0.0
 40
0.0
 40
0.0
 40
0.0
 40
0.0312500087
 40
0.0625000533
 40
0.0937500692
 40
0.1250000455
 40
0.1562500547
 40
0.1875000998
 40
0.2187501159
 40
0.2500000902
 40
0.2812500925
 40
0.3125001314
 40
0.3437501451
 40
0.3750001161
 40
0.40625011
 40
0.4375001388
 40
0.4687501419
 40
0.5000001043
 40
0.5312500989
 40
0.5625001265
 40
0.5937501237
 40
0.6250000807
 40
0.6562500778
 40
0.6875001103
 40
0.7187501155
 40
0.7500000745
 40
0.7812500571
 40
0.812500097
 40
0.8437500724
 40
0.8750000649
 40
0.9062501953
 40
0.9374993741
 40
0.9687513711
 40
1.0
 40
1.0
 40
1.0
 40
1.0
 10
6.8548807932
 20
5.6394602268
 30
0.0
 10
6.8508961257
 20
5.6348012214
 30
0.0
 10
6.8432555853
 20
5.6251960988
 30
0.0
 10
6.8328505452
 20
5.6100127402
 30
0.0
 10
6.823550889
 20
5.5941271947
 30
0.0
 10
6.8154045994
 20
5.5776207495
 30
0.0
 10
6.8084528752
 20
5.5605766582
 30
0.0
 10
6.8027309791
 20
5.5430813154
 30
0.0
 10
6.7982678549
 20
5.5252233319
 30
0.0
 10
6.7950862105
 20
5.5070931361
 30
0.0
 10
6.7932023464
 20
5.4887825331
 30
0.0
 10
6.7926257929
 20
5.4703843012
 30
0.0
 10
6.7933594522
 20
5.4519916695
 30
0.0
 10
6.7953997115
 20
5.4336978362
 30
0.0
 10
6.7987364173
 20
5.4155955275
 30
0.0
 10
6.803352634
 20
5.3977764954
 30
0.0
 10
6.8092249474
 20
5.3803310632
 30
0.0
 10
6.8163236948
 20
5.3633476927
 30
0.0
 10
6.8246130597
 20
5.3469125545
 30
0.0
 10
6.8340509826
 20
5.3311089742
 30
0.0
 10
6.8445895938
 20
5.3160170897
 30
0.0
 10
6.8561755467
 20
5.3017134907
 30
0.0
 10
6.8687502264
 20
5.2882708345
 30
0.0
 10
6.8822498194
 20
5.2757572876
 30
0.0
 10
6.8966058366
 20
5.2642363323
 30
0.0
 10
6.9117455221
 20
5.2537665011
 30
0.0
 10
6.9275921686
 20
5.2444010567
 30
0.0
 10
6.9440653444
 20
5.2361875105
 30
0.0
 10
6.9610814346
 20
5.2291675076
 30
0.0
 10
6.9785541877
 20
5.2233767995
 30
0.0
 10
6.996394719
 20
5.2188450926
 30
0.0
 10
7.0145132414
 20
5.2155948349
 30
0.0
 10
7.0328159999
 20
5.2136434475
 30
0.0
 10
7.0450820409
 20
5.2132144527
 30
0.0
 10
7.0512123403
 20
5.2132186467
 30
0.0
  0
SPLINE
  5
352
100
AcDbEntity
  8
0
100
AcDbSpline
 62
7
  6
CONTINUOUS
 70
0
 71
3
 72
39
 73
35
 74
0
 42
0.0000001
 43
0.0000001
 44
0.0000000001
 40
0.0
 40
0.0
 40
0.0
 40
0.0
 40
0.0312486868
 40
0.0625006938
 40
0.0937498896
 40
0.1250000393
 40
0.1562500905
 40
0.1875000885
 40
0.2187501007
 40
0.2500000824
 40
0.2812501202
 40
0.3125001324
 40
0.3437501127
 40
0.3750001176
 40
0.4062501564
 40
0.4375001414
 40
0.4687501142
 40
0.5000001399
 40
0.5312501637
 40
0.5625001334
 40
0.5937501134
 40
0.6250001445
 40
0.6562501378
 40
0.6875001066
 40
0.7187501059
 40
0.750000127
 40
0.7812500895
 40
0.8125000812
 40
0.843750057
 40
0.8750000809
 40
0.9062502051
 40
0.9374993728
 40
0.9687513423
 40
1.0
 40
1.0
 40
1.0
 40
1.0
 10
6.8557520177
 20
5.6387719668
 30
0.0
 10
6.8517835394
 20
5.6341335025
 30
0.0
 10
6.8441737207
 20
5.6245699768
 30
0.0
 10
6.833809935
 20
5.609452564
 30
0.0
 10
6.8245471161
 20
5.5936351719
 30
0.0
 10
6.8164327244
 20
5.5771997545
 30
0.0
 10
6.8095078961
 20
5.5602285554
 30
0.0
 10
6.8038077136
 20
5.5428078516
 30
0.0
 10
6.7993610165
 20
5.5250258478
 30
0.0
 10
6.7961904756
 20
5.5069725696
 30
0.0
 10
6.7943123175
 20
5.4887394745
 30
0.0
 10
6.7937360021
 20
5.4704189658
 30
0.0
 10
6.7944644802
 20
5.4521038814
 30
0.0
 10
6.7964941599
 20
5.4338870278
 30
0.0
 10
6.7998149439
 20
5.4158607739
 30
0.0
 10
6.8044099242
 20
5.3981164983
 30
0.0
 10
6.8102558481
 20
5.3807441555
 30
0.0
 10
6.8173231683
 20
5.3638318361
 30
0.0
 10
6.8255762264
 20
5.347465388
 30
0.0
 10
6.8349730961
 20
5.331727788
 30
0.0
 10
6.8454661647
 20
5.3166988547
 30
0.0
 10
6.8570022917
 20
5.3024548585
 30
0.0
 10
6.8695231024
 20
5.2890681886
 30
0.0
 10
6.8829650199
 20
5.2766067198
 30
0.0
 10
6.8972598816
 20
5.2651336846
 30
0.0
 10
6.9123352188
 20
5.2547073753
 30
0.0
 10
6.9281146275
 20
5.2453808549
 30
0.0
 10
6.9445179945
 20
5.2372014332
 30
0.0
 10
6.9614620738
 20
5.2302105935
 30
0.0
 10
6.9788609615
 20
5.2244439397
 30
0.0
 10
6.9966261262
 20
5.2199310665
 30
0.0
 10
7.0146681358
 20
5.2166943303
 30
0.0
 10
7.0328936354
 20
5.2147510766
 30
0.0
 10
7.0451079088
 20
5.2143238962
 30
0.0
 10
7.0512123403
 20
5.2143280905
 30
0.0
  0
SPLINE
  5
353
100
AcDbEntity
  8
0
100
AcDbSpline
 62
7
  6
CONTINUOUS
 70
0
 71
3
 72
43
 73
39
 74
0
 42
0.0000001
 43
0.0000001
 44
0.0000000001
 40
0.0
 40
0.0
 40
0.0
 40
0.0
 40
0.0312489341
 40
0.0468784415
 40
0.0625070877
 40
0.0937559784
 40
0.125004803
 40
0.1406339496
 40
0.156263089
 40
0.1875119061
 40
0.2187607539
 40
0.2500096262
 40
0.2812584369
 40
0.3125072778
 40
0.3437561329
 40
0.375004933
 40
0.406253776
 40
0.4375026196
 40
0.4687514127
 40
0.5000002518
 40
0.5312490788
 40
0.5624978659
 40
0.5937467045
 40
0.624995515
 40
0.6562442996
 40
0.6874931384
 40
0.7187419338
 40
0.7499907206
 40
0.7812395641
 40
0.812488358
 40
0.8437371377
 40
0.8593662721
 40
0.8749954098
 40
0.9062441775
 40
0.9374930116
 40
0.9531216445
 40
0.9687511315
 40
1.0
 40
1.0
 40
1.0
 40
1.0
 10
7.0512123403
 20
5.2109997589
 30
0.0
 10
7.059718568
 20
5.2110055288
 30
0.0
 10
7.0724904368
 20
5.2116410013
 30
0.0
 10
7.0893810563
 20
5.2137340935
 30
0.0
 10
7.106150226
 20
5.2166523326
 30
0.0
 10
7.1268124543
 20
5.2218370809
 30
0.0
 10
7.1468675988
 20
5.2290213299
 30
0.0
 10
7.1624261908
 20
5.2359237545
 30
0.0
 10
7.1776278053
 20
5.2435801109
 30
0.0
 10
7.1958986926
 20
5.2545359777
 30
0.0
 10
7.2164254161
 20
5.2697641774
 30
0.0
 10
7.2353627322
 20
5.2869305263
 30
0.0
 10
7.2525269748
 20
5.3058693366
 30
0.0
 10
7.2677532535
 20
5.3263986897
 30
0.0
 10
7.2808948315
 20
5.3483210964
 30
0.0
 10
7.2918251179
 20
5.3714256935
 30
0.0
 10
7.3004387546
 20
5.3954901667
 30
0.0
 10
7.3066526769
 20
5.4202829274
 30
0.0
 10
7.3104068906
 20
5.4455653307
 30
0.0
 10
7.3116650843
 20
5.4710939623
 30
0.0
 10
7.3104149828
 20
5.4966229952
 30
0.0
 10
7.3066684493
 20
5.5219065481
 30
0.0
 10
7.3004614091
 20
5.5467010485
 30
0.0
 10
7.2918535044
 20
5.5707675981
 30
0.0
 10
7.2809275036
 20
5.5938742572
 30
0.0
 10
7.2677885521
 20
5.6157982838
 30
0.0
 10
7.252563112
 20
5.6363283183
 30
0.0
 10
7.2353978958
 20
5.6552663208
 30
0.0
 10
7.2164578865
 20
5.6724297944
 30
0.0
 10
7.1959269698
 20
5.6876524553
 30
0.0
 10
7.1776516022
 20
5.6986009996
 30
0.0
 10
7.1624460773
 20
5.7062495964
 30
0.0
 10
7.1468834426
 20
5.7131428988
 30
0.0
 10
7.1268231674
 20
5.7203130663
 30
0.0
 10
7.1061563209
 20
5.7254797759
 30
0.0
 10
7.0893842088
 20
5.7283810545
 30
0.0
 10
7.0724912934
 20
5.7304554629
 30
0.0
 10
7.0597185501
 20
5.7310749307
 30
0.0
 10
7.0512123403
 20
5.7310691485
 30
0.0
  0
SPLINE
  5
354
100
AcDbEntity
  8
0
100
AcDbSpline
 62
7
  6
CONTINUOUS
 70
0
 71
3
 72
43
 73
39
 74
0
 42
0.0000001
 43
0.0000001
 44
0.0000000001
 40
0.0
 40
0.0
 40
0.0
 40
0.0
 40
0.0312489359
 40
0.0468784456
 40
0.0625070952
 40
0.0937559932
 40
0.1250048137
 40
0.1406339624
 40
0.1562631098
 40
0.1875119404
 40
0.2187607712
 40
0.2500096469
 40
0.281258464
 40
0.3125072909
 40
0.3437561472
 40
0.3750049484
 40
0.4062537831
 40
0.4375026265
 40
0.4687514188
 40
0.5000002541
 40
0.5312490778
 40
0.5624978648
 40
0.5937467043
 40
0.6249955127
 40
0.6562442973
 40
0.6874931339
 40
0.7187419226
 40
0.7499907124
 40
0.7812395556
 40
0.8124883395
 40
0.8437371268
 40
0.8593662655
 40
0.8749954035
 40
0.9062441656
 40
0.9374930058
 40
0.9531216416
 40
0.9687511304
 40
1.0
 40
1.0
 40
1.0
 40
1.0
 10
7.0512123403
 20
5.2121092028
 30
0.0
 10
7.0596822764
 20
5.2121149727
 30
0.0
 10
7.072399653
 20
5.2127477681
 30
0.0
 10
7.0892182054
 20
5.2148319702
 30
0.0
 10
7.1059158261
 20
5.2177377955
 30
0.0
 10
7.1264898904
 20
5.2229004624
 30
0.0
 10
7.1464594592
 20
5.2300540909
 30
0.0
 10
7.1619516627
 20
5.2369270869
 30
0.0
 10
7.177088416
 20
5.2445507976
 30
0.0
 10
7.1952813414
 20
5.2554599379
 30
0.0
 10
7.2157204764
 20
5.2706231803
 30
0.0
 10
7.2345769877
 20
5.2877162946
 30
0.0
 10
7.2516679953
 20
5.3065743035
 30
0.0
 10
7.2668293096
 20
5.3270160662
 30
0.0
 10
7.2799148217
 20
5.3488449349
 30
0.0
 10
7.2907984819
 20
5.37185095
 30
0.0
 10
7.2993753785
 20
5.3958127458
 30
0.0
 10
7.3055628026
 20
5.4204997215
 30
0.0
 10
7.3093010149
 20
5.4456742533
 30
0.0
 10
7.3105538571
 20
5.4710939634
 30
0.0
 10
7.3093091069
 20
5.4965140751
 30
0.0
 10
7.3055785744
 20
5.5216897569
 30
0.0
 10
7.2993980316
 20
5.5463784746
 30
0.0
 10
7.2908268653
 20
5.570342348
 30
0.0
 10
7.2799474902
 20
5.5933504255
 30
0.0
 10
7.2668646036
 20
5.6151809144
 30
0.0
 10
7.2517041266
 20
5.635623358
 30
0.0
 10
7.2346121451
 20
5.6544805588
 30
0.0
 10
7.21575294
 20
5.6715707973
 30
0.0
 10
7.1953096115
 20
5.6867284995
 30
0.0
 10
7.1771122061
 20
5.6976303166
 30
0.0
 10
7.1619715449
 20
5.705246266
 30
0.0
 10
7.1464753002
 20
5.7121101388
 30
0.0
 10
7.1265006017
 20
5.7192496853
 30
0.0
 10
7.10592192
 20
5.7243943131
 30
0.0
 10
7.0892213572
 20
5.727283178
 30
0.0
 10
7.0724005092
 20
5.7293486961
 30
0.0
 10
7.0596822585
 20
5.7299654869
 30
0.0
 10
7.0512123403
 20
5.7299597047
 30
0.0
  0
SPLINE
  5
355
100
AcDbEntity
  8
0
100
AcDbSpline
 62
7
  6
CONTINUOUS
 70
0
 71
3
 72
43
 73
39
 74
0
 42
0.0000001
 43
0.0000001
 44
0.0000000001
 40
0.0
 40
0.0
 40
0.0
 40
0.0
 40
0.0312489394
 40
0.0468784465
 40
0.0625070875
 40
0.0937559726
 40
0.1250048185
 40
0.1406339594
 40
0.1562630862
 40
0.1875119011
 40
0.2187607739
 40
0.2500096089
 40
0.2812584337
 40
0.3125072932
 40
0.3437561041
 40
0.3750049455
 40
0.4062537775
 40
0.4375025817
 40
0.4687514358
 40
0.5000002453
 40
0.5312490577
 40
0.5624979076
 40
0.5937467009
 40
0.6249955217
 40
0.6562443458
 40
0.6874931324
 40
0.7187419627
 40
0.7499907542
 40
0.7812395507
 40
0.8124883801
 40
0.8437371479
 40
0.8593662638
 40
0.874995394
 40
0.9062441833
 40
0.9374930112
 40
0.9531216384
 40
0.9687511252
 40
1.0
 40
1.0
 40
1.0
 40
1.0
 10
4.0512123403
 20
5.7343974802
 30
0.0
 10
4.0426153812
 20
5.7343917102
 30
0.0
 10
4.0297072775
 20
5.7337495445
 30
0.0
 10
4.0126364853
 20
5.7316342259
 30
0.0
 10
3.9956884377
 20
5.7286849509
 30
0.0
 10
3.9748057924
 20
5.7234449951
 30
0.0
 10
3.9545367033
 20
5.7161841914
 30
0.0
 10
3.9388121368
 20
5.7092081907
 30
0.0
 10
3.9234483615
 20
5.7014702131
 30
0.0
 10
3.9049825659
 20
5.6903975236
 30
0.0
 10
3.8842368775
 20
5.6750069291
 30
0.0
 10
3.8650975563
 20
5.6576574925
 30
0.0
 10
3.8477502323
 20
5.6385166787
 30
0.0
 10
3.8323615471
 20
5.6177683555
 30
0.0
 10
3.8190798125
 20
5.595612103
 30
0.0
 10
3.8080329659
 20
5.5722610575
 30
0.0
 10
3.7993274784
 20
5.5479398987
 30
0.0
 10
3.7930473186
 20
5.5228826772
 30
0.0
 10
3.7892531018
 20
5.4973306005
 30
0.0
 10
3.7879815241
 20
5.4715296663
 30
0.0
 10
3.7892450108
 20
5.4457283303
 30
0.0
 10
3.7930315462
 20
5.420175101
 30
0.0
 10
3.7993048266
 20
5.3951161354
 30
0.0
 10
3.8080045855
 20
5.3707928978
 30
0.0
 10
3.8190471475
 20
5.3474397874
 30
0.0
 10
3.8323262584
 20
5.3252819149
 30
0.0
 10
3.847714107
 20
5.3045329124
 30
0.0
 10
3.865062404
 20
5.2853929075
 30
0.0
 10
3.8842044177
 20
5.2680463493
 30
0.0
 10
3.9049542981
 20
5.2526612967
 30
0.0
 10
3.9234245725
 20
5.2415959308
 30
0.0
 10
3.9387922542
 20
5.2338657156
 30
0.0
 10
3.9545208614
 20
5.226898838
 30
0.0
 10
3.9747950803
 20
5.2196521162
 30
0.0
 10
3.9956823433
 20
5.2144301994
 30
0.0
 10
4.0126333328
 20
5.2114978849
 30
0.0
 10
4.0297064208
 20
5.2094012501
 30
0.0
 10
4.0426153989
 20
5.208775089
 30
0.0
 10
4.0512123403
 20
5.2087808712
 30
0.0
  0
SPLINE
  5
356
100
AcDbEntity
  8
0
100
AcDbSpline
 62
7
  6
CONTINUOUS
 70
0
 71
3
 72
39
 73
35
 74
0
 42
0.0000001
 43
0.0000001
 44
0.0000000001
 40
0.0
 40
0.0
 40
0.0
 40
0.0
 40
0.0312500091
 40
0.0625000537
 40
0.0937500677
 40
0.1250000428
 40
0.1562500529
 40
0.1875000983
 40
0.2187501128
 40
0.250000086
 40
0.2812500892
 40
0.3125001288
 40
0.3437501415
 40
0.3750001118
 40
0.4062501062
 40
0.4375001353
 40
0.4687501373
 40
0.5000000991
 40
0.5312500945
 40
0.5625001222
 40
0.5937501185
 40
0.6250000749
 40
0.6562500731
 40
0.6875001063
 40
0.7187501108
 40
0.7500000693
 40
0.7812500532
 40
0.8125000942
 40
0.8437500694
 40
0.8750000621
 40
0.9062501931
 40
0.9374993726
 40
0.9687513719
 40
1.0
 40
1.0
 40
1.0
 40
1.0
 10
3.8522617022
 20
5.6415186138
 30
0.0
 10
3.8482291276
 20
5.6367985555
 30
0.0
 10
3.840497004
 20
5.627067943
 30
0.0
 10
3.8299681089
 20
5.6116872571
 30
0.0
 10
3.8205586756
 20
5.5955962202
 30
0.0
 10
3.8123172303
 20
5.5788771333
 30
0.0
 10
3.805285433
 20
5.5616142845
 30
0.0
 10
3.7994989403
 20
5.5438951363
 30
0.0
 10
3.7949870059
 20
5.5258093941
 30
0.0
 10
3.7917725731
 20
5.5074485974
 30
0.0
 10
3.7898721027
 20
5.4889056761
 30
0.0
 10
3.7892952077
 20
5.4702745422
 30
0.0
 10
3.7900447869
 20
5.4516495625
 30
0.0
 10
3.7921171476
 20
5.4331250682
 30
0.0
 10
3.7955019808
 20
5.4147949105
 30
0.0
 10
3.8001821167
 20
5.3967519538
 30
0.0
 10
3.8061338247
 20
5.3790876136
 30
0.0
 10
3.8133270533
 20
5.3618914184
 30
0.0
 10
3.8217255266
 20
5.3452505777
 30
0.0
 10
3.8312866522
 20
5.3292494212
 30
0.0
 10
3.8419619562
 20
5.3139690493
 30
0.0
 10
3.8536974244
 20
5.29948697
 30
0.0
 10
3.8664337139
 20
5.2858767125
 30
0.0
 10
3.8801062218
 20
5.2732072609
 30
0.0
 10
3.894645613
 20
5.2615428564
 30
0.0
 10
3.9099782372
 20
5.2509427307
 30
0.0
 10
3.9260264469
 20
5.241460783
 30
0.0
 10
3.9427088261
 20
5.2331450931
 30
0.0
 10
3.9599407377
 20
5.226037802
 30
0.0
 10
3.9776348785
 20
5.2201750874
 30
0.0
 10
3.9957012811
 20
5.21558701
 30
0.0
 10
4.0140490661
 20
5.2122962853
 30
0.0
 10
4.0325833373
 20
5.2103205423
 30
0.0
 10
4.0450045078
 20
5.2098861221
 30
0.0
 10
4.0512123403
 20
5.209890315
 30
0.0
  0
SPLINE
  5
357
100
AcDbEntity
  8
0
100
AcDbSpline
 62
7
  6
CONTINUOUS
 70
0
 71
3
 72
39
 73
35
 74
0
 42
0.0000001
 43
0.0000001
 44
0.0000000001
 40
0.0
 40
0.0
 40
0.0
 40
0.0
 40
0.0312500483
 40
0.0625000709
 40
0.0937500561
 40
0.1250000607
 40
0.1562501115
 40
0.1875001091
 40
0.2187500873
 40
0.2500001116
 40
0.2812501538
 40
0.3125001325
 40
0.3437501107
 40
0.3750001462
 40
0.4062501722
 40
0.4375001416
 40
0.4687501267
 40
0.500000162
 40
0.5312501608
 40
0.5625001304
 40
0.5937501304
 40
0.6250001578
 40
0.6562501299
 40
0.6875001057
 40
0.7187501193
 40
0.7500001316
 40
0.7812500867
 40
0.8125000847
 40
0.8437500624
 40
0.8750000829
 40
0.9062502031
 40
0.9374993665
 40
0.968751366
 40
1.0
 40
1.0
 40
1.0
 40
1.0
 10
3.8531343702
 20
5.640832073
 30
0.0
 10
3.8491177735
 20
5.636132355
 30
0.0
 10
3.8414162047
 20
5.6264435609
 30
0.0
 10
3.830928633
 20
5.6111286475
 30
0.0
 10
3.821555838
 20
5.5951061053
 30
0.0
 10
3.8133461444
 20
5.5784578922
 30
0.0
 10
3.8063410801
 20
5.5612679588
 30
0.0
 10
3.8005761521
 20
5.5436234286
 30
0.0
 10
3.7960805315
 20
5.5256136192
 30
0.0
 10
3.792877054
 20
5.5073296913
 30
0.0
 10
3.7909821566
 20
5.4888642168
 30
0.0
 10
3.7904053961
 20
5.4703107443
 30
0.0
 10
3.7911497036
 20
5.4517632383
 30
0.0
 10
3.7932113822
 20
5.4333156377
 30
0.0
 10
3.7965802025
 20
5.4150614449
 30
0.0
 10
3.8012390403
 20
5.3970931587
 30
0.0
 10
3.8071643077
 20
5.3795018146
 30
0.0
 10
3.8143260543
 20
5.3623765716
 30
0.0
 10
3.8226881754
 20
5.345804322
 30
0.0
 10
3.8322082308
 20
5.3298690543
 30
0.0
 10
3.8428379833
 20
5.3146515372
 30
0.0
 10
3.8545236176
 20
5.3002289648
 30
0.0
 10
3.8672060378
 20
5.2866746017
 30
0.0
 10
3.8808208919
 20
5.2740571483
 30
0.0
 10
3.8952991562
 20
5.2624405832
 30
0.0
 10
3.9105674639
 20
5.251883902
 30
0.0
 10
3.9265484741
 20
5.2424408092
 30
0.0
 10
3.943161095
 20
5.2341591883
 30
0.0
 10
3.9603210511
 20
5.2270810083
 30
0.0
 10
3.9779413848
 20
5.2212423042
 30
0.0
 10
3.9959324818
 20
5.2166730258
 30
0.0
 10
4.0142038247
 20
5.2133957977
 30
0.0
 10
4.0326609062
 20
5.2114281769
 30
0.0
 10
4.0450303568
 20
5.2109955656
 30
0.0
 10
4.0512123403
 20
5.2109997589
 30
0.0
  0
SPLINE
  5
358
100
AcDbEntity
  8
0
100
AcDbSpline
 62
7
  6
CONTINUOUS
 70
0
 71
3
 72
39
 73
35
 74
0
 42
0.0000001
 43
0.0000001
 44
0.0000000001
 40
0.0
 40
0.0
 40
0.0
 40
0.0
 40
0.0312500027
 40
0.0625000453
 40
0.0937500682
 40
0.1250000502
 40
0.1562500511
 40
0.1875000907
 40
0.2187501085
 40
0.2500000855
 40
0.2812500864
 40
0.3125001278
 40
0.3437501527
 40
0.3750001338
 40
0.4062501216
 40
0.4375001522
 40
0.4687501784
 40
0.5000001613
 40
0.531250136
 40
0.5625001529
 40
0.59375017
 40
0.6250001454
 40
0.6562501171
 40
0.68750013
 40
0.7187501421
 40
0.7500001112
 40
0.7812500778
 40
0.812500103
 40
0.8437500749
 40
0.8750000675
 40
0.9062501963
 40
0.9374993738
 40
0.9687513709
 40
1.0
 40
1.0
 40
1.0
 40
1.0
 10
3.8540076583
 20
5.640146246
 30
0.0
 10
3.850007026
 20
5.6354668894
 30
0.0
 10
3.8423359668
 20
5.6258199353
 30
0.0
 10
3.8318896526
 20
5.6105707988
 30
0.0
 10
3.8225534141
 20
5.5946167525
 30
0.0
 10
3.8143754161
 20
5.5780394253
 30
0.0
 10
3.8073970123
 20
5.5609224166
 30
0.0
 10
3.8016535948
 20
5.5433524755
 30
0.0
 10
3.7971742099
 20
5.5254185747
 30
0.0
 10
3.7939816449
 20
5.5072115141
 30
0.0
 10
3.792092254
 20
5.4888234746
 30
0.0
 10
3.7915155945
 20
5.4703476104
 30
0.0
 10
3.7922545684
 20
5.4518775294
 30
0.0
 10
3.7943055353
 20
5.4335068113
 30
0.0
 10
3.7976582906
 20
5.4153285578
 30
0.0
 10
3.8022958203
 20
5.3974348867
 30
0.0
 10
3.8081946074
 20
5.3799164834
 30
0.0
 10
3.8153248551
 20
5.3628621739
 30
0.0
 10
3.8236505934
 20
5.3463584775
 30
0.0
 10
3.8331295862
 20
5.3304890478
 30
0.0
 10
3.8437137676
 20
5.3153343372
 30
0.0
 10
3.8553495625
 20
5.3009712503
 30
0.0
 10
3.8679781099
 20
5.2874727386
 30
0.0
 10
3.8815353359
 20
5.2749072358
 30
0.0
 10
3.8959524765
 20
5.2633384707
 30
0.0
 10
3.9111564736
 20
5.2528252141
 30
0.0
 10
3.927070302
 20
5.243420943
 30
0.0
 10
3.9436132034
 20
5.2351733571
 30
0.0
 10
3.960701227
 20
5.2281242631
 30
0.0
 10
3.9782477711
 20
5.2223095564
 30
0.0
 10
3.996163588
 20
5.2177590619
 30
0.0
 10
4.014358526
 20
5.2144953171
 30
0.0
 10
4.0327384504
 20
5.2125358122
 30
0.0
 10
4.045056198
 20
5.2121050091
 30
0.0
 10
4.0512123403
 20
5.2121092028
 30
0.0
  0
SPLINE
  5
359
100
AcDbEntity
  8
0
100
AcDbSpline
 62
7
  6
CONTINUOUS
 70
0
 71
3
 72
39
 73
35
 74
0
 42
0.0000001
 43
0.0000001
 44
0.0000000001
 40
0.0
 40
0.0
 40
0.0
 40
0.0
 40
0.0312500087
 40
0.0625000533
 40
0.0937500692
 40
0.1250000455
 40
0.1562500547
 40
0.1875000998
 40
0.2187501159
 40
0.2500000902
 40
0.2812500925
 40
0.3125001314
 40
0.3437501451
 40
0.3750001161
 40
0.40625011
 40
0.4375001388
 40
0.4687501419
 40
0.5000001043
 40
0.5312500989
 40
0.5625001265
 40
0.5937501237
 40
0.6250000807
 40
0.6562500778
 40
0.6875001103
 40
0.7187501155
 40
0.7500000745
 40
0.7812500571
 40
0.812500097
 40
0.8437500724
 40
0.8750000649
 40
0.9062501953
 40
0.9374993741
 40
0.9687513711
 40
1.0
 40
1.0
 40
1.0
 40
1.0
 10
3.8548807932
 20
5.6394602268
 30
0.0
 10
3.8508961257
 20
5.6348012214
 30
0.0
 10
3.8432555853
 20
5.6251960988
 30
0.0
 10
3.8328505452
 20
5.6100127402
 30
0.0
 10
3.823550889
 20
5.5941271947
 30
0.0
 10
3.8154045994
 20
5.5776207495
 30
0.0
 10
3.8084528752
 20
5.5605766582
 30
0.0
 10
3.8027309791
 20
5.5430813154
 30
0.0
 10
3.7982678549
 20
5.5252233319
 30
0.0
 10
3.7950862105
 20
5.5070931361
 30
0.0
 10
3.7932023464
 20
5.4887825331
 30
0.0
 10
3.7926257929
 20
5.4703843012
 30
0.0
 10
3.7933594522
 20
5.4519916695
 30
0.0
 10
3.7953997115
 20
5.4336978362
 30
0.0
 10
3.7987364173
 20
5.4155955275
 30
0.0
 10
3.803352634
 20
5.3977764954
 30
0.0
 10
3.8092249474
 20
5.3803310632
 30
0.0
 10
3.8163236948
 20
5.3633476927
 30
0.0
 10
3.8246130597
 20
5.3469125545
 30
0.0
 10
3.8340509826
 20
5.3311089742
 30
0.0
 10
3.8445895938
 20
5.3160170897
 30
0.0
 10
3.8561755467
 20
5.3017134907
 30
0.0
 10
3.8687502264
 20
5.2882708345
 30
0.0
 10
3.8822498194
 20
5.2757572876
 30
0.0
 10
3.8966058366
 20
5.2642363323
 30
0.0
 10
3.9117455221
 20
5.2537665011
 30
0.0
 10
3.9275921686
 20
5.2444010567
 30
0.0
 10
3.9440653444
 20
5.2361875105
 30
0.0
 10
3.9610814346
 20
5.2291675076
 30
0.0
 10
3.9785541877
 20
5.2233767995
 30
0.0
 10
3.996394719
 20
5.2188450926
 30
0.0
 10
4.0145132414
 20
5.2155948349
 30
0.0
 10
4.0328159999
 20
5.2136434475
 30
0.0
 10
4.0450820409
 20
5.2132144527
 30
0.0
 10
4.0512123403
 20
5.2132186467
 30
0.0
  0
SPLINE
  5
35A
100
AcDbEntity
  8
0
100
AcDbSpline
 62
7
  6
CONTINUOUS
 70
0
 71
3
 72
39
 73
35
 74
0
 42
0.0000001
 43
0.0000001
 44
0.0000000001
 40
0.0
 40
0.0
 40
0.0
 40
0.0
 40
0.0312486868
 40
0.0625006938
 40
0.0937498896
 40
0.1250000393
 40
0.1562500905
 40
0.1875000885
 40
0.2187501007
 40
0.2500000824
 40
0.2812501202
 40
0.3125001324
 40
0.3437501127
 40
0.3750001176
 40
0.4062501564
 40
0.4375001414
 40
0.4687501142
 40
0.5000001399
 40
0.5312501637
 40
0.5625001334
 40
0.5937501134
 40
0.6250001445
 40
0.6562501378
 40
0.6875001066
 40
0.7187501059
 40
0.750000127
 40
0.7812500895
 40
0.8125000812
 40
0.843750057
 40
0.8750000809
 40
0.9062502051
 40
0.9374993728
 40
0.9687513423
 40
1.0
 40
1.0
 40
1.0
 40
1.0
 10
3.8557520177
 20
5.6387719668
 30
0.0
 10
3.8517835394
 20
5.6341335025
 30
0.0
 10
3.8441737207
 20
5.6245699768
 30
0.0
 10
3.833809935
 20
5.609452564
 30
0.0
 10
3.8245471161
 20
5.5936351719
 30
0.0
 10
3.8164327244
 20
5.5771997545
 30
0.0
 10
3.8095078961
 20
5.5602285554
 30
0.0
 10
3.8038077136
 20
5.5428078516
 30
0.0
 10
3.7993610165
 20
5.5250258478
 30
0.0
 10
3.7961904756
 20
5.5069725696
 30
0.0
 10
3.7943123175
 20
5.4887394745
 30
0.0
 10
3.7937360021
 20
5.4704189658
 30
0.0
 10
3.7944644802
 20
5.4521038814
 30
0.0
 10
3.7964941599
 20
5.4338870278
 30
0.0
 10
3.7998149439
 20
5.4158607739
 30
0.0
 10
3.8044099242
 20
5.3981164983
 30
0.0
 10
3.8102558481
 20
5.3807441555
 30
0.0
 10
3.8173231683
 20
5.3638318361
 30
0.0
 10
3.8255762264
 20
5.347465388
 30
0.0
 10
3.8349730961
 20
5.331727788
 30
0.0
 10
3.8454661647
 20
5.3166988547
 30
0.0
 10
3.8570022917
 20
5.3024548585
 30
0.0
 10
3.8695231024
 20
5.2890681886
 30
0.0
 10
3.8829650199
 20
5.2766067198
 30
0.0
 10
3.8972598816
 20
5.2651336846
 30
0.0
 10
3.9123352188
 20
5.2547073753
 30
0.0
 10
3.9281146275
 20
5.2453808549
 30
0.0
 10
3.9445179945
 20
5.2372014332
 30
0.0
 10
3.9614620738
 20
5.2302105935
 30
0.0
 10
3.9788609615
 20
5.2244439397
 30
0.0
 10
3.9966261262
 20
5.2199310665
 30
0.0
 10
4.0146681358
 20
5.2166943303
 30
0.0
 10
4.0328936354
 20
5.2147510766
 30
0.0
 10
4.0451079088
 20
5.2143238962
 30
0.0
 10
4.0512123403
 20
5.2143280905
 30
0.0
  0
SPLINE
  5
35B
100
AcDbEntity
  8
0
100
AcDbSpline
 62
7
  6
CONTINUOUS
 70
0
 71
3
 72
43
 73
39
 74
0
 42
0.0000001
 43
0.0000001
 44
0.0000000001
 40
0.0
 40
0.0
 40
0.0
 40
0.0
 40
0.0312489341
 40
0.0468784415
 40
0.0625070877
 40
0.0937559784
 40
0.125004803
 40
0.1406339496
 40
0.156263089
 40
0.1875119061
 40
0.2187607539
 40
0.2500096262
 40
0.2812584369
 40
0.3125072778
 40
0.3437561329
 40
0.375004933
 40
0.406253776
 40
0.4375026196
 40
0.4687514127
 40
0.5000002518
 40
0.5312490788
 40
0.5624978659
 40
0.5937467045
 40
0.624995515
 40
0.6562442996
 40
0.6874931384
 40
0.7187419338
 40
0.7499907206
 40
0.7812395641
 40
0.812488358
 40
0.8437371377
 40
0.8593662721
 40
0.8749954098
 40
0.9062441775
 40
0.9374930116
 40
0.9531216445
 40
0.9687511315
 40
1.0
 40
1.0
 40
1.0
 40
1.0
 10
4.0512123403
 20
5.2109997589
 30
0.0
 10
4.059718568
 20
5.2110055288
 30
0.0
 10
4.0724904368
 20
5.2116410013
 30
0.0
 10
4.0893810563
 20
5.2137340935
 30
0.0
 10
4.106150226
 20
5.2166523326
 30
0.0
 10
4.1268124543
 20
5.2218370809
 30
0.0
 10
4.1468675988
 20
5.2290213299
 30
0.0
 10
4.1624261908
 20
5.2359237545
 30
0.0
 10
4.1776278053
 20
5.2435801109
 30
0.0
 10
4.1958986926
 20
5.2545359777
 30
0.0
 10
4.2164254161
 20
5.2697641774
 30
0.0
 10
4.2353627322
 20
5.2869305263
 30
0.0
 10
4.2525269748
 20
5.3058693366
 30
0.0
 10
4.2677532535
 20
5.3263986897
 30
0.0
 10
4.2808948315
 20
5.3483210964
 30
0.0
 10
4.2918251179
 20
5.3714256935
 30
0.0
 10
4.3004387546
 20
5.3954901667
 30
0.0
 10
4.3066526769
 20
5.4202829274
 30
0.0
 10
4.3104068906
 20
5.4455653307
 30
0.0
 10
4.3116650843
 20
5.4710939623
 30
0.0
 10
4.3104149828
 20
5.4966229952
 30
0.0
 10
4.3066684493
 20
5.5219065481
 30
0.0
 10
4.3004614091
 20
5.5467010485
 30
0.0
 10
4.2918535044
 20
5.5707675981
 30
0.0
 10
4.2809275036
 20
5.5938742572
 30
0.0
 10
4.2677885521
 20
5.6157982838
 30
0.0
 10
4.252563112
 20
5.6363283183
 30
0.0
 10
4.2353978958
 20
5.6552663208
 30
0.0
 10
4.2164578865
 20
5.6724297944
 30
0.0
 10
4.1959269698
 20
5.6876524553
 30
0.0
 10
4.1776516022
 20
5.6986009996
 30
0.0
 10
4.1624460773
 20
5.7062495964
 30
0.0
 10
4.1468834426
 20
5.7131428988
 30
0.0
 10
4.1268231674
 20
5.7203130663
 30
0.0
 10
4.1061563209
 20
5.7254797759
 30
0.0
 10
4.0893842088
 20
5.7283810545
 30
0.0
 10
4.0724912934
 20
5.7304554629
 30
0.0
 10
4.0597185501
 20
5.7310749307
 30
0.0
 10
4.0512123403
 20
5.7310691485
 30
0.0
  0
SPLINE
  5
35C
100
AcDbEntity
  8
0
100
AcDbSpline
 62
7
  6
CONTINUOUS
 70
0
 71
3
 72
43
 73
39
 74
0
 42
0.0000001
 43
0.0000001
 44
0.0000000001
 40
0.0
 40
0.0
 40
0.0
 40
0.0
 40
0.0312489359
 40
0.0468784456
 40
0.0625070952
 40
0.0937559932
 40
0.1250048137
 40
0.1406339624
 40
0.1562631098
 40
0.1875119404
 40
0.2187607712
 40
0.2500096469
 40
0.281258464
 40
0.3125072909
 40
0.3437561472
 40
0.3750049484
 40
0.4062537831
 40
0.4375026265
 40
0.4687514188
 40
0.5000002541
 40
0.5312490778
 40
0.5624978648
 40
0.5937467043
 40
0.6249955127
 40
0.6562442973
 40
0.6874931339
 40
0.7187419226
 40
0.7499907124
 40
0.7812395556
 40
0.8124883395
 40
0.8437371268
 40
0.8593662655
 40
0.8749954035
 40
0.9062441656
 40
0.9374930058
 40
0.9531216416
 40
0.9687511304
 40
1.0
 40
1.0
 40
1.0
 40
1.0
 10
4.0512123403
 20
5.2121092028
 30
0.0
 10
4.0596822764
 20
5.2121149727
 30
0.0
 10
4.072399653
 20
5.2127477681
 30
0.0
 10
4.0892182054
 20
5.2148319702
 30
0.0
 10
4.1059158261
 20
5.2177377955
 30
0.0
 10
4.1264898904
 20
5.2229004624
 30
0.0
 10
4.1464594592
 20
5.2300540909
 30
0.0
 10
4.1619516627
 20
5.2369270869
 30
0.0
 10
4.177088416
 20
5.2445507976
 30
0.0
 10
4.1952813414
 20
5.2554599379
 30
0.0
 10
4.2157204764
 20
5.2706231803
 30
0.0
 10
4.2345769877
 20
5.2877162946
 30
0.0
 10
4.2516679953
 20
5.3065743035
 30
0.0
 10
4.2668293096
 20
5.3270160662
 30
0.0
 10
4.2799148217
 20
5.3488449349
 30
0.0
 10
4.2907984819
 20
5.37185095
 30
0.0
 10
4.2993753785
 20
5.3958127458
 30
0.0
 10
4.3055628026
 20
5.4204997215
 30
0.0
 10
4.3093010149
 20
5.4456742533
 30
0.0
 10
4.3105538571
 20
5.4710939634
 30
0.0
 10
4.3093091069
 20
5.4965140751
 30
0.0
 10
4.3055785744
 20
5.5216897569
 30
0.0
 10
4.2993980316
 20
5.5463784746
 30
0.0
 10
4.2908268653
 20
5.570342348
 30
0.0
 10
4.2799474902
 20
5.5933504255
 30
0.0
 10
4.2668646036
 20
5.6151809144
 30
0.0
 10
4.2517041266
 20
5.635623358
 30
0.0
 10
4.2346121451
 20
5.6544805588
 30
0.0
 10
4.21575294
 20
5.6715707973
 30
0.0
 10
4.1953096115
 20
5.6867284995
 30
0.0
 10
4.1771122061
 20
5.6976303166
 30
0.0
 10
4.1619715449
 20
5.705246266
 30
0.0
 10
4.1464753002
 20
5.7121101388
 30
0.0
 10
4.1265006017
 20
5.7192496853
 30
0.0
 10
4.10592192
 20
5.7243943131
 30
0.0
 10
4.0892213572
 20
5.727283178
 30
0.0
 10
4.0724005092
 20
5.7293486961
 30
0.0
 10
4.0596822585
 20
5.7299654869
 30
0.0
 10
4.0512123403
 20
5.7299597047
 30
0.0
  0
LINE
  5
35D
100
AcDbEntity
  8
0
100
AcDbLine
 62
7
  6
CONTINUOUS
 10
3.8168455575
 20
3.1171090271
 11
3.8178872105
 21
3.1178301617
  0
LINE
  5
35E
100
AcDbEntity
  8
0
100
AcDbLine
 62
7
  6
CONTINUOUS
 10
3.8120873717
 20
3.1144787232
 11
3.8129056428
 21
3.1148343163
  0
LINE
  5
35F
100
AcDbEntity
  8
0
100
AcDbLine
 62
7
  6
CONTINUOUS
 10
6.8178872105
 20
3.1178301617
 11
6.8204918749
 21
3.1188902473
  0
SPLINE
  5
360
100
AcDbEntity
  8
0
100
AcDbSpline
 62
7
  6
CONTINUOUS
 70
0
 71
3
 72
32
 73
28
 74
0
 42
0.0000001
 43
0.0000001
 44
0.0000000001
 40
0.0
 40
0.0
 40
0.0
 40
0.0
 40
0.0005910116
 40
0.001313
 40
0.0031630456
 40
0.0055659089
 40
0.0085271707
 40
0.0120490776
 40
0.0161318061
 40
0.0259739893
 40
0.0380385722
 40
0.0523008102
 40
0.0687305556
 40
0.0872909872
 40
0.1079410044
 40
0.1306334076
 40
0.1553171344
 40
0.1819354515
 40
0.2407294311
 40
0.3064784221
 40
0.37858075
 40
0.4563761792
 40
0.5391524697
 40
0.6261510715
 40
0.7165747617
 40
0.809595254
 40
1.0
 40
1.0
 40
1.0
 40
1.0
 10
6.7939002096
 20
3.1039701043
 30
0.0
 10
6.793944146
 20
3.1039954937
 30
0.0
 10
6.7940458048
 20
3.1040448506
 30
0.0
 10
6.7942993944
 20
3.1041424988
 30
0.0
 10
6.7947109969
 20
3.1042592796
 30
0.0
 10
6.7953160682
 20
3.1043922499
 30
0.0
 10
6.7960674098
 20
3.1045259645
 30
0.0
 10
6.7969646511
 20
3.104660407
 30
0.0
 10
6.7984503916
 20
3.1048522886
 30
0.0
 10
6.8006698968
 20
3.1050855896
 30
0.0
 10
6.8037639273
 20
3.1053532363
 30
0.0
 10
6.8074252748
 20
3.1056219483
 30
0.0
 10
6.8116455659
 20
3.1058915256
 30
0.0
 10
6.8164152657
 20
3.1061616353
 30
0.0
 10
6.8217234257
 20
3.1064321238
 30
0.0
 10
6.8275579381
 20
3.1067028966
 30
0.0
 10
6.8339053869
 20
3.1069738829
 30
0.0
 10
6.8433509226
 20
3.1073479293
 30
0.0
 10
6.8563215608
 20
3.1078101075
 30
0.0
 10
6.8731970881
 20
3.1083492363
 30
0.0
 10
6.8917048245
 20
3.1088891544
 30
0.0
 10
6.911675089
 20
3.1094296952
 30
0.0
 10
6.9329247845
 20
3.1099706599
 30
0.0
 10
6.9552590757
 20
3.1105119347
 30
0.0
 10
6.9784731832
 20
3.1110534336
 30
0.0
 10
7.0105638809
 20
3.1117812656
 30
0.0
 10
7.0348930662
 20
3.1123179672
 30
0.0
 10
7.0512373819
 20
3.1126786105
 30
0.0
  0
LINE
  5
361
100
AcDbEntity
  8
0
100
AcDbLine
 62
7
  6
CONTINUOUS
 10
7.0512373819
 20
3.1126786105
 11
7.1022537799
 21
3.1138118147
  0
SPLINE
  5
362
100
AcDbEntity
  8
0
100
AcDbSpline
 62
7
  6
CONTINUOUS
 70
0
 71
3
 72
43
 73
39
 74
0
 42
0.0000001
 43
0.0000001
 44
0.0000000001
 40
0.0
 40
0.0
 40
0.0
 40
0.0
 40
0.03124887
 40
0.0468783584
 40
0.0625069934
 40
0.0937558321
 40
0.1250045975
 40
0.1406337364
 40
0.1562628751
 40
0.1875116625
 40
0.218760449
 40
0.2500092962
 40
0.281258089
 40
0.3125068768
 40
0.3437557176
 40
0.375004505
 40
0.4062533084
 40
0.4375021482
 40
0.468750936
 40
0.4999997605
 40
0.531248608
 40
0.5624974011
 40
0.5937462386
 40
0.6249950899
 40
0.6562438877
 40
0.6874927361
 40
0.7187415834
 40
0.7499903892
 40
0.7812392548
 40
0.8124881034
 40
0.8437369176
 40
0.8593660551
 40
0.8749952007
 40
0.9062440245
 40
0.937492914
 40
0.9531215597
 40
0.9687510666
 40
1.0
 40
1.0
 40
1.0
 40
1.0
 10
7.0512123403
 20
5.2090512398
 30
0.0
 10
7.0426242445
 20
5.2090454577
 30
0.0
 10
7.0297285471
 20
5.2096709662
 30
0.0
 10
7.0126730208
 20
5.2117654343
 30
0.0
 10
6.995739463
 20
5.2146947246
 30
0.0
 10
6.9748736871
 20
5.2199112594
 30
0.0
 10
6.9546203247
 20
5.2271505197
 30
0.0
 10
6.9389078943
 20
5.2341102256
 30
0.0
 10
6.9235560084
 20
5.2418324916
 30
0.0
 10
6.9051047327
 20
5.2528864691
 30
0.0
 10
6.8843761943
 20
5.2682557005
 30
0.0
 10
6.8652538714
 20
5.2855844145
 30
0.0
 10
6.8479234181
 20
5.3047047295
 30
0.0
 10
6.8325514067
 20
5.3254323955
 30
0.0
 10
6.8192859615
 20
5.3475674672
 30
0.0
 10
6.808254761
 20
5.3708965537
 30
0.0
 10
6.7995639661
 20
5.395194771
 30
0.0
 10
6.7932971417
 20
5.4202279477
 30
0.0
 10
6.7895145055
 20
5.4457548886
 30
0.0
 10
6.7882523318
 20
5.4715296783
 30
0.0
 10
6.7895226005
 20
5.4973040662
 30
0.0
 10
6.793312918
 20
5.5228298583
 30
0.0
 10
6.7995866277
 20
5.5478612966
 30
0.0
 10
6.8082831584
 20
5.5721574373
 30
0.0
 10
6.8193186457
 20
5.5954844618
 30
0.0
 10
6.8325867203
 20
5.6176179124
 30
0.0
 10
6.8479595724
 20
5.6383448936
 30
0.0
 10
6.8652890518
 20
5.6574660144
 30
0.0
 10
6.8844086808
 20
5.6747975996
 30
0.0
 10
6.9051330248
 20
5.6901723659
 30
0.0
 10
6.9235798188
 20
5.7012336641
 30
0.0
 10
6.93892779
 20
5.7089636867
 30
0.0
 10
6.9546361764
 20
5.7159325135
 30
0.0
 10
6.9748844071
 20
5.7231858541
 30
0.0
 10
6.9957455634
 20
5.7284204268
 30
0.0
 10
7.0126761763
 20
5.7313666768
 30
0.0
 10
7.029729405
 20
5.7334798285
 30
0.0
 10
7.0426242271
 20
5.7341213415
 30
0.0
 10
7.0512123403
 20
5.7341271115
 30
0.0
  0
SPLINE
  5
363
100
AcDbEntity
  8
0
100
AcDbSpline
 62
7
  6
CONTINUOUS
 70
0
 71
3
 72
39
 73
35
 74
0
 42
0.0000001
 43
0.0000001
 44
0.0000000001
 40
0.0
 40
0.0
 40
0.0
 40
0.0
 40
0.0312486338
 40
0.0625006339
 40
0.0937497972
 40
0.1249999175
 40
0.1562499381
 40
0.1874999159
 40
0.218749914
 40
0.2499998692
 40
0.2812498815
 40
0.3124998951
 40
0.343749871
 40
0.3749998431
 40
0.4062498706
 40
0.4374998706
 40
0.4687498403
 40
0.4999998391
 40
0.5312498743
 40
0.5624998594
 40
0.5937498288
 40
0.6249998547
 40
0.6562498902
 40
0.6874998685
 40
0.718749847
 40
0.7499998892
 40
0.7812499134
 40
0.8124998915
 40
0.843749889
 40
0.8749999397
 40
0.9062499442
 40
0.9374999293
 40
0.9687499517
 40
1.0
 40
1.0
 40
1.0
 40
1.0
 10
7.0512123403
 20
5.2101606837
 30
0.0
 10
7.045010812
 20
5.2101564906
 30
0.0
 10
7.0326022559
 20
5.2105904695
 30
0.0
 10
7.0140868139
 20
5.2125642295
 30
0.0
 10
6.9957576777
 20
5.2158516579
 30
0.0
 10
6.9777096421
 20
5.2204351454
 30
0.0
 10
6.9600334999
 20
5.2262919999
 30
0.0
 10
6.9428191382
 20
5.2333921823
 30
0.0
 10
6.9261537798
 20
5.2416995502
 30
0.0
 10
6.9101219579
 20
5.2511720097
 30
0.0
 10
6.8948050123
 20
5.2617615339
 30
0.0
 10
6.8802805207
 20
5.273414258
 30
0.0
 10
6.8666220757
 20
5.2860710101
 30
0.0
 10
6.853898914
 20
5.2996676203
 30
0.0
 10
6.8421755866
 20
5.3141351824
 30
0.0
 10
6.831511373
 20
5.3294002117
 30
0.0
 10
6.8219602568
 20
5.3453852828
 30
0.0
 10
6.8135706273
 20
5.3620093845
 30
0.0
 10
6.8063850593
 20
5.3791882752
 30
0.0
 10
6.800439773
 20
5.3968348007
 30
0.0
 10
6.7957648172
 20
5.414859533
 30
0.0
 10
6.7923838593
 20
5.4331711616
 30
0.0
 10
6.7903140826
 20
5.4516769072
 30
0.0
 10
6.7895657558
 20
5.4702829838
 30
0.0
 10
6.790142596
 20
5.4888951669
 30
0.0
 10
6.7920416729
 20
5.5074192055
 30
0.0
 10
6.7952534088
 20
5.525761265
 30
0.0
 10
6.7997613265
 20
5.5438284901
 30
0.0
 10
6.8055425309
 20
5.56152944
 30
0.0
 10
6.8125677729
 20
5.5787745211
 30
0.0
 10
6.8208014462
 20
5.595476341
 30
0.0
 10
6.8302019067
 20
5.6115506882
 30
0.0
 10
6.8407206928
 20
5.6269153491
 30
0.0
 10
6.8484453432
 20
5.6366357807
 30
0.0
 10
6.8524740141
 20
5.6413508909
 30
0.0
  0
SPLINE
  5
364
100
AcDbEntity
  8
0
100
AcDbSpline
 62
7
  6
CONTINUOUS
 70
0
 71
3
 72
39
 73
35
 74
0
 42
0.0000001
 43
0.0000001
 44
0.0000000001
 40
0.0
 40
0.0
 40
0.0
 40
0.0
 40
0.0312484997
 40
0.0624998863
 40
0.093748803
 40
0.1249987045
 40
0.1562484543
 40
0.1874981752
 40
0.2187479636
 40
0.2499977925
 40
0.2812476316
 40
0.3124974857
 40
0.3437473864
 40
0.3749973093
 40
0.4062472328
 40
0.4374972128
 40
0.4687471981
 40
0.4999971922
 40
0.531247232
 40
0.5624972998
 40
0.5937473486
 40
0.6249974255
 40
0.6562475638
 40
0.6874976723
 40
0.718747803
 40
0.7499979791
 40
0.781248165
 40
0.8124983631
 40
0.8437485426
 40
0.874998865
 40
0.9062492099
 40
0.9374986862
 40
0.9687511233
 40
1.0
 40
1.0
 40
1.0
 40
1.0
 10
7.1830263651
 20
5.2834721841
 30
0.0
 10
7.1877949825
 20
5.2865055753
 30
0.0
 10
7.1971117462
 20
5.2929281538
 30
0.0
 10
7.2103363343
 20
5.303562783
 30
0.0
 10
7.2227450314
 20
5.3151406408
 30
0.0
 10
7.2342729196
 20
5.3275948839
 30
0.0
 10
7.2448616187
 20
5.3408570091
 30
0.0
 10
7.2544579716
 20
5.3548537849
 30
0.0
 10
7.263014735
 20
5.3695091223
 30
0.0
 10
7.2704904681
 20
5.384744214
 30
0.0
 10
7.2768496931
 20
5.4004780046
 30
0.0
 10
7.282063048
 20
5.4166276209
 30
0.0
 10
7.2861074724
 20
5.4331087967
 30
0.0
 10
7.2889660191
 20
5.4498363973
 30
0.0
 10
7.2906278283
 20
5.4667248506
 30
0.0
 10
7.2910881519
 20
5.4836885453
 30
0.0
 10
7.2903485002
 20
5.5006422811
 30
0.0
 10
7.2884162398
 20
5.5175017024
 30
0.0
 10
7.2853045115
 20
5.534183686
 30
0.0
 10
7.2810320877
 20
5.5506066973
 30
0.0
 10
7.2756234699
 20
5.566691258
 30
0.0
 10
7.2691083375
 20
5.5823602393
 30
0.0
 10
7.2615213946
 20
5.5975391696
 30
0.0
 10
7.2529021656
 20
5.6121565606
 30
0.0
 10
7.2432949364
 20
5.626144335
 30
0.0
 10
7.2327481963
 20
5.6394379739
 30
0.0
 10
7.2213143529
 20
5.6519767006
 30
0.0
 10
7.2090495868
 20
5.6637038211
 30
0.0
 10
7.1960135886
 20
5.6745670915
 30
0.0
 10
7.1822689522
 20
5.6845185702
 30
0.0
 10
7.1678811854
 20
5.6935146945
 30
0.0
 10
7.1529175531
 20
5.701517541
 30
0.0
 10
7.1374491678
 20
5.7084922603
 30
0.0
 10
7.1268456753
 20
5.7124388884
 30
0.0
 10
7.1214857648
 20
5.7142314574
 30
0.0
  0
SPLINE
  5
365
100
AcDbEntity
  8
0
100
AcDbSpline
 62
7
  6
CONTINUOUS
 70
0
 71
3
 72
39
 73
35
 74
0
 42
0.0000001
 43
0.0000001
 44
0.0000000001
 40
0.0
 40
0.0
 40
0.0
 40
0.0
 40
0.0312486289
 40
0.0625006266
 40
0.0937498041
 40
0.1249999329
 40
0.1562499257
 40
0.1874998976
 40
0.2187499229
 40
0.2499998896
 40
0.2812498587
 40
0.3124998708
 40
0.3437498839
 40
0.3749998556
 40
0.406249831
 40
0.437499848
 40
0.468749865
 40
0.4999998398
 40
0.5312498226
 40
0.5624998488
 40
0.5937498794
 40
0.6249998672
 40
0.6562498481
 40
0.6874998729
 40
0.7187499144
 40
0.7499999153
 40
0.7812498921
 40
0.8124999098
 40
0.8437499494
 40
0.8749999503
 40
0.906249932
 40
0.9374999548
 40
0.9687499974
 40
1.0
 40
1.0
 40
1.0
 40
1.0
 10
7.0512123403
 20
5.2112701276
 30
0.0
 10
7.0450366524
 20
5.2112659342
 30
0.0
 10
7.0326797975
 20
5.2116981049
 30
0.0
 10
7.0142415101
 20
5.2136637496
 30
0.0
 10
6.9959887764
 20
5.2169376956
 30
0.0
 10
6.9780160186
 20
5.2215024003
 30
0.0
 10
6.9604136638
 20
5.227335259
 30
0.0
 10
6.9432712326
 20
5.2344063572
 30
0.0
 10
6.926675592
 20
5.2426796922
 30
0.0
 10
6.9107109503
 20
5.2521133324
 30
0.0
 10
6.8954583139
 20
5.2626594347
 30
0.0
 10
6.8809949451
 20
5.2742643616
 30
0.0
 10
6.8673941274
 20
5.2868691662
 30
0.0
 10
6.8547248382
 20
5.3004099282
 30
0.0
 10
6.8430513502
 20
5.3148180081
 30
0.0
 10
6.8324327081
 20
5.3300202344
 30
0.0
 10
6.8229226551
 20
5.3459394711
 30
0.0
 10
6.8145694097
 20
5.3624950231
 30
0.0
 10
6.807415342
 20
5.3796029837
 30
0.0
 10
6.801496538
 20
5.3971765719
 30
0.0
 10
6.7968428927
 20
5.4151266926
 30
0.0
 10
6.7934780025
 20
5.4333623852
 30
0.0
 10
6.7914189407
 20
5.4517912514
 30
0.0
 10
6.790675951
 20
5.4703199059
 30
0.0
 10
6.7912526941
 20
5.4888544833
 30
0.0
 10
6.7931462687
 20
5.5073010892
 30
0.0
 10
6.7963470967
 20
5.5255662834
 30
0.0
 10
6.8008387835
 20
5.5435576017
 30
0.0
 10
6.8065984825
 20
5.5611839638
 30
0.0
 10
6.8135970694
 20
5.5783561211
 30
0.0
 10
6.8217990527
 20
5.5949870556
 30
0.0
 10
6.8311629626
 20
5.6109929068
 30
0.0
 10
6.8416404971
 20
5.6262917905
 30
0.0
 10
6.8493346419
 20
5.6359703813
 30
0.0
 10
6.8533473504
 20
5.6406651298
 30
0.0
  0
SPLINE
  5
366
100
AcDbEntity
  8
0
100
AcDbSpline
 62
7
  6
CONTINUOUS
 70
0
 71
3
 72
10
 73
6
 74
0
 42
0.0000001
 43
0.0000001
 44
0.0000000001
 40
0.0
 40
0.0
 40
0.0
 40
0.0
 40
0.2259158984
 40
0.4722886373
 40
1.0
 40
1.0
 40
1.0
 40
1.0
 10
3.8951312751
 20
3.0332455714
 30
0.0
 10
3.9068838001
 20
3.033571618
 30
0.0
 10
3.9314542494
 20
3.0342099773
 30
0.0
 10
3.98348112
 20
3.0354528635
 30
0.0
 10
4.0237560282
 20
3.0363397379
 30
0.0
 10
4.0512123403
 20
3.0369455714
 30
0.0
  0
SPLINE
  5
367
100
AcDbEntity
  8
0
100
AcDbSpline
 62
7
  6
CONTINUOUS
 70
0
 71
3
 72
39
 73
35
 74
0
 42
0.0000001
 43
0.0000001
 44
0.0000000001
 40
0.0
 40
0.0
 40
0.0
 40
0.0
 40
0.0312486287
 40
0.0625006262
 40
0.0937498051
 40
0.1249999355
 40
0.1562499282
 40
0.1874999036
 40
0.2187499436
 40
0.2499999263
 40
0.2812498853
 40
0.3124998905
 40
0.3437499232
 40
0.3749999203
 40
0.4062498773
 40
0.4374998745
 40
0.4687499021
 40
0.4999998968
 40
0.5312498591
 40
0.5624998621
 40
0.593749891
 40
0.6249998849
 40
0.6562498558
 40
0.6874998694
 40
0.7187499083
 40
0.7499999106
 40
0.7812498848
 40
0.8124999007
 40
0.8437499458
 40
0.8749999549
 40
0.9062499311
 40
0.9374999468
 40
0.9687499914
 40
1.0
 40
1.0
 40
1.0
 40
1.0
 10
7.0512123403
 20
5.2123795715
 30
0.0
 10
7.0450624949
 20
5.2123753777
 30
0.0
 10
7.0327573458
 20
5.2128057403
 30
0.0
 10
7.0143962231
 20
5.2147632677
 30
0.0
 10
6.9962199038
 20
5.218023727
 30
0.0
 10
6.9783224304
 20
5.2225696447
 30
0.0
 10
6.9607938655
 20
5.2283785055
 30
0.0
 10
6.9437233668
 20
5.2354205135
 30
0.0
 10
6.9271974509
 20
5.2436598098
 30
0.0
 10
6.9112999902
 20
5.2530546244
 30
0.0
 10
6.8961116647
 20
5.2635573025
 30
0.0
 10
6.8817094188
 20
5.275114421
 30
0.0
 10
6.8681662337
 20
5.2876672712
 30
0.0
 10
6.8555508119
 20
5.3011521793
 30
0.0
 10
6.8439271659
 20
5.3155007729
 30
0.0
 10
6.833354094
 20
5.3306401747
 30
0.0
 10
6.8238851113
 20
5.3464935637
 30
0.0
 10
6.8155682396
 20
5.3629805593
 30
0.0
 10
6.8084456729
 20
5.3800175826
 30
0.0
 10
6.8025533435
 20
5.3975182014
 30
0.0
 10
6.7979210121
 20
5.4153936848
 30
0.0
 10
6.7945721726
 20
5.4335534341
 30
0.0
 10
6.7925238199
 20
5.4519054171
 30
0.0
 10
6.7917861464
 20
5.4703566238
 30
0.0
 10
6.7923627851
 20
5.4888135704
 30
0.0
 10
6.7942508348
 20
5.507182741
 30
0.0
 10
6.7974407443
 20
5.5253710717
 30
0.0
 10
6.8019161727
 20
5.5432864736
 30
0.0
 10
6.8076543528
 20
5.5608382382
 30
0.0
 10
6.8146262626
 20
5.5779374788
 30
0.0
 10
6.8227965401
 20
5.5944975317
 30
0.0
 10
6.8321238704
 20
5.6104348825
 30
0.0
 10
6.8425601336
 20
5.6256679881
 30
0.0
 10
6.8502237617
 20
5.6353047474
 30
0.0
 10
6.8542205063
 20
5.6399791446
 30
0.0
  0
SPLINE
  5
368
100
AcDbEntity
  8
0
100
AcDbSpline
 62
7
  6
CONTINUOUS
 70
0
 71
3
 72
39
 73
35
 74
0
 42
0.0000001
 43
0.0000001
 44
0.0000000001
 40
0.0
 40
0.0
 40
0.0
 40
0.0
 40
0.0312486579
 40
0.0625006274
 40
0.0937497952
 40
0.1249999196
 40
0.1562499436
 40
0.1874999194
 40
0.2187499113
 40
0.2499998738
 40
0.2812498949
 40
0.3124998943
 40
0.3437498632
 40
0.3749998565
 40
0.4062498876
 40
0.4374998677
 40
0.4687498373
 40
0.4999998611
 40
0.5312498869
 40
0.5624998597
 40
0.5937498447
 40
0.6249998834
 40
0.6562498883
 40
0.6874998685
 40
0.7187498807
 40
0.7499999184
 40
0.7812499
 40
0.8124999121
 40
0.8437499101
 40
0.8749999611
 40
0.9062501108
 40
0.9374993065
 40
0.9687513133
 40
1.0
 40
1.0
 40
1.0
 40
1.0
 10
7.0512123403
 20
5.2134890153
 30
0.0
 10
7.0450879929
 20
5.213484821
 30
0.0
 10
7.0328338709
 20
5.2139134214
 30
0.0
 10
7.0145489139
 20
5.2158630511
 30
0.0
 10
6.9964480474
 20
5.2191103802
 30
0.0
 10
6.9786249308
 20
5.2236380066
 30
0.0
 10
6.9611692875
 20
5.229423501
 30
0.0
 10
6.9441699374
 20
5.2364371725
 30
0.0
 10
6.9277130645
 20
5.2446433011
 30
0.0
 10
6.9118821861
 20
5.2540002685
 30
0.0
 10
6.8967576766
 20
5.2644606107
 30
0.0
 10
6.8824161892
 20
5.2759710918
 30
0.0
 10
6.8689304289
 20
5.2884732294
 30
0.0
 10
6.8563687807
 20
5.3019035851
 30
0.0
 10
6.8447950289
 20
5.3161940627
 30
0.0
 10
6.8342677387
 20
5.331272037
 30
0.0
 10
6.8248402239
 20
5.3470609889
 30
0.0
 10
6.8165602528
 20
5.3634808397
 30
0.0
 10
6.8094698885
 20
5.3804483417
 30
0.0
 10
6.803604906
 20
5.3978773671
 30
0.0
 10
6.798994949
 20
5.4156795377
 30
0.0
 10
6.7956633462
 20
5.4337646057
 30
0.0
 10
6.793627061
 20
5.4520408942
 30
0.0
 10
6.7928962237
 20
5.4704157329
 30
0.0
 10
6.7934744382
 20
5.4887960124
 30
0.0
 10
6.795358744
 20
5.5070885915
 30
0.0
 10
6.7985396504
 20
5.5252007654
 30
0.0
 10
6.8030008781
 20
5.5430407778
 30
0.0
 10
6.8087196822
 20
5.5605183092
 30
0.0
 10
6.8156671291
 20
5.5775448668
 30
0.0
 10
6.8238080217
 20
5.5940338917
 30
0.0
 10
6.8331010896
 20
5.6099028718
 30
0.0
 10
6.8434987174
 20
5.6250695852
 30
0.0
 10
6.8511333839
 20
5.6346642959
 30
0.0
 10
6.8551148199
 20
5.6393178845
 30
0.0
  0
SPLINE
  5
369
100
AcDbEntity
  8
0
100
AcDbSpline
 62
7
  6
CONTINUOUS
 70
0
 71
3
 72
26
 73
22
 74
0
 42
0.0000001
 43
0.0000001
 44
0.0000000001
 40
0.0
 40
0.0
 40
0.0
 40
0.0
 40
0.0671176126
 40
0.1341400547
 40
0.2009377588
 40
0.267397345
 40
0.3334137167
 40
0.398879656
 40
0.4636855722
 40
0.5277230048
 40
0.5908864573
 40
0.6530712123
 40
0.7141743385
 40
0.7442884276
 40
0.774094145
 40
0.8327318559
 40
0.8615403944
 40
0.8899943317
 40
0.9180819747
 40
0.945788717
 40
1.0
 40
1.0
 40
1.0
 40
1.0
 10
4.0512130683
 20
3.0012787088
 30
0.0
 10
4.0477210696
 20
3.0012787187
 30
0.0
 10
4.0407420256
 20
3.0012881221
 30
0.0
 10
4.0302876499
 20
3.0013107443
 30
0.0
 10
4.0198674835
 20
3.0013182069
 30
0.0
 10
4.0094996636
 20
3.0013135489
 30
0.0
 10
3.9992011324
 20
3.0013103092
 30
0.0
 10
3.988988638
 20
3.001311877
 30
0.0
 10
3.9788791038
 20
3.001312161
 30
0.0
 10
3.9688893646
 20
3.0013089258
 30
0.0
 10
3.9590359964
 20
3.0013090783
 30
0.0
 10
3.9493353043
 20
3.0013208571
 30
0.0
 10
3.9413540931
 20
3.0013244213
 30
0.0
 10
3.9350575132
 20
3.0013110617
 30
0.0
 10
3.9288892536
 20
3.0012856431
 30
0.0
 10
3.9227888629
 20
3.0012643625
 30
0.0
 10
3.9167587972
 20
3.0012877818
 30
0.0
 10
3.9123184708
 20
3.0013409961
 30
0.0
 10
3.9079359202
 20
3.0014219406
 30
0.0
 10
3.9022136975
 20
3.0015339643
 30
0.0
 10
3.8979517826
 20
3.0015948673
 30
0.0
 10
3.8951312751
 20
3.0015949363
 30
0.0
  0
LINE
  5
36A
100
AcDbEntity
  8
0
100
AcDbLine
 62
7
  6
CONTINUOUS
 10
6.8189203914
 20
3.0827271681
 11
6.8197189529
 21
3.0830157224
  0
SPLINE
  5
36B
100
AcDbEntity
  8
0
100
AcDbSpline
 62
7
  6
CONTINUOUS
 70
0
 71
3
 72
59
 73
55
 74
0
 42
0.0000001
 43
0.0000001
 44
0.0000000001
 40
0.0
 40
0.0
 40
0.0
 40
0.0
 40
0.0012826545
 40
0.0028411601
 40
0.0046764088
 40
0.0067885599
 40
0.0118416045
 40
0.0179921451
 40
0.0252285978
 40
0.0335353274
 40
0.0428946351
 40
0.0532855135
 40
0.0770674863
 40
0.1046677261
 40
0.1358372874
 40
0.170294551
 40
0.2077276288
 40
0.2477975423
 40
0.2901414951
 40
0.3343757793
 40
0.4268983669
 40
0.5220191303
 40
0.5694788868
 40
0.6162974954
 40
0.6620504675
 40
0.706323276
 40
0.7487148454
 40
0.7888409304
 40
0.8263381242
 40
0.8608670371
 40
0.8921150736
 40
0.9064191886
 40
0.91979982
 40
0.9322265306
 40
0.9436716677
 40
0.9541091779
 40
0.9635161702
 40
0.9718714126
 40
0.9791571734
 40
0.9853576342
 40
0.988047164
 40
0.9904611885
 40
0.9925986756
 40
0.9944592384
 40
0.9960430174
 40
0.9973508424
 40
0.9979019619
 40
0.9983852024
 40
0.9988014897
 40
0.9991523035
 40
0.9994401601
 40
0.9996696866
 40
0.9998500962
 40
1.0
 40
1.0
 40
1.0
 40
1.0
 10
6.8197189529
 20
3.0830157224
 30
0.0
 10
6.8199110617
 20
3.083066229
 30
0.0
 10
6.820340302
 20
3.0831639328
 30
0.0
 10
6.8210522204
 20
3.0832972628
 30
0.0
 10
6.8218944093
 20
3.0834310997
 30
0.0
 10
6.8232752468
 20
3.0836215736
 30
0.0
 10
6.825324551
 20
3.0838535385
 30
0.0
 10
6.8281678819
 20
3.0841199843
 30
0.0
 10
6.8315168915
 20
3.0843873625
 30
0.0
 10
6.8353641
 20
3.0846555729
 30
0.0
 10
6.8397008279
 20
3.0849242754
 30
0.0
 10
6.8464319412
 20
3.0853001648
 30
0.0
 10
6.8559873599
 20
3.0857616618
 30
0.0
 10
6.8687605482
 20
3.0862959514
 30
0.0
 10
6.8831881785
 20
3.0868315631
 30
0.0
 10
6.8991394561
 20
3.0873682286
 30
0.0
 10
6.9164697687
 20
3.0879055709
 30
0.0
 10
6.9350219743
 20
3.0884434074
 30
0.0
 10
6.9546278478
 20
3.0889816109
 30
0.0
 10
6.9823545647
 20
3.0897104618
 30
0.0
 10
7.0182528707
 20
3.0906083872
 30
0.0
 10
7.0546511076
 20
3.091494965
 30
0.0
 10
7.083973424
 20
3.0922138876
 30
0.0
 10
7.1056525602
 20
3.0927526366
 30
0.0
 10
7.1268380007
 20
3.0932912664
 30
0.0
 10
7.1473376289
 20
3.0938297191
 30
0.0
 10
7.1669655499
 20
3.0943679175
 30
0.0
 10
7.185543768
 20
3.0949057684
 30
0.0
 10
7.2029038192
 20
3.0954431158
 30
0.0
 10
7.2188882906
 20
3.0959798247
 30
0.0
 10
7.2312815204
 20
3.0964387109
 30
0.0
 10
7.2404005693
 20
3.0968094643
 30
0.0
 10
7.2466065473
 20
3.0970791446
 30
0.0
 10
7.2523693324
 20
3.0973486742
 30
0.0
 10
7.2576758072
 20
3.0976179971
 30
0.0
 10
7.2625139964
 20
3.0978870733
 30
0.0
 10
7.2668728815
 20
3.098155784
 30
0.0
 10
7.2707426861
 20
3.0984239899
 30
0.0
 10
7.2741146088
 20
3.0986915242
 30
0.0
 10
7.2766090566
 20
3.0989231295
 30
0.0
 10
7.2783494955
 20
3.0991116561
 30
0.0
 10
7.2794628223
 20
3.0992460855
 30
0.0
 10
7.2804467586
 20
3.099380287
 30
0.0
 10
7.2813008434
 20
3.0995141352
 30
0.0
 10
7.2820246799
 20
3.0996475554
 30
0.0
 10
7.2825452771
 20
3.0997636885
 30
0.0
 10
7.2828953796
 20
3.0998587779
 30
0.0
 10
7.2831098532
 20
3.0999258641
 30
0.0
 10
7.2832916639
 20
3.0999927994
 30
0.0
 10
7.2834409424
 20
3.1000595876
 30
0.0
 10
7.2835580656
 20
3.1001262652
 30
0.0
 10
7.2836434981
 20
3.1001933123
 30
0.0
 10
7.2836983073
 20
3.1002621865
 30
0.0
 10
7.2837123282
 20
3.1003136
 30
0.0
 10
7.2837123335
 20
3.1003368147
 30
0.0
  0
SPLINE
  5
36C
100
AcDbEntity
  8
0
100
AcDbSpline
 62
7
  6
CONTINUOUS
 70
0
 71
3
 72
32
 73
28
 74
0
 42
0.0000001
 43
0.0000001
 44
0.0000000001
 40
0.0
 40
0.0
 40
0.0
 40
0.0
 40
0.0005910552
 40
0.0013130831
 40
0.0031631378
 40
0.0055659637
 40
0.0085272027
 40
0.012049128
 40
0.0161317942
 40
0.0259737726
 40
0.0380381487
 40
0.0523000474
 40
0.068729546
 40
0.0872896056
 40
0.1079392539
 40
0.1306311352
 40
0.1553143853
 40
0.1819321632
 40
0.2407252916
 40
0.3064732398
 40
0.3785747404
 40
0.4563697425
 40
0.5391456073
 40
0.6261444055
 40
0.7165688821
 40
0.8095905118
 40
1.0
 40
1.0
 40
1.0
 40
1.0
 10
6.7939002019
 20
3.0682701043
 30
0.0
 10
6.7939441377
 20
3.0682954923
 30
0.0
 10
6.7940457943
 20
3.068344845
 30
0.0
 10
6.7942993671
 20
3.068442485
 30
0.0
 10
6.7947109286
 20
3.0685592608
 30
0.0
 10
6.7953159354
 20
3.0686922243
 30
0.0
 10
6.7960671993
 20
3.0688259314
 30
0.0
 10
6.7969643473
 20
3.0689603626
 30
0.0
 10
6.7984499207
 20
3.069152234
 30
0.0
 10
6.8006691685
 20
3.0693855205
 30
0.0
 10
6.8037628328
 20
3.0696531474
 30
0.0
 10
6.8074237554
 20
3.0699218451
 30
0.0
 10
6.8116435533
 20
3.0701914029
 30
0.0
 10
6.8164127038
 20
3.0704614984
 30
0.0
 10
6.8217202388
 20
3.0707319678
 30
0.0
 10
6.827554066
 20
3.0710027248
 30
0.0
 10
6.8339007653
 20
3.0712736921
 30
0.0
 10
6.8433452218
 20
3.0716477167
 30
0.0
 10
6.8563143895
 20
3.0721098649
 30
0.0
 10
6.8731880419
 20
3.07264896
 30
0.0
 10
6.8916937811
 20
3.0731888441
 30
0.0
 10
6.9116619595
 20
3.0737293506
 30
0.0
 10
6.9329095323
 20
3.0742702813
 30
0.0
 10
6.9552416997
 20
3.0748115219
 30
0.0
 10
6.978453732
 20
3.0753529867
 30
0.0
 10
7.0105418818
 20
3.0760807754
 30
0.0
 10
7.0348692065
 20
3.0766174408
 30
0.0
 10
7.0512123403
 20
3.076978058
 30
0.0
  0
SPLINE
  5
36D
100
AcDbEntity
  8
0
100
AcDbSpline
 62
7
  6
CONTINUOUS
 70
0
 71
3
 72
57
 73
53
 74
0
 42
0.0000001
 43
0.0000001
 44
0.0000000001
 40
0.0
 40
0.0
 40
0.0
 40
0.0
 40
0.0174045756
 40
0.035249261
 40
0.0443273793
 40
0.0535045808
 40
0.0627782103
 40
0.0721459393
 40
0.0816052391
 40
0.0911534432
 40
0.100787822
 40
0.1105055894
 40
0.1301794003
 40
0.1501508276
 40
0.1703956805
 40
0.1908894848
 40
0.232525299
 40
0.2748578912
 40
0.3176831961
 40
0.3607948988
 40
0.4039854106
 40
0.4897712005
 40
0.5733892261
 40
0.653230594
 40
0.6912510755
 40
0.7277586273
 40
0.7625774517
 40
0.7955397572
 40
0.8264869984
 40
0.8552703731
 40
0.8817514152
 40
0.9058028778
 40
0.9273095618
 40
0.946168631
 40
0.962290294
 40
0.9693005083
 40
0.9755990442
 40
0.9811791498
 40
0.9860345042
 40
0.9901605379
 40
0.991949141
 40
0.9935544258
 40
0.9949763143
 40
0.9962151402
 40
0.9972716778
 40
0.9981473705
 40
0.9988450178
 40
0.9993705855
 40
0.999573249
 40
0.9997402953
 40
0.9998785955
 40
1.0
 40
1.0
 40
1.0
 40
1.0
 10
3.8951312751
 20
3.0015949363
 30
0.0
 10
3.8975321306
 20
3.0016615425
 30
0.0
 10
3.9023929321
 20
3.0018521153
 30
0.0
 10
3.9085031529
 20
3.0021399252
 30
0.0
 10
3.9134802601
 20
3.0023542044
 30
0.0
 10
3.9172766488
 20
3.0024934961
 30
0.0
 10
3.9211138317
 20
3.0026082941
 30
0.0
 10
3.9249904015
 20
3.0027065422
 30
0.0
 10
3.9289051269
 20
3.0027939159
 30
0.0
 10
3.9328567542
 20
3.0028766653
 30
0.0
 10
3.936844024
 20
3.0029610471
 30
0.0
 10
3.9422280935
 20
3.0030837393
 30
0.0
 10
3.9490380093
 20
3.0032501667
 30
0.0
 10
3.9573000668
 20
3.0034572752
 30
0.0
 10
3.9656754714
 20
3.0036580919
 30
0.0
 10
3.9770398843
 20
3.0039200005
 30
0.0
 10
3.9914516558
 20
3.004246612
 30
0.0
 10
4.0089443274
 20
3.0046425632
 30
0.0
 10
4.026640788
 20
3.005035414
 30
0.0
 10
4.0444556508
 20
3.0054290178
 30
0.0
 10
4.0681975045
 20
3.0059527076
 30
0.0
 10
4.0975276924
 20
3.0066022986
 30
0.0
 10
4.1319139132
 20
3.0073833795
 30
0.0
 10
4.1597096953
 20
3.0080438865
 30
0.0
 10
4.1810055405
 20
3.0085770184
 30
0.0
 10
4.196089958
 20
3.0089702354
 30
0.0
 10
4.2104761188
 20
3.0093633151
 30
0.0
 10
4.2240946775
 20
3.0097562319
 30
0.0
 10
4.2368800023
 20
3.0101489317
 30
0.0
 10
4.2487704915
 20
3.0105413492
 30
0.0
 10
4.2597088405
 20
3.0109333866
 30
0.0
 10
4.2696423445
 20
3.0113249208
 30
0.0
 10
4.2785231784
 20
3.0117156778
 30
0.0
 10
4.2863085721
 20
3.012105471
 30
0.0
 10
4.2920934959
 20
3.0124426269
 30
0.0
 10
4.2961455471
 20
3.0127171436
 30
0.0
 10
4.2987448076
 20
3.0129130805
 30
0.0
 10
4.3010458053
 20
3.0131086018
 30
0.0
 10
4.3030458128
 20
3.0133036752
 30
0.0
 10
4.3045225324
 20
3.0134725832
 30
0.0
 10
4.3055511448
 20
3.0136100467
 30
0.0
 10
4.3062084741
 20
3.0137080515
 30
0.0
 10
4.306789023
 20
3.0138058932
 30
0.0
 10
4.3072926975
 20
3.0139035071
 30
0.0
 10
4.3077194156
 20
3.014000808
 30
0.0
 10
4.3080694614
 20
3.0140975695
 30
0.0
 10
4.3083428012
 20
3.0141937444
 30
0.0
 10
4.3085213385
 20
3.0142788817
 30
0.0
 10
4.3086225427
 20
3.0143503407
 30
0.0
 10
4.3086729323
 20
3.0143996821
 30
0.0
 10
4.3087046455
 20
3.0144502349
 30
0.0
 10
4.3087122887
 20
3.0144863045
 30
0.0
 10
4.3087122869
 20
3.014503058
 30
0.0
  0
SPLINE
  5
36E
100
AcDbEntity
  8
0
100
AcDbSpline
 62
7
  6
CONTINUOUS
 70
0
 71
3
 72
54
 73
50
 74
0
 42
0.0000001
 43
0.0000001
 44
0.0000000001
 40
0.0
 40
0.0
 40
0.0
 40
0.0
 40
0.004365465
 40
0.009789419
 40
0.0162618058
 40
0.0237695973
 40
0.0322981802
 40
0.041829493
 40
0.0638174233
 40
0.0895454858
 40
0.1187923323
 40
0.1513057208
 40
0.1868049476
 40
0.2249830888
 40
0.2655099839
 40
0.3521908071
 40
0.4438539551
 40
0.5373336642
 40
0.583745123
 40
0.6294011681
 40
0.6739065563
 40
0.7168763528
 40
0.7579388217
 40
0.7967386134
 40
0.8329402825
 40
0.8662309508
 40
0.8963229174
 40
0.9229565683
 40
0.9349037641
 40
0.9459027554
 40
0.955930294
 40
0.9649648168
 40
0.9729874415
 40
0.9799815047
 40
0.9859330081
 40
0.9885143725
 40
0.990831154
 40
0.9928826543
 40
0.9946686078
 40
0.9961891252
 40
0.9974450166
 40
0.9979744751
 40
0.9984389762
 40
0.9988394365
 40
0.9991773199
 40
0.9994551125
 40
0.9996773657
 40
0.9998530519
 40
1.0
 40
1.0
 40
1.0
 40
1.0
 10
3.8217865983
 20
2.9763118147
 30
0.0
 10
3.8224520659
 20
2.9764121512
 30
0.0
 10
3.8239492961
 20
2.9766040632
 30
0.0
 10
3.8264428669
 20
2.976863696
 30
0.0
 10
3.8294229693
 20
2.977124533
 30
0.0
 10
3.8328831305
 20
2.9773863132
 30
0.0
 10
3.836816
 20
2.9776486718
 30
0.0
 10
3.8429789082
 20
2.9780168142
 30
0.0
 10
3.8517928684
 20
2.9784681183
 30
0.0
 10
3.8636462026
 20
2.9789898237
 30
0.0
 10
3.8771234823
 20
2.9795129426
 30
0.0
 10
3.8921080629
 20
2.9800371948
 30
0.0
 10
3.9084702517
 20
2.980562159
 30
0.0
 10
3.9260683872
 20
2.9810876744
 30
0.0
 10
3.9515545361
 20
2.981804988
 30
0.0
 10
3.9852846091
 20
2.9826876295
 30
0.0
 10
4.027176636
 20
2.9837267324
 30
0.0
 10
4.0628629724
 20
2.9845951313
 30
0.0
 10
4.0914586624
 20
2.9852989001
 30
0.0
 10
4.1125064433
 20
2.9858254094
 30
0.0
 10
4.1330234843
 20
2.9863517943
 30
0.0
 10
4.1528321351
 20
2.9868779983
 30
0.0
 10
4.1717608838
 20
2.9874039503
 30
0.0
 10
4.1896458317
 20
2.9879295512
 30
0.0
 10
4.206332128
 20
2.9884546784
 30
0.0
 10
4.2216753198
 20
2.9889791055
 30
0.0
 10
4.2355425735
 20
2.9895026447
 30
0.0
 10
4.2461198271
 20
2.9899524377
 30
0.0
 10
4.2537544798
 20
2.9903169398
 30
0.0
 10
4.2588309775
 20
2.9905801342
 30
0.0
 10
4.2634578125
 20
2.9908430464
 30
0.0
 10
4.2676250112
 20
2.9911056322
 30
0.0
 10
4.2713235759
 20
2.9913676979
 30
0.0
 10
4.2745455477
 20
2.9916291329
 30
0.0
 10
4.2769286231
 20
2.991855451
 30
0.0
 10
4.2785910862
 20
2.992039667
 30
0.0
 10
4.2796544104
 20
2.9921710318
 30
0.0
 10
4.2805940999
 20
2.9923021692
 30
0.0
 10
4.2814097606
 20
2.9924329589
 30
0.0
 10
4.2821010072
 20
2.9925633302
 30
0.0
 10
4.2825980952
 20
2.9926768161
 30
0.0
 10
4.2829323286
 20
2.9927697271
 30
0.0
 10
4.2831371252
 20
2.9928352863
 30
0.0
 10
4.2833107496
 20
2.9929007038
 30
0.0
 10
4.2834533267
 20
2.9929659868
 30
0.0
 10
4.283565206
 20
2.9930311837
 30
0.0
 10
4.2836468273
 20
2.9930967656
 30
0.0
 10
4.2836990847
 20
2.9931641486
 30
0.0
 10
4.2837123415
 20
2.9932141609
 30
0.0
 10
4.2837123386
 20
2.9932368147
 30
0.0
  0
LINE
  5
36F
100
AcDbEntity
  8
0
100
AcDbLine
 62
7
  6
CONTINUOUS
 10
6.8189203587
 20
3.0470271681
 11
6.8191644514
 21
3.0471412075
  0
SPLINE
  5
370
100
AcDbEntity
  8
0
100
AcDbSpline
 62
7
  6
CONTINUOUS
 70
0
 71
3
 72
63
 73
59
 74
0
 42
0.0000001
 43
0.0000001
 44
0.0000000001
 40
0.0
 40
0.0
 40
0.0
 40
0.0
 40
0.000940857
 40
0.0021587731
 40
0.0036571731
 40
0.0054374894
 40
0.0075001621
 40
0.0098447153
 40
0.0153756324
 40
0.0220209028
 40
0.0297663359
 40
0.0385954372
 40
0.0484880775
 40
0.0594222163
 40
0.071372558
 40
0.0982105086
 40
0.1287552643
 40
0.1627253672
 40
0.1998071635
 40
0.2396581434
 40
0.2819102062
 40
0.3261727018
 40
0.3720363962
 40
0.4190774253
 40
0.4668607471
 40
0.5149444339
 40
0.5628840471
 40
0.61023626
 40
0.6565631039
 40
0.7014364076
 40
0.7444413245
 40
0.7851801862
 40
0.8232766261
 40
0.8583787503
 40
0.8901623353
 40
0.9047168795
 40
0.9183343466
 40
0.9309836755
 40
0.9426355363
 40
0.9532634842
 40
0.9628431016
 40
0.9713529419
 40
0.9787739334
 40
0.9850901876
 40
0.9878299772
 40
0.9902889704
 40
0.9924663893
 40
0.9943617648
 40
0.9959750009
 40
0.9973067942
 40
0.9978679277
 40
0.9983599021
 40
0.9987836189
 40
0.9991405344
 40
0.9994331492
 40
0.9996661009
 40
0.9998487092
 40
1.0
 40
1.0
 40
1.0
 40
1.0
 10
6.8191644514
 20
3.0471412075
 30
0.0
 10
6.8193002732
 20
3.0471944575
 30
0.0
 10
6.8196202654
 20
3.0472948798
 30
0.0
 10
6.8201715057
 20
3.0474284404
 30
0.0
 10
6.8208558702
 20
3.0475628417
 30
0.0
 10
6.8216730824
 20
3.0476978835
 30
0.0
 10
6.822622969
 20
3.0478333121
 30
0.0
 10
6.8241520459
 20
3.0480249618
 30
0.0
 10
6.826391592
 20
3.0482591963
 30
0.0
 10
6.8294688952
 20
3.048528717
 30
0.0
 10
6.8330592145
 20
3.0487991184
 30
0.0
 10
6.8371542365
 20
3.0490702044
 30
0.0
 10
6.8417446219
 20
3.0493417438
 30
0.0
 10
6.8468197184
 20
3.0496136168
 30
0.0
 10
6.8545203447
 20
3.0499912063
 30
0.0
 10
6.8652609933
 20
3.0504564428
 30
0.0
 10
6.8794156856
 20
3.0509971274
 30
0.0
 10
6.8951597655
 20
3.0515388484
 30
0.0
 10
6.9123475924
 20
3.0520813889
 30
0.0
 10
6.9308201765
 20
3.0526244728
 30
0.0
 10
6.9504066231
 20
3.0531679563
 30
0.0
 10
6.9709257211
 20
3.0537117237
 30
0.0
 10
6.992187631
 20
3.0542556922
 30
0.0
 10
7.0139956425
 20
3.0547997957
 30
0.0
 10
7.0361479842
 20
3.0553439794
 30
0.0
 10
7.0584396993
 20
3.0558881944
 30
0.0
 10
7.0806645481
 20
3.0564323945
 30
0.0
 10
7.1026169038
 20
3.0569765322
 30
0.0
 10
7.1240936585
 20
3.0575205548
 30
0.0
 10
7.1448961134
 20
3.0580644018
 30
0.0
 10
7.1648318079
 20
3.058607995
 30
0.0
 10
7.1837162969
 20
3.0591512391
 30
0.0
 10
7.2013748753
 20
3.0596939773
 30
0.0
 10
7.217644182
 20
3.0602360697
 30
0.0
 10
7.2302636713
 20
3.0606995186
 30
0.0
 10
7.2395527281
 20
3.0610739494
 30
0.0
 10
7.2458765458
 20
3.0613463538
 30
0.0
 10
7.251749841
 20
3.0616185857
 30
0.0
 10
7.2571590608
 20
3.061890632
 30
0.0
 10
7.2620916598
 20
3.0621624027
 30
0.0
 10
7.2665362721
 20
3.062433833
 30
0.0
 10
7.2704826355
 20
3.0627047219
 30
0.0
 10
7.2739216813
 20
3.0629749651
 30
0.0
 10
7.2764659786
 20
3.0632088897
 30
0.0
 10
7.2782413274
 20
3.0633993074
 30
0.0
 10
7.2793770123
 20
3.0635351008
 30
0.0
 10
7.2803807521
 20
3.0636706526
 30
0.0
 10
7.2812520754
 20
3.0638058408
 30
0.0
 10
7.2819905147
 20
3.0639405917
 30
0.0
 10
7.2825216102
 20
3.0640579051
 30
0.0
 10
7.2828787836
 20
3.0641539585
 30
0.0
 10
7.2830975936
 20
3.0642217163
 30
0.0
 10
7.2832830951
 20
3.0642893189
 30
0.0
 10
7.2834354075
 20
3.0643567679
 30
0.0
 10
7.283554906
 20
3.0644240943
 30
0.0
 10
7.283642056
 20
3.0644917806
 30
0.0
 10
7.283697995
 20
3.0645613171
 30
0.0
 10
7.2837123213
 20
3.0646133559
 30
0.0
 10
7.2837123138
 20
3.0646368147
 30
0.0
  0
SPLINE
  5
371
100
AcDbEntity
  8
0
100
AcDbSpline
 62
7
  6
CONTINUOUS
 70
0
 71
3
 72
32
 73
28
 74
0
 42
0.0000001
 43
0.0000001
 44
0.0000000001
 40
0.0
 40
0.0
 40
0.0
 40
0.0
 40
0.0005910552
 40
0.0013130831
 40
0.0031631378
 40
0.0055659637
 40
0.0085272027
 40
0.012049128
 40
0.0161317942
 40
0.0259737726
 40
0.0380381487
 40
0.0523000474
 40
0.068729546
 40
0.0872896056
 40
0.1079392539
 40
0.1306311352
 40
0.1553143853
 40
0.1819321632
 40
0.2407252916
 40
0.3064732398
 40
0.3785747404
 40
0.4563697425
 40
0.5391456073
 40
0.6261444055
 40
0.7165688821
 40
0.8095905118
 40
1.0
 40
1.0
 40
1.0
 40
1.0
 10
6.7939002019
 20
3.0325701043
 30
0.0
 10
6.7939441377
 20
3.0325954923
 30
0.0
 10
6.7940457943
 20
3.032644845
 30
0.0
 10
6.7942993671
 20
3.032742485
 30
0.0
 10
6.7947109286
 20
3.0328592608
 30
0.0
 10
6.7953159354
 20
3.0329922243
 30
0.0
 10
6.7960671993
 20
3.0331259314
 30
0.0
 10
6.7969643473
 20
3.0332603626
 30
0.0
 10
6.7984499207
 20
3.033452234
 30
0.0
 10
6.8006691685
 20
3.0336855205
 30
0.0
 10
6.8037628328
 20
3.0339531474
 30
0.0
 10
6.8074237554
 20
3.0342218451
 30
0.0
 10
6.8116435533
 20
3.0344914029
 30
0.0
 10
6.8164127038
 20
3.0347614984
 30
0.0
 10
6.8217202388
 20
3.0350319678
 30
0.0
 10
6.827554066
 20
3.0353027248
 30
0.0
 10
6.8339007653
 20
3.0355736921
 30
0.0
 10
6.8433452218
 20
3.0359477167
 30
0.0
 10
6.8563143895
 20
3.0364098649
 30
0.0
 10
6.8731880419
 20
3.03694896
 30
0.0
 10
6.8916937811
 20
3.0374888441
 30
0.0
 10
6.9116619595
 20
3.0380293506
 30
0.0
 10
6.9329095323
 20
3.0385702813
 30
0.0
 10
6.9552416997
 20
3.0391115219
 30
0.0
 10
6.978453732
 20
3.0396529867
 30
0.0
 10
7.0105418818
 20
3.0403807754
 30
0.0
 10
7.0348692065
 20
3.0409174408
 30
0.0
 10
7.0512123403
 20
3.041278058
 30
0.0
  0
SPLINE
  5
372
100
AcDbEntity
  8
0
100
AcDbSpline
 62
7
  6
CONTINUOUS
 70
0
 71
3
 72
39
 73
35
 74
0
 42
0.0000001
 43
0.0000001
 44
0.0000000001
 40
0.0
 40
0.0
 40
0.0
 40
0.0
 40
0.0312481673
 40
0.0625000701
 40
0.0937488772
 40
0.1249987651
 40
0.1562485738
 40
0.1874982899
 40
0.2187480998
 40
0.2499979567
 40
0.281247779
 40
0.3124976423
 40
0.3437475738
 40
0.3749974974
 40
0.4062474174
 40
0.4374973948
 40
0.4687474175
 40
0.4999973921
 40
0.5312474123
 40
0.5624974897
 40
0.5937475441
 40
0.6249976125
 40
0.6562477217
 40
0.6874978538
 40
0.7187479702
 40
0.7499981118
 40
0.7812483011
 40
0.8124984808
 40
0.8437486268
 40
0.874998995
 40
0.9062492248
 40
0.9374986212
 40
0.9687515253
 40
1.0
 40
1.0
 40
1.0
 40
1.0
 10
4.1830263651
 20
5.2834721841
 30
0.0
 10
4.1877949317
 20
5.286505543
 30
0.0
 10
4.1971116988
 20
5.292928173
 30
0.0
 10
4.2103363337
 20
5.3035627639
 30
0.0
 10
4.2227450779
 20
5.3151406765
 30
0.0
 10
4.2342729549
 20
5.3275949141
 30
0.0
 10
4.2448616235
 20
5.3408570729
 30
0.0
 10
4.2544579879
 20
5.3548538546
 30
0.0
 10
4.2630148049
 20
5.3695091701
 30
0.0
 10
4.2704905194
 20
5.3847442802
 30
0.0
 10
4.2768496601
 20
5.4004781074
 30
0.0
 10
4.28206305
 20
5.4166277129
 30
0.0
 10
4.2861075575
 20
5.4331088775
 30
0.0
 10
4.2889660375
 20
5.4498364977
 30
0.0
 10
4.2906277515
 20
5.4667249563
 30
0.0
 10
4.2910881478
 20
5.4836886512
 30
0.0
 10
4.2903485686
 20
5.5006423959
 30
0.0
 10
4.2884162026
 20
5.5175018072
 30
0.0
 10
4.2853044033
 20
5.5341837674
 30
0.0
 10
4.2810320964
 20
5.5506068065
 30
0.0
 10
4.2756234825
 20
5.5666913739
 30
0.0
 10
4.269108249
 20
5.5823603068
 30
0.0
 10
4.2615213009
 20
5.5975392265
 30
0.0
 10
4.2529021713
 20
5.6121566728
 30
0.0
 10
4.2432948903
 20
5.6261444101
 30
0.0
 10
4.2327480981
 20
5.6394379934
 30
0.0
 10
4.2213143063
 20
5.6519767523
 30
0.0
 10
4.2090495646
 20
5.6637038882
 30
0.0
 10
4.1960135301
 20
5.6745671145
 30
0.0
 10
4.1822688922
 20
5.6845185545
 30
0.0
 10
4.1678811894
 20
5.6935147291
 30
0.0
 10
4.1529175002
 20
5.7015175784
 30
0.0
 10
4.1374490953
 20
5.7084922429
 30
0.0
 10
4.1268456063
 20
5.7124389115
 30
0.0
 10
4.1214857648
 20
5.7142314574
 30
0.0
  0
SPLINE
  5
373
100
AcDbEntity
  8
0
100
AcDbSpline
 62
7
  6
CONTINUOUS
 70
0
 71
3
 72
43
 73
39
 74
0
 42
0.0000001
 43
0.0000001
 44
0.0000000001
 40
0.0
 40
0.0
 40
0.0
 40
0.0
 40
0.031248875
 40
0.0468783618
 40
0.0625069891
 40
0.0937558172
 40
0.1250046067
 40
0.140633737
 40
0.1562628529
 40
0.1875116209
 40
0.2187604503
 40
0.250009247
 40
0.2812580385
 40
0.3125068689
 40
0.3437556556
 40
0.3750044798
 40
0.4062533006
 40
0.437502094
 40
0.4687509439
 40
0.4999997563
 40
0.5312485658
 40
0.5624974199
 40
0.593746224
 40
0.624995056
 40
0.6562438974
 40
0.6874927081
 40
0.7187415675
 40
0.7499903923
 40
0.7812392272
 40
0.8124880998
 40
0.8437369146
 40
0.8593660413
 40
0.8749951822
 40
0.9062440279
 40
0.9374929129
 40
0.9531215537
 40
0.9687510608
 40
1.0
 40
1.0
 40
1.0
 40
1.0
 10
4.0512123403
 20
5.207941796
 30
0.0
 10
4.0425879512
 20
5.2079360138
 30
0.0
 10
4.0296377596
 20
5.2085641997
 30
0.0
 10
4.0125101654
 20
5.2106675584
 30
0.0
 10
3.9955050607
 20
5.213609262
 30
0.0
 10
3.9745511179
 20
5.2188478799
 30
0.0
 10
3.9542121771
 20
5.226117761
 30
0.0
 10
3.9384333592
 20
5.2331068966
 30
0.0
 10
3.9230166189
 20
5.2408618047
 30
0.0
 10
3.9044873811
 20
5.251962511
 30
0.0
 10
3.8836712587
 20
5.2673966929
 30
0.0
 10
3.8644681341
 20
5.2847986384
 30
0.0
 10
3.8470644503
 20
5.3039997535
 30
0.0
 10
3.8316274712
 20
5.3248150008
 30
0.0
 10
3.8183059596
 20
5.3470436149
 30
0.0
 10
3.8072281349
 20
5.3704712821
 30
0.0
 10
3.798500591
 20
5.3948721739
 30
0.0
 10
3.7922072708
 20
5.420011143
 30
0.0
 10
3.7884086338
 20
5.445645955
 30
0.0
 10
3.7871411003
 20
5.471529667
 30
0.0
 10
3.7884167249
 20
5.4974129771
 30
0.0
 10
3.7922230434
 20
5.5230466364
 30
0.0
 10
3.7985232431
 20
5.5481838615
 30
0.0
 10
3.8072565158
 20
5.5725826744
 30
0.0
 10
3.8183386251
 20
5.5960082766
 30
0.0
 10
3.8316627606
 20
5.6182352705
 30
0.0
 10
3.8471005763
 20
5.6390498384
 30
0.0
 10
3.8645032871
 20
5.6582517622
 30
0.0
 10
3.8837037192
 20
5.6756565861
 30
0.0
 10
3.9045156495
 20
5.6910963097
 30
0.0
 10
3.9230404084
 20
5.7022043395
 30
0.0
 10
3.9384532423
 20
5.7099670099
 30
0.0
 10
3.9542280195
 20
5.7169652685
 30
0.0
 10
3.9745618304
 20
5.7242492316
 30
0.0
 10
3.9955111555
 20
5.7295058883
 30
0.0
 10
4.0125133182
 20
5.7324645524
 30
0.0
 10
4.0296386164
 20
5.734586595
 30
0.0
 10
4.0425879335
 20
5.7352307854
 30
0.0
 10
4.0512123403
 20
5.7352365554
 30
0.0
  0
SPLINE
  5
374
100
AcDbEntity
  8
0
100
AcDbSpline
 62
7
  6
CONTINUOUS
 70
0
 71
3
 72
43
 73
39
 74
0
 42
0.0000001
 43
0.0000001
 44
0.0000000001
 40
0.0
 40
0.0
 40
0.0
 40
0.0
 40
0.0312488698
 40
0.0468783586
 40
0.0625069945
 40
0.0937558349
 40
0.1250045973
 40
0.1406337353
 40
0.156262874
 40
0.1875116615
 40
0.2187604455
 40
0.2500092889
 40
0.2812580787
 40
0.3125068675
 40
0.3437557042
 40
0.3750044888
 40
0.4062532973
 40
0.4375021369
 40
0.4687509239
 40
0.4999997476
 40
0.5312485828
 40
0.5624973751
 40
0.5937462185
 40
0.6249950532
 40
0.6562438542
 40
0.6874927105
 40
0.7187415373
 40
0.7499903543
 40
0.7812392299
 40
0.8124880606
 40
0.843736891
 40
0.8593660384
 40
0.874995187
 40
0.9062440074
 40
0.9374929051
 40
0.9531215547
 40
0.9687510643
 40
1.0
 40
1.0
 40
1.0
 40
1.0
 10
7.0512123403
 20
5.7307987799
 30
0.0
 10
7.0597097062
 20
5.7308045621
 30
0.0
 10
7.0724691705
 20
5.7301857465
 30
0.0
 10
7.0893445245
 20
5.7281135045
 30
0.0
 10
7.1060992025
 20
5.7252152504
 30
0.0
 10
7.1267445642
 20
5.7200539216
 30
0.0
 10
7.1467839846
 20
5.7128912157
 30
0.0
 10
7.1623304399
 20
5.7060050849
 30
0.0
 10
7.1775201599
 20
5.6983644426
 30
0.0
 10
7.1957765285
 20
5.6874272851
 30
0.0
 10
7.2162860991
 20
5.6722204537
 30
0.0
 10
7.235206415
 20
5.6550748277
 30
0.0
 10
7.2523537834
 20
5.6361565167
 30
0.0
 10
7.2675633909
 20
5.6156478283
 30
0.0
 10
7.2806886782
 20
5.593746598
 30
0.0
 10
7.291603316
 20
5.5706639636
 30
0.0
 10
7.3002022673
 20
5.5466224361
 30
0.0
 10
7.3064028498
 20
5.5218537148
 30
0.0
 10
7.3101454839
 20
5.4965964503
 30
0.0
 10
7.3113942808
 20
5.4710939627
 30
0.0
 10
7.3101373918
 20
5.4455918767
 30
0.0
 10
7.3063870778
 20
5.4203357623
 30
0.0
 10
7.3001796137
 20
5.395568783
 30
0.0
 10
7.291574932
 20
5.3715293331
 30
0.0
 10
7.280656009
 20
5.3484487613
 30
0.0
 10
7.2675280961
 20
5.3265491513
 30
0.0
 10
7.2523176513
 20
5.3060411438
 30
0.0
 10
7.2351712569
 20
5.2871220249
 30
0.0
 10
7.2162536348
 20
5.2699735233
 30
0.0
 10
7.1957482578
 20
5.2547611518
 30
0.0
 10
7.1774963691
 20
5.2438166712
 30
0.0
 10
7.1623105572
 20
5.2361682676
 30
0.0
 10
7.1467681431
 20
5.2292730138
 30
0.0
 10
7.1267338524
 20
5.222096226
 30
0.0
 10
7.1060931084
 20
5.2169168582
 30
0.0
 10
7.0893413724
 20
5.2140016436
 30
0.0
 10
7.0724683141
 20
5.2119107177
 30
0.0
 10
7.0597097241
 20
5.2112758975
 30
0.0
 10
7.0512123403
 20
5.2112701276
 30
0.0
  0
SPLINE
  5
375
100
AcDbEntity
  8
0
100
AcDbSpline
 62
7
  6
CONTINUOUS
 70
0
 71
3
 72
43
 73
39
 74
0
 42
0.0000001
 43
0.0000001
 44
0.0000000001
 40
0.0
 40
0.0
 40
0.0
 40
0.0
 40
0.0312488675
 40
0.0468783533
 40
0.0625069847
 40
0.0937558156
 40
0.1250045821
 40
0.1406337162
 40
0.1562628422
 40
0.1875116088
 40
0.218760415
 40
0.2500092429
 40
0.2812580154
 40
0.3125068325
 40
0.3437556564
 40
0.3750044341
 40
0.4062532685
 40
0.437502095
 40
0.4687508815
 40
0.4999997256
 40
0.531248552
 40
0.5624973469
 40
0.5937461983
 40
0.6249950182
 40
0.6562438261
 40
0.6874926919
 40
0.7187415101
 40
0.7499903365
 40
0.7812392216
 40
0.8124880519
 40
0.8437368862
 40
0.8593660358
 40
0.874995186
 40
0.906244009
 40
0.9374929058
 40
0.9531215549
 40
0.9687510643
 40
1.0
 40
1.0
 40
1.0
 40
1.0
 10
7.0512123403
 20
5.729689336
 30
0.0
 10
7.0596734137
 20
5.7296951182
 30
0.0
 10
7.0723783832
 20
5.72907898
 30
0.0
 10
7.0891816655
 20
5.7270156288
 30
0.0
 10
7.1058647868
 20
5.7241297906
 30
0.0
 10
7.1264219805
 20
5.7189905456
 30
0.0
 10
7.1463758224
 20
5.7118584634
 30
0.0
 10
7.1618558854
 20
5.7050017649
 30
0.0
 10
7.1769807306
 20
5.697393778
 30
0.0
 10
7.1951591346
 20
5.6865033509
 30
0.0
 10
7.2155811181
 20
5.671361485
 30
0.0
 10
7.2344206325
 20
5.6542890983
 30
0.0
 10
7.2514947676
 20
5.6354515904
 30
0.0
 10
7.2666394178
 20
5.6150304961
 30
0.0
 10
7.279708647
 20
5.5932228017
 30
0.0
 10
7.2905766613
 20
5.5702387469
 30
0.0
 10
7.29913888
 20
5.5462998956
 30
0.0
 10
7.3053129699
 20
5.5216369544
 30
0.0
 10
7.3090396038
 20
5.4964875586
 30
0.0
 10
7.3102830542
 20
5.4710939875
 30
0.0
 10
7.3090315184
 20
5.4457008167
 30
0.0
 10
7.3052972061
 20
5.4205525721
 30
0.0
 10
7.299116242
 20
5.3958913759
 30
0.0
 10
7.2905483013
 20
5.3719546009
 30
0.0
 10
7.2796760038
 20
5.3489726091
 30
0.0
 10
7.2666041555
 20
5.3271665318
 30
0.0
 10
7.2514586722
 20
5.3067461111
 30
0.0
 10
7.2343855101
 20
5.2879077908
 30
0.0
 10
7.2155486874
 20
5.2708325192
 30
0.0
 10
7.1951308946
 20
5.2556851048
 30
0.0
 10
7.1769569675
 20
5.2447873511
 30
0.0
 10
7.1618360203
 20
5.2371715959
 30
0.0
 10
7.1463599942
 20
5.2303057712
 30
0.0
 10
7.1264112794
 20
5.223159605
 30
0.0
 10
7.1058587008
 20
5.2180023196
 30
0.0
 10
7.0891785176
 20
5.2150995198
 30
0.0
 10
7.0723775287
 20
5.2130174843
 30
0.0
 10
7.0596734321
 20
5.2123853413
 30
0.0
 10
7.0512123403
 20
5.2123795715
 30
0.0
  0
SPLINE
  5
376
100
AcDbEntity
  8
0
100
AcDbSpline
 62
7
  6
CONTINUOUS
 70
0
 71
3
 72
22
 73
18
 74
0
 42
0.0000001
 43
0.0000001
 44
0.0000000001
 40
0.0
 40
0.0
 40
0.0
 40
0.0
 40
0.1791197601
 40
0.3523195862
 40
0.5142977987
 40
0.5894996649
 40
0.6600533884
 40
0.7254071339
 40
0.7850472647
 40
0.8385029124
 40
0.8853495649
 40
0.9252130362
 40
0.9577732175
 40
0.9712300692
 40
0.9827684609
 40
0.9923648553
 40
1.0
 40
1.0
 40
1.0
 40
1.0
 10
4.0512123389
 20
2.9813836114
 30
0.0
 10
4.0375114139
 20
2.9811758738
 30
0.0
 10
4.0105623963
 20
2.9807662581
 30
0.0
 10
3.9712239535
 20
2.9801468347
 30
0.0
 10
3.9398346961
 20
2.9796183878
 30
0.0
 10
3.9162972638
 20
2.9791882592
 30
0.0
 10
3.900150653
 20
2.9788735029
 30
0.0
 10
3.8851947444
 20
2.978558667
 30
0.0
 10
3.8715471343
 20
2.978243881
 30
0.0
 10
3.8593157109
 20
2.9779293123
 30
0.0
 10
3.8485977132
 20
2.9776154502
 30
0.0
 10
3.839478977
 20
2.9773024945
 30
0.0
 10
3.8329147409
 20
2.9770295387
 30
0.0
 10
3.8285175441
 20
2.9768041409
 30
0.0
 10
3.8258759604
 20
2.9766465303
 30
0.0
 10
3.8236806443
 20
2.9764896582
 30
0.0
 10
3.8223674538
 20
2.9763731202
 30
0.0
 10
3.8217865983
 20
2.9763118147
 30
0.0
  0
SPLINE
  5
377
100
AcDbEntity
  8
0
100
AcDbSpline
 62
7
  6
CONTINUOUS
 70
0
 71
3
 72
43
 73
39
 74
0
 42
0.0000001
 43
0.0000001
 44
0.0000000001
 40
0.0
 40
0.0
 40
0.0
 40
0.0
 40
0.0680635402
 40
0.1429914513
 40
0.2232356393
 40
0.3071386284
 40
0.3929662862
 40
0.4789454046
 40
0.5632989786
 40
0.6442841876
 40
0.6829870207
 40
0.7202276119
 40
0.7558134236
 40
0.7895604919
 40
0.8212943912
 40
0.8508511313
 40
0.8780780562
 40
0.9028347464
 40
0.9249936977
 40
0.944440991
 40
0.9610770997
 40
0.9683141692
 40
0.9748180523
 40
0.98058115
 40
0.985596351
 40
0.9898584871
 40
0.9917060194
 40
0.9933640308
 40
0.9948324027
 40
0.9961114329
 40
0.9972018032
 40
0.9981048453
 40
0.9988232125
 40
0.999362698
 40
0.9995697248
 40
0.9997393947
 40
0.9998786989
 40
1.0
 40
1.0
 40
1.0
 40
1.0
 10
7.2232718641
 20
3.1125034033
 30
0.0
 10
7.213521149
 20
3.1122142154
 30
0.0
 10
7.1930351365
 20
3.1116470769
 30
0.0
 10
7.1610507144
 20
3.1108403728
 30
0.0
 10
7.1267955129
 20
3.1100323517
 30
0.0
 10
7.0909777489
 20
3.1092235179
 30
0.0
 10
7.0543378491
 20
3.1084143031
 30
0.0
 10
7.0176333554
 20
3.1076050664
 30
0.0
 10
6.9816230551
 20
3.1067961215
 30
0.0
 10
6.9523873807
 20
3.1061127254
 30
0.0
 10
6.9299028208
 20
3.1055609982
 30
0.0
 10
6.9139234183
 20
3.1051535655
 30
0.0
 10
6.8986545224
 20
3.1047462713
 30
0.0
 10
6.8841751462
 20
3.1043391458
 30
0.0
 10
6.8705602225
 20
3.1039322434
 30
0.0
 10
6.8578802139
 20
3.1035256318
 30
0.0
 10
6.8462007313
 20
3.103119412
 30
0.0
 10
6.835582193
 20
3.1027137147
 30
0.0
 10
6.8260795034
 20
3.1023088218
 30
0.0
 10
6.817741819
 20
3.1019049274
 30
0.0
 10
6.8115427611
 20
3.1015556173
 30
0.0
 10
6.8071983294
 20
3.1012712
 30
0.0
 10
6.8044103236
 20
3.1010681653
 30
0.0
 10
6.8019416582
 20
3.1008655631
 30
0.0
 10
6.7997954757
 20
3.1006634234
 30
0.0
 10
6.7982105498
 20
3.1004884028
 30
0.0
 10
6.7971063903
 20
3.1003459587
 30
0.0
 10
6.7964007566
 20
3.1002444039
 30
0.0
 10
6.7957775157
 20
3.1001430187
 30
0.0
 10
6.795236779
 20
3.100041876
 30
0.0
 10
6.7947786538
 20
3.0999410619
 30
0.0
 10
6.7944028709
 20
3.0998408301
 30
0.0
 10
6.7941094985
 20
3.099741223
 30
0.0
 10
6.7939177902
 20
3.0996530727
 30
0.0
 10
6.7938089619
 20
3.0995789629
 30
0.0
 10
6.7937548618
 20
3.0995279038
 30
0.0
 10
6.7937207018
 20
3.0994755468
 30
0.0
 10
6.7937123974
 20
3.0994379566
 30
0.0
 10
6.7937123963
 20
3.0994205714
 30
0.0
  0
SPLINE
  5
378
100
AcDbEntity
  8
0
100
AcDbSpline
 62
7
  6
CONTINUOUS
 70
0
 71
3
 72
32
 73
28
 74
0
 42
0.0000001
 43
0.0000001
 44
0.0000000001
 40
0.0
 40
0.0
 40
0.0
 40
0.0
 40
0.1904095063
 40
0.2834311753
 40
0.3738555808
 40
0.4608544288
 40
0.5436303415
 40
0.6214252415
 40
0.6935268059
 40
0.7592747611
 40
0.8180678124
 40
0.8446856247
 40
0.8693689194
 40
0.8920607995
 40
0.9127104187
 40
0.9312704508
 40
0.9476999406
 40
0.9619618674
 40
0.9740262737
 40
0.9838682422
 40
0.9879508963
 40
0.9914728126
 40
0.9944340471
 40
0.9968368704
 40
0.9986869221
 40
0.9994089475
 40
1.0
 40
1.0
 40
1.0
 40
1.0
 10
7.0512123403
 20
3.0369455714
 30
0.0
 10
7.0675554756
 20
3.0373061887
 30
0.0
 10
7.0918828052
 20
3.0378428541
 30
0.0
 10
7.1239709538
 20
3.0385706428
 30
0.0
 10
7.1471829876
 20
3.0391121077
 30
0.0
 10
7.1695151573
 20
3.0396533484
 30
0.0
 10
7.1907627297
 20
3.040194279
 30
0.0
 10
7.2107309088
 20
3.0407347856
 30
0.0
 10
7.2292366453
 20
3.0412746696
 30
0.0
 10
7.2461102971
 20
3.0418137647
 30
0.0
 10
7.2590794618
 20
3.0422759128
 30
0.0
 10
7.2685239184
 20
3.0426499375
 30
0.0
 10
7.2748706243
 20
3.042920905
 30
0.0
 10
7.2807044527
 20
3.0431916621
 30
0.0
 10
7.2860119828
 20
3.0434621314
 30
0.0
 10
7.2907811276
 20
3.0437322264
 30
0.0
 10
7.2950009249
 20
3.0440017843
 30
0.0
 10
7.2986618516
 20
3.0442704825
 30
0.0
 10
7.3017555202
 20
3.0445381096
 30
0.0
 10
7.3039747686
 20
3.0447713963
 30
0.0
 10
7.3054603393
 20
3.0449632676
 30
0.0
 10
7.3063574851
 20
3.0450976987
 30
0.0
 10
7.3071087478
 20
3.0452314054
 30
0.0
 10
7.3077137537
 20
3.0453643686
 30
0.0
 10
7.3081253145
 20
3.0454811443
 30
0.0
 10
7.3083788865
 20
3.0455787844
 30
0.0
 10
7.3084805426
 20
3.0456281371
 30
0.0
 10
7.3085244781
 20
3.0456535251
 30
0.0
  0
SPLINE
  5
379
100
AcDbEntity
  8
0
100
AcDbSpline
 62
7
  6
CONTINUOUS
 70
0
 71
3
 72
39
 73
35
 74
0
 42
0.0000001
 43
0.0000001
 44
0.0000000001
 40
0.0
 40
0.0
 40
0.0
 40
0.0
 40
0.0979061818
 40
0.1948693356
 40
0.2899571787
 40
0.3822538796
 40
0.4708713542
 40
0.5549565423
 40
0.6337007138
 40
0.7063461602
 40
0.7721944693
 40
0.8023693935
 40
0.8306131843
 40
0.8568583438
 40
0.8810417321
 40
0.903105977
 40
0.9229981071
 40
0.9406715844
 40
0.9560844666
 40
0.9692021653
 40
0.9748909283
 40
0.9799956719
 40
0.9845143794
 40
0.9884454007
 40
0.9917878295
 40
0.9945427817
 40
0.995701132
 40
0.9967144384
 40
0.997584143
 40
0.9983126496
 40
0.9989042368
 40
0.9993672415
 40
0.999719338
 40
1.0
 40
1.0
 40
1.0
 40
1.0
 10
7.0512123403
 20
3.041278058
 30
0.0
 10
7.0596255065
 20
3.0414636976
 30
0.0
 10
7.0763708037
 20
3.0418331857
 30
0.0
 10
7.1012869677
 20
3.0423882624
 30
0.0
 10
7.125720868
 20
3.0429432302
 30
0.0
 10
7.1494372567
 20
3.0434980274
 30
0.0
 10
7.1722076862
 20
3.0440525711
 30
0.0
 10
7.1938128991
 20
3.0446067641
 30
0.0
 10
7.2140448249
 20
3.0451604443
 30
0.0
 10
7.2327086458
 20
3.0457134687
 30
0.0
 10
7.2471983516
 20
3.0461861655
 30
0.0
 10
7.2578725061
 20
3.046568081
 30
0.0
 10
7.2651442195
 20
3.0468459948
 30
0.0
 10
7.2719005547
 20
3.0471237362
 30
0.0
 10
7.2781252721
 20
3.0474012852
 30
0.0
 10
7.2838033604
 20
3.0476785524
 30
0.0
 10
7.288921196
 20
3.0479554748
 30
0.0
 10
7.2934664466
 20
3.0482318348
 30
0.0
 10
7.2974282416
 20
3.0485075437
 30
0.0
 10
7.3003598802
 20
3.0487461816
 30
0.0
 10
7.3024059182
 20
3.0489404701
 30
0.0
 10
7.3037147521
 20
3.0490790044
 30
0.0
 10
7.3048715899
 20
3.0492172851
 30
0.0
 10
7.3058758006
 20
3.0493551802
 30
0.0
 10
7.3067268126
 20
3.049492634
 30
0.0
 10
7.3073390898
 20
3.049612305
 30
0.0
 10
7.3077510978
 20
3.0497103451
 30
0.0
 10
7.308003276
 20
3.0497794375
 30
0.0
 10
7.308217014
 20
3.049848339
 30
0.0
 10
7.3083924012
 20
3.0499170388
 30
0.0
 10
7.3085299067
 20
3.0499854764
 30
0.0
 10
7.3086300085
 20
3.0500541629
 30
0.0
 10
7.308694888
 20
3.050124444
 30
0.0
 10
7.3087122865
 20
3.0501789346
 30
0.0
 10
7.3087122865
 20
3.050203058
 30
0.0
  0
SPLINE
  5
37A
100
AcDbEntity
  8
0
100
AcDbSpline
 62
7
  6
CONTINUOUS
 70
0
 71
3
 72
32
 73
28
 74
0
 42
0.0000001
 43
0.0000001
 44
0.0000000001
 40
0.0
 40
0.0
 40
0.0
 40
0.0
 40
0.1904095059
 40
0.2834311719
 40
0.3738555819
 40
0.460854427
 40
0.5436303316
 40
0.6214252456
 40
0.6935268189
 40
0.7592747787
 40
0.8180678273
 40
0.8446856391
 40
0.8693689346
 40
0.8920608155
 40
0.9127104344
 40
0.9312704634
 40
0.9476999491
 40
0.9619618728
 40
0.974026276
 40
0.9838682425
 40
0.9879508958
 40
0.9914728111
 40
0.9944340457
 40
0.9968368699
 40
0.9986869223
 40
0.9994089477
 40
1.0
 40
1.0
 40
1.0
 40
1.0
 10
7.0512123403
 20
3.0726455714
 30
0.0
 10
7.0675554756
 20
3.0730061887
 30
0.0
 10
7.0918828049
 20
3.0735428541
 30
0.0
 10
7.1239709535
 20
3.0742706428
 30
0.0
 10
7.1471829873
 20
3.0748121077
 30
0.0
 10
7.1695151563
 20
3.0753533483
 30
0.0
 10
7.190762729
 20
3.075894279
 30
0.0
 10
7.2107309094
 20
3.0764347856
 30
0.0
 10
7.2292366483
 20
3.0769746697
 30
0.0
 10
7.246110301
 20
3.0775137648
 30
0.0
 10
7.2590794658
 20
3.077975913
 30
0.0
 10
7.2685239221
 20
3.0783499377
 30
0.0
 10
7.2748706282
 20
3.0786209052
 30
0.0
 10
7.2807044567
 20
3.0788916623
 30
0.0
 10
7.2860119866
 20
3.0791621316
 30
0.0
 10
7.2907811308
 20
3.0794322266
 30
0.0
 10
7.2950009271
 20
3.0797017844
 30
0.0
 10
7.298661853
 20
3.0799704826
 30
0.0
 10
7.3017555208
 20
3.0802381096
 30
0.0
 10
7.3039747688
 20
3.0804713963
 30
0.0
 10
7.3054603391
 20
3.0806632676
 30
0.0
 10
7.3063574848
 20
3.0807976986
 30
0.0
 10
7.3071087474
 20
3.0809314054
 30
0.0
 10
7.3077137535
 20
3.0810643686
 30
0.0
 10
7.3081253145
 20
3.0811811442
 30
0.0
 10
7.3083788865
 20
3.0812787843
 30
0.0
 10
7.3084805425
 20
3.0813281371
 30
0.0
 10
7.308524478
 20
3.0813535251
 30
0.0
  0
SPLINE
  5
37B
100
AcDbEntity
  8
0
100
AcDbSpline
 62
7
  6
CONTINUOUS
 70
0
 71
3
 72
39
 73
35
 74
0
 42
0.0000001
 43
0.0000001
 44
0.0000000001
 40
0.0
 40
0.0
 40
0.0
 40
0.0
 40
0.0979061818
 40
0.1948693356
 40
0.2899571787
 40
0.3822538796
 40
0.4708713542
 40
0.5549565423
 40
0.6337007138
 40
0.7063461602
 40
0.7721944693
 40
0.8023693935
 40
0.8306131843
 40
0.8568583438
 40
0.8810417321
 40
0.903105977
 40
0.9229981071
 40
0.9406715844
 40
0.9560844666
 40
0.9692021653
 40
0.9748909283
 40
0.9799956719
 40
0.9845143794
 40
0.9884454007
 40
0.9917878295
 40
0.9945427817
 40
0.995701132
 40
0.9967144384
 40
0.997584143
 40
0.9983126496
 40
0.9989042368
 40
0.9993672415
 40
0.999719338
 40
1.0
 40
1.0
 40
1.0
 40
1.0
 10
7.0512123403
 20
3.076978058
 30
0.0
 10
7.0596255065
 20
3.0771636976
 30
0.0
 10
7.0763708037
 20
3.0775331857
 30
0.0
 10
7.1012869677
 20
3.0780882624
 30
0.0
 10
7.125720868
 20
3.0786432302
 30
0.0
 10
7.1494372567
 20
3.0791980274
 30
0.0
 10
7.1722076862
 20
3.0797525711
 30
0.0
 10
7.1938128991
 20
3.0803067641
 30
0.0
 10
7.2140448249
 20
3.0808604443
 30
0.0
 10
7.2327086458
 20
3.0814134687
 30
0.0
 10
7.2471983516
 20
3.0818861655
 30
0.0
 10
7.2578725061
 20
3.082268081
 30
0.0
 10
7.2651442195
 20
3.0825459948
 30
0.0
 10
7.2719005547
 20
3.0828237362
 30
0.0
 10
7.2781252721
 20
3.0831012852
 30
0.0
 10
7.2838033604
 20
3.0833785524
 30
0.0
 10
7.288921196
 20
3.0836554748
 30
0.0
 10
7.2934664466
 20
3.0839318348
 30
0.0
 10
7.2974282416
 20
3.0842075437
 30
0.0
 10
7.3003598802
 20
3.0844461816
 30
0.0
 10
7.3024059182
 20
3.0846404701
 30
0.0
 10
7.3037147521
 20
3.0847790044
 30
0.0
 10
7.3048715899
 20
3.0849172851
 30
0.0
 10
7.3058758006
 20
3.0850551802
 30
0.0
 10
7.3067268126
 20
3.085192634
 30
0.0
 10
7.3073390898
 20
3.085312305
 30
0.0
 10
7.3077510978
 20
3.0854103451
 30
0.0
 10
7.308003276
 20
3.0854794375
 30
0.0
 10
7.308217014
 20
3.085548339
 30
0.0
 10
7.3083924012
 20
3.0856170388
 30
0.0
 10
7.3085299067
 20
3.0856854764
 30
0.0
 10
7.3086300085
 20
3.0857541629
 30
0.0
 10
7.308694888
 20
3.085824444
 30
0.0
 10
7.3087122865
 20
3.0858789346
 30
0.0
 10
7.3087122865
 20
3.085903058
 30
0.0
  0
SPLINE
  5
37C
100
AcDbEntity
  8
0
100
AcDbSpline
 62
7
  6
CONTINUOUS
 70
0
 71
3
 72
63
 73
59
 74
0
 42
0.0000001
 43
0.0000001
 44
0.0000000001
 40
0.0
 40
0.0
 40
0.0
 40
0.0
 40
0.000151263
 40
0.0003338059
 40
0.0005666049
 40
0.0008590017
 40
0.0012156783
 40
0.0016391783
 40
0.002130951
 40
0.0026918643
 40
0.004023019
 40
0.005635234
 40
0.0075294835
 40
0.0097058285
 40
0.0121635599
 40
0.0149017081
 40
0.021214494
 40
0.0286314465
 40
0.0371366615
 40
0.0467111572
 40
0.0573333305
 40
0.0689790146
 40
0.0816215622
 40
0.0952320257
 40
0.1097790132
 40
0.1415465674
 40
0.1766313984
 40
0.2147099366
 40
0.2554305115
 40
0.2984169375
 40
0.343272308
 40
0.3895820956
 40
0.4369182407
 40
0.4848435312
 40
0.5329150361
 40
0.5806883408
 40
0.6277221552
 40
0.6735818609
 40
0.7178435328
 40
0.760098365
 40
0.7999560845
 40
0.837048455
 40
0.8710331372
 40
0.9015967211
 40
0.928457541
 40
0.9404208743
 40
0.9513688475
 40
0.9612765147
 40
0.9701213938
 40
0.9778837671
 40
0.9845465639
 40
0.9900961362
 40
0.9924500933
 40
0.9945224512
 40
0.9963128071
 40
0.9978212515
 40
0.9990491372
 40
1.0
 40
1.0
 40
1.0
 40
1.0
 10
6.8187123898
 20
3.0849868147
 30
0.0
 10
6.8187123948
 20
3.0850102685
 30
0.0
 10
6.8187267329
 20
3.0850622821
 30
0.0
 10
6.8187826278
 20
3.0851317959
 30
0.0
 10
6.818869697
 20
3.085199471
 30
0.0
 10
6.8189890908
 20
3.0852667825
 30
0.0
 10
6.8191412912
 20
3.0853342147
 30
0.0
 10
6.8193266861
 20
3.0854017951
 30
0.0
 10
6.8195453921
 20
3.0854695303
 30
0.0
 10
6.8199023925
 20
3.0855655499
 30
0.0
 10
6.8204331808
 20
3.0856828229
 30
0.0
 10
6.821171162
 20
3.0858175501
 30
0.0
 10
6.8220419584
 20
3.085952701
 30
0.0
 10
6.823045132
 20
3.086088203
 30
0.0
 10
6.8241801657
 20
3.0862239512
 30
0.0
 10
6.8259544702
 20
3.0864143277
 30
0.0
 10
6.8284972717
 20
3.086648172
 30
0.0
 10
6.8319343301
 20
3.0869183389
 30
0.0
 10
6.8358784345
 20
3.0871891497
 30
0.0
 10
6.8403205036
 20
3.0874604973
 30
0.0
 10
6.8452503036
 20
3.087732192
 30
0.0
 10
6.8506564529
 20
3.0880041523
 30
0.0
 10
6.8565264723
 20
3.0882763092
 30
0.0
 10
6.862846787
 20
3.0885486278
 30
0.0
 10
6.872130815
 20
3.0889229558
 30
0.0
 10
6.8847435782
 20
3.0893862664
 30
0.0
 10
6.9010044427
 20
3.0899282006
 30
0.0
 10
6.9186541866
 20
3.0904707791
 30
0.0
 10
6.9375296179
 20
3.0910138639
 30
0.0
 10
6.9574562176
 20
3.0915572975
 30
0.0
 10
6.978249742
 20
3.092100985
 30
0.0
 10
6.9997179215
 20
3.0926448483
 30
0.0
 10
7.0216622473
 20
3.0931888265
 30
0.0
 10
7.0438798139
 20
3.0937328674
 30
0.0
 10
7.0661651832
 20
3.0942769236
 30
0.0
 10
7.0883122858
 20
3.0948209485
 30
0.0
 10
7.1101163396
 20
3.0953648936
 30
0.0
 10
7.1313757344
 20
3.0959087044
 30
0.0
 10
7.1518938889
 20
3.0964523145
 30
0.0
 10
7.1714810849
 20
3.0969956417
 30
0.0
 10
7.1899562208
 20
3.0975385708
 30
0.0
 10
7.2071484715
 20
3.0980809581
 30
0.0
 10
7.2228988957
 20
3.0986225294
 30
0.0
 10
7.2370618903
 20
3.0991630667
 30
0.0
 10
7.2478107018
 20
3.0996281594
 30
0.0
 10
7.2555188125
 20
3.1000056054
 30
0.0
 10
7.2606002548
 20
3.1002774108
 30
0.0
 10
7.2651974369
 20
3.1005488673
 30
0.0
 10
7.2692997551
 20
3.1008198976
 30
0.0
 10
7.2728977816
 20
3.1010902179
 30
0.0
 10
7.2759832599
 20
3.1013597049
 30
0.0
 10
7.2782298511
 20
3.101593838
 30
0.0
 10
7.2797647878
 20
3.1017854071
 30
0.0
 10
7.2807192082
 20
3.1019208146
 30
0.0
 10
7.2815410779
 20
3.1020558208
 30
0.0
 10
7.2822301662
 20
3.1021902076
 30
0.0
 10
7.2827861747
 20
3.1023237824
 30
0.0
 10
7.2831094015
 20
3.1024241224
 30
0.0
 10
7.283246926
 20
3.1024772629
 30
0.0
  0
LINE
  5
37D
100
AcDbEntity
  8
0
100
AcDbLine
 62
7
  6
CONTINUOUS
 10
7.283246926
 20
3.1024772629
 11
7.2835043318
 21
3.1025964614
  0
SPLINE
  5
37E
100
AcDbEntity
  8
0
100
AcDbSpline
 62
7
  6
CONTINUOUS
 70
0
 71
3
 72
63
 73
59
 74
0
 42
0.0000001
 43
0.0000001
 44
0.0000000001
 40
0.0
 40
0.0
 40
0.0
 40
0.0
 40
0.0001514263
 40
0.0003342233
 40
0.0005674287
 40
0.0008604136
 40
0.0012178668
 40
0.0016422865
 40
0.0021351081
 40
0.0026972103
 40
0.004031212
 40
0.0056469817
 40
0.0075455134
 40
0.0097266714
 40
0.0121897985
 40
0.0149340178
 40
0.0212608718
 40
0.0286941028
 40
0.037218042
 40
0.0468133066
 40
0.0574585726
 40
0.0691292004
 40
0.0817987495
 40
0.09543776
 40
0.1100150349
 40
0.1418472297
 40
0.177001373
 40
0.2151522304
 40
0.2559466715
 40
0.299007184
 40
0.3439349579
 40
0.390313785
 40
0.4377142604
 40
0.4856973056
 40
0.5338182909
 40
0.5816316057
 40
0.6286944032
 40
0.6745705797
 40
0.7188353197
 40
0.7610787946
 40
0.8009096895
 40
0.8379593308
 40
0.8718850316
 40
0.9023729833
 40
0.9291416631
 40
0.9410527659
 40
0.9519447151
 40
0.9617922172
 40
0.9705733005
 40
0.9782679482
 40
0.9848597126
 40
0.990334666
 40
0.9926502716
 40
0.9946835521
 40
0.9964340618
 40
0.9979021375
 40
0.9990894753
 40
1.0
 40
1.0
 40
1.0
 40
1.0
 10
6.8187123981
 20
3.0492868147
 30
0.0
 10
6.8187123978
 20
3.0493102967
 30
0.0
 10
6.8187267631
 20
3.0493623845
 30
0.0
 10
6.8187827844
 20
3.0494319793
 30
0.0
 10
6.8188700562
 20
3.0494997316
 30
0.0
 10
6.8189897419
 20
3.0495671197
 30
0.0
 10
6.8191423191
 20
3.0496346252
 30
0.0
 10
6.8193281632
 20
3.0497022852
 30
0.0
 10
6.8195473856
 20
3.0497701015
 30
0.0
 10
6.8199052177
 20
3.0498662362
 30
0.0
 10
6.8204372473
 20
3.0499836516
 30
0.0
 10
6.8211769756
 20
3.0501185377
 30
0.0
 10
6.8220498411
 20
3.0502538403
 30
0.0
 10
6.823055383
 20
3.0503895074
 30
0.0
 10
6.8241930786
 20
3.0505254193
 30
0.0
 10
6.8259715578
 20
3.0507160218
 30
0.0
 10
6.8285203148
 20
3.0509501365
 30
0.0
 10
6.8319653973
 20
3.0512206326
 30
0.0
 10
6.8359186272
 20
3.0514917547
 30
0.0
 10
6.8403709373
 20
3.0517634319
 30
0.0
 10
6.8453120023
 20
3.0520354407
 30
0.0
 10
6.8507304395
 20
3.0523077312
 30
0.0
 10
6.8566136493
 20
3.0525802046
 30
0.0
 10
6.8629480365
 20
3.0528528515
 30
0.0
 10
6.8722523316
 20
3.0532276119
 30
0.0
 10
6.8848920842
 20
3.0536914674
 30
0.0
 10
6.9011868954
 20
3.0542340408
 30
0.0
 10
6.9188721837
 20
3.0547772604
 30
0.0
 10
6.9377840469
 20
3.0553209861
 30
0.0
 10
6.9577472178
 20
3.055865061
 30
0.0
 10
6.9785766689
 20
3.0564093897
 30
0.0
 10
7.0000793428
 20
3.056953894
 30
0.0
 10
7.0220559481
 20
3.0574985128
 30
0.0
 10
7.044302793
 20
3.0580431938
 30
0.0
 10
7.0666136764
 20
3.0585878891
 30
0.0
 10
7.0887818135
 20
3.0591325521
 30
0.0
 10
7.1106017399
 20
3.059677134
 30
0.0
 10
7.131871211
 20
3.0602215793
 30
0.0
 10
7.1523930943
 20
3.0607658213
 30
0.0
 10
7.1719771898
 20
3.0613097769
 30
0.0
 10
7.1904419852
 20
3.0618533287
 30
0.0
 10
7.2076163502
 20
3.0623963315
 30
0.0
 10
7.2233411388
 20
3.0629385051
 30
0.0
 10
7.2374706332
 20
3.0634796306
 30
0.0
 10
7.2481865714
 20
3.0639453147
 30
0.0
 10
7.2558644741
 20
3.0643233184
 30
0.0
 10
7.2609203611
 20
3.0645954165
 30
0.0
 10
7.2654901229
 20
3.0648671753
 30
0.0
 10
7.2695631309
 20
3.0651384729
 30
0.0
 10
7.2731300764
 20
3.065409063
 30
0.0
 10
7.2761826972
 20
3.0656787606
 30
0.0
 10
7.2784008493
 20
3.065913213
 30
0.0
 10
7.2799121648
 20
3.0661051583
 30
0.0
 10
7.280848321
 20
3.0662406703
 30
0.0
 10
7.2816515272
 20
3.0663757662
 30
0.0
 10
7.2823216274
 20
3.0665101979
 30
0.0
 10
7.282858352
 20
3.0666437476
 30
0.0
 10
7.2831684523
 20
3.0667444432
 30
0.0
 10
7.2832990939
 20
3.0667980089
 30
0.0
  0
LINE
  5
37F
100
AcDbEntity
  8
0
100
AcDbLine
 62
7
  6
CONTINUOUS
 10
7.2832990939
 20
3.0667980089
 11
7.2835043459
 21
3.0668964614
  0
SPLINE
  5
380
100
AcDbEntity
  8
0
100
AcDbSpline
 62
7
  6
CONTINUOUS
 70
0
 71
3
 72
37
 73
33
 74
0
 42
0.0000001
 43
0.0000001
 44
0.0000000001
 40
0.0
 40
0.0
 40
0.0
 40
0.0
 40
0.0003102542
 40
0.0007487586
 40
0.0013245676
 40
0.0020415551
 40
0.0039055118
 40
0.0063476952
 40
0.0093700408
 40
0.0129729102
 40
0.0171554955
 40
0.0219158378
 40
0.0272516994
 40
0.0331607064
 40
0.0466853264
 40
0.0624598283
 40
0.0804496864
 40
0.1006136117
 40
0.1229059798
 40
0.1472749622
 40
0.173664396
 40
0.2020123369
 40
0.2322526191
 40
0.2981206033
 40
0.3706458256
 40
0.4491381528
 40
0.5328466409
 40
0.6209666426
 40
0.7126461886
 40
0.8069955671
 40
0.9030936556
 40
1.0
 40
1.0
 40
1.0
 40
1.0
 10
7.2944423081
 20
2.9870418348
 30
0.0
 10
7.2944245129
 20
2.9870240375
 30
0.0
 10
7.2943724741
 20
2.9869908445
 30
0.0
 10
7.2942736751
 20
2.9869487142
 30
0.0
 10
7.2941396252
 20
2.9869060298
 30
0.0
 10
7.2938913427
 20
2.9868431727
 30
0.0
 10
7.2934904611
 20
2.9867683039
 30
0.0
 10
7.2929021152
 20
2.9866829249
 30
0.0
 10
7.292171521
 20
2.9865969966
 30
0.0
 10
7.2912990477
 20
2.9865105291
 30
0.0
 10
7.2902850155
 20
2.9864237873
 30
0.0
 10
7.2891299824
 20
2.9863368179
 30
0.0
 10
7.2878345632
 20
2.9862496805
 30
0.0
 10
7.2858289644
 20
2.9861277784
 30
0.0
 10
7.2829767984
 20
2.9859777248
 30
0.0
 10
7.2791446538
 20
2.9858039956
 30
0.0
 10
7.2747734697
 20
2.9856297712
 30
0.0
 10
7.2698732075
 20
2.9854551017
 30
0.0
 10
7.2644551897
 20
2.9852801067
 30
0.0
 10
7.2585319316
 20
2.9851048209
 30
0.0
 10
7.2521172578
 20
2.9849292954
 30
0.0
 10
7.2452261478
 20
2.9847535403
 30
0.0
 10
7.2351332052
 20
2.9845120019
 30
0.0
 10
7.2214569986
 20
2.9842126132
 30
0.0
 10
7.203866839
 20
2.9838616865
 30
0.0
 10
7.1848292187
 20
2.9835098524
 30
0.0
 10
7.1645263713
 20
2.9831571943
 30
0.0
 10
7.1431536428
 20
2.9828038067
 30
0.0
 10
7.1209176285
 20
2.9824497466
 30
0.0
 10
7.098034366
 20
2.982095063
 30
0.0
 10
7.0747270674
 20
2.9817397922
 30
0.0
 10
7.0590724325
 20
2.9815027886
 30
0.0
 10
7.0512123389
 20
2.9813836114
 30
0.0
  0
SPLINE
  5
381
100
AcDbEntity
  8
0
100
AcDbSpline
 62
7
  6
CONTINUOUS
 70
0
 71
3
 72
43
 73
39
 74
0
 42
0.0000001
 43
0.0000001
 44
0.0000000001
 40
0.0
 40
0.0
 40
0.0
 40
0.0
 40
0.03124887
 40
0.0468783584
 40
0.0625069934
 40
0.0937558321
 40
0.1250045975
 40
0.1406337364
 40
0.1562628751
 40
0.1875116625
 40
0.218760449
 40
0.2500092962
 40
0.281258089
 40
0.3125068768
 40
0.3437557176
 40
0.375004505
 40
0.4062533084
 40
0.4375021482
 40
0.468750936
 40
0.4999997605
 40
0.531248608
 40
0.5624974011
 40
0.5937462386
 40
0.6249950899
 40
0.6562438877
 40
0.6874927361
 40
0.7187415834
 40
0.7499903892
 40
0.7812392548
 40
0.8124881034
 40
0.8437369176
 40
0.8593660551
 40
0.8749952007
 40
0.9062440245
 40
0.937492914
 40
0.9531215597
 40
0.9687510666
 40
1.0
 40
1.0
 40
1.0
 40
1.0
 10
4.0512123403
 20
5.2090512398
 30
0.0
 10
4.0426242445
 20
5.2090454577
 30
0.0
 10
4.0297285471
 20
5.2096709662
 30
0.0
 10
4.0126730208
 20
5.2117654343
 30
0.0
 10
3.995739463
 20
5.2146947246
 30
0.0
 10
3.9748736871
 20
5.2199112594
 30
0.0
 10
3.9546203247
 20
5.2271505197
 30
0.0
 10
3.9389078943
 20
5.2341102256
 30
0.0
 10
3.9235560084
 20
5.2418324916
 30
0.0
 10
3.9051047327
 20
5.2528864691
 30
0.0
 10
3.8843761943
 20
5.2682557005
 30
0.0
 10
3.8652538714
 20
5.2855844145
 30
0.0
 10
3.8479234181
 20
5.3047047295
 30
0.0
 10
3.8325514067
 20
5.3254323955
 30
0.0
 10
3.8192859615
 20
5.3475674672
 30
0.0
 10
3.808254761
 20
5.3708965537
 30
0.0
 10
3.7995639661
 20
5.395194771
 30
0.0
 10
3.7932971417
 20
5.4202279477
 30
0.0
 10
3.7895145055
 20
5.4457548886
 30
0.0
 10
3.7882523318
 20
5.4715296783
 30
0.0
 10
3.7895226005
 20
5.4973040662
 30
0.0
 10
3.793312918
 20
5.5228298583
 30
0.0
 10
3.7995866277
 20
5.5478612966
 30
0.0
 10
3.8082831584
 20
5.5721574373
 30
0.0
 10
3.8193186457
 20
5.5954844618
 30
0.0
 10
3.8325867203
 20
5.6176179124
 30
0.0
 10
3.8479595724
 20
5.6383448936
 30
0.0
 10
3.8652890518
 20
5.6574660144
 30
0.0
 10
3.8844086808
 20
5.6747975996
 30
0.0
 10
3.9051330248
 20
5.6901723659
 30
0.0
 10
3.9235798188
 20
5.7012336641
 30
0.0
 10
3.93892779
 20
5.7089636867
 30
0.0
 10
3.9546361764
 20
5.7159325135
 30
0.0
 10
3.9748844071
 20
5.7231858541
 30
0.0
 10
3.9957455634
 20
5.7284204268
 30
0.0
 10
4.0126761763
 20
5.7313666768
 30
0.0
 10
4.029729405
 20
5.7334798285
 30
0.0
 10
4.0426242271
 20
5.7341213415
 30
0.0
 10
4.0512123403
 20
5.7341271115
 30
0.0
  0
SPLINE
  5
382
100
AcDbEntity
  8
0
100
AcDbSpline
 62
7
  6
CONTINUOUS
 70
0
 71
3
 72
39
 73
35
 74
0
 42
0.0000001
 43
0.0000001
 44
0.0000000001
 40
0.0
 40
0.0
 40
0.0
 40
0.0
 40
0.0312486338
 40
0.0625006339
 40
0.0937497972
 40
0.1249999175
 40
0.1562499381
 40
0.1874999159
 40
0.218749914
 40
0.2499998692
 40
0.2812498815
 40
0.3124998951
 40
0.343749871
 40
0.3749998431
 40
0.4062498706
 40
0.4374998706
 40
0.4687498403
 40
0.4999998391
 40
0.5312498743
 40
0.5624998594
 40
0.5937498288
 40
0.6249998547
 40
0.6562498902
 40
0.6874998685
 40
0.718749847
 40
0.7499998892
 40
0.7812499134
 40
0.8124998915
 40
0.843749889
 40
0.8749999397
 40
0.9062499442
 40
0.9374999293
 40
0.9687499517
 40
1.0
 40
1.0
 40
1.0
 40
1.0
 10
4.0512123403
 20
5.2101606837
 30
0.0
 10
4.045010812
 20
5.2101564906
 30
0.0
 10
4.0326022559
 20
5.2105904695
 30
0.0
 10
4.0140868139
 20
5.2125642295
 30
0.0
 10
3.9957576777
 20
5.2158516579
 30
0.0
 10
3.9777096421
 20
5.2204351454
 30
0.0
 10
3.9600334999
 20
5.2262919999
 30
0.0
 10
3.9428191382
 20
5.2333921823
 30
0.0
 10
3.9261537798
 20
5.2416995502
 30
0.0
 10
3.9101219579
 20
5.2511720097
 30
0.0
 10
3.8948050123
 20
5.2617615339
 30
0.0
 10
3.8802805207
 20
5.273414258
 30
0.0
 10
3.8666220757
 20
5.2860710101
 30
0.0
 10
3.853898914
 20
5.2996676203
 30
0.0
 10
3.8421755866
 20
5.3141351824
 30
0.0
 10
3.831511373
 20
5.3294002117
 30
0.0
 10
3.8219602568
 20
5.3453852828
 30
0.0
 10
3.8135706273
 20
5.3620093845
 30
0.0
 10
3.8063850593
 20
5.3791882752
 30
0.0
 10
3.800439773
 20
5.3968348007
 30
0.0
 10
3.7957648172
 20
5.414859533
 30
0.0
 10
3.7923838593
 20
5.4331711616
 30
0.0
 10
3.7903140826
 20
5.4516769072
 30
0.0
 10
3.7895657558
 20
5.4702829838
 30
0.0
 10
3.790142596
 20
5.4888951669
 30
0.0
 10
3.7920416729
 20
5.5074192055
 30
0.0
 10
3.7952534088
 20
5.525761265
 30
0.0
 10
3.7997613265
 20
5.5438284901
 30
0.0
 10
3.8055425309
 20
5.56152944
 30
0.0
 10
3.8125677729
 20
5.5787745211
 30
0.0
 10
3.8208014462
 20
5.595476341
 30
0.0
 10
3.8302019067
 20
5.6115506882
 30
0.0
 10
3.8407206928
 20
5.6269153491
 30
0.0
 10
3.8484453432
 20
5.6366357807
 30
0.0
 10
3.8524740141
 20
5.6413508909
 30
0.0
  0
SPLINE
  5
383
100
AcDbEntity
  8
0
100
AcDbSpline
 62
7
  6
CONTINUOUS
 70
0
 71
3
 72
39
 73
35
 74
0
 42
0.0000001
 43
0.0000001
 44
0.0000000001
 40
0.0
 40
0.0
 40
0.0
 40
0.0
 40
0.0312486289
 40
0.0625006266
 40
0.0937498041
 40
0.1249999329
 40
0.1562499257
 40
0.1874998976
 40
0.2187499229
 40
0.2499998896
 40
0.2812498587
 40
0.3124998708
 40
0.3437498839
 40
0.3749998556
 40
0.406249831
 40
0.437499848
 40
0.468749865
 40
0.4999998398
 40
0.5312498226
 40
0.5624998488
 40
0.5937498794
 40
0.6249998672
 40
0.6562498481
 40
0.6874998729
 40
0.7187499144
 40
0.7499999153
 40
0.7812498921
 40
0.8124999098
 40
0.8437499494
 40
0.8749999503
 40
0.906249932
 40
0.9374999548
 40
0.9687499974
 40
1.0
 40
1.0
 40
1.0
 40
1.0
 10
4.0512123403
 20
5.2112701276
 30
0.0
 10
4.0450366524
 20
5.2112659342
 30
0.0
 10
4.0326797975
 20
5.2116981049
 30
0.0
 10
4.0142415101
 20
5.2136637496
 30
0.0
 10
3.9959887764
 20
5.2169376956
 30
0.0
 10
3.9780160186
 20
5.2215024003
 30
0.0
 10
3.9604136638
 20
5.227335259
 30
0.0
 10
3.9432712326
 20
5.2344063572
 30
0.0
 10
3.926675592
 20
5.2426796922
 30
0.0
 10
3.9107109503
 20
5.2521133324
 30
0.0
 10
3.8954583139
 20
5.2626594347
 30
0.0
 10
3.8809949451
 20
5.2742643616
 30
0.0
 10
3.8673941274
 20
5.2868691662
 30
0.0
 10
3.8547248382
 20
5.3004099282
 30
0.0
 10
3.8430513502
 20
5.3148180081
 30
0.0
 10
3.8324327081
 20
5.3300202344
 30
0.0
 10
3.8229226551
 20
5.3459394711
 30
0.0
 10
3.8145694097
 20
5.3624950231
 30
0.0
 10
3.807415342
 20
5.3796029837
 30
0.0
 10
3.801496538
 20
5.3971765719
 30
0.0
 10
3.7968428927
 20
5.4151266926
 30
0.0
 10
3.7934780025
 20
5.4333623852
 30
0.0
 10
3.7914189407
 20
5.4517912514
 30
0.0
 10
3.790675951
 20
5.4703199059
 30
0.0
 10
3.7912526941
 20
5.4888544833
 30
0.0
 10
3.7931462687
 20
5.5073010892
 30
0.0
 10
3.7963470967
 20
5.5255662834
 30
0.0
 10
3.8008387835
 20
5.5435576017
 30
0.0
 10
3.8065984825
 20
5.5611839638
 30
0.0
 10
3.8135970694
 20
5.5783561211
 30
0.0
 10
3.8217990527
 20
5.5949870556
 30
0.0
 10
3.8311629626
 20
5.6109929068
 30
0.0
 10
3.8416404971
 20
5.6262917905
 30
0.0
 10
3.8493346419
 20
5.6359703813
 30
0.0
 10
3.8533473504
 20
5.6406651298
 30
0.0
  0
SPLINE
  5
384
100
AcDbEntity
  8
0
100
AcDbSpline
 62
7
  6
CONTINUOUS
 70
0
 71
3
 72
37
 73
33
 74
0
 42
0.0000001
 43
0.0000001
 44
0.0000000001
 40
0.0
 40
0.0
 40
0.0
 40
0.0
 40
0.0707607422
 40
0.1471977008
 40
0.2278988206
 40
0.3113688493
 40
0.3960617277
 40
0.4804094515
 40
0.5628496344
 40
0.6418560459
 40
0.7159654735
 40
0.7507509974
 40
0.7838063608
 40
0.8149786123
 40
0.8441234921
 40
0.8711059361
 40
0.8958015018
 40
0.9180964062
 40
0.9378876911
 40
0.9550848303
 40
0.962685923
 40
0.969610225
 40
0.9758501267
 40
0.9813992909
 40
0.9862517515
 40
0.9904031924
 40
0.9938511063
 40
0.9965946733
 40
0.9977035069
 40
0.9986386078
 40
0.9994024773
 40
1.0
 40
1.0
 40
1.0
 40
1.0
 10
3.9102847766
 20
3.0188118147
 30
0.0
 10
3.9190911048
 20
3.0190823959
 30
0.0
 10
3.9374110996
 20
3.0196153423
 30
0.0
 10
3.9657766761
 20
3.0203806791
 30
0.0
 10
3.995725217
 20
3.0211468624
 30
0.0
 10
4.0267020173
 20
3.0219135542
 30
0.0
 10
4.0581329903
 20
3.0226804496
 30
0.0
 10
4.0894356995
 20
3.0234472909
 30
0.0
 10
4.120030176
 20
3.0242137924
 30
0.0
 10
4.1493494752
 20
3.0249796847
 30
0.0
 10
4.1727362257
 20
3.0256299555
 30
0.0
 10
4.1904027827
 20
3.0261553567
 30
0.0
 10
4.2027249736
 20
3.026540919
 30
0.0
 10
4.2143444869
 20
3.0269262903
 30
0.0
 10
4.2252074224
 20
3.0273114275
 30
0.0
 10
4.2352634094
 20
3.0276962565
 30
0.0
 10
4.2444658405
 20
3.0280806793
 30
0.0
 10
4.2527720714
 20
3.028464494
 30
0.0
 10
4.2601435902
 20
3.0288475653
 30
0.0
 10
4.2656857294
 20
3.0291778514
 30
0.0
 10
4.2696264483
 20
3.0294458887
 30
0.0
 10
4.2722048019
 20
3.0296383794
 30
0.0
 10
4.2745269051
 20
3.0298306375
 30
0.0
 10
4.2765900979
 20
3.0300225542
 30
0.0
 10
4.2783920249
 20
3.0302140426
 30
0.0
 10
4.2799307702
 20
3.0304047614
 30
0.0
 10
4.2812046192
 20
3.0305945786
 30
0.0
 10
4.2820987541
 20
3.030760597
 30
0.0
 10
4.2826788965
 20
3.0308980626
 30
0.0
 10
4.2830154568
 20
3.0309933672
 30
0.0
 10
4.2832853768
 20
3.0310881487
 30
0.0
 10
4.2834399211
 20
3.0311592407
 30
0.0
 10
4.2835043393
 20
3.0311964614
 30
0.0
  0
SPLINE
  5
385
100
AcDbEntity
  8
0
100
AcDbSpline
 62
7
  6
CONTINUOUS
 70
0
 71
3
 72
39
 73
35
 74
0
 42
0.0000001
 43
0.0000001
 44
0.0000000001
 40
0.0
 40
0.0
 40
0.0
 40
0.0
 40
0.0312486287
 40
0.0625006262
 40
0.0937498051
 40
0.1249999355
 40
0.1562499282
 40
0.1874999036
 40
0.2187499436
 40
0.2499999263
 40
0.2812498853
 40
0.3124998905
 40
0.3437499232
 40
0.3749999203
 40
0.4062498773
 40
0.4374998745
 40
0.4687499021
 40
0.4999998968
 40
0.5312498591
 40
0.5624998621
 40
0.593749891
 40
0.6249998849
 40
0.6562498558
 40
0.6874998694
 40
0.7187499083
 40
0.7499999106
 40
0.7812498848
 40
0.8124999007
 40
0.8437499458
 40
0.8749999549
 40
0.9062499311
 40
0.9374999468
 40
0.9687499914
 40
1.0
 40
1.0
 40
1.0
 40
1.0
 10
4.0512123403
 20
5.2123795715
 30
0.0
 10
4.0450624949
 20
5.2123753777
 30
0.0
 10
4.0327573458
 20
5.2128057403
 30
0.0
 10
4.0143962231
 20
5.2147632677
 30
0.0
 10
3.9962199038
 20
5.218023727
 30
0.0
 10
3.9783224304
 20
5.2225696447
 30
0.0
 10
3.9607938655
 20
5.2283785055
 30
0.0
 10
3.9437233668
 20
5.2354205135
 30
0.0
 10
3.9271974509
 20
5.2436598098
 30
0.0
 10
3.9112999902
 20
5.2530546244
 30
0.0
 10
3.8961116647
 20
5.2635573025
 30
0.0
 10
3.8817094188
 20
5.275114421
 30
0.0
 10
3.8681662337
 20
5.2876672712
 30
0.0
 10
3.8555508119
 20
5.3011521793
 30
0.0
 10
3.8439271659
 20
5.3155007729
 30
0.0
 10
3.833354094
 20
5.3306401747
 30
0.0
 10
3.8238851113
 20
5.3464935637
 30
0.0
 10
3.8155682396
 20
5.3629805593
 30
0.0
 10
3.8084456729
 20
5.3800175826
 30
0.0
 10
3.8025533435
 20
5.3975182014
 30
0.0
 10
3.7979210121
 20
5.4153936848
 30
0.0
 10
3.7945721726
 20
5.4335534341
 30
0.0
 10
3.7925238199
 20
5.4519054171
 30
0.0
 10
3.7917861464
 20
5.4703566238
 30
0.0
 10
3.7923627851
 20
5.4888135704
 30
0.0
 10
3.7942508348
 20
5.507182741
 30
0.0
 10
3.7974407443
 20
5.5253710717
 30
0.0
 10
3.8019161727
 20
5.5432864736
 30
0.0
 10
3.8076543528
 20
5.5608382382
 30
0.0
 10
3.8146262626
 20
5.5779374788
 30
0.0
 10
3.8227965401
 20
5.5944975317
 30
0.0
 10
3.8321238704
 20
5.6104348825
 30
0.0
 10
3.8425601336
 20
5.6256679881
 30
0.0
 10
3.8502237617
 20
5.6353047474
 30
0.0
 10
3.8542205063
 20
5.6399791446
 30
0.0
  0
SPLINE
  5
386
100
AcDbEntity
  8
0
100
AcDbSpline
 62
7
  6
CONTINUOUS
 70
0
 71
3
 72
39
 73
35
 74
0
 42
0.0000001
 43
0.0000001
 44
0.0000000001
 40
0.0
 40
0.0
 40
0.0
 40
0.0
 40
0.0312486579
 40
0.0625006274
 40
0.0937497952
 40
0.1249999196
 40
0.1562499436
 40
0.1874999194
 40
0.2187499113
 40
0.2499998738
 40
0.2812498949
 40
0.3124998943
 40
0.3437498632
 40
0.3749998565
 40
0.4062498876
 40
0.4374998677
 40
0.4687498373
 40
0.4999998611
 40
0.5312498869
 40
0.5624998597
 40
0.5937498447
 40
0.6249998834
 40
0.6562498883
 40
0.6874998685
 40
0.7187498807
 40
0.7499999184
 40
0.7812499
 40
0.8124999121
 40
0.8437499101
 40
0.8749999611
 40
0.9062501108
 40
0.9374993065
 40
0.9687513133
 40
1.0
 40
1.0
 40
1.0
 40
1.0
 10
4.0512123403
 20
5.2134890153
 30
0.0
 10
4.0450879929
 20
5.213484821
 30
0.0
 10
4.0328338709
 20
5.2139134214
 30
0.0
 10
4.0145489139
 20
5.2158630511
 30
0.0
 10
3.9964480474
 20
5.2191103802
 30
0.0
 10
3.9786249308
 20
5.2236380066
 30
0.0
 10
3.9611692875
 20
5.229423501
 30
0.0
 10
3.9441699374
 20
5.2364371725
 30
0.0
 10
3.9277130645
 20
5.2446433011
 30
0.0
 10
3.9118821861
 20
5.2540002685
 30
0.0
 10
3.8967576766
 20
5.2644606107
 30
0.0
 10
3.8824161892
 20
5.2759710918
 30
0.0
 10
3.8689304289
 20
5.2884732294
 30
0.0
 10
3.8563687807
 20
5.3019035851
 30
0.0
 10
3.8447950289
 20
5.3161940627
 30
0.0
 10
3.8342677387
 20
5.331272037
 30
0.0
 10
3.8248402239
 20
5.3470609889
 30
0.0
 10
3.8165602528
 20
5.3634808397
 30
0.0
 10
3.8094698885
 20
5.3804483417
 30
0.0
 10
3.803604906
 20
5.3978773671
 30
0.0
 10
3.798994949
 20
5.4156795377
 30
0.0
 10
3.7956633462
 20
5.4337646057
 30
0.0
 10
3.793627061
 20
5.4520408942
 30
0.0
 10
3.7928962237
 20
5.4704157329
 30
0.0
 10
3.7934744382
 20
5.4887960124
 30
0.0
 10
3.795358744
 20
5.5070885915
 30
0.0
 10
3.7985396504
 20
5.5252007654
 30
0.0
 10
3.8030008781
 20
5.5430407778
 30
0.0
 10
3.8087196822
 20
5.5605183092
 30
0.0
 10
3.8156671291
 20
5.5775448668
 30
0.0
 10
3.8238080217
 20
5.5940338917
 30
0.0
 10
3.8331010896
 20
5.6099028718
 30
0.0
 10
3.8434987174
 20
5.6250695852
 30
0.0
 10
3.8511333839
 20
5.6346642959
 30
0.0
 10
3.8551148199
 20
5.6393178845
 30
0.0
  0
SPLINE
  5
387
100
AcDbEntity
  8
0
100
AcDbSpline
 62
7
  6
CONTINUOUS
 70
0
 71
3
 72
43
 73
39
 74
0
 42
0.0000001
 43
0.0000001
 44
0.0000000001
 40
0.0
 40
0.0
 40
0.0
 40
0.0
 40
0.031248875
 40
0.0468783618
 40
0.0625069891
 40
0.0937558172
 40
0.1250046067
 40
0.140633737
 40
0.1562628529
 40
0.1875116209
 40
0.2187604503
 40
0.250009247
 40
0.2812580385
 40
0.3125068689
 40
0.3437556556
 40
0.3750044798
 40
0.4062533006
 40
0.437502094
 40
0.4687509439
 40
0.4999997563
 40
0.5312485658
 40
0.5624974199
 40
0.593746224
 40
0.624995056
 40
0.6562438974
 40
0.6874927081
 40
0.7187415675
 40
0.7499903923
 40
0.7812392272
 40
0.8124880998
 40
0.8437369146
 40
0.8593660413
 40
0.8749951822
 40
0.9062440279
 40
0.9374929129
 40
0.9531215537
 40
0.9687510608
 40
1.0
 40
1.0
 40
1.0
 40
1.0
 10
7.0512123403
 20
5.207941796
 30
0.0
 10
7.0425879512
 20
5.2079360138
 30
0.0
 10
7.0296377596
 20
5.2085641997
 30
0.0
 10
7.0125101654
 20
5.2106675584
 30
0.0
 10
6.9955050607
 20
5.213609262
 30
0.0
 10
6.9745511179
 20
5.2188478799
 30
0.0
 10
6.9542121771
 20
5.226117761
 30
0.0
 10
6.9384333592
 20
5.2331068966
 30
0.0
 10
6.9230166189
 20
5.2408618047
 30
0.0
 10
6.9044873811
 20
5.251962511
 30
0.0
 10
6.8836712587
 20
5.2673966929
 30
0.0
 10
6.8644681341
 20
5.2847986384
 30
0.0
 10
6.8470644503
 20
5.3039997535
 30
0.0
 10
6.8316274712
 20
5.3248150008
 30
0.0
 10
6.8183059596
 20
5.3470436149
 30
0.0
 10
6.8072281349
 20
5.3704712821
 30
0.0
 10
6.798500591
 20
5.3948721739
 30
0.0
 10
6.7922072708
 20
5.420011143
 30
0.0
 10
6.7884086338
 20
5.445645955
 30
0.0
 10
6.7871411003
 20
5.471529667
 30
0.0
 10
6.7884167249
 20
5.4974129771
 30
0.0
 10
6.7922230434
 20
5.5230466364
 30
0.0
 10
6.7985232431
 20
5.5481838615
 30
0.0
 10
6.8072565158
 20
5.5725826744
 30
0.0
 10
6.8183386251
 20
5.5960082766
 30
0.0
 10
6.8316627606
 20
5.6182352705
 30
0.0
 10
6.8471005763
 20
5.6390498384
 30
0.0
 10
6.8645032871
 20
5.6582517622
 30
0.0
 10
6.8837037192
 20
5.6756565861
 30
0.0
 10
6.9045156495
 20
5.6910963097
 30
0.0
 10
6.9230404084
 20
5.7022043395
 30
0.0
 10
6.9384532423
 20
5.7099670099
 30
0.0
 10
6.9542280195
 20
5.7169652685
 30
0.0
 10
6.9745618304
 20
5.7242492316
 30
0.0
 10
6.9955111555
 20
5.7295058883
 30
0.0
 10
7.0125133182
 20
5.7324645524
 30
0.0
 10
7.0296386164
 20
5.734586595
 30
0.0
 10
7.0425879335
 20
5.7352307854
 30
0.0
 10
7.0512123403
 20
5.7352365554
 30
0.0
  0
SPLINE
  5
388
100
AcDbEntity
  8
0
100
AcDbSpline
 62
7
  6
CONTINUOUS
 70
0
 71
3
 72
27
 73
23
 74
0
 42
0.0000001
 43
0.0000001
 44
0.0000000001
 40
0.0
 40
0.0
 40
0.0
 40
0.0
 40
0.2427772811
 40
0.4524534331
 40
0.6282612496
 40
0.7032093777
 40
0.7693724851
 40
0.8266295779
 40
0.8748498333
 40
0.9138942595
 40
0.9299346212
 40
0.9436353777
 40
0.9549936421
 40
0.964030701
 40
0.9708332423
 40
0.9734801132
 40
0.975716366
 40
0.9776830569
 40
0.9795930692
 40
0.9841299526
 40
0.9907246431
 40
1.0
 40
1.0
 40
1.0
 40
1.0
 10
3.8242365661
 20
3.1138118147
 30
0.0
 10
3.8232106594
 20
3.1138118147
 30
0.0
 10
3.821298717
 20
3.1138146789
 30
0.0
 10
3.8186439112
 20
3.1138316408
 30
0.0
 10
3.8166984052
 20
3.1138587145
 30
0.0
 10
3.8153595782
 20
3.1138912748
 30
0.0
 10
3.8145217897
 20
3.1139194057
 30
0.0
 10
3.8137972314
 20
3.1139530279
 30
0.0
 10
3.8131877946
 20
3.1139929029
 30
0.0
 10
3.8127530476
 20
3.1140338695
 30
0.0
 10
3.8124649571
 20
3.1140728912
 30
0.0
 10
3.8122937931
 20
3.1141025115
 30
0.0
 10
3.8121531627
 20
3.1141345328
 30
0.0
 10
3.8120435207
 20
3.1141691787
 30
0.0
 10
3.8119722184
 20
3.1142027123
 30
0.0
 10
3.8119330212
 20
3.1142331268
 30
0.0
 10
3.8119141226
 20
3.1142554382
 30
0.0
 10
3.8119037012
 20
3.1142796158
 30
0.0
 10
3.8119025681
 20
3.1143160415
 30
0.0
 10
3.811931255
 20
3.1143665183
 30
0.0
 10
3.8119965341
 20
3.1144230874
 30
0.0
 10
3.812053435
 20
3.1144591133
 30
0.0
 10
3.8120873717
 20
3.1144787232
 30
0.0
  0
SPLINE
  5
389
100
AcDbEntity
  8
0
100
AcDbSpline
 62
7
  6
CONTINUOUS
 70
0
 71
3
 72
39
 73
35
 74
0
 42
0.0000001
 43
0.0000001
 44
0.0000000001
 40
0.0
 40
0.0
 40
0.0
 40
0.0
 40
0.0018208194
 40
0.0026051239
 40
0.0033392284
 40
0.0040572507
 40
0.0047954709
 40
0.0064541289
 40
0.0085148211
 40
0.0110783277
 40
0.0141955553
 40
0.0178933552
 40
0.0221859474
 40
0.0270804916
 40
0.0325804532
 40
0.0386869454
 40
0.0527129126
 40
0.0691371608
 40
0.0879237298
 40
0.1090272373
 40
0.1323938625
 40
0.1579639452
 40
0.1856708195
 40
0.2154434947
 40
0.2472048869
 40
0.2808744302
 40
0.35359193
 40
0.4328686975
 40
0.5179242022
 40
0.6079347048
 40
0.7020417728
 40
0.7993614335
 40
0.8989954589
 40
1.0
 40
1.0
 40
1.0
 40
1.0
 10
6.8149858535
 20
2.9800383047
 30
0.0
 10
6.8148831786
 20
2.9801409711
 30
0.0
 10
6.8147484713
 20
2.9803042743
 30
0.0
 10
6.8146393981
 20
2.9805488259
 30
0.0
 10
6.8146015522
 20
2.9807246012
 30
0.0
 10
6.8146044795
 20
2.980900783
 30
0.0
 10
6.8146649081
 20
2.9811437583
 30
0.0
 10
6.8148578828
 20
2.9814515415
 30
0.0
 10
6.8152293491
 20
2.9817921323
 30
0.0
 10
6.8157481338
 20
2.9821302265
 30
0.0
 10
6.8164168064
 20
2.9824673393
 30
0.0
 10
6.8172364853
 20
2.9828046725
 30
0.0
 10
6.818207401
 20
2.983142099
 30
0.0
 10
6.8193291925
 20
2.9834796065
 30
0.0
 10
6.8206012163
 20
2.9838170948
 30
0.0
 10
6.8225902214
 20
2.9842889155
 30
0.0
 10
6.8254480814
 20
2.9848677032
 30
0.0
 10
6.829317641
 20
2.9855347921
 30
0.0
 10
6.8337588457
 20
2.9862015669
 30
0.0
 10
6.8387591375
 20
2.9868677403
 30
0.0
 10
6.8443047537
 20
2.9875329492
 30
0.0
 10
6.8503804832
 20
2.9881969671
 30
0.0
 10
6.8569699652
 20
2.9888596933
 30
0.0
 10
6.8640555967
 20
2.989520984
 30
0.0
 10
6.8716187615
 20
2.9901808385
 30
0.0
 10
6.8825983118
 20
2.9910818685
 30
0.0
 10
6.8973621135
 20
2.9921938645
 30
0.0
 10
6.9162207447
 20
2.9934916616
 30
0.0
 10
6.9364617438
 20
2.9947839717
 30
0.0
 10
6.9578879175
 20
2.9960711969
 30
0.0
 10
6.9802941496
 20
2.9973512318
 30
0.0
 10
7.0034691166
 20
2.998629618
 30
0.0
 10
7.0271957939
 20
2.9998897293
 30
0.0
 10
7.0431726825
 20
3.0007455861
 30
0.0
 10
7.0512123353
 20
3.0012334475
 30
0.0
  0
SPLINE
  5
38A
100
AcDbEntity
  8
0
100
AcDbSpline
 62
7
  6
CONTINUOUS
 70
0
 71
3
 72
43
 73
39
 74
0
 42
0.0000001
 43
0.0000001
 44
0.0000000001
 40
0.0
 40
0.0
 40
0.0
 40
0.0
 40
0.0312488698
 40
0.0468783586
 40
0.0625069945
 40
0.0937558349
 40
0.1250045973
 40
0.1406337353
 40
0.156262874
 40
0.1875116615
 40
0.2187604455
 40
0.2500092889
 40
0.2812580787
 40
0.3125068675
 40
0.3437557042
 40
0.3750044888
 40
0.4062532973
 40
0.4375021369
 40
0.4687509239
 40
0.4999997476
 40
0.5312485828
 40
0.5624973751
 40
0.5937462185
 40
0.6249950532
 40
0.6562438542
 40
0.6874927105
 40
0.7187415373
 40
0.7499903543
 40
0.7812392299
 40
0.8124880606
 40
0.843736891
 40
0.8593660384
 40
0.874995187
 40
0.9062440074
 40
0.9374929051
 40
0.9531215547
 40
0.9687510643
 40
1.0
 40
1.0
 40
1.0
 40
1.0
 10
4.0512123403
 20
5.7307987799
 30
0.0
 10
4.0597097062
 20
5.7308045621
 30
0.0
 10
4.0724691705
 20
5.7301857465
 30
0.0
 10
4.0893445245
 20
5.7281135045
 30
0.0
 10
4.1060992025
 20
5.7252152504
 30
0.0
 10
4.1267445642
 20
5.7200539216
 30
0.0
 10
4.1467839846
 20
5.7128912157
 30
0.0
 10
4.1623304399
 20
5.7060050849
 30
0.0
 10
4.1775201599
 20
5.6983644426
 30
0.0
 10
4.1957765285
 20
5.6874272851
 30
0.0
 10
4.2162860991
 20
5.6722204537
 30
0.0
 10
4.235206415
 20
5.6550748277
 30
0.0
 10
4.2523537834
 20
5.6361565167
 30
0.0
 10
4.2675633909
 20
5.6156478283
 30
0.0
 10
4.2806886782
 20
5.593746598
 30
0.0
 10
4.291603316
 20
5.5706639636
 30
0.0
 10
4.3002022673
 20
5.5466224361
 30
0.0
 10
4.3064028498
 20
5.5218537148
 30
0.0
 10
4.3101454839
 20
5.4965964503
 30
0.0
 10
4.3113942808
 20
5.4710939627
 30
0.0
 10
4.3101373918
 20
5.4455918767
 30
0.0
 10
4.3063870778
 20
5.4203357623
 30
0.0
 10
4.3001796137
 20
5.395568783
 30
0.0
 10
4.291574932
 20
5.3715293331
 30
0.0
 10
4.280656009
 20
5.3484487613
 30
0.0
 10
4.2675280961
 20
5.3265491513
 30
0.0
 10
4.2523176513
 20
5.3060411438
 30
0.0
 10
4.2351712569
 20
5.2871220249
 30
0.0
 10
4.2162536348
 20
5.2699735233
 30
0.0
 10
4.1957482578
 20
5.2547611518
 30
0.0
 10
4.1774963691
 20
5.2438166712
 30
0.0
 10
4.1623105572
 20
5.2361682676
 30
0.0
 10
4.1467681431
 20
5.2292730138
 30
0.0
 10
4.1267338524
 20
5.222096226
 30
0.0
 10
4.1060931084
 20
5.2169168582
 30
0.0
 10
4.0893413724
 20
5.2140016436
 30
0.0
 10
4.0724683141
 20
5.2119107177
 30
0.0
 10
4.0597097241
 20
5.2112758975
 30
0.0
 10
4.0512123403
 20
5.2112701276
 30
0.0
  0
SPLINE
  5
38B
100
AcDbEntity
  8
0
100
AcDbSpline
 62
7
  6
CONTINUOUS
 70
0
 71
3
 72
43
 73
39
 74
0
 42
0.0000001
 43
0.0000001
 44
0.0000000001
 40
0.0
 40
0.0
 40
0.0
 40
0.0
 40
0.0312488675
 40
0.0468783533
 40
0.0625069847
 40
0.0937558156
 40
0.1250045821
 40
0.1406337162
 40
0.1562628422
 40
0.1875116088
 40
0.218760415
 40
0.2500092429
 40
0.2812580154
 40
0.3125068325
 40
0.3437556564
 40
0.3750044341
 40
0.4062532685
 40
0.437502095
 40
0.4687508815
 40
0.4999997256
 40
0.531248552
 40
0.5624973469
 40
0.5937461983
 40
0.6249950182
 40
0.6562438261
 40
0.6874926919
 40
0.7187415101
 40
0.7499903365
 40
0.7812392216
 40
0.8124880519
 40
0.8437368862
 40
0.8593660358
 40
0.874995186
 40
0.906244009
 40
0.9374929058
 40
0.9531215549
 40
0.9687510643
 40
1.0
 40
1.0
 40
1.0
 40
1.0
 10
4.0512123403
 20
5.729689336
 30
0.0
 10
4.0596734137
 20
5.7296951182
 30
0.0
 10
4.0723783832
 20
5.72907898
 30
0.0
 10
4.0891816655
 20
5.7270156288
 30
0.0
 10
4.1058647868
 20
5.7241297906
 30
0.0
 10
4.1264219805
 20
5.7189905456
 30
0.0
 10
4.1463758224
 20
5.7118584634
 30
0.0
 10
4.1618558854
 20
5.7050017649
 30
0.0
 10
4.1769807306
 20
5.697393778
 30
0.0
 10
4.1951591346
 20
5.6865033509
 30
0.0
 10
4.2155811181
 20
5.671361485
 30
0.0
 10
4.2344206325
 20
5.6542890983
 30
0.0
 10
4.2514947676
 20
5.6354515904
 30
0.0
 10
4.2666394178
 20
5.6150304961
 30
0.0
 10
4.279708647
 20
5.5932228017
 30
0.0
 10
4.2905766613
 20
5.5702387469
 30
0.0
 10
4.29913888
 20
5.5462998956
 30
0.0
 10
4.3053129699
 20
5.5216369544
 30
0.0
 10
4.3090396038
 20
5.4964875586
 30
0.0
 10
4.3102830542
 20
5.4710939875
 30
0.0
 10
4.3090315184
 20
5.4457008167
 30
0.0
 10
4.3052972061
 20
5.4205525721
 30
0.0
 10
4.299116242
 20
5.3958913759
 30
0.0
 10
4.2905483013
 20
5.3719546009
 30
0.0
 10
4.2796760038
 20
5.3489726091
 30
0.0
 10
4.2666041555
 20
5.3271665318
 30
0.0
 10
4.2514586722
 20
5.3067461111
 30
0.0
 10
4.2343855101
 20
5.2879077908
 30
0.0
 10
4.2155486874
 20
5.2708325192
 30
0.0
 10
4.1951308946
 20
5.2556851048
 30
0.0
 10
4.1769569675
 20
5.2447873511
 30
0.0
 10
4.1618360203
 20
5.2371715959
 30
0.0
 10
4.1463599942
 20
5.2303057712
 30
0.0
 10
4.1264112794
 20
5.223159605
 30
0.0
 10
4.1058587008
 20
5.2180023196
 30
0.0
 10
4.0891785176
 20
5.2150995198
 30
0.0
 10
4.0723775287
 20
5.2130174843
 30
0.0
 10
4.0596734321
 20
5.2123853413
 30
0.0
 10
4.0512123403
 20
5.2123795715
 30
0.0
  0
SPLINE
  5
38C
100
AcDbEntity
  8
0
100
AcDbSpline
 62
7
  6
CONTINUOUS
 70
0
 71
3
 72
39
 73
35
 74
0
 42
0.0000001
 43
0.0000001
 44
0.0000000001
 40
0.0
 40
0.0
 40
0.0
 40
0.0
 40
0.0721323318
 40
0.1501304348
 40
0.2324968002
 40
0.317645655
 40
0.4039381965
 40
0.4897142145
 40
0.5733227819
 40
0.6531553831
 40
0.6911719771
 40
0.7276757812
 40
0.7624913279
 40
0.7954510542
 40
0.8263960699
 40
0.8551777654
 40
0.8816579913
 40
0.905709456
 40
0.9272169707
 40
0.9460780967
 40
0.9622032853
 40
0.9755171942
 40
0.9811009369
 40
0.9859606527
 40
0.9900922016
 40
0.9934929593
 40
0.9949190881
 40
0.9961628593
 40
0.9972252706
 40
0.9981081194
 40
0.9988148044
 40
0.9991042256
 40
0.9993528762
 40
1.0
 40
1.0
 40
1.0
 40
1.0
 10
3.9102847766
 20
3.0163118147
 30
0.0
 10
3.9192695503
 20
3.0165878788
 30
0.0
 10
3.9379706942
 20
3.0171313188
 30
0.0
 10
3.9669335805
 20
3.0179112003
 30
0.0
 10
3.9975190944
 20
3.0186919753
 30
0.0
 10
4.0291385549
 20
3.0194732787
 30
0.0
 10
4.0611830425
 20
3.0202547818
 30
0.0
 10
4.093035528
 20
3.0210361882
 30
0.0
 10
4.1240827489
 20
3.0218172318
 30
0.0
 10
4.1491794087
 20
3.022477737
 30
0.0
 10
4.1684072425
 20
3.0230108583
 30
0.0
 10
4.1820268387
 20
3.0234040717
 30
0.0
 10
4.1950159866
 20
3.023797147
 30
0.0
 10
4.2073120797
 20
3.024190056
 30
0.0
 10
4.2188558453
 20
3.024582753
 30
0.0
 10
4.2295916585
 20
3.0249751666
 30
0.0
 10
4.2394678055
 20
3.0253672032
 30
0.0
 10
4.2484367036
 20
3.025758716
 30
0.0
 10
4.2564551545
 20
3.0261495283
 30
0.0
 10
4.263484614
 20
3.0265391595
 30
0.0
 10
4.2694912594
 20
3.0269273763
 30
0.0
 10
4.2738429099
 20
3.0272651261
 30
0.0
 10
4.2767905662
 20
3.0275423991
 30
0.0
 10
4.278596465
 20
3.0277374353
 30
0.0
 10
4.2801285501
 20
3.0279317667
 30
0.0
 10
4.2812322978
 20
3.0281009536
 30
0.0
 10
4.2819760434
 20
3.02823969
 30
0.0
 10
4.2824308825
 20
3.0283373729
 30
0.0
 10
4.2828162585
 20
3.0284346177
 30
0.0
 10
4.2831325621
 20
3.0285317447
 30
0.0
 10
4.2833507202
 20
3.0286162213
 30
0.0
 10
4.2834901544
 20
3.0286869199
 30
0.0
 10
4.2836130575
 20
3.0287618256
 30
0.0
 10
4.2837122979
 20
3.0288561712
 30
0.0
 10
4.2837122849
 20
3.0289368147
 30
0.0
  0
SPLINE
  5
38D
100
AcDbEntity
  8
0
100
AcDbSpline
 62
7
  6
CONTINUOUS
 70
0
 71
3
 72
31
 73
27
 74
0
 42
0.0000001
 43
0.0000001
 44
0.0000000001
 40
0.0
 40
0.0
 40
0.0
 40
0.0
 40
0.0009257823
 40
0.0021099633
 40
0.0036889407
 40
0.0057208021
 40
0.0082319356
 40
0.0112358007
 40
0.0147399073
 40
0.0187487133
 40
0.0282898454
 40
0.0398692146
 40
0.0534852442
 40
0.0691325682
 40
0.0868030311
 40
0.1064835485
 40
0.1518145441
 40
0.2049877158
 40
0.2658329685
 40
0.334152743
 40
0.4097251663
 40
0.4923019131
 40
0.5816135071
 40
0.6773610371
 40
0.7792352982
 40
1.0
 40
1.0
 40
1.0
 40
1.0
 10
6.8187123858
 20
3.0135868147
 30
0.0
 10
6.8187123794
 20
3.0136151776
 30
0.0
 10
6.8187344554
 20
3.0136798019
 30
0.0
 10
6.8188149302
 20
3.0137616153
 30
0.0
 10
6.8189386363
 20
3.0138418455
 30
0.0
 10
6.8191087175
 20
3.0139218317
 30
0.0
 10
6.8193256698
 20
3.0140022222
 30
0.0
 10
6.819590081
 20
3.0140828644
 30
0.0
 10
6.8199020328
 20
3.0141637471
 30
0.0
 10
6.8204118127
 20
3.0142785555
 30
0.0
 10
6.8211690862
 20
3.0144186466
 30
0.0
 10
6.8222211553
 20
3.0145795499
 30
0.0
 10
6.8234620666
 20
3.0147410029
 30
0.0
 10
6.8248908653
 20
3.0149029059
 30
0.0
 10
6.8265064733
 20
3.0150650893
 30
0.0
 10
6.829029382
 20
3.0152924742
 30
0.0
 10
6.8326395129
 20
3.0155717689
 30
0.0
 10
6.8375108295
 20
3.0158945158
 30
0.0
 10
6.8430877412
 20
3.0162180509
 30
0.0
 10
6.8493518646
 20
3.0165422315
 30
0.0
 10
6.8562825477
 20
3.016866821
 30
0.0
 10
6.8638569746
 20
3.0171917394
 30
0.0
 10
6.8720500125
 20
3.0175168771
 30
0.0
 10
6.8808346861
 20
3.0178422161
 30
0.0
 10
6.8936449066
 20
3.0182882166
 30
0.0
 10
6.9035244686
 20
3.018604099
 30
0.0
 10
6.9102847766
 20
3.0188118147
 30
0.0
  0
LINE
  5
38E
100
AcDbEntity
  8
0
100
AcDbLine
 62
7
  6
CONTINUOUS
 10
6.8187123716
 20
2.9778868146
 11
6.8187503281
 21
2.9779895263
  0
SPLINE
  5
38F
100
AcDbEntity
  8
0
100
AcDbSpline
 62
7
  6
CONTINUOUS
 70
0
 71
3
 72
58
 73
54
 74
0
 42
0.0000001
 43
0.0000001
 44
0.0000000001
 40
0.0
 40
0.0
 40
0.0
 40
0.0
 40
0.0002042995
 40
0.0004633984
 40
0.0007836834
 40
0.0011684747
 40
0.0021380858
 40
0.0033804843
 40
0.0048988685
 40
0.0066942889
 40
0.0087668302
 40
0.0111161474
 40
0.0166419421
 40
0.0232615598
 40
0.0309618966
 40
0.0397260935
 40
0.0495352335
 40
0.0603672084
 40
0.0721979806
 40
0.0850007344
 40
0.0987467425
 40
0.113404846
 40
0.1453228991
 40
0.1804657967
 40
0.2185149233
 40
0.2591253367
 40
0.3019285246
 40
0.3465359531
 40
0.3925429274
 40
0.4395318277
 40
0.4870759701
 40
0.5821029851
 40
0.6287230983
 40
0.67418119
 40
0.7180647441
 40
0.7599753152
 40
0.7995326738
 40
0.8363780889
 40
0.8701772973
 40
0.9006240552
 40
0.9274429377
 40
0.9394148069
 40
0.9503917713
 40
0.9603489521
 40
0.9692645051
 40
0.9771184675
 40
0.9838942873
 40
0.9895775885
 40
0.9941583834
 40
0.9960332451
 40
0.9976309777
 40
0.9989524745
 40
1.0
 40
1.0
 40
1.0
 40
1.0
 10
6.8187503281
 20
2.9779895263
 30
0.0
 10
6.8187691534
 20
2.9780149803
 30
0.0
 10
6.8188216295
 20
2.9780653131
 30
0.0
 10
6.8189234542
 20
2.9781319877
 30
0.0
 10
6.8190573914
 20
2.9781988166
 30
0.0
 10
6.8192983688
 20
2.9782956001
 30
0.0
 10
6.8196842399
 20
2.9784119777
 30
0.0
 10
6.8202470326
 20
2.9785445696
 30
0.0
 10
6.8209405704
 20
2.9786778267
 30
0.0
 10
6.8217645231
 20
2.978811704
 30
0.0
 10
6.8227186411
 20
2.9789459473
 30
0.0
 10
6.8242484996
 20
2.9791356933
 30
0.0
 10
6.8264828445
 20
2.97936772
 30
0.0
 10
6.8295466749
 20
2.9796348918
 30
0.0
 10
6.8331139127
 20
2.9799028534
 30
0.0
 10
6.8371765578
 20
2.9801715131
 30
0.0
 10
6.8417254085
 20
2.9804405784
 30
0.0
 10
6.8467501936
 20
2.9807099756
 30
0.0
 10
6.8522394757
 20
2.9809795953
 30
0.0
 10
6.8581808196
 20
2.9812493977
 30
0.0
 10
6.8645607106
 20
2.9815193425
 30
0.0
 10
6.8739011455
 20
2.981890022
 30
0.0
 10
6.8865563917
 20
2.9823490275
 30
0.0
 10
6.902835851
 20
2.9828863065
 30
0.0
 10
6.9204629696
 20
2.9834241857
 30
0.0
 10
6.9392776573
 20
2.9839625371
 30
0.0
 10
6.9591090301
 20
2.9845012156
 30
0.0
 10
6.9797769642
 20
2.985040132
 30
0.0
 10
7.0010937422
 20
2.9855792145
 30
0.0
 10
7.0228657449
 20
2.9861184007
 30
0.0
 10
7.052231979
 20
2.986837256
 30
0.0
 10
7.0815411525
 20
2.9875518378
 30
0.0
 10
7.1105267461
 20
2.9882752853
 30
0.0
 10
7.1315890632
 20
2.988814307
 30
0.0
 10
7.1519213293
 20
2.9893531308
 30
0.0
 10
7.1713388667
 20
2.9898916823
 30
0.0
 10
7.1896653153
 20
2.9904298503
 30
0.0
 10
7.2067342327
 20
2.9909674982
 30
0.0
 10
7.2223906086
 20
2.9915043662
 30
0.0
 10
7.2364922616
 20
2.9920402484
 30
0.0
 10
7.247211774
 20
2.992501111
 30
0.0
 10
7.2549149431
 20
2.992874964
 30
0.0
 10
7.2600070956
 20
2.9931443994
 30
0.0
 10
7.2646249217
 20
2.9934135334
 30
0.0
 10
7.2687579205
 20
2.9936822278
 30
0.0
 10
7.2723967899
 20
2.99395038
 30
0.0
 10
7.2755333484
 20
2.9942175082
 30
0.0
 10
7.278160591
 20
2.9944835291
 30
0.0
 10
7.2800276782
 20
2.9947157045
 30
0.0
 10
7.2812609471
 20
2.9949073957
 30
0.0
 10
7.2819919138
 20
2.9950409014
 30
0.0
 10
7.282592221
 20
2.9951736914
 30
0.0
 10
7.282946225
 20
2.9952725376
 30
0.0
 10
7.2831000558
 20
2.9953243718
 30
0.0
  0
LINE
  5
390
100
AcDbEntity
  8
0
100
AcDbLine
 62
7
  6
CONTINUOUS
 10
7.2831000558
 20
2.9953243718
 11
7.2835043038
 21
2.9954964615
  0
SPLINE
  5
391
100
AcDbEntity
  8
0
100
AcDbSpline
 62
7
  6
CONTINUOUS
 70
0
 71
3
 72
39
 73
35
 74
0
 42
0.0000001
 43
0.0000001
 44
0.0000000001
 40
0.0
 40
0.0
 40
0.0
 40
0.0
 40
0.0002806627
 40
0.0006327591
 40
0.0010957628
 40
0.0016873482
 40
0.0024158533
 40
0.0032855574
 40
0.0042988638
 40
0.0054572142
 40
0.0082121656
 40
0.0115545893
 40
0.0154856003
 40
0.0200042979
 40
0.0251090379
 40
0.0307978095
 40
0.0439155454
 40
0.0593284419
 40
0.0770018977
 40
0.0968939964
 40
0.1189582232
 40
0.1431416379
 40
0.1693868493
 40
0.1976306401
 40
0.2278055122
 40
0.2936538015
 40
0.3662993387
 40
0.4450434409
 40
0.5291286406
 40
0.6177461689
 40
0.7100428075
 40
0.8051306667
 40
0.9020938359
 40
1.0
 40
1.0
 40
1.0
 40
1.0
 10
6.7937123967
 20
3.0637205714
 30
0.0
 10
6.7937123967
 20
3.0637446949
 30
0.0
 10
6.7937297951
 20
3.0637991855
 30
0.0
 10
6.7937946742
 20
3.0638694669
 30
0.0
 10
6.7938947757
 20
3.0639381535
 30
0.0
 10
6.7940322806
 20
3.0640065913
 30
0.0
 10
6.7942076675
 20
3.0640752911
 30
0.0
 10
6.7944214053
 20
3.0641441926
 30
0.0
 10
6.7946735835
 20
3.0642132849
 30
0.0
 10
6.7950855915
 20
3.0643113248
 30
0.0
 10
6.7956978682
 20
3.0644309955
 30
0.0
 10
6.7965488789
 20
3.064568449
 30
0.0
 10
6.7975530874
 20
3.0647063439
 30
0.0
 10
6.7987099231
 20
3.0648446246
 30
0.0
 10
6.8000187566
 20
3.0649831588
 30
0.0
 10
6.8020647982
 20
3.0651774475
 30
0.0
 10
6.804996442
 20
3.0654160857
 30
0.0
 10
6.8089582395
 20
3.0656917951
 30
0.0
 10
6.8135034868
 20
3.0659681548
 30
0.0
 10
6.8186213162
 20
3.0662450768
 30
0.0
 10
6.8242994025
 20
3.066522344
 30
0.0
 10
6.830524125
 20
3.0667998931
 30
0.0
 10
6.8372804668
 20
3.0670776347
 30
0.0
 10
6.8445521802
 20
3.0673555487
 30
0.0
 10
6.8552263285
 20
3.0677374639
 30
0.0
 10
6.8697160358
 20
3.0682101607
 30
0.0
 10
6.8883798567
 20
3.0687631851
 30
0.0
 10
6.9086117852
 20
3.0693168654
 30
0.0
 10
6.9302169976
 20
3.0698710583
 30
0.0
 10
6.9529874271
 20
3.0704256021
 30
0.0
 10
6.9767038163
 20
3.0709803993
 30
0.0
 10
7.0011377138
 20
3.071535367
 30
0.0
 10
7.0260538788
 20
3.0720904437
 30
0.0
 10
7.0427991757
 20
3.0724599319
 30
0.0
 10
7.0512123403
 20
3.0726455714
 30
0.0
  0
SPLINE
  5
392
100
AcDbEntity
  8
0
100
AcDbSpline
 62
7
  6
CONTINUOUS
 70
0
 71
3
 72
10
 73
6
 74
0
 42
0.0000001
 43
0.0000001
 44
0.0000000001
 40
0.0
 40
0.0
 40
0.0
 40
0.0
 40
0.2259158984
 40
0.4722886373
 40
1.0
 40
1.0
 40
1.0
 40
1.0
 10
6.8951312751
 20
3.0332455714
 30
0.0
 10
6.9068838001
 20
3.033571618
 30
0.0
 10
6.9314542494
 20
3.0342099773
 30
0.0
 10
6.98348112
 20
3.0354528635
 30
0.0
 10
7.0237560282
 20
3.0363397379
 30
0.0
 10
7.0512123403
 20
3.0369455714
 30
0.0
  0
SPLINE
  5
393
100
AcDbEntity
  8
0
100
AcDbSpline
 62
7
  6
CONTINUOUS
 70
0
 71
3
 72
26
 73
22
 74
0
 42
0.0000001
 43
0.0000001
 44
0.0000000001
 40
0.0
 40
0.0
 40
0.0
 40
0.0
 40
0.0671176126
 40
0.1341400547
 40
0.2009377588
 40
0.267397345
 40
0.3334137167
 40
0.398879656
 40
0.4636855722
 40
0.5277230048
 40
0.5908864573
 40
0.6530712123
 40
0.7141743385
 40
0.7442884276
 40
0.774094145
 40
0.8327318559
 40
0.8615403944
 40
0.8899943317
 40
0.9180819747
 40
0.945788717
 40
1.0
 40
1.0
 40
1.0
 40
1.0
 10
7.0512130683
 20
3.0012787088
 30
0.0
 10
7.0477210696
 20
3.0012787187
 30
0.0
 10
7.0407420256
 20
3.0012881221
 30
0.0
 10
7.0302876499
 20
3.0013107443
 30
0.0
 10
7.0198674835
 20
3.0013182069
 30
0.0
 10
7.0094996636
 20
3.0013135489
 30
0.0
 10
6.9992011324
 20
3.0013103092
 30
0.0
 10
6.988988638
 20
3.001311877
 30
0.0
 10
6.9788791038
 20
3.001312161
 30
0.0
 10
6.9688893646
 20
3.0013089258
 30
0.0
 10
6.9590359964
 20
3.0013090783
 30
0.0
 10
6.9493353043
 20
3.0013208571
 30
0.0
 10
6.9413540931
 20
3.0013244213
 30
0.0
 10
6.9350575132
 20
3.0013110617
 30
0.0
 10
6.9288892536
 20
3.0012856431
 30
0.0
 10
6.9227888629
 20
3.0012643625
 30
0.0
 10
6.9167587972
 20
3.0012877818
 30
0.0
 10
6.9123184708
 20
3.0013409961
 30
0.0
 10
6.9079359202
 20
3.0014219406
 30
0.0
 10
6.9022136975
 20
3.0015339643
 30
0.0
 10
6.8979517826
 20
3.0015948673
 30
0.0
 10
6.8951312751
 20
3.0015949363
 30
0.0
  0
SPLINE
  5
394
100
AcDbEntity
  8
0
100
AcDbSpline
 62
7
  6
CONTINUOUS
 70
0
 71
3
 72
43
 73
39
 74
0
 42
0.0000001
 43
0.0000001
 44
0.0000000001
 40
0.0
 40
0.0
 40
0.0
 40
0.0
 40
0.0680635402
 40
0.1429914513
 40
0.2232356393
 40
0.3071386284
 40
0.3929662862
 40
0.4789454046
 40
0.5632989786
 40
0.6442841876
 40
0.6829870207
 40
0.7202276119
 40
0.7558134236
 40
0.7895604919
 40
0.8212943912
 40
0.8508511313
 40
0.8780780562
 40
0.9028347464
 40
0.9249936977
 40
0.944440991
 40
0.9610770997
 40
0.9683141692
 40
0.9748180523
 40
0.98058115
 40
0.985596351
 40
0.9898584871
 40
0.9917060194
 40
0.9933640308
 40
0.9948324027
 40
0.9961114329
 40
0.9972018032
 40
0.9981048453
 40
0.9988232125
 40
0.999362698
 40
0.9995697248
 40
0.9997393947
 40
0.9998786989
 40
1.0
 40
1.0
 40
1.0
 40
1.0
 10
4.2232718641
 20
3.1125034033
 30
0.0
 10
4.213521149
 20
3.1122142154
 30
0.0
 10
4.1930351365
 20
3.1116470769
 30
0.0
 10
4.1610507144
 20
3.1108403728
 30
0.0
 10
4.1267955129
 20
3.1100323517
 30
0.0
 10
4.0909777489
 20
3.1092235179
 30
0.0
 10
4.0543378491
 20
3.1084143031
 30
0.0
 10
4.0176333554
 20
3.1076050664
 30
0.0
 10
3.9816230551
 20
3.1067961215
 30
0.0
 10
3.9523873807
 20
3.1061127254
 30
0.0
 10
3.9299028208
 20
3.1055609982
 30
0.0
 10
3.9139234183
 20
3.1051535655
 30
0.0
 10
3.8986545224
 20
3.1047462713
 30
0.0
 10
3.8841751462
 20
3.1043391458
 30
0.0
 10
3.8705602225
 20
3.1039322434
 30
0.0
 10
3.8578802139
 20
3.1035256318
 30
0.0
 10
3.8462007313
 20
3.103119412
 30
0.0
 10
3.835582193
 20
3.1027137147
 30
0.0
 10
3.8260795034
 20
3.1023088218
 30
0.0
 10
3.817741819
 20
3.1019049274
 30
0.0
 10
3.8115427611
 20
3.1015556173
 30
0.0
 10
3.8071983294
 20
3.1012712
 30
0.0
 10
3.8044103236
 20
3.1010681653
 30
0.0
 10
3.8019416582
 20
3.1008655631
 30
0.0
 10
3.7997954757
 20
3.1006634234
 30
0.0
 10
3.7982105498
 20
3.1004884028
 30
0.0
 10
3.7971063903
 20
3.1003459587
 30
0.0
 10
3.7964007566
 20
3.1002444039
 30
0.0
 10
3.7957775157
 20
3.1001430187
 30
0.0
 10
3.795236779
 20
3.100041876
 30
0.0
 10
3.7947786538
 20
3.0999410619
 30
0.0
 10
3.7944028709
 20
3.0998408301
 30
0.0
 10
3.7941094985
 20
3.099741223
 30
0.0
 10
3.7939177902
 20
3.0996530727
 30
0.0
 10
3.7938089619
 20
3.0995789629
 30
0.0
 10
3.7937548618
 20
3.0995279038
 30
0.0
 10
3.7937207018
 20
3.0994755468
 30
0.0
 10
3.7937123974
 20
3.0994379566
 30
0.0
 10
3.7937123963
 20
3.0994205714
 30
0.0
  0
SPLINE
  5
395
100
AcDbEntity
  8
0
100
AcDbSpline
 62
7
  6
CONTINUOUS
 70
0
 71
3
 72
32
 73
28
 74
0
 42
0.0000001
 43
0.0000001
 44
0.0000000001
 40
0.0
 40
0.0
 40
0.0
 40
0.0
 40
0.1904095063
 40
0.2834311753
 40
0.3738555808
 40
0.4608544288
 40
0.5436303415
 40
0.6214252415
 40
0.6935268059
 40
0.7592747611
 40
0.8180678124
 40
0.8446856247
 40
0.8693689194
 40
0.8920607995
 40
0.9127104187
 40
0.9312704508
 40
0.9476999406
 40
0.9619618674
 40
0.9740262737
 40
0.9838682422
 40
0.9879508963
 40
0.9914728126
 40
0.9944340471
 40
0.9968368704
 40
0.9986869221
 40
0.9994089475
 40
1.0
 40
1.0
 40
1.0
 40
1.0
 10
4.0512123403
 20
3.0369455714
 30
0.0
 10
4.0675554756
 20
3.0373061887
 30
0.0
 10
4.0918828052
 20
3.0378428541
 30
0.0
 10
4.1239709538
 20
3.0385706428
 30
0.0
 10
4.1471829876
 20
3.0391121077
 30
0.0
 10
4.1695151573
 20
3.0396533484
 30
0.0
 10
4.1907627297
 20
3.040194279
 30
0.0
 10
4.2107309088
 20
3.0407347856
 30
0.0
 10
4.2292366453
 20
3.0412746696
 30
0.0
 10
4.2461102971
 20
3.0418137647
 30
0.0
 10
4.2590794618
 20
3.0422759128
 30
0.0
 10
4.2685239184
 20
3.0426499375
 30
0.0
 10
4.2748706243
 20
3.042920905
 30
0.0
 10
4.2807044527
 20
3.0431916621
 30
0.0
 10
4.2860119828
 20
3.0434621314
 30
0.0
 10
4.2907811276
 20
3.0437322264
 30
0.0
 10
4.2950009249
 20
3.0440017843
 30
0.0
 10
4.2986618516
 20
3.0442704825
 30
0.0
 10
4.3017555202
 20
3.0445381096
 30
0.0
 10
4.3039747686
 20
3.0447713963
 30
0.0
 10
4.3054603393
 20
3.0449632676
 30
0.0
 10
4.3063574851
 20
3.0450976987
 30
0.0
 10
4.3071087478
 20
3.0452314054
 30
0.0
 10
4.3077137537
 20
3.0453643686
 30
0.0
 10
4.3081253145
 20
3.0454811443
 30
0.0
 10
4.3083788865
 20
3.0455787844
 30
0.0
 10
4.3084805426
 20
3.0456281371
 30
0.0
 10
4.3085244781
 20
3.0456535251
 30
0.0
  0
SPLINE
  5
396
100
AcDbEntity
  8
0
100
AcDbSpline
 62
7
  6
CONTINUOUS
 70
0
 71
3
 72
39
 73
35
 74
0
 42
0.0000001
 43
0.0000001
 44
0.0000000001
 40
0.0
 40
0.0
 40
0.0
 40
0.0
 40
0.0979061818
 40
0.1948693356
 40
0.2899571787
 40
0.3822538796
 40
0.4708713542
 40
0.5549565423
 40
0.6337007138
 40
0.7063461602
 40
0.7721944693
 40
0.8023693935
 40
0.8306131843
 40
0.8568583438
 40
0.8810417321
 40
0.903105977
 40
0.9229981071
 40
0.9406715844
 40
0.9560844666
 40
0.9692021653
 40
0.9748909283
 40
0.9799956719
 40
0.9845143794
 40
0.9884454007
 40
0.9917878295
 40
0.9945427817
 40
0.995701132
 40
0.9967144384
 40
0.997584143
 40
0.9983126496
 40
0.9989042368
 40
0.9993672415
 40
0.999719338
 40
1.0
 40
1.0
 40
1.0
 40
1.0
 10
4.0512123403
 20
3.041278058
 30
0.0
 10
4.0596255065
 20
3.0414636976
 30
0.0
 10
4.0763708037
 20
3.0418331857
 30
0.0
 10
4.1012869677
 20
3.0423882624
 30
0.0
 10
4.125720868
 20
3.0429432302
 30
0.0
 10
4.1494372567
 20
3.0434980274
 30
0.0
 10
4.1722076862
 20
3.0440525711
 30
0.0
 10
4.1938128991
 20
3.0446067641
 30
0.0
 10
4.2140448249
 20
3.0451604443
 30
0.0
 10
4.2327086458
 20
3.0457134687
 30
0.0
 10
4.2471983516
 20
3.0461861655
 30
0.0
 10
4.2578725061
 20
3.046568081
 30
0.0
 10
4.2651442195
 20
3.0468459948
 30
0.0
 10
4.2719005547
 20
3.0471237362
 30
0.0
 10
4.2781252721
 20
3.0474012852
 30
0.0
 10
4.2838033604
 20
3.0476785524
 30
0.0
 10
4.288921196
 20
3.0479554748
 30
0.0
 10
4.2934664466
 20
3.0482318348
 30
0.0
 10
4.2974282416
 20
3.0485075437
 30
0.0
 10
4.3003598802
 20
3.0487461816
 30
0.0
 10
4.3024059182
 20
3.0489404701
 30
0.0
 10
4.3037147521
 20
3.0490790044
 30
0.0
 10
4.3048715899
 20
3.0492172851
 30
0.0
 10
4.3058758006
 20
3.0493551802
 30
0.0
 10
4.3067268126
 20
3.049492634
 30
0.0
 10
4.3073390898
 20
3.049612305
 30
0.0
 10
4.3077510978
 20
3.0497103451
 30
0.0
 10
4.308003276
 20
3.0497794375
 30
0.0
 10
4.308217014
 20
3.049848339
 30
0.0
 10
4.3083924012
 20
3.0499170388
 30
0.0
 10
4.3085299067
 20
3.0499854764
 30
0.0
 10
4.3086300085
 20
3.0500541629
 30
0.0
 10
4.308694888
 20
3.050124444
 30
0.0
 10
4.3087122865
 20
3.0501789346
 30
0.0
 10
4.3087122865
 20
3.050203058
 30
0.0
  0
SPLINE
  5
397
100
AcDbEntity
  8
0
100
AcDbSpline
 62
7
  6
CONTINUOUS
 70
0
 71
3
 72
32
 73
28
 74
0
 42
0.0000001
 43
0.0000001
 44
0.0000000001
 40
0.0
 40
0.0
 40
0.0
 40
0.0
 40
0.1904095059
 40
0.2834311719
 40
0.3738555819
 40
0.460854427
 40
0.5436303316
 40
0.6214252456
 40
0.6935268189
 40
0.7592747787
 40
0.8180678273
 40
0.8446856391
 40
0.8693689346
 40
0.8920608155
 40
0.9127104344
 40
0.9312704634
 40
0.9476999491
 40
0.9619618728
 40
0.974026276
 40
0.9838682425
 40
0.9879508958
 40
0.9914728111
 40
0.9944340457
 40
0.9968368699
 40
0.9986869223
 40
0.9994089477
 40
1.0
 40
1.0
 40
1.0
 40
1.0
 10
4.0512123403
 20
3.0726455714
 30
0.0
 10
4.0675554756
 20
3.0730061887
 30
0.0
 10
4.0918828049
 20
3.0735428541
 30
0.0
 10
4.1239709535
 20
3.0742706428
 30
0.0
 10
4.1471829873
 20
3.0748121077
 30
0.0
 10
4.1695151563
 20
3.0753533483
 30
0.0
 10
4.190762729
 20
3.075894279
 30
0.0
 10
4.2107309094
 20
3.0764347856
 30
0.0
 10
4.2292366483
 20
3.0769746697
 30
0.0
 10
4.246110301
 20
3.0775137648
 30
0.0
 10
4.2590794658
 20
3.077975913
 30
0.0
 10
4.2685239221
 20
3.0783499377
 30
0.0
 10
4.2748706282
 20
3.0786209052
 30
0.0
 10
4.2807044567
 20
3.0788916623
 30
0.0
 10
4.2860119866
 20
3.0791621316
 30
0.0
 10
4.2907811308
 20
3.0794322266
 30
0.0
 10
4.2950009271
 20
3.0797017844
 30
0.0
 10
4.298661853
 20
3.0799704826
 30
0.0
 10
4.3017555208
 20
3.0802381096
 30
0.0
 10
4.3039747688
 20
3.0804713963
 30
0.0
 10
4.3054603391
 20
3.0806632676
 30
0.0
 10
4.3063574848
 20
3.0807976986
 30
0.0
 10
4.3071087474
 20
3.0809314054
 30
0.0
 10
4.3077137535
 20
3.0810643686
 30
0.0
 10
4.3081253145
 20
3.0811811442
 30
0.0
 10
4.3083788865
 20
3.0812787843
 30
0.0
 10
4.3084805425
 20
3.0813281371
 30
0.0
 10
4.308524478
 20
3.0813535251
 30
0.0
  0
SPLINE
  5
398
100
AcDbEntity
  8
0
100
AcDbSpline
 62
7
  6
CONTINUOUS
 70
0
 71
3
 72
39
 73
35
 74
0
 42
0.0000001
 43
0.0000001
 44
0.0000000001
 40
0.0
 40
0.0
 40
0.0
 40
0.0
 40
0.0979061818
 40
0.1948693356
 40
0.2899571787
 40
0.3822538796
 40
0.4708713542
 40
0.5549565423
 40
0.6337007138
 40
0.7063461602
 40
0.7721944693
 40
0.8023693935
 40
0.8306131843
 40
0.8568583438
 40
0.8810417321
 40
0.903105977
 40
0.9229981071
 40
0.9406715844
 40
0.9560844666
 40
0.9692021653
 40
0.9748909283
 40
0.9799956719
 40
0.9845143794
 40
0.9884454007
 40
0.9917878295
 40
0.9945427817
 40
0.995701132
 40
0.9967144384
 40
0.997584143
 40
0.9983126496
 40
0.9989042368
 40
0.9993672415
 40
0.999719338
 40
1.0
 40
1.0
 40
1.0
 40
1.0
 10
4.0512123403
 20
3.076978058
 30
0.0
 10
4.0596255065
 20
3.0771636976
 30
0.0
 10
4.0763708037
 20
3.0775331857
 30
0.0
 10
4.1012869677
 20
3.0780882624
 30
0.0
 10
4.125720868
 20
3.0786432302
 30
0.0
 10
4.1494372567
 20
3.0791980274
 30
0.0
 10
4.1722076862
 20
3.0797525711
 30
0.0
 10
4.1938128991
 20
3.0803067641
 30
0.0
 10
4.2140448249
 20
3.0808604443
 30
0.0
 10
4.2327086458
 20
3.0814134687
 30
0.0
 10
4.2471983516
 20
3.0818861655
 30
0.0
 10
4.2578725061
 20
3.082268081
 30
0.0
 10
4.2651442195
 20
3.0825459948
 30
0.0
 10
4.2719005547
 20
3.0828237362
 30
0.0
 10
4.2781252721
 20
3.0831012852
 30
0.0
 10
4.2838033604
 20
3.0833785524
 30
0.0
 10
4.288921196
 20
3.0836554748
 30
0.0
 10
4.2934664466
 20
3.0839318348
 30
0.0
 10
4.2974282416
 20
3.0842075437
 30
0.0
 10
4.3003598802
 20
3.0844461816
 30
0.0
 10
4.3024059182
 20
3.0846404701
 30
0.0
 10
4.3037147521
 20
3.0847790044
 30
0.0
 10
4.3048715899
 20
3.0849172851
 30
0.0
 10
4.3058758006
 20
3.0850551802
 30
0.0
 10
4.3067268126
 20
3.085192634
 30
0.0
 10
4.3073390898
 20
3.085312305
 30
0.0
 10
4.3077510978
 20
3.0854103451
 30
0.0
 10
4.308003276
 20
3.0854794375
 30
0.0
 10
4.308217014
 20
3.085548339
 30
0.0
 10
4.3083924012
 20
3.0856170388
 30
0.0
 10
4.3085299067
 20
3.0856854764
 30
0.0
 10
4.3086300085
 20
3.0857541629
 30
0.0
 10
4.308694888
 20
3.085824444
 30
0.0
 10
4.3087122865
 20
3.0858789346
 30
0.0
 10
4.3087122865
 20
3.085903058
 30
0.0
  0
SPLINE
  5
399
100
AcDbEntity
  8
0
100
AcDbSpline
 62
7
  6
CONTINUOUS
 70
0
 71
3
 72
57
 73
53
 74
0
 42
0.0000001
 43
0.0000001
 44
0.0000000001
 40
0.0
 40
0.0
 40
0.0
 40
0.0
 40
0.0174045756
 40
0.035249261
 40
0.0443273793
 40
0.0535045808
 40
0.0627782103
 40
0.0721459393
 40
0.0816052391
 40
0.0911534432
 40
0.100787822
 40
0.1105055894
 40
0.1301794003
 40
0.1501508276
 40
0.1703956805
 40
0.1908894848
 40
0.232525299
 40
0.2748578912
 40
0.3176831961
 40
0.3607948988
 40
0.4039854106
 40
0.4897712005
 40
0.5733892261
 40
0.653230594
 40
0.6912510755
 40
0.7277586273
 40
0.7625774517
 40
0.7955397572
 40
0.8264869984
 40
0.8552703731
 40
0.8817514152
 40
0.9058028778
 40
0.9273095618
 40
0.946168631
 40
0.962290294
 40
0.9693005083
 40
0.9755990442
 40
0.9811791498
 40
0.9860345042
 40
0.9901605379
 40
0.991949141
 40
0.9935544258
 40
0.9949763143
 40
0.9962151402
 40
0.9972716778
 40
0.9981473705
 40
0.9988450178
 40
0.9993705855
 40
0.999573249
 40
0.9997402953
 40
0.9998785955
 40
1.0
 40
1.0
 40
1.0
 40
1.0
 10
6.8951312751
 20
3.0015949363
 30
0.0
 10
6.8975321306
 20
3.0016615425
 30
0.0
 10
6.9023929321
 20
3.0018521153
 30
0.0
 10
6.9085031529
 20
3.0021399252
 30
0.0
 10
6.9134802601
 20
3.0023542044
 30
0.0
 10
6.9172766488
 20
3.0024934961
 30
0.0
 10
6.9211138317
 20
3.0026082941
 30
0.0
 10
6.9249904015
 20
3.0027065422
 30
0.0
 10
6.9289051269
 20
3.0027939159
 30
0.0
 10
6.9328567542
 20
3.0028766653
 30
0.0
 10
6.936844024
 20
3.0029610471
 30
0.0
 10
6.9422280935
 20
3.0030837393
 30
0.0
 10
6.9490380093
 20
3.0032501667
 30
0.0
 10
6.9573000668
 20
3.0034572752
 30
0.0
 10
6.9656754714
 20
3.0036580919
 30
0.0
 10
6.9770398843
 20
3.0039200005
 30
0.0
 10
6.9914516558
 20
3.004246612
 30
0.0
 10
7.0089443274
 20
3.0046425632
 30
0.0
 10
7.026640788
 20
3.005035414
 30
0.0
 10
7.0444556508
 20
3.0054290178
 30
0.0
 10
7.0681975045
 20
3.0059527076
 30
0.0
 10
7.0975276924
 20
3.0066022986
 30
0.0
 10
7.1319139132
 20
3.0073833795
 30
0.0
 10
7.1597096953
 20
3.0080438865
 30
0.0
 10
7.1810055405
 20
3.0085770184
 30
0.0
 10
7.196089958
 20
3.0089702354
 30
0.0
 10
7.2104761188
 20
3.0093633151
 30
0.0
 10
7.2240946775
 20
3.0097562319
 30
0.0
 10
7.2368800023
 20
3.0101489317
 30
0.0
 10
7.2487704915
 20
3.0105413492
 30
0.0
 10
7.2597088405
 20
3.0109333866
 30
0.0
 10
7.2696423445
 20
3.0113249208
 30
0.0
 10
7.2785231784
 20
3.0117156778
 30
0.0
 10
7.2863085721
 20
3.012105471
 30
0.0
 10
7.2920934959
 20
3.0124426269
 30
0.0
 10
7.2961455471
 20
3.0127171436
 30
0.0
 10
7.2987448076
 20
3.0129130805
 30
0.0
 10
7.3010458053
 20
3.0131086018
 30
0.0
 10
7.3030458128
 20
3.0133036752
 30
0.0
 10
7.3045225324
 20
3.0134725832
 30
0.0
 10
7.3055511448
 20
3.0136100467
 30
0.0
 10
7.3062084741
 20
3.0137080515
 30
0.0
 10
7.306789023
 20
3.0138058932
 30
0.0
 10
7.3072926975
 20
3.0139035071
 30
0.0
 10
7.3077194156
 20
3.014000808
 30
0.0
 10
7.3080694614
 20
3.0140975695
 30
0.0
 10
7.3083428012
 20
3.0141937444
 30
0.0
 10
7.3085213385
 20
3.0142788817
 30
0.0
 10
7.3086225427
 20
3.0143503407
 30
0.0
 10
7.3086729323
 20
3.0143996821
 30
0.0
 10
7.3087046455
 20
3.0144502349
 30
0.0
 10
7.3087122887
 20
3.0144863045
 30
0.0
 10
7.3087122869
 20
3.014503058
 30
0.0
  0
SPLINE
  5
39A
100
AcDbEntity
  8
0
100
AcDbSpline
 62
7
  6
CONTINUOUS
 70
0
 71
3
 72
63
 73
59
 74
0
 42
0.0000001
 43
0.0000001
 44
0.0000000001
 40
0.0
 40
0.0
 40
0.0
 40
0.0
 40
0.0001513986
 40
0.000334184
 40
0.0005673562
 40
0.0008602393
 40
0.0012174882
 40
0.0016416236
 40
0.0021341224
 40
0.0026959072
 40
0.0040293495
 40
0.0056444256
 40
0.0075418843
 40
0.0097217844
 40
0.0121837342
 40
0.014926682
 40
0.0212500564
 40
0.0286797146
 40
0.037199154
 40
0.0467897847
 40
0.0574295517
 40
0.0690945098
 40
0.0817576597
 40
0.0953901436
 40
0.1099603518
 40
0.1417776196
 40
0.1769156469
 40
0.2150497621
 40
0.2558271541
 40
0.2988704319
 40
0.3437814047
 40
0.390144309
 40
0.4375298167
 40
0.4854994165
 40
0.5336090109
 40
0.5814130198
 40
0.6284690153
 40
0.6743414436
 40
0.7186054753
 40
0.7608514955
 40
0.8006886657
 40
0.8377482439
 40
0.8716875464
 40
0.9021930718
 40
0.9289831525
 40
0.9409063535
 40
0.9518112535
 40
0.9616726879
 40
0.9704685943
 40
0.9781789083
 40
0.9847871938
 40
0.9902793647
 40
0.9926039367
 40
0.9946462492
 40
0.9964058757
 40
0.9978833243
 40
0.9990801387
 40
1.0
 40
1.0
 40
1.0
 40
1.0
 10
3.8187123417
 20
3.0849868147
 30
0.0
 10
3.8187123446
 20
3.0850102917
 30
0.0
 10
3.8187267261
 20
3.0850623684
 30
0.0
 10
3.818782756
 20
3.0851319358
 30
0.0
 10
3.8188700107
 20
3.0851996663
 30
0.0
 10
3.8189896416
 20
3.0852670354
 30
0.0
 10
3.8191421193
 20
3.0853345275
 30
0.0
 10
3.8193278293
 20
3.0854021728
 30
0.0
 10
3.8195469
 20
3.0854699732
 30
0.0
 10
3.8199045347
 20
3.0855660872
 30
0.0
 10
3.8204363095
 20
3.0856834595
 30
0.0
 10
3.8211756582
 20
3.085818301
 30
0.0
 10
3.8220480288
 20
3.0859535768
 30
0.0
 10
3.8230529979
 20
3.0860892141
 30
0.0
 10
3.8241900886
 20
3.086225081
 30
0.0
 10
3.825967601
 20
3.0864156184
 30
0.0
 10
3.8285149951
 20
3.0866496963
 30
0.0
 10
3.8319581944
 20
3.0869200901
 30
0.0
 10
3.8359093443
 20
3.0871911618
 30
0.0
 10
3.840359265
 20
3.0874627461
 30
0.0
 10
3.8452977439
 20
3.0877346957
 30
0.0
 10
3.8507133097
 20
3.0880068985
 30
0.0
 10
3.856593475
 20
3.0882793069
 30
0.0
 10
3.8629245897
 20
3.0885518712
 30
0.0
 10
3.8722242083
 20
3.0889265372
 30
0.0
 10
3.8848577069
 20
3.0893902632
 30
0.0
 10
3.9011446641
 20
3.0899326897
 30
0.0
 10
3.9188217315
 20
3.0904757605
 30
0.0
 10
3.9377251671
 20
3.0910193381
 30
0.0
 10
3.9576798726
 20
3.0915632645
 30
0.0
 10
3.9785010096
 20
3.0921074447
 30
0.0
 10
3.9999957027
 20
3.0926518006
 30
0.0
 10
4.0219648348
 20
3.0931962712
 30
0.0
 10
4.0442049021
 20
3.0937408039
 30
0.0
 10
4.0665098843
 20
3.0942853513
 30
0.0
 10
4.0886731547
 20
3.0948298667
 30
0.0
 10
4.1104894093
 20
3.0953743011
 30
0.0
 10
4.1317565573
 20
3.0959185995
 30
0.0
 10
4.152277588
 20
3.0964626953
 30
0.0
 10
4.1718624114
 20
3.0970065054
 30
0.0
 10
4.190329617
 20
3.0975499131
 30
0.0
 10
4.207508143
 20
3.0980927734
 30
0.0
 10
4.2232388859
 20
3.0986348078
 30
0.0
 10
4.2373761584
 20
3.0991757969
 30
0.0
 10
4.2480997365
 20
3.0996413448
 30
0.0
 10
4.2557846471
 20
3.1000192185
 30
0.0
 10
4.2608464529
 20
3.1002912486
 30
0.0
 10
4.2654225722
 20
3.1005629387
 30
0.0
 10
4.2695023764
 20
3.1008341712
 30
0.0
 10
4.2730765382
 20
3.1011047059
 30
0.0
 10
4.2761367707
 20
3.1013743453
 30
0.0
 10
4.2783615243
 20
3.1016087372
 30
0.0
 10
4.2798783142
 20
3.1018005842
 30
0.0
 10
4.2808186954
 20
3.1019360698
 30
0.0
 10
4.2816262074
 20
3.1020711564
 30
0.0
 10
4.2823007073
 20
3.1022055768
 30
0.0
 10
4.28284192
 20
3.1023391267
 30
0.0
 10
4.2831550797
 20
3.1024397359
 30
0.0
 10
4.283287319
 20
3.1024932066
 30
0.0
  0
LINE
  5
39B
100
AcDbEntity
  8
0
100
AcDbLine
 62
7
  6
CONTINUOUS
 10
4.283287319
 20
3.1024932066
 11
4.2835043245
 21
3.1025964615
  0
SPLINE
  5
39C
100
AcDbEntity
  8
0
100
AcDbSpline
 62
7
  6
CONTINUOUS
 70
0
 71
3
 72
63
 73
59
 74
0
 42
0.0000001
 43
0.0000001
 44
0.0000000001
 40
0.0
 40
0.0
 40
0.0
 40
0.0
 40
0.000151477
 40
0.0003343942
 40
0.0005677937
 40
0.0008610028
 40
0.0012186687
 40
0.0016433009
 40
0.0021363643
 40
0.0026987695
 40
0.0040336785
 40
0.0056506657
 40
0.007550406
 40
0.0097328642
 40
0.0121976288
 40
0.0149438238
 40
0.0212746957
 40
0.0287129413
 40
0.0372423416
 40
0.046843943
 40
0.0574959853
 40
0.0691741399
 40
0.0818516628
 40
0.0954992432
 40
0.1100855358
 40
0.1419370517
 40
0.1771118585
 40
0.2152843147
 40
0.2561008312
 40
0.2991834127
 40
0.3441327895
 40
0.3905322474
 40
0.4379518697
 40
0.4859521246
 40
0.5340878947
 40
0.5819131013
 40
0.6289845077
 40
0.674865607
 40
0.7191312287
 40
0.7613712724
 40
0.8011941636
 40
0.8382310388
 40
0.8721391087
 40
0.9026044923
 40
0.9293456797
 40
0.9412412072
 40
0.952116417
 40
0.9619459696
 40
0.970708018
 40
0.978382467
 40
0.9849530412
 40
0.9904057382
 40
0.9927099145
 40
0.9947315293
 40
0.9964701383
 40
0.9979262022
 40
0.9991014722
 40
1.0
 40
1.0
 40
1.0
 40
1.0
 10
3.8187123487
 20
3.0492868147
 30
0.0
 10
3.8187123428
 20
3.0493103053
 30
0.0
 10
3.8187267246
 20
3.0493624249
 30
0.0
 10
3.8187828254
 20
3.0494320349
 30
0.0
 10
3.8188701929
 20
3.0494998036
 30
0.0
 10
3.8189899846
 20
3.0495672122
 30
0.0
 10
3.8191426657
 20
3.0496347449
 30
0.0
 10
3.8193286176
 20
3.0497024315
 30
0.0
 10
3.8195479633
 20
3.0497702736
 30
0.0
 10
3.819906031
 20
3.0498664493
 30
0.0
 10
3.8204384578
 20
3.0499839017
 30
0.0
 10
3.8211787318
 20
3.0501188214
 30
0.0
 10
3.8220522044
 20
3.0502541796
 30
0.0
 10
3.8230584233
 20
3.0503899017
 30
0.0
 10
3.8241969209
 20
3.0505258603
 30
0.0
 10
3.8259766474
 20
3.0507165131
 30
0.0
 10
3.8285271981
 20
3.0509507345
 30
0.0
 10
3.8319746499
 20
3.051221306
 30
0.0
 10
3.8359306236
 20
3.0514925381
 30
0.0
 10
3.8403859697
 20
3.0517643004
 30
0.0
 10
3.8453304069
 20
3.0520364131
 30
0.0
 10
3.8507524875
 20
3.0523087937
 30
0.0
 10
3.8566396344
 20
3.0525813669
 30
0.0
 10
3.8629782058
 20
3.0528541077
 30
0.0
 10
3.872288548
 20
3.0532289999
 30
0.0
 10
3.884936339
 20
3.0536930159
 30
0.0
 10
3.9012412665
 20
3.0542357802
 30
0.0
 10
3.9189371464
 20
3.0547791905
 30
0.0
 10
3.9378598616
 20
3.0553231072
 30
0.0
 10
3.9578339216
 20
3.055867373
 30
0.0
 10
3.9786740677
 20
3.0564118927
 30
0.0
 10
4.0001870066
 20
3.0569565878
 30
0.0
 10
4.0221732119
 20
3.0575013974
 30
0.0
 10
4.0444287593
 20
3.0580462689
 30
0.0
 10
4.066747222
 20
3.0585911545
 30
0.0
 10
4.0889215992
 20
3.0591360076
 30
0.0
 10
4.1107462238
 20
3.059680779
 30
0.0
 10
4.132018666
 20
3.0602254132
 30
0.0
 10
4.1525416265
 20
3.0607698434
 30
0.0
 10
4.172124761
 20
3.0613139861
 30
0.0
 10
4.1905864389
 20
3.0618577233
 30
0.0
 10
4.2077554378
 20
3.0624009093
 30
0.0
 10
4.2234725492
 20
3.0629432621
 30
0.0
 10
4.237592024
 20
3.0634845624
 30
0.0
 10
4.24829814
 20
3.0639504234
 30
0.0
 10
4.2559670163
 20
3.0643285923
 30
0.0
 10
4.2610152689
 20
3.0646007783
 30
0.0
 10
4.265576839
 20
3.0648726262
 30
0.0
 10
4.2696410968
 20
3.0651440036
 30
0.0
 10
4.2731987644
 20
3.0654146736
 30
0.0
 10
4.2762415789
 20
3.0656844333
 30
0.0
 10
4.2784512446
 20
3.0659189812
 30
0.0
 10
4.2799555102
 20
3.066111038
 30
0.0
 10
4.2808862132
 20
3.0662465802
 30
0.0
 10
4.2816838483
 20
3.0663817048
 30
0.0
 10
4.2823482872
 20
3.0665161454
 30
0.0
 10
4.2828792651
 20
3.0666496847
 30
0.0
 10
4.2831854509
 20
3.0667504882
 30
0.0
 10
4.2833140294
 20
3.0668041866
 30
0.0
  0
LINE
  5
39D
100
AcDbEntity
  8
0
100
AcDbLine
 62
7
  6
CONTINUOUS
 10
4.2833140294
 20
3.0668041866
 11
4.2835043445
 21
3.0668964614
  0
SPLINE
  5
39E
100
AcDbEntity
  8
0
100
AcDbSpline
 62
7
  6
CONTINUOUS
 70
0
 71
3
 72
54
 73
50
 74
0
 42
0.0000001
 43
0.0000001
 44
0.0000000001
 40
0.0
 40
0.0
 40
0.0
 40
0.0
 40
0.0043654845
 40
0.0097894326
 40
0.0162617958
 40
0.0237695796
 40
0.0322981854
 40
0.0418294846
 40
0.0638174041
 40
0.0895454653
 40
0.1187923176
 40
0.1513057096
 40
0.1868049418
 40
0.2249830952
 40
0.2655100009
 40
0.3521908294
 40
0.443853975
 40
0.5373336853
 40
0.5837451295
 40
0.6294011759
 40
0.6739065929
 40
0.7168763979
 40
0.7579388861
 40
0.7967387037
 40
0.8329403834
 40
0.8662310527
 40
0.8963230136
 40
0.9229566569
 40
0.9349037636
 40
0.9459028139
 40
0.9559303317
 40
0.9649648429
 40
0.9729875218
 40
0.9799815081
 40
0.9859331254
 40
0.9885143304
 40
0.9908311189
 40
0.9928827633
 40
0.9946687568
 40
0.9961891215
 40
0.9974449606
 40
0.9979744745
 40
0.9984390492
 40
0.9988395705
 40
0.9991774731
 40
0.9994552269
 40
0.9996774161
 40
0.9998530578
 40
1.0
 40
1.0
 40
1.0
 40
1.0
 10
6.8217865983
 20
2.9763118147
 30
0.0
 10
6.8224520689
 20
2.9764121517
 30
0.0
 10
6.823949301
 20
2.976604065
 30
0.0
 10
6.8264428702
 20
2.9768636967
 30
0.0
 10
6.8294229668
 20
2.9771245325
 30
0.0
 10
6.8328831265
 20
2.977386313
 30
0.0
 10
6.8368159961
 20
2.9776486713
 30
0.0
 10
6.8429789037
 20
2.9780168151
 30
0.0
 10
6.8517928596
 20
2.9784681179
 30
0.0
 10
6.8636461923
 20
2.9789898239
 30
0.0
 10
6.8771234726
 20
2.9795129425
 30
0.0
 10
6.8921080548
 20
2.9800371948
 30
0.0
 10
6.9084702461
 20
2.980562159
 30
0.0
 10
6.9260683852
 20
2.9810876743
 30
0.0
 10
6.9515545373
 20
2.9818049879
 30
0.0
 10
6.9852846108
 20
2.9826876294
 30
0.0
 10
7.0271766365
 20
2.9837267323
 30
0.0
 10
7.0628629688
 20
2.9845951313
 30
0.0
 10
7.0914586557
 20
2.9852989001
 30
0.0
 10
7.112506438
 20
2.9858254094
 30
0.0
 10
7.133023484
 20
2.9863517943
 30
0.0
 10
7.1528321426
 20
2.9868779983
 30
0.0
 10
7.1717608987
 20
2.9874039501
 30
0.0
 10
7.1896458545
 20
2.9879295511
 30
0.0
 10
7.2063321558
 20
2.9884546783
 30
0.0
 10
7.2216753479
 20
2.988979105
 30
0.0
 10
7.235542599
 20
2.9895026453
 30
0.0
 10
7.2461198364
 20
2.9899524351
 30
0.0
 10
7.2537544828
 20
2.9903169419
 30
0.0
 10
7.2588309725
 20
2.9905801328
 30
0.0
 10
7.2634578114
 20
2.9908430458
 30
0.0
 10
7.267625013
 20
2.9911056344
 30
0.0
 10
7.2713235729
 20
2.9913676927
 30
0.0
 10
7.2745455574
 20
2.9916291419
 30
0.0
 10
7.2769286158
 20
2.9918554388
 30
0.0
 10
7.2785910711
 20
2.9920396716
 30
0.0
 10
7.2796543938
 20
2.9921710367
 30
0.0
 10
7.280594114
 20
2.9923021666
 30
0.0
 10
7.2814097809
 20
2.992432949
 30
0.0
 10
7.2821009995
 20
2.9925633328
 30
0.0
 10
7.282598062
 20
2.9926768245
 30
0.0
 10
7.2829323095
 20
2.9927697287
 30
0.0
 10
7.2831371374
 20
2.992835286
 30
0.0
 10
7.283310788
 20
2.992900701
 30
0.0
 10
7.2834533743
 20
2.99296598
 30
0.0
 10
7.2835652385
 20
2.9930311783
 30
0.0
 10
7.2836468281
 20
2.9930967655
 30
0.0
 10
7.2836990463
 20
2.9931641572
 30
0.0
 10
7.2837122872
 20
2.9932141618
 30
0.0
 10
7.283712286
 20
2.9932368147
 30
0.0
  0
SPLINE
  5
39F
100
AcDbEntity
  8
0
100
AcDbSpline
 62
7
  6
CONTINUOUS
 70
0
 71
3
 72
25
 73
21
 74
0
 42
0.0000001
 43
0.0000001
 44
0.0000000001
 40
0.0
 40
0.0
 40
0.0
 40
0.0
 40
0.001909936
 40
0.0042560011
 40
0.0103000044
 40
0.018183888
 40
0.0279254859
 40
0.0395292333
 40
0.052992357
 40
0.085472466
 40
0.1252904119
 40
0.1723381737
 40
0.2264797903
 40
0.2875587698
 40
0.3553921561
 40
0.4297801315
 40
0.5105001914
 40
0.5973111102
 40
0.7881436655
 40
1.0
 40
1.0
 40
1.0
 40
1.0
 10
6.8189203354
 20
3.011327168
 30
0.0
 10
6.8189708173
 20
3.0113563388
 30
0.0
 10
6.8190881295
 20
3.0114129372
 30
0.0
 10
6.8193821548
 20
3.0115248646
 30
0.0
 10
6.8198614901
 20
3.0116584949
 30
0.0
 10
6.8205679464
 20
3.0118106266
 30
0.0
 10
6.8214472234
 20
3.0119636132
 30
0.0
 10
6.8224986801
 20
3.0121174745
 30
0.0
 10
6.8242417005
 20
3.0123371704
 30
0.0
 10
6.8268463428
 20
3.0126041442
 30
0.0
 10
6.8304767677
 20
3.0129104684
 30
0.0
 10
6.8347703445
 20
3.0132179919
 30
0.0
 10
6.8397142824
 20
3.0135265548
 30
0.0
 10
6.8452937871
 20
3.0138356991
 30
0.0
 10
6.851492163
 20
3.0141453113
 30
0.0
 10
6.8582907769
 20
3.0144552255
 30
0.0
 10
6.8656692501
 20
3.0147654037
 30
0.0
 10
6.8766005514
 20
3.0151928099
 30
0.0
 10
6.8915340608
 20
3.0157208507
 30
0.0
 10
6.9038205612
 20
3.0161131967
 30
0.0
 10
6.9102847766
 20
3.0163118147
 30
0.0
  0
SPLINE
  5
3A0
100
AcDbEntity
  8
0
100
AcDbSpline
 62
7
  6
CONTINUOUS
 70
0
 71
3
 72
22
 73
18
 74
0
 42
0.0000001
 43
0.0000001
 44
0.0000000001
 40
0.0
 40
0.0
 40
0.0
 40
0.0
 40
0.1791197601
 40
0.3523195862
 40
0.5142977987
 40
0.5894996649
 40
0.6600533884
 40
0.7254071339
 40
0.7850472647
 40
0.8385029124
 40
0.8853495649
 40
0.9252130362
 40
0.9577732175
 40
0.9712300692
 40
0.9827684609
 40
0.9923648553
 40
1.0
 40
1.0
 40
1.0
 40
1.0
 10
7.0512123389
 20
2.9813836114
 30
0.0
 10
7.0375114139
 20
2.9811758738
 30
0.0
 10
7.0105623963
 20
2.9807662581
 30
0.0
 10
6.9712239535
 20
2.9801468347
 30
0.0
 10
6.9398346961
 20
2.9796183878
 30
0.0
 10
6.9162972638
 20
2.9791882592
 30
0.0
 10
6.900150653
 20
2.9788735029
 30
0.0
 10
6.8851947444
 20
2.978558667
 30
0.0
 10
6.8715471343
 20
2.978243881
 30
0.0
 10
6.8593157109
 20
2.9779293123
 30
0.0
 10
6.8485977132
 20
2.9776154502
 30
0.0
 10
6.839478977
 20
2.9773024945
 30
0.0
 10
6.8329147409
 20
2.9770295387
 30
0.0
 10
6.8285175441
 20
2.9768041409
 30
0.0
 10
6.8258759604
 20
2.9766465303
 30
0.0
 10
6.8236806443
 20
2.9764896582
 30
0.0
 10
6.8223674538
 20
2.9763731202
 30
0.0
 10
6.8217865983
 20
2.9763118147
 30
0.0
  0
SPLINE
  5
3A1
100
AcDbEntity
  8
0
100
AcDbSpline
 62
7
  6
CONTINUOUS
 70
0
 71
3
 72
34
 73
30
 74
0
 42
0.0000001
 43
0.0000001
 44
0.0000000001
 40
0.0
 40
0.0
 40
0.0
 40
0.0
 40
0.0012344905
 40
0.0029338166
 40
0.0051116166
 40
0.0077736249
 40
0.0145593397
 40
0.0233001615
 40
0.0339961085
 40
0.0466412043
 40
0.0612263537
 40
0.0777417059
 40
0.0961753788
 40
0.1165120335
 40
0.162830233
 40
0.2165542069
 40
0.2775199259
 40
0.3455293167
 40
0.4203671207
 40
0.5018425117
 40
0.5896905084
 40
0.6358616093
 40
0.6834639432
 40
0.7831336975
 40
0.8090290219
 40
0.8353278251
 40
0.8890368911
 40
0.9440132504
 40
1.0
 40
1.0
 40
1.0
 40
1.0
 10
6.7967167098
 20
2.9984974031
 30
0.0
 10
6.7967517645
 20
2.9985176624
 30
0.0
 10
6.7968411227
 20
2.9985548561
 30
0.0
 10
6.7970016575
 20
2.9986031701
 30
0.0
 10
6.7972106615
 20
2.9986519309
 30
0.0
 10
6.7975852539
 20
2.9987232655
 30
0.0
 10
6.7981758961
 20
2.9988086376
 30
0.0
 10
6.799030416
 20
2.9989060776
 30
0.0
 10
6.8000781118
 20
2.9990040063
 30
0.0
 10
6.8013181093
 20
2.9991024137
 30
0.0
 10
6.8027494711
 20
2.9992010417
 30
0.0
 10
6.8043710617
 20
2.9992998152
 30
0.0
 10
6.8061815914
 20
2.9993986749
 30
0.0
 10
6.8089688556
 20
2.9995366447
 30
0.0
 10
6.8129133282
 20
2.9997065274
 30
0.0
 10
6.8181902964
 20
2.9999031848
 30
0.0
 10
6.8241791291
 20
3.0000991963
 30
0.0
 10
6.8308607387
 20
3.0002959073
 30
0.0
 10
6.8382151717
 20
3.0004964197
 30
0.0
 10
6.8462206442
 20
3.000690468
 30
0.0
 10
6.8532866269
 20
3.0008426532
 30
0.0
 10
6.8592417654
 20
3.0009783759
 30
0.0
 10
6.8655842331
 20
3.001134358
 30
0.0
 10
6.871262305
 20
3.0012620736
 30
0.0
 10
6.876242574
 20
3.001329921
 30
0.0
 10
6.8797157618
 20
3.0013623602
 30
0.0
 10
6.8841428207
 20
3.0013848119
 30
0.0
 10
6.8895435221
 20
3.0014153412
 30
0.0
 10
6.8931826095
 20
3.0014586603
 30
0.0
 10
6.8950185306
 20
3.0014912365
 30
0.0
  0
LINE
  5
3A2
100
AcDbEntity
  8
0
100
AcDbLine
 62
7
  6
CONTINUOUS
 10
3.8178872105
 20
3.1178301617
 11
3.8204918749
 21
3.1188902473
  0
SPLINE
  5
3A3
100
AcDbEntity
  8
0
100
AcDbSpline
 62
7
  6
CONTINUOUS
 70
0
 71
3
 72
33
 73
29
 74
0
 42
0.0000001
 43
0.0000001
 44
0.0000000001
 40
0.0
 40
0.0
 40
0.0
 40
0.0
 40
0.0005910518
 40
0.0013130769
 40
0.0031631304
 40
0.0055659563
 40
0.0085271903
 40
0.0120491021
 40
0.0161317549
 40
0.0259737186
 40
0.0380381128
 40
0.0523000275
 40
0.0687294955
 40
0.0872895096
 40
0.107939113
 40
0.1306309823
 40
0.1553142615
 40
0.1819320581
 40
0.2407250687
 40
0.306473
 40
0.3785745516
 40
0.456369457
 40
0.5391453898
 40
0.6261442805
 40
0.716568734
 40
0.8095901361
 40
0.9043559804
 40
1.0
 40
1.0
 40
1.0
 40
1.0
 10
7.3085244777
 20
3.0099535251
 30
0.0
 10
7.3084805425
 20
3.0099281373
 30
0.0
 10
7.3083788872
 20
3.0098787846
 30
0.0
 10
7.3081253166
 20
3.0097811448
 30
0.0
 10
7.3077137578
 20
3.0096643696
 30
0.0
 10
7.3071087549
 20
3.0095314069
 30
0.0
 10
7.3063574968
 20
3.0093977007
 30
0.0
 10
7.3054603566
 20
3.0092632699
 30
0.0
 10
7.3039747952
 20
3.0090713994
 30
0.0
 10
7.3017555607
 20
3.0088381135
 30
0.0
 10
7.298661912
 20
3.0085704873
 30
0.0
 10
7.2950010097
 20
3.0083017902
 30
0.0
 10
7.2907812405
 20
3.0080322331
 30
0.0
 10
7.2860121271
 20
3.0077621392
 30
0.0
 10
7.2807046305
 20
3.0074916708
 30
0.0
 10
7.2748708383
 20
3.0072209146
 30
0.0
 10
7.2685241715
 20
3.006949948
 30
0.0
 10
7.2590797738
 20
3.0065759246
 30
0.0
 10
7.2461106886
 20
3.0061137771
 30
0.0
 10
7.2292371376
 20
3.0055746879
 30
0.0
 10
7.2107315075
 20
3.0050347904
 30
0.0
 10
7.1907634375
 20
3.0044943418
 30
0.0
 10
7.1695159826
 20
3.0039532078
 30
0.0
 10
7.1471839112
 20
3.003412715
 30
0.0
 10
7.1239720833
 20
3.0028685549
 30
0.0
 10
7.1000929937
 20
3.0023367165
 30
0.0
 10
7.0757667151
 20
3.0017591371
 30
0.0
 10
7.0594215904
 20
3.0014892947
 30
0.0
 10
7.0512130683
 20
3.0012787088
 30
0.0
  0
SPLINE
  5
3A4
100
AcDbEntity
  8
0
100
AcDbSpline
 62
7
  6
CONTINUOUS
 70
0
 71
3
 72
32
 73
28
 74
0
 42
0.0000001
 43
0.0000001
 44
0.0000000001
 40
0.0
 40
0.0
 40
0.0
 40
0.0
 40
0.0005910116
 40
0.001313
 40
0.0031630456
 40
0.0055659089
 40
0.0085271707
 40
0.0120490776
 40
0.0161318061
 40
0.0259739893
 40
0.0380385722
 40
0.0523008102
 40
0.0687305556
 40
0.0872909872
 40
0.1079410044
 40
0.1306334076
 40
0.1553171344
 40
0.1819354515
 40
0.2407294311
 40
0.3064784221
 40
0.37858075
 40
0.4563761792
 40
0.5391524697
 40
0.6261510715
 40
0.7165747617
 40
0.809595254
 40
1.0
 40
1.0
 40
1.0
 40
1.0
 10
3.7939002096
 20
3.1039701043
 30
0.0
 10
3.793944146
 20
3.1039954937
 30
0.0
 10
3.7940458048
 20
3.1040448506
 30
0.0
 10
3.7942993944
 20
3.1041424988
 30
0.0
 10
3.7947109969
 20
3.1042592796
 30
0.0
 10
3.7953160682
 20
3.1043922499
 30
0.0
 10
3.7960674098
 20
3.1045259645
 30
0.0
 10
3.7969646511
 20
3.104660407
 30
0.0
 10
3.7984503916
 20
3.1048522886
 30
0.0
 10
3.8006698968
 20
3.1050855896
 30
0.0
 10
3.8037639273
 20
3.1053532363
 30
0.0
 10
3.8074252748
 20
3.1056219483
 30
0.0
 10
3.8116455659
 20
3.1058915256
 30
0.0
 10
3.8164152657
 20
3.1061616353
 30
0.0
 10
3.8217234257
 20
3.1064321238
 30
0.0
 10
3.8275579381
 20
3.1067028966
 30
0.0
 10
3.8339053869
 20
3.1069738829
 30
0.0
 10
3.8433509226
 20
3.1073479293
 30
0.0
 10
3.8563215608
 20
3.1078101075
 30
0.0
 10
3.8731970881
 20
3.1083492363
 30
0.0
 10
3.8917048245
 20
3.1088891544
 30
0.0
 10
3.911675089
 20
3.1094296952
 30
0.0
 10
3.9329247845
 20
3.1099706599
 30
0.0
 10
3.9552590757
 20
3.1105119347
 30
0.0
 10
3.9784731832
 20
3.1110534336
 30
0.0
 10
4.0105638809
 20
3.1117812656
 30
0.0
 10
4.0348930662
 20
3.1123179672
 30
0.0
 10
4.0512373819
 20
3.1126786105
 30
0.0
  0
LINE
  5
3A5
100
AcDbEntity
  8
0
100
AcDbLine
 62
7
  6
CONTINUOUS
 10
4.0512373819
 20
3.1126786105
 11
4.1022537799
 21
3.1138118147
  0
LINE
  5
3A6
100
AcDbEntity
  8
0
100
AcDbLine
 62
7
  6
CONTINUOUS
 10
3.8189203528
 20
3.0827271681
 11
3.8191099893
 21
3.0828191708
  0
SPLINE
  5
3A7
100
AcDbEntity
  8
0
100
AcDbSpline
 62
7
  6
CONTINUOUS
 70
0
 71
3
 72
63
 73
59
 74
0
 42
0.0000001
 43
0.0000001
 44
0.0000000001
 40
0.0
 40
0.0
 40
0.0
 40
0.0
 40
0.0009373825
 40
0.0021517853
 40
0.0036466977
 40
0.0054235937
 40
0.0074829052
 40
0.0098241364
 40
0.0153486275
 40
0.0219877893
 40
0.0297273988
 40
0.0385509992
 40
0.0484384441
 40
0.0593677432
 40
0.0713135834
 40
0.0981436372
 40
0.1286818613
 40
0.162646856
 40
0.1997250184
 40
0.2395736799
 40
0.2818247247
 40
0.326087527
 40
0.3719526466
 40
0.4189961251
 40
0.4667829243
 40
0.5148708952
 40
0.5628154366
 40
0.6101732081
 40
0.6565060335
 40
0.7013855356
 40
0.7443968397
 40
0.7851421046
 40
0.8232447496
 40
0.8583528422
 40
0.8901420329
 40
0.9046991292
 40
0.9183191023
 40
0.9309706803
 40
0.9426247617
 40
0.9532546333
 40
0.9628361312
 40
0.971347504
 40
0.9787699778
 40
0.9850873504
 40
0.9878276886
 40
0.9902872105
 40
0.9924650141
 40
0.994360703
 40
0.9959742617
 40
0.997306376
 40
0.9978676103
 40
0.9983596543
 40
0.9987834204
 40
0.9991403754
 40
0.9994330297
 40
0.9996660283
 40
0.9998486867
 40
1.0
 40
1.0
 40
1.0
 40
1.0
 10
3.8191599037
 20
3.0828394196
 30
0.0
 10
3.8192951346
 20
3.0828927044
 30
0.0
 10
3.8196139933
 20
3.0829931576
 30
0.0
 10
3.8201635682
 20
3.0831267177
 30
0.0
 10
3.8208462946
 20
3.0832611231
 30
0.0
 10
3.8216619008
 20
3.0833961711
 30
0.0
 10
3.8226102143
 20
3.0835316083
 30
0.0
 10
3.8241372548
 20
3.0837232923
 30
0.0
 10
3.8263743507
 20
3.0839575528
 30
0.0
 10
3.8294488274
 20
3.0842270926
 30
0.0
 10
3.8330364723
 20
3.0844975173
 30
0.0
 10
3.8371289689
 20
3.0847686264
 30
0.0
 10
3.8417169879
 20
3.0850401915
 30
0.0
 10
3.8467898793
 20
3.0853120895
 30
0.0
 10
3.8544879081
 20
3.0856897273
 30
0.0
 10
3.8652257297
 20
3.0861550149
 30
0.0
 10
3.8793775374
 20
3.0866957502
 30
0.0
 10
3.8951194113
 20
3.087237523
 30
0.0
 10
3.9123057013
 20
3.0877801166
 30
0.0
 10
3.9307773966
 20
3.0883232542
 30
0.0
 10
3.9503635776
 20
3.0888667919
 30
0.0
 10
3.9708830005
 20
3.0894106137
 30
0.0
 10
3.9921457809
 20
3.0899546369
 30
0.0
 10
4.0139551604
 20
3.0904987953
 30
0.0
 10
4.0361093173
 20
3.091043034
 30
0.0
 10
4.0584032335
 20
3.0915873042
 30
0.0
 10
4.0806306054
 20
3.0921315594
 30
0.0
 10
4.1025857448
 20
3.0926757523
 30
0.0
 10
4.1240654751
 20
3.0932198302
 30
0.0
 10
4.1448710271
 20
3.0937637324
 30
0.0
 10
4.164809875
 20
3.0943073809
 30
0.0
 10
4.1836975075
 20
3.0948506803
 30
0.0
 10
4.2013591516
 20
3.0953934735
 30
0.0
 10
4.2176313858
 20
3.0959356217
 30
0.0
 10
4.230253198
 20
3.0963991155
 30
0.0
 10
4.2395440057
 20
3.0967735872
 30
0.0
 10
4.245869023
 20
3.0970460156
 30
0.0
 10
4.2517434613
 20
3.0973182795
 30
0.0
 10
4.2571537295
 20
3.0975903484
 30
0.0
 10
4.2620873142
 20
3.0978621532
 30
0.0
 10
4.2665328012
 20
3.0981336041
 30
0.0
 10
4.2704799645
 20
3.0984045292
 30
0.0
 10
4.2739196881
 20
3.0986747903
 30
0.0
 10
4.2764644999
 20
3.098908746
 30
0.0
 10
4.278240208
 20
3.099099182
 30
0.0
 10
4.2793761322
 20
3.0992349847
 30
0.0
 10
4.2803800725
 20
3.0993705527
 30
0.0
 10
4.2812515627
 20
3.0995057576
 30
0.0
 10
4.2819901577
 20
3.099640525
 30
0.0
 10
4.2825213765
 20
3.0997578422
 30
0.0
 10
4.2828786295
 20
3.0998539081
 30
0.0
 10
4.2830974755
 20
3.0999216732
 30
0.0
 10
4.2832830027
 20
3.0999892833
 30
0.0
 10
4.2834353351
 20
3.1000567403
 30
0.0
 10
4.2835548536
 20
3.1001240744
 30
0.0
 10
4.2836420236
 20
3.1001917698
 30
0.0
 10
4.2836979934
 20
3.1002613044
 30
0.0
 10
4.2837123397
 20
3.1003133521
 30
0.0
 10
4.2837123347
 20
3.1003368147
 30
0.0
  0
SPLINE
  5
3A8
100
AcDbEntity
  8
0
100
AcDbSpline
 62
7
  6
CONTINUOUS
 70
0
 71
3
 72
32
 73
28
 74
0
 42
0.0000001
 43
0.0000001
 44
0.0000000001
 40
0.0
 40
0.0
 40
0.0
 40
0.0
 40
0.0005910552
 40
0.0013130831
 40
0.0031631378
 40
0.0055659637
 40
0.0085272027
 40
0.012049128
 40
0.0161317942
 40
0.0259737726
 40
0.0380381487
 40
0.0523000474
 40
0.068729546
 40
0.0872896056
 40
0.1079392539
 40
0.1306311352
 40
0.1553143853
 40
0.1819321632
 40
0.2407252916
 40
0.3064732398
 40
0.3785747404
 40
0.4563697425
 40
0.5391456073
 40
0.6261444055
 40
0.7165688821
 40
0.8095905118
 40
1.0
 40
1.0
 40
1.0
 40
1.0
 10
3.7939002019
 20
3.0682701043
 30
0.0
 10
3.7939441377
 20
3.0682954923
 30
0.0
 10
3.7940457943
 20
3.068344845
 30
0.0
 10
3.7942993671
 20
3.068442485
 30
0.0
 10
3.7947109286
 20
3.0685592608
 30
0.0
 10
3.7953159354
 20
3.0686922243
 30
0.0
 10
3.7960671993
 20
3.0688259314
 30
0.0
 10
3.7969643473
 20
3.0689603626
 30
0.0
 10
3.7984499207
 20
3.069152234
 30
0.0
 10
3.8006691685
 20
3.0693855205
 30
0.0
 10
3.8037628328
 20
3.0696531474
 30
0.0
 10
3.8074237554
 20
3.0699218451
 30
0.0
 10
3.8116435533
 20
3.0701914029
 30
0.0
 10
3.8164127038
 20
3.0704614984
 30
0.0
 10
3.8217202388
 20
3.0707319678
 30
0.0
 10
3.827554066
 20
3.0710027248
 30
0.0
 10
3.8339007653
 20
3.0712736921
 30
0.0
 10
3.8433452218
 20
3.0716477167
 30
0.0
 10
3.8563143895
 20
3.0721098649
 30
0.0
 10
3.8731880419
 20
3.07264896
 30
0.0
 10
3.8916937811
 20
3.0731888441
 30
0.0
 10
3.9116619595
 20
3.0737293506
 30
0.0
 10
3.9329095323
 20
3.0742702813
 30
0.0
 10
3.9552416997
 20
3.0748115219
 30
0.0
 10
3.978453732
 20
3.0753529867
 30
0.0
 10
4.0105418818
 20
3.0760807754
 30
0.0
 10
4.0348692065
 20
3.0766174408
 30
0.0
 10
4.0512123403
 20
3.076978058
 30
0.0
  0
SPLINE
  5
3A9
100
AcDbEntity
  8
0
100
AcDbSpline
 62
7
  6
CONTINUOUS
 70
0
 71
3
 72
37
 73
33
 74
0
 42
0.0000001
 43
0.0000001
 44
0.0000000001
 40
0.0
 40
0.0
 40
0.0
 40
0.0
 40
0.0707607134
 40
0.1471977193
 40
0.2278988273
 40
0.311368859
 40
0.3960617343
 40
0.4804094573
 40
0.5628496572
 40
0.6418560545
 40
0.715965473
 40
0.7507509839
 40
0.7838064284
 40
0.8149786267
 40
0.8441234566
 40
0.8711060095
 40
0.8958015389
 40
0.918096351
 40
0.9378877693
 40
0.9550848892
 40
0.962685982
 40
0.9696101617
 40
0.9758502104
 40
0.9813993375
 40
0.9862516876
 40
0.9904032882
 40
0.9938511303
 40
0.9965946172
 40
0.9977035344
 40
0.9986387122
 40
0.9994025825
 40
1.0
 40
1.0
 40
1.0
 40
1.0
 10
6.9102847766
 20
3.0188118147
 30
0.0
 10
6.919091101
 20
3.0190823958
 30
0.0
 10
6.9374110979
 20
3.0196153422
 30
0.0
 10
6.9657766747
 20
3.0203806793
 30
0.0
 10
6.99572522
 20
3.0211468624
 30
0.0
 10
7.0267020183
 20
3.0219135542
 30
0.0
 10
7.0581329907
 20
3.0226804496
 30
0.0
 10
7.089435701
 20
3.0234472911
 30
0.0
 10
7.1200301773
 20
3.0242137921
 30
0.0
 10
7.1493494752
 20
3.024979685
 30
0.0
 10
7.1727362208
 20
3.0256299551
 30
0.0
 10
7.1904027848
 20
3.0261553575
 30
0.0
 10
7.2027249775
 20
3.0265409181
 30
0.0
 10
7.2143444878
 20
3.0269262903
 30
0.0
 10
7.2252074237
 20
3.027311429
 30
0.0
 10
7.2352634135
 20
3.0276962552
 30
0.0
 10
7.244465842
 20
3.0280806784
 30
0.0
 10
7.2527720732
 20
3.0284644972
 30
0.0
 10
7.260143595
 20
3.0288475627
 30
0.0
 10
7.265685748
 20
3.029177853
 30
0.0
 10
7.2696264495
 20
3.0294458857
 30
0.0
 10
7.2722048056
 20
3.029638385
 30
0.0
 10
7.2745269078
 20
3.0298306343
 30
0.0
 10
7.2765901006
 20
3.0300225512
 30
0.0
 10
7.2783920278
 20
3.0302140511
 30
0.0
 10
7.2799307719
 20
3.0304047552
 30
0.0
 10
7.2812046219
 20
3.0305945749
 30
0.0
 10
7.2820987452
 20
3.0307606069
 30
0.0
 10
7.2826789001
 20
3.030898063
 30
0.0
 10
7.2830154821
 20
3.0309933643
 30
0.0
 10
7.2832854011
 20
3.0310881392
 30
0.0
 10
7.2834399285
 20
3.0311592389
 30
0.0
 10
7.2835043304
 20
3.0311964615
 30
0.0
  0
LINE
  5
3AA
100
AcDbEntity
  8
0
100
AcDbLine
 62
7
  6
CONTINUOUS
 10
3.818920392
 20
3.0470271681
 11
3.8196982413
 21
3.0473102489
  0
SPLINE
  5
3AB
100
AcDbEntity
  8
0
100
AcDbSpline
 62
7
  6
CONTINUOUS
 70
0
 71
3
 72
59
 73
55
 74
0
 42
0.0000001
 43
0.0000001
 44
0.0000000001
 40
0.0
 40
0.0
 40
0.0
 40
0.0
 40
0.0012719268
 40
0.002819801
 40
0.0046445603
 40
0.0067463888
 40
0.0117793685
 40
0.0179106785
 40
0.0251287839
 40
0.0334181152
 40
0.0427610005
 40
0.0531364776
 40
0.0768906932
 40
0.1044673456
 40
0.1356176577
 40
0.1700599323
 40
0.2074821673
 40
0.2475454115
 40
0.2898866346
 40
0.3341218149
 40
0.4266564237
 40
0.521800323
 40
0.5692750264
 40
0.6161101384
 40
0.6618808576
 40
0.7061723205
 40
0.74858285
 40
0.7887278499
 40
0.8262436283
 40
0.860790251
 40
0.8920547942
 40
0.906366619
 40
0.9197546256
 40
0.9321881886
 40
0.9436397227
 40
0.9540830944
 40
0.9634953981
 40
0.9718554366
 40
0.9791453555
 40
0.9853494387
 40
0.9880404563
 40
0.9904558733
 40
0.9925946818
 40
0.9944562989
 40
0.9960409182
 40
0.9973494687
 40
0.9979009367
 40
0.9983844944
 40
0.9988010238
 40
0.999152011
 40
0.999439986
 40
0.9996695907
 40
0.9998500537
 40
1.0
 40
1.0
 40
1.0
 40
1.0
 10
3.8196982413
 20
3.0473102489
 30
0.0
 10
3.8198886232
 20
3.0473608234
 30
0.0
 10
3.82031448
 20
3.0474586047
 30
0.0
 10
3.8210214118
 20
3.0475919509
 30
0.0
 10
3.8218587073
 20
3.0477258125
 30
0.0
 10
3.8232332048
 20
3.0479163943
 30
0.0
 10
3.8252748663
 20
3.048148436
 30
0.0
 10
3.8281093581
 20
3.0484149376
 30
0.0
 10
3.8314499774
 20
3.0486823802
 30
0.0
 10
3.8352892603
 20
3.0489506623
 30
0.0
 10
3.8396185465
 20
3.0492194415
 30
0.0
 10
3.8463407208
 20
3.0495954831
 30
0.0
 10
3.8558862247
 20
3.0500571371
 30
0.0
 10
3.8686490539
 20
3.0505915767
 30
0.0
 10
3.8830683824
 20
3.051127344
 30
0.0
 10
3.8990134046
 20
3.05166417
 30
0.0
 10
3.9163394754
 20
3.0522016753
 30
0.0
 10
3.9348893953
 20
3.0527396765
 30
0.0
 10
3.9544948506
 20
3.0532780462
 30
0.0
 10
3.9822244172
 20
3.0540071501
 30
0.0
 10
4.0181299558
 20
3.0549053736
 30
0.0
 10
4.0545376262
 20
3.0557922005
 30
0.0
 10
4.0838697453
 20
3.0565113316
 30
0.0
 10
4.1055574982
 20
3.0570502496
 30
0.0
 10
4.1267521069
 20
3.0575890486
 30
0.0
 10
4.1472612525
 20
3.0581276704
 30
0.0
 10
4.1668988317
 20
3.0586660381
 30
0.0
 10
4.185486649
 20
3.0592040582
 30
0.0
 10
4.2028560497
 20
3.0597415744
 30
0.0
 10
4.2188494346
 20
3.0602784527
 30
0.0
 10
4.2312497284
 20
3.0607374803
 30
0.0
 10
4.2403740899
 20
3.0611083515
 30
0.0
 10
4.2465837514
 20
3.0613781151
 30
0.0
 10
4.2523499961
 20
3.0616477316
 30
0.0
 10
4.2576596752
 20
3.0619171387
 30
0.0
 10
4.2625008086
 20
3.0621862992
 30
0.0
 10
4.2668623677
 20
3.0624550961
 30
0.0
 10
4.2707345605
 20
3.0627233835
 30
0.0
 10
4.274108586
 20
3.0629910081
 30
0.0
 10
4.2766045853
 20
3.0632226787
 30
0.0
 10
4.2783461112
 20
3.0634112707
 30
0.0
 10
4.27946014
 20
3.063545745
 30
0.0
 10
4.2804447067
 20
3.0636799809
 30
0.0
 10
4.2812993292
 20
3.0638138727
 30
0.0
 10
4.2820236046
 20
3.0639473382
 30
0.0
 10
4.2825445216
 20
3.0640635115
 30
0.0
 10
4.2828948573
 20
3.0641586276
 30
0.0
 10
4.2831094836
 20
3.064225731
 30
0.0
 10
4.2832914171
 20
3.0642926873
 30
0.0
 10
4.2834407851
 20
3.0643594969
 30
0.0
 10
4.2835579694
 20
3.064426196
 30
0.0
 10
4.2836434407
 20
3.064493265
 30
0.0
 10
4.2836982717
 20
3.0645621625
 30
0.0
 10
4.283712299
 20
3.0646135923
 30
0.0
 10
4.2837123062
 20
3.0646368147
 30
0.0
  0
SPLINE
  5
3AC
100
AcDbEntity
  8
0
100
AcDbSpline
 62
7
  6
CONTINUOUS
 70
0
 71
3
 72
32
 73
28
 74
0
 42
0.0000001
 43
0.0000001
 44
0.0000000001
 40
0.0
 40
0.0
 40
0.0
 40
0.0
 40
0.0005910552
 40
0.0013130831
 40
0.0031631378
 40
0.0055659637
 40
0.0085272027
 40
0.012049128
 40
0.0161317942
 40
0.0259737726
 40
0.0380381487
 40
0.0523000474
 40
0.068729546
 40
0.0872896056
 40
0.1079392539
 40
0.1306311352
 40
0.1553143853
 40
0.1819321632
 40
0.2407252916
 40
0.3064732398
 40
0.3785747404
 40
0.4563697425
 40
0.5391456073
 40
0.6261444055
 40
0.7165688821
 40
0.8095905118
 40
1.0
 40
1.0
 40
1.0
 40
1.0
 10
3.7939002019
 20
3.0325701043
 30
0.0
 10
3.7939441377
 20
3.0325954923
 30
0.0
 10
3.7940457943
 20
3.032644845
 30
0.0
 10
3.7942993671
 20
3.032742485
 30
0.0
 10
3.7947109286
 20
3.0328592608
 30
0.0
 10
3.7953159354
 20
3.0329922243
 30
0.0
 10
3.7960671993
 20
3.0331259314
 30
0.0
 10
3.7969643473
 20
3.0332603626
 30
0.0
 10
3.7984499207
 20
3.033452234
 30
0.0
 10
3.8006691685
 20
3.0336855205
 30
0.0
 10
3.8037628328
 20
3.0339531474
 30
0.0
 10
3.8074237554
 20
3.0342218451
 30
0.0
 10
3.8116435533
 20
3.0344914029
 30
0.0
 10
3.8164127038
 20
3.0347614984
 30
0.0
 10
3.8217202388
 20
3.0350319678
 30
0.0
 10
3.827554066
 20
3.0353027248
 30
0.0
 10
3.8339007653
 20
3.0355736921
 30
0.0
 10
3.8433452218
 20
3.0359477167
 30
0.0
 10
3.8563143895
 20
3.0364098649
 30
0.0
 10
3.8731880419
 20
3.03694896
 30
0.0
 10
3.8916937811
 20
3.0374888441
 30
0.0
 10
3.9116619595
 20
3.0380293506
 30
0.0
 10
3.9329095323
 20
3.0385702813
 30
0.0
 10
3.9552416997
 20
3.0391115219
 30
0.0
 10
3.978453732
 20
3.0396529867
 30
0.0
 10
4.0105418818
 20
3.0403807754
 30
0.0
 10
4.0348692065
 20
3.0409174408
 30
0.0
 10
4.0512123403
 20
3.041278058
 30
0.0
  0
SPLINE
  5
3AD
100
AcDbEntity
  8
0
100
AcDbSpline
 62
7
  6
CONTINUOUS
 70
0
 71
3
 72
27
 73
23
 74
0
 42
0.0000001
 43
0.0000001
 44
0.0000000001
 40
0.0
 40
0.0
 40
0.0
 40
0.0
 40
0.2427773259
 40
0.4524534955
 40
0.6282613111
 40
0.7032094353
 40
0.7693725365
 40
0.8266296213
 40
0.8748498671
 40
0.9138942799
 40
0.9299346445
 40
0.9436353954
 40
0.9549936527
 40
0.9640307087
 40
0.9708332506
 40
0.97348012
 40
0.9757163728
 40
0.9776830641
 40
0.9795930741
 40
0.9841299623
 40
0.9907246546
 40
1.0
 40
1.0
 40
1.0
 40
1.0
 10
6.8242365661
 20
3.1138118147
 30
0.0
 10
6.8232106592
 20
3.1138118147
 30
0.0
 10
6.8212987166
 20
3.1138146789
 30
0.0
 10
6.8186439105
 20
3.1138316408
 30
0.0
 10
6.8166984045
 20
3.1138587145
 30
0.0
 10
6.8153595775
 20
3.1138912748
 30
0.0
 10
6.8145217891
 20
3.1139194057
 30
0.0
 10
6.8137972309
 20
3.113953028
 30
0.0
 10
6.8131877942
 20
3.1139929029
 30
0.0
 10
6.8127530474
 20
3.1140338697
 30
0.0
 10
6.8124649569
 20
3.1140728911
 30
0.0
 10
6.812293793
 20
3.1141025115
 30
0.0
 10
6.8121531626
 20
3.1141345328
 30
0.0
 10
6.8120435207
 20
3.1141691788
 30
0.0
 10
6.8119722183
 20
3.1142027123
 30
0.0
 10
6.8119330213
 20
3.1142331269
 30
0.0
 10
6.8119141225
 20
3.1142554382
 30
0.0
 10
6.8119037013
 20
3.1142796158
 30
0.0
 10
6.811902568
 20
3.1143160415
 30
0.0
 10
6.8119312551
 20
3.1143665183
 30
0.0
 10
6.8119965341
 20
3.1144230874
 30
0.0
 10
6.812053435
 20
3.1144591133
 30
0.0
 10
6.8120873717
 20
3.1144787232
 30
0.0
  0
SPLINE
  5
3AE
100
AcDbEntity
  8
0
100
AcDbSpline
 62
7
  6
CONTINUOUS
 70
0
 71
3
 72
39
 73
35
 74
0
 42
0.0000001
 43
0.0000001
 44
0.0000000001
 40
0.0
 40
0.0
 40
0.0
 40
0.0
 40
0.0721323156
 40
0.1501304438
 40
0.2324968044
 40
0.3176456592
 40
0.4039381991
 40
0.4897142212
 40
0.5733227944
 40
0.6531553785
 40
0.6911719954
 40
0.7276758029
 40
0.7624913231
 40
0.7954510538
 40
0.8263961103
 40
0.8551777702
 40
0.88165797
 40
0.905709503
 40
0.9272169973
 40
0.9460780697
 40
0.9622033135
 40
0.9755172471
 40
0.9811009482
 40
0.9859606336
 40
0.9900922643
 40
0.9934929494
 40
0.9949190523
 40
0.9961628523
 40
0.9972253102
 40
0.9981081866
 40
0.9988148461
 40
0.999104231
 40
0.9993528543
 40
1.0
 40
1.0
 40
1.0
 40
1.0
 10
6.9102847766
 20
3.0163118147
 30
0.0
 10
6.9192695482
 20
3.0165878787
 30
0.0
 10
6.9379706929
 20
3.0171313187
 30
0.0
 10
6.9669335793
 20
3.0179112004
 30
0.0
 10
6.9975190953
 20
3.0186919752
 30
0.0
 10
7.0291385545
 20
3.0194732787
 30
0.0
 10
7.061183042
 20
3.0202547818
 30
0.0
 10
7.093035528
 20
3.0210361883
 30
0.0
 10
7.1240827476
 20
3.0218172315
 30
0.0
 10
7.1491794084
 20
3.0224777373
 30
0.0
 10
7.1684072431
 20
3.0230108583
 30
0.0
 10
7.1820268391
 20
3.0234040714
 30
0.0
 10
7.1950159845
 20
3.0237971472
 30
0.0
 10
7.2073120797
 20
3.0241900563
 30
0.0
 10
7.2188558464
 20
3.0245827524
 30
0.0
 10
7.2295916568
 20
3.0249751665
 30
0.0
 10
7.2394678044
 20
3.0253672042
 30
0.0
 10
7.2484367052
 20
3.0257587151
 30
0.0
 10
7.2564551552
 20
3.0261495277
 30
0.0
 10
7.2634846122
 20
3.026539161
 30
0.0
 10
7.2694912609
 20
3.026927376
 30
0.0
 10
7.2738429161
 20
3.0272651248
 30
0.0
 10
7.2767905665
 20
3.0275423984
 30
0.0
 10
7.2785964659
 20
3.0277374394
 30
0.0
 10
7.2801285495
 20
3.0279317616
 30
0.0
 10
7.2812322944
 20
3.0281009533
 30
0.0
 10
7.2819760307
 20
3.0282396921
 30
0.0
 10
7.2824308763
 20
3.0283373739
 30
0.0
 10
7.282816266
 20
3.0284346171
 30
0.0
 10
7.2831325764
 20
3.0285317418
 30
0.0
 10
7.2833507313
 20
3.0286162172
 30
0.0
 10
7.2834901505
 20
3.0286869198
 30
0.0
 10
7.283613044
 20
3.028761835
 30
0.0
 10
7.2837122788
 20
3.0288561684
 30
0.0
 10
7.283712282
 20
3.0289368147
 30
0.0
  0
SPLINE
  5
3AF
100
AcDbEntity
  8
0
100
AcDbSpline
 62
7
  6
CONTINUOUS
 70
0
 71
3
 72
31
 73
27
 74
0
 42
0.0000001
 43
0.0000001
 44
0.0000000001
 40
0.0
 40
0.0
 40
0.0
 40
0.0
 40
0.0008439983
 40
0.0013613405
 40
0.0019695941
 40
0.0035024114
 40
0.0054989472
 40
0.0079823477
 40
0.0109638817
 40
0.0144495718
 40
0.0184428508
 40
0.0279589097
 40
0.0395198504
 40
0.0531232582
 40
0.068761676
 40
0.1061037084
 40
0.1514369343
 40
0.2046212638
 40
0.2654843784
 40
0.3338295416
 40
0.4094330195
 40
0.4920465618
 40
0.5814002823
 40
0.6771950395
 40
0.7791201647
 40
1.0
 40
1.0
 40
1.0
 40
1.0
 10
3.7937123934
 20
3.0280205714
 30
0.0
 10
3.793712398
 20
3.0280491915
 30
0.0
 10
3.7937300426
 20
3.028095362
 30
0.0
 10
3.7937732679
 20
3.0281462452
 30
0.0
 10
3.7938419503
 20
3.0282052635
 30
0.0
 10
3.7939641115
 20
3.0282759346
 30
0.0
 10
3.7941518787
 20
3.0283558668
 30
0.0
 10
3.7943920728
 20
3.0284361041
 30
0.0
 10
3.7946847743
 20
3.0285167113
 30
0.0
 10
3.7950302282
 20
3.0285975577
 30
0.0
 10
3.7955950322
 20
3.0287123955
 30
0.0
 10
3.7964337732
 20
3.0288524815
 30
0.0
 10
3.7975988126
 20
3.029013356
 30
0.0
 10
3.7989730625
 20
3.029174804
 30
0.0
 10
3.8012192711
 20
3.0294044719
 30
0.0
 10
3.804541563
 20
3.0296842044
 30
0.0
 10
3.8091374144
 20
3.0300056583
 30
0.0
 10
3.8145324573
 20
3.0303282502
 30
0.0
 10
3.8207089646
 20
3.0306518324
 30
0.0
 10
3.8276465986
 20
3.0309759896
 30
0.0
 10
3.8353224889
 20
3.0313005851
 30
0.0
 10
3.8437113452
 20
3.0316254999
 30
0.0
 10
3.852785351
 20
3.0319506376
 30
0.0
 10
3.8625145961
 20
3.0322759757
 30
0.0
 10
3.8767023246
 20
3.0327219779
 30
0.0
 10
3.8876441134
 20
3.0330378575
 30
0.0
 10
3.8951312751
 20
3.0332455714
 30
0.0
  0
SPLINE
  5
3B0
100
AcDbEntity
  8
0
100
AcDbSpline
 62
7
  6
CONTINUOUS
 70
0
 71
3
 72
33
 73
29
 74
0
 42
0.0000001
 43
0.0000001
 44
0.0000000001
 40
0.0
 40
0.0
 40
0.0
 40
0.0
 40
0.0005910518
 40
0.0013130769
 40
0.0031631304
 40
0.0055659563
 40
0.0085271903
 40
0.0120491021
 40
0.0161317549
 40
0.0259737186
 40
0.0380381128
 40
0.0523000275
 40
0.0687294955
 40
0.0872895096
 40
0.107939113
 40
0.1306309823
 40
0.1553142615
 40
0.1819320581
 40
0.2407250687
 40
0.306473
 40
0.3785745516
 40
0.456369457
 40
0.5391453898
 40
0.6261442805
 40
0.716568734
 40
0.8095901361
 40
0.9043559804
 40
1.0
 40
1.0
 40
1.0
 40
1.0
 10
4.3085244777
 20
3.0099535251
 30
0.0
 10
4.3084805425
 20
3.0099281373
 30
0.0
 10
4.3083788872
 20
3.0098787846
 30
0.0
 10
4.3081253166
 20
3.0097811448
 30
0.0
 10
4.3077137578
 20
3.0096643696
 30
0.0
 10
4.3071087549
 20
3.0095314069
 30
0.0
 10
4.3063574968
 20
3.0093977007
 30
0.0
 10
4.3054603566
 20
3.0092632699
 30
0.0
 10
4.3039747952
 20
3.0090713994
 30
0.0
 10
4.3017555607
 20
3.0088381135
 30
0.0
 10
4.298661912
 20
3.0085704873
 30
0.0
 10
4.2950010097
 20
3.0083017902
 30
0.0
 10
4.2907812405
 20
3.0080322331
 30
0.0
 10
4.2860121271
 20
3.0077621392
 30
0.0
 10
4.2807046305
 20
3.0074916708
 30
0.0
 10
4.2748708383
 20
3.0072209146
 30
0.0
 10
4.2685241715
 20
3.006949948
 30
0.0
 10
4.2590797738
 20
3.0065759246
 30
0.0
 10
4.2461106886
 20
3.0061137771
 30
0.0
 10
4.2292371376
 20
3.0055746879
 30
0.0
 10
4.2107315075
 20
3.0050347904
 30
0.0
 10
4.1907634375
 20
3.0044943418
 30
0.0
 10
4.1695159826
 20
3.0039532078
 30
0.0
 10
4.1471839112
 20
3.003412715
 30
0.0
 10
4.1239720833
 20
3.0028685549
 30
0.0
 10
4.1000929937
 20
3.0023367165
 30
0.0
 10
4.0757667151
 20
3.0017591371
 30
0.0
 10
4.0594215904
 20
3.0014892947
 30
0.0
 10
4.0512130683
 20
3.0012787088
 30
0.0
  0
SPLINE
  5
3B1
100
AcDbEntity
  8
0
100
AcDbSpline
 62
7
  6
CONTINUOUS
 70
0
 71
3
 72
34
 73
30
 74
0
 42
0.0000001
 43
0.0000001
 44
0.0000000001
 40
0.0
 40
0.0
 40
0.0
 40
0.0
 40
0.0012344905
 40
0.0029338166
 40
0.0051116166
 40
0.0077736249
 40
0.0145593397
 40
0.0233001615
 40
0.0339961085
 40
0.0466412043
 40
0.0612263537
 40
0.0777417059
 40
0.0961753788
 40
0.1165120335
 40
0.162830233
 40
0.2165542069
 40
0.2775199259
 40
0.3455293167
 40
0.4203671207
 40
0.5018425117
 40
0.5896905084
 40
0.6358616093
 40
0.6834639432
 40
0.7831336975
 40
0.8090290219
 40
0.8353278251
 40
0.8890368911
 40
0.9440132504
 40
1.0
 40
1.0
 40
1.0
 40
1.0
 10
3.7967167098
 20
2.9984974031
 30
0.0
 10
3.7967517645
 20
2.9985176624
 30
0.0
 10
3.7968411227
 20
2.9985548561
 30
0.0
 10
3.7970016575
 20
2.9986031701
 30
0.0
 10
3.7972106615
 20
2.9986519309
 30
0.0
 10
3.7975852539
 20
2.9987232655
 30
0.0
 10
3.7981758961
 20
2.9988086376
 30
0.0
 10
3.799030416
 20
2.9989060776
 30
0.0
 10
3.8000781118
 20
2.9990040063
 30
0.0
 10
3.8013181093
 20
2.9991024137
 30
0.0
 10
3.8027494711
 20
2.9992010417
 30
0.0
 10
3.8043710617
 20
2.9992998152
 30
0.0
 10
3.8061815914
 20
2.9993986749
 30
0.0
 10
3.8089688556
 20
2.9995366447
 30
0.0
 10
3.8129133282
 20
2.9997065274
 30
0.0
 10
3.8181902964
 20
2.9999031848
 30
0.0
 10
3.8241791291
 20
3.0000991963
 30
0.0
 10
3.8308607387
 20
3.0002959073
 30
0.0
 10
3.8382151717
 20
3.0004964197
 30
0.0
 10
3.8462206442
 20
3.000690468
 30
0.0
 10
3.8532866269
 20
3.0008426532
 30
0.0
 10
3.8592417654
 20
3.0009783759
 30
0.0
 10
3.8655842331
 20
3.001134358
 30
0.0
 10
3.871262305
 20
3.0012620736
 30
0.0
 10
3.876242574
 20
3.001329921
 30
0.0
 10
3.8797157618
 20
3.0013623602
 30
0.0
 10
3.8841428207
 20
3.0013848119
 30
0.0
 10
3.8895435221
 20
3.0014153412
 30
0.0
 10
3.8931826095
 20
3.0014586603
 30
0.0
 10
3.8950185306
 20
3.0014912365
 30
0.0
  0
SPLINE
  5
3B2
100
AcDbEntity
  8
0
100
AcDbSpline
 62
7
  6
CONTINUOUS
 70
0
 71
3
 72
25
 73
21
 74
0
 42
0.0000001
 43
0.0000001
 44
0.0000000001
 40
0.0
 40
0.0
 40
0.0
 40
0.0
 40
0.0019100079
 40
0.0042560057
 40
0.0102997242
 40
0.018183615
 40
0.0279255502
 40
0.0395291345
 40
0.0529920379
 40
0.0854724911
 40
0.1252901557
 40
0.1723381189
 40
0.2264796545
 40
0.2875586685
 40
0.3553920883
 40
0.4297800125
 40
0.5105002867
 40
0.5973109853
 40
0.7881437477
 40
1.0
 40
1.0
 40
1.0
 40
1.0
 10
3.81892035
 20
3.0113271681
 30
0.0
 10
3.8189708353
 20
3.0113563373
 30
0.0
 10
3.8190881477
 20
3.0114129349
 30
0.0
 10
3.8193821633
 20
3.0115248638
 30
0.0
 10
3.8198614862
 20
3.0116584994
 30
0.0
 10
3.8205679449
 20
3.011810629
 30
0.0
 10
3.8214472285
 20
3.0119636082
 30
0.0
 10
3.8224986828
 20
3.012117475
 30
0.0
 10
3.8242417014
 20
3.0123371741
 30
0.0
 10
3.8268463393
 20
3.0126041394
 30
0.0
 10
3.8304767711
 20
3.0129104718
 30
0.0
 10
3.8347703427
 20
3.0132179899
 30
0.0
 10
3.8397142843
 20
3.0135265556
 30
0.0
 10
3.8452937879
 20
3.013835699
 30
0.0
 10
3.8514921633
 20
3.0141453109
 30
0.0
 10
3.8582907822
 20
3.0144552262
 30
0.0
 10
3.8656692525
 20
3.0147654031
 30
0.0
 10
3.8766005582
 20
3.0151928108
 30
0.0
 10
3.8915340624
 20
3.0157208504
 30
0.0
 10
3.9038205647
 20
3.0161131968
 30
0.0
 10
3.9102847766
 20
3.0163118147
 30
0.0
  0
SPLINE
  5
3B3
100
AcDbEntity
  8
0
100
AcDbSpline
 62
7
  6
CONTINUOUS
 70
0
 71
3
 72
37
 73
33
 74
0
 42
0.0000001
 43
0.0000001
 44
0.0000000001
 40
0.0
 40
0.0
 40
0.0
 40
0.0
 40
0.0003103495
 40
0.0007490098
 40
0.0013249488
 40
0.0020419526
 40
0.0039056365
 40
0.0063476636
 40
0.0093702865
 40
0.0129732878
 40
0.0171556009
 40
0.0219158009
 40
0.0272519499
 40
0.0331610745
 40
0.0466852886
 40
0.0624601784
 40
0.080449661
 40
0.1006139137
 40
0.1229059422
 40
0.147275238
 40
0.1736643682
 40
0.2020125839
 40
0.2322526118
 40
0.298120578
 40
0.3706458162
 40
0.449138162
 40
0.532846638
 40
0.6209666297
 40
0.7126462551
 40
0.8069954288
 40
0.9030939331
 40
1.0
 40
1.0
 40
1.0
 40
1.0
 10
4.2944423584
 20
2.9870418347
 30
0.0
 10
4.2944245548
 20
2.987024035
 30
0.0
 10
4.2943724893
 20
2.9869908446
 30
0.0
 10
4.2942736565
 20
2.9869487171
 30
0.0
 10
4.2941395803
 20
2.9869060343
 30
0.0
 10
4.2938913085
 20
2.9868431784
 30
0.0
 10
4.293490463
 20
2.9867682981
 30
0.0
 10
4.2929021293
 20
2.986682918
 30
0.0
 10
4.2921715131
 20
2.9865970003
 30
0.0
 10
4.2912990284
 20
2.9865105339
 30
0.0
 10
4.2902850197
 20
2.9864237853
 30
0.0
 10
4.2891299968
 20
2.9863368139
 30
0.0
 10
4.2878345556
 20
2.9862496829
 30
0.0
 10
4.2858289565
 20
2.986127782
 30
0.0
 10
4.2829767824
 20
2.9859777175
 30
0.0
 10
4.2791446686
 20
2.9858040024
 30
0.0
 10
4.2747734566
 20
2.9856297655
 30
0.0
 10
4.2698732247
 20
2.9854551068
 30
0.0
 10
4.2644551818
 20
2.9852801027
 30
0.0
 10
4.2585319493
 20
2.9851048247
 30
0.0
 10
4.2521172514
 20
2.9849292924
 30
0.0
 10
4.2452261631
 20
2.984753543
 30
0.0
 10
4.2351332187
 20
2.9845119996
 30
0.0
 10
4.2214570306
 20
2.9842126141
 30
0.0
 10
4.2038668667
 20
2.9838616865
 30
0.0
 10
4.1848292414
 20
2.9835098527
 30
0.0
 10
4.1645263908
 20
2.9831571945
 30
0.0
 10
4.1431536542
 20
2.9828038068
 30
0.0
 10
4.1209176471
 20
2.9824497469
 30
0.0
 10
4.0980343572
 20
2.9820950629
 30
0.0
 10
4.07472706
 20
2.981739792
 30
0.0
 10
4.0590724113
 20
2.9815027883
 30
0.0
 10
4.0512123389
 20
2.9813836114
 30
0.0
  0
SPLINE
  5
3B4
100
AcDbEntity
  8
0
100
AcDbSpline
 62
7
  6
CONTINUOUS
 70
0
 71
3
 72
39
 73
35
 74
0
 42
0.0000001
 43
0.0000001
 44
0.0000000001
 40
0.0
 40
0.0
 40
0.0
 40
0.0
 40
0.0002806627
 40
0.0006327591
 40
0.0010957628
 40
0.0016873482
 40
0.0024158533
 40
0.0032855574
 40
0.0042988638
 40
0.0054572142
 40
0.0082121656
 40
0.0115545893
 40
0.0154856003
 40
0.0200042979
 40
0.0251090379
 40
0.0307978095
 40
0.0439155454
 40
0.0593284419
 40
0.0770018977
 40
0.0968939964
 40
0.1189582232
 40
0.1431416379
 40
0.1693868493
 40
0.1976306401
 40
0.2278055122
 40
0.2936538015
 40
0.3662993387
 40
0.4450434409
 40
0.5291286406
 40
0.6177461689
 40
0.7100428075
 40
0.8051306667
 40
0.9020938359
 40
1.0
 40
1.0
 40
1.0
 40
1.0
 10
3.7937123967
 20
3.0637205714
 30
0.0
 10
3.7937123967
 20
3.0637446949
 30
0.0
 10
3.7937297951
 20
3.0637991855
 30
0.0
 10
3.7937946742
 20
3.0638694669
 30
0.0
 10
3.7938947757
 20
3.0639381535
 30
0.0
 10
3.7940322806
 20
3.0640065913
 30
0.0
 10
3.7942076675
 20
3.0640752911
 30
0.0
 10
3.7944214053
 20
3.0641441926
 30
0.0
 10
3.7946735835
 20
3.0642132849
 30
0.0
 10
3.7950855915
 20
3.0643113248
 30
0.0
 10
3.7956978682
 20
3.0644309955
 30
0.0
 10
3.7965488789
 20
3.064568449
 30
0.0
 10
3.7975530874
 20
3.0647063439
 30
0.0
 10
3.7987099231
 20
3.0648446246
 30
0.0
 10
3.8000187566
 20
3.0649831588
 30
0.0
 10
3.8020647982
 20
3.0651774475
 30
0.0
 10
3.804996442
 20
3.0654160857
 30
0.0
 10
3.8089582395
 20
3.0656917951
 30
0.0
 10
3.8135034868
 20
3.0659681548
 30
0.0
 10
3.8186213162
 20
3.0662450768
 30
0.0
 10
3.8242994025
 20
3.066522344
 30
0.0
 10
3.830524125
 20
3.0667998931
 30
0.0
 10
3.8372804668
 20
3.0670776347
 30
0.0
 10
3.8445521802
 20
3.0673555487
 30
0.0
 10
3.8552263285
 20
3.0677374639
 30
0.0
 10
3.8697160358
 20
3.0682101607
 30
0.0
 10
3.8883798567
 20
3.0687631851
 30
0.0
 10
3.9086117852
 20
3.0693168654
 30
0.0
 10
3.9302169976
 20
3.0698710583
 30
0.0
 10
3.9529874271
 20
3.0704256021
 30
0.0
 10
3.9767038163
 20
3.0709803993
 30
0.0
 10
4.0011377138
 20
3.071535367
 30
0.0
 10
4.0260538788
 20
3.0720904437
 30
0.0
 10
4.0427991757
 20
3.0724599319
 30
0.0
 10
4.0512123403
 20
3.0726455714
 30
0.0
  0
SPLINE
  5
3B5
100
AcDbEntity
  8
0
100
AcDbSpline
 62
7
  6
CONTINUOUS
 70
0
 71
3
 72
31
 73
27
 74
0
 42
0.0000001
 43
0.0000001
 44
0.0000000001
 40
0.0
 40
0.0
 40
0.0
 40
0.0
 40
0.0008439983
 40
0.0013613405
 40
0.0019695941
 40
0.0035024114
 40
0.0054989472
 40
0.0079823477
 40
0.0109638817
 40
0.0144495718
 40
0.0184428508
 40
0.0279589097
 40
0.0395198504
 40
0.0531232582
 40
0.068761676
 40
0.1061037084
 40
0.1514369343
 40
0.2046212638
 40
0.2654843784
 40
0.3338295416
 40
0.4094330195
 40
0.4920465618
 40
0.5814002823
 40
0.6771950395
 40
0.7791201647
 40
1.0
 40
1.0
 40
1.0
 40
1.0
 10
6.7937123934
 20
3.0280205714
 30
0.0
 10
6.793712398
 20
3.0280491915
 30
0.0
 10
6.7937300426
 20
3.028095362
 30
0.0
 10
6.7937732679
 20
3.0281462452
 30
0.0
 10
6.7938419503
 20
3.0282052635
 30
0.0
 10
6.7939641115
 20
3.0282759346
 30
0.0
 10
6.7941518787
 20
3.0283558668
 30
0.0
 10
6.7943920728
 20
3.0284361041
 30
0.0
 10
6.7946847743
 20
3.0285167113
 30
0.0
 10
6.7950302282
 20
3.0285975577
 30
0.0
 10
6.7955950322
 20
3.0287123955
 30
0.0
 10
6.7964337732
 20
3.0288524815
 30
0.0
 10
6.7975988126
 20
3.029013356
 30
0.0
 10
6.7989730625
 20
3.029174804
 30
0.0
 10
6.8012192711
 20
3.0294044719
 30
0.0
 10
6.804541563
 20
3.0296842044
 30
0.0
 10
6.8091374144
 20
3.0300056583
 30
0.0
 10
6.8145324573
 20
3.0303282502
 30
0.0
 10
6.8207089646
 20
3.0306518324
 30
0.0
 10
6.8276465986
 20
3.0309759896
 30
0.0
 10
6.8353224889
 20
3.0313005851
 30
0.0
 10
6.8437113452
 20
3.0316254999
 30
0.0
 10
6.852785351
 20
3.0319506376
 30
0.0
 10
6.8625145961
 20
3.0322759757
 30
0.0
 10
6.8767023246
 20
3.0327219779
 30
0.0
 10
6.8876441134
 20
3.0330378575
 30
0.0
 10
6.8951312751
 20
3.0332455714
 30
0.0
  0
LINE
  5
3B6
100
AcDbEntity
  8
0
100
AcDbLine
 62
7
  6
CONTINUOUS
 10
3.8187123716
 20
2.9778868146
 11
3.8187503281
 21
2.9779895263
  0
SPLINE
  5
3B7
100
AcDbEntity
  8
0
100
AcDbSpline
 62
7
  6
CONTINUOUS
 70
0
 71
3
 72
58
 73
54
 74
0
 42
0.0000001
 43
0.0000001
 44
0.0000000001
 40
0.0
 40
0.0
 40
0.0
 40
0.0
 40
0.0002042995
 40
0.0004633984
 40
0.0007836834
 40
0.0011684747
 40
0.0021380858
 40
0.0033804843
 40
0.0048988685
 40
0.0066942889
 40
0.0087668302
 40
0.0111161474
 40
0.0166419421
 40
0.0232615598
 40
0.0309618966
 40
0.0397260935
 40
0.0495352335
 40
0.0603672084
 40
0.0721979806
 40
0.0850007344
 40
0.0987467425
 40
0.113404846
 40
0.1453228991
 40
0.1804657967
 40
0.2185149233
 40
0.2591253367
 40
0.3019285246
 40
0.3465359531
 40
0.3925429274
 40
0.4395318277
 40
0.4870759701
 40
0.5821029851
 40
0.6287230983
 40
0.67418119
 40
0.7180647441
 40
0.7599753152
 40
0.7995326738
 40
0.8363780889
 40
0.8701772973
 40
0.9006240552
 40
0.9274429377
 40
0.9394148069
 40
0.9503917713
 40
0.9603489521
 40
0.9692645051
 40
0.9771184675
 40
0.9838942873
 40
0.9895775885
 40
0.9941583834
 40
0.9960332451
 40
0.9976309777
 40
0.9989524745
 40
1.0
 40
1.0
 40
1.0
 40
1.0
 10
3.8187503281
 20
2.9779895263
 30
0.0
 10
3.8187691534
 20
2.9780149803
 30
0.0
 10
3.8188216295
 20
2.9780653131
 30
0.0
 10
3.8189234542
 20
2.9781319877
 30
0.0
 10
3.8190573914
 20
2.9781988166
 30
0.0
 10
3.8192983688
 20
2.9782956001
 30
0.0
 10
3.8196842399
 20
2.9784119777
 30
0.0
 10
3.8202470326
 20
2.9785445696
 30
0.0
 10
3.8209405704
 20
2.9786778267
 30
0.0
 10
3.8217645231
 20
2.978811704
 30
0.0
 10
3.8227186411
 20
2.9789459473
 30
0.0
 10
3.8242484996
 20
2.9791356933
 30
0.0
 10
3.8264828445
 20
2.97936772
 30
0.0
 10
3.8295466749
 20
2.9796348918
 30
0.0
 10
3.8331139127
 20
2.9799028534
 30
0.0
 10
3.8371765578
 20
2.9801715131
 30
0.0
 10
3.8417254085
 20
2.9804405784
 30
0.0
 10
3.8467501936
 20
2.9807099756
 30
0.0
 10
3.8522394757
 20
2.9809795953
 30
0.0
 10
3.8581808196
 20
2.9812493977
 30
0.0
 10
3.8645607106
 20
2.9815193425
 30
0.0
 10
3.8739011455
 20
2.981890022
 30
0.0
 10
3.8865563917
 20
2.9823490275
 30
0.0
 10
3.902835851
 20
2.9828863065
 30
0.0
 10
3.9204629696
 20
2.9834241857
 30
0.0
 10
3.9392776573
 20
2.9839625371
 30
0.0
 10
3.9591090301
 20
2.9845012156
 30
0.0
 10
3.9797769642
 20
2.985040132
 30
0.0
 10
4.0010937422
 20
2.9855792145
 30
0.0
 10
4.0228657449
 20
2.9861184007
 30
0.0
 10
4.052231979
 20
2.986837256
 30
0.0
 10
4.0815411525
 20
2.9875518378
 30
0.0
 10
4.1105267461
 20
2.9882752853
 30
0.0
 10
4.1315890632
 20
2.988814307
 30
0.0
 10
4.1519213293
 20
2.9893531308
 30
0.0
 10
4.1713388667
 20
2.9898916823
 30
0.0
 10
4.1896653153
 20
2.9904298503
 30
0.0
 10
4.2067342327
 20
2.9909674982
 30
0.0
 10
4.2223906086
 20
2.9915043662
 30
0.0
 10
4.2364922616
 20
2.9920402484
 30
0.0
 10
4.247211774
 20
2.992501111
 30
0.0
 10
4.2549149431
 20
2.992874964
 30
0.0
 10
4.2600070956
 20
2.9931443994
 30
0.0
 10
4.2646249217
 20
2.9934135334
 30
0.0
 10
4.2687579205
 20
2.9936822278
 30
0.0
 10
4.2723967899
 20
2.99395038
 30
0.0
 10
4.2755333484
 20
2.9942175082
 30
0.0
 10
4.278160591
 20
2.9944835291
 30
0.0
 10
4.2800276782
 20
2.9947157045
 30
0.0
 10
4.2812609471
 20
2.9949073957
 30
0.0
 10
4.2819919138
 20
2.9950409014
 30
0.0
 10
4.282592221
 20
2.9951736914
 30
0.0
 10
4.282946225
 20
2.9952725376
 30
0.0
 10
4.2831000558
 20
2.9953243718
 30
0.0
  0
LINE
  5
3B8
100
AcDbEntity
  8
0
100
AcDbLine
 62
7
  6
CONTINUOUS
 10
4.2831000558
 20
2.9953243718
 11
4.2835043038
 21
2.9954964615
  0
SPLINE
  5
3B9
100
AcDbEntity
  8
0
100
AcDbSpline
 62
7
  6
CONTINUOUS
 70
0
 71
3
 72
39
 73
35
 74
0
 42
0.0000001
 43
0.0000001
 44
0.0000000001
 40
0.0
 40
0.0
 40
0.0
 40
0.0
 40
0.001820947
 40
0.0026052546
 40
0.0033393504
 40
0.0040573763
 40
0.0047956126
 40
0.006454239
 40
0.0085148216
 40
0.0110784592
 40
0.0141958328
 40
0.0178934931
 40
0.0221859827
 40
0.0270807222
 40
0.0325808069
 40
0.0386870803
 40
0.0527132726
 40
0.0691373428
 40
0.0879242179
 40
0.1090275042
 40
0.1323944957
 40
0.1579643045
 40
0.185671565
 40
0.2154439819
 40
0.247205705
 40
0.2808750398
 40
0.3535926742
 40
0.4328695771
 40
0.5179251704
 40
0.6079358126
 40
0.7020428844
 40
0.7993627209
 40
0.8989962109
 40
1.0
 40
1.0
 40
1.0
 40
1.0
 10
3.8149858836
 20
2.9800383047
 30
0.0
 10
3.8148831965
 20
2.9801409733
 30
0.0
 10
3.8147484559
 20
2.9803042644
 30
0.0
 10
3.8146393785
 20
2.9805488272
 30
0.0
 10
3.8146015471
 20
2.9807246061
 30
0.0
 10
3.814604495
 20
2.9809007888
 30
0.0
 10
3.8146649454
 20
2.981143756
 30
0.0
 10
3.8148578886
 20
2.9814515396
 30
0.0
 10
3.8152293336
 20
2.9817921598
 30
0.0
 10
3.815748154
 20
2.9821302268
 30
0.0
 10
3.816416842
 20
2.9824673285
 30
0.0
 10
3.8172365039
 20
2.982804683
 30
0.0
 10
3.8182074134
 20
2.9831421179
 30
0.0
 10
3.819329228
 20
2.9834796094
 30
0.0
 10
3.8206012615
 20
2.9838170905
 30
0.0
 10
3.8225902695
 20
2.9842889445
 30
0.0
 10
3.8254481243
 20
2.9848676921
 30
0.0
 10
3.8293177058
 20
2.9855348181
 30
0.0
 10
3.8337589085
 20
2.9862015605
 30
0.0
 10
3.8387592323
 20
2.9868677659
 30
0.0
 10
3.8443048421
 20
2.9875329456
 30
0.0
 10
3.8503806071
 20
2.9881969922
 30
0.0
 10
3.8569700804
 20
2.9888596925
 30
0.0
 10
3.8640557468
 20
2.9895210072
 30
0.0
 10
3.8716189029
 20
2.9901808426
 30
0.0
 10
3.8825984729
 20
2.9910818888
 30
0.0
 10
3.8973622807
 20
2.9921938821
 30
0.0
 10
3.9162209429
 20
2.9934916563
 30
0.0
 10
3.9364619674
 20
2.9947840469
 30
0.0
 10
3.957888174
 20
2.9960710433
 30
0.0
 10
3.9802943997
 20
2.9973516686
 30
0.0
 10
4.003469412
 20
2.9986287342
 30
0.0
 10
4.0271958784
 20
2.9998911268
 30
0.0
 10
4.0431727419
 20
3.0007455897
 30
0.0
 10
4.0512123353
 20
3.0012334475
 30
0.0
  0
SPLINE
  5
3BA
100
AcDbEntity
  8
0
100
AcDbSpline
 62
7
  6
CONTINUOUS
 70
0
 71
3
 72
31
 73
27
 74
0
 42
0.0000001
 43
0.0000001
 44
0.0000000001
 40
0.0
 40
0.0
 40
0.0
 40
0.0
 40
0.0009257823
 40
0.0021099633
 40
0.0036889407
 40
0.0057208021
 40
0.0082319356
 40
0.0112358007
 40
0.0147399073
 40
0.0187487133
 40
0.0282898454
 40
0.0398692146
 40
0.0534852442
 40
0.0691325682
 40
0.0868030311
 40
0.1064835485
 40
0.1518145441
 40
0.2049877158
 40
0.2658329685
 40
0.334152743
 40
0.4097251663
 40
0.4923019131
 40
0.5816135071
 40
0.6773610371
 40
0.7792352982
 40
1.0
 40
1.0
 40
1.0
 40
1.0
 10
3.8187123858
 20
3.0135868147
 30
0.0
 10
3.8187123794
 20
3.0136151776
 30
0.0
 10
3.8187344554
 20
3.0136798019
 30
0.0
 10
3.8188149302
 20
3.0137616153
 30
0.0
 10
3.8189386363
 20
3.0138418455
 30
0.0
 10
3.8191087175
 20
3.0139218317
 30
0.0
 10
3.8193256698
 20
3.0140022222
 30
0.0
 10
3.819590081
 20
3.0140828644
 30
0.0
 10
3.8199020328
 20
3.0141637471
 30
0.0
 10
3.8204118127
 20
3.0142785555
 30
0.0
 10
3.8211690862
 20
3.0144186466
 30
0.0
 10
3.8222211553
 20
3.0145795499
 30
0.0
 10
3.8234620666
 20
3.0147410029
 30
0.0
 10
3.8248908653
 20
3.0149029059
 30
0.0
 10
3.8265064733
 20
3.0150650893
 30
0.0
 10
3.829029382
 20
3.0152924742
 30
0.0
 10
3.8326395129
 20
3.0155717689
 30
0.0
 10
3.8375108295
 20
3.0158945158
 30
0.0
 10
3.8430877412
 20
3.0162180509
 30
0.0
 10
3.8493518646
 20
3.0165422315
 30
0.0
 10
3.8562825477
 20
3.016866821
 30
0.0
 10
3.8638569746
 20
3.0171917394
 30
0.0
 10
3.8720500125
 20
3.0175168771
 30
0.0
 10
3.8808346861
 20
3.0178422161
 30
0.0
 10
3.8936449066
 20
3.0182882166
 30
0.0
 10
3.9035244686
 20
3.018604099
 30
0.0
 10
3.9102847766
 20
3.0188118147
 30
0.0
  0
ENDSEC
  0
SECTION
  2
OBJECTS
  0
DICTIONARY
  5
C
100
AcDbDictionary
280
0
281
1
  3
ACAD_GROUP
350
D
  3
ACAD_MLINESTYLE
350
17
  3
ACAD_LAYOUT
350
1A
  3
ACAD_PLOTSETTINGS
350
19
  3
ACAD_PLOTSTYLENAME
350
E
  0
DICTIONARY
  5
D
102
{ACAD_REACTORS
330
C
102
}
100
AcDbDictionary
280
0
281
1
  0
ACDBDICTIONARYWDFLT
  5
E
102
{ACAD_REACTORS
330
C
102
}
100
AcDbDictionary
281
1
  3
Normal
350
F
100
AcDbDictionaryWithDefault
340
F
  0
DICTIONARY
  5
17
102
{ACAD_REACTORS
330
C
102
}
100
AcDbDictionary
280
0
281
1
  3
Standard
350
18
  0
DICTIONARY
  5
19
102
{ACAD_REACTORS
330
C
102
}
100
AcDbDictionary
281
1
  0
DICTIONARY
  5
1A
102
{ACAD_REACTORS
330
C
102
}
100
AcDbDictionary
281
1
  3
Model
350
3BB
  3
Layout1
350
3BC
  0
ACDBPLACEHOLDER
  5
F
102
{ACAD_REACTORS
330
E
102
}
  0
MLINESTYLE
  5
18
102
{ACAD_REACTORS
330
17
102
}
100
AcDbMlineStyle
  2
STANDARD
 70
0
  3

 62
256
 51
90.0
 52
90.0
 71
2
 49
0.5
 62
256
  6
BYLAYER
 49
-0.5
 62
256
  6
BYLAYER
  0
LAYOUT
  5
3BB
102
{ACAD_REACTORS
330
1A
102
}
100
AcDbPlotSettings
  1

  2
none_device
  4
ANSI_A_(11.00_x_8.50_Inches)
  6

 40
0.0
 41
0.0
 42
0.0
 43
0.0
 44
279.4
 45
215.9
 46
0.0
 47
0.0
 48
0.0
 49
0.0
140
0.0
141
0.0
142
1.0
143
1.0
 70
1024
 72
0
 73
0
 74
0
  7

 75
0
147
1.0
148
0.0
149
0.0
100
AcDbLayout
  1
Model
 70
0
 71
0
 10
0.0
 20
0.0
 11
11.0
 21
8.5
 12
0.0
 22
0.0
 32
0.0
 14
0.0
 24
0.0
 34
0.0
 15
0.0
 25
0.0
 35
0.0
146
0.0
 13
0.0
 23
0.0
 33
0.0
 16
1.0
 26
0.0
 36
0.0
 17
0.0
 27
1.0
 37
0.0
 76
0
330
203
345
0
346
0
  0
LAYOUT
  5
3BC
102
{ACAD_REACTORS
330
1A
102
}
100
AcDbPlotSettings
  1

  2
none_device
  4
ANSI_A_(11.00_x_8.50_Inches)
  6

 40
0.0
 41
0.0
 42
0.0
 43
0.0
 44
279.4
 45
215.9
 46
0.0
 47
0.0
 48
0.0
 49
0.0
140
0.0
141
0.0
142
1.0
143
1.0
 70
0
 72
0
 73
0
 74
0
  7

 75
0
147
1.0
148
0.0
149
0.0
100
AcDbLayout
  1
Layout1
 70
0
 71
1
 10
0.0
 20
0.0
 11
11.0
 21
8.5
 12
0.0
 22
0.0
 32
0.0
 14
0.0
 24
0.0
 34
0.0
 15
0.0
 25
0.0
 35
0.0
146
0.0
 13
0.0
 23
0.0
 33
0.0
 16
1.0
 26
0.0
 36
0.0
 17
0.0
 27
1.0
 37
0.0
 76
0
330
204
345
0
346
0
  0
ENDSEC
  0
EOF
