999
DXF file: 3-196_Right.dxf
999
Pro/ENGINEER 2023134 by Parametric Technology Corporation
  0
SECTION
  2
HEADER
  9
$ACADVER
  1
AC1032
  9
$DWGCODEPAGE
  3
ANSI_1252
  9
$EXTMAX
 10
11.0
 20
8.5
 30
0.0
  9
$EXTMIN
 10
0.0
 20
0.0
 30
0.0
  9
$LIMMIN
 10
0.0
 20
0.0
  9
$LIMMAX
 10
11.0
 20
8.5
  9
$VIEWCTR
 10
5.5
 20
4.25
  9
$VIEWSIZE
 40
8.5
  9
$CLAYER
  8
0
  9
$LTSCALE
 40
0.605
  9
$CELTYPE
  6
BYLAYER
  9
$DIMSCALE
 40
1.0
  9
$DIMASZ
 40
0.1
  9
$DIMEXO
 40
0.0625
  9
$DIMDLI
 40
0.418
  9
$DIMEXE
 40
0.125
  9
$DIMCEN
 40
0.099
  9
$DIMLFAC
 40
1.0
  9
$DIMBLK
  1
_FILLED
  9
$DIMALT
 70
1
  9
$DIMALTD
 70
2
  9
$DIMALTTD
 70
2
  9
$DIMALTF
 40
25.4
  9
$DIMTXT
 40
0.08
  9
$DIMTOL
 70
1
  9
$DIMLIM
 70
0
  9
$DIMTFAC
 40
1.0
  9
$DIMTP
 40
0.001
  9
$DIMTM
 40
0.001
  9
$DIMGAP
 40
0.09
  9
$DIMDSEP
 70
46
  9
$AUNITS
 70
0
  9
$PDMODE
 70
3
  9
$PDSIZE
 40
0.3125
  9
$HANDSEED
  5
334
  9
$TILEMODE
 70
1
  9
$MEASUREMENT
 70
0
  9
$INSUNITS
 70
1
  0
ENDSEC
  0
SECTION
  2
CLASSES
  0
CLASS
  1
ACDBDICTIONARYWDFLT
  2
AcDbDictionaryWithDefault
  3
AutoCAD 2000
 90
0
 91
1
280
0
281
0
  0
CLASS
  1
ACDBPLACEHOLDER
  2
AcDbPlaceHolder
  3
AutoCAD 2000
 90
0
 91
1
280
0
281
0
  0
CLASS
  1
LAYOUT
  2
AcDbLayout
  3
AutoCAD 2000
 90
0
 91
0
280
0
281
0
  0
ENDSEC
  0
SECTION
  2
TABLES
  0
TABLE
  2
VPORT
  5
8
100
AcDbSymbolTable
 70
2
  0
VPORT
  5
1F4
100
AcDbSymbolTableRecord
100
AcDbViewportTableRecord
  2
*ACTIVE
 70
0
 10
0.0
 20
0.0
 11
1.0
 21
1.0
 12
5.5
 22
4.25
 13
0.0
 23
0.0
 14
1.0
 24
1.0
 15
0.0
 25
0.0
 16
0.0
 26
0.0
 36
1.0
 17
0.0
 27
0.0
 37
0.0
 40
8.5
 41
1.2941176471
 42
50.0
 43
0.0
 44
0.0
 50
0.0
 51
0.0
 71
0
 72
100
 73
1
 74
1
 75
0
 76
0
 77
0
 78
0
  0
ENDTAB
  0
TABLE
  2
LTYPE
  5
5
100
AcDbSymbolTable
 70
6
  0
LTYPE
  5
14
100
AcDbSymbolTableRecord
100
AcDbLinetypeTableRecord
  2
BYBLOCK
 70
0
  3

 72
65
 73
0
 40
0.0
  0
LTYPE
  5
15
100
AcDbSymbolTableRecord
100
AcDbLinetypeTableRecord
  2
BYLAYER
 70
0
  3

 72
65
 73
0
 40
0.0
  0
LTYPE
  5
16
100
AcDbSymbolTableRecord
100
AcDbLinetypeTableRecord
  2
CONTINUOUS
 70
64
  3
Solid line
 72
65
 73
0
 40
0.0
  0
LTYPE
  5
1F5
100
AcDbSymbolTableRecord
100
AcDbLinetypeTableRecord
  2
CENTER
 70
64
  3
____ _ ____ _ ____ _ ____ _ ____ _ ____ _ ____
 72
65
 73
4
 40
0.6
 49
0.375
 74
0
 49
-0.075
 74
0
 49
0.075
 74
0
 49
-0.075
 74
0
  0
LTYPE
  5
1F6
100
AcDbSymbolTableRecord
100
AcDbLinetypeTableRecord
  2
HIDDEN
 70
64
  3
- - - - - - - - - - - - - - - - - - - -
 72
65
 73
2
 40
0.2
 49
0.1
 74
0
 49
-0.1
 74
0
  0
LTYPE
  5
1F7
100
AcDbSymbolTableRecord
100
AcDbLinetypeTableRecord
  2
PHANTOM
 70
64
  3
_____ _ _ _____ _ _ _____ _ _ _____
 72
65
 73
6
 40
0.8
 49
0.45
 74
0
 49
-0.05
 74
0
 49
0.1
 74
0
 49
-0.05
 74
0
 49
0.1
 74
0
 49
-0.05
 74
0
  0
LTYPE
  5
1F8
100
AcDbSymbolTableRecord
100
AcDbLinetypeTableRecord
  2
DOT
 70
64
  3
. . . . . . . . . . . . . . . . . . . .
 72
65
 73
2
 40
0.2
 49
0.1
 74
0
 49
-0.1
 74
0
  0
LTYPE
  5
1F9
100
AcDbSymbolTableRecord
100
AcDbLinetypeTableRecord
  2
DASHED
 70
64
  3
- - - - - - - - - - - - - - - - - - - -
 72
65
 73
2
 40
0.2
 49
0.1
 74
0
 49
-0.1
 74
0
  0
ENDTAB
  0
TABLE
  2
LAYER
  5
2
100
AcDbSymbolTable
 70
36
  0
LAYER
  5
10
100
AcDbSymbolTableRecord
100
AcDbLayerTableRecord
  2
0
 70
0
 62
7
  6
CONTINUOUS
370
-3
390
F
  0
LAYER
  5
1FA
100
AcDbSymbolTableRecord
100
AcDbLayerTableRecord
  2
DEFAULT_1
 70
0
 62
7
  6
CENTER
370
-3
390
F
  0
LAYER
  5
1FB
100
AcDbSymbolTableRecord
100
AcDbLayerTableRecord
  2
DEFAULT_2
 70
0
 62
8
  6
HIDDEN
370
-3
390
F
  0
LAYER
  5
1FC
100
AcDbSymbolTableRecord
100
AcDbLayerTableRecord
  2
DEFAULT_3
 70
0
 62
7
  6
PHANTOM
370
-3
390
F
  0
LAYER
  5
1FD
100
AcDbSymbolTableRecord
100
AcDbLayerTableRecord
  2
DEFAULT_COORDINATE_SYSTEM
 70
0
 62
7
  6
CONTINUOUS
370
-3
390
F
  0
LAYER
  5
1FE
100
AcDbSymbolTableRecord
100
AcDbLayerTableRecord
  2
DEFAULT_DATUM_AXES
 70
0
 62
7
  6
CONTINUOUS
370
-3
390
F
  0
LAYER
  5
1FF
100
AcDbSymbolTableRecord
100
AcDbLayerTableRecord
  2
DEFAULT_DATUM_CURVES
 70
0
 62
7
  6
CONTINUOUS
370
-3
390
F
  0
LAYER
  5
200
100
AcDbSymbolTableRecord
100
AcDbLayerTableRecord
  2
DEFAULT_DATUM_PLANES
 70
0
 62
7
  6
CONTINUOUS
370
-3
390
F
  0
ENDTAB
  0
TABLE
  2
STYLE
  5
3
100
AcDbSymbolTable
 70
1
  0
STYLE
  5
11
100
AcDbSymbolTableRecord
100
AcDbTextStyleTableRecord
  2
STANDARD
 70
0
 40
0.0
 41
0.8
 50
0.0
 71
0
 42
0.2
  3
txt
  4

  0
STYLE
  5
201
100
AcDbSymbolTableRecord
100
AcDbTextStyleTableRecord
  2
TEXTSTYLE_1
 70
0
 40
0.0
 41
0.8
 50
0.0
 71
0
 42
0.2
  3
gdt
  4

  0
ENDTAB
  0
TABLE
  2
VIEW
  5
6
100
AcDbSymbolTable
 70
0
  0
ENDTAB
  0
TABLE
  2
UCS
  5
7
100
AcDbSymbolTable
 70
0
  0
ENDTAB
  0
TABLE
  2
APPID
  5
9
100
AcDbSymbolTable
 70
1
  0
APPID
  5
202
100
AcDbSymbolTableRecord
100
AcDbRegAppTableRecord
  2
ACAD
 70
0
  0
ENDTAB
  0
TABLE
  2
BLOCK_RECORD
  5
1
100
AcDbSymbolTable
 70
0
  0
BLOCK_RECORD
  5
203
100
AcDbSymbolTableRecord
100
AcDbBlockTableRecord
  2
*Model_Space
  0
BLOCK_RECORD
  5
204
100
AcDbSymbolTableRecord
100
AcDbBlockTableRecord
  2
*Paper_Space
  0
BLOCK_RECORD
  5
205
100
AcDbSymbolTableRecord
100
AcDbBlockTableRecord
  2
_FILLED
  0
ENDTAB
  0
TABLE
  2
DIMSTYLE
  5
A
100
AcDbSymbolTable
 70
1
100
AcDbDimStyleTable
 71
0
  0
DIMSTYLE
105
206
100
AcDbSymbolTableRecord
100
AcDbDimStyleTableRecord
  2
STANDARD
 70
0
  3

  4

 40
1.0
 41
0.1
 42
0.0625
 43
0.38
 44
0.125
 45
0.0
 46
0.0
 47
0.001
 48
0.001
140
0.08
141
0.09
142
0.0
143
25.4
144
1.0
145
0.0
146
1.0
147
0.09
 71
1
 72
0
 73
1
 74
1
 75
0
 76
0
 77
0
 78
4
 79
1
170
1
171
2
172
0
173
0
174
0
175
0
176
0
177
0
178
0
270
2
179
3
271
3
272
3
273
2
274
2
275
0
280
0
281
0
282
0
283
1
284
4
285
0
286
0
287
3
288
0
340
11
278
46
341
205
342
205
343
205
344
205
  0
ENDTAB
  0
ENDSEC
  0
SECTION
  2
BLOCKS
  0
BLOCK
  5
20
100
AcDbEntity
  8
0
100
AcDbBlockBegin
  2
*Model_Space
 70
0
 10
0.0
 20
0.0
 30
0.0
  3
*Model_Space
  1

  0
ENDBLK
  5
21
100
AcDbEntity
  8
0
100
AcDbBlockEnd
  0
BLOCK
  5
1C
100
AcDbEntity
  8
0
100
AcDbBlockBegin
  2
*Paper_Space
 70
0
 10
0.0
 20
0.0
 30
0.0
  3
*Paper_Space
  1

  0
ENDBLK
  5
1D
100
AcDbEntity
  8
0
100
AcDbBlockEnd
  0
BLOCK
  5
207
100
AcDbEntity
  8
0
100
AcDbBlockBegin
  2
_FILLED
 70
64
 10
0.0
 20
0.0
  3
_FILLED
  1

  0
SOLID
  5
208
100
AcDbEntity
  8
0
  6
BYBLOCK
 62
0
100
AcDbTrace
 10
0.0
 20
0.0
 11
-1.0
 21
0.2
 12
-1.0
 22
-0.2
 13
-1.0
 23
-0.2
  0
ENDBLK
  5
209
100
AcDbEntity
  8
0
  6
BYBLOCK
 62
0
100
AcDbBlockEnd
  0
ENDSEC
  0
SECTION
  2
ENTITIES
  0
MTEXT
  5
20A
100
AcDbEntity
  8
0
100
AcDbMText
 62
2
  6
CONTINUOUS
  7
STANDARD
 71
2
 72
1
 10
5.5851918731
 20
2.2433942302
 30
0.0
 11
1.0
 21
0.0
 31
0.0
 73
2
 44
0.9
  1
SCALE 0.200
 40
0.08
 41
0.704
  0
LINE
  5
20B
100
AcDbEntity
  8
0
100
AcDbLine
 62
7
  6
CONTINUOUS
 10
0.0
 20
0.0
 11
0.0
 21
8.5
  0
LINE
  5
20C
100
AcDbEntity
  8
0
100
AcDbLine
 62
7
  6
CONTINUOUS
 10
0.0
 20
0.0
 11
11.0
 21
0.0
  0
LINE
  5
20D
100
AcDbEntity
  8
0
100
AcDbLine
 62
7
  6
CONTINUOUS
 10
0.0
 20
8.5
 11
11.0
 21
8.5
  0
LINE
  5
20E
100
AcDbEntity
  8
0
100
AcDbLine
 62
7
  6
CONTINUOUS
 10
11.0
 20
0.0
 11
11.0
 21
8.5
  0
LINE
  5
20F
100
AcDbEntity
  8
0
100
AcDbLine
 62
7
  6
CONTINUOUS
 10
2.3979958791
 20
4.8041601191
 11
2.3979958791
 21
4.9994638237
  0
LINE
  5
210
100
AcDbEntity
  8
0
100
AcDbLine
 62
7
  6
CONTINUOUS
 10
2.4065213042
 20
4.9904510958
 11
2.4115427495
 21
4.9997995538
  0
LINE
  5
211
100
AcDbEntity
  8
0
100
AcDbLine
 62
7
  6
CONTINUOUS
 10
2.4208013292
 20
4.9908944703
 11
2.4258231542
 21
5.0002437139
  0
LINE
  5
212
100
AcDbEntity
  8
0
100
AcDbLine
 62
7
  6
CONTINUOUS
 10
2.5979958791
 20
5.1343118138
 11
2.5979958791
 21
4.6623118138
  0
LINE
  5
213
100
AcDbEntity
  8
0
100
AcDbLine
 62
7
  6
CONTINUOUS
 10
2.6355618211
 20
5.0983118138
 11
2.6355618211
 21
4.6983118138
  0
LINE
  5
214
100
AcDbEntity
  8
0
100
AcDbLine
 62
7
  6
CONTINUOUS
 10
2.6729958791
 20
5.06071218
 11
2.6729958791
 21
4.7359114476
  0
LINE
  5
215
100
AcDbEntity
  8
0
100
AcDbLine
 62
7
  6
CONTINUOUS
 10
2.6853958791
 20
5.0465118138
 11
2.6853958791
 21
4.7501118138
  0
LINE
  5
216
100
AcDbEntity
  8
0
100
AcDbLine
 62
7
  6
CONTINUOUS
 10
2.435081354
 20
4.9913378487
 11
2.4401035554
 21
5.0006878707
  0
LINE
  5
217
100
AcDbEntity
  8
0
100
AcDbLine
 62
7
  6
CONTINUOUS
 10
2.4493613785
 20
4.9917812308
 11
2.4543839531
 21
5.0011320243
  0
LINE
  5
218
100
AcDbEntity
  8
0
100
AcDbLine
 62
7
  6
CONTINUOUS
 10
2.4636414029
 20
4.9922246167
 11
2.4686643474
 21
5.0015761746
  0
LINE
  5
219
100
AcDbEntity
  8
0
100
AcDbLine
 62
7
  6
CONTINUOUS
 10
2.4779214269
 20
4.9926680062
 11
2.4829447384
 21
5.0020203218
  0
LINE
  5
21A
100
AcDbEntity
  8
0
100
AcDbLine
 62
7
  6
CONTINUOUS
 10
2.4922014508
 20
4.9931113994
 11
2.497225126
 21
5.0024644658
  0
LINE
  5
21B
100
AcDbEntity
  8
0
100
AcDbLine
 62
7
  6
CONTINUOUS
 10
2.5064814745
 20
4.9935547961
 11
2.5115055104
 21
5.0029086068
  0
LINE
  5
21C
100
AcDbEntity
  8
0
100
AcDbLine
 62
7
  6
CONTINUOUS
 10
2.5207614979
 20
4.9939981963
 11
2.5257858915
 21
5.0033527447
  0
LINE
  5
21D
100
AcDbEntity
  8
0
100
AcDbLine
 62
7
  6
CONTINUOUS
 10
2.5350415211
 20
4.9944416001
 11
2.5400662694
 21
5.0037968795
  0
LINE
  5
21E
100
AcDbEntity
  8
0
100
AcDbLine
 62
7
  6
CONTINUOUS
 10
2.5493215441
 20
4.9948850072
 11
2.5543407853
 21
5.0042301023
  0
LINE
  5
21F
100
AcDbEntity
  8
0
100
AcDbLine
 62
7
  6
CONTINUOUS
 10
2.3993812915
 20
4.8063942177
 11
2.3979958791
 21
4.804159838
  0
LINE
  5
220
100
AcDbEntity
  8
0
100
AcDbLine
 62
7
  6
CONTINUOUS
 10
2.4136613167
 20
4.805950845
 11
2.4080595933
 21
4.7969158788
  0
LINE
  5
221
100
AcDbEntity
  8
0
100
AcDbLine
 62
7
  6
CONTINUOUS
 10
2.4279413416
 20
4.8055074685
 11
2.4223392291
 21
4.7964718135
  0
LINE
  5
222
100
AcDbEntity
  8
0
100
AcDbLine
 62
7
  6
CONTINUOUS
 10
2.4422213663
 20
4.8050640883
 11
2.436618868
 21
4.7960277506
  0
LINE
  5
223
100
AcDbEntity
  8
0
100
AcDbLine
 62
7
  6
CONTINUOUS
 10
2.4565013907
 20
4.8046207043
 11
2.45089851
 21
4.7955836902
  0
LINE
  5
224
100
AcDbEntity
  8
0
100
AcDbLine
 62
7
  6
CONTINUOUS
 10
2.4707814149
 20
4.8041773166
 11
2.4651781552
 21
4.7951396323
  0
LINE
  5
225
100
AcDbEntity
  8
0
100
AcDbLine
 62
7
  6
CONTINUOUS
 10
2.4850614389
 20
4.8037339252
 11
2.4794578033
 21
4.7946955767
  0
LINE
  5
226
100
AcDbEntity
  8
0
100
AcDbLine
 62
7
  6
CONTINUOUS
 10
2.4993414627
 20
4.8032905303
 11
2.4937374545
 21
4.7942515235
  0
LINE
  5
227
100
AcDbEntity
  8
0
100
AcDbLine
 62
7
  6
CONTINUOUS
 10
2.5136214862
 20
4.8028471318
 11
2.5080171086
 21
4.7938074726
  0
LINE
  5
228
100
AcDbEntity
  8
0
100
AcDbLine
 62
7
  6
CONTINUOUS
 10
2.5279015095
 20
4.8024037298
 11
2.5222967656
 21
4.793363424
  0
LINE
  5
229
100
AcDbEntity
  8
0
100
AcDbLine
 62
7
  6
CONTINUOUS
 10
2.5421815326
 20
4.8019603244
 11
2.5365764255
 21
4.7929193777
  0
LINE
  5
22A
100
AcDbEntity
  8
0
100
AcDbLine
 62
7
  6
CONTINUOUS
 10
2.5564615555
 20
4.8015169156
 11
2.5508560883
 21
4.7924753337
  0
LINE
  5
22B
100
AcDbEntity
  8
0
100
AcDbLine
 62
7
  6
CONTINUOUS
 10
2.4044025458
 20
4.7970461551
 11
2.3992835475
 21
4.8065761749
  0
LINE
  5
22C
100
AcDbEntity
  8
0
100
AcDbLine
 62
7
  6
CONTINUOUS
 10
2.4186829523
 20
4.7966019933
 11
2.4135640422
 21
4.80613193
  0
LINE
  5
22D
100
AcDbEntity
  8
0
100
AcDbLine
 62
7
  6
CONTINUOUS
 10
2.4329633552
 20
4.7961578349
 11
2.4278445322
 21
4.8056876895
  0
LINE
  5
22E
100
AcDbEntity
  8
0
100
AcDbLine
 62
7
  6
CONTINUOUS
 10
2.4472437547
 20
4.7957136797
 11
2.4421250175
 21
4.8052434534
  0
LINE
  5
22F
100
AcDbEntity
  8
0
100
AcDbLine
 62
7
  6
CONTINUOUS
 10
2.4615241507
 20
4.7952695277
 11
2.4564054981
 21
4.8047992216
  0
LINE
  5
230
100
AcDbEntity
  8
0
100
AcDbLine
 62
7
  6
CONTINUOUS
 10
2.4758045433
 20
4.794825379
 11
2.4706859743
 21
4.8043549941
  0
LINE
  5
231
100
AcDbEntity
  8
0
100
AcDbLine
 62
7
  6
CONTINUOUS
 10
2.4900849326
 20
4.7943812334
 11
2.484966446
 21
4.8039107708
  0
LINE
  5
232
100
AcDbEntity
  8
0
100
AcDbLine
 62
7
  6
CONTINUOUS
 10
2.5043653186
 20
4.7939370909
 11
2.4992469133
 21
4.8034665516
  0
LINE
  5
233
100
AcDbEntity
  8
0
100
AcDbLine
 62
7
  6
CONTINUOUS
 10
2.4115427495
 20
4.9997995538
 11
2.4116358791
 21
4.9998877121
  0
LINE
  5
234
100
AcDbEntity
  8
0
100
AcDbLine
 62
7
  6
CONTINUOUS
 10
2.4258231542
 20
5.0002437139
 11
2.4259158791
 21
5.0003314897
  0
LINE
  5
235
100
AcDbEntity
  8
0
100
AcDbLine
 62
7
  6
CONTINUOUS
 10
2.4401035554
 20
5.0006878707
 11
2.4401958791
 21
5.0007752672
  0
LINE
  5
236
100
AcDbEntity
  8
0
100
AcDbLine
 62
7
  6
CONTINUOUS
 10
2.4543839531
 20
5.0011320243
 11
2.4544758791
 21
5.0012190448
  0
LINE
  5
237
100
AcDbEntity
  8
0
100
AcDbLine
 62
7
  6
CONTINUOUS
 10
2.4686643474
 20
5.0015761746
 11
2.4687558791
 21
5.0016628223
  0
LINE
  5
238
100
AcDbEntity
  8
0
100
AcDbLine
 62
7
  6
CONTINUOUS
 10
2.4829447384
 20
5.0020203218
 11
2.4830358791
 21
5.0021065999
  0
LINE
  5
239
100
AcDbEntity
  8
0
100
AcDbLine
 62
7
  6
CONTINUOUS
 10
2.497225126
 20
5.0024644658
 11
2.4973158791
 21
5.0025503774
  0
LINE
  5
23A
100
AcDbEntity
  8
0
100
AcDbLine
 62
7
  6
CONTINUOUS
 10
2.5115055104
 20
5.0029086068
 11
2.5115958791
 21
5.002994155
  0
LINE
  5
23B
100
AcDbEntity
  8
0
100
AcDbLine
 62
7
  6
CONTINUOUS
 10
2.5257858915
 20
5.0033527447
 11
2.5258758791
 21
5.0034379325
  0
LINE
  5
23C
100
AcDbEntity
  8
0
100
AcDbLine
 62
7
  6
CONTINUOUS
 10
2.5400662694
 20
5.0037968795
 11
2.5401558791
 21
5.0038817101
  0
LINE
  5
23D
100
AcDbEntity
  8
0
100
AcDbLine
 62
7
  6
CONTINUOUS
 10
2.5543407853
 20
5.0042301023
 11
2.5544285411
 21
5.0043118138
  0
LINE
  5
23E
100
AcDbEntity
  8
0
100
AcDbLine
 62
7
  6
CONTINUOUS
 10
2.4009197766
 20
4.9994857152
 11
2.4066188012
 21
4.9902938527
  0
LINE
  5
23F
100
AcDbEntity
  8
0
100
AcDbLine
 62
7
  6
CONTINUOUS
 10
2.4151994108
 20
4.9999297818
 11
2.4208983591
 21
4.9907379794
  0
LINE
  5
240
100
AcDbEntity
  8
0
100
AcDbLine
 62
7
  6
CONTINUOUS
 10
2.4294790481
 20
5.0003738459
 11
2.4351779212
 21
4.9911821028
  0
LINE
  5
241
100
AcDbEntity
  8
0
100
AcDbLine
 62
7
  6
CONTINUOUS
 10
2.4437586886
 20
5.0008179075
 11
2.4494574875
 21
4.9916262229
  0
LINE
  5
242
100
AcDbEntity
  8
0
100
AcDbLine
 62
7
  6
CONTINUOUS
 10
2.4580383322
 20
5.0012619666
 11
2.4637370578
 21
4.9920703398
  0
LINE
  5
243
100
AcDbEntity
  8
0
100
AcDbLine
 62
7
  6
CONTINUOUS
 10
2.4723179789
 20
5.0017060234
 11
2.4780166322
 21
4.9925144535
  0
LINE
  5
244
100
AcDbEntity
  8
0
100
AcDbLine
 62
7
  6
CONTINUOUS
 10
2.4865976285
 20
5.0021500778
 11
2.4922962106
 21
4.9929585641
  0
LINE
  5
245
100
AcDbEntity
  8
0
100
AcDbLine
 62
7
  6
CONTINUOUS
 10
2.5008772812
 20
5.0025941298
 11
2.5065757929
 21
4.9934026716
  0
LINE
  5
246
100
AcDbEntity
  8
0
100
AcDbLine
 62
7
  6
CONTINUOUS
 10
2.5186457013
 20
4.7934929515
 11
2.5135273763
 21
4.8030223366
  0
LINE
  5
247
100
AcDbEntity
  8
0
100
AcDbLine
 62
7
  6
CONTINUOUS
 10
2.5329260808
 20
4.7930488151
 11
2.527807835
 21
4.8025781255
  0
LINE
  5
248
100
AcDbEntity
  8
0
100
AcDbLine
 62
7
  6
CONTINUOUS
 10
2.5472064572
 20
4.7926046817
 11
2.5420882894
 21
4.8021339185
  0
LINE
  5
249
100
AcDbEntity
  8
0
100
AcDbLine
 62
7
  6
CONTINUOUS
 10
2.5613617098
 20
4.7923935254
 11
2.5563687397
 21
4.8016897154
  0
LINE
  5
24A
100
AcDbEntity
  8
0
100
AcDbLine
 62
7
  6
CONTINUOUS
 10
2.4080595933
 20
4.7969158788
 11
2.4079758791
 21
4.7968496568
  0
LINE
  5
24B
100
AcDbEntity
  8
0
100
AcDbLine
 62
7
  6
CONTINUOUS
 10
2.4223392291
 20
4.7964718135
 11
2.4222558791
 21
4.7964058792
  0
LINE
  5
24C
100
AcDbEntity
  8
0
100
AcDbLine
 62
7
  6
CONTINUOUS
 10
2.436618868
 20
4.7960277506
 11
2.4365358791
 21
4.7959621017
  0
LINE
  5
24D
100
AcDbEntity
  8
0
100
AcDbLine
 62
7
  6
CONTINUOUS
 10
2.45089851
 20
4.7955836902
 11
2.4508158791
 21
4.7955183241
  0
LINE
  5
24E
100
AcDbEntity
  8
0
100
AcDbLine
 62
7
  6
CONTINUOUS
 10
2.4651781552
 20
4.7951396323
 11
2.4650958791
 21
4.7950745466
  0
LINE
  5
24F
100
AcDbEntity
  8
0
100
AcDbLine
 62
7
  6
CONTINUOUS
 10
2.4794578033
 20
4.7946955767
 11
2.4793758791
 21
4.794630769
  0
LINE
  5
250
100
AcDbEntity
  8
0
100
AcDbLine
 62
7
  6
CONTINUOUS
 10
2.4937374545
 20
4.7942515235
 11
2.4936558791
 21
4.7941869915
  0
LINE
  5
251
100
AcDbEntity
  8
0
100
AcDbLine
 62
7
  6
CONTINUOUS
 10
2.5151569367
 20
5.0030381796
 11
2.5208553791
 21
4.993846776
  0
LINE
  5
252
100
AcDbEntity
  8
0
100
AcDbLine
 62
7
  6
CONTINUOUS
 10
2.5294365952
 20
5.003482227
 11
2.5351349691
 21
4.9942908774
  0
LINE
  5
253
100
AcDbEntity
  8
0
100
AcDbLine
 62
7
  6
CONTINUOUS
 10
2.5437162566
 20
5.0039262722
 11
2.5494145629
 21
4.9947349759
  0
LINE
  5
254
100
AcDbEntity
  8
0
100
AcDbLine
 62
7
  6
CONTINUOUS
 10
2.5080171086
 20
4.7938074726
 11
2.5079358791
 21
4.7937432139
  0
LINE
  5
255
100
AcDbEntity
  8
0
100
AcDbLine
 62
7
  6
CONTINUOUS
 10
2.5222967656
 20
4.793363424
 11
2.5222158791
 21
4.7932994364
  0
LINE
  5
256
100
AcDbEntity
  8
0
100
AcDbLine
 62
7
  6
CONTINUOUS
 10
2.5365764255
 20
4.7929193777
 11
2.5364958791
 21
4.7928556588
  0
LINE
  5
257
100
AcDbEntity
  8
0
100
AcDbLine
 62
7
  6
CONTINUOUS
 10
2.5508560883
 20
4.7924753337
 11
2.5507758791
 21
4.7924118813
  0
LINE
  5
258
100
AcDbEntity
  8
0
100
AcDbLine
 62
7
  6
CONTINUOUS
 10
2.4044025458
 20
4.7970461551
 11
2.4044958791
 21
4.7969578043
  0
LINE
  5
259
100
AcDbEntity
  8
0
100
AcDbLine
 62
7
  6
CONTINUOUS
 10
2.4186829523
 20
4.7966019933
 11
2.4187758791
 21
4.7965140267
  0
LINE
  5
25A
100
AcDbEntity
  8
0
100
AcDbLine
 62
7
  6
CONTINUOUS
 10
2.4329633552
 20
4.7961578349
 11
2.4330558791
 21
4.7960702492
  0
LINE
  5
25B
100
AcDbEntity
  8
0
100
AcDbLine
 62
7
  6
CONTINUOUS
 10
2.4472437547
 20
4.7957136797
 11
2.4473358791
 21
4.7956264716
  0
LINE
  5
25C
100
AcDbEntity
  8
0
100
AcDbLine
 62
7
  6
CONTINUOUS
 10
2.4615241507
 20
4.7952695277
 11
2.4616158791
 21
4.7951826941
  0
LINE
  5
25D
100
AcDbEntity
  8
0
100
AcDbLine
 62
7
  6
CONTINUOUS
 10
2.4758045433
 20
4.794825379
 11
2.4758958791
 21
4.7947389165
  0
LINE
  5
25E
100
AcDbEntity
  8
0
100
AcDbLine
 62
7
  6
CONTINUOUS
 10
2.4900849326
 20
4.7943812334
 11
2.4901758791
 21
4.794295139
  0
LINE
  5
25F
100
AcDbEntity
  8
0
100
AcDbLine
 62
7
  6
CONTINUOUS
 10
2.5613617098
 20
4.7923935254
 11
2.5614494657
 21
4.7923118138
  0
LINE
  5
260
100
AcDbEntity
  8
0
100
AcDbLine
 62
7
  6
CONTINUOUS
 10
2.5043653186
 20
4.7939370909
 11
2.5044558791
 21
4.7938513614
  0
LINE
  5
261
100
AcDbEntity
  8
0
100
AcDbLine
 62
7
  6
CONTINUOUS
 10
2.5186457013
 20
4.7934929515
 11
2.5187358791
 21
4.7934075839
  0
LINE
  5
262
100
AcDbEntity
  8
0
100
AcDbLine
 62
7
  6
CONTINUOUS
 10
2.5329260808
 20
4.7930488151
 11
2.5330158791
 21
4.7929638063
  0
LINE
  5
263
100
AcDbEntity
  8
0
100
AcDbLine
 62
7
  6
CONTINUOUS
 10
2.5472064572
 20
4.7926046817
 11
2.5472958791
 21
4.7925200287
  0
LINE
  5
264
100
AcDbEntity
  8
0
100
AcDbLine
 62
7
  6
CONTINUOUS
 10
2.4008358791
 20
4.999552082
 11
2.4009197766
 21
4.9994857152
  0
LINE
  5
265
100
AcDbEntity
  8
0
100
AcDbLine
 62
7
  6
CONTINUOUS
 10
2.4151994108
 20
4.9999297818
 11
2.4151158791
 21
4.9999958596
  0
LINE
  5
266
100
AcDbEntity
  8
0
100
AcDbLine
 62
7
  6
CONTINUOUS
 10
2.4294790481
 20
5.0003738459
 11
2.4293958791
 21
5.0004396371
  0
LINE
  5
267
100
AcDbEntity
  8
0
100
AcDbLine
 62
7
  6
CONTINUOUS
 10
2.4437586886
 20
5.0008179075
 11
2.4436758791
 21
5.0008834147
  0
LINE
  5
268
100
AcDbEntity
  8
0
100
AcDbLine
 62
7
  6
CONTINUOUS
 10
2.4580383322
 20
5.0012619666
 11
2.4579558791
 21
5.0013271922
  0
LINE
  5
269
100
AcDbEntity
  8
0
100
AcDbLine
 62
7
  6
CONTINUOUS
 10
2.4723179789
 20
5.0017060234
 11
2.4722358791
 21
5.0017709698
  0
LINE
  5
26A
100
AcDbEntity
  8
0
100
AcDbLine
 62
7
  6
CONTINUOUS
 10
2.4865976285
 20
5.0021500778
 11
2.4865158791
 21
5.0022147473
  0
LINE
  5
26B
100
AcDbEntity
  8
0
100
AcDbLine
 62
7
  6
CONTINUOUS
 10
2.5008772812
 20
5.0025941298
 11
2.5007958791
 21
5.0026585249
  0
LINE
  5
26C
100
AcDbEntity
  8
0
100
AcDbLine
 62
7
  6
CONTINUOUS
 10
2.5151569367
 20
5.0030381796
 11
2.5150758791
 21
5.0031023024
  0
LINE
  5
26D
100
AcDbEntity
  8
0
100
AcDbLine
 62
7
  6
CONTINUOUS
 10
2.5294365952
 20
5.003482227
 11
2.5293558791
 21
5.00354608
  0
LINE
  5
26E
100
AcDbEntity
  8
0
100
AcDbLine
 62
7
  6
CONTINUOUS
 10
2.5437162566
 20
5.0039262722
 11
2.5436358791
 21
5.0039898575
  0
LINE
  5
26F
100
AcDbEntity
  8
0
100
AcDbLine
 62
7
  6
CONTINUOUS
 10
8.6889958791
 20
3.8983118138
 11
8.5069958791
 21
3.8983118138
  0
LINE
  5
270
100
AcDbEntity
  8
0
100
AcDbLine
 62
7
  6
CONTINUOUS
 10
8.495706091
 20
3.9553118138
 11
8.6671485018
 21
3.9553118138
  0
LINE
  5
271
100
AcDbEntity
  8
0
100
AcDbLine
 62
7
  6
CONTINUOUS
 10
8.5064958791
 20
3.9613118138
 11
8.6894958791
 21
3.9613118138
  0
LINE
  5
272
100
AcDbEntity
  8
0
100
AcDbLine
 62
7
  6
CONTINUOUS
 10
8.5064958791
 20
3.9673118138
 11
8.6894958791
 21
3.9673118138
  0
LINE
  5
273
100
AcDbEntity
  8
0
100
AcDbLine
 62
7
  6
CONTINUOUS
 10
8.7039958791
 20
3.9733118138
 11
8.4919958791
 21
3.9733118138
  0
LINE
  5
274
100
AcDbEntity
  8
0
100
AcDbLine
 62
7
  6
CONTINUOUS
 10
8.7039958791
 20
4.1983118138
 11
8.4919958791
 21
4.1983118138
  0
LINE
  5
275
100
AcDbEntity
  8
0
100
AcDbLine
 62
7
  6
CONTINUOUS
 10
2.6729958791
 20
4.7501118138
 11
2.6853958791
 21
4.7501118138
  0
LINE
  5
276
100
AcDbEntity
  8
0
100
AcDbLine
 62
7
  6
CONTINUOUS
 10
2.4044958791
 20
4.7969578043
 11
2.4079758791
 21
4.7968496568
  0
LINE
  5
277
100
AcDbEntity
  8
0
100
AcDbLine
 62
7
  6
CONTINUOUS
 10
2.4187758791
 20
4.7965140267
 11
2.4222558791
 21
4.7964058792
  0
LINE
  5
278
100
AcDbEntity
  8
0
100
AcDbLine
 62
7
  6
CONTINUOUS
 10
2.4330558791
 20
4.7960702492
 11
2.4365358791
 21
4.7959621017
  0
LINE
  5
279
100
AcDbEntity
  8
0
100
AcDbLine
 62
7
  6
CONTINUOUS
 10
2.4473358791
 20
4.7956264716
 11
2.4508158791
 21
4.7955183241
  0
LINE
  5
27A
100
AcDbEntity
  8
0
100
AcDbLine
 62
7
  6
CONTINUOUS
 10
2.4616158791
 20
4.7951826941
 11
2.4650958791
 21
4.7950745466
  0
LINE
  5
27B
100
AcDbEntity
  8
0
100
AcDbLine
 62
7
  6
CONTINUOUS
 10
2.4758958791
 20
4.7947389165
 11
2.4793758791
 21
4.794630769
  0
LINE
  5
27C
100
AcDbEntity
  8
0
100
AcDbLine
 62
7
  6
CONTINUOUS
 10
2.4901758791
 20
4.794295139
 11
2.4936558791
 21
4.7941869915
  0
LINE
  5
27D
100
AcDbEntity
  8
0
100
AcDbLine
 62
7
  6
CONTINUOUS
 10
2.5044558791
 20
4.7938513614
 11
2.5079358791
 21
4.7937432139
  0
LINE
  5
27E
100
AcDbEntity
  8
0
100
AcDbLine
 62
7
  6
CONTINUOUS
 10
2.5187358791
 20
4.7934075839
 11
2.5222158791
 21
4.7932994364
  0
LINE
  5
27F
100
AcDbEntity
  8
0
100
AcDbLine
 62
7
  6
CONTINUOUS
 10
2.5330158791
 20
4.7929638063
 11
2.5364958791
 21
4.7928556588
  0
LINE
  5
280
100
AcDbEntity
  8
0
100
AcDbLine
 62
7
  6
CONTINUOUS
 10
2.5472958791
 20
4.7925200287
 11
2.5507758791
 21
4.7924118813
  0
LINE
  5
281
100
AcDbEntity
  8
0
100
AcDbLine
 62
7
  6
CONTINUOUS
 10
2.5614494657
 20
4.7923118138
 11
2.5979958791
 21
4.7923118138
  0
LINE
  5
282
100
AcDbEntity
  8
0
100
AcDbLine
 62
7
  6
CONTINUOUS
 10
2.6853958791
 20
4.7923118138
 11
7.8979958791
 21
4.7923118138
  0
LINE
  5
283
100
AcDbEntity
  8
0
100
AcDbLine
 62
7
  6
CONTINUOUS
 10
2.4008358791
 20
4.999552082
 11
2.3979958791
 21
4.9994638237
  0
LINE
  5
284
100
AcDbEntity
  8
0
100
AcDbLine
 62
7
  6
CONTINUOUS
 10
2.4116358791
 20
4.9998877121
 11
2.4151158791
 21
4.9999958596
  0
LINE
  5
285
100
AcDbEntity
  8
0
100
AcDbLine
 62
7
  6
CONTINUOUS
 10
2.4259158791
 20
5.0003314897
 11
2.4293958791
 21
5.0004396371
  0
LINE
  5
286
100
AcDbEntity
  8
0
100
AcDbLine
 62
7
  6
CONTINUOUS
 10
2.4401958791
 20
5.0007752672
 11
2.4436758791
 21
5.0008834147
  0
LINE
  5
287
100
AcDbEntity
  8
0
100
AcDbLine
 62
7
  6
CONTINUOUS
 10
2.4544758791
 20
5.0012190448
 11
2.4579558791
 21
5.0013271922
  0
LINE
  5
288
100
AcDbEntity
  8
0
100
AcDbLine
 62
7
  6
CONTINUOUS
 10
2.4687558791
 20
5.0016628223
 11
2.4722358791
 21
5.0017709698
  0
LINE
  5
289
100
AcDbEntity
  8
0
100
AcDbLine
 62
7
  6
CONTINUOUS
 10
2.4830358791
 20
5.0021065999
 11
2.4865158791
 21
5.0022147473
  0
LINE
  5
28A
100
AcDbEntity
  8
0
100
AcDbLine
 62
7
  6
CONTINUOUS
 10
2.4973158791
 20
5.0025503774
 11
2.5007958791
 21
5.0026585249
  0
LINE
  5
28B
100
AcDbEntity
  8
0
100
AcDbLine
 62
7
  6
CONTINUOUS
 10
2.5115958791
 20
5.002994155
 11
2.5150758791
 21
5.0031023024
  0
LINE
  5
28C
100
AcDbEntity
  8
0
100
AcDbLine
 62
7
  6
CONTINUOUS
 10
2.5258758791
 20
5.0034379325
 11
2.5293558791
 21
5.00354608
  0
LINE
  5
28D
100
AcDbEntity
  8
0
100
AcDbLine
 62
7
  6
CONTINUOUS
 10
2.5401558791
 20
5.0038817101
 11
2.5436358791
 21
5.0039898575
  0
LINE
  5
28E
100
AcDbEntity
  8
0
100
AcDbLine
 62
7
  6
CONTINUOUS
 10
2.5544285411
 20
5.0043118138
 11
2.5979958791
 21
5.0043118138
  0
LINE
  5
28F
100
AcDbEntity
  8
0
100
AcDbLine
 62
7
  6
CONTINUOUS
 10
2.6853958791
 20
5.0043118138
 11
7.8979958791
 21
5.0043118138
  0
LINE
  5
290
100
AcDbEntity
  8
0
100
AcDbLine
 62
7
  6
CONTINUOUS
 10
2.6729958791
 20
5.0465118138
 11
2.6853958791
 21
5.0465118138
  0
LINE
  5
291
100
AcDbEntity
  8
0
100
AcDbLine
 62
7
  6
CONTINUOUS
 10
8.5049750572
 20
3.9044757805
 11
8.4953398624
 21
3.9100431687
  0
LINE
  5
292
100
AcDbEntity
  8
0
100
AcDbLine
 62
7
  6
CONTINUOUS
 10
8.5049750572
 20
3.9187557805
 11
8.4950710211
 21
3.924478498
  0
LINE
  5
293
100
AcDbEntity
  8
0
100
AcDbLine
 62
7
  6
CONTINUOUS
 10
8.5049750572
 20
3.9330357805
 11
8.4950710211
 21
3.938758498
  0
LINE
  5
294
100
AcDbEntity
  8
0
100
AcDbLine
 62
7
  6
CONTINUOUS
 10
8.5049750572
 20
3.9473157805
 11
8.4950710211
 21
3.953038498
  0
LINE
  5
295
100
AcDbEntity
  8
0
100
AcDbLine
 62
7
  6
CONTINUOUS
 10
8.6910167011
 20
3.9106878471
 11
8.6975303965
 21
3.9069240213
  0
LINE
  5
296
100
AcDbEntity
  8
0
100
AcDbLine
 62
7
  6
CONTINUOUS
 10
8.6910167011
 20
3.9249678471
 11
8.7009207371
 21
3.9192451297
  0
LINE
  5
297
100
AcDbEntity
  8
0
100
AcDbLine
 62
7
  6
CONTINUOUS
 10
8.6910167011
 20
3.9392478471
 11
8.7009207371
 21
3.9335251297
  0
LINE
  5
298
100
AcDbEntity
  8
0
100
AcDbLine
 62
7
  6
CONTINUOUS
 10
8.6910167011
 20
3.9535278471
 11
8.7009207371
 21
3.9478051297
  0
LINE
  5
299
100
AcDbEntity
  8
0
100
AcDbLine
 62
7
  6
CONTINUOUS
 10
8.4953264985
 20
3.9100566002
 11
8.4950274325
 21
3.9102802605
  0
LINE
  5
29A
100
AcDbEntity
  8
0
100
AcDbLine
 62
7
  6
CONTINUOUS
 10
8.4950051382
 20
3.9103025547
 11
8.4949958791
 21
3.9102985714
  0
LINE
  5
29B
100
AcDbEntity
  8
0
100
AcDbLine
 62
7
  6
CONTINUOUS
 10
8.5069958794
 20
3.8983118135
 11
8.5029671604
 21
3.9023405325
  0
LINE
  5
29C
100
AcDbEntity
  8
0
100
AcDbLine
 62
7
  6
CONTINUOUS
 10
8.4950710211
 20
3.924478498
 11
8.4949958791
 21
3.9245653165
  0
LINE
  5
29D
100
AcDbEntity
  8
0
100
AcDbLine
 62
7
  6
CONTINUOUS
 10
8.4950710211
 20
3.938758498
 11
8.4949958791
 21
3.9388453165
  0
LINE
  5
29E
100
AcDbEntity
  8
0
100
AcDbLine
 62
7
  6
CONTINUOUS
 10
8.4949958791
 20
3.9531253165
 11
8.4950710211
 21
3.953038498
  0
LINE
  5
29F
100
AcDbEntity
  8
0
100
AcDbLine
 62
7
  6
CONTINUOUS
 10
8.4950710211
 20
3.9549451297
 11
8.4957056705
 21
3.9553118138
  0
LINE
  5
2A0
100
AcDbEntity
  8
0
100
AcDbLine
 62
7
  6
CONTINUOUS
 10
8.4950710211
 20
3.9406651297
 11
8.505079077
 21
3.9464479552
  0
LINE
  5
2A1
100
AcDbEntity
  8
0
100
AcDbLine
 62
7
  6
CONTINUOUS
 10
8.4950710211
 20
3.9263851297
 11
8.505079077
 21
3.9321679552
  0
LINE
  5
2A2
100
AcDbEntity
  8
0
100
AcDbLine
 62
7
  6
CONTINUOUS
 10
8.4950710211
 20
3.9121051297
 11
8.505079077
 21
3.9178879552
  0
LINE
  5
2A3
100
AcDbEntity
  8
0
100
AcDbLine
 62
7
  6
CONTINUOUS
 10
8.5029889221
 20
3.9024001469
 11
8.5050790769
 21
3.9036079551
  0
LINE
  5
2A4
100
AcDbEntity
  8
0
100
AcDbLine
 62
7
  6
CONTINUOUS
 10
8.6932186001
 20
3.9557281586
 11
8.6909126814
 21
3.9543956725
  0
LINE
  5
2A5
100
AcDbEntity
  8
0
100
AcDbLine
 62
7
  6
CONTINUOUS
 10
8.7009207372
 20
3.945898498
 11
8.6909126814
 21
3.9401156725
  0
LINE
  5
2A6
100
AcDbEntity
  8
0
100
AcDbLine
 62
7
  6
CONTINUOUS
 10
8.7009207372
 20
3.931618498
 11
8.6909126814
 21
3.9258356725
  0
LINE
  5
2A7
100
AcDbEntity
  8
0
100
AcDbLine
 62
7
  6
CONTINUOUS
 10
8.7009207372
 20
3.917338498
 11
8.6909126814
 21
3.9115556725
  0
LINE
  5
2A8
100
AcDbEntity
  8
0
100
AcDbLine
 62
7
  6
CONTINUOUS
 10
8.7009958791
 20
3.9191583111
 11
8.7009207371
 21
3.9192451297
  0
LINE
  5
2A9
100
AcDbEntity
  8
0
100
AcDbLine
 62
7
  6
CONTINUOUS
 10
8.7009958791
 20
3.9334383111
 11
8.7009207371
 21
3.9335251297
  0
LINE
  5
2AA
100
AcDbEntity
  8
0
100
AcDbLine
 62
7
  6
CONTINUOUS
 10
8.7009958791
 20
3.9477183111
 11
8.7009207371
 21
3.9478051297
  0
LINE
  5
2AB
100
AcDbEntity
  8
0
100
AcDbLine
 62
7
  6
CONTINUOUS
 10
7.8979958791
 20
5.0043118138
 11
7.8979958791
 21
4.7923118138
  0
LINE
  5
2AC
100
AcDbEntity
  8
0
100
AcDbLine
 62
7
  6
CONTINUOUS
 10
8.4949958791
 20
3.9548583111
 11
8.4950710211
 21
3.9549451297
  0
LINE
  5
2AD
100
AcDbEntity
  8
0
100
AcDbLine
 62
7
  6
CONTINUOUS
 10
8.4949958791
 20
3.9405783111
 11
8.4950710211
 21
3.9406651297
  0
LINE
  5
2AE
100
AcDbEntity
  8
0
100
AcDbLine
 62
7
  6
CONTINUOUS
 10
8.4949958791
 20
3.9262983111
 11
8.4950710211
 21
3.9263851297
  0
LINE
  5
2AF
100
AcDbEntity
  8
0
100
AcDbLine
 62
7
  6
CONTINUOUS
 10
8.7009207372
 20
3.945898498
 11
8.7009958791
 21
3.9459853165
  0
LINE
  5
2B0
100
AcDbEntity
  8
0
100
AcDbLine
 62
7
  6
CONTINUOUS
 10
8.7009207372
 20
3.931618498
 11
8.7009958791
 21
3.9317053165
  0
LINE
  5
2B1
100
AcDbEntity
  8
0
100
AcDbLine
 62
7
  6
CONTINUOUS
 10
8.7009958791
 20
3.9174253165
 11
8.7009207372
 21
3.917338498
  0
LINE
  5
2B2
100
AcDbEntity
  8
0
100
AcDbLine
 62
7
  6
CONTINUOUS
 10
8.6889958788
 20
3.8983118135
 11
8.6975511764
 21
3.9068671111
  0
LINE
  5
2B3
100
AcDbEntity
  8
0
100
AcDbLine
 62
7
  6
CONTINUOUS
 10
8.693204118
 20
3.9557667411
 11
8.6932185218
 21
3.9557281893
  0
LINE
  5
2B4
100
AcDbEntity
  8
0
100
AcDbLine
 62
7
  6
CONTINUOUS
 10
8.6975511764
 20
3.9068671111
 11
8.6975303965
 21
3.9069240213
  0
LINE
  5
2B5
100
AcDbEntity
  8
0
100
AcDbLine
 62
7
  6
CONTINUOUS
 10
8.4919958791
 20
4.1983118138
 11
8.4919958791
 21
3.9733118138
  0
LINE
  5
2B6
100
AcDbEntity
  8
0
100
AcDbLine
 62
7
  6
CONTINUOUS
 10
8.4949958791
 20
3.9405783111
 11
8.4949958791
 21
3.9388453165
  0
LINE
  5
2B7
100
AcDbEntity
  8
0
100
AcDbLine
 62
7
  6
CONTINUOUS
 10
8.4949958791
 20
3.9262983111
 11
8.4949958791
 21
3.9245653165
  0
LINE
  5
2B8
100
AcDbEntity
  8
0
100
AcDbLine
 62
7
  6
CONTINUOUS
 10
8.4949958791
 20
3.9103118138
 11
8.4949958791
 21
3.9120183111
  0
LINE
  5
2B9
100
AcDbEntity
  8
0
100
AcDbLine
 62
7
  6
CONTINUOUS
 10
8.4949958791
 20
3.9531253165
 11
8.4949958791
 21
3.9548583111
  0
LINE
  5
2BA
100
AcDbEntity
  8
0
100
AcDbLine
 62
7
  6
CONTINUOUS
 10
8.5049958791
 20
3.9035118138
 11
8.5049958791
 21
3.9045118138
  0
LINE
  5
2BB
100
AcDbEntity
  8
0
100
AcDbLine
 62
7
  6
CONTINUOUS
 10
8.5049958791
 20
3.9177918138
 11
8.5049958791
 21
3.9187918138
  0
LINE
  5
2BC
100
AcDbEntity
  8
0
100
AcDbLine
 62
7
  6
CONTINUOUS
 10
8.5049958791
 20
3.9320718138
 11
8.5049958791
 21
3.9330718138
  0
LINE
  5
2BD
100
AcDbEntity
  8
0
100
AcDbLine
 62
7
  6
CONTINUOUS
 10
8.5049958791
 20
3.9463518138
 11
8.5049958791
 21
3.9473518138
  0
LINE
  5
2BE
100
AcDbEntity
  8
0
100
AcDbLine
 62
7
  6
CONTINUOUS
 10
8.5064958791
 20
3.9613118138
 11
8.5064958791
 21
3.9673118138
  0
LINE
  5
2BF
100
AcDbEntity
  8
0
100
AcDbLine
 62
7
  6
CONTINUOUS
 10
8.6894958791
 20
3.9613118138
 11
8.6894958791
 21
3.9673118138
  0
LINE
  5
2C0
100
AcDbEntity
  8
0
100
AcDbLine
 62
7
  6
CONTINUOUS
 10
8.6909958791
 20
3.9544918138
 11
8.6909958791
 21
3.9534918138
  0
LINE
  5
2C1
100
AcDbEntity
  8
0
100
AcDbLine
 62
7
  6
CONTINUOUS
 10
8.6909958791
 20
3.9402118138
 11
8.6909958791
 21
3.9392118138
  0
LINE
  5
2C2
100
AcDbEntity
  8
0
100
AcDbLine
 62
7
  6
CONTINUOUS
 10
8.6909958791
 20
3.9259318138
 11
8.6909958791
 21
3.9249318138
  0
LINE
  5
2C3
100
AcDbEntity
  8
0
100
AcDbLine
 62
7
  6
CONTINUOUS
 10
8.6909958791
 20
3.9116518138
 11
8.6909958791
 21
3.9106518138
  0
LINE
  5
2C4
100
AcDbEntity
  8
0
100
AcDbLine
 62
7
  6
CONTINUOUS
 10
8.7009958791
 20
3.9477183111
 11
8.7009958791
 21
3.9459853165
  0
LINE
  5
2C5
100
AcDbEntity
  8
0
100
AcDbLine
 62
7
  6
CONTINUOUS
 10
8.7009958791
 20
3.9334383111
 11
8.7009958791
 21
3.9317053165
  0
LINE
  5
2C6
100
AcDbEntity
  8
0
100
AcDbLine
 62
7
  6
CONTINUOUS
 10
8.7009958791
 20
3.9191583111
 11
8.7009958791
 21
3.9174253165
  0
LINE
  5
2C7
100
AcDbEntity
  8
0
100
AcDbLine
 62
7
  6
CONTINUOUS
 10
8.7039958791
 20
4.1983118138
 11
8.7039958791
 21
3.9733118138
  0
LINE
  5
2C8
100
AcDbEntity
  8
0
100
AcDbLine
 62
7
  6
CONTINUOUS
 10
8.4949960586
 20
3.9103034591
 11
8.4949958791
 21
3.9102985714
  0
LINE
  5
2C9
100
AcDbEntity
  8
0
100
AcDbLine
 62
7
  6
CONTINUOUS
 10
8.5029889221
 20
3.9024001469
 11
8.5029671604
 21
3.9023405325
  0
ARC
  5
2CA
100
AcDbEntity
  8
0
100
AcDbCircle
 62
7
  6
CONTINUOUS
 10
7.8979958791
 20
4.1983118138
 40
0.806
100
AcDbArc
 50
0.0
 51
90.0
  0
ARC
  5
2CB
100
AcDbEntity
  8
0
100
AcDbCircle
 62
7
  6
CONTINUOUS
 10
7.8979958791
 20
4.1983118138
 40
0.594
100
AcDbArc
 50
0.0
 51
90.0
  0
ARC
  5
2CC
100
AcDbEntity
  8
0
100
AcDbCircle
 62
7
  6
CONTINUOUS
 10
2.5979958791
 20
5.0967118138
 40
0.0376
100
AcDbArc
 50
2.4388546909
 51
90.0
  0
ARC
  5
2CD
100
AcDbEntity
  8
0
100
AcDbCircle
 62
7
  6
CONTINUOUS
 10
2.5979958791
 20
4.6999118138
 40
0.0376
100
AcDbArc
 50
270.0
 51
357.5611453091
  0
ARC
  5
2CE
100
AcDbEntity
  8
0
100
AcDbCircle
 62
7
  6
CONTINUOUS
 10
2.6353958791
 20
5.06071218
 40
0.0376
100
AcDbArc
 50
0.0
 51
89.7471327561
  0
ARC
  5
2CF
100
AcDbEntity
  8
0
100
AcDbCircle
 62
7
  6
CONTINUOUS
 10
2.6353958791
 20
4.7359114476
 40
0.0376
100
AcDbArc
 50
270.2528672439
 51
360.0
  0
ARC
  5
2D0
100
AcDbEntity
  8
0
100
AcDbCircle
 62
7
  6
CONTINUOUS
 10
8.5004958791
 20
3.9613118138
 40
0.006
100
AcDbArc
 50
270.0
 51
360.0
  0
ARC
  5
2D1
100
AcDbEntity
  8
0
100
AcDbCircle
 62
7
  6
CONTINUOUS
 10
8.6954958791
 20
3.9613118138
 40
0.006
100
AcDbArc
 50
180.0
 51
247.5448460451
  0
ARC
  5
2D2
100
AcDbEntity
  8
0
100
AcDbCircle
 62
7
  6
CONTINUOUS
 10
8.5004958791
 20
3.9673118138
 40
0.006
100
AcDbArc
 50
0.0
 51
90.0
  0
ARC
  5
2D3
100
AcDbEntity
  8
0
100
AcDbCircle
 62
7
  6
CONTINUOUS
 10
8.6954958791
 20
3.9673118138
 40
0.006
100
AcDbArc
 50
90.0
 51
180.0
  0
LINE
  5
2D4
100
AcDbEntity
  8
0
100
AcDbLine
 62
7
  6
CONTINUOUS
 10
8.4949958832
 20
3.9120183061
 11
8.4950710354
 21
3.9121051351
  0
SPLINE
  5
2D5
100
AcDbEntity
  8
0
100
AcDbSpline
 62
7
  6
CONTINUOUS
 70
0
 71
3
 72
41
 73
37
 74
0
 42
0.0000001
 43
0.0000001
 44
0.0000000001
 40
0.0
 40
0.0
 40
0.0
 40
0.0
 40
0.0002711997
 40
0.0004604819
 40
0.0006972558
 40
0.0013274835
 40
0.0021782367
 40
0.0032551574
 40
0.0045605844
 40
0.0060953949
 40
0.0078598448
 40
0.0120769539
 40
0.0172074504
 40
0.0232437368
 40
0.030176085
 40
0.0379924688
 40
0.0466795848
 40
0.0666024728
 40
0.0898034288
 40
0.1161169303
 40
0.1453546986
 40
0.1773072661
 40
0.2117457371
 40
0.2484232339
 40
0.2870766897
 40
0.3274290873
 40
0.4120634268
 40
0.4999040049
 40
0.5884375006
 40
0.67513181
 40
0.7575080278
 40
0.8332121906
 40
0.9000823688
 40
0.9562106968
 40
0.9797344347
 40
1.0
 40
1.0
 40
1.0
 40
1.0
 10
2.4116358791
 20
4.9998877121
 30
0.0
 10
2.4116534273
 20
4.9998882574
 30
0.0
 10
2.4116825218
 20
4.9998715251
 30
0.0
 10
2.4117105999
 20
4.9998367429
 30
0.0
 10
2.4117460177
 20
4.9997777615
 30
0.0
 10
2.4117871588
 20
4.9996740814
 30
0.0
 10
2.4118341279
 20
4.9995151985
 30
0.0
 10
2.4118812466
 20
4.9993111673
 30
0.0
 10
2.4119287399
 20
4.9990620354
 30
0.0
 10
2.4119763811
 20
4.9987677418
 30
0.0
 10
2.4120441647
 20
4.9982858751
 30
0.0
 10
2.4121267419
 20
4.9975711755
 30
0.0
 10
2.4122215929
 20
4.9965797644
 30
0.0
 10
2.4123167789
 20
4.9954119232
 30
0.0
 10
2.4124122413
 20
4.994069739
 30
0.0
 10
2.4125078861
 20
4.992555579
 30
0.0
 10
2.4126417637
 20
4.9902012379
 30
0.0
 10
2.412806157
 20
4.9868511406
 30
0.0
 10
2.4129963546
 20
4.9823599858
 30
0.0
 10
2.4131870122
 20
4.9772653579
 30
0.0
 10
2.4133780354
 20
4.9716038403
 30
0.0
 10
2.4135692913
 20
4.965416073
 30
0.0
 10
2.4137607185
 20
4.9587464744
 30
0.0
 10
2.4139522652
 20
4.9516429177
 30
0.0
 10
2.4141439042
 20
4.9441563828
 30
0.0
 10
2.4144036348
 20
4.9335660012
 30
0.0
 10
2.4147243754
 20
4.9197919429
 30
0.0
 10
2.4151038069
 20
4.902899319
 30
0.0
 10
2.4154832632
 20
4.8858733064
 30
0.0
 10
2.4158624469
 20
4.869201121
 30
0.0
 10
2.4162410342
 20
4.8533596768
 30
0.0
 10
2.4166183683
 20
4.8388019357
 30
0.0
 10
2.4169940624
 20
4.8259440026
 30
0.0
 10
2.4173200261
 20
4.8164641007
 30
0.0
 10
2.4175894409
 20
4.8100013269
 30
0.0
 10
2.4177259845
 20
4.8071697945
 30
0.0
 10
2.4177958791
 20
4.8058597271
 30
0.0
  0
SPLINE
  5
2D6
100
AcDbEntity
  8
0
100
AcDbSpline
 62
7
  6
CONTINUOUS
 70
0
 71
3
 72
50
 73
46
 74
0
 42
0.0000001
 43
0.0000001
 44
0.0000000001
 40
0.0
 40
0.0
 40
0.0
 40
0.0
 40
0.0003050518
 40
0.0005297187
 40
0.0008145356
 40
0.001578213
 40
0.002611443
 40
0.0039192875
 40
0.0055035352
 40
0.0073646873
 40
0.009502673
 40
0.0146065396
 40
0.0208062479
 40
0.0280897957
 40
0.0364413114
 40
0.0458429825
 40
0.0562736134
 40
0.0677103421
 40
0.0801271932
 40
0.1077883352
 40
0.1390083344
 40
0.1735056655
 40
0.2109689708
 40
0.2510600177
 40
0.2934163873
 40
0.337655147
 40
0.3833763527
 40
0.43016625
 40
0.4776014793
 40
0.5726888377
 40
0.6652026473
 40
0.7517991147
 40
0.7918886117
 40
0.8293477736
 40
0.8638373121
 40
0.8950449767
 40
0.9226882287
 40
0.94651729
 40
0.9663175974
 40
0.9746501149
 40
0.981912522
 40
0.9880888813
 40
0.993167153
 40
0.9971382906
 40
1.0
 40
1.0
 40
1.0
 40
1.0
 10
2.4222558791
 20
4.7964058792
 30
0.0
 10
2.4222352112
 20
4.7964065215
 30
0.0
 10
2.422202603
 20
4.7964311257
 30
0.0
 10
2.4221719444
 20
4.7964759658
 30
0.0
 10
2.4221321389
 20
4.7965532369
 30
0.0
 10
2.4220861664
 20
4.7966868518
 30
0.0
 10
2.4220334692
 20
4.7968907562
 30
0.0
 10
2.4219806423
 20
4.7971516125
 30
0.0
 10
2.4219273536
 20
4.7974694142
 30
0.0
 10
2.4218739039
 20
4.7978441177
 30
0.0
 10
2.4217978822
 20
4.7984564869
 30
0.0
 10
2.4217052521
 20
4.7993629906
 30
0.0
 10
2.4215988113
 20
4.8006184422
 30
0.0
 10
2.4214920036
 20
4.8020946794
 30
0.0
 10
2.4213848643
 20
4.8037884197
 30
0.0
 10
2.4212775387
 20
4.8056958489
 30
0.0
 10
2.4211700593
 20
4.8078126948
 30
0.0
 10
2.4210624739
 20
4.8101341571
 30
0.0
 10
2.4209134977
 20
4.813622898
 30
0.0
 10
2.4207296613
 20
4.8184523435
 30
0.0
 10
2.4205156234
 20
4.8247783747
 30
0.0
 10
2.4203012113
 20
4.8317691735
 30
0.0
 10
2.4200865003
 20
4.8393615422
 30
0.0
 10
2.4198715834
 20
4.8474868259
 30
0.0
 10
2.4196565111
 20
4.8560715291
 30
0.0
 10
2.4194413241
 20
4.8650379823
 30
0.0
 10
2.4192260519
 20
4.8743050425
 30
0.0
 10
2.4190107189
 20
4.88378883
 30
0.0
 10
2.4187233327
 20
4.896618117
 30
0.0
 10
2.418368921
 20
4.9125460656
 30
0.0
 10
2.4179442385
 20
4.9311276413
 30
0.0
 10
2.4175826026
 20
4.945981662
 30
0.0
 10
2.4172882133
 20
4.957104313
 30
0.0
 10
2.4170733013
 20
4.9646957616
 30
0.0
 10
2.4168586674
 20
4.9716849075
 30
0.0
 10
2.4166443986
 20
4.9780083531
 30
0.0
 10
2.4164307624
 20
4.983608751
 30
0.0
 10
2.416217895
 20
4.9884352853
 30
0.0
 10
2.4160328921
 20
4.9919527376
 30
0.0
 10
2.4158809329
 20
4.9943471994
 30
0.0
 10
2.4157739333
 20
4.9958191136
 30
0.0
 10
2.4156673289
 20
4.9970697687
 30
0.0
 10
2.4155616874
 20
4.9980965725
 30
0.0
 10
2.4154569313
 20
4.9988971129
 30
0.0
 10
2.415376859
 20
4.9993538607
 30
0.0
 10
2.415332126
 20
4.9995426127
 30
0.0
  0
LINE
  5
2D7
100
AcDbEntity
  8
0
100
AcDbLine
 62
7
  6
CONTINUOUS
 10
2.415332126
 20
4.9995426127
 11
2.4151994108
 21
4.9999297396
  0
SPLINE
  5
2D8
100
AcDbEntity
  8
0
100
AcDbSpline
 62
7
  6
CONTINUOUS
 70
0
 71
3
 72
18
 73
14
 74
0
 42
0.0000001
 43
0.0000001
 44
0.0000000001
 40
0.0
 40
0.0
 40
0.0
 40
0.0
 40
0.2115352884
 40
0.3990371649
 40
0.5620111459
 40
0.7001118009
 40
0.8130587288
 40
0.8600328521
 40
0.9006509682
 40
0.9349149516
 40
0.9628428407
 40
0.9844879571
 40
1.0
 40
1.0
 40
1.0
 40
1.0
 10
2.4177958791
 20
4.8058597271
 30
0.0
 10
2.4178308767
 20
4.8052037507
 30
0.0
 10
2.4179001387
 20
4.8039664936
 30
0.0
 10
2.4180099986
 20
4.8022246487
 30
0.0
 10
2.418119511
 20
4.800711329
 30
0.0
 10
2.4182286031
 20
4.7994302154
 30
0.0
 10
2.4183236438
 20
4.7985095159
 30
0.0
 10
2.4184017736
 20
4.7978916505
 30
0.0
 10
2.4184565557
 20
4.7975171776
 30
0.0
 10
2.4185111041
 20
4.7972025822
 30
0.0
 10
2.4185652139
 20
4.7969477417
 30
0.0
 10
2.4186188167
 20
4.7967528902
 30
0.0
 10
2.4186601607
 20
4.7966444654
 30
0.0
 10
2.4186829523
 20
4.7966020266
 30
0.0
  0
SPLINE
  5
2D9
100
AcDbEntity
  8
0
100
AcDbSpline
 62
7
  6
CONTINUOUS
 70
0
 71
3
 72
21
 73
17
 74
0
 42
0.0000001
 43
0.0000001
 44
0.0000000001
 40
0.0
 40
0.0
 40
0.0
 40
0.0
 40
0.0076947086
 40
0.0136506375
 40
0.0213179401
 40
0.0307896664
 40
0.0421138788
 40
0.0704134584
 40
0.1063263865
 40
0.1498840034
 40
0.2010907098
 40
0.2599279172
 40
0.4003541117
 40
0.5708297529
 40
0.7709183828
 40
1.0
 40
1.0
 40
1.0
 40
1.0
 10
2.4079758791
 20
4.7968496568
 30
0.0
 10
2.4079517371
 20
4.796850407
 30
0.0
 10
2.407914418
 20
4.7968832802
 30
0.0
 10
2.40788063
 20
4.7969392179
 30
0.0
 10
2.4078500924
 20
4.7970057288
 30
0.0
 10
2.4078201288
 20
4.7970897602
 30
0.0
 10
2.4077764
 20
4.7972376873
 30
0.0
 10
2.4077238907
 20
4.7974690472
 30
0.0
 10
2.4076638468
 20
4.7978020325
 30
0.0
 10
2.4076035415
 20
4.798207818
 30
0.0
 10
2.4075429505
 20
4.7986861759
 30
0.0
 10
2.4074568159
 20
4.7994676937
 30
0.0
 10
2.4073518464
 20
4.8006236362
 30
0.0
 10
2.4072312396
 20
4.8022231235
 30
0.0
 10
2.4071101997
 20
4.8041015423
 30
0.0
 10
2.4070343155
 20
4.8054465775
 30
0.0
 10
2.4069958791
 20
4.8061646353
 30
0.0
  0
SPLINE
  5
2DA
100
AcDbEntity
  8
0
100
AcDbSpline
 62
7
  6
CONTINUOUS
 70
0
 71
3
 72
26
 73
22
 74
0
 42
0.0000001
 43
0.0000001
 44
0.0000000001
 40
0.0
 40
0.0
 40
0.0
 40
0.0
 40
0.0010468349
 40
0.002559549
 40
0.0070270702
 40
0.0134427407
 40
0.0218126145
 40
0.0321342886
 40
0.0444029517
 40
0.0586126777
 40
0.0747551092
 40
0.1127939174
 40
0.1584277983
 40
0.211544289
 40
0.2720155578
 40
0.3396973088
 40
0.4144296835
 40
0.4960370273
 40
0.584324541
 40
0.7801231825
 40
1.0
 40
1.0
 40
1.0
 40
1.0
 10
8.6932185541
 20
3.9557281584
 30
0.0
 10
8.6932106729
 20
3.9557236065
 30
0.0
 10
8.6931897257
 20
3.9557155829
 30
0.0
 10
8.6931307149
 20
3.9556998736
 30
0.0
 10
8.6930241427
 20
3.9556823683
 30
0.0
 10
8.6928579881
 20
3.9556625278
 30
0.0
 10
8.6926405254
 20
3.9556429915
 30
0.0
 10
8.6923720575
 20
3.9556235992
 30
0.0
 10
8.6920526694
 20
3.9556045631
 30
0.0
 10
8.6916825878
 20
3.9555858847
 30
0.0
 10
8.6910885437
 20
3.9555600975
 30
0.0
 10
8.6902212519
 20
3.955529883
 30
0.0
 10
8.6890324396
 20
3.9554969962
 30
0.0
 10
8.6876484884
 20
3.9554660533
 30
0.0
 10
8.6860727706
 20
3.9554372131
 30
0.0
 10
8.684309058
 20
3.9554106797
 30
0.0
 10
8.6823615352
 20
3.9553866511
 30
0.0
 10
8.6802348221
 20
3.9553653528
 30
0.0
 10
8.6770555383
 20
3.9553400759
 30
0.0
 10
8.6726740712
 20
3.9553178936
 30
0.0
 10
8.6690601368
 20
3.9553118138
 30
0.0
 10
8.6671485018
 20
3.9553118138
 30
0.0
  0
SPLINE
  5
2DB
100
AcDbEntity
  8
0
100
AcDbSpline
 62
7
  6
CONTINUOUS
 70
0
 71
3
 72
40
 73
36
 74
0
 42
0.0000001
 43
0.0000001
 44
0.0000000001
 40
0.0
 40
0.0
 40
0.0
 40
0.0
 40
0.0143722072
 40
0.0324287476
 40
0.0540313184
 40
0.0790139405
 40
0.1071832966
 40
0.1383211539
 40
0.2085153565
 40
0.2874229126
 40
0.3726000326
 40
0.4614089047
 40
0.5511003359
 40
0.6388985085
 40
0.681234215
 40
0.7220873954
 40
0.7611418074
 40
0.7980950667
 40
0.8326611961
 40
0.8645729968
 40
0.8935838407
 40
0.9194697417
 40
0.9420313937
 40
0.9520103929
 40
0.9610957317
 40
0.9692698539
 40
0.9765176637
 40
0.9828256588
 40
0.9881827468
 40
0.9925802583
 40
0.9960126589
 40
0.9973669142
 40
0.9984807099
 40
0.9993564383
 40
1.0
 40
1.0
 40
1.0
 40
1.0
 10
2.3979958791
 20
4.9954796709
 30
0.0
 10
2.3980727327
 20
4.9945314326
 30
0.0
 10
2.3982183047
 20
4.9923896487
 30
0.0
 10
2.3984142812
 20
4.9888184624
 30
0.0
 10
2.3986113616
 20
4.9845440896
 30
0.0
 10
2.3988092856
 20
4.9795997616
 30
0.0
 10
2.399007703
 20
4.9740238313
 30
0.0
 10
2.3992838413
 20
4.9654561083
 30
0.0
 10
2.3996215619
 20
4.953530148
 30
0.0
 10
2.4000143721
 20
4.9380273601
 30
0.0
 10
2.4004080782
 20
4.9212920589
 30
0.0
 10
2.4008022963
 20
4.9038427623
 30
0.0
 10
2.4011965915
 20
4.8862199274
 30
0.0
 10
2.4015287933
 20
4.8716726967
 30
0.0
 10
2.4017977964
 20
4.8603576497
 30
0.0
 10
2.4019970312
 20
4.8522683817
 30
0.0
 10
2.4021961637
 20
4.8445355067
 30
0.0
 10
2.402395168
 20
4.8372189353
 30
0.0
 10
2.4025939994
 20
4.8303753388
 30
0.0
 10
2.4027926035
 20
4.82405771
 30
0.0
 10
2.402990871
 20
4.8183149516
 30
0.0
 10
2.4031887201
 20
4.8131915071
 30
0.0
 10
2.4033592135
 20
4.8093277711
 30
0.0
 10
2.4034976886
 20
4.8065758716
 30
0.0
 10
2.4035971424
 20
4.8047755967
 30
0.0
 10
2.4036964592
 20
4.8031564044
 30
0.0
 10
2.4037955753
 20
4.8017214219
 30
0.0
 10
2.4038944371
 20
4.8004733979
 30
0.0
 10
2.4039928002
 20
4.7994146552
 30
0.0
 10
2.4040906279
 20
4.7985472255
 30
0.0
 10
2.4041762837
 20
4.7979451273
 30
0.0
 10
2.4042477246
 20
4.7975611034
 30
0.0
 10
2.4042966787
 20
4.7973451128
 30
0.0
 10
2.404345209
 20
4.7971776958
 30
0.0
 10
2.4043823918
 20
4.7970837316
 30
0.0
 10
2.4044025458
 20
4.797046201
 30
0.0
  0
SPLINE
  5
2DC
100
AcDbEntity
  8
0
100
AcDbSpline
 62
7
  6
CONTINUOUS
 70
0
 71
3
 72
52
 73
48
 74
0
 42
0.0000001
 43
0.0000001
 44
0.0000000001
 40
0.0
 40
0.0
 40
0.0
 40
0.0
 40
0.0006743109
 40
0.0016139487
 40
0.0028273169
 40
0.0043178938
 40
0.0060869628
 40
0.0081346141
 40
0.0130637711
 40
0.019098527
 40
0.0262266735
 40
0.0344335355
 40
0.0437006997
 40
0.0540079524
 40
0.0653316519
 40
0.0909244007
 40
0.1202465612
 40
0.1530312968
 40
0.1889796663
 40
0.2277636533
 40
0.2690296048
 40
0.3124009759
 40
0.357481898
 40
0.4038613055
 40
0.4988153491
 40
0.593807476
 40
0.640234457
 40
0.6853820709
 40
0.7288392001
 40
0.7702099817
 40
0.8091178827
 40
0.8452090984
 40
0.8781554476
 40
0.9076577291
 40
0.9334486451
 40
0.9448781665
 40
0.9552952196
 40
0.9646766118
 40
0.9730014827
 40
0.9802517137
 40
0.986412
 40
0.9914702065
 40
0.9954184637
 40
0.996975627
 40
0.9982558895
 40
0.9992618714
 40
1.0
 40
1.0
 40
1.0
 40
1.0
 10
2.4637370579
 20
4.9920703342
 30
0.0
 10
2.463759314
 20
4.9920344333
 30
0.0
 10
2.4637999431
 20
4.9919410645
 30
0.0
 10
2.4638524942
 20
4.9917719585
 30
0.0
 10
2.4639055661
 20
4.9915497801
 30
0.0
 10
2.4639590332
 20
4.9912747082
 30
0.0
 10
2.4640127311
 20
4.9909465687
 30
0.0
 10
2.4640893504
 20
4.9904040695
 30
0.0
 10
2.4641825245
 20
4.9895942303
 30
0.0
 10
2.4642894323
 20
4.9884659317
 30
0.0
 10
2.4643967568
 20
4.9871315664
 30
0.0
 10
2.464504415
 20
4.9855941923
 30
0.0
 10
2.4646122815
 20
4.983857259
 30
0.0
 10
2.4647202986
 20
4.981924757
 30
0.0
 10
2.4648706726
 20
4.9789704016
 30
0.0
 10
2.4650557302
 20
4.9748251981
 30
0.0
 10
2.4652704968
 20
4.9693357312
 30
0.0
 10
2.4654856986
 20
4.9631971458
 30
0.0
 10
2.4657012422
 20
4.956465541
 30
0.0
 10
2.4659170048
 20
4.9492024155
 30
0.0
 10
2.4661329249
 20
4.9414741145
 30
0.0
 10
2.4663489518
 20
4.9333512207
 30
0.0
 10
2.4665650541
 20
4.9249079055
 30
0.0
 10
2.4668555117
 20
4.913234215
 30
0.0
 10
2.4672136073
 20
4.8984347235
 30
0.0
 10
2.467571588
 20
4.8836322484
 30
0.0
 10
2.467861885
 20
4.8719490076
 30
0.0
 10
2.468077884
 20
4.8634931559
 30
0.0
 10
2.4682937788
 20
4.8553541365
 30
0.0
 10
2.4685095387
 20
4.8476061226
 30
0.0
 10
2.4687251141
 20
4.8403197044
 30
0.0
 10
2.468940445
 20
4.8335612453
 30
0.0
 10
2.4691554127
 20
4.8273922787
 30
0.0
 10
2.4693699247
 20
4.8218689563
 30
0.0
 10
2.4695546816
 20
4.8176933854
 30
0.0
 10
2.4697047416
 20
4.814713061
 30
0.0
 10
2.4698125961
 20
4.8127598557
 30
0.0
 10
2.4699202949
 20
4.8110014476
 30
0.0
 10
2.4700277799
 20
4.8094418096
 30
0.0
 10
2.4701349851
 20
4.8080844731
 30
0.0
 10
2.4702416435
 20
4.8069324219
 30
0.0
 10
2.470347733
 20
4.8059882572
 30
0.0
 10
2.4704406013
 20
4.8053328339
 30
0.0
 10
2.4705180865
 20
4.8049148454
 30
0.0
 10
2.4705711643
 20
4.8046798637
 30
0.0
 10
2.4706237651
 20
4.8044978461
 30
0.0
 10
2.470664091
 20
4.8043957316
 30
0.0
 10
2.4706859743
 20
4.8043550004
 30
0.0
  0
SPLINE
  5
2DD
100
AcDbEntity
  8
0
100
AcDbSpline
 62
7
  6
CONTINUOUS
 70
0
 71
3
 72
28
 73
24
 74
0
 42
0.0000001
 43
0.0000001
 44
0.0000000001
 40
0.0
 40
0.0
 40
0.0
 40
0.0
 40
0.2196888233
 40
0.3213161444
 40
0.4169721086
 40
0.5063143046
 40
0.5890166904
 40
0.6647827134
 40
0.7333411387
 40
0.7944445031
 40
0.847876147
 40
0.8934475287
 40
0.9310003197
 40
0.9604136281
 40
0.972041461
 40
0.9816111382
 40
0.9856250498
 40
0.9891265672
 40
0.9921189812
 40
0.9946081725
 40
0.99660482
 40
0.9981304379
 40
1.0
 40
1.0
 40
1.0
 40
1.0
 10
8.5390969717
 20
3.9553118138
 30
0.0
 10
8.5358596107
 20
3.9552247389
 30
0.0
 10
8.5311247853
 20
3.9550924318
 30
0.0
 10
8.5249808381
 20
3.9549059689
 30
0.0
 10
8.5207577536
 20
3.9547698345
 30
0.0
 10
8.5168138014
 20
3.9546337824
 30
0.0
 10
8.5131632391
 20
3.9544978255
 30
0.0
 10
8.5098192838
 20
3.9543620006
 30
0.0
 10
8.5067940089
 20
3.9542263556
 30
0.0
 10
8.5040983254
 20
3.9540909721
 30
0.0
 10
8.5017419709
 20
3.9539559325
 30
0.0
 10
8.499733372
 20
3.9538215779
 30
0.0
 10
8.4980797633
 20
3.9536879195
 30
0.0
 10
8.4969268802
 20
3.9535710189
 30
0.0
 10
8.4961871556
 20
3.9534734591
 30
0.0
 10
8.4958200732
 20
3.9534148392
 30
0.0
 10
8.4955728029
 20
3.9533667692
 30
0.0
 10
8.4954216452
 20
3.9533329739
 30
0.0
 10
8.4952934518
 20
3.9532991525
 30
0.0
 10
8.4951886381
 20
3.9532658631
 30
0.0
 10
8.4951057083
 20
3.9532317126
 30
0.0
 10
8.4950380218
 20
3.9531952308
 30
0.0
 10
8.4949958754
 20
3.9531528765
 30
0.0
 10
8.4949958813
 20
3.9531253165
 30
0.0
  0
SPLINE
  5
2DE
100
AcDbEntity
  8
0
100
AcDbSpline
 62
7
  6
CONTINUOUS
 70
0
 71
3
 72
52
 73
48
 74
0
 42
0.0000001
 43
0.0000001
 44
0.0000000001
 40
0.0
 40
0.0
 40
0.0
 40
0.0
 40
0.0006597758
 40
0.001585842
 40
0.002786416
 40
0.0042647048
 40
0.006022044
 40
0.0080587596
 40
0.0129677139
 40
0.0189842622
 40
0.0260965405
 40
0.0342893841
 40
0.0435448196
 40
0.0538420974
 40
0.0651580943
 40
0.0907409959
 40
0.1200608051
 40
0.1528502302
 40
0.1888098466
 40
0.2276110281
 40
0.2688993681
 40
0.3122975827
 40
0.3574089623
 40
0.4038214798
 40
0.498845993
 40
0.5939075892
 40
0.6403664708
 40
0.685542799
 40
0.729024566
 40
0.7704150389
 40
0.8093369092
 40
0.8454356858
 40
0.8783825395
 40
0.9078777794
 40
0.9336537121
 40
0.9450725665
 40
0.9554769978
 40
0.964843496
 40
0.9731514612
 40
0.980382483
 40
0.9865214754
 40
0.991556
 40
0.9954783312
 40
0.9970215595
 40
0.9982871918
 40
0.9992778574
 40
1.0
 40
1.0
 40
1.0
 40
1.0
 10
2.5494145629
 20
4.994734967
 30
0.0
 10
2.5494369617
 20
4.9946988477
 30
0.0
 10
2.5494776549
 20
4.9946043151
 30
0.0
 10
2.5495301816
 20
4.9944327241
 30
0.0
 10
2.5495832507
 20
4.9942064481
 30
0.0
 10
2.5496367422
 20
4.993925713
 30
0.0
 10
2.5496904713
 20
4.9935903141
 30
0.0
 10
2.5497671657
 20
4.9930349381
 30
0.0
 10
2.5498604075
 20
4.9922050597
 30
0.0
 10
2.5499673821
 20
4.9910480225
 30
0.0
 10
2.5500747687
 20
4.9896787155
 30
0.0
 10
2.5501825045
 20
4.9881002563
 30
0.0
 10
2.5502904403
 20
4.986316223
 30
0.0
 10
2.5503985381
 20
4.9843306891
 30
0.0
 10
2.5505490312
 20
4.981294178
 30
0.0
 10
2.5507342327
 20
4.9770325641
 30
0.0
 10
2.5509491492
 20
4.9713877871
 30
0.0
 10
2.5511645049
 20
4.9650741601
 30
0.0
 10
2.5513802045
 20
4.9581494656
 30
0.0
 10
2.5515961246
 20
4.9506770606
 30
0.0
 10
2.5518122034
 20
4.9427253029
 30
0.0
 10
2.5520283898
 20
4.9343669233
 30
0.0
 10
2.5522446524
 20
4.9256783569
 30
0.0
 10
2.552535329
 20
4.9136650126
 30
0.0
 10
2.5528936881
 20
4.8984347326
 30
0.0
 10
2.5532519353
 20
4.8832014625
 30
0.0
 10
2.5535424554
 20
4.8711785525
 30
0.0
 10
2.5537586174
 20
4.8624774272
 30
0.0
 10
2.5539746752
 20
4.8541028939
 30
0.0
 10
2.554190598
 20
4.8461313891
 30
0.0
 10
2.5544063358
 20
4.8386356515
 30
0.0
 10
2.5546218283
 20
4.8316840582
 30
0.0
 10
2.5548369557
 20
4.8253400002
 30
0.0
 10
2.5550516259
 20
4.8196613138
 30
0.0
 10
2.5552365301
 20
4.8153692989
 30
0.0
 10
2.555386724
 20
4.8123067794
 30
0.0
 10
2.5554946563
 20
4.8103005237
 30
0.0
 10
2.555602437
 20
4.8084949718
 30
0.0
 10
2.5557099952
 20
4.8068942272
 30
0.0
 10
2.5558172774
 20
4.8055019049
 30
0.0
 10
2.555923995
 20
4.8043210885
 30
0.0
 10
2.5560301451
 20
4.8033544385
 30
0.0
 10
2.5561230668
 20
4.8026842185
 30
0.0
 10
2.5562006569
 20
4.8022575736
 30
0.0
 10
2.5562537414
 20
4.8020184919
 30
0.0
 10
2.5563063349
 20
4.8018339758
 30
0.0
 10
2.5563467254
 20
4.8017306966
 30
0.0
 10
2.5563687397
 20
4.8016897173
 30
0.0
  0
SPLINE
  5
2DF
100
AcDbEntity
  8
0
100
AcDbSpline
 62
7
  6
CONTINUOUS
 70
0
 71
3
 72
51
 73
47
 74
0
 42
0.0000001
 43
0.0000001
 44
0.0000000001
 40
0.0
 40
0.0
 40
0.0
 40
0.0
 40
0.0002986701
 40
0.000519332
 40
0.0008000773
 40
0.0011449693
 40
0.0015561538
 40
0.0025817152
 40
0.0038822503
 40
0.0054595406
 40
0.0073140766
 40
0.0094457777
 40
0.0145380305
 40
0.0207273448
 40
0.0280016591
 40
0.0363450445
 40
0.0457396295
 40
0.0561641578
 40
0.0675957055
 40
0.080008241
 40
0.1076630989
 40
0.1388794686
 40
0.1733752883
 40
0.2108387622
 40
0.2509310928
 40
0.2932893984
 40
0.3375304506
 40
0.3832538961
 40
0.4300457184
 40
0.4774824434
 40
0.5725711601
 40
0.6650846684
 40
0.7516809716
 40
0.791771321
 40
0.8292325351
 40
0.8637258243
 40
0.8949394288
 40
0.9225913105
 40
0.9464321778
 40
0.9662478855
 40
0.9745895579
 40
0.981862132
 40
0.9880496823
 40
0.9931401533
 40
0.9971244276
 40
1.0
 40
1.0
 40
1.0
 40
1.0
 10
8.4949958791
 20
3.9245653165
 30
0.0
 10
8.4949958791
 20
3.9245858004
 30
0.0
 10
8.4950198426
 20
3.9246187923
 30
0.0
 10
8.4950643102
 20
3.9246493489
 30
0.0
 10
8.495116223
 20
3.924676326
 30
0.0
 10
8.495182146
 20
3.9247028477
 30
0.0
 10
8.49529819
 20
3.9247414531
 30
0.0
 10
8.4954802545
 20
3.924787872
 30
0.0
 10
8.4957427133
 20
3.9248409121
 30
0.0
 10
8.4960629256
 20
3.9248941809
 30
0.0
 10
8.4964407459
 20
3.9249476974
 30
0.0
 10
8.4970587412
 20
3.9250237946
 30
0.0
 10
8.4979740781
 20
3.9251165152
 30
0.0
 10
8.499242275
 20
3.9252230389
 30
0.0
 10
8.5007340862
 20
3.9253299318
 30
0.0
 10
8.5024461826
 20
3.9254371546
 30
0.0
 10
8.5043746943
 20
3.9255445614
 30
0.0
 10
8.5065152876
 20
3.9256521193
 30
0.0
 10
8.5088630944
 20
3.9257597804
 30
0.0
 10
8.51239194
 20
3.9259088632
 30
0.0
 10
8.5172774055
 20
3.9260928166
 30
0.0
 10
8.5236772916
 20
3.9263069717
 30
0.0
 10
8.530750216
 20
3.9265214883
 30
0.0
 10
8.5384321323
 20
3.9267362908
 30
0.0
 10
8.546653477
 20
3.9269512855
 30
0.0
 10
8.5553397986
 20
3.9271664221
 30
0.0
 10
8.5644124329
 20
3.9273816596
 30
0.0
 10
8.5737892147
 20
3.9275969685
 30
0.0
 10
8.5833852226
 20
3.9278123242
 30
0.0
 10
8.5963661177
 20
3.9280997203
 30
0.0
 10
8.61248206
 20
3.9284541108
 30
0.0
 10
8.6312828136
 20
3.9288787177
 30
0.0
 10
8.6463120347
 20
3.9292402432
 30
0.0
 10
8.657566059
 20
3.9295345088
 30
0.0
 10
8.6652475106
 20
3.9297493188
 30
0.0
 10
8.6723199163
 20
3.9299638374
 30
0.0
 10
8.6787192358
 20
3.9301779784
 30
0.0
 10
8.6843875497
 20
3.9303914755
 30
0.0
 10
8.6892735452
 20
3.9306041929
 30
0.0
 10
8.6928350701
 20
3.9307890463
 30
0.0
 10
8.6952602603
 20
3.9309408614
 30
0.0
 10
8.6967517168
 20
3.9310477708
 30
0.0
 10
8.6980195358
 20
3.9311542837
 30
0.0
 10
8.699061089
 20
3.9312598407
 30
0.0
 10
8.6998739503
 20
3.9313645124
 30
0.0
 10
8.7003381166
 20
3.9314444907
 30
0.0
 10
8.7005302174
 20
3.9314891224
 30
0.0
  0
LINE
  5
2E0
100
AcDbEntity
  8
0
100
AcDbLine
 62
7
  6
CONTINUOUS
 10
8.7005302174
 20
3.9314891224
 11
8.7009206931
 21
3.931618498
  0
SPLINE
  5
2E1
100
AcDbEntity
  8
0
100
AcDbSpline
 62
7
  6
CONTINUOUS
 70
0
 71
3
 72
50
 73
46
 74
0
 42
0.0000001
 43
0.0000001
 44
0.0000000001
 40
0.0
 40
0.0
 40
0.0
 40
0.0
 40
0.0002962322
 40
0.0005178651
 40
0.0008002661
 40
0.001560292
 40
0.0025907862
 40
0.0038964514
 40
0.0054788944
 40
0.007338513
 40
0.0094751727
 40
0.0145768603
 40
0.0207748611
 40
0.0280570641
 40
0.0364075184
 40
0.0458083586
 40
0.0562383545
 40
0.0676746204
 40
0.0800911867
 40
0.1077522458
 40
0.1389725728
 40
0.1734706471
 40
0.2109351626
 40
0.2510275792
 40
0.293385628
 40
0.3376263599
 40
0.3833495283
 40
0.4301416493
 40
0.4775792351
 40
0.5726712582
 40
0.6651897984
 40
0.7517909698
 40
0.7918826121
 40
0.829343926
 40
0.8638354484
 40
0.8950449122
 40
0.9226898115
 40
0.9465202107
 40
0.9663214626
 40
0.9746542456
 40
0.9819167226
 40
0.988092879
 40
0.993170563
 40
0.9971405209
 40
1.0
 40
1.0
 40
1.0
 40
1.0
 10
2.5507758791
 20
4.7924118813
 30
0.0
 10
2.5507550229
 20
4.7924125294
 30
0.0
 10
2.5507222966
 20
4.7924384611
 30
0.0
 10
2.5506919015
 20
4.7924847069
 30
0.0
 10
2.5506520359
 20
4.7925650819
 30
0.0
 10
2.5506061299
 20
4.7927038395
 30
0.0
 10
2.5505534327
 20
4.7929156392
 30
0.0
 10
2.5505006236
 20
4.7931866277
 30
0.0
 10
2.5504473354
 20
4.7935168218
 30
0.0
 10
2.5503938881
 20
4.7939061552
 30
0.0
 10
2.550317861
 20
4.7945425041
 30
0.0
 10
2.55022523
 20
4.7954844889
 30
0.0
 10
2.5501187892
 20
4.7967890715
 30
0.0
 10
2.5500119809
 20
4.7983231137
 30
0.0
 10
2.54990484
 20
4.8000832019
 30
0.0
 10
2.549797513
 20
4.8020653679
 30
0.0
 10
2.5496900322
 20
4.8042651704
 30
0.0
 10
2.5495824453
 20
4.8066776215
 30
0.0
 10
2.5494334659
 20
4.810303147
 30
0.0
 10
2.5492496268
 20
4.8153219503
 30
0.0
 10
2.549035587
 20
4.82189602
 30
0.0
 10
2.5488211733
 20
4.8291609515
 30
0.0
 10
2.548606461
 20
4.8370510614
 30
0.0
 10
2.5483915434
 20
4.8454950034
 30
0.0
 10
2.5481764709
 20
4.8544163956
 30
0.0
 10
2.5479612841
 20
4.8637345183
 30
0.0
 10
2.5477460125
 20
4.87336505
 30
0.0
 10
2.5475306808
 20
4.8832208178
 30
0.0
 10
2.5472432968
 20
4.8965533258
 30
0.0
 10
2.5468888891
 20
4.9131060537
 30
0.0
 10
2.5464642137
 20
4.9324165451
 30
0.0
 10
2.5461025858
 20
4.9478533184
 30
0.0
 10
2.5458082041
 20
4.9594124029
 30
0.0
 10
2.5455932981
 20
4.9673017658
 30
0.0
 10
2.5453786708
 20
4.974565238
 30
0.0
 10
2.5451644091
 20
4.9811369349
 30
0.0
 10
2.5449507808
 20
4.9869572611
 30
0.0
 10
2.5447379218
 20
4.9919734112
 30
0.0
 10
2.5445529272
 20
4.995629134
 30
0.0
 10
2.544400974
 20
4.9981178089
 30
0.0
 10
2.5442939803
 20
4.9996476608
 30
0.0
 10
2.5441873816
 20
5.0009475815
 30
0.0
 10
2.5440817519
 20
5.0020148573
 30
0.0
 10
2.5439770063
 20
5.0028469874
 30
0.0
 10
2.543896948
 20
5.0033218754
 30
0.0
 10
2.5438521914
 20
5.0035182582
 30
0.0
  0
LINE
  5
2E2
100
AcDbEntity
  8
0
100
AcDbLine
 62
7
  6
CONTINUOUS
 10
2.5438521914
 20
5.0035182582
 11
2.5437162565
 21
5.0039262298
  0
SPLINE
  5
2E3
100
AcDbEntity
  8
0
100
AcDbSpline
 62
7
  6
CONTINUOUS
 70
0
 71
3
 72
51
 73
47
 74
0
 42
0.0000001
 43
0.0000001
 44
0.0000000001
 40
0.0
 40
0.0
 40
0.0
 40
0.0
 40
0.0002893605
 40
0.0005050691
 40
0.0007810307
 40
0.0011213359
 40
0.0015281176
 40
0.0025453601
 40
0.003838127
 40
0.0054081232
 40
0.0072557893
 40
0.0093810114
 40
0.014461385
 40
0.0206401517
 40
0.0279051565
 40
0.036240381
 40
0.0456278766
 40
0.0560463167
 40
0.0674727118
 40
0.0798809822
 40
0.1075297157
 40
0.1387426163
 40
0.173237144
 40
0.2107010569
 40
0.250794918
 40
0.2931555425
 40
0.337399321
 40
0.383125379
 40
0.4299197187
 40
0.477358614
 40
0.5724500736
 40
0.6649649445
 40
0.7515629514
 40
0.7916549586
 40
0.8291190923
 40
0.8636168497
 40
0.8948369634
 40
0.9224979383
 40
0.9463508033
 40
0.9661818162
 40
0.9745324689
 40
0.9818149228
 40
0.9880132293
 40
0.9931152808
 40
0.9971118258
 40
1.0
 40
1.0
 40
1.0
 40
1.0
 10
2.5401558791
 20
5.0038817101
 30
0.0
 10
2.5401762296
 20
5.0038823425
 30
0.0
 10
2.5402096675
 20
5.0038585521
 30
0.0
 10
2.5402400326
 20
5.003813926
 30
0.0
 10
2.5402670612
 20
5.0037614524
 30
0.0
 10
2.540293577
 20
5.0036945899
 30
0.0
 10
2.5403322526
 20
5.0035765092
 30
0.0
 10
2.5403787037
 20
5.0033909163
 30
0.0
 10
2.5404317803
 20
5.0031230589
 30
0.0
 10
2.5404850863
 20
5.0027958821
 30
0.0
 10
2.540538646
 20
5.0024095374
 30
0.0
 10
2.540614825
 20
5.0017770653
 30
0.0
 10
2.5407076265
 20
5.0008397924
 30
0.0
 10
2.5408142307
 20
4.9995407082
 30
0.0
 10
2.5409212038
 20
4.998011975
 30
0.0
 10
2.5410285062
 20
4.9962570186
 30
0.0
 10
2.5411359904
 20
4.9942798218
 30
0.0
 10
2.5412436232
 20
4.9920848422
 30
0.0
 10
2.5413513563
 20
4.9896770845
 30
0.0
 10
2.5415005411
 20
4.9860576114
 30
0.0
 10
2.541684606
 20
4.9810461832
 30
0.0
 10
2.5418988725
 20
4.9744808222
 30
0.0
 10
2.5421134881
 20
4.9672245131
 30
0.0
 10
2.5423283769
 20
4.9593430704
 30
0.0
 10
2.5425434451
 20
4.9509079575
 30
0.0
 10
2.5427586419
 20
4.9419956487
 30
0.0
 10
2.5429739262
 20
4.9326869325
 30
0.0
 10
2.5431892687
 20
4.9230661666
 30
0.0
 10
2.5434046444
 20
4.913220528
 30
0.0
 10
2.5436920479
 20
4.8999021236
 30
0.0
 10
2.5440464152
 20
4.883367369
 30
0.0
 10
2.5444709457
 20
4.8640781244
 30
0.0
 10
2.5448323618
 20
4.8486583735
 30
0.0
 10
2.5451265061
 20
4.837111692
 30
0.0
 10
2.5453412161
 20
4.829230132
 30
0.0
 10
2.5455556222
 20
4.8219730663
 30
0.0
 10
2.5457696384
 20
4.8154060997
 30
0.0
 10
2.545983
 20
4.8095885536
 30
0.0
 10
2.5461955715
 20
4.804572973
 30
0.0
 10
2.5463802791
 20
4.8009162306
 30
0.0
 10
2.5465319549
 20
4.7984254531
 30
0.0
 10
2.5466387763
 20
4.7968930078
 30
0.0
 10
2.5467451999
 20
4.7955897815
 30
0.0
 10
2.5468506725
 20
4.794518483
 30
0.0
 10
2.5469552603
 20
4.7936815856
 30
0.0
 10
2.5470351442
 20
4.7932032697
 30
0.0
 10
2.5470796874
 20
4.79300499
 30
0.0
  0
LINE
  5
2E4
100
AcDbEntity
  8
0
100
AcDbLine
 62
7
  6
CONTINUOUS
 10
2.5470796874
 20
4.79300499
 11
2.5472064572
 21
4.792604728
  0
SPLINE
  5
2E5
100
AcDbEntity
  8
0
100
AcDbSpline
 62
7
  6
CONTINUOUS
 70
0
 71
3
 72
51
 73
47
 74
0
 42
0.0000001
 43
0.0000001
 44
0.0000000001
 40
0.0
 40
0.0
 40
0.0
 40
0.0
 40
0.0002986693
 40
0.0005193305
 40
0.0008000746
 40
0.0011449653
 40
0.001556148
 40
0.002581705
 40
0.0038822345
 40
0.0054595179
 40
0.0073140457
 40
0.0094457374
 40
0.0145379675
 40
0.0207272545
 40
0.0280015374
 40
0.0363448869
 40
0.0457394316
 40
0.0561639145
 40
0.0675954116
 40
0.080007894
 40
0.1076626422
 40
0.1388788908
 40
0.1733745799
 40
0.2108379134
 40
0.2509301025
 40
0.2932882682
 40
0.3375291748
 40
0.3832524776
 40
0.4300441638
 40
0.4774807803
 40
0.5725692763
 40
0.6650827231
 40
0.751679042
 40
0.7917694444
 40
0.8292307242
 40
0.8637241465
 40
0.8949378981
 40
0.9225899471
 40
0.946431041
 40
0.966246995
 40
0.9745887982
 40
0.9818615102
 40
0.9880492074
 40
0.9931398326
 40
0.9971242653
 40
1.0
 40
1.0
 40
1.0
 40
1.0
 10
8.4949958791
 20
3.9388453165
 30
0.0
 10
8.4949958791
 20
3.9388658003
 30
0.0
 10
8.4950198424
 20
3.9388987922
 30
0.0
 10
8.4950643099
 20
3.9389293487
 30
0.0
 10
8.4951162224
 20
3.9389563257
 30
0.0
 10
8.4951821451
 20
3.9389828474
 30
0.0
 10
8.4952981885
 20
3.9390214527
 30
0.0
 10
8.4954802522
 20
3.9390678715
 30
0.0
 10
8.4957427098
 20
3.9391209114
 30
0.0
 10
8.4960629205
 20
3.9391741801
 30
0.0
 10
8.496440739
 20
3.9392276965
 30
0.0
 10
8.4970587313
 20
3.9393037935
 30
0.0
 10
8.4979740638
 20
3.9393965139
 30
0.0
 10
8.4992422546
 20
3.9395030373
 30
0.0
 10
8.5007340588
 20
3.93960993
 30
0.0
 10
8.5024461473
 20
3.9397171525
 30
0.0
 10
8.5043746499
 20
3.9398245591
 30
0.0
 10
8.5065152331
 20
3.9399321167
 30
0.0
 10
8.5088630288
 20
3.9400397775
 30
0.0
 10
8.5123918585
 20
3.94018886
 30
0.0
 10
8.5172773029
 20
3.9403728129
 30
0.0
 10
8.5236771619
 20
3.9405869676
 30
0.0
 10
8.5307500569
 20
3.9408014836
 30
0.0
 10
8.5384319422
 20
3.9410162856
 30
0.0
 10
8.5466532551
 20
3.9412312799
 30
0.0
 10
8.5553395442
 20
3.9414464159
 30
0.0
 10
8.564412146
 20
3.9416616529
 30
0.0
 10
8.5737888954
 20
3.9418769613
 30
0.0
 10
8.5833848733
 20
3.9420923164
 30
0.0
 10
8.5963657319
 20
3.9423797119
 30
0.0
 10
8.6124816417
 20
3.9427341016
 30
0.0
 10
8.6312823704
 20
3.9431587075
 30
0.0
 10
8.6463115867
 20
3.9435202321
 30
0.0
 10
8.6575656162
 20
3.9438144969
 30
0.0
 10
8.6652470823
 20
3.9440293064
 30
0.0
 10
8.6723195093
 20
3.9442438245
 30
0.0
 10
8.6787188572
 20
3.944457965
 30
0.0
 10
8.6843872063
 20
3.9446714617
 30
0.0
 10
8.689273244
 20
3.9448841787
 30
0.0
 10
8.6928348091
 20
3.9450690316
 30
0.0
 10
8.6952600339
 20
3.9452208463
 30
0.0
 10
8.6967515184
 20
3.9453277555
 30
0.0
 10
8.6980193672
 20
3.9454342682
 30
0.0
 10
8.6990609517
 20
3.9455398252
 30
0.0
 10
8.6998738456
 20
3.9456444969
 30
0.0
 10
8.700338034
 20
3.9457244749
 30
0.0
 10
8.7005301462
 20
3.9457691059
 30
0.0
  0
LINE
  5
2E6
100
AcDbEntity
  8
0
100
AcDbLine
 62
7
  6
CONTINUOUS
 10
8.7005301462
 20
3.9457691059
 11
8.7009206931
 21
3.945898498
  0
LINE
  5
2E7
100
AcDbEntity
  8
0
100
AcDbLine
 62
7
  6
CONTINUOUS
 10
8.5050790979
 20
3.9464479552
 11
8.5054667857
 21
3.9465806226
  0
SPLINE
  5
2E8
100
AcDbEntity
  8
0
100
AcDbSpline
 62
7
  6
CONTINUOUS
 70
0
 71
3
 72
49
 73
45
 74
0
 42
0.0000001
 43
0.0000001
 44
0.0000000001
 40
0.0
 40
0.0
 40
0.0
 40
0.0
 40
0.0030088156
 40
0.0071196455
 40
0.0123303782
 40
0.0186319876
 40
0.0260124455
 40
0.0344558147
 40
0.0544560931
 40
0.0784561056
 40
0.1062412728
 40
0.1375623122
 40
0.1721374616
 40
0.2096552859
 40
0.2497779174
 40
0.3363706119
 40
0.4287998509
 40
0.5237390499
 40
0.6177714894
 40
0.6633853092
 40
0.7075127196
 40
0.7497556798
 40
0.7897333504
 40
0.8270856017
 40
0.8614757847
 40
0.8925942032
 40
0.9201611373
 40
0.9325340351
 40
0.9439291469
 40
0.9543206105
 40
0.9636858146
 40
0.9720037272
 40
0.9792567778
 40
0.9854293026
 40
0.9905096806
 40
0.9926375557
 40
0.9944897156
 40
0.9960663499
 40
0.9973683454
 40
0.9983980203
 40
0.9991613989
 40
0.9994481051
 40
0.9996767968
 40
1.0
 40
1.0
 40
1.0
 40
1.0
 10
8.5054667857
 20
3.9465806226
 30
0.0
 10
8.5056478219
 20
3.9466246415
 30
0.0
 10
8.5060819129
 20
3.9467044094
 30
0.0
 10
8.5068382211
 20
3.9468090785
 30
0.0
 10
8.5077999994
 20
3.9469146031
 30
0.0
 10
8.5089650493
 20
3.9470209847
 30
0.0
 10
8.5103309632
 20
3.947127749
 30
0.0
 10
8.5125441008
 20
3.9472791724
 30
0.0
 10
8.5157863475
 20
3.9474636789
 30
0.0
 10
8.5202263767
 20
3.9476760776
 30
0.0
 10
8.5253680665
 20
3.9478892348
 30
0.0
 10
8.5311650477
 20
3.9481030159
 30
0.0
 10
8.5375650467
 20
3.9483171657
 30
0.0
 10
8.5445103236
 20
3.9485315999
 30
0.0
 10
8.5546756832
 20
3.9488252591
 30
0.0
 10
8.5682407024
 20
3.9491860918
 30
0.0
 10
8.5851995459
 20
3.9496099584
 30
0.0
 10
8.6026192006
 20
3.9500341898
 30
0.0
 10
8.6171407463
 20
3.9503910964
 30
0.0
 10
8.628516642
 20
3.9506805807
 30
0.0
 10
8.6366865038
 20
3.9508954312
 30
0.0
 10
8.6445072434
 20
3.9511101773
 30
0.0
 10
8.6519082922
 20
3.9513247827
 30
0.0
 10
8.6588228728
 20
3.951539196
 30
0.0
 10
8.6651886012
 20
3.951753324
 30
0.0
 10
8.6709480435
 20
3.9519670918
 30
0.0
 10
8.6753442846
 20
3.9521507134
 30
0.0
 10
8.6785195528
 20
3.9522995269
 30
0.0
 10
8.6806320405
 20
3.9524069922
 30
0.0
 10
8.6825580305
 20
3.9525143555
 30
0.0
 10
8.6842931607
 20
3.9526215676
 30
0.0
 10
8.6858335541
 20
3.9527285984
 30
0.0
 10
8.687175747
 20
3.9528353005
 30
0.0
 10
8.6883167574
 20
3.9529416376
 30
0.0
 10
8.6891402337
 20
3.9530341909
 30
0.0
 10
8.6896961307
 20
3.9531101494
 30
0.0
 10
8.6900360719
 20
3.9531635598
 30
0.0
 10
8.6903241701
 20
3.9532168044
 30
0.0
 10
8.6905604491
 20
3.9532696179
 30
0.0
 10
8.6907448458
 20
3.9533222603
 30
0.0
 10
8.6908654544
 20
3.9533683373
 30
0.0
 10
8.6909345515
 20
3.953408025
 30
0.0
 10
8.6909752662
 20
3.9534392973
 30
0.0
 10
8.6909958652
 20
3.9534718005
 30
0.0
 10
8.6909958714
 20
3.9534918138
 30
0.0
  0
SPLINE
  5
2E9
100
AcDbEntity
  8
0
100
AcDbSpline
 62
7
  6
CONTINUOUS
 70
0
 71
3
 72
20
 73
16
 74
0
 42
0.0000001
 43
0.0000001
 44
0.0000000001
 40
0.0
 40
0.0
 40
0.0
 40
0.0
 40
0.2129899928
 40
0.4023784911
 40
0.567175921
 40
0.7066025193
 40
0.7665842059
 40
0.8199813607
 40
0.8667364948
 40
0.906798991
 40
0.9401398776
 40
0.9667482074
 40
0.9866509123
 40
0.994127112
 40
1.0
 40
1.0
 40
1.0
 40
1.0
 10
2.3979958791
 20
4.8231759616
 30
0.0
 10
2.398046798
 20
4.8219933875
 30
0.0
 10
2.3981475064
 20
4.8197594703
 30
0.0
 10
2.3983067989
 20
4.8166114541
 30
0.0
 10
2.3984656468
 20
4.8138728301
 30
0.0
 10
2.3986032848
 20
4.811853416
 30
0.0
 10
2.3987156147
 20
4.8104529558
 30
0.0
 10
2.398795454
 20
4.8095666005
 30
0.0
 10
2.3988750748
 20
4.8087914175
 30
0.0
 10
2.3989544544
 20
4.8081283587
 30
0.0
 10
2.3990332766
 20
4.8075780549
 30
0.0
 10
2.3991115827
 20
4.8071412329
 30
0.0
 10
2.399180347
 20
4.8068487113
 30
0.0
 10
2.3992385814
 20
4.8066732415
 30
0.0
 10
2.3992681039
 20
4.8066049378
 30
0.0
 10
2.3992835475
 20
4.8065761849
 30
0.0
  0
SPLINE
  5
2EA
100
AcDbEntity
  8
0
100
AcDbSpline
 62
7
  6
CONTINUOUS
 70
0
 71
3
 72
37
 73
33
 74
0
 42
0.0000001
 43
0.0000001
 44
0.0000000001
 40
0.0
 40
0.0
 40
0.0
 40
0.0
 40
0.0006115309
 40
0.0014336434
 40
0.0037326182
 40
0.0069185118
 40
0.0109942991
 40
0.0159561575
 40
0.0217978017
 40
0.028510076
 40
0.0360820655
 40
0.0445013091
 40
0.0537531957
 40
0.0746908506
 40
0.0987506595
 40
0.1257659518
 40
0.1555492624
 40
0.1878935926
 40
0.2225740004
 40
0.259349384
 40
0.2979640087
 40
0.3381491206
 40
0.4221039735
 40
0.5088828486
 40
0.5960767835
 40
0.6812660314
 40
0.762087927
 40
0.8363016582
 40
0.9018515516
 40
0.9569239034
 40
0.9800443174
 40
1.0
 40
1.0
 40
1.0
 40
1.0
 10
2.4066188012
 20
4.9902938391
 30
0.0
 10
2.4066377027
 20
4.9902633611
 30
0.0
 10
2.4066730135
 20
4.9901865264
 30
0.0
 10
2.4067424353
 20
4.9899788492
 30
0.0
 10
2.4068229664
 20
4.9896170485
 30
0.0
 10
2.4069149226
 20
4.9890640278
 30
0.0
 10
2.4070074834
 20
4.9883529928
 30
0.0
 10
2.4071009299
 20
4.987485401
 30
0.0
 10
2.4071946884
 20
4.9864624311
 30
0.0
 10
2.4072887333
 20
4.9852858825
 30
0.0
 10
2.4073829424
 20
4.9839577555
 30
0.0
 10
2.4074772798
 20
4.9824803701
 30
0.0
 10
2.4076086654
 20
4.98021996
 30
0.0
 10
2.4077704226
 20
4.9770425793
 30
0.0
 10
2.4079580601
 20
4.9728235379
 30
0.0
 10
2.4081460706
 20
4.9680853037
 30
0.0
 10
2.4083343781
 20
4.9628608931
 30
0.0
 10
2.408522879
 20
4.9571867013
 30
0.0
 10
2.4087115224
 20
4.9511022544
 30
0.0
 10
2.4089002661
 20
4.944649923
 30
0.0
 10
2.4090890869
 20
4.9378746394
 30
0.0
 10
2.4093446443
 20
4.9283333034
 30
0.0
 10
2.4096604049
 20
4.9159679777
 30
0.0
 10
2.4100343355
 20
4.900846411
 30
0.0
 10
2.4104082552
 20
4.885652431
 30
0.0
 10
2.4107818851
 20
4.870807897
 30
0.0
 10
2.411154918
 20
4.8567248238
 30
0.0
 10
2.4115267271
 20
4.8437938891
 30
0.0
 10
2.4118969408
 20
4.832373695
 30
0.0
 10
2.4122181063
 20
4.8239499041
 30
0.0
 10
2.4124833856
 20
4.8182000688
 30
0.0
 10
2.4126177907
 20
4.8156774058
 30
0.0
 10
2.4126865433
 20
4.8145091245
 30
0.0
  0
SPLINE
  5
2EB
100
AcDbEntity
  8
0
100
AcDbSpline
 62
7
  6
CONTINUOUS
 70
0
 71
3
 72
54
 73
50
 74
0
 42
0.0000001
 43
0.0000001
 44
0.0000000001
 40
0.0
 40
0.0
 40
0.0
 40
0.0
 40
0.0003284809
 40
0.0005623853
 40
0.0008563506
 40
0.0016404483
 40
0.0026988872
 40
0.0040376718
 40
0.0056593657
 40
0.007564849
 40
0.0097539318
 40
0.0149802
 40
0.0213300858
 40
0.0287902939
 40
0.0373450584
 40
0.0469747867
 40
0.0576580278
 40
0.0693698574
 40
0.0820837295
 40
0.1103970823
 40
0.1423360804
 40
0.1776043419
 40
0.2158744723
 40
0.2567910167
 40
0.2999735272
 40
0.3450206264
 40
0.3915136475
 40
0.4390201016
 40
0.4870982392
 40
0.5831804887
 40
0.6761945859
 40
0.7204645846
 40
0.7626892455
 40
0.8024762684
 40
0.8394558563
 40
0.8732844217
 40
0.9036481246
 40
0.9302655088
 40
0.9420908865
 40
0.9528905119
 40
0.9626392744
 40
0.971315387
 40
0.9788989745
 40
0.9853739097
 40
0.9907264479
 40
0.9949478047
 40
0.9980344296
 40
0.9991553508
 40
1.0
 40
1.0
 40
1.0
 40
1.0
 10
8.504995899
 20
3.9187918138
 30
0.0
 10
8.5049958954
 20
3.9188121926
 30
0.0
 10
8.5050172583
 20
3.9188452752
 30
0.0
 10
8.505059136
 20
3.9188769206
 30
0.0
 10
8.5051304417
 20
3.9189172456
 30
0.0
 10
8.5052548097
 20
3.9189639976
 30
0.0
 10
8.5054449224
 20
3.9190174564
 30
0.0
 10
8.505688521
 20
3.919071084
 30
0.0
 10
8.5059855625
 20
3.9191251502
 30
0.0
 10
8.5063360599
 20
3.9191793794
 30
0.0
 10
8.5069091807
 20
3.9192565123
 30
0.0
 10
8.507758085
 20
3.919350501
 30
0.0
 10
8.5089341841
 20
3.919458468
 30
0.0
 10
8.5103174886
 20
3.9195668292
 30
0.0
 10
8.5119047792
 20
3.9196755033
 30
0.0
 10
8.513692425
 20
3.9197843811
 30
0.0
 10
8.5156762492
 20
3.9198933953
 30
0.0
 10
8.5178516677
 20
3.9200025276
 30
0.0
 10
8.5211200982
 20
3.9201536096
 30
0.0
 10
8.5256430849
 20
3.9203400401
 30
0.0
 10
8.5315651889
 20
3.9205570993
 30
0.0
 10
8.5381053687
 20
3.9207745255
 30
0.0
 10
8.5452027829
 20
3.9209922398
 30
0.0
 10
8.552791403
 20
3.9212101481
 30
0.0
 10
8.5608006229
 20
3.9214281986
 30
0.0
 10
8.5691559249
 20
3.9216463499
 30
0.0
 10
8.5777795691
 20
3.9218645715
 30
0.0
 10
8.5865913154
 20
3.9220828388
 30
0.0
 10
8.5984787032
 20
3.9223738178
 30
0.0
 10
8.6131885579
 20
3.9227325087
 30
0.0
 10
8.627661957
 20
3.9230965688
 30
0.0
 10
8.6387946979
 20
3.9233922601
 30
0.0
 10
8.6466261416
 20
3.9236102589
 30
0.0
 10
8.6540051115
 20
3.9238280862
 30
0.0
 10
8.6608629556
 20
3.9240456904
 30
0.0
 10
8.6671358757
 20
3.9242629541
 30
0.0
 10
8.6727655184
 20
3.9244797878
 30
0.0
 10
8.6770301999
 20
3.9246664525
 30
0.0
 10
8.6800814285
 20
3.9248180152
 30
0.0
 10
8.6820869332
 20
3.9249270509
 30
0.0
 10
8.6838967522
 20
3.9250359448
 30
0.0
 10
8.6855066583
 20
3.9251446458
 30
0.0
 10
8.6869129734
 20
3.9252530474
 30
0.0
 10
8.6881123911
 20
3.9253610761
 30
0.0
 10
8.6891024304
 20
3.9254681845
 30
0.0
 10
8.6898806093
 20
3.9255745764
 30
0.0
 10
8.6903958239
 20
3.9256677199
 30
0.0
 10
8.6906989834
 20
3.9257476059
 30
0.0
 10
8.6908143843
 20
3.9257881504
 30
0.0
 10
8.6908620679
 20
3.9258098811
 30
0.0
  0
SPLINE
  5
2EC
100
AcDbEntity
  8
0
100
AcDbSpline
 62
7
  6
CONTINUOUS
 70
0
 71
3
 72
9
 73
5
 74
0
 42
0.0000001
 43
0.0000001
 44
0.0000000001
 40
0.0
 40
0.0
 40
0.0
 40
0.0
 40
0.267696428
 40
1.0
 40
1.0
 40
1.0
 40
1.0
 10
8.6908620679
 20
3.9258098811
 30
0.0
 10
8.690866681
 20
3.9258119834
 30
0.0
 10
8.6908838352
 20
3.9258200055
 30
0.0
 10
8.6909006702
 20
3.9258287328
 30
0.0
 10
8.6909126774
 20
3.9258356725
 30
0.0
  0
SPLINE
  5
2ED
100
AcDbEntity
  8
0
100
AcDbSpline
 62
7
  6
CONTINUOUS
 70
0
 71
3
 72
38
 73
34
 74
0
 42
0.0000001
 43
0.0000001
 44
0.0000000001
 40
0.0
 40
0.0
 40
0.0
 40
0.0
 40
0.0005664501
 40
0.001344906
 40
0.0023423133
 40
0.0035616911
 40
0.0066700751
 40
0.010672263
 40
0.0155649265
 40
0.0213408507
 40
0.027991388
 40
0.0355052832
 40
0.0438700008
 40
0.0530712752
 40
0.0739184427
 40
0.0979025376
 40
0.1248567815
 40
0.1545934732
 40
0.1869054581
 40
0.2215673451
 40
0.258337248
 40
0.2969587883
 40
0.3371625599
 40
0.4211857734
 40
0.5080674036
 40
0.5953884283
 40
0.6807188661
 40
0.7616849261
 40
0.8360351528
 40
0.9017037218
 40
0.956867673
 40
0.9800210127
 40
1.0
 40
1.0
 40
1.0
 40
1.0
 10
2.4009197766
 20
4.9994856976
 30
0.0
 10
2.4009390217
 20
4.9994546499
 30
0.0
 10
2.4009744807
 20
4.9993748744
 30
0.0
 10
2.4010205186
 20
4.9992310085
 30
0.0
 10
2.401066994
 20
4.9990433734
 30
0.0
 10
2.4011349689
 20
4.9987067237
 30
0.0
 10
2.4012163338
 20
4.9981754991
 30
0.0
 10
2.4013092292
 20
4.9974070104
 30
0.0
 10
2.4014026219
 20
4.9964654933
 30
0.0
 10
2.4014965155
 20
4.99535257
 30
0.0
 10
2.4015906446
 20
4.9940701085
 30
0.0
 10
2.4016849667
 20
4.9926203285
 30
0.0
 10
2.4017794184
 20
4.9910057575
 30
0.0
 10
2.401911017
 20
4.9885321046
 30
0.0
 10
2.4020730065
 20
4.9850514507
 30
0.0
 10
2.4022608675
 20
4.9804260295
 30
0.0
 10
2.4024491107
 20
4.9752269474
 30
0.0
 10
2.4026376572
 20
4.9694905231
 30
0.0
 10
2.4028264017
 20
4.9632568187
 30
0.0
 10
2.4030152921
 20
4.9565693773
 30
0.0
 10
2.4032042855
 20
4.9494749037
 30
0.0
 10
2.4033933585
 20
4.9420229338
 30
0.0
 10
2.4036492902
 20
4.9315244698
 30
0.0
 10
2.4039655003
 20
4.9179144181
 30
0.0
 10
2.4043399311
 20
4.901266466
 30
0.0
 10
2.4047143584
 20
4.8845341939
 30
0.0
 10
2.4050885006
 20
4.8681834871
 30
0.0
 10
2.405462049
 20
4.8526694396
 30
0.0
 10
2.405834374
 20
4.8384236753
 30
0.0
 10
2.4062051015
 20
4.8258424043
 30
0.0
 10
2.4065267213
 20
4.8165626862
 30
0.0
 10
2.4067923996
 20
4.8102294178
 30
0.0
 10
2.406927013
 20
4.8074511747
 30
0.0
 10
2.4069958791
 20
4.8061646353
 30
0.0
  0
SPLINE
  5
2EE
100
AcDbEntity
  8
0
100
AcDbSpline
 62
7
  6
CONTINUOUS
 70
0
 71
3
 72
17
 73
13
 74
0
 42
0.0000001
 43
0.0000001
 44
0.0000000001
 40
0.0
 40
0.0
 40
0.0
 40
0.0
 40
0.2096160793
 40
0.3957358195
 40
0.5578567765
 40
0.6956407058
 40
0.8088217821
 40
0.8972270789
 40
0.9321182857
 40
0.9608218452
 40
0.9834002208
 40
1.0
 40
1.0
 40
1.0
 40
1.0
 10
2.4126865433
 20
4.8145091245
 30
0.0
 10
2.4127211844
 20
4.8139204839
 30
0.0
 10
2.412789768
 20
4.8128093676
 30
0.0
 10
2.4128984559
 20
4.8112438395
 30
0.0
 10
2.4130068781
 20
4.8098809136
 30
0.0
 10
2.4131147378
 20
4.808723834
 30
0.0
 10
2.4132220306
 20
4.8077751818
 30
0.0
 10
2.4133159443
 20
4.8071163712
 30
0.0
 10
2.4133942819
 20
4.8066959805
 30
0.0
 10
2.4134479685
 20
4.8064594434
 30
0.0
 10
2.4135011807
 20
4.8062760355
 30
0.0
 10
2.4135419458
 20
4.8061730692
 30
0.0
 10
2.4135640422
 20
4.8061319321
 30
0.0
  0
SPLINE
  5
2EF
100
AcDbEntity
  8
0
100
AcDbSpline
 62
7
  6
CONTINUOUS
 70
0
 71
3
 72
52
 73
48
 74
0
 42
0.0000001
 43
0.0000001
 44
0.0000000001
 40
0.0
 40
0.0
 40
0.0
 40
0.0
 40
0.00066209
 40
0.0015903212
 40
0.0027930404
 40
0.0042733767
 40
0.0060325751
 40
0.0080710106
 40
0.0129833686
 40
0.0190027695
 40
0.0261177356
 40
0.03431276
 40
0.0435702118
 40
0.053869018
 40
0.0651863643
 40
0.0907708549
 40
0.1200910506
 40
0.1528797092
 40
0.1888374779
 40
0.2276358636
 40
0.2689205558
 40
0.3123143866
 40
0.3574208125
 40
0.4038279398
 40
0.4988409807
 40
0.5938912732
 40
0.6403449694
 40
0.6855166302
 40
0.7289943938
 40
0.7703816677
 40
0.8093012709
 40
0.8453988254
 40
0.8783455991
 40
0.9078419883
 40
0.933620364
 40
0.9450408723
 40
0.9554474352
 40
0.9648162926
 40
0.9731270712
 40
0.980361167
 40
0.9865036732
 40
0.9915420223
 40
0.9954685922
 40
0.9970141487
 40
0.9982820983
 40
0.9992751959
 40
1.0
 40
1.0
 40
1.0
 40
1.0
 10
2.5351349691
 20
4.9942908591
 30
0.0
 10
2.5351573425
 20
4.9942547792
 30
0.0
 10
2.5351980291
 20
4.9941604494
 30
0.0
 10
2.5352505607
 20
4.9939892743
 30
0.0
 10
2.5353036266
 20
4.993763676
 30
0.0
 10
2.5353571135
 20
4.9934838806
 30
0.0
 10
2.5354108394
 20
4.9931496959
 30
0.0
 10
2.5354875243
 20
4.9925964659
 30
0.0
 10
2.5355807483
 20
4.99176993
 30
0.0
 10
2.5356877192
 20
4.9906176761
 30
0.0
 10
2.5357950897
 20
4.9892541989
 30
0.0
 10
2.5359028179
 20
4.9876825803
 30
0.0
 10
2.5360107382
 20
4.9859064023
 30
0.0
 10
2.5361188264
 20
4.9839297003
 30
0.0
 10
2.5362692969
 20
4.9809068823
 30
0.0
 10
2.5364544771
 20
4.9766646646
 30
0.0
 10
2.5366693685
 20
4.9710457732
 30
0.0
 10
2.5368846994
 20
4.9647613207
 30
0.0
 10
2.5371003735
 20
4.9578688087
 30
0.0
 10
2.537316268
 20
4.9504312845
 30
0.0
 10
2.5375323209
 20
4.9425167703
 30
0.0
 10
2.5377484813
 20
4.9341976389
 30
0.0
 10
2.5379647178
 20
4.9255499481
 30
0.0
 10
2.5382553588
 20
4.9135932124
 30
0.0
 10
2.538613675
 20
4.8984347298
 30
0.0
 10
2.5389718788
 20
4.8832732578
 30
0.0
 10
2.5392623626
 20
4.8713069579
 30
0.0
 10
2.539478498
 20
4.8626467098
 30
0.0
 10
2.5396945293
 20
4.8543114274
 30
0.0
 10
2.5399104255
 20
4.8463771695
 30
0.0
 10
2.5401261369
 20
4.8389163169
 30
0.0
 10
2.5403416031
 20
4.8319969113
 30
0.0
 10
2.5405567044
 20
4.8256820342
 30
0.0
 10
2.5407713493
 20
4.8200292411
 30
0.0
 10
2.5409562279
 20
4.8157566381
 30
0.0
 10
2.5411064024
 20
4.8127078179
 30
0.0
 10
2.5412143195
 20
4.8107104082
 30
0.0
 10
2.5413220895
 20
4.808912709
 30
0.0
 10
2.5414296332
 20
4.8073188188
 30
0.0
 10
2.5415369054
 20
4.8059323239
 30
0.0
 10
2.5416436114
 20
4.8047563037
 30
0.0
 10
2.5417497521
 20
4.8037933988
 30
0.0
 10
2.5418426684
 20
4.8031256423
 30
0.0
 10
2.5419202357
 20
4.8027004379
 30
0.0
 10
2.5419733212
 20
4.8024620442
 30
0.0
 10
2.54202592
 20
4.8022779497
 30
0.0
 10
2.5420662994
 20
4.8021748656
 30
0.0
 10
2.5420882894
 20
4.802133922
 30
0.0
  0
SPLINE
  5
2F0
100
AcDbEntity
  8
0
100
AcDbSpline
 62
7
  6
CONTINUOUS
 70
0
 71
3
 72
51
 73
47
 74
0
 42
0.0000001
 43
0.0000001
 44
0.0000000001
 40
0.0
 40
0.0
 40
0.0
 40
0.0
 40
0.0002883074
 40
0.0005055436
 40
0.0007836274
 40
0.0011263746
 40
0.001535776
 40
0.0025585121
 40
0.0038568549
 40
0.0054323757
 40
0.0072854488
 40
0.0094159227
 40
0.0145062581
 40
0.0206941723
 40
0.0279674711
 40
0.0363101462
 40
0.0457042748
 40
0.0561285636
 40
0.0675600618
 40
0.0799727171
 40
0.1076282614
 40
0.1388458282
 40
0.1733432787
 40
0.2108087552
 40
0.2509034022
 40
0.2932642863
 40
0.3375081321
 40
0.3832345351
 40
0.4300294312
 40
0.477469302
 40
0.5725643308
 40
0.6650838653
 40
0.7516855294
 40
0.7917781869
 40
0.8292413946
 40
0.8637363037
 40
0.8949510936
 40
0.9226036494
 40
0.9464445768
 40
0.9662595808
 40
0.974600536
 40
0.9818720866
 40
0.9880582279
 40
0.9931467742
 40
0.99712837
 40
1.0
 40
1.0
 40
1.0
 40
1.0
 10
2.5544285411
 20
5.0043118138
 30
0.0
 10
2.5544488885
 20
5.0043118138
 30
0.0
 10
2.5544814646
 20
5.0042866529
 30
0.0
 10
2.5545111755
 20
5.0042412858
 30
0.0
 10
2.5545377134
 20
5.004187858
 30
0.0
 10
2.5545637692
 20
5.0041200567
 30
0.0
 10
2.554601763
 20
5.0040005776
 30
0.0
 10
2.5546474113
 20
5.0038132133
 30
0.0
 10
2.5546995667
 20
5.0035431447
 30
0.0
 10
2.5547519394
 20
5.0032136306
 30
0.0
 10
2.5548045556
 20
5.0028248195
 30
0.0
 10
2.5548793784
 20
5.0021887907
 30
0.0
 10
2.5549705514
 20
5.0012467863
 30
0.0
 10
2.5550752999
 20
4.9999416758
 30
0.0
 10
2.5551804085
 20
4.9984064296
 30
0.0
 10
2.5552858411
 20
4.996644476
 30
0.0
 10
2.5553914562
 20
4.994659801
 30
0.0
 10
2.5554972203
 20
4.992456865
 30
0.0
 10
2.5556030856
 20
4.9900406789
 30
0.0
 10
2.5557496826
 20
4.986409035
 30
0.0
 10
2.5559305683
 20
4.9813812656
 30
0.0
 10
2.5561411515
 20
4.9747949844
 30
0.0
 10
2.5563520902
 20
4.9675160588
 30
0.0
 10
2.5565633102
 20
4.9596104015
 30
0.0
 10
2.5567747194
 20
4.951149603
 30
0.0
 10
2.556986268
 20
4.9422102838
 30
0.0
 10
2.5571979159
 20
4.9328733994
 30
0.0
 10
2.557409634
 20
4.9232235084
 30
0.0
 10
2.5576213981
 20
4.9133480061
 30
0.0
 10
2.5579040013
 20
4.8999890272
 30
0.0
 10
2.5582524813
 20
4.8834036994
 30
0.0
 10
2.5586700065
 20
4.8640553673
 30
0.0
 10
2.5590255027
 20
4.8485884018
 30
0.0
 10
2.5593148611
 20
4.8370065789
 30
0.0
 10
2.5595260885
 20
4.8291014018
 30
0.0
 10
2.5597370293
 20
4.8218230121
 30
0.0
 10
2.5599475985
 20
4.8152373164
 30
0.0
 10
2.5601575342
 20
4.809403924
 30
0.0
 10
2.5603667029
 20
4.8043756446
 30
0.0
 10
2.5605484725
 20
4.8007103819
 30
0.0
 10
2.5606977575
 20
4.7982145236
 30
0.0
 10
2.560802882
 20
4.7966796443
 30
0.0
 10
2.5609076167
 20
4.795374923
 30
0.0
 10
2.561011404
 20
4.7943030866
 30
0.0
 10
2.561114322
 20
4.7934666266
 30
0.0
 10
2.5611929563
 20
4.7929888845
 30
0.0
 10
2.5612368778
 20
4.7927910355
 30
0.0
  0
LINE
  5
2F1
100
AcDbEntity
  8
0
100
AcDbLine
 62
7
  6
CONTINUOUS
 10
2.5612368778
 20
4.7927910355
 11
2.5613617098
 21
4.7923935717
  0
SPLINE
  5
2F2
100
AcDbEntity
  8
0
100
AcDbSpline
 62
7
  6
CONTINUOUS
 70
0
 71
3
 72
53
 73
49
 74
0
 42
0.0000001
 43
0.0000001
 44
0.0000000001
 40
0.0
 40
0.0
 40
0.0
 40
0.0
 40
0.0003276989
 40
0.0005608082
 40
0.000853653
 40
0.0016346572
 40
0.0026888722
 40
0.0040222113
 40
0.0056371486
 40
0.0075346898
 40
0.0097147399
 40
0.0149193232
 40
0.0212429051
 40
0.0286723386
 40
0.0371919242
 40
0.0467823613
 40
0.0574222824
 40
0.0690871317
 40
0.0817504068
 40
0.1099529705
 40
0.1417701782
 40
0.1769082806
 40
0.2150423307
 40
0.2558196634
 40
0.2988630975
 40
0.3437740992
 40
0.3901369785
 40
0.4375227331
 40
0.4854924993
 40
0.5814064882
 40
0.6743353915
 40
0.7185998458
 40
0.760846341
 40
0.8006838122
 40
0.8377438937
 40
0.8716837956
 40
0.9021897752
 40
0.9289804401
 40
0.9518091664
 40
0.9616709208
 40
0.9704671058
 40
0.978177782
 40
0.9847863694
 40
0.9902789717
 40
0.9946459817
 40
0.9978830788
 40
0.9990799733
 40
1.0
 40
1.0
 40
1.0
 40
1.0
 10
8.5049959014
 20
3.9330718138
 30
0.0
 10
8.5049959024
 20
3.9330921398
 30
0.0
 10
8.5050171529
 20
3.9331251351
 30
0.0
 10
8.5050588555
 20
3.9331567282
 30
0.0
 10
8.5051298304
 20
3.9331969646
 30
0.0
 10
8.5052536497
 20
3.9332436157
 30
0.0
 10
8.5054429294
 20
3.9332969538
 30
0.0
 10
8.5056854571
 20
3.9333504622
 30
0.0
 10
8.5059811847
 20
3.9334044116
 30
0.0
 10
8.5063301351
 20
3.9334585217
 30
0.0
 10
8.506900736
 20
3.9335354809
 30
0.0
 10
8.5077459225
 20
3.9336292643
 30
0.0
 10
8.5089168863
 20
3.9337369923
 30
0.0
 10
8.5102941749
 20
3.9338451132
 30
0.0
 10
8.5118746008
 20
3.9339535477
 30
0.0
 10
8.5136545615
 20
3.9340621831
 30
0.0
 10
8.515629927
 20
3.9341709574
 30
0.0
 10
8.5177961453
 20
3.9342798471
 30
0.0
 10
8.521050959
 20
3.9344305997
 30
0.0
 10
8.5255554233
 20
3.9346166215
 30
0.0
 10
8.5314537739
 20
3.934833202
 30
0.0
 10
8.5379685011
 20
3.9350501486
 30
0.0
 10
8.5450392643
 20
3.9352673828
 30
0.0
 10
8.5526005767
 20
3.9354848107
 30
0.0
 10
8.5605823991
 20
3.9357023808
 30
0.0
 10
8.5689107933
 20
3.9359200517
 30
0.0
 10
8.5775086133
 20
3.936137793
 30
0.0
 10
8.5862962158
 20
3.9363555803
 30
0.0
 10
8.5981564455
 20
3.9366459691
 30
0.0
 10
8.6128407494
 20
3.9370039581
 30
0.0
 10
8.6272950314
 20
3.9373671695
 30
0.0
 10
8.6384211557
 20
3.9376621395
 30
0.0
 10
8.646255093
 20
3.9378796672
 30
0.0
 10
8.6536419919
 20
3.9380970296
 30
0.0
 10
8.6605134319
 20
3.9383141676
 30
0.0
 10
8.6668057702
 20
3.9385309978
 30
0.0
 10
8.6724607399
 20
3.9387473371
 30
0.0
 10
8.6774259783
 20
3.9389630626
 30
0.0
 10
8.6811107195
 20
3.9391497807
 30
0.0
 10
8.6836794914
 20
3.9393022246
 30
0.0
 10
8.6853114572
 20
3.9394107282
 30
0.0
 10
8.6867411723
 20
3.9395189369
 30
0.0
 10
8.687965312
 20
3.9396267965
 30
0.0
 10
8.6889812827
 20
3.9397338206
 30
0.0
 10
8.6897866314
 20
3.9398401522
 30
0.0
 10
8.6903250527
 20
3.9399332998
 30
0.0
 10
8.6906475959
 20
3.9400126864
 30
0.0
 10
8.6907728677
 20
3.9400529511
 30
0.0
 10
8.6908257753
 20
3.9400743362
 30
0.0
  0
SPLINE
  5
2F3
100
AcDbEntity
  8
0
100
AcDbSpline
 62
7
  6
CONTINUOUS
 70
0
 71
3
 72
9
 73
5
 74
0
 42
0.0000001
 43
0.0000001
 44
0.0000000001
 40
0.0
 40
0.0
 40
0.0
 40
0.0
 40
0.277216343
 40
1.0
 40
1.0
 40
1.0
 40
1.0
 10
8.6908257753
 20
3.9400743362
 30
0.0
 10
8.6908340234
 20
3.94007767
 30
0.0
 10
8.6908636134
 20
3.9400900763
 30
0.0
 10
8.6908925975
 20
3.9401040673
 30
0.0
 10
8.690912681
 20
3.9401156725
 30
0.0
  0
LINE
  5
2F4
100
AcDbEntity
  8
0
100
AcDbLine
 62
7
  6
CONTINUOUS
 10
8.4950710652
 20
3.9406651296
 11
8.4954618099
 21
3.9407945676
  0
SPLINE
  5
2F5
100
AcDbEntity
  8
0
100
AcDbSpline
 62
7
  6
CONTINUOUS
 70
0
 71
3
 72
51
 73
47
 74
0
 42
0.0000001
 43
0.0000001
 44
0.0000000001
 40
0.0
 40
0.0
 40
0.0
 40
0.0
 40
0.0028761847
 40
0.0068610522
 40
0.011952092
 40
0.0181401904
 40
0.0254132938
 40
0.0337554676
 40
0.0535720762
 40
0.0774137251
 40
0.1050663091
 40
0.1362804379
 40
0.1707741491
 40
0.2082357202
 40
0.2483262046
 40
0.3349226337
 40
0.4274357629
 40
0.5225237379
 40
0.5699600971
 40
0.6167514822
 40
0.6624743187
 40
0.7067148968
 40
0.7490726791
 40
0.7891644138
 40
0.8266274142
 40
0.861122721
 40
0.8923385971
 40
0.9199930641
 40
0.9324054021
 40
0.9438367538
 40
0.9542611067
 40
0.9636555394
 40
0.971998795
 40
0.9792729975
 40
0.9854622095
 40
0.9905543738
 40
0.9926860386
 40
0.9945405437
 40
0.9961178082
 40
0.9974183223
 40
0.9984438673
 40
0.9988550455
 40
0.9991999324
 40
0.9994806736
 40
0.9997013327
 40
1.0
 40
1.0
 40
1.0
 40
1.0
 10
8.4954618099
 20
3.9407945676
 30
0.0
 10
8.4956539541
 20
3.9408391966
 30
0.0
 10
8.4961182034
 20
3.9409191738
 30
0.0
 10
8.4969311864
 20
3.9410238453
 30
0.0
 10
8.497972856
 20
3.9411294022
 30
0.0
 10
8.4992407867
 20
3.9412359144
 30
0.0
 10
8.5007323497
 20
3.9413428231
 30
0.0
 10
8.5031576695
 20
3.9414946363
 30
0.0
 10
8.5067193397
 20
3.9416794879
 30
0.0
 10
8.5116054924
 20
3.9418922038
 30
0.0
 10
8.5172739366
 20
3.9421056992
 30
0.0
 10
8.5236733607
 20
3.9423198383
 30
0.0
 10
8.5307458464
 20
3.9425343552
 30
0.0
 10
8.5384273504
 20
3.9427491633
 30
0.0
 10
8.5496814021
 20
3.943043426
 30
0.0
 10
8.564710595
 20
3.943404948
 30
0.0
 10
8.5835112552
 20
3.9438295512
 30
0.0
 10
8.5996270739
 20
3.9441839388
 30
0.0
 10
8.6126078458
 20
3.9444713326
 30
0.0
 10
8.6222037439
 20
3.9446866863
 30
0.0
 10
8.6315804089
 20
3.9449019933
 30
0.0
 10
8.6406529209
 20
3.9451172288
 30
0.0
 10
8.6493391215
 20
3.9453323634
 30
0.0
 10
8.657560346
 20
3.9455473563
 30
0.0
 10
8.6652421435
 20
3.9457621568
 30
0.0
 10
8.6723149568
 20
3.9459766715
 30
0.0
 10
8.6787147385
 20
3.9461908247
 30
0.0
 10
8.6836001233
 20
3.9463747765
 30
0.0
 10
8.6871289104
 20
3.9465238581
 30
0.0
 10
8.689476675
 20
3.9466315181
 30
0.0
 10
8.6916172295
 20
3.9467390749
 30
0.0
 10
8.6935457072
 20
3.9468464808
 30
0.0
 10
8.6952577744
 20
3.9469537026
 30
0.0
 10
8.6967495599
 20
3.9470605946
 30
0.0
 10
8.6980177343
 20
3.9471671174
 30
0.0
 10
8.6989330545
 20
3.9472598371
 30
0.0
 10
8.6995510382
 20
3.9473359336
 30
0.0
 10
8.6999288517
 20
3.9473894496
 30
0.0
 10
8.7002490582
 20
3.9474427179
 30
0.0
 10
8.7005115123
 20
3.9474957575
 30
0.0
 10
8.7006935736
 20
3.947542176
 30
0.0
 10
8.7008096155
 20
3.9475807811
 30
0.0
 10
8.7008755373
 20
3.9476073026
 30
0.0
 10
8.7009274492
 20
3.9476342794
 30
0.0
 10
8.7009719162
 20
3.9476648358
 30
0.0
 10
8.7009958791
 20
3.9476978274
 30
0.0
 10
8.7009958791
 20
3.9477183111
 30
0.0
  0
SPLINE
  5
2F6
100
AcDbEntity
  8
0
100
AcDbSpline
 62
7
  6
CONTINUOUS
 70
0
 71
3
 72
53
 73
49
 74
0
 42
0.0000001
 43
0.0000001
 44
0.0000000001
 40
0.0
 40
0.0
 40
0.0
 40
0.0
 40
0.0003272772
 40
0.0005599594
 40
0.0008521885
 40
0.0016313849
 40
0.0026831993
 40
0.0040135027
 40
0.0056246722
 40
0.0075176628
 40
0.0096925776
 40
0.0148849841
 40
0.0211936206
 40
0.0286057681
 40
0.0371054254
 40
0.046673754
 40
0.0572891065
 40
0.0689274458
 40
0.0815620498
 40
0.1097020858
 40
0.1414504992
 40
0.1765149489
 40
0.214572163
 40
0.2552708829
 40
0.2982355535
 40
0.3430696516
 40
0.3893590571
 40
0.4366763695
 40
0.4845848132
 40
0.5804035088
 40
0.6732841415
 40
0.7175452019
 40
0.7598038241
 40
0.7996698289
 40
0.8367752087
 40
0.8707778486
 40
0.9013642749
 40
0.9282528077
 40
0.9511966479
 40
0.9611224055
 40
0.9699864284
 40
0.9777691003
 40
0.9844531942
 40
0.9900251263
 40
0.9944745114
 40
0.9977969669
 40
0.9990370252
 40
1.0
 40
1.0
 40
1.0
 40
1.0
 10
8.5049958969
 20
3.9473518138
 30
0.0
 10
8.5049959021
 20
3.947372111
 30
0.0
 10
8.5050170955
 20
3.9474050562
 30
0.0
 10
8.5050587034
 20
3.9474366187
 30
0.0
 10
8.5051294908
 20
3.9474768017
 30
0.0
 10
8.5052529919
 20
3.9475234027
 30
0.0
 10
8.5054417983
 20
3.9475766693
 30
0.0
 10
8.5056837234
 20
3.9476301098
 30
0.0
 10
8.5059787079
 20
3.9476839904
 30
0.0
 10
8.5063267775
 20
3.9477380359
 30
0.0
 10
8.5068959482
 20
3.9478148963
 30
0.0
 10
8.5077390239
 20
3.9479085593
 30
0.0
 10
8.5089070805
 20
3.9480161563
 30
0.0
 10
8.5102809551
 20
3.9481241367
 30
0.0
 10
8.5118574959
 20
3.9482324389
 30
0.0
 10
8.5136330945
 20
3.9483409336
 30
0.0
 10
8.515603664
 20
3.9484495741
 30
0.0
 10
8.5177646548
 20
3.9485583235
 30
0.0
 10
8.521011745
 20
3.9487088909
 30
0.0
 10
8.5255057014
 20
3.9488946794
 30
0.0
 10
8.5313905734
 20
3.9491109885
 30
0.0
 10
8.5378908547
 20
3.9493276624
 30
0.0
 10
8.544946491
 20
3.949544624
 30
0.0
 10
8.552492296
 20
3.949761779
 30
0.0
 10
8.5604585523
 20
3.9499790761
 30
0.0
 10
8.5687716544
 20
3.9501964741
 30
0.0
 10
8.5773547877
 20
3.9504139426
 30
0.0
 10
8.5861286454
 20
3.9506314573
 30
0.0
 10
8.5979733786
 20
3.9509215104
 30
0.0
 10
8.6126430716
 20
3.9512791005
 30
0.0
 10
8.6270863684
 20
3.9516418299
 30
0.0
 10
8.6382086031
 20
3.9519363904
 30
0.0
 10
8.6460438407
 20
3.9521536506
 30
0.0
 10
8.6534351196
 20
3.9523707478
 30
0.0
 10
8.6603141476
 20
3.9525876241
 30
0.0
 10
8.6666173719
 20
3.952804197
 30
0.0
 10
8.6722865751
 20
3.9530202885
 30
0.0
 10
8.6772693918
 20
3.9532357756
 30
0.0
 10
8.6809708639
 20
3.953422245
 30
0.0
 10
8.6835546577
 20
3.9535744322
 30
0.0
 10
8.685199087
 20
3.9536828215
 30
0.0
 10
8.6866420149
 20
3.9537909157
 30
0.0
 10
8.6878801252
 20
3.953898683
 30
0.0
 10
8.6889107491
 20
3.9540056457
 30
0.0
 10
8.6897314607
 20
3.9541119453
 30
0.0
 10
8.6902830291
 20
3.9542050708
 30
0.0
 10
8.6906165338
 20
3.9542841853
 30
0.0
 10
8.6907473908
 20
3.9543242988
 30
0.0
 10
8.6908032207
 20
3.9543455063
 30
0.0
  0
LINE
  5
2F7
100
AcDbEntity
  8
0
100
AcDbLine
 62
7
  6
CONTINUOUS
 10
8.6908032207
 20
3.9543455063
 11
8.6909126731
 21
3.9543956725
  0
SPLINE
  5
2F8
100
AcDbEntity
  8
0
100
AcDbSpline
 62
7
  6
CONTINUOUS
 70
0
 71
3
 72
52
 73
48
 74
0
 42
0.0000001
 43
0.0000001
 44
0.0000000001
 40
0.0
 40
0.0
 40
0.0
 40
0.0
 40
0.0006644685
 40
0.0015948999
 40
0.0027997435
 40
0.004282122
 40
0.0060432385
 40
0.0080834369
 40
0.0129991595
 40
0.0190215126
 40
0.0261391232
 40
0.0343364164
 40
0.043595832
 40
0.053896251
 40
0.0652148907
 40
0.0908009924
 40
0.1201215743
 40
0.1529094657
 40
0.188865377
 40
0.2276609354
 40
0.268941957
 40
0.3123313691
 40
0.3574327873
 40
0.4038344875
 40
0.498835942
 40
0.5938748363
 40
0.6403232863
 40
0.6854902443
 40
0.7289639616
 40
0.770347993
 40
0.8092653109
 40
0.8453616223
 40
0.8783083022
 40
0.9078058508
 40
0.9335866842
 40
0.9450089534
 40
0.955417572
 40
0.9647889015
 40
0.9731024324
 40
0.9803397207
 40
0.9864856859
 40
0.9915279765
 40
0.9954587521
 40
0.997006663
 40
0.998277012
 40
0.9992725797
 40
1.0
 40
1.0
 40
1.0
 40
1.0
 10
2.5208553791
 20
4.9938467547
 30
0.0
 10
2.5208777284
 20
4.9938107117
 30
0.0
 10
2.5209184045
 20
4.9937165789
 30
0.0
 10
2.5209709423
 20
4.9935458195
 30
0.0
 10
2.5210240066
 20
4.9933209025
 30
0.0
 10
2.5210774895
 20
4.9930420486
 30
0.0
 10
2.5211312104
 20
4.992709075
 30
0.0
 10
2.5212078849
 20
4.9921579911
 30
0.0
 10
2.5213010945
 20
4.9913347964
 30
0.0
 10
2.5214080574
 20
4.9901873297
 30
0.0
 10
2.5215154154
 20
4.9888296782
 30
0.0
 10
2.5216231326
 20
4.9872649047
 30
0.0
 10
2.5217310402
 20
4.9854965781
 30
0.0
 10
2.5218391162
 20
4.9835287123
 30
0.0
 10
2.5219895662
 20
4.9805195872
 30
0.0
 10
2.5221747234
 20
4.9762967698
 30
0.0
 10
2.5223895899
 20
4.9707037637
 30
0.0
 10
2.5226048955
 20
4.9644484851
 30
0.0
 10
2.522820544
 20
4.9575881553
 30
0.0
 10
2.5230364126
 20
4.9501855112
 30
0.0
 10
2.5232524395
 20
4.9423082399
 30
0.0
 10
2.5234685737
 20
4.9340283565
 30
0.0
 10
2.5236847838
 20
4.9254215408
 30
0.0
 10
2.5239753888
 20
4.9135214138
 30
0.0
 10
2.5243336617
 20
4.8984347281
 30
0.0
 10
2.5246918217
 20
4.883345055
 30
0.0
 10
2.5249822688
 20
4.8714353649
 30
0.0
 10
2.5251983775
 20
4.8628159951
 30
0.0
 10
2.525414382
 20
4.8545199643
 30
0.0
 10
2.5256302514
 20
4.8466229547
 30
0.0
 10
2.5258459362
 20
4.8391969886
 30
0.0
 10
2.5260613758
 20
4.8323097722
 30
0.0
 10
2.5262764508
 20
4.8260240775
 30
0.0
 10
2.5264910697
 20
4.8203971792
 30
0.0
 10
2.5266759244
 20
4.8161439832
 30
0.0
 10
2.5268260764
 20
4.813108863
 30
0.0
 10
2.5269339814
 20
4.8111202941
 30
0.0
 10
2.5270417369
 20
4.8093304533
 30
0.0
 10
2.52714927
 20
4.807743412
 30
0.0
 10
2.5272565274
 20
4.8063627496
 30
0.0
 10
2.527363227
 20
4.8051915209
 30
0.0
 10
2.5274693527
 20
4.8042323655
 30
0.0
 10
2.5275622669
 20
4.8035670722
 30
0.0
 10
2.5276398121
 20
4.8031433092
 30
0.0
 10
2.5276928964
 20
4.8029055978
 30
0.0
 10
2.5277454983
 20
4.8027219241
 30
0.0
 10
2.5277858678
 20
4.8026190386
 30
0.0
 10
2.5278078349
 20
4.8025781366
 30
0.0
  0
LINE
  5
2F9
100
AcDbEntity
  8
0
100
AcDbLine
 62
7
  6
CONTINUOUS
 10
8.5050790916
 20
3.9321679551
 11
8.5052235086
 21
3.9322308605
  0
SPLINE
  5
2FA
100
AcDbEntity
  8
0
100
AcDbSpline
 62
7
  6
CONTINUOUS
 70
0
 71
3
 72
53
 73
49
 74
0
 42
0.0000001
 43
0.0000001
 44
0.0000000001
 40
0.0
 40
0.0
 40
0.0
 40
0.0
 40
0.0010252842
 40
0.0023277866
 40
0.0057727323
 40
0.0103409898
 40
0.0160266599
 40
0.0228196721
 40
0.0307054655
 40
0.0396672434
 40
0.0496846267
 40
0.0727938945
 40
0.0998230164
 40
0.1305247822
 40
0.1646174901
 40
0.2017879139
 40
0.2416945799
 40
0.2839704937
 40
0.3282266864
 40
0.4210374699
 40
0.5167190576
 40
0.5645392349
 40
0.611758332
 40
0.657942023
 40
0.7026654989
 40
0.7455171458
 40
0.7861028896
 40
0.8240496312
 40
0.8590083874
 40
0.89065802
 40
0.9187081969
 40
0.93130183
 40
0.9429019523
 40
0.9534822266
 40
0.9630186553
 40
0.971489828
 40
0.9788770119
 40
0.9851642735
 40
0.9903391384
 40
0.9925065388
 40
0.9943931985
 40
0.9959990818
 40
0.9973248771
 40
0.9983730766
 40
0.9991498464
 40
0.9994412783
 40
0.9996733844
 40
1.0
 40
1.0
 40
1.0
 40
1.0
 10
8.5052235086
 20
3.9322308605
 30
0.0
 10
8.5052835227
 20
3.9322518352
 30
0.0
 10
8.5054224371
 20
3.932291732
 30
0.0
 10
8.5057716931
 20
3.9323704574
 30
0.0
 10
8.5063421827
 20
3.9324635608
 30
0.0
 10
8.5071849492
 20
3.9325697749
 30
0.0
 10
8.5082366462
 20
3.9326766694
 30
0.0
 10
8.5094947976
 20
3.9327842797
 30
0.0
 10
8.5109567063
 20
3.9328922244
 30
0.0
 10
8.512618993
 20
3.9330004335
 30
0.0
 10
8.515224327
 20
3.9331522641
 30
0.0
 10
8.5189497614
 20
3.9333383662
 30
0.0
 10
8.5239577459
 20
3.933553511
 30
0.0
 10
8.5296472974
 20
3.9337692433
 30
0.0
 10
8.5359660531
 20
3.933985445
 30
0.0
 10
8.5428558624
 20
3.9342019433
 30
0.0
 10
8.5502533044
 20
3.9344186578
 30
0.0
 10
8.5580902791
 20
3.934635532
 30
0.0
 10
8.5692067441
 20
3.934929502
 30
0.0
 10
8.5836340325
 20
3.9352915363
 30
0.0
 10
8.5982824963
 20
3.93564855
 30
0.0
 10
8.6101048033
 20
3.9359381188
 30
0.0
 10
8.6188587935
 20
3.9361552402
 30
0.0
 10
8.6274207107
 20
3.936372315
 30
0.0
 10
8.635711732
 20
3.9365893193
 30
0.0
 10
8.6436555261
 20
3.9368062227
 30
0.0
 10
8.6511789618
 20
3.937022984
 30
0.0
 10
8.658212781
 20
3.9372395521
 30
0.0
 10
8.664692236
 20
3.937455833
 30
0.0
 10
8.6705576825
 20
3.9376717493
 30
0.0
 10
8.675036504
 20
3.9378572045
 30
0.0
 10
8.6782724636
 20
3.9380074993
 30
0.0
 10
8.6804259374
 20
3.9381160522
 30
0.0
 10
8.6823895903
 20
3.9382244938
 30
0.0
 10
8.6841589147
 20
3.9383327917
 30
0.0
 10
8.6857298479
 20
3.9384408972
 30
0.0
 10
8.6870988083
 20
3.9385486794
 30
0.0
 10
8.6882626693
 20
3.938656085
 30
0.0
 10
8.6891026978
 20
3.9387495695
 30
0.0
 10
8.6896698065
 20
3.9388262985
 30
0.0
 10
8.6900166198
 20
3.9388802445
 30
0.0
 10
8.6903105459
 20
3.9389340216
 30
0.0
 10
8.6905515905
 20
3.9389873652
 30
0.0
 10
8.6907397009
 20
3.9390405448
 30
0.0
 10
8.6908627518
 20
3.9390870632
 30
0.0
 10
8.6909332919
 20
3.9391271665
 30
0.0
 10
8.6909747733
 20
3.9391586765
 30
0.0
 10
8.6909958798
 20
3.9391915617
 30
0.0
 10
8.6909958741
 20
3.9392118138
 30
0.0
  0
LINE
  5
2FB
100
AcDbEntity
  8
0
100
AcDbLine
 62
7
  6
CONTINUOUS
 10
8.4950710652
 20
3.9263851296
 11
8.4954618099
 21
3.9265145676
  0
SPLINE
  5
2FC
100
AcDbEntity
  8
0
100
AcDbSpline
 62
7
  6
CONTINUOUS
 70
0
 71
3
 72
51
 73
47
 74
0
 42
0.0000001
 43
0.0000001
 44
0.0000000001
 40
0.0
 40
0.0
 40
0.0
 40
0.0
 40
0.0028761847
 40
0.0068610522
 40
0.011952092
 40
0.0181401904
 40
0.0254132938
 40
0.0337554676
 40
0.0535720762
 40
0.0774137251
 40
0.1050663091
 40
0.1362804379
 40
0.1707741491
 40
0.2082357202
 40
0.2483262046
 40
0.3349226337
 40
0.4274357629
 40
0.5225237379
 40
0.5699600971
 40
0.6167514822
 40
0.6624743187
 40
0.7067148968
 40
0.7490726791
 40
0.7891644138
 40
0.8266274142
 40
0.861122721
 40
0.8923385971
 40
0.9199930641
 40
0.9324054021
 40
0.9438367538
 40
0.9542611067
 40
0.9636555394
 40
0.971998795
 40
0.9792729975
 40
0.9854622095
 40
0.9905543738
 40
0.9926860386
 40
0.9945405437
 40
0.9961178082
 40
0.9974183223
 40
0.9984438673
 40
0.9988550455
 40
0.9991999324
 40
0.9994806736
 40
0.9997013327
 40
1.0
 40
1.0
 40
1.0
 40
1.0
 10
8.4954618099
 20
3.9265145676
 30
0.0
 10
8.4956539541
 20
3.9265591966
 30
0.0
 10
8.4961182034
 20
3.9266391738
 30
0.0
 10
8.4969311864
 20
3.9267438453
 30
0.0
 10
8.497972856
 20
3.9268494022
 30
0.0
 10
8.4992407867
 20
3.9269559144
 30
0.0
 10
8.5007323497
 20
3.9270628231
 30
0.0
 10
8.5031576695
 20
3.9272146363
 30
0.0
 10
8.5067193397
 20
3.9273994879
 30
0.0
 10
8.5116054924
 20
3.9276122038
 30
0.0
 10
8.5172739366
 20
3.9278256992
 30
0.0
 10
8.5236733607
 20
3.9280398383
 30
0.0
 10
8.5307458464
 20
3.9282543552
 30
0.0
 10
8.5384273504
 20
3.9284691633
 30
0.0
 10
8.5496814021
 20
3.928763426
 30
0.0
 10
8.564710595
 20
3.929124948
 30
0.0
 10
8.5835112552
 20
3.9295495512
 30
0.0
 10
8.5996270739
 20
3.9299039388
 30
0.0
 10
8.6126078458
 20
3.9301913326
 30
0.0
 10
8.6222037439
 20
3.9304066863
 30
0.0
 10
8.6315804089
 20
3.9306219933
 30
0.0
 10
8.6406529209
 20
3.9308372288
 30
0.0
 10
8.6493391215
 20
3.9310523634
 30
0.0
 10
8.657560346
 20
3.9312673563
 30
0.0
 10
8.6652421435
 20
3.9314821568
 30
0.0
 10
8.6723149568
 20
3.9316966715
 30
0.0
 10
8.6787147385
 20
3.9319108247
 30
0.0
 10
8.6836001233
 20
3.9320947765
 30
0.0
 10
8.6871289104
 20
3.9322438581
 30
0.0
 10
8.689476675
 20
3.9323515181
 30
0.0
 10
8.6916172295
 20
3.9324590749
 30
0.0
 10
8.6935457072
 20
3.9325664808
 30
0.0
 10
8.6952577744
 20
3.9326737026
 30
0.0
 10
8.6967495599
 20
3.9327805946
 30
0.0
 10
8.6980177343
 20
3.9328871174
 30
0.0
 10
8.6989330545
 20
3.9329798371
 30
0.0
 10
8.6995510382
 20
3.9330559336
 30
0.0
 10
8.6999288517
 20
3.9331094496
 30
0.0
 10
8.7002490582
 20
3.9331627179
 30
0.0
 10
8.7005115123
 20
3.9332157575
 30
0.0
 10
8.7006935736
 20
3.933262176
 30
0.0
 10
8.7008096155
 20
3.9333007811
 30
0.0
 10
8.7008755373
 20
3.9333273026
 30
0.0
 10
8.7009274492
 20
3.9333542794
 30
0.0
 10
8.7009719162
 20
3.9333848358
 30
0.0
 10
8.7009958791
 20
3.9334178274
 30
0.0
 10
8.7009958791
 20
3.9334383111
 30
0.0
  0
SPLINE
  5
2FD
100
AcDbEntity
  8
0
100
AcDbSpline
 62
7
  6
CONTINUOUS
 70
0
 71
3
 72
53
 73
49
 74
0
 42
0.0000001
 43
0.0000001
 44
0.0000000001
 40
0.0
 40
0.0
 40
0.0
 40
0.0
 40
0.0003267555
 40
0.000559008
 40
0.000850661
 40
0.001628083
 40
0.0026771725
 40
0.0040040425
 40
0.0056112717
 40
0.0074995723
 40
0.009668847
 40
0.0148480447
 40
0.0211406802
 40
0.0285340405
 40
0.0370123918
 40
0.0465567654
 40
0.0571458956
 40
0.068755512
 40
0.0813594085
 40
0.1094320164
 40
0.1411064264
 40
0.1760915708
 40
0.2140658658
 40
0.2546799509
 40
0.2975598424
 40
0.342310883
 40
0.3885211016
 40
0.4357647766
 40
0.4836069157
 40
0.5793229287
 40
0.672151139
 40
0.7164086324
 40
0.7586801337
 40
0.7985766756
 40
0.835730924
 40
0.8698010448
 40
0.9004739874
 40
0.9274680224
 40
0.9505358783
 40
0.9605303005
 40
0.9694676754
 40
0.9773276507
 40
0.9840934788
 40
0.9897506439
 40
0.9942891929
 40
0.9977034258
 40
0.9989903226
 40
1.0
 40
1.0
 40
1.0
 40
1.0
 10
8.5049958897
 20
3.9045118138
 30
0.0
 10
8.5049958835
 20
3.9045320756
 30
0.0
 10
8.5050170041
 20
3.9045649798
 30
0.0
 10
8.5050585195
 20
3.904596501
 30
0.0
 10
8.5051291268
 20
3.9046366231
 30
0.0
 10
8.5052522946
 20
3.9046831606
 30
0.0
 10
8.5054405773
 20
3.9047363638
 30
0.0
 10
8.5056818392
 20
3.9047897341
 30
0.0
 10
8.5059760325
 20
3.9048435358
 30
0.0
 10
8.5063231655
 20
3.9048975056
 30
0.0
 10
8.5068907904
 20
3.9049742685
 30
0.0
 10
8.5077315801
 20
3.9050677988
 30
0.0
 10
8.5088964865
 20
3.9051752497
 30
0.0
 10
8.5102666786
 20
3.9052830838
 30
0.0
 10
8.5118390138
 20
3.9053912364
 30
0.0
 10
8.5136099161
 20
3.9054995859
 30
0.0
 10
8.5155753008
 20
3.9056080755
 30
0.0
 10
8.5177306597
 20
3.9057166794
 30
0.0
 10
8.5209694021
 20
3.9058670407
 30
0.0
 10
8.5254520179
 20
3.9060525804
 30
0.0
 10
8.5313223299
 20
3.9062685948
 30
0.0
 10
8.5378069995
 20
3.9064849743
 30
0.0
 10
8.5448462828
 20
3.9067016409
 30
0.0
 10
8.5523753229
 20
3.9069185009
 30
0.0
 10
8.5603247437
 20
3.9071355029
 30
0.0
 10
8.5686212969
 20
3.9073526058
 30
0.0
 10
8.5771885324
 20
3.9075697793
 30
0.0
 10
8.5859475034
 20
3.9077869992
 30
0.0
 10
8.5977754385
 20
3.9080766894
 30
0.0
 10
8.6124292318
 20
3.9084338475
 30
0.0
 10
8.6268605561
 20
3.9087960562
 30
0.0
 10
8.6379784778
 20
3.9090901738
 30
0.0
 10
8.6458150325
 20
3.9093071447
 30
0.0
 10
8.6532109477
 20
3.9095239551
 30
0.0
 10
8.6600980762
 20
3.9097405481
 30
0.0
 10
8.666412961
 20
3.9099568429
 30
0.0
 10
8.6720974351
 20
3.9101726652
 30
0.0
 10
8.6770991373
 20
3.9103878962
 30
0.0
 10
8.6808185848
 20
3.9105740894
 30
0.0
 10
8.683418534
 20
3.9107260104
 30
0.0
 10
8.6850763563
 20
3.910834263
 30
0.0
 10
8.6865335253
 20
3.9109422479
 30
0.0
 10
8.6877866658
 20
3.9110498949
 30
0.0
 10
8.6888330956
 20
3.9111568111
 30
0.0
 10
8.6896703431
 20
3.9112630422
 30
0.0
 10
8.6902360985
 20
3.9113561583
 30
0.0
 10
8.6905814157
 20
3.9114349772
 30
0.0
 10
8.6907183183
 20
3.9114749268
 30
0.0
 10
8.6907772895
 20
3.9114959584
 30
0.0
  0
LINE
  5
2FE
100
AcDbEntity
  8
0
100
AcDbLine
 62
7
  6
CONTINUOUS
 10
8.6907772895
 20
3.9114959584
 11
8.6909126672
 21
3.9115556725
  0
SPLINE
  5
2FF
100
AcDbEntity
  8
0
100
AcDbSpline
 62
7
  6
CONTINUOUS
 70
0
 71
3
 72
49
 73
45
 74
0
 42
0.0000001
 43
0.0000001
 44
0.0000000001
 40
0.0
 40
0.0
 40
0.0
 40
0.0
 40
0.0001485303
 40
0.0003574863
 40
0.0009709079
 40
0.0018536679
 40
0.0030091054
 40
0.0044383824
 40
0.0061415151
 40
0.0081180626
 40
0.01036741
 40
0.0156808946
 40
0.0220717953
 40
0.0295278594
 40
0.0380334922
 40
0.0475714149
 40
0.0581212137
 40
0.0696608807
 40
0.0821654805
 40
0.1099608246
 40
0.1412676923
 40
0.1758141393
 40
0.2132983412
 40
0.2533911937
 40
0.2957386774
 40
0.3399651955
 40
0.3856768726
 40
0.4799077245
 40
0.5750443503
 40
0.6676382056
 40
0.7543045557
 40
0.7944055664
 40
0.8318477046
 40
0.8662808763
 40
0.8973815316
 40
0.9248556469
 40
0.948442074
 40
0.9679152796
 40
0.9760492491
 40
0.9830880477
 40
0.9890144182
 40
0.9938148437
 40
0.9974784248
 40
1.0
 40
1.0
 40
1.0
 40
1.0
 10
8.6975511764
 20
3.9068671111
 30
0.0
 10
8.6975443717
 20
3.9068603064
 30
0.0
 10
8.6975245852
 20
3.9068475757
 30
0.0
 10
8.6974667748
 20
3.9068227766
 30
0.0
 10
8.6973594852
 20
3.9067944545
 30
0.0
 10
8.6971908627
 20
3.9067620689
 30
0.0
 10
8.6969684714
 20
3.9067294348
 30
0.0
 10
8.6966926352
 20
3.9066964117
 30
0.0
 10
8.6963632648
 20
3.9066632522
 30
0.0
 10
8.69598056
 20
3.9066299587
 30
0.0
 10
8.69536429
 20
3.9065828089
 30
0.0
 10
8.6944620295
 20
3.9065251726
 30
0.0
 10
8.6932223775
 20
3.9064588019
 30
0.0
 10
8.6917756635
 20
3.9063921809
 30
0.0
 10
8.690124877
 20
3.9063253326
 30
0.0
 10
8.6882735063
 20
3.9062583349
 30
0.0
 10
8.6862254482
 20
3.906191206
 30
0.0
 10
8.6839850873
 20
3.9061239721
 30
0.0
 10
8.6806276601
 20
3.9060308885
 30
0.0
 10
8.6759896352
 20
3.9059158489
 30
0.0
 10
8.6699235695
 20
3.9057816775
 30
0.0
 10
8.6632296277
 20
3.9056471086
 30
0.0
 10
8.6559663396
 20
3.9055121856
 30
0.0
 10
8.6481975426
 20
3.9053769623
 30
0.0
 10
8.6399918499
 20
3.9052414682
 30
0.0
 10
8.6314220675
 20
3.9051057244
 30
0.0
 10
8.6194910657
 20
3.9049225785
 30
0.0
 10
8.6042618471
 20
3.9046963025
 30
0.0
 10
8.5859954181
 20
3.9044266358
 30
0.0
 10
8.5682191584
 20
3.904156495
 30
0.0
 10
8.5540084982
 20
3.9039258502
 30
0.0
 10
8.5433709431
 20
3.9037376481
 30
0.0
 10
8.5361172414
 20
3.9036001005
 30
0.0
 10
8.5294467895
 20
3.9034625563
 30
0.0
 10
8.5234223201
 20
3.9033250746
 30
0.0
 10
8.5181008102
 20
3.9031878484
 30
0.0
 10
8.5135329312
 20
3.9030509665
 30
0.0
 10
8.5102181703
 20
3.9029317456
 30
0.0
 10
8.5079755825
 20
3.9028335038
 30
0.0
 10
8.5066102776
 20
3.9027645174
 30
0.0
 10
8.5054612948
 20
3.902695748
 30
0.0
 10
8.5045313055
 20
3.9026278159
 30
0.0
 10
8.5038228218
 20
3.9025603526
 30
0.0
 10
8.5034250363
 20
3.9025085948
 30
0.0
 10
8.5032644813
 20
3.9024783756
 30
0.0
  0
LINE
  5
300
100
AcDbEntity
  8
0
100
AcDbLine
 62
7
  6
CONTINUOUS
 10
8.5032644813
 20
3.9024783756
 11
8.5029889661
 21
3.9024001469
  0
SPLINE
  5
301
100
AcDbEntity
  8
0
100
AcDbSpline
 62
7
  6
CONTINUOUS
 70
0
 71
3
 72
52
 73
48
 74
0
 42
0.0000001
 43
0.0000001
 44
0.0000000001
 40
0.0
 40
0.0
 40
0.0
 40
0.0
 40
0.0006766742
 40
0.0016186046
 40
0.0028343423
 40
0.0043270901
 40
0.0060980359
 40
0.0081474948
 40
0.0130803484
 40
0.0191179974
 40
0.026249108
 40
0.034458186
 40
0.0437276172
 40
0.0540363891
 40
0.0653615886
 40
0.0909559721
 40
0.1202786019
 40
0.1530625142
 40
0.1890088489
 40
0.2277899477
 40
0.2690520701
 40
0.3124187114
 40
0.357494454
 40
0.4038682394
 40
0.4988100948
 40
0.5937903126
 40
0.6402117928
 40
0.6853545766
 40
0.7288074297
 40
0.77017477
 40
0.8090803482
 40
0.8451702501
 40
0.8781164379
 40
0.9076199679
 40
0.9334134636
 40
0.9448448177
 40
0.9552639779
 40
0.9646479949
 40
0.9729757125
 40
0.9802293688
 40
0.986393204
 40
0.9914556117
 40
0.9954081702
 40
0.9969678469
 40
0.9982506692
 40
0.9992591507
 40
1.0
 40
1.0
 40
1.0
 40
1.0
 10
2.4494574875
 20
4.9916261995
 30
0.0
 10
2.4494797192
 20
4.9915903449
 30
0.0
 10
2.4495203431
 20
4.9914971848
 30
0.0
 10
2.4495728979
 20
4.9913284939
 30
0.0
 10
2.4496259615
 20
4.9911069856
 30
0.0
 10
2.4496794253
 20
4.9908328534
 30
0.0
 10
2.4497331226
 20
4.9905059352
 30
0.0
 10
2.449809731
 20
4.9899655831
 30
0.0
 10
2.449902882
 20
4.9891590893
 30
0.0
 10
2.450009792
 20
4.9880355697
 30
0.0
 10
2.4501170935
 20
4.9867070408
 30
0.0
 10
2.4502247491
 20
4.9851764983
 30
0.0
 10
2.4503325949
 20
4.9834474244
 30
0.0
 10
2.4504406056
 20
4.9815237484
 30
0.0
 10
2.4505909521
 20
4.9785830917
 30
0.0
 10
2.4507759893
 20
4.9744572805
 30
0.0
 10
2.4509907288
 20
4.9689937009
 30
0.0
 10
2.4512059044
 20
4.962884294
 30
0.0
 10
2.4514214211
 20
4.9561848751
 30
0.0
 10
2.4516371566
 20
4.9489566313
 30
0.0
 10
2.4518530494
 20
4.9412655756
 30
0.0
 10
2.4520690487
 20
4.9331819324
 30
0.0
 10
2.4522851235
 20
4.924779492
 30
0.0
 10
2.4525755434
 20
4.9131624076
 30
0.0
 10
2.4529335936
 20
4.8984347127
 30
0.0
 10
2.4532915283
 20
4.8837040407
 30
0.0
 10
2.453581787
 20
4.8720774042
 30
0.0
 10
2.4537977579
 20
4.8636624288
 30
0.0
 10
2.4540136246
 20
4.8555626619
 30
0.0
 10
2.4542293564
 20
4.8478518984
 30
0.0
 10
2.454444904
 20
4.8406003673
 30
0.0
 10
2.454660207
 20
4.8338740993
 30
0.0
 10
2.4548751472
 20
4.8277343194
 30
0.0
 10
2.4550896318
 20
4.8222368951
 30
0.0
 10
2.4552743642
 20
4.8180807309
 30
0.0
 10
2.4554243998
 20
4.8151141112
 30
0.0
 10
2.4555322424
 20
4.8131697492
 30
0.0
 10
2.4556399243
 20
4.8114192033
 30
0.0
 10
2.4557474011
 20
4.8098664104
 30
0.0
 10
2.455854587
 20
4.8085149091
 30
0.0
 10
2.4559612439
 20
4.8073676462
 30
0.0
 10
2.4560673111
 20
4.8064272381
 30
0.0
 10
2.4561601828
 20
4.8057742789
 30
0.0
 10
2.4562376433
 20
4.8053577332
 30
0.0
 10
2.4562907145
 20
4.8051234328
 30
0.0
 10
2.4563433236
 20
4.8049418418
 30
0.0
 10
2.4563836399
 20
4.8048399343
 30
0.0
 10
2.4564054982
 20
4.8047992449
 30
0.0
  0
SPLINE
  5
302
100
AcDbEntity
  8
0
100
AcDbSpline
 62
7
  6
CONTINUOUS
 70
0
 71
3
 72
52
 73
48
 74
0
 42
0.0000001
 43
0.0000001
 44
0.0000000001
 40
0.0
 40
0.0
 40
0.0
 40
0.0
 40
0.0006792694
 40
0.0016237052
 40
0.0028415966
 40
0.0043363235
 40
0.0061093422
 40
0.0081608598
 40
0.0130970309
 40
0.0191380271
 40
0.0262717523
 40
0.0344834031
 40
0.0437547427
 40
0.0540652987
 40
0.0653917543
 40
0.0909879097
 40
0.1203109687
 40
0.1530939911
 40
0.189038424
 40
0.2278165771
 40
0.2690746971
 40
0.3124366918
 40
0.3575072093
 40
0.4038751164
 40
0.4988047898
 40
0.5937727689
 40
0.6401888163
 40
0.6853265614
 40
0.7287750556
 40
0.7701390846
 40
0.8090422429
 40
0.8451307616
 40
0.878076948
 40
0.9075817423
 40
0.9333777911
 40
0.9448108071
 40
0.9552323954
 40
0.9646188046
 40
0.9729496907
 40
0.9802064315
 40
0.9863741887
 40
0.9914404735
 40
0.9953977762
 40
0.9969598169
 40
0.9982450299
 40
0.9992562309
 40
1.0
 40
1.0
 40
1.0
 40
1.0
 10
2.4351779212
 20
4.991182102
 30
0.0
 10
2.4352001337
 20
4.9911462814
 30
0.0
 10
2.4352407408
 20
4.9910532968
 30
0.0
 10
2.4352932939
 20
4.9908850108
 30
0.0
 10
2.4353463634
 20
4.9906641922
 30
0.0
 10
2.4353998272
 20
4.9903910174
 30
0.0
 10
2.4354535165
 20
4.9900653068
 30
0.0
 10
2.4355301034
 20
4.9895271005
 30
0.0
 10
2.4356232566
 20
4.9887239398
 30
0.0
 10
2.4357301428
 20
4.987605219
 30
0.0
 10
2.435837443
 20
4.9862825041
 30
0.0
 10
2.4359450782
 20
4.9847588176
 30
0.0
 10
2.4360529168
 20
4.9830375909
 30
0.0
 10
2.4361609099
 20
4.9811227638
 30
0.0
 10
2.4363112383
 20
4.9781957983
 30
0.0
 10
2.4364962489
 20
4.974089389
 30
0.0
 10
2.4367109628
 20
4.968651694
 30
0.0
 10
2.4369261116
 20
4.9625714605
 30
0.0
 10
2.4371416012
 20
4.9559042214
 30
0.0
 10
2.4373573094
 20
4.9487108578
 30
0.0
 10
2.4375731745
 20
4.9410570471
 30
0.0
 10
2.4377891461
 20
4.9330126521
 30
0.0
 10
2.438005193
 20
4.9246510882
 30
0.0
 10
2.438295575
 20
4.9130906105
 30
0.0
 10
2.4386535792
 20
4.8984347257
 30
0.0
 10
2.4390114677
 20
4.8837758501
 30
0.0
 10
2.4393016875
 20
4.87220583
 30
0.0
 10
2.4395176301
 20
4.8638317334
 30
0.0
 10
2.4397334684
 20
4.8557712187
 30
0.0
 10
2.439949172
 20
4.8480977002
 30
0.0
 10
2.4401646913
 20
4.840881052
 30
0.0
 10
2.4403799663
 20
4.8341869709
 30
0.0
 10
2.4405948783
 20
4.8280763691
 30
0.0
 10
2.4408093368
 20
4.822604834
 30
0.0
 10
2.4409940392
 20
4.8184680897
 30
0.0
 10
2.441144058
 20
4.8155151702
 30
0.0
 10
2.4412518798
 20
4.8135796594
 30
0.0
 10
2.4413595567
 20
4.8118369551
 30
0.0
 10
2.4414670099
 20
4.8102910266
 30
0.0
 10
2.4415741953
 20
4.8089453457
 30
0.0
 10
2.4416808265
 20
4.807802893
 30
0.0
 10
2.4417868998
 20
4.8068662215
 30
0.0
 10
2.4418797496
 20
4.8062157312
 30
0.0
 10
2.4419571928
 20
4.805800627
 30
0.0
 10
2.4420102707
 20
4.8055670219
 30
0.0
 10
2.4420628812
 20
4.8053858453
 30
0.0
 10
2.4421031802
 20
4.8052841162
 30
0.0
 10
2.4421250174
 20
4.8052434587
 30
0.0
  0
SPLINE
  5
303
100
AcDbEntity
  8
0
100
AcDbSpline
 62
7
  6
CONTINUOUS
 70
0
 71
3
 72
30
 73
26
 74
0
 42
0.0000001
 43
0.0000001
 44
0.0000000001
 40
0.0
 40
0.0
 40
0.0
 40
0.0
 40
0.0012825885
 40
0.0031534615
 40
0.0056298213
 40
0.0087171296
 40
0.012416989
 40
0.0167289495
 40
0.0271786918
 40
0.0400402
 40
0.0552751479
 40
0.0728374596
 40
0.0926716689
 40
0.1147155304
 40
0.1388990263
 40
0.1933707225
 40
0.2553936173
 40
0.3241768029
 40
0.3988432696
 40
0.4784406527
 40
0.5619532882
 40
0.6483163983
 40
0.7364282816
 40
0.8251661755
 40
1.0
 40
1.0
 40
1.0
 40
1.0
 10
2.5065757929
 20
4.9934026506
 30
0.0
 10
2.5066031182
 20
4.9933585835
 30
0.0
 10
2.5066513061
 20
4.9932392854
 30
0.0
 10
2.5067130439
 20
4.9930204184
 30
0.0
 10
2.5067754883
 20
4.9927261086
 30
0.0
 10
2.5068385922
 20
4.9923569701
 30
0.0
 10
2.5069020045
 20
4.9919127014
 30
0.0
 10
2.5069927483
 20
4.9911718636
 30
0.0
 10
2.5071028835
 20
4.9900604474
 30
0.0
 10
2.5072291751
 20
4.9885072218
 30
0.0
 10
2.5073559889
 20
4.9866656851
 30
0.0
 10
2.5074832322
 20
4.9845417293
 30
0.0
 10
2.5076107292
 20
4.9821420883
 30
0.0
 10
2.5077384196
 20
4.9794744458
 30
0.0
 10
2.5079159626
 20
4.9754073242
 30
0.0
 10
2.5081343565
 20
4.9697242561
 30
0.0
 10
2.5083880658
 20
4.9622382687
 30
0.0
 10
2.5086422933
 20
4.953935459
 30
0.0
 10
2.5088969159
 20
4.9449218712
 30
0.0
 10
2.5091517815
 20
4.9353125982
 30
0.0
 10
2.5094068092
 20
4.9252303095
 30
0.0
 10
2.5096619346
 20
4.9148036999
 30
0.0
 10
2.5099170996
 20
4.9041657869
 30
0.0
 10
2.5102556624
 20
4.889952219
 30
0.0
 10
2.510511369
 20
4.8792998063
 30
0.0
 10
2.5106865433
 20
4.8722339271
 30
0.0
  0
SPLINE
  5
304
100
AcDbEntity
  8
0
100
AcDbSpline
 62
7
  6
CONTINUOUS
 70
0
 71
3
 72
26
 73
22
 74
0
 42
0.0000001
 43
0.0000001
 44
0.0000000001
 40
0.0
 40
0.0
 40
0.0
 40
0.0
 40
0.2014181638
 40
0.3887779376
 40
0.4757461523
 40
0.5575236335
 40
0.6336124178
 40
0.7035496871
 40
0.7669107595
 40
0.8233112332
 40
0.87240978
 40
0.9139116892
 40
0.9317355565
 40
0.9475716511
 40
0.9613986007
 40
0.973197854
 40
0.9829556072
 40
0.9906660878
 40
0.9963334623
 40
0.9984115113
 40
1.0
 40
1.0
 40
1.0
 40
1.0
 10
2.5106865433
 20
4.8722339271
 30
0.0
 10
2.5108018668
 20
4.8675822047
 30
0.0
 10
2.5110291627
 20
4.8586035515
 30
0.0
 10
2.5113274223
 20
4.8476169248
 30
0.0
 10
2.5115691472
 20
4.8393937436
 30
0.0
 10
2.5117458036
 20
4.8337403458
 30
0.0
 10
2.5119223022
 20
4.8284805954
 30
0.0
 10
2.5120985976
 20
4.82364655
 30
0.0
 10
2.5122746218
 20
4.8192676624
 30
0.0
 10
2.5124502229
 20
4.8153705975
 30
0.0
 10
2.5126253036
 20
4.8119790801
 30
0.0
 10
2.5127770439
 20
4.809478804
 30
0.0
 10
2.5129009586
 20
4.8077468271
 30
0.0
 10
2.5129889725
 20
4.8066533078
 30
0.0
 10
2.5130767274
 20
4.8056994408
 30
0.0
 10
2.5131641886
 20
4.8048866749
 30
0.0
 10
2.5132509487
 20
4.8042159891
 30
0.0
 10
2.5133371148
 20
4.8036885195
 30
0.0
 10
2.5134126851
 20
4.8033389579
 30
0.0
 10
2.5134772416
 20
4.8031331292
 30
0.0
 10
2.5135100129
 20
4.8030546799
 30
0.0
 10
2.5135273763
 20
4.8030223504
 30
0.0
  0
SPLINE
  5
305
100
AcDbEntity
  8
0
100
AcDbSpline
 62
7
  6
CONTINUOUS
 70
0
 71
3
 72
52
 73
48
 74
0
 42
0.0000001
 43
0.0000001
 44
0.0000000001
 40
0.0
 40
0.0
 40
0.0
 40
0.0
 40
0.0006692725
 40
0.0016043243
 40
0.0028134653
 40
0.0042998741
 40
0.0060648428
 40
0.0081087696
 40
0.0130311889
 40
0.0190596077
 40
0.0261825185
 40
0.0343844926
 40
0.0436478641
 40
0.0539515723
 40
0.0652727843
 40
0.0908621432
 40
0.1201835855
 40
0.152969886
 40
0.1889219819
 40
0.2277118905
 40
0.2689854484
 40
0.3123658131
 40
0.3574571442
 40
0.4038478473
 40
0.498825731
 40
0.5938414468
 40
0.6402792547
 40
0.6854367415
 40
0.7289021761
 40
0.7702796041
 40
0.8091923642
 40
0.8452861214
 40
0.8782325802
 40
0.9077325488
 40
0.9335183689
 40
0.9449441258
 40
0.9553569721
 40
0.9647332345
 40
0.9730524655
 40
0.9802961299
 40
0.9864492215
 40
0.9914993573
 40
0.9954387994
 40
0.9969913366
 40
0.9982665458
 40
0.9992672267
 40
1.0
 40
1.0
 40
1.0
 40
1.0
 10
2.4922962106
 20
4.9929585479
 30
0.0
 10
2.4923185145
 20
4.9929225819
 30
0.0
 10
2.4923591717
 20
4.9928288331
 30
0.0
 10
2.4924117101
 20
4.992658894
 30
0.0
 10
2.4924647773
 20
4.9924353393
 30
0.0
 10
2.4925182539
 20
4.9921583792
 30
0.0
 10
2.4925719665
 20
4.9918278281
 30
0.0
 10
2.4926486098
 20
4.9912810362
 30
0.0
 10
2.4927418017
 20
4.9904645189
 30
0.0
 10
2.49284874
 20
4.9893266332
 30
0.0
 10
2.492956078
 20
4.9879806277
 30
0.0
 10
2.4930637698
 20
4.986429545
 30
0.0
 10
2.4931716537
 20
4.9846769169
 30
0.0
 10
2.4932797038
 20
4.9827267274
 30
0.0
 10
2.4934301128
 20
4.9797449908
 30
0.0
 10
2.4936152227
 20
4.9755609733
 30
0.0
 10
2.4938300391
 20
4.9700197354
 30
0.0
 10
2.4940452935
 20
4.963822805
 30
0.0
 10
2.4942608899
 20
4.9570268391
 30
0.0
 10
2.4944767061
 20
4.9496939539
 30
0.0
 10
2.4946926801
 20
4.9418911693
 30
0.0
 10
2.494908761
 20
4.9336897833
 30
0.0
 10
2.4951249178
 20
4.9251647177
 30
0.0
 10
2.4954154499
 20
4.9133778073
 30
0.0
 10
2.4957736348
 20
4.8984347219
 30
0.0
 10
2.4961317059
 20
4.8834886544
 30
0.0
 10
2.4964220788
 20
4.8716921831
 30
0.0
 10
2.4966381331
 20
4.8631545698
 30
0.0
 10
2.4968540832
 20
4.8549370443
 30
0.0
 10
2.4970698984
 20
4.8471145323
 30
0.0
 10
2.497285529
 20
4.8397583376
 30
0.0
 10
2.4975009149
 20
4.8329354984
 30
0.0
 10
2.4977159365
 20
4.8267081682
 30
0.0
 10
2.4979305029
 20
4.8211330569
 30
0.0
 10
2.4981153078
 20
4.8169186753
 30
0.0
 10
2.4982654162
 20
4.8139109568
 30
0.0
 10
2.4983732938
 20
4.8119400761
 30
0.0
 10
2.4984810237
 20
4.8101659464
 30
0.0
 10
2.4985885308
 20
4.8085926065
 30
0.0
 10
2.4986957647
 20
4.8072236019
 30
0.0
 10
2.4988024422
 20
4.806061964
 30
0.0
 10
2.4989085503
 20
4.8051103034
 30
0.0
 10
2.4990014439
 20
4.8044499445
 30
0.0
 10
2.499078955
 20
4.8040290676
 30
0.0
 10
2.4991320377
 20
4.8037927246
 30
0.0
 10
2.4991846427
 20
4.8036098827
 30
0.0
 10
2.4992249895
 20
4.8035073826
 30
0.0
 10
2.4992469133
 20
4.8034665617
 30
0.0
  0
SPLINE
  5
306
100
AcDbEntity
  8
0
100
AcDbSpline
 62
7
  6
CONTINUOUS
 70
0
 71
3
 72
52
 73
48
 74
0
 42
0.0000001
 43
0.0000001
 44
0.0000000001
 40
0.0
 40
0.0
 40
0.0
 40
0.0
 40
0.0006717842
 40
0.0016091772
 40
0.0028204268
 40
0.00430884
 40
0.006075832
 40
0.0081216733
 40
0.0130473996
 40
0.0190790116
 40
0.0262045158
 40
0.0344089427
 40
0.043674183
 40
0.0539796318
 40
0.0653020753
 40
0.090893154
 40
0.1202149704
 40
0.1530004291
 40
0.1889506914
 40
0.2277376963
 40
0.2690073852
 40
0.3123832693
 40
0.3574694928
 40
0.4038544913
 40
0.4988205679
 40
0.5938244165
 40
0.640256938
 40
0.6854094849
 40
0.7288707054
 40
0.7702449169
 40
0.8091552675
 40
0.845247685
 40
0.8781941564
 40
0.9076953077
 40
0.9334836128
 40
0.9449111881
 40
0.9553262203
 40
0.9647049891
 40
0.9730271043
 40
0.9802739529
 40
0.9864306859
 40
0.9914847646
 40
0.9954286752
 40
0.9969834872
 40
0.9982611791
 40
0.9992645061
 40
1.0
 40
1.0
 40
1.0
 40
1.0
 10
2.4780166322
 20
4.9925144496
 30
0.0
 10
2.478038915
 20
4.9924785176
 30
0.0
 10
2.4780795558
 20
4.9923849524
 30
0.0
 10
2.4781320986
 20
4.9922154254
 30
0.0
 10
2.4781851683
 20
4.991992559
 30
0.0
 10
2.4782386428
 20
4.9917165488
 30
0.0
 10
2.4782923478
 20
4.9913872049
 30
0.0
 10
2.4783689754
 20
4.990842559
 30
0.0
 10
2.4784621629
 20
4.9900293776
 30
0.0
 10
2.4785690831
 20
4.9888962862
 30
0.0
 10
2.4786764163
 20
4.9875560978
 30
0.0
 10
2.4787840905
 20
4.9860118698
 30
0.0
 10
2.4788919661
 20
4.9842670903
 30
0.0
 10
2.4789999995
 20
4.9823257474
 30
0.0
 10
2.479150391
 20
4.979357701
 30
0.0
 10
2.479335475
 20
4.9751930874
 30
0.0
 10
2.4795502667
 20
4.9696777353
 30
0.0
 10
2.4797654948
 20
4.9635099786
 30
0.0
 10
2.479981065
 20
4.9567461926
 30
0.0
 10
2.4801968546
 20
4.9494481879
 30
0.0
 10
2.4804128017
 20
4.9416826473
 30
0.0
 10
2.4806288557
 20
4.9335205079
 30
0.0
 10
2.4808449854
 20
4.9250363178
 30
0.0
 10
2.4811354805
 20
4.9133060135
 30
0.0
 10
2.4814936209
 20
4.8984347337
 30
0.0
 10
2.4818516471
 20
4.8835604593
 30
0.0
 10
2.4821419821
 20
4.8718206057
 30
0.0
 10
2.4823580089
 20
4.8633238729
 30
0.0
 10
2.4825739315
 20
4.8551456009
 30
0.0
 10
2.4827897192
 20
4.8473603361
 30
0.0
 10
2.4830053223
 20
4.8400390275
 30
0.0
 10
2.4832206808
 20
4.8332483778
 30
0.0
 10
2.4834356754
 20
4.8270502274
 30
0.0
 10
2.4836502153
 20
4.8215010071
 30
0.0
 10
2.4838349948
 20
4.817306035
 30
0.0
 10
2.4839850811
 20
4.8143120143
 30
0.0
 10
2.484092945
 20
4.8123499715
 30
0.0
 10
2.4842006625
 20
4.8105836949
 30
0.0
 10
2.4843081552
 20
4.8090172088
 30
0.0
 10
2.4844153787
 20
4.807654035
 30
0.0
 10
2.4845220417
 20
4.8064971958
 30
0.0
 10
2.4846281462
 20
4.8055492793
 30
0.0
 10
2.4847210221
 20
4.8048913885
 30
0.0
 10
2.4847985224
 20
4.8044719548
 30
0.0
 10
2.4848516035
 20
4.8042362958
 30
0.0
 10
2.4849042083
 20
4.8040538646
 30
0.0
 10
2.4849445423
 20
4.8039515522
 30
0.0
 10
2.484966446
 20
4.8039107722
 30
0.0
  0
SPLINE
  5
307
100
AcDbEntity
  8
0
100
AcDbSpline
 62
7
  6
CONTINUOUS
 70
0
 71
3
 72
9
 73
5
 74
0
 42
0.0000001
 43
0.0000001
 44
0.0000000001
 40
0.0
 40
0.0
 40
0.0
 40
0.0
 40
0.2234477663
 40
1.0
 40
1.0
 40
1.0
 40
1.0
 10
8.5050790773
 20
3.9178879552
 30
0.0
 10
8.5050852193
 20
3.9178915043
 30
0.0
 10
8.5051130897
 20
3.9179067256
 30
0.0
 10
8.5051421693
 20
3.917919639
 30
0.0
 10
8.5051650165
 20
3.9179289001
 30
0.0
  0
SPLINE
  5
308
100
AcDbEntity
  8
0
100
AcDbSpline
 62
7
  6
CONTINUOUS
 70
0
 71
3
 72
53
 73
49
 74
0
 42
0.0000001
 43
0.0000001
 44
0.0000000001
 40
0.0
 40
0.0
 40
0.0
 40
0.0
 40
0.00091813
 40
0.0021131157
 40
0.0053464285
 40
0.0097097818
 40
0.0151988491
 40
0.0218040693
 40
0.0295115557
 40
0.0383047625
 40
0.0481636909
 40
0.0709872708
 40
0.0977735496
 40
0.1282760461
 40
0.1622131232
 40
0.1992711114
 40
0.2391074333
 40
0.2813533655
 40
0.3256178486
 40
0.4185490229
 40
0.5144672052
 40
0.5624397294
 40
0.6098283722
 40
0.6561945908
 40
0.7011090698
 40
0.7441558707
 40
0.7849367314
 40
0.8230742691
 40
0.8582155502
 40
0.8900358161
 40
0.9182412271
 40
0.9309057954
 40
0.9425717562
 40
0.953212766
 40
0.9628041737
 40
0.9713246975
 40
0.9787548935
 40
0.9850791587
 40
0.9902842579
 40
0.9924645046
 40
0.9943622731
 40
0.9959773991
 40
0.9973108504
 40
0.9983651523
 40
0.9991462661
 40
0.9994391613
 40
0.9996722938
 40
1.0
 40
1.0
 40
1.0
 40
1.0
 10
8.5051650165
 20
3.9179289001
 30
0.0
 10
8.5052177942
 20
3.9179502933
 30
0.0
 10
8.5053428187
 20
3.917990565
 30
0.0
 10
8.5056648758
 20
3.918069964
 30
0.0
 10
8.506202714
 20
3.9181631124
 30
0.0
 10
8.5070073799
 20
3.918269445
 30
0.0
 10
8.5080226981
 20
3.9183764716
 30
0.0
 10
8.5092462158
 20
3.9184843351
 30
0.0
 10
8.5106753457
 20
3.918592549
 30
0.0
 10
8.5123067611
 20
3.9187010577
 30
0.0
 10
8.5148748664
 20
3.9188535133
 30
0.0
 10
8.5185588603
 20
3.919040242
 30
0.0
 10
8.523523318
 20
3.9192559782
 30
0.0
 10
8.5291776553
 20
3.9194723285
 30
0.0
 10
8.5354695071
 20
3.91968917
 30
0.0
 10
8.5423406088
 20
3.9199063196
 30
0.0
 10
8.5497273126
 20
3.9201236938
 30
0.0
 10
8.5575611891
 20
3.9203412332
 30
0.0
 10
8.568687483
 20
3.9206362214
 30
0.0
 10
8.5831422485
 20
3.9209994541
 30
0.0
 10
8.5978272065
 20
3.921357461
 30
0.0
 10
8.6096881128
 20
3.9216478645
 30
0.0
 10
8.6184763218
 20
3.9218656639
 30
0.0
 10
8.6270747919
 20
3.9220834173
 30
0.0
 10
8.6354038643
 20
3.9223011003
 30
0.0
 10
8.6433863747
 20
3.9225186824
 30
0.0
 10
8.6509483735
 20
3.9227361224
 30
0.0
 10
8.6580198086
 20
3.9229533687
 30
0.0
 10
8.6645351754
 20
3.9231703273
 30
0.0
 10
8.6704341226
 20
3.9233869197
 30
0.0
 10
8.6749390586
 20
3.9235729526
 30
0.0
 10
8.6781942163
 20
3.9237237126
 30
0.0
 10
8.6803606634
 20
3.923832609
 30
0.0
 10
8.6823362367
 20
3.9239413882
 30
0.0
 10
8.6841163933
 20
3.9240500308
 30
0.0
 10
8.6856969938
 20
3.9241584704
 30
0.0
 10
8.6870744379
 20
3.9242665987
 30
0.0
 10
8.68824553
 20
3.924374332
 30
0.0
 10
8.6890908079
 20
3.9244681198
 30
0.0
 10
8.6896614702
 20
3.9245450848
 30
0.0
 10
8.6900104607
 20
3.9245991968
 30
0.0
 10
8.6903062229
 20
3.9246531482
 30
0.0
 10
8.6905487759
 20
3.9247066603
 30
0.0
 10
8.6907380754
 20
3.9247600033
 30
0.0
 10
8.6908619105
 20
3.9248066568
 30
0.0
 10
8.6909328989
 20
3.9248468935
 30
0.0
 10
8.6909746075
 20
3.9248784875
 30
0.0
 10
8.6909958582
 20
3.9249114872
 30
0.0
 10
8.6909958563
 20
3.9249318138
 30
0.0
  0
SPLINE
  5
309
100
AcDbEntity
  8
0
100
AcDbSpline
 62
7
  6
CONTINUOUS
 70
0
 71
3
 72
50
 73
46
 74
0
 42
0.0000001
 43
0.0000001
 44
0.0000000001
 40
0.0
 40
0.0
 40
0.0
 40
0.0
 40
0.000297178
 40
0.0005191357
 40
0.0008017963
 40
0.0015622185
 40
0.0025930162
 40
0.0038989297
 40
0.0054815854
 40
0.0073413923
 40
0.0094782227
 40
0.0145802147
 40
0.0207784819
 40
0.0280609216
 40
0.0364115982
 40
0.0458126558
 40
0.0562428656
 40
0.0676793413
 40
0.0800961012
 40
0.1077575051
 40
0.1389782241
 40
0.1734766473
 40
0.2109414372
 40
0.2510342255
 40
0.2933925254
 40
0.337633455
 40
0.3833569359
 40
0.4301491607
 40
0.47758681
 40
0.5726789127
 40
0.6651972924
 40
0.7517978522
 40
0.7918891667
 40
0.8293499322
 40
0.8638409177
 40
0.8950497614
 40
0.9226938871
 40
0.9465234979
 40
0.9663238934
 40
0.9746562242
 40
0.9819182457
 40
0.9880939596
 40
0.9931712244
 40
0.9971408044
 40
1.0
 40
1.0
 40
1.0
 40
1.0
 10
2.5364958791
 20
4.7928556588
 30
0.0
 10
2.5364750439
 20
4.7928563063
 30
0.0
 10
2.5364423295
 20
4.7928820901
 30
0.0
 10
2.5364119054
 20
4.7929281813
 30
0.0
 10
2.536372046
 20
4.7930082124
 30
0.0
 10
2.5363261325
 20
4.793146401
 30
0.0
 10
2.5362734349
 20
4.7933573264
 30
0.0
 10
2.5362206236
 20
4.7936271932
 30
0.0
 10
2.5361673349
 20
4.7939560152
 30
0.0
 10
2.5361138869
 20
4.794343729
 30
0.0
 10
2.5360378597
 20
4.7949774233
 30
0.0
 10
2.5359452282
 20
4.7959154801
 30
0.0
 10
2.5358387866
 20
4.7972146228
 30
0.0
 10
2.5357319775
 20
4.7987422642
 30
0.0
 10
2.5356248361
 20
4.8004950057
 30
0.0
 10
2.5355175084
 20
4.8024688969
 30
0.0
 10
2.5354100268
 20
4.804659515
 30
0.0
 10
2.5353024393
 20
4.8070618919
 30
0.0
 10
2.5351534591
 20
4.8106722693
 30
0.0
 10
2.534969619
 20
4.8156701033
 30
0.0
 10
2.5347555777
 20
4.8222167038
 30
0.0
 10
2.5345411626
 20
4.8294512722
 30
0.0
 10
2.5343264488
 20
4.8373084028
 30
0.0
 10
2.5341115297
 20
4.8457170422
 30
0.0
 10
2.5338964555
 20
4.8546011291
 30
0.0
 10
2.5336812671
 20
4.8638802827
 30
0.0
 10
2.5334659938
 20
4.8734705281
 30
0.0
 10
2.5332506603
 20
4.8832850578
 30
0.0
 10
2.5329632742
 20
4.896561753
 30
0.0
 10
2.5326088637
 20
4.9130451653
 30
0.0
 10
2.5321841845
 20
4.9322747435
 30
0.0
 10
2.5318225527
 20
4.9476467925
 30
0.0
 10
2.5315281678
 20
4.9591573598
 30
0.0
 10
2.5313132596
 20
4.9670135775
 30
0.0
 10
2.5310986301
 20
4.9742465017
 30
0.0
 10
2.530884366
 20
4.9807905275
 30
0.0
 10
2.5306707354
 20
4.9865863065
 30
0.0
 10
2.5304578742
 20
4.9915812536
 30
0.0
 10
2.5302728771
 20
4.9952214893
 30
0.0
 10
2.5301209217
 20
4.9976995848
 30
0.0
 10
2.5300139267
 20
4.9992229072
 30
0.0
 10
2.5299073269
 20
5.0005172578
 30
0.0
 10
2.5298016958
 20
5.0015799362
 30
0.0
 10
2.5296969489
 20
5.0024084513
 30
0.0
 10
2.5296168882
 20
5.0028812522
 30
0.0
 10
2.5295721317
 20
5.00307675
 30
0.0
  0
LINE
  5
30A
100
AcDbEntity
  8
0
100
AcDbLine
 62
7
  6
CONTINUOUS
 10
2.5295721317
 20
5.00307675
 11
2.5294365952
 21
5.0034821847
  0
LINE
  5
30B
100
AcDbEntity
  8
0
100
AcDbLine
 62
7
  6
CONTINUOUS
 10
8.4950710354
 20
3.9121051351
 11
8.4955846053
 21
3.9122614243
  0
SPLINE
  5
30C
100
AcDbEntity
  8
0
100
AcDbSpline
 62
7
  6
CONTINUOUS
 70
0
 71
3
 72
51
 73
47
 74
0
 42
0.0000001
 43
0.0000001
 44
0.0000000001
 40
0.0
 40
0.0
 40
0.0
 40
0.0
 40
0.0031388011
 40
0.0073784301
 40
0.0127146642
 40
0.019137507
 40
0.0266342872
 40
0.0351885909
 40
0.0553933115
 40
0.0795730403
 40
0.1075122108
 40
0.1389607225
 40
0.173636638
 40
0.2112290353
 40
0.251400429
 40
0.338017548
 40
0.4303838311
 40
0.5251885189
 40
0.5724431875
 40
0.6190329291
 40
0.6645392235
 40
0.7085532448
 40
0.7506799072
 40
0.7905408996
 40
0.8277782532
 40
0.8620579141
 40
0.8930723699
 40
0.9205435766
 40
0.9328722903
 40
0.9442258973
 40
0.9545787396
 40
0.9639082338
 40
0.9721934432
 40
0.9794167694
 40
0.9855625337
 40
0.9906188744
 40
0.9927355405
 40
0.9945770122
 40
0.9961432237
 40
0.9974346804
 40
0.9984531765
 40
0.9988615851
 40
0.9992042058
 40
0.9994831821
 40
0.9997025694
 40
1.0
 40
1.0
 40
1.0
 40
1.0
 10
8.4955846053
 20
3.9122614243
 30
0.0
 10
8.4957952921
 20
3.9123049653
 30
0.0
 10
8.4962951293
 20
3.9123844414
 30
0.0
 10
8.4971603256
 20
3.9124890473
 30
0.0
 10
8.4982519326
 20
3.9125944766
 30
0.0
 10
8.4995675028
 20
3.912700696
 30
0.0
 10
8.5011042416
 20
3.9128072828
 30
0.0
 10
8.5035847049
 20
3.9129582749
 30
0.0
 10
8.5072086233
 20
3.9131423818
 30
0.0
 10
8.5121612978
 20
3.9133544098
 30
0.0
 10
8.5178852233
 20
3.9135671752
 30
0.0
 10
8.524328984
 20
3.9137805451
 30
0.0
 10
8.5314347082
 20
3.9139942746
 30
0.0
 10
8.5391385521
 20
3.9142082814
 30
0.0
 10
8.5504016968
 20
3.9145012557
 30
0.0
 10
8.5654186402
 20
3.9148612982
 30
0.0
 10
8.5841797787
 20
3.9152843405
 30
0.0
 10
8.6002438335
 20
3.9156375066
 30
0.0
 10
8.6131709955
 20
3.9159238752
 30
0.0
 10
8.6227199231
 20
3.9161383994
 30
0.0
 10
8.6320466753
 20
3.9163528763
 30
0.0
 10
8.641067439
 20
3.9165672816
 30
0.0
 10
8.6497011532
 20
3.9167815859
 30
0.0
 10
8.6578702369
 20
3.9169957486
 30
0.0
 10
8.6655012829
 20
3.9172097196
 30
0.0
 10
8.6725257259
 20
3.9174234054
 30
0.0
 10
8.6788804527
 20
3.9176367312
 30
0.0
 10
8.6837307556
 20
3.9178199778
 30
0.0
 10
8.6872337657
 20
3.9179684876
 30
0.0
 10
8.6895641342
 20
3.9180757305
 30
0.0
 10
8.6916886995
 20
3.9181828706
 30
0.0
 10
8.6936026675
 20
3.9182898603
 30
0.0
 10
8.695301771
 20
3.9183966665
 30
0.0
 10
8.6967822002
 20
3.9185031443
 30
0.0
 10
8.6980406774
 20
3.9186092544
 30
0.0
 10
8.6989489748
 20
3.9187016154
 30
0.0
 10
8.6995622019
 20
3.918777417
 30
0.0
 10
8.6999371036
 20
3.9188307258
 30
0.0
 10
8.7002548405
 20
3.9188837882
 30
0.0
 10
8.7005152698
 20
3.9189366228
 30
0.0
 10
8.7006959236
 20
3.9189828625
 30
0.0
 10
8.7008110631
 20
3.9190213163
 30
0.0
 10
8.7008764781
 20
3.9190477376
 30
0.0
 10
8.7009279881
 20
3.9190746092
 30
0.0
 10
8.7009721418
 20
3.9191050754
 30
0.0
 10
8.7009958791
 20
3.9191379247
 30
0.0
 10
8.7009958791
 20
3.9191583111
 30
0.0
  0
SPLINE
  5
30D
100
AcDbEntity
  8
0
100
AcDbSpline
 62
7
  6
CONTINUOUS
 70
0
 71
3
 72
51
 73
47
 74
0
 42
0.0000001
 43
0.0000001
 44
0.0000000001
 40
0.0
 40
0.0
 40
0.0
 40
0.0
 40
0.0002903045
 40
0.0005063226
 40
0.0007825227
 40
0.0011230185
 40
0.0015299577
 40
0.0025474477
 40
0.0038404057
 40
0.0054105567
 40
0.0072583535
 40
0.0093836894
 40
0.0144642564
 40
0.02064318
 40
0.0279083122
 40
0.0362436515
 40
0.0456312597
 40
0.0560498169
 40
0.0674763353
 40
0.0798847112
 40
0.1075335882
 40
0.1387466861
 40
0.1732414227
 40
0.2107054202
 40
0.2507994582
 40
0.2931602192
 40
0.3374040115
 40
0.3831302146
 40
0.4299245627
 40
0.477363373
 40
0.5724547182
 40
0.664969293
 40
0.7515666845
 40
0.7916584153
 40
0.8291221038
 40
0.8636194722
 40
0.8948391724
 40
0.9224996394
 40
0.946352059
 40
0.9661826255
 40
0.974533054
 40
0.9818152972
 40
0.9880134253
 40
0.9931153394
 40
0.9971118022
 40
1.0
 40
1.0
 40
1.0
 40
1.0
 10
2.5258758791
 20
5.0034379325
 30
0.0
 10
2.5258962105
 20
5.0034385643
 30
0.0
 10
2.5259296316
 20
5.0034149234
 30
0.0
 10
2.5259600296
 20
5.0033704526
 30
0.0
 10
2.5259870574
 20
5.0033182022
 30
0.0
 10
2.5260135766
 20
5.0032516191
 30
0.0
 10
2.5260522509
 20
5.0031340423
 30
0.0
 10
2.5260987039
 20
5.0029492314
 30
0.0
 10
2.5261517817
 20
5.0026824983
 30
0.0
 10
2.5262050889
 20
5.0023566948
 30
0.0
 10
2.5262586494
 20
5.0019719718
 30
0.0
 10
2.526334829
 20
5.0013421576
 30
0.0
 10
2.5264276315
 20
5.0004088175
 30
0.0
 10
2.5265342369
 20
4.99911518
 30
0.0
 10
2.5266412111
 20
4.997592856
 30
0.0
 10
2.5267485144
 20
4.9958452561
 30
0.0
 10
2.5268559997
 20
4.9938763449
 30
0.0
 10
2.5269636336
 20
4.9916905605
 30
0.0
 10
2.5270713677
 20
4.9892928883
 30
0.0
 10
2.5272205537
 20
4.9856885819
 30
0.0
 10
2.5274046201
 20
4.9806981505
 30
0.0
 10
2.5276188883
 20
4.9741602918
 30
0.0
 10
2.5278335056
 20
4.9669343818
 30
0.0
 10
2.5280483961
 20
4.9590859571
 30
0.0
 10
2.5282634659
 20
4.9506861857
 30
0.0
 10
2.5284786641
 20
4.941811222
 30
0.0
 10
2.52869395
 20
4.9325415132
 30
0.0
 10
2.5289092938
 20
4.9229610707
 30
0.0
 10
2.5291246708
 20
4.9131567042
 30
0.0
 10
2.5294120759
 20
4.8998941487
 30
0.0
 10
2.5297664449
 20
4.883428748
 30
0.0
 10
2.5301909776
 20
4.8642204442
 30
0.0
 10
2.5305523955
 20
4.848865427
 30
0.0
 10
2.530846541
 20
4.8373672558
 30
0.0
 10
2.5310612519
 20
4.8295188251
 30
0.0
 10
2.5312756587
 20
4.8222922835
 30
0.0
 10
2.5314896756
 20
4.8157529561
 30
0.0
 10
2.5317030378
 20
4.8099599164
 30
0.0
 10
2.5319156098
 20
4.8049654888
 30
0.0
 10
2.5321003182
 20
4.8013241864
 30
0.0
 10
2.5322519944
 20
4.7988439468
 30
0.0
 10
2.532358816
 20
4.7973179971
 30
0.0
 10
2.5324652399
 20
4.7960203052
 30
0.0
 10
2.5325707132
 20
4.7949535665
 30
0.0
 10
2.5326753016
 20
4.7941202449
 30
0.0
 10
2.5327551868
 20
4.7936439895
 30
0.0
 10
2.5327997282
 20
4.7934465806
 30
0.0
  0
LINE
  5
30E
100
AcDbEntity
  8
0
100
AcDbLine
 62
7
  6
CONTINUOUS
 10
2.5327997282
 20
4.7934465806
 11
2.5329260809
 21
4.7930488613
  0
SPLINE
  5
30F
100
AcDbEntity
  8
0
100
AcDbSpline
 62
7
  6
CONTINUOUS
 70
0
 71
3
 72
37
 73
33
 74
0
 42
0.0000001
 43
0.0000001
 44
0.0000000001
 40
0.0
 40
0.0
 40
0.0
 40
0.0
 40
0.0005824058
 40
0.0010531359
 40
0.0016691679
 40
0.0024377093
 40
0.0033623506
 40
0.0044450739
 40
0.0056869435
 40
0.0086498626
 40
0.0122529018
 40
0.0164956421
 40
0.0213758481
 40
0.0330345204
 40
0.0471949799
 40
0.0638121235
 40
0.0828317167
 40
0.104191556
 40
0.1278206262
 40
0.1536407077
 40
0.1815661082
 40
0.2115035474
 40
0.2433536642
 40
0.3123612271
 40
0.3876700066
 40
0.4682769985
 40
0.5531088428
 40
0.6410358421
 40
0.730887654
 40
0.8214683662
 40
0.9115708147
 40
1.0
 40
1.0
 40
1.0
 40
1.0
 10
2.5115958791
 20
5.002994155
 30
0.0
 10
2.511621786
 20
5.0029949601
 30
0.0
 10
2.5116629896
 20
5.0029570414
 30
0.0
 10
2.5116980977
 20
5.0028941896
 30
0.0
 10
2.5117309582
 20
5.0028173964
 30
0.0
 10
2.5117629429
 20
5.0027199677
 30
0.0
 10
2.511795452
 20
5.002600637
 30
0.0
 10
2.5118279273
 20
5.0024597333
 30
0.0
 10
2.5118741358
 20
5.0022289606
 30
0.0
 10
2.5119304552
 20
5.0018859932
 30
0.0
 10
2.5119951439
 20
5.0014092969
 30
0.0
 10
2.5120600554
 20
5.0008466419
 30
0.0
 10
2.5121524125
 20
4.9999263762
 30
0.0
 10
2.5122648987
 20
4.9985646816
 30
0.0
 10
2.512394131
 20
4.9966804947
 30
0.0
 10
2.5125238294
 20
4.9944680899
 30
0.0
 10
2.5126539196
 20
4.9919348382
 30
0.0
 10
2.512784236
 20
4.9890891756
 30
0.0
 10
2.5129147269
 20
4.9859405888
 30
0.0
 10
2.5130453385
 20
4.9824995855
 30
0.0
 10
2.5131760385
 20
4.9787776524
 30
0.0
 10
2.5133068132
 20
4.9747872078
 30
0.0
 10
2.5134860685
 20
4.968969062
 30
0.0
 10
2.5137078675
 20
4.9611320794
 30
0.0
 10
2.5139678701
 20
4.9511254671
 30
0.0
 10
2.5142281439
 20
4.9404143976
 30
0.0
 10
2.5144886125
 20
4.9291416162
 30
0.0
 10
2.5147491942
 20
4.917457301
 30
0.0
 10
2.5150098337
 20
4.9055170778
 30
0.0
 10
2.5152704799
 20
4.893480016
 30
0.0
 10
2.5155310898
 20
4.8815062808
 30
0.0
 10
2.5157071965
 20
4.8735628636
 30
0.0
 10
2.5157958791
 20
4.869628412
 30
0.0
  0
SPLINE
  5
310
100
AcDbEntity
  8
0
100
AcDbSpline
 62
7
  6
CONTINUOUS
 70
0
 71
3
 72
50
 73
46
 74
0
 42
0.0000001
 43
0.0000001
 44
0.0000000001
 40
0.0
 40
0.0
 40
0.0
 40
0.0
 40
0.0002981295
 40
0.0005204122
 40
0.0008033307
 40
0.0015641407
 40
0.0025952264
 40
0.003901367
 40
0.0054842084
 40
0.0073441706
 40
0.009481133
 40
0.014583335
 40
0.0207817558
 40
0.0280643038
 40
0.036415053
 40
0.0458161542
 40
0.056246385
 40
0.0676828636
 40
0.0800996005
 40
0.1077608756
 40
0.1389814115
 40
0.1734796149
 40
0.2109441058
 40
0.251036571
 40
0.2933945368
 40
0.3376350872
 40
0.3833581882
 40
0.4301500406
 40
0.4775873067
 40
0.5726786952
 40
0.6651964599
 40
0.7517965375
 40
0.791887669
 40
0.8293482983
 40
0.8638392047
 40
0.8950480172
 40
0.9226921689
 40
0.9465218846
 40
0.966322457
 40
0.9746549102
 40
0.9819170836
 40
0.9880929875
 40
0.9931704912
 40
0.9971403792
 40
1.0
 40
1.0
 40
1.0
 40
1.0
 10
2.5222158791
 20
4.7932994364
 30
0.0
 10
2.5221950651
 20
4.7933000832
 30
0.0
 10
2.5221623632
 20
4.7933257186
 30
0.0
 10
2.5221319102
 20
4.7933716542
 30
0.0
 10
2.5220920575
 20
4.7934513399
 30
0.0
 10
2.5220461368
 20
4.7935889566
 30
0.0
 10
2.5219934395
 20
4.7937990035
 30
0.0
 10
2.5219406263
 20
4.794067743
 30
0.0
 10
2.5218873377
 20
4.7943951863
 30
0.0
 10
2.5218338897
 20
4.7947812724
 30
0.0
 10
2.5217578632
 20
4.7954122991
 30
0.0
 10
2.5216652321
 20
4.7963464087
 30
0.0
 10
2.5215587907
 20
4.7976400856
 30
0.0
 10
2.521451982
 20
4.799161296
 30
0.0
 10
2.5213448411
 20
4.8009066561
 30
0.0
 10
2.5212375138
 20
4.8028722328
 30
0.0
 10
2.5211300327
 20
4.8050536227
 30
0.0
 10
2.5210224455
 20
4.8074458783
 30
0.0
 10
2.5208734661
 20
4.8110410391
 30
0.0
 10
2.5206896268
 20
4.8160178072
 30
0.0
 10
2.5204755863
 20
4.8225368149
 30
0.0
 10
2.520261172
 20
4.8297408887
 30
0.0
 10
2.5200464589
 20
4.8375648993
 30
0.0
 10
2.5198315405
 20
4.8459380932
 30
0.0
 10
2.519616467
 20
4.8547847312
 30
0.0
 10
2.5194012791
 20
4.8640247718
 30
0.0
 10
2.5191860064
 20
4.873574594
 30
0.0
 10
2.5189706734
 20
4.8833477577
 30
0.0
 10
2.5186832878
 20
4.8965685
 30
0.0
 10
2.5183288777
 20
4.9129824534
 30
0.0
 10
2.5179041988
 20
4.9321310117
 30
0.0
 10
2.5175425673
 20
4.9474383012
 30
0.0
 10
2.5172481825
 20
4.9589003829
 30
0.0
 10
2.5170332742
 20
4.9667235153
 30
0.0
 10
2.5168186445
 20
4.9739259835
 30
0.0
 10
2.5166043803
 20
4.9804424586
 30
0.0
 10
2.5163907493
 20
4.9862138423
 30
0.0
 10
2.5161778877
 20
4.9911877708
 30
0.0
 10
2.5159928903
 20
4.9948126899
 30
0.0
 10
2.5158409348
 20
4.9972803583
 30
0.0
 10
2.5157339394
 20
4.9987972768
 30
0.0
 10
2.5156273391
 20
5.0000861888
 30
0.0
 10
2.5155217068
 20
5.0011444076
 30
0.0
 10
2.5154169589
 20
5.0019694515
 30
0.0
 10
2.5153368969
 20
5.0024402633
 30
0.0
 10
2.5152921438
 20
5.0026349271
 30
0.0
  0
LINE
  5
311
100
AcDbEntity
  8
0
100
AcDbLine
 62
7
  6
CONTINUOUS
 10
2.5152921438
 20
5.0026349271
 11
2.5151569367
 21
5.0030381373
  0
SPLINE
  5
312
100
AcDbEntity
  8
0
100
AcDbSpline
 62
7
  6
CONTINUOUS
 70
0
 71
3
 72
27
 73
23
 74
0
 42
0.0000001
 43
0.0000001
 44
0.0000000001
 40
0.0
 40
0.0
 40
0.0
 40
0.0
 40
0.202028242
 40
0.3898923277
 40
0.4770590681
 40
0.5589931976
 40
0.6351921966
 40
0.7051896732
 40
0.768557375
 40
0.8249081952
 40
0.8738989882
 40
0.8955398233
 40
0.9152330822
 40
0.9329492183
 40
0.9486627614
 40
0.9623504197
 40
0.9739945888
 40
0.9835806601
 40
0.9911017141
 40
0.9965616684
 40
0.9985281688
 40
1.0
 40
1.0
 40
1.0
 40
1.0
 10
2.5157958791
 20
4.869628412
 30
0.0
 10
2.5159115498
 20
4.8644966205
 30
0.0
 10
2.5161395093
 20
4.8545929318
 30
0.0
 10
2.5164387048
 20
4.8424755883
 30
0.0
 10
2.5166812147
 20
4.8334091303
 30
0.0
 10
2.5168584187
 20
4.8271791141
 30
0.0
 10
2.5170354612
 20
4.8213855143
 30
0.0
 10
2.517212304
 20
4.8160638776
 30
0.0
 10
2.51738885
 20
4.811246831
 30
0.0
 10
2.5175650288
 20
4.8069639033
 30
0.0
 10
2.5177169156
 20
4.8037411015
 30
0.0
 10
2.5178402452
 20
4.8014494518
 30
0.0
 10
2.5179287869
 20
4.7999517215
 30
0.0
 10
2.5180172056
 20
4.7986048704
 30
0.0
 10
2.5181054627
 20
4.7974109659
 30
0.0
 10
2.5181934669
 20
4.7963717768
 30
0.0
 10
2.5182811613
 20
4.7954889208
 30
0.0
 10
2.518368065
 20
4.7947634514
 30
0.0
 10
2.5184543939
 20
4.7941966553
 30
0.0
 10
2.518529976
 20
4.7938238289
 30
0.0
 10
2.5185949906
 20
4.7936072252
 30
0.0
 10
2.5186280098
 20
4.7935259398
 30
0.0
 10
2.5186457013
 20
4.7934929933
 30
0.0
  0
SPLINE
  5
313
100
AcDbEntity
  8
0
100
AcDbSpline
 62
7
  6
CONTINUOUS
 70
0
 71
3
 72
32
 73
28
 74
0
 42
0.0000001
 43
0.0000001
 44
0.0000000001
 40
0.0
 40
0.0
 40
0.0
 40
0.0
 40
0.1751621698
 40
0.2640647731
 40
0.3523331288
 40
0.4388375373
 40
0.5224706612
 40
0.6021615318
 40
0.6768896543
 40
0.7456980465
 40
0.807705357
 40
0.8359070903
 40
0.8621182428
 40
0.88625533
 40
0.9082408928
 40
0.9280051555
 40
0.9454854687
 40
0.9606264128
 40
0.9733815291
 40
0.9837124326
 40
0.987959965
 40
0.9915920657
 40
0.9946081296
 40
0.9970091994
 40
0.9988002391
 40
0.9994719258
 40
1.0
 40
1.0
 40
1.0
 40
1.0
 10
2.5049958791
 20
4.8697202616
 30
0.0
 10
2.5048203541
 20
4.8774825937
 30
0.0
 10
2.5045641583
 20
4.8891848443
 30
0.0
 10
2.5042249427
 20
4.9047988348
 30
0.0
 10
2.5039692902
 20
4.9164838305
 30
0.0
 10
2.5037136792
 20
4.9279351931
 30
0.0
 10
2.5034581704
 20
4.9390062518
 30
0.0
 10
2.5032028233
 20
4.9495551689
 30
0.0
 10
2.5029477397
 20
4.9594467629
 30
0.0
 10
2.5026930097
 20
4.9685542367
 30
0.0
 10
2.5024749149
 20
4.9755995574
 30
0.0
 10
2.5022983214
 20
4.980757033
 30
0.0
 10
2.5021701704
 20
4.9842365197
 30
0.0
 10
2.5020421278
 20
4.9874402687
 30
0.0
 10
2.5019142146
 20
4.9903580077
 30
0.0
 10
2.5017864937
 20
4.9929803743
 30
0.0
 10
2.5016590331
 20
4.995298955
 30
0.0
 10
2.5015320203
 20
4.9973063501
 30
0.0
 10
2.501405546
 20
4.9989961258
 30
0.0
 10
2.5012952054
 20
5.0002028036
 30
0.0
 10
2.5012042236
 20
5.0010049096
 30
0.0
 10
2.5011407075
 20
5.0014837054
 30
0.0
 10
2.5010776475
 20
5.001879945
 30
0.0
 10
2.5010149975
 20
5.0021932696
 30
0.0
 10
2.500959923
 20
5.0024021555
 30
0.0
 10
2.5009132668
 20
5.0025263341
 30
0.0
 10
2.5008896124
 20
5.0025741951
 30
0.0
 10
2.5008772812
 20
5.0025940913
 30
0.0
  0
SPLINE
  5
314
100
AcDbEntity
  8
0
100
AcDbSpline
 62
7
  6
CONTINUOUS
 70
0
 71
3
 72
32
 73
28
 74
0
 42
0.0000001
 43
0.0000001
 44
0.0000000001
 40
0.0
 40
0.0
 40
0.0
 40
0.0
 40
0.0006733417
 40
0.0011429558
 40
0.0017269459
 40
0.0032699671
 40
0.0053396956
 40
0.007949349
 40
0.0111046431
 40
0.014807788
 40
0.0190595052
 40
0.0292075959
 40
0.0415404138
 40
0.056041395
 40
0.0726901645
 40
0.0914603018
 40
0.1123232301
 40
0.1601891154
 40
0.2159802492
 40
0.2793355811
 40
0.3498434721
 40
0.427044749
 40
0.510436588
 40
0.5994748554
 40
0.6935793246
 40
0.7921332754
 40
1.0
 40
1.0
 40
1.0
 40
1.0
 10
2.5079358791
 20
4.7937432139
 30
0.0
 10
2.5079188051
 20
4.7937437445
 30
0.0
 10
2.5078915317
 20
4.7937610913
 30
0.0
 10
2.5078646972
 20
4.7937951701
 30
0.0
 10
2.5078310516
 20
4.7938522595
 30
0.0
 10
2.5077917829
 20
4.7939515337
 30
0.0
 10
2.5077469819
 20
4.7941030015
 30
0.0
 10
2.5077020237
 20
4.7942967013
 30
0.0
 10
2.5076567313
 20
4.794532627
 30
0.0
 10
2.5076112979
 20
4.7948108285
 30
0.0
 10
2.5075466926
 20
4.7952655465
 30
0.0
 10
2.5074679506
 20
4.7959392404
 30
0.0
 10
2.5073774918
 20
4.7968731094
 30
0.0
 10
2.507286707
 20
4.797972525
 30
0.0
 10
2.5071956625
 20
4.7992357023
 30
0.0
 10
2.5071044381
 20
4.8006606347
 30
0.0
 10
2.506976726
 20
4.8028767663
 30
0.0
 10
2.5068198703
 20
4.8060319122
 30
0.0
 10
2.5066384003
 20
4.8102650489
 30
0.0
 10
2.5064564736
 20
4.8150730443
 30
0.0
 10
2.5062741791
 20
4.820424532
 30
0.0
 10
2.5060916419
 20
4.8262845933
 30
0.0
 10
2.5059089206
 20
4.8326149629
 30
0.0
 10
2.5057260626
 20
4.8393743188
 30
0.0
 10
2.5055430962
 20
4.846518458
 30
0.0
 10
2.505294607
 20
4.8566765088
 30
0.0
 10
2.5051150942
 20
4.8644481523
 30
0.0
 10
2.5049958791
 20
4.8697202616
 30
0.0
  0
LINE
  5
315
100
AcDbEntity
  8
0
100
AcDbLine
 62
7
  6
CONTINUOUS
 10
8.4950710209
 20
3.9549451296
 11
8.497039634
 21
3.9553118138
  0
SPLINE
  5
316
100
AcDbEntity
  8
0
100
AcDbSpline
 62
7
  6
CONTINUOUS
 70
0
 71
3
 72
51
 73
47
 74
0
 42
0.0000001
 43
0.0000001
 44
0.0000000001
 40
0.0
 40
0.0
 40
0.0
 40
0.0
 40
0.0002922167
 40
0.0005088615
 40
0.0007855429
 40
0.0011264218
 40
0.0015336753
 40
0.0025516526
 40
0.0038449773
 40
0.005415416
 40
0.0072634448
 40
0.0093889712
 40
0.0144698275
 40
0.0206489573
 40
0.0279142378
 40
0.0362496806
 40
0.0456373558
 40
0.0560559481
 40
0.0674824738
 40
0.0798908371
 40
0.107539645
 40
0.1387526062
 40
0.173247142
 40
0.2107108966
 40
0.2508046444
 40
0.2931650675
 40
0.3374084801
 40
0.3831342658
 40
0.4299281624
 40
0.4773664942
 40
0.5724568271
 40
0.6649703376
 40
0.7515666962
 40
0.7916579505
 40
0.8291212136
 40
0.863618179
 40
0.8948375636
 40
0.9224978143
 40
0.9463501013
 40
0.9661806915
 40
0.9745312062
 40
0.9818135949
 40
0.9880119415
 40
0.9931141728
 40
0.9971110988
 40
1.0
 40
1.0
 40
1.0
 40
1.0
 10
2.4973158791
 20
5.0025503774
 30
0.0
 10
2.4973361721
 20
5.0025510081
 30
0.0
 10
2.4973695585
 20
5.0025276657
 30
0.0
 10
2.4974000226
 20
5.0024835071
 30
0.0
 10
2.4974270487
 20
5.0024317038
 30
0.0
 10
2.4974535745
 20
5.0023656809
 30
0.0
 10
2.4974922458
 20
5.0022491141
 30
0.0
 10
2.4975387023
 20
5.0020658709
 30
0.0
 10
2.4975917819
 20
5.0018013913
 30
0.0
 10
2.497645091
 20
5.0014783409
 30
0.0
 10
2.4976986524
 20
5.0010968693
 30
0.0
 10
2.4977748323
 20
5.000472384
 30
0.0
 10
2.497867636
 20
4.999546929
 30
0.0
 10
2.4979742428
 20
4.9982642095
 30
0.0
 10
2.4980812183
 20
4.9967547308
 30
0.0
 10
2.4981885227
 20
4.9950218745
 30
0.0
 10
2.4982960091
 20
4.9930695715
 30
0.0
 10
2.4984036439
 20
4.9909022227
 30
0.0
 10
2.4985113788
 20
4.9885247715
 30
0.0
 10
2.498660566
 20
4.9849508613
 30
0.0
 10
2.4988446337
 20
4.9800025086
 30
0.0
 10
2.4990589035
 20
4.9735197691
 30
0.0
 10
2.4992735222
 20
4.9663547766
 30
0.0
 10
2.499488414
 20
4.9585725159
 30
0.0
 10
2.4997034849
 20
4.9502435558
 30
0.0
 10
2.4999186842
 20
4.9414434104
 30
0.0
 10
2.500133971
 20
4.9322518495
 30
0.0
 10
2.5003493156
 20
4.9227521771
 30
0.0
 10
2.5005646933
 20
4.9130304715
 30
0.0
 10
2.5008520991
 20
4.8998797399
 30
0.0
 10
2.5012064687
 20
4.8835531771
 30
0.0
 10
2.5016310017
 20
4.8645068525
 30
0.0
 10
2.5019924196
 20
4.8492813352
 30
0.0
 10
2.5022865649
 20
4.8378801467
 30
0.0
 10
2.5025012754
 20
4.8300979195
 30
0.0
 10
2.5027156818
 20
4.8229323397
 30
0.0
 10
2.5029296982
 20
4.8164481805
 30
0.0
 10
2.5031430598
 20
4.8107040152
 30
0.0
 10
2.5033556312
 20
4.8057517264
 30
0.0
 10
2.5035403389
 20
4.8021411536
 30
0.0
 10
2.5036920141
 20
4.7996818514
 30
0.0
 10
2.5037988356
 20
4.7981687774
 30
0.0
 10
2.5039052592
 20
4.7968820347
 30
0.0
 10
2.5040107337
 20
4.7958242915
 30
0.0
 10
2.5041153229
 20
4.7949979916
 30
0.0
 10
2.5041952094
 20
4.794525768
 30
0.0
 10
2.5042397442
 20
4.7943300541
 30
0.0
  0
LINE
  5
317
100
AcDbEntity
  8
0
100
AcDbLine
 62
7
  6
CONTINUOUS
 10
2.5042397442
 20
4.7943300541
 11
2.5043653186
 21
4.7939371369
  0
SPLINE
  5
318
100
AcDbEntity
  8
0
100
AcDbSpline
 62
7
  6
CONTINUOUS
 70
0
 71
3
 72
9
 73
5
 74
0
 42
0.0000001
 43
0.0000001
 44
0.0000000001
 40
0.0
 40
0.0
 40
0.0
 40
0.0
 40
0.2256157558
 40
1.0
 40
1.0
 40
1.0
 40
1.0
 10
8.5050790837
 20
3.9036079551
 30
0.0
 10
8.5050846416
 20
3.9036111674
 30
0.0
 10
8.5051095864
 20
3.9036248685
 30
0.0
 10
8.5051355375
 20
3.9036366705
 30
0.0
 10
8.5051558751
 20
3.9036451471
 30
0.0
  0
SPLINE
  5
319
100
AcDbEntity
  8
0
100
AcDbSpline
 62
7
  6
CONTINUOUS
 70
0
 71
3
 72
53
 73
49
 74
0
 42
0.0000001
 43
0.0000001
 44
0.0000000001
 40
0.0
 40
0.0
 40
0.0
 40
0.0
 40
0.0009392946
 40
0.0021556195
 40
0.005430834
 40
0.0098349008
 40
0.0153629523
 40
0.0220055058
 40
0.0297483556
 40
0.038575046
 40
0.0484654054
 40
0.0713457743
 40
0.0981803369
 40
0.1287223884
 40
0.1626904539
 40
0.1997708607
 40
0.239621126
 40
0.2818730866
 40
0.3261360228
 40
0.419043298
 40
0.5149145398
 40
0.5628568242
 40
0.6102118695
 40
0.656541791
 40
0.7014183238
 40
0.7444264159
 40
0.7851684847
 40
0.8232680982
 40
0.8583731532
 40
0.8901594999
 40
0.9183340438
 40
0.9309845205
 40
0.9426374131
 40
0.9532663566
 40
0.9628468303
 40
0.9713575365
 40
0.9787791768
 40
0.9850961045
 40
0.9902951811
 40
0.9924729189
 40
0.9943684587
 40
0.9959817019
 40
0.9973136518
 40
0.9983667851
 40
0.9991470169
 40
0.9994395904
 40
0.9996725027
 40
1.0
 40
1.0
 40
1.0
 40
1.0
 10
8.5051758989
 20
3.9036532471
 30
0.0
 10
8.505230121
 20
3.903674553
 30
0.0
 10
8.5053579062
 20
3.9037147476
 30
0.0
 10
8.5056853655
 20
3.9037940044
 30
0.0
 10
8.5062296826
 20
3.9038871579
 30
0.0
 10
8.5070419144
 20
3.9039934622
 30
0.0
 10
8.5080644625
 20
3.9041004696
 30
0.0
 10
8.5092948617
 20
3.9042082805
 30
0.0
 10
8.5107305082
 20
3.9043164437
 30
0.0
 10
8.5123680579
 20
3.9044248917
 30
0.0
 10
8.5149435696
 20
3.9045772243
 30
0.0
 10
8.518635814
 20
3.9047638285
 30
0.0
 10
8.5236089425
 20
3.9049794481
 30
0.0
 10
8.5292703035
 20
3.9051956762
 30
0.0
 10
8.5355675326
 20
3.9054123912
 30
0.0
 10
8.542442385
 20
3.905629412
 30
0.0
 10
8.549831258
 20
3.9058466556
 30
0.0
 10
8.5576657882
 20
3.9060640634
 30
0.0
 10
8.5687901825
 20
3.90635885
 30
0.0
 10
8.5832395531
 20
3.9067218454
 30
0.0
 10
8.5979173207
 20
3.9070796558
 30
0.0
 10
8.6097706118
 20
3.9073698942
 30
0.0
 10
8.6185520585
 20
3.9075875594
 30
0.0
 10
8.6271433001
 20
3.9078051785
 30
0.0
 10
8.6354648438
 20
3.9080227271
 30
0.0
 10
8.6434396925
 20
3.908240175
 30
0.0
 10
8.6509940571
 20
3.9084574806
 30
0.0
 10
8.6580580429
 20
3.9086745927
 30
0.0
 10
8.6645662975
 20
3.9088914172
 30
0.0
 10
8.6704586087
 20
3.9091078757
 30
0.0
 10
8.6749583692
 20
3.9092937942
 30
0.0
 10
8.6782097232
 20
3.9094444622
 30
0.0
 10
8.6803736011
 20
3.9095532907
 30
0.0
 10
8.682346813
 20
3.9096620031
 30
0.0
 10
8.6841248221
 20
3.9097705775
 30
0.0
 10
8.6857035053
 20
3.9098789506
 30
0.0
 10
8.687079268
 20
3.909987011
 30
0.0
 10
8.6882489269
 20
3.9100946781
 30
0.0
 10
8.6890931671
 20
3.9101884085
 30
0.0
 10
8.689663126
 20
3.9102653243
 30
0.0
 10
8.6900116836
 20
3.9103194037
 30
0.0
 10
8.6903070786
 20
3.9103733226
 30
0.0
 10
8.6905493339
 20
3.910426801
 30
0.0
 10
8.6907384011
 20
3.9104801092
 30
0.0
 10
8.6908620815
 20
3.910526735
 30
0.0
 10
8.6909329749
 20
3.9105669478
 30
0.0
 10
8.6909746344
 20
3.9105985272
 30
0.0
 10
8.6909958556
 20
3.9106315014
 30
0.0
 10
8.6909958566
 20
3.9106518138
 30
0.0
  0
SPLINE
  5
31A
100
AcDbEntity
  8
0
100
AcDbSpline
 62
7
  6
CONTINUOUS
 70
0
 71
3
 72
50
 73
46
 74
0
 42
0.0000001
 43
0.0000001
 44
0.0000000001
 40
0.0
 40
0.0
 40
0.0
 40
0.0
 40
0.000300061
 40
0.0005230064
 40
0.0008064521
 40
0.0015680582
 40
0.00259974
 40
0.003906355
 40
0.0054895888
 40
0.0073498838
 40
0.0094871331
 40
0.0145898035
 40
0.0207885913
 40
0.0280714303
 40
0.036422408
 40
0.0458236834
 40
0.0562540388
 40
0.0676905962
 40
0.0801073801
 40
0.1077686788
 40
0.1389891188
 40
0.1734871172
 40
0.2109513569
 40
0.2510434949
 40
0.2934010642
 40
0.337641197
 40
0.3833638367
 40
0.4301551923
 40
0.4775919548
 40
0.5726822985
 40
0.6651990139
 40
0.7517980872
 40
0.7918887485
 40
0.8293489328
 40
0.863839416
 40
0.8950478511
 40
0.9226916768
 40
0.9465211165
 40
0.9663215091
 40
0.9746539224
 40
0.9819160993
 40
0.9880920637
 40
0.9931697109
 40
0.9971398738
 40
1.0
 40
1.0
 40
1.0
 40
1.0
 10
2.4936558791
 20
4.7941869915
 30
0.0
 10
2.4936351071
 20
4.794187637
 30
0.0
 10
2.4936024308
 20
4.7942129767
 30
0.0
 10
2.4935719196
 20
4.7942586007
 30
0.0
 10
2.4935320802
 20
4.7943375964
 30
0.0
 10
2.4934861448
 20
4.7944740705
 30
0.0
 10
2.4934334476
 20
4.7946823625
 30
0.0
 10
2.4933806305
 20
4.7949488502
 30
0.0
 10
2.4933273418
 20
4.7952735393
 30
0.0
 10
2.4932738933
 20
4.7956563739
 30
0.0
 10
2.4931978681
 20
4.7962820709
 30
0.0
 10
2.4931052372
 20
4.7972082947
 30
0.0
 10
2.4929987959
 20
4.7984910524
 30
0.0
 10
2.4928919874
 20
4.7999994162
 30
0.0
 10
2.4927848467
 20
4.8017300312
 30
0.0
 10
2.4926775198
 20
4.8036789978
 30
0.0
 10
2.4925700391
 20
4.8058419495
 30
0.0
 10
2.4924624524
 20
4.8082139814
 30
0.0
 10
2.4923134738
 20
4.8117787429
 30
0.0
 10
2.4921296351
 20
4.8167134285
 30
0.0
 10
2.4919155951
 20
4.8231773113
 30
0.0
 10
2.4917011812
 20
4.830320462
 30
0.0
 10
2.4914864684
 20
4.8380783027
 30
0.0
 10
2.4912715502
 20
4.8463806795
 30
0.0
 10
2.4910564768
 20
4.8551524934
 30
0.0
 10
2.4908412889
 20
4.8643143805
 30
0.0
 10
2.4906260161
 20
4.873783428
 30
0.0
 10
2.4904106829
 20
4.8834739259
 30
0.0
 10
2.4901232968
 20
4.8965828381
 30
0.0
 10
2.4897688859
 20
4.9128579477
 30
0.0
 10
2.4893442056
 20
4.9318445218
 30
0.0
 10
2.4889825725
 20
4.94702231
 30
0.0
 10
2.4886881861
 20
4.9583874091
 30
0.0
 10
2.4884732765
 20
4.9661443405
 30
0.0
 10
2.4882586455
 20
4.9732858509
 30
0.0
 10
2.4880443797
 20
4.9797471635
 30
0.0
 10
2.487830747
 20
4.9854696793
 30
0.0
 10
2.4876178837
 20
4.990401477
 30
0.0
 10
2.4874328845
 20
4.9939956744
 30
0.0
 10
2.4872809277
 20
4.9964424118
 30
0.0
 10
2.4871739311
 20
4.9979464597
 30
0.0
 10
2.4870673296
 20
4.9992244281
 30
0.0
 10
2.4869616947
 20
5.0002736573
 30
0.0
 10
2.4868569445
 20
5.0010916857
 30
0.0
 10
2.4867768795
 20
5.0015584697
 30
0.0
 10
2.4867321316
 20
5.0017514396
 30
0.0
  0
LINE
  5
31B
100
AcDbEntity
  8
0
100
AcDbLine
 62
7
  6
CONTINUOUS
 10
2.4867321316
 20
5.0017514396
 11
2.4865976285
 21
5.0021500355
  0
SPLINE
  5
31C
100
AcDbEntity
  8
0
100
AcDbSpline
 62
7
  6
CONTINUOUS
 70
0
 71
3
 72
51
 73
47
 74
0
 42
0.0000001
 43
0.0000001
 44
0.0000000001
 40
0.0
 40
0.0
 40
0.0
 40
0.0
 40
0.0002931855
 40
0.000510148
 40
0.0007870731
 40
0.0011281453
 40
0.0015355566
 40
0.0025537765
 40
0.0038472806
 40
0.0054178571
 40
0.0072659939
 40
0.0093916057
 40
0.0144725829
 40
0.0206517832
 40
0.0279170956
 40
0.0362525409
 40
0.0456401952
 40
0.0560587487
 40
0.0674852207
 40
0.0798935121
 40
0.1075421203
 40
0.1387548369
 40
0.1732490958
 40
0.2107125267
 40
0.2508059228
 40
0.2931659772
 40
0.3374090008
 40
0.3831343887
 40
0.4299278865
 40
0.4773658153
 40
0.5724553752
 40
0.6649682165
 40
0.7515640635
 40
0.7916551377
 40
0.8291182749
 40
0.8636152141
 40
0.8948346369
 40
0.9224950054
 40
0.9463475385
 40
0.9661784805
 40
0.9745292189
 40
0.9818118717
 40
0.9880105317
 40
0.993113137
 40
0.997110517
 40
1.0
 40
1.0
 40
1.0
 40
1.0
 10
2.4830358791
 20
5.0021065999
 30
0.0
 10
2.483056153
 20
5.0021072299
 30
0.0
 10
2.4830895215
 20
5.0020840366
 30
0.0
 10
2.4831200187
 20
5.0020400349
 30
0.0
 10
2.4831470439
 20
5.0019884554
 30
0.0
 10
2.483173573
 20
5.001922713
 30
0.0
 10
2.4832122426
 20
5.001806652
 30
0.0
 10
2.4832587007
 20
5.0016241939
 30
0.0
 10
2.4833117811
 20
5.0013608427
 30
0.0
 10
2.483365091
 20
5.0010391708
 30
0.0
 10
2.4834186528
 20
5.0006593272
 30
0.0
 10
2.4834948326
 20
5.0000375102
 30
0.0
 10
2.4835876365
 20
4.9991160032
 30
0.0
 10
2.4836942438
 20
4.9978387506
 30
0.0
 10
2.4838012196
 20
4.9963357042
 30
0.0
 10
2.4839085242
 20
4.9946102308
 30
0.0
 10
2.4840160107
 20
4.9926662442
 30
0.0
 10
2.4841236456
 20
4.9905081261
 30
0.0
 10
2.4842313807
 20
4.9881407989
 30
0.0
 10
2.484380568
 20
4.9845821085
 30
0.0
 10
2.4845646358
 20
4.9796548255
 30
0.0
 10
2.4847789057
 20
4.9731996843
 30
0.0
 10
2.4849935243
 20
4.966065192
 30
0.0
 10
2.485208416
 20
4.9583160571
 30
0.0
 10
2.4854234868
 20
4.9500225482
 30
0.0
 10
2.4856386859
 20
4.9412598574
 30
0.0
 10
2.4858539724
 20
4.9321074149
 30
0.0
 10
2.4860693167
 20
4.9226481702
 30
0.0
 10
2.4862846941
 20
4.9129678352
 30
0.0
 10
2.4865720993
 20
4.8998730624
 30
0.0
 10
2.4869264682
 20
4.883615964
 30
0.0
 10
2.4873510001
 20
4.8646506641
 30
0.0
 10
2.4877124167
 20
4.8494899076
 30
0.0
 10
2.4880065606
 20
4.8381372044
 30
0.0
 10
2.4882212703
 20
4.8303880599
 30
0.0
 10
2.4884356758
 20
4.8232529321
 30
0.0
 10
2.4886496912
 20
4.8167963182
 30
0.0
 10
2.488863052
 20
4.8110765418
 30
0.0
 10
2.4890756225
 20
4.8061452637
 30
0.0
 10
2.4892603293
 20
4.8025499999
 30
0.0
 10
2.4894120033
 20
4.8001011184
 30
0.0
 10
2.4895188244
 20
4.7985944435
 30
0.0
 10
2.4896252477
 20
4.797313134
 30
0.0
 10
2.4897307226
 20
4.7962598451
 30
0.0
 10
2.4898353124
 20
4.7954370108
 30
0.0
 10
2.4899151991
 20
4.7949667726
 30
0.0
 10
2.4899597296
 20
4.7947718903
 30
0.0
  0
LINE
  5
31D
100
AcDbEntity
  8
0
100
AcDbLine
 62
7
  6
CONTINUOUS
 10
2.4899597296
 20
4.7947718903
 11
2.4900849326
 21
4.7943812794
  0
SPLINE
  5
31E
100
AcDbEntity
  8
0
100
AcDbSpline
 62
7
  6
CONTINUOUS
 70
0
 71
3
 72
50
 73
46
 74
0
 42
0.0000001
 43
0.0000001
 44
0.0000000001
 40
0.0
 40
0.0
 40
0.0
 40
0.0
 40
0.0003010396
 40
0.000524321
 40
0.0008080336
 40
0.0015700414
 40
0.0026020215
 40
0.0039088717
 40
0.0054922976
 40
0.0073527532
 40
0.0094901386
 40
0.0145930253
 40
0.0207919705
 40
0.0280749202
 40
0.036425971
 40
0.0458272891
 40
0.0562576632
 40
0.0676942196
 40
0.080110976
 40
0.1077721361
 40
0.1389923786
 40
0.1734901378
 40
0.2109540632
 40
0.2510458585
 40
0.2934030696
 40
0.3376428063
 40
0.3833650453
 40
0.4301560041
 40
0.4775923678
 40
0.5726819595
 40
0.665198035
 40
0.75179661
 40
0.7918870843
 40
0.8293471304
 40
0.863837541
 40
0.8950459528
 40
0.9226898148
 40
0.9465193767
 40
0.9663199671
 40
0.9746525149
 40
0.9819148573
 40
0.9880910273
 40
0.9931689314
 40
0.9971394231
 40
1.0
 40
1.0
 40
1.0
 40
1.0
 10
2.4793758791
 20
4.794630769
 30
0.0
 10
2.4793551281
 20
4.7946314139
 30
0.0
 10
2.479322465
 20
4.7946566059
 30
0.0
 10
2.4792919246
 20
4.7947020735
 30
0.0
 10
2.479252092
 20
4.7947807239
 30
0.0
 10
2.4792061493
 20
4.7949166257
 30
0.0
 10
2.4791534523
 20
4.7951240393
 30
0.0
 10
2.4791006334
 20
4.7953893996
 30
0.0
 10
2.4790473448
 20
4.7957127099
 30
0.0
 10
2.4789938961
 20
4.7960939168
 30
0.0
 10
2.4789178718
 20
4.7967169459
 30
0.0
 10
2.4788252412
 20
4.7976392222
 30
0.0
 10
2.4787188002
 20
4.7989165136
 30
0.0
 10
2.4786119921
 20
4.8004184459
 30
0.0
 10
2.4785048519
 20
4.8021416789
 30
0.0
 10
2.4783975255
 20
4.8040823304
 30
0.0
 10
2.4782900453
 20
4.8062360531
 30
0.0
 10
2.478182459
 20
4.8085979627
 30
0.0
 10
2.4780334811
 20
4.8121475064
 30
0.0
 10
2.4778496433
 20
4.8170611245
 30
0.0
 10
2.4776356042
 20
4.8234974124
 30
0.0
 10
2.4774211911
 20
4.8306100661
 30
0.0
 10
2.4772064792
 20
4.8383347844
 30
0.0
 10
2.4769915617
 20
4.8466017134
 30
0.0
 10
2.476776489
 20
4.8553360761
 30
0.0
 10
2.4765613017
 20
4.8644588479
 30
0.0
 10
2.4763460295
 20
4.8738874701
 30
0.0
 10
2.4761306967
 20
4.8835366
 30
0.0
 10
2.4758433112
 20
4.8965895568
 30
0.0
 10
2.4754889009
 20
4.9127952057
 30
0.0
 10
2.475064221
 20
4.9317007582
 30
0.0
 10
2.4747025881
 20
4.9468137867
 30
0.0
 10
2.4744082019
 20
4.9581304005
 30
0.0
 10
2.4741932922
 20
4.9658542477
 30
0.0
 10
2.4739786611
 20
4.9729653038
 30
0.0
 10
2.4737643952
 20
4.9793990677
 30
0.0
 10
2.4735507622
 20
4.9850971908
 30
0.0
 10
2.4733378984
 20
4.9900079731
 30
0.0
 10
2.4731528988
 20
4.9935868567
 30
0.0
 10
2.4730009421
 20
4.9960231694
 30
0.0
 10
2.472893945
 20
4.9975208153
 30
0.0
 10
2.4727873431
 20
4.9987933474
 30
0.0
 10
2.4726817069
 20
4.9998381192
 30
0.0
 10
2.4725769556
 20
5.0006526788
 30
0.0
 10
2.4724968894
 20
5.0011174752
 30
0.0
 10
2.4724521451
 20
5.0013096118
 30
0.0
  0
LINE
  5
31F
100
AcDbEntity
  8
0
100
AcDbLine
 62
7
  6
CONTINUOUS
 10
2.4724521451
 20
5.0013096118
 11
2.4723179789
 21
5.0017059812
  0
SPLINE
  5
320
100
AcDbEntity
  8
0
100
AcDbSpline
 62
7
  6
CONTINUOUS
 70
0
 71
3
 72
51
 73
47
 74
0
 42
0.0000001
 43
0.0000001
 44
0.0000000001
 40
0.0
 40
0.0
 40
0.0
 40
0.0
 40
0.0002941644
 40
0.000511449
 40
0.0007886218
 40
0.0011298911
 40
0.001537464
 40
0.0025559341
 40
0.0038496257
 40
0.0054203483
 40
0.0072686019
 40
0.0093943087
 40
0.0144754259
 40
0.0206547224
 40
0.0279201009
 40
0.0362555874
 40
0.0456432608
 40
0.0560618109
 40
0.0674882574
 40
0.079896517
 40
0.1075450617
 40
0.1387576568
 40
0.1732517316
 40
0.2107150143
 40
0.2508082104
 40
0.2931680069
 40
0.3374108216
 40
0.3831359525
 40
0.4299291463
 40
0.4773668228
 40
0.572455786
 40
0.6649680652
 40
0.751563389
 40
0.7916542359
 40
0.8291171667
 40
0.8636139628
 40
0.8948332791
 40
0.922493591
 40
0.9463461398
 40
0.9661771809
 40
0.9745280086
 40
0.9818107835
 40
0.9880096059
 40
0.9931124269
 40
0.9971100994
 40
1.0
 40
1.0
 40
1.0
 40
1.0
 10
2.4687558791
 20
5.0016628223
 30
0.0
 10
2.468776134
 20
5.0016634518
 30
0.0
 10
2.4688094844
 20
5.0016404072
 30
0.0
 10
2.468840015
 20
5.0015965623
 30
0.0
 10
2.4688670394
 20
5.0015452064
 30
0.0
 10
2.4688935717
 20
5.0014797442
 30
0.0
 10
2.4689322398
 20
5.0013641885
 30
0.0
 10
2.4689786997
 20
5.0011825146
 30
0.0
 10
2.469031781
 20
5.0009202905
 30
0.0
 10
2.4690850917
 20
5.0005999957
 30
0.0
 10
2.469138654
 20
5.0002217785
 30
0.0
 10
2.4692148339
 20
4.9996026272
 30
0.0
 10
2.4693076383
 20
4.9986850645
 30
0.0
 10
2.4694142462
 20
4.9974132732
 30
0.0
 10
2.4695212226
 20
4.9959166518
 30
0.0
 10
2.4696285277
 20
4.9941985531
 30
0.0
 10
2.4697360145
 20
4.9922628741
 30
0.0
 10
2.4698436498
 20
4.9901139787
 30
0.0
 10
2.4699513853
 20
4.9877567675
 30
0.0
 10
2.4701005729
 20
4.9842132812
 30
0.0
 10
2.4702846413
 20
4.9793070452
 30
0.0
 10
2.4704989117
 20
4.9728794752
 30
0.0
 10
2.4707135309
 20
4.9657754529
 30
0.0
 10
2.4709284231
 20
4.9580594112
 30
0.0
 10
2.4711434943
 20
4.9498013195
 30
0.0
 10
2.4713586938
 20
4.9410760486
 30
0.0
 10
2.4715739806
 20
4.9319626904
 30
0.0
 10
2.4717893252
 20
4.9225438403
 30
0.0
 10
2.4720047027
 20
4.9129048448
 30
0.0
 10
2.4722921081
 20
4.8998659956
 30
0.0
 10
2.4726464771
 20
4.8836783244
 30
0.0
 10
2.4730710088
 20
4.8647940216
 30
0.0
 10
2.4734324251
 20
4.8496980158
 30
0.0
 10
2.4737265687
 20
4.8383938027
 30
0.0
 10
2.473941278
 20
4.8306777544
 30
0.0
 10
2.4741556831
 20
4.8235730994
 30
0.0
 10
2.4743696982
 20
4.8171440585
 30
0.0
 10
2.4745830585
 20
4.8114487069
 30
0.0
 10
2.4747956287
 20
4.8065384836
 30
0.0
 10
2.474980335
 20
4.8029585704
 30
0.0
 10
2.4751320082
 20
4.8005201459
 30
0.0
 10
2.4752388292
 20
4.7990198996
 30
0.0
 10
2.4753452524
 20
4.7977440547
 30
0.0
 10
2.4754507279
 20
4.7966952531
 30
0.0
 10
2.4755553181
 20
4.7958759188
 30
0.0
 10
2.4756352054
 20
4.7954076893
 30
0.0
 10
2.4756797323
 20
4.7952136508
 30
0.0
  0
LINE
  5
321
100
AcDbEntity
  8
0
100
AcDbLine
 62
7
  6
CONTINUOUS
 10
2.4756797323
 20
4.7952136508
 11
2.4758045433
 21
4.7948254249
  0
LINE
  5
322
100
AcDbEntity
  8
0
100
AcDbLine
 62
7
  6
CONTINUOUS
 10
8.7009206931
 20
3.917338498
 11
8.7005300458
 21
3.9172090826
  0
SPLINE
  5
323
100
AcDbEntity
  8
0
100
AcDbSpline
 62
7
  6
CONTINUOUS
 70
0
 71
3
 72
39
 73
35
 74
0
 42
0.0000001
 43
0.0000001
 44
0.0000000001
 40
0.0
 40
0.0
 40
0.0
 40
0.0
 40
0.0027752957
 40
0.00659292
 40
0.011450937
 40
0.0173413375
 40
0.0242534841
 40
0.0321732626
 40
0.0509691924
 40
0.0735725911
 40
0.0997932015
 40
0.129409488
 40
0.1621705841
 40
0.1977988157
 40
0.2359921302
 40
0.3187585387
 40
0.4076665263
 40
0.4997038899
 40
0.5917523919
 40
0.6806934126
 40
0.7635136279
 40
0.8017410919
 40
0.837407927
 40
0.8702117513
 40
0.8998745291
 40
0.9261449966
 40
0.9488011806
 40
0.9676523825
 40
0.9756006228
 40
0.9825414917
 40
0.98846073
 40
0.9933486779
 40
0.9971978714
 40
1.0
 40
1.0
 40
1.0
 40
1.0
 10
8.7005300458
 20
3.9172090826
 30
0.0
 10
8.7003451327
 20
3.9171661287
 30
0.0
 10
8.6999003616
 20
3.9170887136
 30
0.0
 10
8.6991237009
 20
3.9169872618
 30
0.0
 10
8.6981324828
 20
3.9168849638
 30
0.0
 10
8.6969288553
 20
3.9167817886
 30
0.0
 10
8.695515155
 20
3.9166782361
 30
0.0
 10
8.6932196141
 20
3.9165312534
 30
0.0
 10
8.6898507442
 20
3.9163522141
 30
0.0
 10
8.6852299519
 20
3.9161461748
 30
0.0
 10
8.679868418
 20
3.9159393907
 30
0.0
 10
8.6738116523
 20
3.9157319914
 30
0.0
 10
8.6671110576
 20
3.9155242294
 30
0.0
 10
8.6598235272
 20
3.9153161866
 30
0.0
 10
8.6491163527
 20
3.9150308689
 30
0.0
 10
8.6347651955
 20
3.9146802034
 30
0.0
 10
8.6167314063
 20
3.9142687074
 30
0.0
 10
8.5980625525
 20
3.9138567795
 30
0.0
 10
8.5793914388
 20
3.91344485
 30
0.0
 10
8.561350946
 20
3.9130333487
 30
0.0
 10
8.5469915101
 20
3.9126826995
 30
0.0
 10
8.536275675
 20
3.9123974025
 30
0.0
 10
8.5289802423
 20
3.9121893573
 30
0.0
 10
8.5222709002
 20
3.9119815894
 30
0.0
 10
8.5162046162
 20
3.9117741848
 30
0.0
 10
8.5108328734
 20
3.9115673981
 30
0.0
 10
8.5062012734
 20
3.9113612893
 30
0.0
 10
8.5028230398
 20
3.9111824652
 30
0.0
 10
8.5005198179
 20
3.9110350314
 30
0.0
 10
8.4991002152
 20
3.9109316149
 30
0.0
 10
8.4978904749
 20
3.9108296362
 30
0.0
 10
8.4968930706
 20
3.9107271301
 30
0.0
 10
8.4961107541
 20
3.9106214065
 30
0.0
 10
8.4956622711
 20
3.9105436126
 30
0.0
 10
8.4954746261
 20
3.9105045294
 30
0.0
  0
LINE
  5
324
100
AcDbEntity
  8
0
100
AcDbLine
 62
7
  6
CONTINUOUS
 10
8.4954746261
 20
3.9105045294
 11
8.4949960586
 21
3.9103034591
  0
SPLINE
  5
325
100
AcDbEntity
  8
0
100
AcDbSpline
 62
7
  6
CONTINUOUS
 70
0
 71
3
 72
50
 73
46
 74
0
 42
0.0000001
 43
0.0000001
 44
0.0000000001
 40
0.0
 40
0.0
 40
0.0
 40
0.0
 40
0.0003020291
 40
0.0005256517
 40
0.0008096366
 40
0.0015720571
 40
0.0026043479
 40
0.0039114472
 40
0.005495081
 40
0.0073557148
 40
0.0094932558
 40
0.0145964027
 40
0.0207955594
 40
0.0280786847
 40
0.0364298826
 40
0.0458313244
 40
0.0562618026
 40
0.0676984465
 40
0.0801152741
 40
0.1077765327
 40
0.1389968335
 40
0.1734946212
 40
0.2109585154
 40
0.2510502588
 40
0.2934074103
 40
0.3376470205
 40
0.3833691248
 40
0.4301599509
 40
0.4775961254
 40
0.5726853578
 40
0.6652009408
 40
0.7517989868
 40
0.7918891763
 40
0.829348952
 40
0.863839018
 40
0.8950471093
 40
0.9226906707
 40
0.9465199005
 40
0.9663201959
 40
0.9746526172
 40
0.9819148499
 40
0.9880909329
 40
0.993168787
 40
0.997139293
 40
1.0
 40
1.0
 40
1.0
 40
1.0
 10
2.4650958791
 20
4.7950745466
 30
0.0
 10
2.4650751489
 20
4.7950751908
 30
0.0
 10
2.4650424991
 20
4.7951002356
 30
0.0
 10
2.4650119293
 20
4.795145547
 30
0.0
 10
2.4649721033
 20
4.7952238528
 30
0.0
 10
2.4649261532
 20
4.7953591836
 30
0.0
 10
2.4648734559
 20
4.7955657207
 30
0.0
 10
2.464820635
 20
4.7958299561
 30
0.0
 10
2.4647673463
 20
4.7961518906
 30
0.0
 10
2.4647138972
 20
4.7965314733
 30
0.0
 10
2.4646378734
 20
4.79715184
 30
0.0
 10
2.4645452427
 20
4.798070177
 30
0.0
 10
2.4644388016
 20
4.7993420138
 30
0.0
 10
2.4643319933
 20
4.8008375287
 30
0.0
 10
2.4642248531
 20
4.8025533959
 30
0.0
 10
2.4641175267
 20
4.80448575
 30
0.0
 10
2.4640100464
 20
4.8066302626
 30
0.0
 10
2.4639024601
 20
4.8089820704
 30
0.0
 10
2.4637534823
 20
4.8125164279
 30
0.0
 10
2.4635696444
 20
4.8174090228
 30
0.0
 10
2.4633556051
 20
4.8238177729
 30
0.0
 10
2.4631411918
 20
4.8308999906
 30
0.0
 10
2.4629264796
 20
4.8385916505
 30
0.0
 10
2.4627115618
 20
4.8468231982
 30
0.0
 10
2.4624964887
 20
4.8555201757
 30
0.0
 10
2.4622813011
 20
4.8646038967
 30
0.0
 10
2.4620660283
 20
4.8739921561
 30
0.0
 10
2.4618506951
 20
4.8835999765
 30
0.0
 10
2.4615633088
 20
4.8965970478
 30
0.0
 10
2.4612088974
 20
4.9127333001
 30
0.0
 10
2.460784216
 20
4.9315578809
 30
0.0
 10
2.4604225816
 20
4.9466061627
 30
0.0
 10
2.4601281938
 20
4.9578742818
 30
0.0
 10
2.4599132832
 20
4.9655650162
 30
0.0
 10
2.4596986509
 20
4.9726455749
 30
0.0
 10
2.4594843839
 20
4.9790517327
 30
0.0
 10
2.4592707497
 20
4.9847253922
 30
0.0
 10
2.4590578847
 20
4.9896150739
 30
0.0
 10
2.4588728839
 20
4.9931785629
 30
0.0
 10
2.4587209261
 20
4.9956043815
 30
0.0
 10
2.4586139283
 20
4.997095569
 30
0.0
 10
2.4585073256
 20
4.9983626049
 30
0.0
 10
2.4584016881
 20
4.9994028563
 30
0.0
 10
2.4582969356
 20
5.0002138815
 30
0.0
 10
2.4582168677
 20
5.0006766458
 30
0.0
 10
2.4581721254
 20
5.0008679259
 30
0.0
  0
LINE
  5
326
100
AcDbEntity
  8
0
100
AcDbLine
 62
7
  6
CONTINUOUS
 10
2.4581721254
 20
5.0008679259
 11
2.4580383322
 21
5.0012619244
  0
SPLINE
  5
327
100
AcDbEntity
  8
0
100
AcDbSpline
 62
7
  6
CONTINUOUS
 70
0
 71
3
 72
51
 73
47
 74
0
 42
0.0000001
 43
0.0000001
 44
0.0000000001
 40
0.0
 40
0.0
 40
0.0
 40
0.0
 40
0.0006817212
 40
0.0016284057
 40
0.0028486282
 40
0.004345652
 40
0.0081737105
 40
0.0131136542
 40
0.0191576593
 40
0.0262943307
 40
0.0345082714
 40
0.0437817878
 40
0.0540940036
 40
0.0654219358
 40
0.0910198103
 40
0.120343205
 40
0.1531254543
 40
0.1890679553
 40
0.2278430121
 40
0.2690972539
 40
0.3124546414
 40
0.3575197533
 40
0.4038818794
 40
0.498799294
 40
0.5937552156
 40
0.640165645
 40
0.6852982924
 40
0.728742576
 40
0.7701031436
 40
0.8090037652
 40
0.8450910211
 40
0.8780371254
 40
0.9075430764
 40
0.9333417778
 40
0.9447768945
 40
0.9552004876
 40
0.9645897109
 40
0.9729233243
 40
0.9801836401
 40
0.9863549389
 40
0.9914255889
 40
0.9953872578
 40
0.9969517526
 40
0.998239683
 40
0.9992535774
 40
1.0
 40
1.0
 40
1.0
 40
1.0
 10
2.4208983591
 20
4.9907379569
 30
0.0
 10
2.4209205437
 20
4.9907021774
 30
0.0
 10
2.4209611455
 20
4.990609406
 30
0.0
 10
2.4210137037
 20
4.9904415438
 30
0.0
 10
2.4210667818
 20
4.9902214051
 30
0.0
 10
2.4211445598
 20
4.9898247187
 30
0.0
 10
2.4212375603
 20
4.9891973833
 30
0.0
 10
2.421343715
 20
4.9882888301
 30
0.0
 10
2.421450476
 20
4.9871748384
 30
0.0
 10
2.4215577985
 20
4.9858579773
 30
0.0
 10
2.4216654131
 20
4.9843411278
 30
0.0
 10
2.4217732384
 20
4.9826277628
 30
0.0
 10
2.4218812201
 20
4.9807217661
 30
0.0
 10
2.4220315251
 20
4.9778084939
 30
0.0
 10
2.4222165123
 20
4.9737214867
 30
0.0
 10
2.4224311992
 20
4.9683096824
 30
0.0
 10
2.4226463212
 20
4.9622586251
 30
0.0
 10
2.4228617834
 20
4.9556235706
 30
0.0
 10
2.4230774639
 20
4.94846509
 30
0.0
 10
2.4232933012
 20
4.9408485215
 30
0.0
 10
2.4235092449
 20
4.9328433726
 30
0.0
 10
2.4237252636
 20
4.9245226837
 30
0.0
 10
2.424015607
 20
4.9130188162
 30
0.0
 10
2.4243735651
 20
4.8984347201
 30
0.0
 10
2.4247314069
 20
4.8838476374
 30
0.0
 10
2.4250215875
 20
4.8723342314
 30
0.0
 10
2.4252375014
 20
4.8640010159
 30
0.0
 10
2.4254533112
 20
4.8559797548
 30
0.0
 10
2.4256689862
 20
4.8483434876
 30
0.0
 10
2.425884477
 20
4.8411617315
 30
0.0
 10
2.4260997235
 20
4.8344998441
 30
0.0
 10
2.426314608
 20
4.8284184283
 30
0.0
 10
2.4265290373
 20
4.8229727937
 30
0.0
 10
2.4267137183
 20
4.8188554489
 30
0.0
 10
2.426863707
 20
4.8159162279
 30
0.0
 10
2.4269715227
 20
4.8139895472
 30
0.0
 10
2.4270791763
 20
4.8122547166
 30
0.0
 10
2.4271866265
 20
4.8107156311
 30
0.0
 10
2.4272937869
 20
4.809375796
 30
0.0
 10
2.4274004204
 20
4.8082381266
 30
0.0
 10
2.4275064702
 20
4.8073052131
 30
0.0
 10
2.4275993184
 20
4.8066571891
 30
0.0
 10
2.4276767457
 20
4.8062435307
 30
0.0
 10
2.4277298161
 20
4.8060105979
 30
0.0
 10
2.427782423
 20
4.8058298363
 30
0.0
 10
2.4278227166
 20
4.805728313
 30
0.0
 10
2.4278445322
 20
4.8056877077
 30
0.0
  0
SPLINE
  5
328
100
AcDbEntity
  8
0
100
AcDbSpline
 62
7
  6
CONTINUOUS
 70
0
 71
3
 72
51
 73
47
 74
0
 42
0.0000001
 43
0.0000001
 44
0.0000000001
 40
0.0
 40
0.0
 40
0.0
 40
0.0
 40
0.0002951531
 40
0.0005127642
 40
0.0007901883
 40
0.0011316582
 40
0.0015393959
 40
0.0025581221
 40
0.0038520073
 40
0.0054228826
 40
0.0072712603
 40
0.0093970699
 40
0.0144783466
 40
0.0206577597
 40
0.0279232242
 40
0.0362587746
 40
0.0456464954
 40
0.0560650815
 40
0.0674915561
 40
0.0798998296
 40
0.1075483568
 40
0.1387609194
 40
0.1732549543
 40
0.2107181217
 40
0.250811203
 40
0.2931708893
 40
0.3374135088
 40
0.3831384515
 40
0.4299314657
 40
0.4773688903
 40
0.5724573789
 40
0.6649691122
 40
0.75156389
 40
0.7916544754
 40
0.8291171763
 40
0.8636137129
 40
0.8948328234
 40
0.9224929836
 40
0.946345401
 40
0.9661763911
 40
0.9745272312
 40
0.9818100478
 40
0.9880089481
 40
0.9931118968
 40
0.9971097721
 40
1.0
 40
1.0
 40
1.0
 40
1.0
 10
2.4544758791
 20
5.0012190448
 30
0.0
 10
2.4544961151
 20
5.0012196736
 30
0.0
 10
2.4545294473
 20
5.0011967775
 30
0.0
 10
2.4545600113
 20
5.0011530897
 30
0.0
 10
2.4545870349
 20
5.001101957
 30
0.0
 10
2.4546135707
 20
5.0010367749
 30
0.0
 10
2.4546522373
 20
5.0009217242
 30
0.0
 10
2.4546986989
 20
5.0007408338
 30
0.0
 10
2.4547517813
 20
5.0004797362
 30
0.0
 10
2.454805093
 20
5.0001608174
 30
0.0
 10
2.4548586558
 20
4.9997842253
 30
0.0
 10
2.4549348359
 20
4.9991677376
 30
0.0
 10
2.455027641
 20
4.998254116
 30
0.0
 10
2.4551342498
 20
4.9969877819
 30
0.0
 10
2.4552412268
 20
4.9954975812
 30
0.0
 10
2.4553485325
 20
4.993786852
 30
0.0
 10
2.45545602
 20
4.9918594742
 30
0.0
 10
2.4555636559
 20
4.9897197927
 30
0.0
 10
2.4556713919
 20
4.9873726874
 30
0.0
 10
2.4558205802
 20
4.9838443945
 30
0.0
 10
2.4560046495
 20
4.9789591919
 30
0.0
 10
2.4562189209
 20
4.9725591722
 30
0.0
 10
2.4564335409
 20
4.9654855998
 30
0.0
 10
2.4566484339
 20
4.9578026313
 30
0.0
 10
2.4568635058
 20
4.9495799362
 30
0.0
 10
2.457078706
 20
4.940892066
 30
0.0
 10
2.4572939934
 20
4.9318177739
 30
0.0
 10
2.4575093384
 20
4.9224393015
 30
0.0
 10
2.4577247164
 20
4.9128416296
 30
0.0
 10
2.4580121223
 20
4.8998586833
 30
0.0
 10
2.4583664918
 20
4.883740425
 30
0.0
 10
2.458791024
 20
4.8649371061
 30
0.0
 10
2.4591524405
 20
4.8499058496
 30
0.0
 10
2.4594465841
 20
4.8386501288
 30
0.0
 10
2.4596612933
 20
4.8309671868
 30
0.0
 10
2.4598756984
 20
4.8238930191
 30
0.0
 10
2.4600897133
 20
4.8174915708
 30
0.0
 10
2.4603030734
 20
4.8118206662
 30
0.0
 10
2.4605156433
 20
4.8069315236
 30
0.0
 10
2.4607003494
 20
4.8033669863
 30
0.0
 10
2.4608520222
 20
4.8009390397
 30
0.0
 10
2.4609588431
 20
4.7994452385
 30
0.0
 10
2.4610652662
 20
4.7981748758
 30
0.0
 10
2.4611707423
 20
4.79713058
 30
0.0
 10
2.4612753329
 20
4.7963147648
 30
0.0
 10
2.4613552211
 20
4.795848557
 30
0.0
 10
2.4613997447
 20
4.7956553692
 30
0.0
  0
LINE
  5
329
100
AcDbEntity
  8
0
100
AcDbLine
 62
7
  6
CONTINUOUS
 10
2.4613997447
 20
4.7956553692
 11
2.4615241507
 21
4.7952695736
  0
SPLINE
  5
32A
100
AcDbEntity
  8
0
100
AcDbSpline
 62
7
  6
CONTINUOUS
 70
0
 71
3
 72
50
 73
46
 74
0
 42
0.0000001
 43
0.0000001
 44
0.0000000001
 40
0.0
 40
0.0
 40
0.0
 40
0.0
 40
0.0003030268
 40
0.0005269933
 40
0.0008112518
 40
0.001574085
 40
0.0026066834
 40
0.0039140259
 40
0.005497859
 40
0.0073586601
 40
0.0094963436
 40
0.0145997172
 40
0.0207990443
 40
0.028082297
 40
0.0364335863
 40
0.0458350872
 40
0.0562655932
 40
0.067702235
 40
0.0801190436
 40
0.1077802327
 40
0.1390003831
 40
0.1734979409
 40
0.21096161
 40
0.2510530736
 40
0.2934098854
 40
0.3376491918
 40
0.3833709592
 40
0.4301614134
 40
0.4775972561
 40
0.5726857756
 40
0.6652007648
 40
0.7517982969
 40
0.7918882811
 40
0.8293478636
 40
0.863837827
 40
0.8950458401
 40
0.9226893573
 40
0.9465186226
 40
0.9663190162
 40
0.9746515175
 40
0.9819138581
 40
0.9880900854
 40
0.9931681328
 40
0.9971389041
 40
1.0
 40
1.0
 40
1.0
 40
1.0
 10
2.4508158791
 20
4.7955183241
 30
0.0
 10
2.4507951698
 20
4.7955189677
 30
0.0
 10
2.4507625336
 20
4.7955438654
 30
0.0
 10
2.4507319344
 20
4.7955890198
 30
0.0
 10
2.4506921152
 20
4.7956669805
 30
0.0
 10
2.4506461577
 20
4.7958017392
 30
0.0
 10
2.4505934605
 20
4.7960073983
 30
0.0
 10
2.4505406377
 20
4.7962705069
 30
0.0
 10
2.450487349
 20
4.7965910632
 30
0.0
 10
2.4504338998
 20
4.7969690187
 30
0.0
 10
2.4503578768
 20
4.7975867183
 30
0.0
 10
2.4502652463
 20
4.798501109
 30
0.0
 10
2.4501588054
 20
4.7997674817
 30
0.0
 10
2.4500519975
 20
4.801256568
 30
0.0
 10
2.4499448576
 20
4.8029650564
 30
0.0
 10
2.4498375316
 20
4.8048890985
 30
0.0
 10
2.4497300518
 20
4.8070243838
 30
0.0
 10
2.4496224659
 20
4.8093660707
 30
0.0
 10
2.4494734888
 20
4.8128852162
 30
0.0
 10
2.4492896516
 20
4.8177567533
 30
0.0
 10
2.4490756129
 20
4.8241379185
 30
0.0
 10
2.4488612002
 20
4.8311896513
 30
0.0
 10
2.4486464886
 20
4.8388482021
 30
0.0
 10
2.4484315713
 20
4.8470443162
 30
0.0
 10
2.4482164986
 20
4.8557038571
 30
0.0
 10
2.4480013114
 20
4.8647484777
 30
0.0
 10
2.4477860389
 20
4.8740963272
 30
0.0
 10
2.447570706
 20
4.8836627933
 30
0.0
 10
2.44728332
 20
4.8966039224
 30
0.0
 10
2.4469289088
 20
4.9126707294
 30
0.0
 10
2.4465042273
 20
4.9314142993
 30
0.0
 10
2.4461425927
 20
4.9463978267
 30
0.0
 10
2.4458482048
 20
4.9576174576
 30
0.0
 10
2.4456332938
 20
4.9652751028
 30
0.0
 10
2.4454186613
 20
4.9723251994
 30
0.0
 10
2.4452043937
 20
4.9787037988
 30
0.0
 10
2.444990759
 20
4.9843530515
 30
0.0
 10
2.4447778933
 20
4.9892217001
 30
0.0
 10
2.444592892
 20
4.9927698591
 30
0.0
 10
2.4444409339
 20
4.9951852384
 30
0.0
 10
2.4443339355
 20
4.9966700119
 30
0.0
 10
2.4442273323
 20
4.9979315983
 30
0.0
 10
2.4441216935
 20
4.9989673785
 30
0.0
 10
2.4440169399
 20
4.9997749206
 30
0.0
 10
2.4439368706
 20
5.0002356875
 30
0.0
 10
2.4438921316
 20
5.0004261292
 30
0.0
  0
LINE
  5
32B
100
AcDbEntity
  8
0
100
AcDbLine
 62
7
  6
CONTINUOUS
 10
2.4438921316
 20
5.0004261292
 11
2.4437586886
 21
5.0008178653
  0
SPLINE
  5
32C
100
AcDbEntity
  8
0
100
AcDbSpline
 62
7
  6
CONTINUOUS
 70
0
 71
3
 72
51
 73
47
 74
0
 42
0.0000001
 43
0.0000001
 44
0.0000000001
 40
0.0
 40
0.0
 40
0.0
 40
0.0
 40
0.0002961503
 40
0.0005140903
 40
0.0007917673
 40
0.001133438
 40
0.0015413399
 40
0.0025603189
 40
0.0038543915
 40
0.0054254111
 40
0.0072739022
 40
0.0093998019
 40
0.0144812073
 40
0.0206606972
 40
0.0279261987
 40
0.0362617558
 40
0.0456494597
 40
0.0560680109
 40
0.0674944361
 40
0.0799026411
 40
0.1075509725
 40
0.1387632952
 40
0.1732570597
 40
0.2107199039
 40
0.2508126349
 40
0.293171957
 40
0.3374141839
 40
0.3831387266
 40
0.4299313427
 40
0.4773683577
 40
0.5724560668
 40
0.664967111
 40
0.7515613567
 40
0.7916517502
 40
0.8291143156
 40
0.8636108093
 40
0.8948299435
 40
0.9224902091
 40
0.9463428583
 40
0.9661741879
 40
0.9745252468
 40
0.9818083232
 40
0.9880075338
 40
0.9931108548
 40
0.9971091851
 40
1.0
 40
1.0
 40
1.0
 40
1.0
 10
2.4401958791
 20
5.0007752672
 30
0.0
 10
2.4402160961
 20
5.0007758955
 30
0.0
 10
2.4402494098
 20
5.0007531477
 30
0.0
 10
2.4402800073
 20
5.0007096175
 30
0.0
 10
2.4403070301
 20
5.0006587085
 30
0.0
 10
2.4403335691
 20
5.000593807
 30
0.0
 10
2.4403722341
 20
5.000479262
 30
0.0
 10
2.4404186973
 20
5.0002991567
 30
0.0
 10
2.4404717805
 20
5.0000391873
 30
0.0
 10
2.4405250931
 20
4.9997216469
 30
0.0
 10
2.4405786562
 20
4.9993466827
 30
0.0
 10
2.4406548363
 20
4.9987328631
 30
0.0
 10
2.4407476417
 20
4.9978231892
 30
0.0
 10
2.4408542509
 20
4.9965623215
 30
0.0
 10
2.4409612283
 20
4.9950785525
 30
0.0
 10
2.4410685342
 20
4.9933752055
 30
0.0
 10
2.4411760219
 20
4.9914561434
 30
0.0
 10
2.441283658
 20
4.9893256916
 30
0.0
 10
2.4413913942
 20
4.9869887094
 30
0.0
 10
2.4415405826
 20
4.9834756349
 30
0.0
 10
2.4417246519
 20
4.9786115003
 30
0.0
 10
2.4419389234
 20
4.9722390766
 30
0.0
 10
2.4421535435
 20
4.9651960018
 30
0.0
 10
2.4423684365
 20
4.9575461565
 30
0.0
 10
2.4425835083
 20
4.94935891
 30
0.0
 10
2.4427987083
 20
4.9407084918
 30
0.0
 10
2.4430139955
 20
4.9316733155
 30
0.0
 10
2.4432293403
 20
4.9223352685
 30
0.0
 10
2.443444718
 20
4.912778965
 30
0.0
 10
2.4437321234
 20
4.8998519746
 30
0.0
 10
2.4440864921
 20
4.8838031785
 30
0.0
 10
2.4445110232
 20
4.8650808823
 30
0.0
 10
2.4448724384
 20
4.8501143864
 30
0.0
 10
2.4451665808
 20
4.8389071513
 30
0.0
 10
2.4453812892
 20
4.8312572931
 30
0.0
 10
2.4455956934
 20
4.8242135792
 30
0.0
 10
2.4458097074
 20
4.8178396788
 30
0.0
 10
2.4460230666
 20
4.8121931658
 30
0.0
 10
2.4462356357
 20
4.8073250373
 30
0.0
 10
2.4464203408
 20
4.8037758121
 30
0.0
 10
2.4465720125
 20
4.8013582891
 30
0.0
 10
2.446678833
 20
4.799870889
 30
0.0
 10
2.4467852558
 20
4.7986059619
 30
0.0
 10
2.4468907324
 20
4.7975661227
 30
0.0
 10
2.4469953235
 20
4.7967537756
 30
0.0
 10
2.447075212
 20
4.796289555
 30
0.0
 10
2.4471197312
 20
4.7960971998
 30
0.0
  0
LINE
  5
32D
100
AcDbEntity
  8
0
100
AcDbLine
 62
7
  6
CONTINUOUS
 10
2.4471197312
 20
4.7960971998
 11
2.4472437547
 21
4.7957137255
  0
SPLINE
  5
32E
100
AcDbEntity
  8
0
100
AcDbSpline
 62
7
  6
CONTINUOUS
 70
0
 71
3
 72
50
 73
46
 74
0
 42
0.0000001
 43
0.0000001
 44
0.0000000001
 40
0.0
 40
0.0
 40
0.0
 40
0.0
 40
0.0003040336
 40
0.0005283475
 40
0.0008128824
 40
0.0015761319
 40
0.0026090396
 40
0.0039166256
 40
0.0055006577
 40
0.0073616249
 40
0.009499449
 40
0.0146030454
 40
0.0208025343
 40
0.0280859001
 40
0.0364372634
 40
0.0458388062
 40
0.0562693287
 40
0.0677059656
 40
0.080122742
 40
0.1077837829
 40
0.1390037212
 40
0.1735010198
 40
0.2109643593
 40
0.2510554605
 40
0.2934118893
 40
0.3376507825
 40
0.383372128
 40
0.4301621603
 40
0.4775975886
 40
0.572685317
 40
0.6651996406
 40
0.7517966575
 40
0.7918864504
 40
0.8293458921
 40
0.8638357895
 40
0.8950437868
 40
0.9226873502
 40
0.9465167551
 40
0.9663173673
 40
0.9746500152
 40
0.9819125351
 40
0.9880889837
 40
0.9931673061
 40
0.9971384273
 40
1.0
 40
1.0
 40
1.0
 40
1.0
 10
2.4365358791
 20
4.7959621017
 30
0.0
 10
2.4365151906
 20
4.7959627446
 30
0.0
 10
2.4364825684
 20
4.7959874953
 30
0.0
 10
2.4364519396
 20
4.7960324925
 30
0.0
 10
2.4364121273
 20
4.796110108
 30
0.0
 10
2.4363661624
 20
4.7962442942
 30
0.0
 10
2.4363134654
 20
4.7964490749
 30
0.0
 10
2.4362606407
 20
4.796711056
 30
0.0
 10
2.4362073521
 20
4.7970302334
 30
0.0
 10
2.4361539028
 20
4.7974065611
 30
0.0
 10
2.4360778806
 20
4.7980215925
 30
0.0
 10
2.4359852506
 20
4.7989320354
 30
0.0
 10
2.43587881
 20
4.8001929413
 30
0.0
 10
2.4357720024
 20
4.8016755957
 30
0.0
 10
2.4356648631
 20
4.8033767016
 30
0.0
 10
2.4355575376
 20
4.8052924279
 30
0.0
 10
2.4354500582
 20
4.8074184834
 30
0.0
 10
2.4353424729
 20
4.8097500472
 30
0.0
 10
2.4351934965
 20
4.8132539737
 30
0.0
 10
2.4350096603
 20
4.8181044417
 30
0.0
 10
2.4347956225
 20
4.8244580097
 30
0.0
 10
2.4345812107
 20
4.8314792434
 30
0.0
 10
2.4343664999
 20
4.8391046696
 30
0.0
 10
2.4341515834
 20
4.8472653337
 30
0.0
 10
2.4339365115
 20
4.8558874211
 30
0.0
 10
2.4337213249
 20
4.8648929242
 30
0.0
 10
2.4335060531
 20
4.8742003463
 30
0.0
 10
2.4332907207
 20
4.8837254425
 30
0.0
 10
2.4330033353
 20
4.8966106138
 30
0.0
 10
2.4326489246
 20
4.9126079582
 30
0.0
 10
2.4322242437
 20
4.931270505
 30
0.0
 10
2.4318626094
 20
4.9461892725
 30
0.0
 10
2.4315682217
 20
4.9573604183
 30
0.0
 10
2.4313533108
 20
4.9649849804
 30
0.0
 10
2.4311386781
 20
4.9720046243
 30
0.0
 10
2.4309244104
 20
4.9783556772
 30
0.0
 10
2.4307107754
 20
4.9839805397
 30
0.0
 10
2.4304979093
 20
4.9888281758
 30
0.0
 10
2.4303129076
 20
4.9923610239
 30
0.0
 10
2.4301609495
 20
4.9947659809
 30
0.0
 10
2.4300539507
 20
4.9962443542
 30
0.0
 10
2.429947347
 20
4.9975005064
 30
0.0
 10
2.4298417069
 20
4.9985318314
 30
0.0
 10
2.4297369521
 20
4.999335907
 30
0.0
 10
2.4296568816
 20
4.9997946875
 30
0.0
 10
2.4296121464
 20
4.9999842966
 30
0.0
  0
LINE
  5
32F
100
AcDbEntity
  8
0
100
AcDbLine
 62
7
  6
CONTINUOUS
 10
2.4296121464
 20
4.9999842966
 11
2.4294790481
 21
5.0003738037
  0
SPLINE
  5
330
100
AcDbEntity
  8
0
100
AcDbSpline
 62
7
  6
CONTINUOUS
 70
0
 71
3
 72
51
 73
47
 74
0
 42
0.0000001
 43
0.0000001
 44
0.0000000001
 40
0.0
 40
0.0
 40
0.0
 40
0.0
 40
0.0002971577
 40
0.0005154311
 40
0.0007933649
 40
0.0011352403
 40
0.00154331
 40
0.0025625486
 40
0.0038568158
 40
0.0054279868
 40
0.0072765987
 40
0.0094025963
 40
0.0144841453
 40
0.0206637325
 40
0.0279292994
 40
0.0362648955
 40
0.0456526149
 40
0.0560711576
 40
0.0674975508
 40
0.0799057167
 40
0.1075539686
 40
0.1387661495
 40
0.1732597054
 40
0.2107223794
 40
0.2508148848
 40
0.2931739195
 40
0.3374159142
 40
0.3831401738
 40
0.4299324568
 40
0.4773691988
 40
0.5724562654
 40
0.6649667181
 40
0.7515604232
 40
0.7916505867
 40
0.8291129462
 40
0.863609308
 40
0.8948283499
 40
0.9224885774
 40
0.9463412701
 40
0.9661727322
 40
0.9745238994
 40
0.9818071191
 40
0.9880065159
 40
0.9931100792
 40
0.9971087321
 40
1.0
 40
1.0
 40
1.0
 40
1.0
 10
2.4259158791
 20
5.0003314897
 30
0.0
 10
2.4259360773
 20
5.0003321174
 30
0.0
 10
2.4259693722
 20
5.0003095175
 30
0.0
 10
2.4260000033
 20
5.0002661452
 30
0.0
 10
2.4260270254
 20
5.0002154596
 30
0.0
 10
2.4260535678
 20
5.0001508385
 30
0.0
 10
2.4260922311
 20
5.0000367988
 30
0.0
 10
2.4261386961
 20
4.9998574778
 30
0.0
 10
2.4261917803
 20
4.9995986357
 30
0.0
 10
2.4262450938
 20
4.9992824725
 30
0.0
 10
2.4262986573
 20
4.9989091348
 30
0.0
 10
2.4263748374
 20
4.9982979814
 30
0.0
 10
2.4264676434
 20
4.9973922523
 30
0.0
 10
2.4265742532
 20
4.9961368465
 30
0.0
 10
2.4266812311
 20
4.9946595034
 30
0.0
 10
2.4267885375
 20
4.992963532
 30
0.0
 10
2.4268960256
 20
4.9910527786
 30
0.0
 10
2.427003662
 20
4.9889315507
 30
0.0
 10
2.4271113984
 20
4.9866046858
 30
0.0
 10
2.4272605872
 20
4.9831068174
 30
0.0
 10
2.4274446571
 20
4.9782637324
 30
0.0
 10
2.4276589291
 20
4.9719188834
 30
0.0
 10
2.4278735498
 20
4.9649062823
 30
0.0
 10
2.4280884431
 20
4.9572895341
 30
0.0
 10
2.4283035153
 20
4.9491377086
 30
0.0
 10
2.4285187156
 20
4.9405247143
 30
0.0
 10
2.4287340031
 20
4.9315286262
 30
0.0
 10
2.4289493481
 20
4.9222309773
 30
0.0
 10
2.4291647259
 20
4.9127160167
 30
0.0
 10
2.4294521314
 20
4.8998449541
 30
0.0
 10
2.4298065001
 20
4.8838655885
 30
0.0
 10
2.4302310309
 20
4.8652242922
 30
0.0
 10
2.4305924458
 20
4.8503225477
 30
0.0
 10
2.4308865876
 20
4.839163802
 30
0.0
 10
2.4311012956
 20
4.8315470384
 30
0.0
 10
2.4313156994
 20
4.8245337946
 30
0.0
 10
2.4315297129
 20
4.8181874637
 30
0.0
 10
2.4317430717
 20
4.8125653713
 30
0.0
 10
2.4319556402
 20
4.8077182925
 30
0.0
 10
2.4321403449
 20
4.8041844134
 30
0.0
 10
2.4322920158
 20
4.8017773433
 30
0.0
 10
2.4323988361
 20
4.8002963684
 30
0.0
 10
2.4325052587
 20
4.7990369024
 30
0.0
 10
2.4326107359
 20
4.7980015469
 30
0.0
 10
2.4327153275
 20
4.7971926958
 30
0.0
 10
2.4327952166
 20
4.7967304813
 30
0.0
 10
2.4328397319
 20
4.7965389688
 30
0.0
  0
LINE
  5
331
100
AcDbEntity
  8
0
100
AcDbLine
 62
7
  6
CONTINUOUS
 10
2.4328397319
 20
4.7965389688
 11
2.4329633552
 21
4.7961578806
  0
ENDSEC
  0
SECTION
  2
OBJECTS
  0
DICTIONARY
  5
C
100
AcDbDictionary
280
0
281
1
  3
ACAD_GROUP
350
D
  3
ACAD_MLINESTYLE
350
17
  3
ACAD_LAYOUT
350
1A
  3
ACAD_PLOTSETTINGS
350
19
  3
ACAD_PLOTSTYLENAME
350
E
  0
DICTIONARY
  5
D
102
{ACAD_REACTORS
330
C
102
}
100
AcDbDictionary
280
0
281
1
  0
ACDBDICTIONARYWDFLT
  5
E
102
{ACAD_REACTORS
330
C
102
}
100
AcDbDictionary
281
1
  3
Normal
350
F
100
AcDbDictionaryWithDefault
340
F
  0
DICTIONARY
  5
17
102
{ACAD_REACTORS
330
C
102
}
100
AcDbDictionary
280
0
281
1
  3
Standard
350
18
  0
DICTIONARY
  5
19
102
{ACAD_REACTORS
330
C
102
}
100
AcDbDictionary
281
1
  0
DICTIONARY
  5
1A
102
{ACAD_REACTORS
330
C
102
}
100
AcDbDictionary
281
1
  3
Model
350
332
  3
Layout1
350
333
  0
ACDBPLACEHOLDER
  5
F
102
{ACAD_REACTORS
330
E
102
}
  0
MLINESTYLE
  5
18
102
{ACAD_REACTORS
330
17
102
}
100
AcDbMlineStyle
  2
STANDARD
 70
0
  3

 62
256
 51
90.0
 52
90.0
 71
2
 49
0.5
 62
256
  6
BYLAYER
 49
-0.5
 62
256
  6
BYLAYER
  0
LAYOUT
  5
332
102
{ACAD_REACTORS
330
1A
102
}
100
AcDbPlotSettings
  1

  2
none_device
  4
ANSI_A_(11.00_x_8.50_Inches)
  6

 40
0.0
 41
0.0
 42
0.0
 43
0.0
 44
279.4
 45
215.9
 46
0.0
 47
0.0
 48
0.0
 49
0.0
140
0.0
141
0.0
142
1.0
143
1.0
 70
1024
 72
0
 73
0
 74
0
  7

 75
0
147
1.0
148
0.0
149
0.0
100
AcDbLayout
  1
Model
 70
0
 71
0
 10
0.0
 20
0.0
 11
11.0
 21
8.5
 12
0.0
 22
0.0
 32
0.0
 14
0.0
 24
0.0
 34
0.0
 15
0.0
 25
0.0
 35
0.0
146
0.0
 13
0.0
 23
0.0
 33
0.0
 16
1.0
 26
0.0
 36
0.0
 17
0.0
 27
1.0
 37
0.0
 76
0
330
203
345
0
346
0
  0
LAYOUT
  5
333
102
{ACAD_REACTORS
330
1A
102
}
100
AcDbPlotSettings
  1

  2
none_device
  4
ANSI_A_(11.00_x_8.50_Inches)
  6

 40
0.0
 41
0.0
 42
0.0
 43
0.0
 44
279.4
 45
215.9
 46
0.0
 47
0.0
 48
0.0
 49
0.0
140
0.0
141
0.0
142
1.0
143
1.0
 70
0
 72
0
 73
0
 74
0
  7

 75
0
147
1.0
148
0.0
149
0.0
100
AcDbLayout
  1
Layout1
 70
0
 71
1
 10
0.0
 20
0.0
 11
11.0
 21
8.5
 12
0.0
 22
0.0
 32
0.0
 14
0.0
 24
0.0
 34
0.0
 15
0.0
 25
0.0
 35
0.0
146
0.0
 13
0.0
 23
0.0
 33
0.0
 16
1.0
 26
0.0
 36
0.0
 17
0.0
 27
1.0
 37
0.0
 76
0
330
204
345
0
346
0
  0
ENDSEC
  0
EOF
